  0
SECTION
  2
HEADER
  9
$ACADVER
  1
AC1015
  9
$DWGCODEPAGE
  3
ANSI_1252
  9
$EXTMAX
 10
297.0
 20
210.0
 30
0.0
  9
$EXTMIN
 10
0.0
 20
0.0
 30
0.0
  9
$LIMMIN
 10
0.0
 20
0.0
  9
$LIMMAX
 10
297.0
 20
210.0
  9
$VIEWCTR
 10
148.5
 20
105.0
  9
$VIEWSIZE
 40
210.0
  9
$CLAYER
  8
0
  9
$LTSCALE
 40
16.335
  9
$CELTYPE
  6
BYLAYER
  9
$DIMSCALE
 40
1.0
  9
$DIMASZ
 40
3.0
  9
$DIMEXO
 40
0.5
  9
$DIMDLI
 40
11.286
  9
$DIMEXE
 40
1.5
  9
$DIMCEN
 40
2.673
  9
$DIMLFAC
 40
1.0
  9
$DIMBLK
  1
_FILLED
  9
$DIMTXT
 40
3.0
  9
$DIMTOL
 70
1
  9
$DIMLIM
 70
0
  9
$DIMTFAC
 40
1.0
  9
$DIMTP
 40
0.01
  9
$DIMTM
 40
0.01
  9
$DIMGAP
 40
0.625
  9
$DIMDSEP
 70
44
  9
$PDMODE
 70
3
  9
$PDSIZE
 40
3.0
  9
$HANDSEED
  5
3C1
  9
$TILEMODE
 70
1
  9
$MEASUREMENT
 70
1
  9
$INSUNITS
 70
4
  0
ENDSEC
  0
SECTION
  2
CLASSES
  0
CLASS
  1
ACDBDICTIONARYWDFLT
  2
AcDbDictionaryWithDefault
  3
AutoCAD 2000
 90
0
280
0
281
0
  0
CLASS
  1
ACDBPLACEHOLDER
  2
AcDbPlaceHolder
  3
AutoCAD 2000
 90
0
280
0
281
0
  0
CLASS
  1
LAYOUT
  2
AcDbLayout
  3
AutoCAD 2000
 90
0
280
0
281
0
  0
ENDSEC
  0
SECTION
  2
TABLES
  0
TABLE
  2
VPORT
  5
8
100
AcDbSymbolTable
 70
2
  0
VPORT
  5
1F4
100
AcDbSymbolTableRecord
100
AcDbViewportTableRecord
  2
*ACTIVE
 70
0
 10
0.0
 20
0.0
 11
1.0
 21
1.0
 12
148.5
 22
105.0
 13
0.0
 23
0.0
 14
1.0
 24
1.0
 15
0.0
 25
0.0
 16
0.0
 26
0.0
 36
1.0
 17
0.0
 27
0.0
 37
0.0
 40
210.0
 41
1.4142857143
 42
50.0
 43
0.0
 44
0.0
 50
0.0
 51
0.0
 71
0
 72
100
 73
1
 74
1
 75
0
 76
0
 77
0
 78
0
  0
ENDTAB
  0
TABLE
  2
LTYPE
  5
5
100
AcDbSymbolTable
 70
6
  0
LTYPE
  5
14
100
AcDbSymbolTableRecord
100
AcDbLinetypeTableRecord
  2
BYBLOCK
 70
0
  3

 72
65
 73
0
 40
0.0
  0
LTYPE
  5
15
100
AcDbSymbolTableRecord
100
AcDbLinetypeTableRecord
  2
BYLAYER
 70
0
  3

 72
65
 73
0
 40
0.0
  0
LTYPE
  5
16
100
AcDbSymbolTableRecord
100
AcDbLinetypeTableRecord
  2
CONTINUOUS
 70
64
  3
Solid line
 72
65
 73
0
 40
0.0
  0
LTYPE
  5
1F5
100
AcDbSymbolTableRecord
100
AcDbLinetypeTableRecord
  2
CENTER
 70
64
  3
____ _ ____ _ ____ _ ____ _ ____ _ ____ _ ____
 72
65
 73
4
 40
0.6
 49
0.375
 74
0
 49
-0.075
 74
0
 49
0.075
 74
0
 49
-0.075
 74
0
  0
LTYPE
  5
1F6
100
AcDbSymbolTableRecord
100
AcDbLinetypeTableRecord
  2
HIDDEN
 70
64
  3
- - - - - - - - - - - - - - - - - - - -
 72
65
 73
2
 40
0.2
 49
0.1
 74
0
 49
-0.1
 74
0
  0
LTYPE
  5
1F7
100
AcDbSymbolTableRecord
100
AcDbLinetypeTableRecord
  2
PHANTOM
 70
64
  3
_____ _ _ _____ _ _ _____ _ _ _____
 72
65
 73
6
 40
0.8
 49
0.45
 74
0
 49
-0.05
 74
0
 49
0.1
 74
0
 49
-0.05
 74
0
 49
0.1
 74
0
 49
-0.05
 74
0
  0
LTYPE
  5
1F8
100
AcDbSymbolTableRecord
100
AcDbLinetypeTableRecord
  2
DOT
 70
64
  3
. . . . . . . . . . . . . . . . . . . .
 72
65
 73
2
 40
0.2
 49
0.1
 74
0
 49
-0.1
 74
0
  0
LTYPE
  5
1F9
100
AcDbSymbolTableRecord
100
AcDbLinetypeTableRecord
  2
DASHED
 70
64
  3
- - - - - - - - - - - - - - - - - - - -
 72
65
 73
2
 40
0.2
 49
0.1
 74
0
 49
-0.1
 74
0
  0
ENDTAB
  0
TABLE
  2
LAYER
  5
2
100
AcDbSymbolTable
 70
36
  0
LAYER
  5
10
100
AcDbSymbolTableRecord
100
AcDbLayerTableRecord
  2
0
 70
0
 62
7
  6
CONTINUOUS
370
-3
390
F
  0
LAYER
  5
1FA
100
AcDbSymbolTableRecord
100
AcDbLayerTableRecord
  2
DEFAULT_1
 70
0
 62
7
  6
CENTER
370
-3
390
F
  0
LAYER
  5
1FB
100
AcDbSymbolTableRecord
100
AcDbLayerTableRecord
  2
DEFAULT_2
 70
0
 62
7
  6
HIDDEN
370
-3
390
F
  0
LAYER
  5
1FC
100
AcDbSymbolTableRecord
100
AcDbLayerTableRecord
  2
DEFAULT_3
 70
0
 62
7
  6
PHANTOM
370
-3
390
F
  0
LAYER
  5
1FD
100
AcDbSymbolTableRecord
100
AcDbLayerTableRecord
  2
1608-CC-RF-VIMAR_80000
 70
0
 62
7
  6
CONTINUOUS
370
-3
390
F
  0
LAYER
  5
1FE
100
AcDbSymbolTableRecord
100
AcDbLayerTableRecord
  2
1608-CC-RF-VIMAR_80000_1
 70
0
 62
7
  6
CONTINUOUS
370
-3
390
F
  0
LAYER
  5
1FF
100
AcDbSymbolTableRecord
100
AcDbLayerTableRecord
  2
1608-CC-RF-VIMAR_80000_2
 70
0
 62
7
  6
CONTINUOUS
370
-3
390
F
  0
LAYER
  5
200
100
AcDbSymbolTableRecord
100
AcDbLayerTableRecord
  2
1608-CC-RF-VIMAR_80000_3
 70
0
 62
7
  6
CONTINUOUS
370
-3
390
F
  0
LAYER
  5
201
100
AcDbSymbolTableRecord
100
AcDbLayerTableRecord
  2
1608-R-RF-VIMAR_45000
 70
0
 62
7
  6
CONTINUOUS
370
-3
390
F
  0
LAYER
  5
202
100
AcDbSymbolTableRecord
100
AcDbLayerTableRecord
  2
1608-R-RF-VIMAR_45000_1
 70
0
 62
7
  6
CONTINUOUS
370
-3
390
F
  0
LAYER
  5
203
100
AcDbSymbolTableRecord
100
AcDbLayerTableRecord
  2
1608-R-RF-VIMAR_45000_2
 70
0
 62
7
  6
CONTINUOUS
370
-3
390
F
  0
LAYER
  5
204
100
AcDbSymbolTableRecord
100
AcDbLayerTableRecord
  2
1608-R-RF-VIMAR_45000_3
 70
0
 62
7
  6
CONTINUOUS
370
-3
390
F
  0
LAYER
  5
205
100
AcDbSymbolTableRecord
100
AcDbLayerTableRecord
  2
1608-R-RF-VIMAR_45000_4
 70
0
 62
7
  6
CONTINUOUS
370
-3
390
F
  0
LAYER
  5
206
100
AcDbSymbolTableRecord
100
AcDbLayerTableRecord
  2
1608-R-RF-VIMAR_45000_5
 70
0
 62
7
  6
CONTINUOUS
370
-3
390
F
  0
LAYER
  5
207
100
AcDbSymbolTableRecord
100
AcDbLayerTableRecord
  2
1608-R-RF-VIMAR_45000_6
 70
0
 62
7
  6
CONTINUOUS
370
-3
390
F
  0
LAYER
  5
208
100
AcDbSymbolTableRecord
100
AcDbLayerTableRecord
  2
1608-R-RF-VIMAR_45000_7
 70
0
 62
7
  6
CONTINUOUS
370
-3
390
F
  0
LAYER
  5
209
100
AcDbSymbolTableRecord
100
AcDbLayerTableRecord
  2
200A_170000
 70
0
 62
7
  6
CONTINUOUS
370
-3
390
F
  0
LAYER
  5
20A
100
AcDbSymbolTableRecord
100
AcDbLayerTableRecord
  2
200A_170000_1
 70
0
 62
7
  6
CONTINUOUS
370
-3
390
F
  0
LAYER
  5
20B
100
AcDbSymbolTableRecord
100
AcDbLayerTableRecord
  2
210_120000
 70
0
 62
7
  6
CONTINUOUS
370
-3
390
F
  0
LAYER
  5
20C
100
AcDbSymbolTableRecord
100
AcDbLayerTableRecord
  2
210_120000_1
 70
0
 62
7
  6
CONTINUOUS
370
-3
390
F
  0
LAYER
  5
20D
100
AcDbSymbolTableRecord
100
AcDbLayerTableRecord
  2
210_120000_2
 70
0
 62
7
  6
CONTINUOUS
370
-3
390
F
  0
LAYER
  5
20E
100
AcDbSymbolTableRecord
100
AcDbLayerTableRecord
  2
3216-CS2-RF_1_180000
 70
0
 62
7
  6
CONTINUOUS
370
-3
390
F
  0
LAYER
  5
20F
100
AcDbSymbolTableRecord
100
AcDbLayerTableRecord
  2
3528-CS-RF_190000
 70
0
 62
7
  6
CONTINUOUS
370
-3
390
F
  0
LAYER
  5
210
100
AcDbSymbolTableRecord
100
AcDbLayerTableRecord
  2
43000611A0
 70
0
 62
7
  6
CONTINUOUS
370
-3
390
F
  0
LAYER
  5
211
100
AcDbSymbolTableRecord
100
AcDbLayerTableRecord
  2
43900611A0
 70
0
 62
7
  6
CONTINUOUS
370
-3
390
F
  0
LAYER
  5
212
100
AcDbSymbolTableRecord
100
AcDbLayerTableRecord
  2
ASSI
 70
0
 62
7
  6
CONTINUOUS
370
-3
390
F
  0
LAYER
  5
213
100
AcDbSymbolTableRecord
100
AcDbLayerTableRecord
  2
BZ-8_5X8-5XH3_0_320000
 70
0
 62
7
  6
CONTINUOUS
370
-3
390
F
  0
LAYER
  5
214
100
AcDbSymbolTableRecord
100
AcDbLayerTableRecord
  2
CN-PTSM_0_5_4-2_5H_SMD_R24-VIMA
 70
0
 62
7
  6
CONTINUOUS
370
-3
390
F
  0
LAYER
  5
215
100
AcDbSymbolTableRecord
100
AcDbLayerTableRecord
  2
CN-SMD-03S-SPRING-P2_5-H7_2-VIM
 70
0
 62
7
  6
CONTINUOUS
370
-3
390
F
  0
LAYER
  5
216
100
AcDbSymbolTableRecord
100
AcDbLayerTableRecord
  2
CN-SMD-03S-SPRING-P2_5-H7_2-V_1
 70
0
 62
7
  6
CONTINUOUS
370
-3
390
F
  0
LAYER
  5
217
100
AcDbSymbolTableRecord
100
AcDbLayerTableRecord
  2
CN-SMD-04S-SPRING-P2_5-H7_2-VIM
 70
0
 62
7
  6
CONTINUOUS
370
-3
390
F
  0
LAYER
  5
218
100
AcDbSymbolTableRecord
100
AcDbLayerTableRecord
  2
CN-SMD-04S-SPRING-P2_5-H7_2-V_1
 70
0
 62
7
  6
CONTINUOUS
370
-3
390
F
  0
LAYER
  5
219
100
AcDbSymbolTableRecord
100
AcDbLayerTableRecord
  2
CN1-REF_SQUAREHOLE12_SPEA-VIMAR
 70
0
 62
7
  6
CONTINUOUS
370
-3
390
F
  0
LAYER
  5
21A
100
AcDbSymbolTableRecord
100
AcDbLayerTableRecord
  2
CN1-REF_SQUAREHOLE12_SPEA-VIM_1
 70
0
 62
7
  6
CONTINUOUS
370
-3
390
F
  0
LAYER
  5
21B
100
AcDbSymbolTableRecord
100
AcDbLayerTableRecord
  2
CN1-REF_SQUAREHOLE12_SPEA-VIM_2
 70
0
 62
7
  6
CONTINUOUS
370
-3
390
F
  0
LAYER
  5
21C
100
AcDbSymbolTableRecord
100
AcDbLayerTableRecord
  2
CN1-REF_SQUAREHOLE12_SPEA-VIM_3
 70
0
 62
7
  6
CONTINUOUS
370
-3
390
F
  0
LAYER
  5
21D
100
AcDbSymbolTableRecord
100
AcDbLayerTableRecord
  2
COLOR6
 70
0
 62
7
  6
CONTINUOUS
370
-3
390
F
  0
LAYER
  5
21E
100
AcDbSymbolTableRecord
100
AcDbLayerTableRecord
  2
COORDINATE
 70
0
 62
7
  6
CONTINUOUS
370
-3
390
F
  0
LAYER
  5
21F
100
AcDbSymbolTableRecord
100
AcDbLayerTableRecord
  2
COPY_PUBLISH
 70
0
 62
7
  6
CONTINUOUS
370
-3
390
F
  0
LAYER
  5
220
100
AcDbSymbolTableRecord
100
AcDbLayerTableRecord
  2
COSMETICI
 70
0
 62
7
  6
CONTINUOUS
370
-3
390
F
  0
LAYER
  5
221
100
AcDbSymbolTableRecord
100
AcDbLayerTableRecord
  2
CURVE
 70
0
 62
7
  6
CONTINUOUS
370
-3
390
F
  0
LAYER
  5
222
100
AcDbSymbolTableRecord
100
AcDbLayerTableRecord
  2
DRAFT
 70
0
 62
7
  6
CONTINUOUS
370
-3
390
F
  0
LAYER
  5
223
100
AcDbSymbolTableRecord
100
AcDbLayerTableRecord
  2
E2_MARK_10000
 70
0
 62
7
  6
CONTINUOUS
370
-3
390
F
  0
LAYER
  5
224
100
AcDbSymbolTableRecord
100
AcDbLayerTableRecord
  2
IMPORT_IGES
 70
0
 62
7
  6
CONTINUOUS
370
-3
390
F
  0
LAYER
  5
225
100
AcDbSymbolTableRecord
100
AcDbLayerTableRecord
  2
INTF_BLANK
 70
0
 62
7
  6
CONTINUOUS
370
-3
390
F
  0
LAYER
  5
226
100
AcDbSymbolTableRecord
100
AcDbLayerTableRecord
  2
MM5-FMT-RF_120000
 70
0
 62
7
  6
CONTINUOUS
370
-3
390
F
  0
LAYER
  5
227
100
AcDbSymbolTableRecord
100
AcDbLayerTableRecord
  2
NOTE
 70
0
 62
7
  6
CONTINUOUS
370
-3
390
F
  0
LAYER
  5
228
100
AcDbSymbolTableRecord
100
AcDbLayerTableRecord
  2
PIANI
 70
0
 62
7
  6
CONTINUOUS
370
-3
390
F
  0
LAYER
  5
229
100
AcDbSymbolTableRecord
100
AcDbLayerTableRecord
  2
PUNTI
 70
0
 62
7
  6
CONTINUOUS
370
-3
390
F
  0
LAYER
  5
22A
100
AcDbSymbolTableRecord
100
AcDbLayerTableRecord
  2
RACCORDO
 70
0
 62
7
  6
CONTINUOUS
370
-3
390
F
  0
LAYER
  5
22B
100
AcDbSymbolTableRecord
100
AcDbLayerTableRecord
  2
SIMBOLI
 70
0
 62
7
  6
CONTINUOUS
370
-3
390
F
  0
LAYER
  5
22C
100
AcDbSymbolTableRecord
100
AcDbLayerTableRecord
  2
SMUSSO
 70
0
 62
7
  6
CONTINUOUS
370
-3
390
F
  0
LAYER
  5
22D
100
AcDbSymbolTableRecord
100
AcDbLayerTableRecord
  2
SNAPLINE
 70
0
 62
7
  6
CONTINUOUS
370
-3
390
F
  0
LAYER
  5
22E
100
AcDbSymbolTableRecord
100
AcDbLayerTableRecord
  2
SODFL1608X70N_70000
 70
0
 62
7
  6
CONTINUOUS
370
-3
390
F
  0
LAYER
  5
22F
100
AcDbSymbolTableRecord
100
AcDbLayerTableRecord
  2
SODFL1608X70N_70000_1
 70
0
 62
7
  6
CONTINUOUS
370
-3
390
F
  0
LAYER
  5
230
100
AcDbSymbolTableRecord
100
AcDbLayerTableRecord
  2
SODFL1608X70N_70000_2
 70
0
 62
7
  6
CONTINUOUS
370
-3
390
F
  0
LAYER
  5
231
100
AcDbSymbolTableRecord
100
AcDbLayerTableRecord
  2
SODFL1608X70N_70000_3
 70
0
 62
7
  6
CONTINUOUS
370
-3
390
F
  0
LAYER
  5
232
100
AcDbSymbolTableRecord
100
AcDbLayerTableRecord
  2
SODFL1608X70N_70000_4
 70
0
 62
7
  6
CONTINUOUS
370
-3
390
F
  0
LAYER
  5
233
100
AcDbSymbolTableRecord
100
AcDbLayerTableRecord
  2
SOP8-T1-RF-VIMAR_150000
 70
0
 62
7
  6
CONTINUOUS
370
-3
390
F
  0
LAYER
  5
234
100
AcDbSymbolTableRecord
100
AcDbLayerTableRecord
  2
SUPERFICI
 70
0
 62
7
  6
CONTINUOUS
370
-3
390
F
  0
LAYER
  5
235
100
AcDbSymbolTableRecord
100
AcDbLayerTableRecord
  2
TRASH
 70
0
 62
7
  6
CONTINUOUS
370
-3
390
F
  0
LAYER
  5
236
100
AcDbSymbolTableRecord
100
AcDbLayerTableRecord
  2
___SHELL
 70
0
 62
7
  6
CONTINUOUS
370
-3
390
F
  0
ENDTAB
  0
TABLE
  2
STYLE
  5
3
100
AcDbSymbolTable
 70
1
  0
STYLE
  5
11
100
AcDbSymbolTableRecord
100
AcDbTextStyleTableRecord
  2
STANDARD
 70
0
 40
0.0
 41
0.8
 50
0.0
 71
0
 42
0.2
  3
txt
  4

  0
STYLE
  5
237
100
AcDbSymbolTableRecord
100
AcDbTextStyleTableRecord
  2
TEXTSTYLE_1
 70
0
 40
0.0
 41
0.8
 50
0.0
 71
0
 42
0.2
  3
gdt
  4

  0
ENDTAB
  0
TABLE
  2
VIEW
  5
6
100
AcDbSymbolTable
 70
0
  0
ENDTAB
  0
TABLE
  2
UCS
  5
7
100
AcDbSymbolTable
 70
0
  0
ENDTAB
  0
TABLE
  2
APPID
  5
9
100
AcDbSymbolTable
 70
1
  0
APPID
  5
238
100
AcDbSymbolTableRecord
100
AcDbRegAppTableRecord
  2
ACAD
 70
0
  0
ENDTAB
  0
TABLE
  2
BLOCK_RECORD
  5
1
100
AcDbSymbolTable
 70
0
  0
BLOCK_RECORD
  5
239
100
AcDbSymbolTableRecord
100
AcDbBlockTableRecord
  2
*Model_Space
  0
BLOCK_RECORD
  5
23A
100
AcDbSymbolTableRecord
100
AcDbBlockTableRecord
  2
*Paper_Space
  0
ENDTAB
  0
TABLE
  2
DIMSTYLE
  5
A
100
AcDbSymbolTable
 70
1
100
AcDbDimStyleTable
 71
0
  0
DIMSTYLE
105
23B
100
AcDbSymbolTableRecord
100
AcDbDimStyleTableRecord
  2
STANDARD
 70
0
  3

  4

 40
1.0
 41
3.0
 42
0.5
 43
0.38
 44
1.5
 45
0.0
 46
0.0
 47
0.01
 48
0.01
140
3.0
141
0.09
142
0.0
143
25.4
144
1.0
145
0.0
146
1.0
147
0.625
 71
1.0
 72
0.0
 73
0
 74
0
 75
0
 76
0
 77
1
 78
8
170
0
171
2
172
0
173
0
174
0
175
0
176
0
177
0
178
0
270
2
271
2
272
2
273
2
274
2
275
0
280
0
281
0
282
0
283
1
284
8
285
0
286
0
287
3
288
0
340
11
278
44
  0
ENDTAB
  0
ENDSEC
  0
SECTION
  2
BLOCKS
  0
BLOCK
  5
20
100
AcDbEntity
  8
0
100
AcDbBlockBegin
  2
*Model_Space
 70
0
 10
0.0
 20
0.0
 30
0.0
  3
*Model_Space
  1

  0
ENDBLK
  5
21
100
AcDbEntity
  8
0
100
AcDbBlockEnd
  0
BLOCK
  5
1C
100
AcDbEntity
  8
0
100
AcDbBlockBegin
  2
*Paper_Space
 70
0
 10
0.0
 20
0.0
 30
0.0
  3
*Paper_Space
  1

  0
ENDBLK
  5
1D
100
AcDbEntity
  8
0
100
AcDbBlockEnd
  0
ENDSEC
  0
SECTION
  2
ENTITIES
  0
LINE
  5
23C
100
AcDbEntity
  8
0
100
AcDbLine
 62
7
  6
CONTINUOUS
 10
139.1486345752
 20
107.8242843981
 11
138.0172637253
 21
107.1710450488
  0
LINE
  5
23D
100
AcDbEntity
  8
IMPORT_IGES
100
AcDbLine
 62
7
  6
CONTINUOUS
 10
137.62939258
 20
106.0057004624
 11
138.47792258
 21
106.4956310498
  0
LINE
  5
23E
100
AcDbEntity
  8
0
100
AcDbLine
 62
7
  6
CONTINUOUS
 10
139.9638520002
 20
107.353588074
 11
140.1749807174
 21
107.4754911492
  0
LINE
  5
23F
100
AcDbEntity
  8
0
100
AcDbLine
 62
7
  6
CONTINUOUS
 10
141.3749833515
 20
106.7826246678
 11
141.1638546343
 21
106.6607215926
  0
LINE
  5
240
100
AcDbEntity
  8
IMPORT_IGES
100
AcDbLine
 62
7
  6
CONTINUOUS
 10
139.6779252141
 20
105.8027645684
 11
138.8293952141
 21
105.312833981
  0
LINE
  5
241
100
AcDbEntity
  8
IMPORT_IGES
100
AcDbLine
 62
7
  6
CONTINUOUS
 10
138.8293952141
 20
103.9272349331
 11
139.6779252141
 21
104.4171655205
  0
LINE
  5
242
100
AcDbEntity
  8
IMPORT_IGES
100
AcDbLine
 62
7
  6
CONTINUOUS
 10
138.6536598283
 20
103.6600374204
 11
139.9971627126
 21
104.4357591477
  0
LINE
  5
243
100
AcDbEntity
  8
IMPORT_IGES
100
AcDbLine
 62
7
  6
CONTINUOUS
 10
137.1687355878
 20
91.2904929995
 11
137.1687355878
 21
97.4140200755
  0
LINE
  5
244
100
AcDbEntity
  8
IMPORT_IGES
100
AcDbLine
 62
7
  6
CONTINUOUS
 10
137.62939258
 20
104.6201014144
 11
137.62939258
 21
106.0057004624
  0
LINE
  5
245
100
AcDbEntity
  8
0
100
AcDbLine
 62
7
  6
CONTINUOUS
 10
138.0172637253
 20
107.1710450488
 11
138.0172637253
 21
106.2296524005
  0
LINE
  5
246
100
AcDbEntity
  8
0
100
AcDbLine
 62
7
  6
CONTINUOUS
 10
138.0172637253
 20
104.3961494763
 11
138.0172637253
 21
97.9038706776
  0
LINE
  5
247
100
AcDbEntity
  8
IMPORT_IGES
100
AcDbLine
 62
7
  6
CONTINUOUS
 10
138.6536598283
 20
101.3739206454
 11
138.6536598283
 21
103.6600374204
  0
LINE
  5
248
100
AcDbEntity
  8
IMPORT_IGES
100
AcDbLine
 62
7
  6
CONTINUOUS
 10
139.5021879658
 20
100.3124698306
 11
139.9971080457
 21
100.598230482
  0
LINE
  5
249
100
AcDbEntity
  8
IMPORT_IGES
100
AcDbLine
 62
7
  6
CONTINUOUS
 10
138.8293952141
 20
105.312833981
 11
138.8293952141
 21
103.9272349331
  0
LINE
  5
24A
100
AcDbEntity
  8
IMPORT_IGES
100
AcDbLine
 62
7
  6
CONTINUOUS
 10
139.5021879658
 20
99.0061173878
 11
139.5021879658
 21
100.3124698306
  0
LINE
  5
24B
100
AcDbEntity
  8
IMPORT_IGES
100
AcDbLine
 62
7
  6
CONTINUOUS
 10
139.6779252141
 20
104.4171655205
 11
139.6779252141
 21
105.8027645684
  0
LINE
  5
24C
100
AcDbEntity
  8
IMPORT_IGES
100
AcDbLine
 62
7
  6
CONTINUOUS
 10
143.815539331
 20
102.2310763438
 11
142.4720364467
 21
101.4553546164
  0
LINE
  5
24D
100
AcDbEntity
  8
IMPORT_IGES
100
AcDbLine
 62
7
  6
CONTINUOUS
 10
137.1687355878
 20
97.4140200755
 11
139.7142379999
 21
98.8836823557
  0
LINE
  5
24E
100
AcDbEntity
  8
IMPORT_IGES
100
AcDbLine
 62
7
  6
CONTINUOUS
 10
141.0578228844
 20
87.4525382206
 11
141.0578228844
 21
89.5753609402
  0
LINE
  5
24F
100
AcDbEntity
  8
IMPORT_IGES
100
AcDbLine
 62
7
  6
CONTINUOUS
 10
141.0578228844
 20
93.9843004349
 11
141.0578228844
 21
96.1071231546
  0
LINE
  5
250
100
AcDbEntity
  8
IMPORT_IGES
100
AcDbLine
 62
7
  6
CONTINUOUS
 10
141.3749833515
 20
106.5388185174
 11
141.3749833515
 21
106.7826246678
  0
LINE
  5
251
100
AcDbEntity
  8
IMPORT_IGES
100
AcDbLine
 62
7
  6
CONTINUOUS
 10
141.7649296655
 20
99.005991132
 11
142.2598497455
 21
99.2917517834
  0
LINE
  5
252
100
AcDbEntity
  8
IMPORT_IGES
100
AcDbLine
 62
7
  6
CONTINUOUS
 10
142.4720364467
 20
99.1692378414
 11
143.815539331
 21
99.9449595687
  0
LINE
  5
253
100
AcDbEntity
  8
IMPORT_IGES
100
AcDbLine
 62
7
  6
CONTINUOUS
 10
141.7649296655
 20
99.005991132
 11
141.7649296655
 21
97.6996386891
  0
LINE
  5
254
100
AcDbEntity
  8
IMPORT_IGES
100
AcDbLine
 62
7
  6
CONTINUOUS
 10
142.4720364467
 20
101.4553546164
 11
142.4720364467
 21
99.1692378414
  0
LINE
  5
255
100
AcDbEntity
  8
IMPORT_IGES
100
AcDbLine
 62
7
  6
CONTINUOUS
 10
141.7649296655
 20
97.6996386891
 11
143.0377218717
 21
98.4345329571
  0
LWPOLYLINE
  5
256
100
AcDbEntity
  8
IMPORT_IGES
100
AcDbPolyline
 62
7
  6
CONTINUOUS
 90
7
 70
0
 10
159.6747989449
 20
78.8079277866
 10
159.6953502162
 20
78.7990320929
 10
159.7184079862
 20
78.7944541583
 10
159.7429787256
 20
78.7945103907
 10
159.7687346679
 20
78.7993042912
 10
159.7960035796
 20
78.8087323587
 10
159.8247854607
 20
78.8227945933
  0
LINE
  5
257
100
AcDbEntity
  8
IMPORT_IGES
100
AcDbLine
 62
7
  6
CONTINUOUS
 10
148.2703120525
 20
83.2881373686
 11
141.0578228844
 21
87.4525382206
  0
LINE
  5
258
100
AcDbEntity
  8
IMPORT_IGES
100
AcDbLine
 62
7
  6
CONTINUOUS
 10
143.0377218717
 20
98.4345329571
 11
143.0377218717
 21
99.4958575161
  0
LINE
  5
259
100
AcDbEntity
  8
IMPORT_IGES
100
AcDbLine
 62
7
  6
CONTINUOUS
 10
143.1791432279
 20
92.7594766549
 11
143.1791432279
 21
90.8001847202
  0
LINE
  5
25A
100
AcDbEntity
  8
IMPORT_IGES
100
AcDbLine
 62
7
  6
CONTINUOUS
 10
143.815539331
 20
99.9449595687
 11
143.815539331
 21
102.2310763438
  0
LINE
  5
25B
100
AcDbEntity
  8
IMPORT_IGES
100
AcDbLine
 62
7
  6
CONTINUOUS
 10
141.0578228844
 20
96.1071231546
 11
146.2550577261
 21
99.1079414155
  0
LWPOLYLINE
  5
25C
100
AcDbEntity
  8
IMPORT_IGES
100
AcDbPolyline
 62
7
  6
CONTINUOUS
 90
4
 70
0
 10
162.6791798734
 20
82.5311924736
 10
162.7059803941
 20
82.5251442564
 10
162.7311475263
 20
82.515154783
 10
162.740869803
 20
82.5099909669
  0
LINE
  5
25D
100
AcDbEntity
  8
IMPORT_IGES
100
AcDbLine
 62
7
  6
CONTINUOUS
 10
154.7207016271
 20
83.1561998347
 11
154.7336166362
 21
83.1503474628
  0
LINE
  5
25E
100
AcDbEntity
  8
IMPORT_IGES
100
AcDbLine
 62
7
  6
CONTINUOUS
 10
141.0578228844
 20
89.0449827362
 11
137.1687355878
 21
91.2904929995
  0
LINE
  5
25F
100
AcDbEntity
  8
IMPORT_IGES
100
AcDbLine
 62
7
  6
CONTINUOUS
 10
158.9055466452
 20
79.0678422046
 11
158.1277291859
 21
79.5169442573
  0
LINE
  5
260
100
AcDbEntity
  8
IMPORT_IGES
100
AcDbLine
 62
7
  6
CONTINUOUS
 10
156.5013835891
 20
80.4559758219
 11
157.2792010484
 21
80.0068737693
  0
LINE
  5
261
100
AcDbEntity
  8
IMPORT_IGES
100
AcDbLine
 62
7
  6
CONTINUOUS
 10
159.6747782127
 20
78.80793224
 11
153.310817182
 21
82.4824035799
  0
LINE
  5
262
100
AcDbEntity
  8
IMPORT_IGES
100
AcDbLine
 62
7
  6
CONTINUOUS
 10
141.0578228844
 20
89.5753609402
 11
148.2703120525
 21
85.4109600883
  0
LINE
  5
263
100
AcDbEntity
  8
IMPORT_IGES
100
AcDbLine
 62
253
  6
CONTINUOUS
 10
159.6126534263
 20
78.9452532983
 11
153.2486923957
 21
82.6197246383
  0
LINE
  5
264
100
AcDbEntity
  8
0
100
AcDbLine
 62
7
  6
CONTINUOUS
 10
163.473107848
 20
77.2868125407
 11
160.3188328744
 21
79.1080513781
  0
LINE
  5
265
100
AcDbEntity
  8
0
100
AcDbLine
 62
7
  6
CONTINUOUS
 10
153.2486923957
 20
83.1902618808
 11
152.3715313833
 21
83.6967236559
  0
LINE
  5
266
100
AcDbEntity
  8
IMPORT_IGES
100
AcDbLine
 62
7
  6
CONTINUOUS
 10
154.7336166362
 20
82.333877186
 11
155.2993020611
 21
82.0072575114
  0
LINE
  5
267
100
AcDbEntity
  8
IMPORT_IGES
100
AcDbLine
 62
7
  6
CONTINUOUS
 10
155.3700127392
 20
82.3541158732
 11
155.0680288385
 21
82.5269626005
  0
LINE
  5
268
100
AcDbEntity
  8
IMPORT_IGES
100
AcDbLine
 62
7
  6
CONTINUOUS
 10
155.2993020611
 20
82.8237277881
 11
154.7336166362
 21
83.1503474628
  0
LINE
  5
269
100
AcDbEntity
  8
IMPORT_IGES
100
AcDbLine
 62
7
  6
CONTINUOUS
 10
162.0875271605
 20
79.5170152762
 11
161.557330325
 21
79.823144284
  0
LINE
  5
26A
100
AcDbEntity
  8
IMPORT_IGES
100
AcDbLine
 62
253
  6
CONTINUOUS
 10
160.5027917762
 20
80.5543106745
 11
161.3097097012
 21
80.0884063776
  0
LINE
  5
26B
100
AcDbEntity
  8
IMPORT_IGES
100
AcDbLine
 62
253
  6
CONTINUOUS
 10
161.3804203793
 20
80.2108808647
 11
160.5318922419
 21
80.7008103767
  0
LWPOLYLINE
  5
26C
100
AcDbEntity
  8
IMPORT_IGES
100
AcDbPolyline
 62
7
  6
CONTINUOUS
 90
10
 70
0
 10
154.7336166362
 20
82.333877186
 10
154.7207076435
 20
82.3429322762
 10
154.7088848598
 20
82.3534314881
 10
154.6981482853
 20
82.3653748216
 10
154.6882621151
 20
82.3791700437
 10
154.679462154
 20
82.3944093875
 10
154.6724558163
 20
82.4098695524
 10
154.6674789068
 20
82.4251427715
 10
154.6642956207
 20
82.4406368117
 10
154.662905958
 20
82.456351673
  0
LWPOLYLINE
  5
26D
100
AcDbEntity
  8
IMPORT_IGES
100
AcDbPolyline
 62
7
  6
CONTINUOUS
 90
10
 70
0
 10
155.2993020611
 20
82.8237277881
 10
155.3122110538
 20
82.814672698
 10
155.3240338374
 20
82.8041734861
 10
155.3347704119
 20
82.7922301525
 10
155.3446565822
 20
82.7784349304
 10
155.3534565433
 20
82.7631955867
 10
155.360462881
 20
82.7477354218
 10
155.3654397905
 20
82.7324622027
 10
155.3686230766
 20
82.7169681625
 10
155.3700127392
 20
82.7012533011
  0
LWPOLYLINE
  5
26E
100
AcDbEntity
  8
IMPORT_IGES
100
AcDbPolyline
 62
7
  6
CONTINUOUS
 90
6
 70
0
 10
156.5013835891
 20
80.4559758219
 10
156.478339745
 20
80.4724845575
 10
156.4610560058
 20
80.4898104514
 10
156.4495323715
 20
80.5079535037
 10
156.4437677007
 20
80.5274576582
 10
156.443045189
 20
80.5376287203
  0
LWPOLYLINE
  5
26F
100
AcDbEntity
  8
IMPORT_IGES
100
AcDbPolyline
 62
7
  6
CONTINUOUS
 90
7
 70
0
 10
153.3108379142
 20
82.4823991266
 10
153.2928366808
 20
82.4957588636
 10
153.2773419461
 20
82.5134363597
 10
153.2651040893
 20
82.5347413066
 10
153.2563766469
 20
82.5594416331
 10
153.2509060823
 20
82.5877694103
 10
153.2486923957
 20
82.6197246383
  0
LWPOLYLINE
  5
270
100
AcDbEntity
  8
IMPORT_IGES
100
AcDbPolyline
 62
7
  6
CONTINUOUS
 90
4
 70
0
 10
162.6791798734
 20
84.5723681655
 10
162.7059803941
 20
84.5663199484
 10
162.7311475263
 20
84.556330475
 10
162.740869803
 20
84.5511666589
  0
LINE
  5
271
100
AcDbEntity
  8
IMPORT_IGES
100
AcDbLine
 62
7
  6
CONTINUOUS
 10
154.7207016271
 20
85.1973755267
 11
154.7336166362
 21
85.1915231548
  0
LINE
  5
272
100
AcDbEntity
  8
IMPORT_IGES
100
AcDbLine
 62
253
  6
CONTINUOUS
 10
161.9200234129
 20
81.4590683467
 11
161.6320927635
 21
81.614745902
  0
LINE
  5
273
100
AcDbEntity
  8
IMPORT_IGES
100
AcDbLine
 62
7
  6
CONTINUOUS
 10
155.3700127392
 20
84.3952915652
 11
155.0680288385
 21
84.5681382925
  0
LINE
  5
274
100
AcDbEntity
  8
IMPORT_IGES
100
AcDbLine
 62
7
  6
CONTINUOUS
 10
154.7336166362
 20
84.375052878
 11
155.2993020611
 21
84.0484332033
  0
LINE
  5
275
100
AcDbEntity
  8
IMPORT_IGES
100
AcDbLine
 62
253
  6
CONTINUOUS
 10
161.5729220722
 20
80.6951595966
 11
162.0374495802
 21
80.4269472354
  0
LINE
  5
276
100
AcDbEntity
  8
IMPORT_IGES
100
AcDbLine
 62
253
  6
CONTINUOUS
 10
161.6565000648
 20
81.1708339735
 11
162.4911581314
 21
80.6889128665
  0
LINE
  5
277
100
AcDbEntity
  8
IMPORT_IGES
100
AcDbLine
 62
7
  6
CONTINUOUS
 10
154.7336166362
 20
85.1915231548
 11
155.2993020611
 21
84.8649034801
  0
LINE
  5
278
100
AcDbEntity
  8
IMPORT_IGES
100
AcDbLine
 62
253
  6
CONTINUOUS
 10
161.3097131182
 20
81.7213528493
 11
161.3804203793
 21
81.6805273629
  0
LINE
  5
279
100
AcDbEntity
  8
IMPORT_IGES
100
AcDbLine
 62
253
  6
CONTINUOUS
 10
162.7546812697
 20
80.9771462034
 11
161.9200232031
 21
81.4590673103
  0
LINE
  5
27A
100
AcDbEntity
  8
IMPORT_IGES
100
AcDbLine
 62
7
  6
CONTINUOUS
 10
161.7877386523
 20
80.4021033183
 11
161.7739264418
 21
80.4108706575
  0
LWPOLYLINE
  5
27B
100
AcDbEntity
  8
IMPORT_IGES
100
AcDbPolyline
 62
7
  6
CONTINUOUS
 90
10
 70
0
 10
154.7336166362
 20
84.375052878
 10
154.7207076435
 20
84.3841079682
 10
154.7088848598
 20
84.3946071801
 10
154.6981482853
 20
84.4065505136
 10
154.6882621151
 20
84.4203457357
 10
154.679462154
 20
84.4355850795
 10
154.6724558163
 20
84.4510452444
 10
154.6674789068
 20
84.4663184635
 10
154.6642956207
 20
84.4818125037
 10
154.662905958
 20
84.497527365
  0
LINE
  5
27C
100
AcDbEntity
  8
IMPORT_IGES
100
AcDbLine
 62
7
  6
CONTINUOUS
 10
148.2703120525
 20
91.9427223026
 11
148.2703120525
 21
89.819899583
  0
LINE
  5
27D
100
AcDbEntity
  8
IMPORT_IGES
100
AcDbLine
 62
7
  6
CONTINUOUS
 10
148.2703120525
 20
85.4109600883
 11
148.2703120525
 21
83.2881373686
  0
LWPOLYLINE
  5
27E
100
AcDbEntity
  8
IMPORT_IGES
100
AcDbPolyline
 62
7
  6
CONTINUOUS
 90
10
 70
0
 10
160.3318922419
 20
89.1104857916
 10
160.3142479425
 20
89.1100190498
 10
160.2969945141
 20
89.1087075147
 10
160.2801319569
 20
89.1065511861
 10
160.263537827
 20
89.1035207803
 10
160.2473345682
 20
89.0996455811
 10
160.2318895116
 20
89.09501344
 10
160.2173251008
 20
89.0896536408
 10
160.2035188921
 20
89.0835368997
 10
160.1904708856
 20
89.0766632168
  0
LWPOLYLINE
  5
27F
100
AcDbEntity
  8
IMPORT_IGES
100
AcDbPolyline
 62
7
  6
CONTINUOUS
 90
10
 70
0
 10
160.5904708856
 20
89.9677795822
 10
160.6081151851
 20
89.9682463239
 10
160.6253686134
 20
89.9695578591
 10
160.6422311707
 20
89.9717141876
 10
160.6588253005
 20
89.9747445934
 10
160.6750285593
 20
89.9786197927
 10
160.690473616
 20
89.9832519338
 10
160.7050380268
 20
89.988611733
 10
160.7188442354
 20
89.994728474
 10
160.7318922419
 20
90.0016021569
  0
LINE
  5
280
100
AcDbEntity
  8
IMPORT_IGES
100
AcDbLine
 62
7
  6
CONTINUOUS
 10
160.5904708856
 20
89.1104857916
 11
160.3318922419
 21
89.1104857916
  0
LINE
  5
281
100
AcDbEntity
  8
IMPORT_IGES
100
AcDbLine
 62
7
  6
CONTINUOUS
 10
160.3318922419
 20
89.9677795822
 11
160.5904708856
 21
89.9677795822
  0
LWPOLYLINE
  5
282
100
AcDbEntity
  8
IMPORT_IGES
100
AcDbPolyline
 62
7
  6
CONTINUOUS
 90
4
 70
0
 10
162.6791798734
 20
86.6135438575
 10
162.7059803941
 20
86.6074956404
 10
162.7311475263
 20
86.597506167
 10
162.740869803
 20
86.5923423509
  0
LINE
  5
283
100
AcDbEntity
  8
IMPORT_IGES
100
AcDbLine
 62
7
  6
CONTINUOUS
 10
154.7207016271
 20
87.2385512186
 11
154.7336166362
 21
87.2326988468
  0
LINE
  5
284
100
AcDbEntity
  8
IMPORT_IGES
100
AcDbLine
 62
253
  6
CONTINUOUS
 10
161.9200234129
 20
83.5002440387
 11
161.6320927635
 21
83.655921594
  0
LINE
  5
285
100
AcDbEntity
  8
IMPORT_IGES
100
AcDbLine
 62
7
  6
CONTINUOUS
 10
155.0680288385
 20
86.6093139844
 11
155.3700127392
 21
86.4364672572
  0
LINE
  5
286
100
AcDbEntity
  8
IMPORT_IGES
100
AcDbLine
 62
253
  6
CONTINUOUS
 10
161.3097097012
 20
82.1295820696
 11
160.5027917762
 21
82.5954863664
  0
LINE
  5
287
100
AcDbEntity
  8
IMPORT_IGES
100
AcDbLine
 62
7
  6
CONTINUOUS
 10
148.2703120525
 20
89.819899583
 11
141.0578228844
 21
93.9843004349
  0
LINE
  5
288
100
AcDbEntity
  8
IMPORT_IGES
100
AcDbLine
 62
253
  6
CONTINUOUS
 10
160.5318922419
 20
82.7419860686
 11
161.3804203793
 21
82.2520565566
  0
LINE
  5
289
100
AcDbEntity
  8
IMPORT_IGES
100
AcDbLine
 62
7
  6
CONTINUOUS
 10
155.2993020611
 20
86.0896088953
 11
154.7336166362
 21
86.41622857
  0
LINE
  5
28A
100
AcDbEntity
  8
IMPORT_IGES
100
AcDbLine
 62
253
  6
CONTINUOUS
 10
162.0374495802
 20
82.4681229274
 11
161.5729220722
 21
82.7363352886
  0
LINE
  5
28B
100
AcDbEntity
  8
IMPORT_IGES
100
AcDbLine
 62
253
  6
CONTINUOUS
 10
161.6565000648
 20
83.2120096655
 11
162.4911581314
 21
82.7300885585
  0
LINE
  5
28C
100
AcDbEntity
  8
IMPORT_IGES
100
AcDbLine
 62
7
  6
CONTINUOUS
 10
154.7336166362
 20
87.2326988468
 11
155.2993020611
 21
86.9060791721
  0
LINE
  5
28D
100
AcDbEntity
  8
IMPORT_IGES
100
AcDbLine
 62
7
  6
CONTINUOUS
 10
161.7877386523
 20
82.4432790103
 11
161.7739264418
 21
82.4520463495
  0
LWPOLYLINE
  5
28E
100
AcDbEntity
  8
IMPORT_IGES
100
AcDbPolyline
 62
7
  6
CONTINUOUS
 90
6
 70
0
 10
161.3596445544
 20
81.7262013504
 10
161.3638641834
 20
81.7233509683
 10
161.3708705211
 20
81.7159815466
 10
161.3758474306
 20
81.7064555379
 10
161.3790307167
 20
81.6946374766
 10
161.3804203793
 20
81.6805273629
  0
LWPOLYLINE
  5
28F
100
AcDbEntity
  8
IMPORT_IGES
100
AcDbPolyline
 62
7
  6
CONTINUOUS
 90
10
 70
0
 10
155.2993020611
 20
84.8649034801
 10
155.3122110538
 20
84.8558483899
 10
155.3240338374
 20
84.8453491781
 10
155.3347704119
 20
84.8334058445
 10
155.3446565822
 20
84.8196106224
 10
155.3534565433
 20
84.8043712786
 10
155.360462881
 20
84.7889111138
 10
155.3654397905
 20
84.7736378947
 10
155.3686230766
 20
84.7581438544
 10
155.3700127392
 20
84.7424289931
  0
LWPOLYLINE
  5
290
100
AcDbEntity
  8
IMPORT_IGES
100
AcDbPolyline
 62
7
  6
CONTINUOUS
 90
10
 70
0
 10
154.7336166362
 20
86.41622857
 10
154.7207076435
 20
86.4252836602
 10
154.7088848598
 20
86.435782872
 10
154.6981482853
 20
86.4477262056
 10
154.6882621151
 20
86.4615214277
 10
154.679462154
 20
86.4767607715
 10
154.6724558163
 20
86.4922209363
 10
154.6674789068
 20
86.5074941555
 10
154.6642956207
 20
86.5229881957
 10
154.662905958
 20
86.538703057
  0
LWPOLYLINE
  5
291
100
AcDbEntity
  8
IMPORT_IGES
100
AcDbPolyline
 62
7
  6
CONTINUOUS
 90
31
 70
0
 10
161.7739264418
 20
80.4108706575
 10
161.7414374709
 20
80.4366324166
 10
161.711340715
 20
80.4645184502
 10
161.6836361742
 20
80.4945287581
 10
161.6584272426
 20
80.5266737722
 10
161.6356105261
 20
80.5609430606
 10
161.6148758421
 20
80.5973053286
 10
161.5961664055
 20
80.6354433384
 10
161.5795390014
 20
80.6756743278
 10
161.5648538024
 20
80.7189187151
 10
161.5518939616
 20
80.7662008825
 10
161.540876326
 20
80.8164964478
 10
161.5323116091
 20
80.8676526837
 10
161.5264121864
 20
80.918550024
 10
161.5229656823
 20
80.9703080349
 10
161.5218456845
 20
81.0241326873
 10
161.5230298711
 20
81.0809716493
 10
161.5265405639
 20
81.1398772527
 10
161.5323183161
 20
81.1992124639
 10
161.5403279529
 20
81.258286623
 10
161.550604649
 20
81.3177903899
 10
161.5631944814
 20
81.3781587103
 10
161.57817399
 20
81.4398120464
 10
161.5954666347
 20
81.5023299361
 10
161.6148888732
 20
81.5648859382
 10
161.6364480519
 20
81.6273683101
 10
161.6601368244
 20
81.6898887944
 10
161.6857496078
 20
81.7519561776
 10
161.7132178748
 20
81.813406722
 10
161.7426101528
 20
81.8744041653
 10
161.7739264418
 20
81.9349485075
  0
LINE
  5
292
100
AcDbEntity
  8
IMPORT_IGES
100
AcDbLine
 62
7
  6
CONTINUOUS
 10
141.0578228844
 20
89.5753609402
 11
144.8758305016
 21
91.7798306876
  0
LWPOLYLINE
  5
293
100
AcDbEntity
  8
IMPORT_IGES
100
AcDbPolyline
 62
7
  6
CONTINUOUS
 90
4
 70
0
 10
162.6791798734
 20
88.6547195495
 10
162.7059803941
 20
88.6486713323
 10
162.7311475263
 20
88.638681859
 10
162.740869803
 20
88.6335180429
  0
LINE
  5
294
100
AcDbEntity
  8
IMPORT_IGES
100
AcDbLine
 62
7
  6
CONTINUOUS
 10
154.7207016271
 20
89.2797269106
 11
154.7336166362
 21
89.2738745388
  0
LINE
  5
295
100
AcDbEntity
  8
IMPORT_IGES
100
AcDbLine
 62
7
  6
CONTINUOUS
 10
155.3700127392
 20
88.4776429491
 11
155.0680288385
 21
88.6504896764
  0
LINE
  5
296
100
AcDbEntity
  8
IMPORT_IGES
100
AcDbLine
 62
253
  6
CONTINUOUS
 10
161.3804203793
 20
83.7217030549
 11
161.3097131182
 21
83.7625285413
  0
LINE
  5
297
100
AcDbEntity
  8
IMPORT_IGES
100
AcDbLine
 62
253
  6
CONTINUOUS
 10
161.9200228672
 20
83.5002423746
 11
162.7546809338
 21
83.0183212677
  0
LINE
  5
298
100
AcDbEntity
  8
IMPORT_IGES
100
AcDbLine
 62
7
  6
CONTINUOUS
 10
149.6495392769
 20
90.6162480966
 11
153.2486923957
 21
88.5381421938
  0
LINE
  5
299
100
AcDbEntity
  8
IMPORT_IGES
100
AcDbLine
 62
253
  6
CONTINUOUS
 10
161.3097097012
 20
84.1707577616
 11
160.5027917762
 21
84.6366620584
  0
LINE
  5
29A
100
AcDbEntity
  8
IMPORT_IGES
100
AcDbLine
 62
7
  6
CONTINUOUS
 10
137.875842369
 20
97.8222157589
 11
141.0578228844
 21
95.984980089
  0
LINE
  5
29B
100
AcDbEntity
  8
IMPORT_IGES
100
AcDbLine
 62
253
  6
CONTINUOUS
 10
160.5318922419
 20
84.7831617606
 11
161.3804203793
 21
84.2932322486
  0
LINE
  5
29C
100
AcDbEntity
  8
IMPORT_IGES
100
AcDbLine
 62
7
  6
CONTINUOUS
 10
141.0578228844
 20
96.1071231546
 11
148.2703120525
 21
91.9427223026
  0
LINE
  5
29D
100
AcDbEntity
  8
IMPORT_IGES
100
AcDbLine
 62
7
  6
CONTINUOUS
 10
155.2993020611
 20
88.1307845873
 11
154.7336166362
 21
88.457404262
  0
LINE
  5
29E
100
AcDbEntity
  8
IMPORT_IGES
100
AcDbLine
 62
253
  6
CONTINUOUS
 10
162.0374495802
 20
84.5092986193
 11
161.5729220722
 21
84.7775109806
  0
LINE
  5
29F
100
AcDbEntity
  8
IMPORT_IGES
100
AcDbLine
 62
7
  6
CONTINUOUS
 10
162.740869803
 20
82.5099909669
 11
162.7546812697
 21
82.5012240534
  0
LWPOLYLINE
  5
2A0
100
AcDbEntity
  8
IMPORT_IGES
100
AcDbPolyline
 62
7
  6
CONTINUOUS
 90
6
 70
0
 10
161.3596445544
 20
83.7673770424
 10
161.3638641834
 20
83.7645266603
 10
161.3708705211
 20
83.7571572386
 10
161.3758474306
 20
83.7476312298
 10
161.3790307167
 20
83.7358131686
 10
161.3804203793
 20
83.7217030549
  0
LWPOLYLINE
  5
2A1
100
AcDbEntity
  8
IMPORT_IGES
100
AcDbPolyline
 62
7
  6
CONTINUOUS
 90
10
 70
0
 10
155.2993020611
 20
86.9060791721
 10
155.3122110538
 20
86.8970240819
 10
155.3240338374
 20
86.8865248701
 10
155.3347704119
 20
86.8745815365
 10
155.3446565822
 20
86.8607863144
 10
155.3534565433
 20
86.8455469706
 10
155.360462881
 20
86.8300868058
 10
155.3654397905
 20
86.8148135866
 10
155.3686230766
 20
86.7993195464
 10
155.3700127392
 20
86.7836046851
  0
LINE
  5
2A2
100
AcDbEntity
  8
IMPORT_IGES
100
AcDbLine
 62
253
  6
CONTINUOUS
 10
160.5027917762
 20
79.7379795742
 11
160.575996857
 21
79.664769777
  0
LINE
  5
2A3
100
AcDbEntity
  8
IMPORT_IGES
100
AcDbLine
 62
7
  6
CONTINUOUS
 10
148.2703120525
 20
91.9427223026
 11
153.4675468942
 21
94.9435405636
  0
LINE
  5
2A4
100
AcDbEntity
  8
IMPORT_IGES
100
AcDbLine
 62
253
  6
CONTINUOUS
 10
161.9200234129
 20
85.5414197307
 11
161.6320927635
 21
85.697097286
  0
LINE
  5
2A5
100
AcDbEntity
  8
IMPORT_IGES
100
AcDbLine
 62
253
  6
CONTINUOUS
 10
161.6565000648
 20
85.2531853574
 11
162.4911581314
 21
84.7712642505
  0
LINE
  5
2A6
100
AcDbEntity
  8
IMPORT_IGES
100
AcDbLine
 62
7
  6
CONTINUOUS
 10
154.7336166362
 20
89.2738745388
 11
155.2993020611
 21
88.9472548641
  0
LINE
  5
2A7
100
AcDbEntity
  8
IMPORT_IGES
100
AcDbLine
 62
253
  6
CONTINUOUS
 10
161.3804203793
 20
85.7628787468
 11
161.3097131182
 21
85.8037042332
  0
LINE
  5
2A8
100
AcDbEntity
  8
IMPORT_IGES
100
AcDbLine
 62
253
  6
CONTINUOUS
 10
162.7546812697
 20
85.0594975873
 11
161.9200232031
 21
85.5414186943
  0
LINE
  5
2A9
100
AcDbEntity
  8
IMPORT_IGES
100
AcDbLine
 62
253
  6
CONTINUOUS
 10
159.6126534263
 20
87.0283090385
 11
153.2486923957
 21
90.7027803785
  0
LINE
  5
2AA
100
AcDbEntity
  8
IMPORT_IGES
100
AcDbLine
 62
253
  6
CONTINUOUS
 10
160.5027917762
 20
86.6778377504
 11
161.3097097012
 21
86.2119334536
  0
LINE
  5
2AB
100
AcDbEntity
  8
IMPORT_IGES
100
AcDbLine
 62
253
  6
CONTINUOUS
 10
161.3804203793
 20
86.3344079406
 11
160.5318922419
 21
86.8243374526
  0
LINE
  5
2AC
100
AcDbEntity
  8
IMPORT_IGES
100
AcDbLine
 62
7
  6
CONTINUOUS
 10
141.7649296655
 20
97.6996386891
 11
139.5021879658
 21
99.0061173878
  0
LINE
  5
2AD
100
AcDbEntity
  8
IMPORT_IGES
100
AcDbLine
 62
253
  6
CONTINUOUS
 10
159.8247854607
 20
87.3957324996
 11
153.46082443
 21
91.0702038395
  0
LINE
  5
2AE
100
AcDbEntity
  8
IMPORT_IGES
100
AcDbLine
 62
7
  6
CONTINUOUS
 10
161.7877386523
 20
84.4844547023
 11
161.7739264418
 21
84.4932220414
  0
LINE
  5
2AF
100
AcDbEntity
  8
IMPORT_IGES
100
AcDbLine
 62
7
  6
CONTINUOUS
 10
162.740869803
 20
84.5511666589
 11
162.7546812697
 21
84.5423997454
  0
LWPOLYLINE
  5
2B0
100
AcDbEntity
  8
IMPORT_IGES
100
AcDbPolyline
 62
7
  6
CONTINUOUS
 90
10
 70
0
 10
154.7336166362
 20
88.457404262
 10
154.7207076435
 20
88.4664593522
 10
154.7088848598
 20
88.476958564
 10
154.6981482853
 20
88.4889018976
 10
154.6882621151
 20
88.5026971197
 10
154.679462154
 20
88.5179364634
 10
154.6724558163
 20
88.5333966283
 10
154.6674789068
 20
88.5486698474
 10
154.6642956207
 20
88.5641638877
 10
154.662905958
 20
88.579878749
  0
LWPOLYLINE
  5
2B1
100
AcDbEntity
  8
IMPORT_IGES
100
AcDbPolyline
 62
7
  6
CONTINUOUS
 90
10
 70
0
 10
155.2993020611
 20
88.9472548641
 10
155.3122110538
 20
88.9381997739
 10
155.3240338374
 20
88.927700562
 10
155.3347704119
 20
88.9157572285
 10
155.3446565822
 20
88.9019620064
 10
155.3534565433
 20
88.8867226626
 10
155.360462881
 20
88.8712624977
 10
155.3654397905
 20
88.8559892786
 10
155.3686230766
 20
88.8404952384
 10
155.3700127392
 20
88.8247803771
  0
LWPOLYLINE
  5
2B2
100
AcDbEntity
  8
IMPORT_IGES
100
AcDbPolyline
 62
7
  6
CONTINUOUS
 90
31
 70
0
 10
162.7546812697
 20
82.5012240534
 10
162.7860008305
 20
82.4768401951
 10
162.8153959403
 20
82.449780902
 10
162.8428665991
 20
82.4200461742
 10
162.8684814266
 20
82.3875511239
 10
162.8921718031
 20
82.3523806388
 10
162.9137318695
 20
82.3147893822
 10
162.9331540404
 20
82.2746575362
 10
162.9504459013
 20
82.2321049188
 10
162.9654243482
 20
82.1877456475
 10
162.9780129852
 20
82.1419113745
 10
162.9882882084
 20
82.0942704476
 10
162.9962961024
 20
82.0444420272
 10
163.0020717448
 20
81.9917765821
 10
163.0055800581
 20
81.9369236435
 10
163.0067618945
 20
81.8814509653
 10
163.0056396072
 20
81.8263314471
 10
163.0021908431
 20
81.7705921893
 10
162.9962893955
 20
81.712882247
 10
162.98772294
 20
81.6518375111
 10
162.976703801
 20
81.5888220908
 10
162.9637427448
 20
81.5265773685
 10
162.9490564874
 20
81.4663773848
 10
162.9324283127
 20
81.4069480991
 10
162.9137188384
 20
81.3472087727
 10
162.8929851097
 20
81.286908577
 10
162.8701700813
 20
81.2262983406
 10
162.8449632349
 20
81.1650498103
 10
162.8172610645
 20
81.1030535685
 10
162.7871670761
 20
81.0404190329
 10
162.7546812697
 20
80.9771462034
  0
LWPOLYLINE
  5
2B3
100
AcDbEntity
  8
IMPORT_IGES
100
AcDbPolyline
 62
7
  6
CONTINUOUS
 90
31
 70
0
 10
161.7739264418
 20
82.4520463495
 10
161.7414374709
 20
82.4778081086
 10
161.711340715
 20
82.5056941421
 10
161.6836361742
 20
82.5357044501
 10
161.6584272426
 20
82.5678494641
 10
161.6356105261
 20
82.6021187526
 10
161.6148758421
 20
82.6384810206
 10
161.5961664055
 20
82.6766190304
 10
161.5795390014
 20
82.7168500198
 10
161.5648538024
 20
82.7600944071
 10
161.5518939616
 20
82.8073765744
 10
161.540876326
 20
82.8576721398
 10
161.5323116091
 20
82.9088283757
 10
161.5264121864
 20
82.959725716
 10
161.5229656823
 20
83.0114837269
 10
161.5218456845
 20
83.0653083793
 10
161.5230298711
 20
83.1221473413
 10
161.5265405639
 20
83.1810529447
 10
161.5323183161
 20
83.2403881559
 10
161.5403279529
 20
83.299462315
 10
161.550604649
 20
83.3589660819
 10
161.5631944814
 20
83.4193344023
 10
161.57817399
 20
83.4809877384
 10
161.5954666347
 20
83.5435056281
 10
161.6148888732
 20
83.6060616302
 10
161.6364480519
 20
83.6685440021
 10
161.6601368244
 20
83.7310644864
 10
161.6857496078
 20
83.7931318696
 10
161.7132178748
 20
83.854582414
 10
161.7426101528
 20
83.9155798573
 10
161.7739264418
 20
83.9761241995
  0
LINE
  5
2B4
100
AcDbEntity
  8
IMPORT_IGES
100
AcDbLine
 62
253
  6
CONTINUOUS
 10
160.5027917762
 20
81.7791552662
 11
160.575996857
 21
81.705945469
  0
LWPOLYLINE
  5
2B5
100
AcDbEntity
  8
RACCORDO
100
AcDbPolyline
 62
7
  6
CONTINUOUS
 90
4
 70
0
 10
152.3604566888
 20
85.6497356201
 10
152.362076665
 20
85.6418085706
 10
152.3689983188
 20
85.5873514562
 10
152.3715313833
 20
85.5337817787
  0
LINE
  5
2B6
100
AcDbEntity
  8
RACCORDO
100
AcDbLine
 62
7
  6
CONTINUOUS
 10
152.3715313833
 20
83.6967236559
 11
152.3715313833
 21
85.5337817787
  0
LINE
  5
2B7
100
AcDbEntity
  8
IMPORT_IGES
100
AcDbLine
 62
7
  6
CONTINUOUS
 10
148.2703120525
 20
89.819899583
 11
153.4675468942
 21
92.8207178439
  0
LWPOLYLINE
  5
2B8
100
AcDbEntity
  8
IMPORT_IGES
100
AcDbPolyline
 62
7
  6
CONTINUOUS
 90
10
 70
0
 10
158.9055466452
 20
89.3553676922
 10
158.9341387718
 20
89.3420624654
 10
158.964146167
 20
89.332083051
 10
158.9955688309
 20
89.325429449
 10
159.029348841
 20
89.3221010003
 10
159.0645441197
 20
89.3220983641
 10
159.098328434
 20
89.3254235174
 10
159.1297597063
 20
89.3320771194
 10
159.1597800141
 20
89.342058511
 10
159.1883893576
 20
89.3553676922
  0
LINE
  5
2B9
100
AcDbEntity
  8
IMPORT_IGES
100
AcDbLine
 62
253
  6
CONTINUOUS
 10
161.6320931782
 20
87.7382741797
 11
161.9200214696
 21
87.5825978136
  0
LINE
  5
2BA
100
AcDbEntity
  8
IMPORT_IGES
100
AcDbLine
 62
7
  6
CONTINUOUS
 10
143.2147924012
 20
97.3525303204
 11
142.1892757345
 21
97.944650791
  0
LINE
  5
2BB
100
AcDbEntity
  8
IMPORT_IGES
100
AcDbLine
 62
253
  6
CONTINUOUS
 10
162.0374495802
 20
86.5504743113
 11
161.5729220722
 21
86.8186866725
  0
LINE
  5
2BC
100
AcDbEntity
  8
IMPORT_IGES
100
AcDbLine
 62
7
  6
CONTINUOUS
 10
156.5013835891
 20
89.8862075189
 11
158.9055466452
 21
88.4980739016
  0
LINE
  5
2BD
100
AcDbEntity
  8
IMPORT_IGES
100
AcDbLine
 62
253
  6
CONTINUOUS
 10
161.6565000648
 20
87.2943610494
 11
162.4911581314
 21
86.8124399425
  0
LINE
  5
2BE
100
AcDbEntity
  8
IMPORT_IGES
100
AcDbLine
 62
7
  6
CONTINUOUS
 10
158.1277291859
 20
89.3962346065
 11
157.2792010484
 21
89.8861641185
  0
LINE
  5
2BF
100
AcDbEntity
  8
IMPORT_IGES
100
AcDbLine
 62
7
  6
CONTINUOUS
 10
139.5021879658
 20
100.3124698306
 11
141.7649296655
 21
99.005991132
  0
LINE
  5
2C0
100
AcDbEntity
  8
IMPORT_IGES
100
AcDbLine
 62
253
  6
CONTINUOUS
 10
161.3804203793
 20
87.8040544388
 11
161.3097131182
 21
87.8448799252
  0
LINE
  5
2C1
100
AcDbEntity
  8
IMPORT_IGES
100
AcDbLine
 62
253
  6
CONTINUOUS
 10
162.7546812697
 20
87.1006732793
 11
161.9200232031
 21
87.5825943862
  0
LINE
  5
2C2
100
AcDbEntity
  8
IMPORT_IGES
100
AcDbLine
 62
7
  6
CONTINUOUS
 10
158.9055466452
 20
89.3553676922
 11
158.1277291859
 21
89.8044697449
  0
LINE
  5
2C3
100
AcDbEntity
  8
IMPORT_IGES
100
AcDbLine
 62
7
  6
CONTINUOUS
 10
157.2792010484
 20
90.2943992569
 11
156.5013835891
 21
90.7435013095
  0
LINE
  5
2C4
100
AcDbEntity
  8
IMPORT_IGES
100
AcDbLine
 62
7
  6
CONTINUOUS
 10
142.4720364467
 20
99.1692378414
 11
138.6536598283
 21
101.3739206454
  0
LINE
  5
2C5
100
AcDbEntity
  8
IMPORT_IGES
100
AcDbLine
 62
7
  6
CONTINUOUS
 10
161.7877386523
 20
86.5256303943
 11
161.7739264418
 21
86.5343977334
  0
LINE
  5
2C6
100
AcDbEntity
  8
IMPORT_IGES
100
AcDbLine
 62
7
  6
CONTINUOUS
 10
162.740869803
 20
86.5923423509
 11
162.7546812697
 21
86.5835754373
  0
LWPOLYLINE
  5
2C7
100
AcDbEntity
  8
IMPORT_IGES
100
AcDbPolyline
 62
7
  6
CONTINUOUS
 90
6
 70
0
 10
161.3596445544
 20
85.8085527344
 10
161.3638641834
 20
85.8057023523
 10
161.3708705211
 20
85.7983329306
 10
161.3758474306
 20
85.7888069218
 10
161.3790307167
 20
85.7769888606
 10
161.3804203793
 20
85.7628787468
  0
LWPOLYLINE
  5
2C8
100
AcDbEntity
  8
IMPORT_IGES
100
AcDbPolyline
 62
7
  6
CONTINUOUS
 90
6
 70
0
 10
156.5013835891
 20
89.8862075189
 10
156.478339745
 20
89.9027162545
 10
156.4610560058
 20
89.9200421484
 10
156.4495323715
 20
89.9381852007
 10
156.4437677007
 20
89.9576893551
 10
156.4430451888
 20
89.9678629055
  0
LWPOLYLINE
  5
2C9
100
AcDbEntity
  8
IMPORT_IGES
100
AcDbPolyline
 62
7
  6
CONTINUOUS
 90
31
 70
0
 10
162.7546812697
 20
84.5423997454
 10
162.7860008305
 20
84.5180158871
 10
162.8153959403
 20
84.490956594
 10
162.8428665991
 20
84.4612218662
 10
162.8684814266
 20
84.4287268158
 10
162.8921718031
 20
84.3935563307
 10
162.9137318695
 20
84.3559650742
 10
162.9331540404
 20
84.3158332282
 10
162.9504459013
 20
84.2732806108
 10
162.9654243482
 20
84.2289213394
 10
162.9780129852
 20
84.1830870665
 10
162.9882882084
 20
84.1354461396
 10
162.9962961024
 20
84.0856177192
 10
163.0020717448
 20
84.0329522741
 10
163.0055800581
 20
83.9780993355
 10
163.0067618945
 20
83.9226266573
 10
163.0056396072
 20
83.8675071391
 10
163.0021908431
 20
83.8117678812
 10
162.9962893955
 20
83.754057939
 10
162.98772294
 20
83.6930132031
 10
162.976703801
 20
83.6299977828
 10
162.9637427448
 20
83.5677530605
 10
162.9490564874
 20
83.5075530768
 10
162.9324283127
 20
83.4481237911
 10
162.9137188384
 20
83.3883844646
 10
162.8929851097
 20
83.328084269
 10
162.8701700813
 20
83.2674740326
 10
162.8449632349
 20
83.2062255023
 10
162.8172610645
 20
83.1442292605
 10
162.7871670761
 20
83.0815947249
 10
162.7546812697
 20
83.0183218954
  0
LWPOLYLINE
  5
2CA
100
AcDbEntity
  8
IMPORT_IGES
100
AcDbPolyline
 62
7
  6
CONTINUOUS
 90
31
 70
0
 10
161.7739264418
 20
84.4932220414
 10
161.7414374709
 20
84.5189838006
 10
161.711340715
 20
84.5468698341
 10
161.6836361742
 20
84.5768801421
 10
161.6584272426
 20
84.6090251561
 10
161.6356105261
 20
84.6432944446
 10
161.6148758421
 20
84.6796567126
 10
161.5961664055
 20
84.7177947224
 10
161.5795390014
 20
84.7580257117
 10
161.5648538024
 20
84.8012700991
 10
161.5518939616
 20
84.8485522664
 10
161.540876326
 20
84.8988478317
 10
161.5323116091
 20
84.9500040676
 10
161.5264121864
 20
85.000901408
 10
161.5229656823
 20
85.0526594189
 10
161.5218456845
 20
85.1064840713
 10
161.5230298711
 20
85.1633230332
 10
161.5265405639
 20
85.2222286367
 10
161.5323183161
 20
85.2815638478
 10
161.5403279529
 20
85.340638007
 10
161.550604649
 20
85.4001417739
 10
161.5631944814
 20
85.4605100942
 10
161.57817399
 20
85.5221634304
 10
161.5954666347
 20
85.5846813201
 10
161.6148888732
 20
85.6472373222
 10
161.6364480519
 20
85.7097196941
 10
161.6601368244
 20
85.7722401784
 10
161.6857496078
 20
85.8343075616
 10
161.7132178748
 20
85.895758106
 10
161.7426101528
 20
85.9567555492
 10
161.7739264418
 20
86.0172998915
  0
LINE
  5
2CB
100
AcDbEntity
  8
IMPORT_IGES
100
AcDbLine
 62
253
  6
CONTINUOUS
 10
160.5027917762
 20
83.8203309582
 11
160.575996857
 21
83.747121161
  0
LINE
  5
2CC
100
AcDbEntity
  8
IMPORT_IGES
100
AcDbLine
 62
253
  6
CONTINUOUS
 10
161.5484410674
 20
81.3052628951
 11
161.6565000648
 21
81.1708339735
  0
LINE
  5
2CD
100
AcDbEntity
  8
IMPORT_IGES
100
AcDbLine
 62
7
  6
CONTINUOUS
 10
153.2486923957
 20
90.7027803785
 11
153.2486923957
 21
82.6197246383
  0
LINE
  5
2CE
100
AcDbEntity
  8
IMPORT_IGES
100
AcDbLine
 62
7
  6
CONTINUOUS
 10
153.4675468942
 20
92.8207178439
 11
153.4675468942
 21
94.9435405636
  0
LWPOLYLINE
  5
2CF
100
AcDbEntity
  8
IMPORT_IGES
100
AcDbPolyline
 62
7
  6
CONTINUOUS
 90
13
 70
0
 10
153.2486923957
 20
90.7027803785
 10
153.2509060823
 20
90.7372919163
 10
153.2563766469
 20
90.7719369644
 10
153.2651040893
 20
90.8067155227
 10
153.2773419461
 20
90.8421524398
 10
153.2928366808
 20
90.8777228671
 10
153.310827684
 20
90.9118522588
 10
153.3313891855
 20
90.9444977639
 10
153.3544469555
 20
90.9757022334
 10
153.3790176949
 20
91.0040196749
 10
153.4047736372
 20
91.0289680911
 10
153.4320425489
 20
91.0510294793
 10
153.46082443
 20
91.0702038395
  0
LWPOLYLINE
  5
2D0
100
AcDbEntity
  8
IMPORT_IGES
100
AcDbPolyline
 62
7
  6
CONTINUOUS
 90
6
 70
0
 10
155.1994173114
 20
92.7130891699
 10
155.1909930967
 20
92.7073970879
 10
155.1769804213
 20
92.6926582445
 10
155.1670266023
 20
92.6736062269
 10
155.1606600302
 20
92.6499701044
 10
155.1578807049
 20
92.621749877
  0
LINE
  5
2D1
100
AcDbEntity
  8
IMPORT_IGES
100
AcDbLine
 62
7
  6
CONTINUOUS
 10
155.4102285961
 20
92.835086377
 11
155.1992972291
 21
92.7132972492
  0
LINE
  5
2D2
100
AcDbEntity
  8
IMPORT_IGES
100
AcDbLine
 62
253
  6
CONTINUOUS
 10
155.5102334281
 20
92.8251781414
 11
155.2993020611
 21
92.7033890137
  0
LINE
  5
2D3
100
AcDbEntity
  8
IMPORT_IGES
100
AcDbLine
 62
7
  6
CONTINUOUS
 10
153.46082443
 20
91.0702038395
 11
156.7830256343
 21
92.9884011779
  0
LWPOLYLINE
  5
2D4
100
AcDbEntity
  8
IMPORT_IGES
100
AcDbPolyline
 62
7
  6
CONTINUOUS
 90
6
 70
0
 10
155.2993020611
 20
92.7033890137
 10
155.2734840757
 20
92.7150927957
 10
155.2498385085
 20
92.7213996803
 10
155.2283653594
 20
92.7223096675
 10
155.208593019
 20
92.7175518264
 10
155.1994173114
 20
92.7130891699
  0
LWPOLYLINE
  5
2D5
100
AcDbEntity
  8
IMPORT_IGES
100
AcDbPolyline
 62
7
  6
CONTINUOUS
 90
7
 70
0
 10
155.5102330921
 20
92.8251783354
 10
155.4912777756
 20
92.8345314738
 10
155.4732379307
 20
92.8408040726
 10
155.4561135573
 20
92.843996132
 10
155.4396459575
 20
92.8440574291
 10
155.4240938292
 20
92.8410381867
 10
155.4102287152
 20
92.8350864457
  0
LINE
  5
2D6
100
AcDbEntity
  8
IMPORT_IGES
100
AcDbLine
 62
7
  6
CONTINUOUS
 10
155.7943519748
 20
92.4175533979
 11
155.2993020611
 21
92.7033890137
  0
LINE
  5
2D7
100
AcDbEntity
  8
IMPORT_IGES
100
AcDbLine
 62
7
  6
CONTINUOUS
 10
156.0052833419
 20
92.5393425257
 11
155.5102330921
 21
92.8251783354
  0
LWPOLYLINE
  5
2D8
100
AcDbEntity
  8
IMPORT_IGES
100
AcDbPolyline
 62
7
  6
CONTINUOUS
 90
6
 70
0
 10
161.3596445544
 20
87.8497284263
 10
161.3638641834
 20
87.8468780443
 10
161.3708705211
 20
87.8395086226
 10
161.3758474306
 20
87.8299826138
 10
161.3790307167
 20
87.8181645526
 10
161.3804203793
 20
87.8040544388
  0
LWPOLYLINE
  5
2D9
100
AcDbEntity
  8
IMPORT_IGES
100
AcDbPolyline
 62
7
  6
CONTINUOUS
 90
31
 70
0
 10
162.7546812697
 20
86.5835754373
 10
162.7860008305
 20
86.559191579
 10
162.8153959403
 20
86.532132286
 10
162.8428665991
 20
86.5023975582
 10
162.8684814266
 20
86.4699025078
 10
162.8921718031
 20
86.4347320227
 10
162.9137318695
 20
86.3971407662
 10
162.9331540404
 20
86.3570089202
 10
162.9504459013
 20
86.3144563028
 10
162.9654243482
 20
86.2700970314
 10
162.9780129852
 20
86.2242627585
 10
162.9882882084
 20
86.1766218316
 10
162.9962961024
 20
86.1267934111
 10
163.0020717448
 20
86.0741279661
 10
163.0055800581
 20
86.0192750275
 10
163.0067618945
 20
85.9638023493
 10
163.0056396072
 20
85.908682831
 10
163.0021908431
 20
85.8529435732
 10
162.9962893955
 20
85.7952336309
 10
162.98772294
 20
85.7341888951
 10
162.976703801
 20
85.6711734748
 10
162.9637427448
 20
85.6089287525
 10
162.9490564874
 20
85.5487287687
 10
162.9324283127
 20
85.489299483
 10
162.9137188384
 20
85.4295601566
 10
162.8929851097
 20
85.3692599609
 10
162.8701700813
 20
85.3086497245
 10
162.8449632349
 20
85.2474011943
 10
162.8172610645
 20
85.1854049525
 10
162.7871670761
 20
85.1227704168
 10
162.7546812697
 20
85.0594975873
  0
LWPOLYLINE
  5
2DA
100
AcDbEntity
  8
IMPORT_IGES
100
AcDbPolyline
 62
7
  6
CONTINUOUS
 90
31
 70
0
 10
161.7739264418
 20
86.5343977334
 10
161.7414374709
 20
86.5601594926
 10
161.711340715
 20
86.5880455261
 10
161.6836361742
 20
86.6180558341
 10
161.6584272426
 20
86.6502008481
 10
161.6356105261
 20
86.6844701366
 10
161.6148758421
 20
86.7208324046
 10
161.5961664055
 20
86.7589704144
 10
161.5795390014
 20
86.7992014037
 10
161.5648538024
 20
86.8424457911
 10
161.5518939616
 20
86.8897279584
 10
161.540876326
 20
86.9400235237
 10
161.5323116091
 20
86.9911797596
 10
161.5264121864
 20
87.0420771
 10
161.5229656823
 20
87.0938351109
 10
161.5218456845
 20
87.1476597632
 10
161.5230298711
 20
87.2044987252
 10
161.5265405639
 20
87.2634043286
 10
161.5323183161
 20
87.3227395398
 10
161.5403279529
 20
87.381813699
 10
161.550604649
 20
87.4413174658
 10
161.5631944814
 20
87.5016857862
 10
161.57817399
 20
87.5633391224
 10
161.5954666347
 20
87.6258570121
 10
161.6148888732
 20
87.6884130141
 10
161.6364480519
 20
87.7508953861
 10
161.6601368244
 20
87.8134158704
 10
161.6857496078
 20
87.8754832536
 10
161.7132178748
 20
87.9369337979
 10
161.7426101528
 20
87.9979312412
 10
161.7739264418
 20
88.0584755834
  0
LINE
  5
2DB
100
AcDbEntity
  8
IMPORT_IGES
100
AcDbLine
 62
253
  6
CONTINUOUS
 10
160.5027917762
 20
85.8615066502
 11
160.575996857
 21
85.7882968529
  0
LINE
  5
2DC
100
AcDbEntity
  8
IMPORT_IGES
100
AcDbLine
 62
253
  6
CONTINUOUS
 10
161.6565000648
 20
83.2120096655
 11
161.5484410674
 21
83.3464385871
  0
LWPOLYLINE
  5
2DD
100
AcDbEntity
  8
IMPORT_IGES
100
AcDbPolyline
 62
7
  6
CONTINUOUS
 90
8
 70
0
 10
155.1578807049
 20
92.2951617663
 10
155.1606548461
 20
92.2637489307
 10
155.1670166741
 20
92.2327730213
 10
155.1769661889
 20
92.2022340382
 10
155.1909738586
 20
92.1713157887
 10
155.208569215
 20
92.1408344654
 10
155.2283408539
 20
92.1132386463
 10
155.2416510263
 20
92.0984307972
  0
LINE
  5
2DE
100
AcDbEntity
  8
IMPORT_IGES
100
AcDbLine
 62
7
  6
CONTINUOUS
 10
154.662905958
 20
83.1095278945
 11
154.662905958
 21
82.456351673
  0
LINE
  5
2DF
100
AcDbEntity
  8
IMPORT_IGES
100
AcDbLine
 62
7
  6
CONTINUOUS
 10
154.662905958
 20
84.497527365
 11
154.662905958
 21
85.1507035864
  0
LINE
  5
2E0
100
AcDbEntity
  8
IMPORT_IGES
100
AcDbLine
 62
7
  6
CONTINUOUS
 10
154.662905958
 20
86.538703057
 11
154.662905958
 21
87.1918792784
  0
LINE
  5
2E1
100
AcDbEntity
  8
IMPORT_IGES
100
AcDbLine
 62
7
  6
CONTINUOUS
 10
154.662905958
 20
88.579878749
 11
154.662905958
 21
89.2330549704
  0
LINE
  5
2E2
100
AcDbEntity
  8
IMPORT_IGES
100
AcDbLine
 62
7
  6
CONTINUOUS
 10
154.9970096249
 20
87.0806190362
 11
154.9970096249
 21
86.7316103269
  0
LINE
  5
2E3
100
AcDbEntity
  8
IMPORT_IGES
100
AcDbLine
 62
7
  6
CONTINUOUS
 10
154.9970096249
 20
85.0394433442
 11
154.9970096249
 21
84.6904346349
  0
LINE
  5
2E4
100
AcDbEntity
  8
IMPORT_IGES
100
AcDbLine
 62
7
  6
CONTINUOUS
 10
154.9970096249
 20
82.649258943
 11
154.9970096249
 21
82.9982676522
  0
LINE
  5
2E5
100
AcDbEntity
  8
IMPORT_IGES
100
AcDbLine
 62
7
  6
CONTINUOUS
 10
154.9970096249
 20
88.7727860189
 11
154.9970096249
 21
89.1217947282
  0
LINE
  5
2E6
100
AcDbEntity
  8
IMPORT_IGES
100
AcDbLine
 62
7
  6
CONTINUOUS
 10
155.1578807049
 20
92.2951617663
 11
155.1578807049
 21
92.621749877
  0
LWPOLYLINE
  5
2E7
100
AcDbEntity
  8
IMPORT_IGES
100
AcDbPolyline
 62
7
  6
CONTINUOUS
 90
6
 70
0
 10
154.662905958
 20
89.2330549704
 10
154.6642930287
 20
89.2471596338
 10
154.6674739427
 20
89.2589743487
 10
154.6724487001
 20
89.2684991152
 10
154.6794525349
 20
89.275870387
 10
154.6836733602
 20
89.2787240961
  0
LWPOLYLINE
  5
2E8
100
AcDbEntity
  8
IMPORT_IGES
100
AcDbPolyline
 62
7
  6
CONTINUOUS
 90
6
 70
0
 10
154.662905958
 20
87.1918792784
 10
154.6642930287
 20
87.2059839418
 10
154.6674739427
 20
87.2177986568
 10
154.6724487001
 20
87.2273234232
 10
154.6794525349
 20
87.234694695
 10
154.6836733602
 20
87.2375484041
  0
LWPOLYLINE
  5
2E9
100
AcDbEntity
  8
IMPORT_IGES
100
AcDbPolyline
 62
7
  6
CONTINUOUS
 90
10
 70
0
 10
157.6206224047
 20
91.7980103676
 10
157.6087176036
 20
91.7904766122
 10
157.5981237799
 20
91.7825050803
 10
157.5888409335
 20
91.7740957721
 10
157.5808183466
 20
91.7651779899
 10
157.5741067371
 20
91.7558224314
 10
157.5688582584
 20
91.7462411888
 10
157.5651236284
 20
91.7365049596
 10
157.5628521292
 20
91.7265430463
 10
157.5620437609
 20
91.7163554489
  0
LINE
  5
2EA
100
AcDbEntity
  8
IMPORT_IGES
100
AcDbLine
 62
7
  6
CONTINUOUS
 10
158.5519932546
 20
93.3155602286
 11
158.7629246216
 21
93.4373493563
  0
LINE
  5
2EB
100
AcDbEntity
  8
IMPORT_IGES
100
AcDbLine
 62
7
  6
CONTINUOUS
 10
157.6206224047
 20
91.7980103676
 11
158.2691505421
 21
92.1724623862
  0
LINE
  5
2EC
100
AcDbEntity
  8
IMPORT_IGES
100
AcDbLine
 62
7
  6
CONTINUOUS
 10
157.5034651171
 20
91.4854004621
 11
156.5013835891
 21
90.9068111468
  0
LINE
  5
2ED
100
AcDbEntity
  8
IMPORT_IGES
100
AcDbLine
 62
7
  6
CONTINUOUS
 10
156.7830256343
 20
92.9884011779
 11
158.2326662859
 21
92.1513968339
  0
LINE
  5
2EE
100
AcDbEntity
  8
IMPORT_IGES
100
AcDbLine
 62
7
  6
CONTINUOUS
 10
161.5953026786
 20
90.2098527245
 11
163.146986665
 21
89.313929838
  0
LINE
  5
2EF
100
AcDbEntity
  8
IMPORT_IGES
100
AcDbLine
 62
7
  6
CONTINUOUS
 10
153.4675468942
 20
94.9435405636
 11
146.2550577261
 21
99.1079414155
  0
LINE
  5
2F0
100
AcDbEntity
  8
IMPORT_IGES
100
AcDbLine
 62
7
  6
CONTINUOUS
 10
161.3804203793
 20
90.3760541755
 11
160.2490495294
 21
91.0292935248
  0
LINE
  5
2F1
100
AcDbEntity
  8
IMPORT_IGES
100
AcDbLine
 62
7
  6
CONTINUOUS
 10
159.400521392
 20
91.5192230368
 11
158.2691505421
 21
92.1724623862
  0
LINE
  5
2F2
100
AcDbEntity
  8
IMPORT_IGES
100
AcDbLine
 62
253
  6
CONTINUOUS
 10
159.400538477
 20
91.5192526271
 11
160.2490666144
 21
91.0293231151
  0
LINE
  5
2F3
100
AcDbEntity
  8
IMPORT_IGES
100
AcDbLine
 62
253
  6
CONTINUOUS
 10
161.3804374643
 20
90.3760837658
 11
161.4511310574
 21
90.3352661711
  0
LINE
  5
2F4
100
AcDbEntity
  8
IMPORT_IGES
100
AcDbLine
 62
7
  6
CONTINUOUS
 10
138.6536598283
 20
103.6600374204
 11
142.4720364467
 21
101.4553546164
  0
LINE
  5
2F5
100
AcDbEntity
  8
IMPORT_IGES
100
AcDbLine
 62
7
  6
CONTINUOUS
 10
162.0875271605
 20
90.2944229298
 11
161.5925524137
 21
90.5802151451
  0
LINE
  5
2F6
100
AcDbEntity
  8
IMPORT_IGES
100
AcDbLine
 62
253
  6
CONTINUOUS
 10
161.5925524137
 20
90.5802151451
 11
159.0469680014
 21
92.0500036811
  0
LINE
  5
2F7
100
AcDbEntity
  8
IMPORT_IGES
100
AcDbLine
 62
7
  6
CONTINUOUS
 10
159.0469680014
 20
92.0500036811
 11
158.5519932546
 21
92.3357958965
  0
LINE
  5
2F8
100
AcDbEntity
  8
IMPORT_IGES
100
AcDbLine
 62
7
  6
CONTINUOUS
 10
138.8293952141
 20
103.9272349331
 11
137.62939258
 21
104.6201014144
  0
LINE
  5
2F9
100
AcDbEntity
  8
IMPORT_IGES
100
AcDbLine
 62
7
  6
CONTINUOUS
 10
159.6833641045
 20
92.1724387132
 11
160.9561563106
 21
91.4375444452
  0
LINE
  5
2FA
100
AcDbEntity
  8
IMPORT_IGES
100
AcDbLine
 62
7
  6
CONTINUOUS
 10
160.9561563106
 20
91.6811227007
 11
159.8942954715
 21
92.2942278409
  0
LINE
  5
2FB
100
AcDbEntity
  8
IMPORT_IGES
100
AcDbLine
 62
7
  6
CONTINUOUS
 10
162.740869803
 20
88.6335180429
 11
162.7546812697
 21
88.6247511293
  0
LWPOLYLINE
  5
2FC
100
AcDbEntity
  8
IMPORT_IGES
100
AcDbPolyline
 62
7
  6
CONTINUOUS
 90
31
 70
0
 10
162.7546812697
 20
88.6247511293
 10
162.7860008305
 20
88.600367271
 10
162.8153959403
 20
88.573307978
 10
162.8428665991
 20
88.5435732501
 10
162.8684814266
 20
88.5110781998
 10
162.8921718031
 20
88.4759077147
 10
162.9137318695
 20
88.4383164582
 10
162.9331540404
 20
88.3981846122
 10
162.9504459013
 20
88.3556319948
 10
162.9654243482
 20
88.3112727234
 10
162.9780129852
 20
88.2654384504
 10
162.9882882084
 20
88.2177975235
 10
162.9962961024
 20
88.1679691031
 10
163.0020717448
 20
88.115303658
 10
163.0055800581
 20
88.0604507194
 10
163.0067618945
 20
88.0049780412
 10
163.0056396072
 20
87.949858523
 10
163.0021908431
 20
87.8941192652
 10
162.9962893955
 20
87.8364093229
 10
162.98772294
 20
87.7753645871
 10
162.976703801
 20
87.7123491667
 10
162.9637427448
 20
87.6501044445
 10
162.9490564874
 20
87.5899044607
 10
162.9324283127
 20
87.530475175
 10
162.9137188384
 20
87.4707358486
 10
162.8929851097
 20
87.4104356529
 10
162.8701700813
 20
87.3498254165
 10
162.8449632349
 20
87.2885768863
 10
162.8172610645
 20
87.2265806445
 10
162.7871670761
 20
87.1639461088
 10
162.7546812697
 20
87.1006732793
  0
LINE
  5
2FD
100
AcDbEntity
  8
IMPORT_IGES
100
AcDbLine
 62
253
  6
CONTINUOUS
 10
161.5484410674
 20
85.387614279
 11
161.6565000648
 21
85.2531853574
  0
LWPOLYLINE
  5
2FE
100
AcDbEntity
  8
IMPORT_IGES
100
AcDbPolyline
 62
7
  6
CONTINUOUS
 90
6
 70
0
 10
156.443045189
 20
90.8251582485
 10
156.4437631349
 20
90.8150079978
 10
156.4495220984
 20
90.7955013581
 10
156.4610457327
 20
90.7773533354
 10
156.4783328962
 20
90.7600199859
 10
156.5013835891
 20
90.7435013095
  0
LINE
  5
2FF
100
AcDbEntity
  8
IMPORT_IGES
100
AcDbLine
 62
7
  6
CONTINUOUS
 10
155.3700127392
 20
88.8247803771
 11
155.3700127392
 21
88.1716041556
  0
LINE
  5
300
100
AcDbEntity
  8
IMPORT_IGES
100
AcDbLine
 62
7
  6
CONTINUOUS
 10
155.3700127392
 20
86.7836046851
 11
155.3700127392
 21
86.1304284637
  0
LINE
  5
301
100
AcDbEntity
  8
IMPORT_IGES
100
AcDbLine
 62
7
  6
CONTINUOUS
 10
155.3700127392
 20
84.7424289931
 11
155.3700127392
 21
84.0892527717
  0
LINE
  5
302
100
AcDbEntity
  8
IMPORT_IGES
100
AcDbLine
 62
7
  6
CONTINUOUS
 10
155.3700127392
 20
82.0480770797
 11
155.3700127392
 21
82.7012533011
  0
LINE
  5
303
100
AcDbEntity
  8
IMPORT_IGES
100
AcDbLine
 62
7
  6
CONTINUOUS
 10
156.4428049454
 20
80.6740330984
 11
156.4428049454
 21
80.5376307406
  0
LINE
  5
304
100
AcDbEntity
  8
IMPORT_IGES
100
AcDbLine
 62
7
  6
CONTINUOUS
 10
156.4428049454
 20
89.9678624376
 11
156.4428049454
 21
90.8251562282
  0
LINE
  5
305
100
AcDbEntity
  8
IMPORT_IGES
100
AcDbLine
 62
253
  6
CONTINUOUS
 10
156.5013835891
 20
80.6402105236
 11
156.5013835891
 21
80.4559758219
  0
LINE
  5
306
100
AcDbEntity
  8
IMPORT_IGES
100
AcDbLine
 62
253
  6
CONTINUOUS
 10
156.5013835891
 20
89.8862075189
 11
156.5013835891
 21
90.7435013095
  0
LWPOLYLINE
  5
307
100
AcDbEntity
  8
IMPORT_IGES
100
AcDbPolyline
 62
7
  6
CONTINUOUS
 90
6
 70
0
 10
154.662905958
 20
85.1507035864
 10
154.6642930287
 20
85.1648082499
 10
154.6674739427
 20
85.1766229648
 10
154.6724487001
 20
85.1861477312
 10
154.6794525349
 20
85.1935190031
 10
154.6836733602
 20
85.1963727121
  0
LWPOLYLINE
  5
308
100
AcDbEntity
  8
IMPORT_IGES
100
AcDbPolyline
 62
7
  6
CONTINUOUS
 90
6
 70
0
 10
154.662905958
 20
83.1095278945
 10
154.6642930287
 20
83.1236325579
 10
154.6674739427
 20
83.1354472728
 10
154.6724487001
 20
83.1449720392
 10
154.6794525349
 20
83.1523433111
 10
154.6836733602
 20
83.1551970202
  0
LWPOLYLINE
  5
309
100
AcDbEntity
  8
IMPORT_IGES
100
AcDbPolyline
 62
7
  6
CONTINUOUS
 90
6
 70
0
 10
155.3700127392
 20
88.1716041556
 10
155.3686256686
 20
88.1574994922
 10
155.3654447546
 20
88.1456847773
 10
155.3604699972
 20
88.1361600109
 10
155.3534661624
 20
88.128788739
 10
155.3492442598
 20
88.1259344079
  0
LWPOLYLINE
  5
30A
100
AcDbEntity
  8
IMPORT_IGES
100
AcDbPolyline
 62
7
  6
CONTINUOUS
 90
6
 70
0
 10
155.3700127392
 20
86.1304284637
 10
155.3686256686
 20
86.1163238002
 10
155.3654447546
 20
86.1045090853
 10
155.3604699972
 20
86.0949843189
 10
155.3534661624
 20
86.0876130471
 10
155.3492442598
 20
86.0847587159
  0
LWPOLYLINE
  5
30B
100
AcDbEntity
  8
IMPORT_IGES
100
AcDbPolyline
 62
7
  6
CONTINUOUS
 90
6
 70
0
 10
155.3700127392
 20
84.0892527717
 10
155.3686256686
 20
84.0751481083
 10
155.3654447546
 20
84.0633333933
 10
155.3604699972
 20
84.0538086269
 10
155.3534661624
 20
84.0464373551
 10
155.3492442598
 20
84.0435830239
  0
LWPOLYLINE
  5
30C
100
AcDbEntity
  8
IMPORT_IGES
100
AcDbPolyline
 62
7
  6
CONTINUOUS
 90
6
 70
0
 10
155.3700127392
 20
82.0480770797
 10
155.3686256686
 20
82.0339724163
 10
155.3654447546
 20
82.0221577014
 10
155.3604699972
 20
82.0126329349
 10
155.3534661624
 20
82.0052616631
 10
155.3492453371
 20
82.002407954
  0
LWPOLYLINE
  5
30D
100
AcDbEntity
  8
IMPORT_IGES
100
AcDbPolyline
 62
7
  6
CONTINUOUS
 90
6
 70
0
 10
156.5013835891
 20
90.9068111468
 10
156.478339745
 20
90.8903024113
 10
156.4610560058
 20
90.8729765173
 10
156.4495323715
 20
90.8548334651
 10
156.4437677007
 20
90.8353293106
 10
156.443045189
 20
90.8251582485
  0
LWPOLYLINE
  5
30E
100
AcDbEntity
  8
IMPORT_IGES
100
AcDbPolyline
 62
7
  6
CONTINUOUS
 90
10
 70
0
 10
158.9055466452
 20
91.8050547071
 10
158.9313646306
 20
91.8231648875
 10
158.9550101978
 20
91.8441633112
 10
158.9764833468
 20
91.8680499783
 10
158.9962556873
 20
91.8956404225
 10
159.0138556095
 20
91.9261191101
 10
159.0278682849
 20
91.9570394398
 10
159.0378221039
 20
91.9875858781
 10
159.0441886761
 20
92.0185739585
 10
159.0469680014
 20
92.0500036811
  0
LINE
  5
30F
100
AcDbEntity
  8
IMPORT_IGES
100
AcDbLine
 62
7
  6
CONTINUOUS
 10
159.6833641045
 20
92.6623208793
 11
159.8942954715
 21
92.784110007
  0
LINE
  5
310
100
AcDbEntity
  8
IMPORT_IGES
100
AcDbLine
 62
7
  6
CONTINUOUS
 10
159.8942954715
 20
92.2942278409
 11
159.6833641045
 21
92.1724387132
  0
LINE
  5
311
100
AcDbEntity
  8
IMPORT_IGES
100
AcDbLine
 62
253
  6
CONTINUOUS
 10
154.7336132191
 20
89.2738804568
 11
154.662905958
 21
89.2330549704
  0
LINE
  5
312
100
AcDbEntity
  8
IMPORT_IGES
100
AcDbLine
 62
7
  6
CONTINUOUS
 10
148.2703120525
 20
85.4109600883
 11
153.2486923957
 21
88.2854145047
  0
LINE
  5
313
100
AcDbEntity
  8
IMPORT_IGES
100
AcDbLine
 62
7
  6
CONTINUOUS
 10
157.2792010484
 20
90.2943992569
 11
159.400521392
 21
91.5192230368
  0
LINE
  5
314
100
AcDbEntity
  8
IMPORT_IGES
100
AcDbLine
 62
253
  6
CONTINUOUS
 10
154.9970096249
 20
88.7727860189
 11
154.662905958
 21
88.579878749
  0
LINE
  5
315
100
AcDbEntity
  8
IMPORT_IGES
100
AcDbLine
 62
253
  6
CONTINUOUS
 10
155.0680288385
 20
88.6504896764
 11
154.7336166362
 21
88.457404262
  0
LINE
  5
316
100
AcDbEntity
  8
IMPORT_IGES
100
AcDbLine
 62
7
  6
CONTINUOUS
 10
159.400521392
 20
91.1109878984
 11
157.2792010484
 21
89.8861641185
  0
LINE
  5
317
100
AcDbEntity
  8
IMPORT_IGES
100
AcDbLine
 62
7
  6
CONTINUOUS
 10
161.1670876776
 20
92.049215739
 11
160.9561563106
 21
91.9274266113
  0
LWPOLYLINE
  5
318
100
AcDbEntity
  8
IMPORT_IGES
100
AcDbPolyline
 62
7
  6
CONTINUOUS
 90
5
 70
0
 10
154.6836733602
 20
89.2787240961
 10
154.6882502131
 20
89.2809517104
 10
154.6981360326
 20
89.2833337234
 10
154.7088747592
 20
89.2828799722
 10
154.7207016271
 20
89.2797269106
  0
LINE
  5
319
100
AcDbEntity
  8
IMPORT_IGES
100
AcDbLine
 62
7
  6
CONTINUOUS
 10
158.5519932546
 20
93.3155602286
 11
159.6833641045
 21
92.6623208793
  0
LINE
  5
31A
100
AcDbEntity
  8
IMPORT_IGES
100
AcDbLine
 62
7
  6
CONTINUOUS
 10
160.9561563106
 20
91.9274266113
 11
162.0875271605
 21
91.274187262
  0
LINE
  5
31B
100
AcDbEntity
  8
IMPORT_IGES
100
AcDbLine
 62
7
  6
CONTINUOUS
 10
158.7629246216
 20
93.4373493563
 11
159.8942954715
 21
92.784110007
  0
LINE
  5
31C
100
AcDbEntity
  8
IMPORT_IGES
100
AcDbLine
 62
7
  6
CONTINUOUS
 10
161.1670876776
 20
92.049215739
 11
162.2984585275
 21
91.3959763897
  0
LINE
  5
31D
100
AcDbEntity
  8
IMPORT_IGES
100
AcDbLine
 62
7
  6
CONTINUOUS
 10
143.815539331
 20
102.2310763438
 11
139.9971627126
 21
104.4357591477
  0
LINE
  5
31E
100
AcDbEntity
  8
IMPORT_IGES
100
AcDbLine
 62
7
  6
CONTINUOUS
 10
137.62939258
 20
106.0057004624
 11
138.8293952141
 21
105.312833981
  0
LINE
  5
31F
100
AcDbEntity
  8
IMPORT_IGES
100
AcDbLine
 62
253
  6
CONTINUOUS
 10
161.6565000648
 20
87.2943610494
 11
161.5484410674
 21
87.428789971
  0
LINE
  5
320
100
AcDbEntity
  8
IMPORT_IGES
100
AcDbLine
 62
7
  6
CONTINUOUS
 10
157.2792010484
 20
80.191108471
 11
157.2792010484
 21
80.0068737693
  0
LINE
  5
321
100
AcDbEntity
  8
IMPORT_IGES
100
AcDbLine
 62
7
  6
CONTINUOUS
 10
157.2792010484
 20
89.8861641185
 11
157.2792010484
 21
90.2943992569
  0
LINE
  5
322
100
AcDbEntity
  8
IMPORT_IGES
100
AcDbLine
 62
7
  6
CONTINUOUS
 10
157.5620437609
 20
91.7163554489
 11
157.5620437609
 21
91.5670553808
  0
LWPOLYLINE
  5
323
100
AcDbEntity
  8
IMPORT_IGES
100
AcDbPolyline
 62
7
  6
CONTINUOUS
 90
10
 70
0
 10
157.5620437609
 20
91.5670553808
 10
157.5612353926
 20
91.5568677834
 10
157.5589638934
 20
91.5469058701
 10
157.5552292634
 20
91.5371696409
 10
157.5499807847
 20
91.5275883983
 10
157.5432691752
 20
91.5182328397
 10
157.5352465883
 20
91.5093150576
 10
157.5259637419
 20
91.5009057493
 10
157.5153699182
 20
91.4929342175
 10
157.5034651171
 20
91.4854004621
  0
LINE
  5
324
100
AcDbEntity
  8
IMPORT_IGES
100
AcDbLine
 62
7
  6
CONTINUOUS
 10
160.2490495294
 20
91.0292935248
 11
158.1277291859
 21
89.8044697449
  0
LINE
  5
325
100
AcDbEntity
  8
IMPORT_IGES
100
AcDbLine
 62
253
  6
CONTINUOUS
 10
155.2993020611
 20
88.1307845873
 11
155.3700093222
 21
88.1716100737
  0
LINE
  5
326
100
AcDbEntity
  8
0
100
AcDbLine
 62
7
  6
CONTINUOUS
 10
164.6044786979
 20
93.1263990383
 11
163.473107848
 21
92.473159689
  0
LINE
  5
327
100
AcDbEntity
  8
IMPORT_IGES
100
AcDbLine
 62
253
  6
CONTINUOUS
 10
154.7336132191
 20
87.2327047648
 11
154.662905958
 21
87.1918792784
  0
LINE
  5
328
100
AcDbEntity
  8
IMPORT_IGES
100
AcDbLine
 62
7
  6
CONTINUOUS
 10
162.0875271605
 20
91.274187262
 11
162.2984585275
 21
91.3959763897
  0
LINE
  5
329
100
AcDbEntity
  8
IMPORT_IGES
100
AcDbLine
 62
7
  6
CONTINUOUS
 10
148.2703120525
 20
83.2881373686
 11
153.2486923957
 21
86.162591785
  0
LINE
  5
32A
100
AcDbEntity
  8
IMPORT_IGES
100
AcDbLine
 62
7
  6
CONTINUOUS
 10
159.1883893576
 20
89.3553676922
 11
160.1904708856
 21
89.9339570074
  0
LWPOLYLINE
  5
32B
100
AcDbEntity
  8
IMPORT_IGES
100
AcDbPolyline
 62
7
  6
CONTINUOUS
 90
10
 70
0
 10
160.1904708856
 20
89.9339570074
 10
160.2035188921
 20
89.9408306904
 10
160.2173251008
 20
89.9469474314
 10
160.2318895116
 20
89.9523072306
 10
160.2473345682
 20
89.9569393717
 10
160.263537827
 20
89.9608145709
 10
160.2801319569
 20
89.9638449768
 10
160.2969945141
 20
89.9660013053
 10
160.3142479425
 20
89.9673128405
 10
160.3318922419
 20
89.9677795822
  0
LWPOLYLINE
  5
32C
100
AcDbEntity
  8
IMPORT_IGES
100
AcDbPolyline
 62
7
  6
CONTINUOUS
 90
6
 70
0
 10
155.3492442598
 20
88.1259344079
 10
155.3446684841
 20
88.1237074157
 10
155.3347826647
 20
88.1213254026
 10
155.3240439381
 20
88.1217791539
 10
155.3122170702
 20
88.1249322154
 10
155.2993020611
 20
88.1307845873
  0
LWPOLYLINE
  5
32D
100
AcDbEntity
  8
IMPORT_IGES
100
AcDbPolyline
 62
7
  6
CONTINUOUS
 90
5
 70
0
 10
154.6836733602
 20
87.2375484041
 10
154.6882502131
 20
87.2397760184
 10
154.6981360326
 20
87.2421580314
 10
154.7088747592
 20
87.2417042802
 10
154.7207016271
 20
87.2385512186
  0
LINE
  5
32E
100
AcDbEntity
  8
IMPORT_IGES
100
AcDbLine
 62
7
  6
CONTINUOUS
 10
139.6779252141
 20
105.8027645684
 11
138.47792258
 21
106.4956310498
  0
LINE
  5
32F
100
AcDbEntity
  8
0
100
AcDbLine
 62
7
  6
CONTINUOUS
 10
163.473107848
 20
92.473159689
 11
138.0172637253
 21
107.1710450488
  0
LWPOLYLINE
  5
330
100
AcDbEntity
  8
IMPORT_IGES
100
AcDbPolyline
 62
7
  6
CONTINUOUS
 90
7
 70
0
 10
159.6126534263
 20
78.9452532983
 10
159.614867113
 20
78.9132980704
 10
159.6203376776
 20
78.8849702931
 10
159.62906512
 20
78.8602699666
 10
159.6413029768
 20
78.8389650198
 10
159.6567977115
 20
78.8212875237
 10
159.6747989449
 20
78.8079277866
  0
LINE
  5
331
100
AcDbEntity
  8
IMPORT_IGES
100
AcDbLine
 62
7
  6
CONTINUOUS
 10
158.1277291859
 20
89.8044697449
 11
158.1277291859
 21
89.3962346065
  0
LINE
  5
332
100
AcDbEntity
  8
IMPORT_IGES
100
AcDbLine
 62
7
  6
CONTINUOUS
 10
158.1277291859
 20
79.701178959
 11
158.1277291859
 21
79.5169442573
  0
LINE
  5
333
100
AcDbEntity
  8
IMPORT_IGES
100
AcDbLine
 62
7
  6
CONTINUOUS
 10
158.5519932546
 20
92.3357958965
 11
158.5519932546
 21
93.3155602286
  0
LINE
  5
334
100
AcDbEntity
  8
IMPORT_IGES
100
AcDbLine
 62
253
  6
CONTINUOUS
 10
158.9055466452
 20
89.3553676922
 11
158.9055466452
 21
88.4980739016
  0
LINE
  5
335
100
AcDbEntity
  8
IMPORT_IGES
100
AcDbLine
 62
253
  6
CONTINUOUS
 10
158.9055466452
 20
79.2520769063
 11
158.9055466452
 21
79.0678422046
  0
LINE
  5
336
100
AcDbEntity
  8
IMPORT_IGES
100
AcDbLine
 62
253
  6
CONTINUOUS
 10
159.1883893576
 20
79.088767069
 11
159.1883893576
 21
79.0678422046
  0
LINE
  5
337
100
AcDbEntity
  8
IMPORT_IGES
100
AcDbLine
 62
253
  6
CONTINUOUS
 10
159.1883893576
 20
88.4980739016
 11
159.1883893576
 21
89.3553676922
  0
LWPOLYLINE
  5
338
100
AcDbEntity
  8
IMPORT_IGES
100
AcDbPolyline
 62
7
  6
CONTINUOUS
 90
10
 70
0
 10
161.4511310574
 20
90.0903250881
 10
161.4967001905
 20
90.1204603312
 10
161.5400594293
 20
90.1550400462
 10
161.5812087739
 20
90.1940642333
 10
161.6206219092
 20
90.2382162234
 10
161.6578251502
 20
90.2868126855
 10
161.6913974422
 20
90.3378036262
 10
161.7212449285
 20
90.3913036627
 10
161.7474614658
 20
90.4471981778
 10
161.7611482089
 20
90.482870046
  0
LINE
  5
339
100
AcDbEntity
  8
IMPORT_IGES
100
AcDbLine
 62
253
  6
CONTINUOUS
 10
154.9970096249
 20
86.7316103269
 11
154.662905958
 21
86.538703057
  0
LINE
  5
33A
100
AcDbEntity
  8
IMPORT_IGES
100
AcDbLine
 62
7
  6
CONTINUOUS
 10
160.7318922419
 20
90.0016021569
 11
161.3804203793
 21
90.3760541755
  0
LINE
  5
33B
100
AcDbEntity
  8
IMPORT_IGES
100
AcDbLine
 62
7
  6
CONTINUOUS
 10
161.3804203793
 20
90.2944387118
 11
161.4511310574
 21
90.3352661711
  0
LINE
  5
33C
100
AcDbEntity
  8
IMPORT_IGES
100
AcDbLine
 62
253
  6
CONTINUOUS
 10
154.7336166362
 20
86.41622857
 11
155.0680288385
 21
86.6093139844
  0
LINE
  5
33D
100
AcDbEntity
  8
IMPORT_IGES
100
AcDbLine
 62
7
  6
CONTINUOUS
 10
161.4511310574
 20
90.0903250881
 11
161.3804203793
 21
90.0494976288
  0
LINE
  5
33E
100
AcDbEntity
  8
IMPORT_IGES
100
AcDbLine
 62
7
  6
CONTINUOUS
 10
162.2984585275
 20
90.4162120576
 11
162.0875271605
 21
90.2944229298
  0
LINE
  5
33F
100
AcDbEntity
  8
IMPORT_IGES
100
AcDbLine
 62
7
  6
CONTINUOUS
 10
159.1883893576
 20
88.4980739016
 11
160.1904708856
 21
89.0766632168
  0
LINE
  5
340
100
AcDbEntity
  8
IMPORT_IGES
100
AcDbLine
 62
253
  6
CONTINUOUS
 10
155.3700093222
 20
86.1304343817
 11
155.2993020611
 21
86.0896088953
  0
LINE
  5
341
100
AcDbEntity
  8
IMPORT_IGES
100
AcDbLine
 62
7
  6
CONTINUOUS
 10
161.3804203793
 20
89.5187603849
 11
160.7318922419
 21
89.1443083663
  0
LINE
  5
342
100
AcDbEntity
  8
IMPORT_IGES
100
AcDbLine
 62
253
  6
CONTINUOUS
 10
154.662905958
 20
85.1507035864
 11
154.7336132191
 21
85.1915290728
  0
LWPOLYLINE
  5
343
100
AcDbEntity
  8
IMPORT_IGES
100
AcDbPolyline
 62
7
  6
CONTINUOUS
 90
10
 70
0
 10
160.7318922419
 20
89.1443083663
 10
160.7188442354
 20
89.1374346834
 10
160.7050380268
 20
89.1313179423
 10
160.690473616
 20
89.1259581432
 10
160.6750285593
 20
89.1213260021
 10
160.6588253005
 20
89.1174508028
 10
160.6422311707
 20
89.114420397
 10
160.6253686134
 20
89.1122640684
 10
160.6081151851
 20
89.1109525333
 10
160.5904708856
 20
89.1104857916
  0
LWPOLYLINE
  5
344
100
AcDbEntity
  8
IMPORT_IGES
100
AcDbPolyline
 62
7
  6
CONTINUOUS
 90
6
 70
0
 10
155.3492442598
 20
86.0847587159
 10
155.3446684841
 20
86.0825317237
 10
155.3347826647
 20
86.0801497107
 10
155.3240439381
 20
86.0806034619
 10
155.3122170702
 20
86.0837565234
 10
155.2993020611
 20
86.0896088953
  0
LWPOLYLINE
  5
345
100
AcDbEntity
  8
IMPORT_IGES
100
AcDbPolyline
 62
7
  6
CONTINUOUS
 90
5
 70
0
 10
154.6836733602
 20
85.1963727121
 10
154.6882502131
 20
85.1986003264
 10
154.6981360326
 20
85.2009823394
 10
154.7088747592
 20
85.2005285882
 10
154.7207016271
 20
85.1973755267
  0
LWPOLYLINE
  5
346
100
AcDbEntity
  8
IMPORT_IGES
100
AcDbPolyline
 62
7
  6
CONTINUOUS
 90
10
 70
0
 10
159.1883893576
 20
88.4980739016
 10
159.159797231
 20
88.4847686748
 10
159.1297898358
 20
88.4747892604
 10
159.0983671719
 20
88.4681356584
 10
159.0645871618
 20
88.4648072097
 10
159.0293918831
 20
88.4648045735
 10
158.9956075688
 20
88.4681297268
 10
158.9641762965
 20
88.4747833288
 10
158.9341559886
 20
88.4847647204
 10
158.9055466452
 20
88.4980739016
  0
LINE
  5
347
100
AcDbEntity
  8
0
100
AcDbLine
 62
7
  6
CONTINUOUS
 10
164.6044786979
 20
93.1263990383
 11
139.1486345752
 21
107.8242843981
  0
LINE
  5
348
100
AcDbEntity
  8
IMPORT_IGES
100
AcDbLine
 62
7
  6
CONTINUOUS
 10
141.3749833515
 20
106.7826246678
 11
140.1749807174
 21
107.4754911492
  0
LINE
  5
349
100
AcDbEntity
  8
IMPORT_IGES
100
AcDbLine
 62
7
  6
CONTINUOUS
 10
159.400521392
 20
91.1109878984
 11
159.400521392
 21
91.5192230368
  0
LINE
  5
34A
100
AcDbEntity
  8
IMPORT_IGES
100
AcDbLine
 62
7
  6
CONTINUOUS
 10
159.6126534263
 20
78.9452532983
 11
159.6126534263
 21
87.0283090385
  0
LINE
  5
34B
100
AcDbEntity
  8
IMPORT_IGES
100
AcDbLine
 62
7
  6
CONTINUOUS
 10
159.6833641045
 20
92.1724387132
 11
159.6833641045
 21
92.6623208793
  0
LINE
  5
34C
100
AcDbEntity
  8
IMPORT_IGES
100
AcDbLine
 62
7
  6
CONTINUOUS
 10
159.8942954715
 20
92.784110007
 11
159.8942954715
 21
92.2942278409
  0
LINE
  5
34D
100
AcDbEntity
  8
IMPORT_IGES
100
AcDbLine
 62
253
  6
CONTINUOUS
 10
160.1904708856
 20
89.0766632168
 11
160.1904708856
 21
89.9339570074
  0
LINE
  5
34E
100
AcDbEntity
  8
IMPORT_IGES
100
AcDbLine
 62
253
  6
CONTINUOUS
 10
160.3318922419
 20
89.9677795822
 11
160.3318922419
 21
89.1104857916
  0
LINE
  5
34F
100
AcDbEntity
  8
IMPORT_IGES
100
AcDbLine
 62
7
  6
CONTINUOUS
 10
160.5027917762
 20
83.2149712987
 11
160.5027917762
 21
81.7453248005
  0
LINE
  5
350
100
AcDbEntity
  8
IMPORT_IGES
100
AcDbLine
 62
7
  6
CONTINUOUS
 10
160.5027917762
 20
81.1737956067
 11
160.5027917762
 21
79.7041491085
  0
LINE
  5
351
100
AcDbEntity
  8
IMPORT_IGES
100
AcDbLine
 62
7
  6
CONTINUOUS
 10
160.5027917762
 20
83.7865004925
 11
160.5027917762
 21
85.2561469907
  0
LINE
  5
352
100
AcDbEntity
  8
IMPORT_IGES
100
AcDbLine
 62
7
  6
CONTINUOUS
 10
160.5027917762
 20
85.8276761845
 11
160.5027917762
 21
87.2973226827
  0
LINE
  5
353
100
AcDbEntity
  8
IMPORT_IGES
100
AcDbLine
 62
7
  6
CONTINUOUS
 10
160.5318922419
 20
87.3788946623
 11
160.5318922419
 21
86.8243374526
  0
LINE
  5
354
100
AcDbEntity
  8
IMPORT_IGES
100
AcDbLine
 62
7
  6
CONTINUOUS
 10
160.5318922419
 20
80.7008103767
 11
160.5318922419
 21
81.2553396968
  0
LINE
  5
355
100
AcDbEntity
  8
IMPORT_IGES
100
AcDbLine
 62
7
  6
CONTINUOUS
 10
160.5318922419
 20
82.7419860686
 11
160.5318922419
 21
83.2965153888
  0
LINE
  5
356
100
AcDbEntity
  8
IMPORT_IGES
100
AcDbLine
 62
7
  6
CONTINUOUS
 10
160.5318922419
 20
84.7831617606
 11
160.5318922419
 21
85.3376910808
  0
LINE
  5
357
100
AcDbEntity
  8
IMPORT_IGES
100
AcDbLine
 62
253
  6
CONTINUOUS
 10
160.5904708856
 20
89.1104857916
 11
160.5904708856
 21
89.9677795822
  0
LWPOLYLINE
  5
358
100
AcDbEntity
  8
IMPORT_IGES
100
AcDbPolyline
 62
7
  6
CONTINUOUS
 90
13
 70
0
 10
159.8247854607
 20
87.3957324996
 10
159.7960035796
 20
87.3765581393
 10
159.7687346679
 20
87.3544967511
 10
159.7429787256
 20
87.329548335
 10
159.7184079862
 20
87.3012308934
 10
159.6953502162
 20
87.2700264239
 10
159.6747887146
 20
87.2373809189
 10
159.6567977115
 20
87.2032515271
 10
159.6413029768
 20
87.1676810998
 10
159.62906512
 20
87.1322441827
 10
159.6203376776
 20
87.0974656244
 10
159.614867113
 20
87.0628205764
 10
159.6126534263
 20
87.0283090385
  0
LINE
  5
359
100
AcDbEntity
  8
IMPORT_IGES
100
AcDbLine
 62
253
  6
CONTINUOUS
 10
154.9970096249
 20
84.6904346349
 11
154.662905958
 21
84.497527365
  0
LINE
  5
35A
100
AcDbEntity
  8
IMPORT_IGES
100
AcDbLine
 62
7
  6
CONTINUOUS
 10
163.146986665
 20
89.313929838
 11
159.8247854607
 21
87.3957324996
  0
LINE
  5
35B
100
AcDbEntity
  8
IMPORT_IGES
100
AcDbLine
 62
253
  6
CONTINUOUS
 10
155.0680288385
 20
84.5681382925
 11
154.7336166362
 21
84.375052878
  0
LINE
  5
35C
100
AcDbEntity
  8
IMPORT_IGES
100
AcDbLine
 62
7
  6
CONTINUOUS
 10
162.0374495802
 20
88.3467089203
 11
162.4911581314
 21
88.6086745514
  0
LINE
  5
35D
100
AcDbEntity
  8
IMPORT_IGES
100
AcDbLine
 62
7
  6
CONTINUOUS
 10
160.575996857
 20
87.4212374065
 11
161.3097097012
 21
87.8448740072
  0
LINE
  5
35E
100
AcDbEntity
  8
IMPORT_IGES
100
AcDbLine
 62
253
  6
CONTINUOUS
 10
155.2993020611
 20
84.0484332033
 11
155.3700093222
 21
84.0892586897
  0
LWPOLYLINE
  5
35F
100
AcDbEntity
  8
IMPORT_IGES
100
AcDbPolyline
 62
7
  6
CONTINUOUS
 90
7
 70
0
 10
162.4911581314
 20
88.6086745514
 10
162.5246111868
 20
88.6260818362
 10
162.5572178028
 20
88.6395958735
 10
162.5889779794
 20
88.6492166636
 10
162.6201540332
 20
88.6549602092
 10
162.6504836476
 20
88.6568105075
 10
162.6791798734
 20
88.6547195495
  0
LWPOLYLINE
  5
360
100
AcDbEntity
  8
IMPORT_IGES
100
AcDbPolyline
 62
7
  6
CONTINUOUS
 90
6
 70
0
 10
155.3492442598
 20
84.0435830239
 10
155.3446684841
 20
84.0413560317
 10
155.3347826647
 20
84.0389740187
 10
155.3240439381
 20
84.0394277699
 10
155.3122170702
 20
84.0425808315
 10
155.2993020611
 20
84.0484332033
  0
LWPOLYLINE
  5
361
100
AcDbEntity
  8
IMPORT_IGES
100
AcDbPolyline
 62
7
  6
CONTINUOUS
 90
6
 70
0
 10
161.3097097012
 20
87.8448740072
 10
161.3226186939
 20
87.8507258982
 10
161.3344414775
 20
87.8538793405
 10
161.345178052
 20
87.8543343341
 10
161.3550642222
 20
87.8519554135
 10
161.3596445544
 20
87.8497284263
  0
LINE
  5
362
100
AcDbEntity
  8
IMPORT_IGES
100
AcDbLine
 62
253
  6
CONTINUOUS
 10
160.7318922419
 20
90.0016021569
 11
160.7318922419
 21
89.1443083663
  0
LINE
  5
363
100
AcDbEntity
  8
IMPORT_IGES
100
AcDbLine
 62
7
  6
CONTINUOUS
 10
160.9561563106
 20
91.4375444452
 11
160.9561563106
 21
91.9274266113
  0
LINE
  5
364
100
AcDbEntity
  8
IMPORT_IGES
100
AcDbLine
 62
7
  6
CONTINUOUS
 10
161.3804203793
 20
87.8040544388
 11
161.3804203793
 21
86.3344079406
  0
LINE
  5
365
100
AcDbEntity
  8
IMPORT_IGES
100
AcDbLine
 62
7
  6
CONTINUOUS
 10
161.3804203793
 20
80.2108808647
 11
161.3804203793
 21
81.6805273629
  0
LINE
  5
366
100
AcDbEntity
  8
IMPORT_IGES
100
AcDbLine
 62
7
  6
CONTINUOUS
 10
161.3804203793
 20
82.2520565566
 11
161.3804203793
 21
83.7217030549
  0
LINE
  5
367
100
AcDbEntity
  8
IMPORT_IGES
100
AcDbLine
 62
7
  6
CONTINUOUS
 10
161.3804203793
 20
84.2932322486
 11
161.3804203793
 21
85.7628787468
  0
LINE
  5
368
100
AcDbEntity
  8
IMPORT_IGES
100
AcDbLine
 62
7
  6
CONTINUOUS
 10
161.3804203793
 20
89.5187603849
 11
161.3804203793
 21
90.3760541755
  0
LWPOLYLINE
  5
369
100
AcDbEntity
  8
IMPORT_IGES
100
AcDbPolyline
 62
7
  6
CONTINUOUS
 90
10
 70
0
 10
161.5925524137
 20
90.5802151451
 10
161.5897782724
 20
90.5488023095
 10
161.5834164444
 20
90.5178264002
 10
161.5734669296
 20
90.4872874171
 10
161.55945926
 20
90.4563691675
 10
161.5418639035
 20
90.4258878442
 10
161.5220922646
 20
90.3982920252
 10
161.5006148113
 20
90.3743979029
 10
161.4769610756
 20
90.3533892849
 10
161.4511310574
 20
90.3352661711
  0
LWPOLYLINE
  5
36A
100
AcDbEntity
  8
IMPORT_IGES
100
AcDbPolyline
 62
7
  6
CONTINUOUS
 90
10
 70
0
 10
161.3804203793
 20
86.3344079406
 10
161.3790333087
 20
86.3187015228
 10
161.3758523947
 20
86.3032135681
 10
161.3708776373
 20
86.2879440766
 10
161.3638738025
 20
86.2724849518
 10
161.3550761242
 20
86.2572442902
 10
161.3451903048
 20
86.2434463806
 10
161.3344515781
 20
86.2314993195
 10
161.3226247103
 20
86.2209950105
 10
161.3097097012
 20
86.2119334536
  0
LINE
  5
36B
100
AcDbEntity
  8
IMPORT_IGES
100
AcDbLine
 62
7
  6
CONTINUOUS
 10
161.5238198157
 20
87.2177531365
 11
161.6565000648
 21
87.2943610494
  0
LINE
  5
36C
100
AcDbEntity
  8
IMPORT_IGES
100
AcDbLine
 62
253
  6
CONTINUOUS
 10
154.7336132191
 20
83.1503533809
 11
154.662905958
 21
83.1095278945
  0
LINE
  5
36D
100
AcDbEntity
  8
IMPORT_IGES
100
AcDbLine
 62
253
  6
CONTINUOUS
 10
154.662905958
 20
82.456351673
 11
154.9970096249
 21
82.649258943
  0
LINE
  5
36E
100
AcDbEntity
  8
IMPORT_IGES
100
AcDbLine
 62
7
  6
CONTINUOUS
 10
161.3097097012
 20
86.2119334536
 11
160.575996857
 21
85.7882968529
  0
LINE
  5
36F
100
AcDbEntity
  8
IMPORT_IGES
100
AcDbLine
 62
253
  6
CONTINUOUS
 10
155.0680288385
 20
82.5269626005
 11
154.7336166362
 21
82.333877186
  0
LINE
  5
370
100
AcDbEntity
  8
IMPORT_IGES
100
AcDbLine
 62
7
  6
CONTINUOUS
 10
162.4911581314
 20
86.8124399425
 11
162.0374495802
 21
86.5504743113
  0
LINE
  5
371
100
AcDbEntity
  8
IMPORT_IGES
100
AcDbLine
 62
7
  6
CONTINUOUS
 10
162.4911581314
 20
86.5674988595
 11
162.0374495802
 21
86.3055332283
  0
LINE
  5
372
100
AcDbEntity
  8
IMPORT_IGES
100
AcDbLine
 62
7
  6
CONTINUOUS
 10
161.3097097012
 20
85.8036983152
 11
160.575996857
 21
85.3800617145
  0
LWPOLYLINE
  5
373
100
AcDbEntity
  8
IMPORT_IGES
100
AcDbPolyline
 62
7
  6
CONTINUOUS
 90
10
 70
0
 10
162.0374495802
 20
86.5504743113
 10
162.0039965248
 20
86.5330670266
 10
161.9713899088
 20
86.5195529892
 10
161.9396297321
 20
86.5099321992
 10
161.9084536784
 20
86.5041886536
 10
161.878124064
 20
86.5023383553
 10
161.8494278382
 20
86.5044293132
 10
161.8226273174
 20
86.5104775304
 10
161.7974601853
 20
86.5204670038
 10
161.7877386523
 20
86.5256303943
  0
LWPOLYLINE
  5
374
100
AcDbEntity
  8
IMPORT_IGES
100
AcDbPolyline
 62
7
  6
CONTINUOUS
 90
7
 70
0
 10
162.4911581314
 20
86.5674988595
 10
162.5246111868
 20
86.5849061442
 10
162.5572178028
 20
86.5984201816
 10
162.5889779794
 20
86.6080409716
 10
162.6201540332
 20
86.6137845172
 10
162.6504836476
 20
86.6156348155
 10
162.6791798734
 20
86.6135438575
  0
LWPOLYLINE
  5
375
100
AcDbEntity
  8
IMPORT_IGES
100
AcDbPolyline
 62
7
  6
CONTINUOUS
 90
5
 70
0
 10
154.6836733602
 20
83.1551970202
 10
154.6882502131
 20
83.1574246344
 10
154.6981360326
 20
83.1598066475
 10
154.7088747592
 20
83.1593528962
 10
154.7207016271
 20
83.1561998347
  0
LWPOLYLINE
  5
376
100
AcDbEntity
  8
IMPORT_IGES
100
AcDbPolyline
 62
7
  6
CONTINUOUS
 90
6
 70
0
 10
161.3097097012
 20
85.8036983152
 10
161.3226186939
 20
85.8095502062
 10
161.3344414775
 20
85.8127036485
 10
161.345178052
 20
85.8131586421
 10
161.3550642222
 20
85.8107797216
 10
161.3596445544
 20
85.8085527344
  0
LINE
  5
377
100
AcDbEntity
  8
IMPORT_IGES
100
AcDbLine
 62
7
  6
CONTINUOUS
 10
162.0875271605
 20
91.274187262
 11
162.0875271605
 21
90.2944229298
  0
LINE
  5
378
100
AcDbEntity
  8
IMPORT_IGES
100
AcDbLine
 62
7
  6
CONTINUOUS
 10
162.0875271605
 20
80.1292732919
 11
162.0875271605
 21
79.5170152762
  0
LINE
  5
379
100
AcDbEntity
  8
IMPORT_IGES
100
AcDbLine
 62
7
  6
CONTINUOUS
 10
162.2984585275
 20
91.3959763897
 11
162.2984585275
 21
90.4162120576
  0
LINE
  5
37A
100
AcDbEntity
  8
IMPORT_IGES
100
AcDbLine
 62
7
  6
CONTINUOUS
 10
162.2984585275
 20
80.2510624196
 11
162.2984585275
 21
79.6388044039
  0
LINE
  5
37B
100
AcDbEntity
  8
IMPORT_IGES
100
AcDbLine
 62
7
  6
CONTINUOUS
 10
163.146986665
 20
89.313929838
 11
163.146986665
 21
80.7409919316
  0
LWPOLYLINE
  5
37C
100
AcDbEntity
  8
IMPORT_IGES
100
AcDbPolyline
 62
7
  6
CONTINUOUS
 90
15
 70
0
 10
162.1702189626
 20
86.3821926057
 10
162.1676799748
 20
86.3384596032
 10
162.1617073725
 20
86.2777455677
 10
162.153387833
 20
86.2169573213
 10
162.1427343294
 20
86.155666316
 10
162.1296502527
 20
86.0933261825
 10
162.1139193084
 20
86.0292943514
 10
162.0956880465
 20
85.9644992523
 10
162.075515754
 20
85.9007590555
 10
162.0539366703
 20
85.8391891722
 10
162.0308453527
 20
85.778985087
 10
162.0059042703
 20
85.719090177
 10
161.9789948554
 20
85.6592451603
 10
161.9503437518
 20
85.5999778068
 10
161.9200228672
 20
85.5414180666
  0
LWPOLYLINE
  5
37D
100
AcDbEntity
  8
IMPORT_IGES
100
AcDbPolyline
 62
7
  6
CONTINUOUS
 90
15
 70
0
 10
162.1702189626
 20
84.3410169137
 10
162.1676799748
 20
84.2972839112
 10
162.1617073725
 20
84.2365698757
 10
162.153387833
 20
84.1757816293
 10
162.1427343294
 20
84.1144906241
 10
162.1296502527
 20
84.0521504905
 10
162.1139193084
 20
83.9881186594
 10
162.0956880465
 20
83.9233235603
 10
162.075515754
 20
83.8595833636
 10
162.0539366703
 20
83.7980134803
 10
162.0308453527
 20
83.737809395
 10
162.0059042703
 20
83.677914485
 10
161.9789948554
 20
83.6180694683
 10
161.9503437518
 20
83.5588021148
 10
161.9200228672
 20
83.5002423746
  0
LWPOLYLINE
  5
37E
100
AcDbEntity
  8
IMPORT_IGES
100
AcDbPolyline
 62
7
  6
CONTINUOUS
 90
15
 70
0
 10
162.1702189626
 20
82.2998412218
 10
162.1676799748
 20
82.2561082192
 10
162.1617073725
 20
82.1953941837
 10
162.153387833
 20
82.1346059373
 10
162.1427343294
 20
82.0733149321
 10
162.1296502527
 20
82.0109747985
 10
162.1139193084
 20
81.9469429674
 10
162.0956880465
 20
81.8821478683
 10
162.075515754
 20
81.8184076716
 10
162.0539366703
 20
81.7568377883
 10
162.0308453527
 20
81.6966337031
 10
162.0059042703
 20
81.636738793
 10
161.9789948554
 20
81.5768937763
 10
161.9503437518
 20
81.5176264228
 10
161.9200228672
 20
81.4590666826
  0
LWPOLYLINE
  5
37F
100
AcDbEntity
  8
IMPORT_IGES
100
AcDbPolyline
 62
7
  6
CONTINUOUS
 90
10
 70
0
 10
161.3804203793
 20
84.2932322486
 10
161.3790333087
 20
84.2775258308
 10
161.3758523947
 20
84.2620378761
 10
161.3708776373
 20
84.2467683846
 10
161.3638738025
 20
84.2313092598
 10
161.3550761242
 20
84.2160685982
 10
161.3451903048
 20
84.2022706886
 10
161.3344515781
 20
84.1903236275
 10
161.3226247103
 20
84.1798193185
 10
161.3097097012
 20
84.1707577616
  0
LWPOLYLINE
  5
380
100
AcDbEntity
  8
IMPORT_IGES
100
AcDbPolyline
 62
7
  6
CONTINUOUS
 90
10
 70
0
 10
161.3804203793
 20
82.2520565566
 10
161.3790333087
 20
82.2363501388
 10
161.3758523947
 20
82.2208621842
 10
161.3708776373
 20
82.2055926926
 10
161.3638738025
 20
82.1901335678
 10
161.3550761242
 20
82.1748929062
 10
161.3451903048
 20
82.1610949966
 10
161.3344515781
 20
82.1491479355
 10
161.3226247103
 20
82.1386436265
 10
161.3097097012
 20
82.1295820696
  0
LWPOLYLINE
  5
381
100
AcDbEntity
  8
IMPORT_IGES
100
AcDbPolyline
 62
7
  6
CONTINUOUS
 90
10
 70
0
 10
161.3804203793
 20
80.2108808647
 10
161.3790333087
 20
80.1951744469
 10
161.3758523947
 20
80.1796864922
 10
161.3708776373
 20
80.1644170006
 10
161.3638738025
 20
80.1489578759
 10
161.3550761242
 20
80.1337172142
 10
161.3451903048
 20
80.1199193047
 10
161.3344515781
 20
80.1079722436
 10
161.3226247103
 20
80.0974679345
 10
161.3097097012
 20
80.0884063776
  0
LWPOLYLINE
  5
382
100
AcDbEntity
  8
IMPORT_IGES
100
AcDbPolyline
 62
7
  6
CONTINUOUS
 90
15
 70
0
 10
161.9200228672
 20
87.5825937586
 10
161.9520371119
 20
87.6445433744
 10
161.9816671178
 20
87.7061694778
 10
162.0089336562
 20
87.767294718
 10
162.0337221898
 20
87.8273892162
 10
162.0562399013
 20
87.8866670111
 10
162.0768994067
 20
87.9460940952
 10
162.0956363085
 20
88.0055020083
 10
162.1124166695
 20
88.0648016815
 10
162.1274772099
 20
88.1250685927
 10
162.1408521365
 20
88.187175358
 10
162.1520841841
 20
88.2498824579
 10
162.1607687365
 20
88.3111243423
 10
162.1668674866
 20
88.3696995804
 10
162.170410547
 20
88.4234789161
  0
LWPOLYLINE
  5
383
100
AcDbEntity
  8
IMPORT_IGES
100
AcDbPolyline
 62
7
  6
CONTINUOUS
 90
10
 70
0
 10
161.9200232031
 20
87.5825943862
 10
161.8970758915
 20
87.5423496384
 10
161.8720181432
 20
87.5034147202
 10
161.8450556564
 20
87.4661330837
 10
161.8164250245
 20
87.4308513459
 10
161.786355458
 20
87.397870357
 10
161.7550614869
 20
87.3674529296
 10
161.7227941618
 20
87.3398792676
 10
161.6898443307
 20
87.3154332347
 10
161.6565000648
 20
87.2943610494
  0
LWPOLYLINE
  5
384
100
AcDbEntity
  8
IMPORT_IGES
100
AcDbPolyline
 62
7
  6
CONTINUOUS
 90
10
 70
0
 10
161.7739264418
 20
88.0584755834
 10
161.7974601853
 20
88.0995824902
 10
161.8226273174
 20
88.1386343369
 10
161.8494278382
 20
88.1756311236
 10
161.878124064
 20
88.2108597638
 10
161.9084536784
 20
88.244033344
 10
161.9396297321
 20
88.2742911238
 10
161.9713899088
 20
88.3013461897
 10
162.0039965248
 20
88.3254854552
 10
162.0374495802
 20
88.3467089203
  0
LWPOLYLINE
  5
385
100
AcDbEntity
  8
IMPORT_IGES
100
AcDbPolyline
 62
7
  6
CONTINUOUS
 90
7
 70
0
 10
160.5027917762
 20
86.7419309923
 10
160.5065360848
 20
86.7471558233
 10
160.515336046
 20
86.7623951671
 10
160.5223423837
 20
86.7778553319
 10
160.5273192932
 20
86.7931285511
 10
160.5305025792
 20
86.8086225913
 10
160.5318922419
 20
86.8243374526
  0
LWPOLYLINE
  5
386
100
AcDbEntity
  8
IMPORT_IGES
100
AcDbPolyline
 62
7
  6
CONTINUOUS
 90
7
 70
0
 10
160.5027917762
 20
84.7007553003
 10
160.5065360848
 20
84.7059801313
 10
160.515336046
 20
84.7212194751
 10
160.5223423837
 20
84.73667964
 10
160.5273192932
 20
84.7519528591
 10
160.5305025792
 20
84.7674468993
 10
160.5318922419
 20
84.7831617606
  0
LINE
  5
387
100
AcDbEntity
  8
IMPORT_IGES
100
AcDbLine
 62
253
  6
CONTINUOUS
 10
155.2993020611
 20
82.0072575114
 11
155.3700093222
 21
82.0480829978
  0
LINE
  5
388
100
AcDbEntity
  8
IMPORT_IGES
100
AcDbLine
 62
7
  6
CONTINUOUS
 10
161.5238198157
 20
85.1765774445
 11
161.6565000648
 21
85.2531853574
  0
LINE
  5
389
100
AcDbEntity
  8
IMPORT_IGES
100
AcDbLine
 62
7
  6
CONTINUOUS
 10
160.575996857
 20
83.747121161
 11
161.3097097012
 21
84.1707577616
  0
LWPOLYLINE
  5
38A
100
AcDbEntity
  8
IMPORT_IGES
100
AcDbPolyline
 62
7
  6
CONTINUOUS
 90
10
 70
0
 10
162.0374495802
 20
84.5092986193
 10
162.0039965248
 20
84.4918913346
 10
161.9713899088
 20
84.4783772972
 10
161.9396297321
 20
84.4687565072
 10
161.9084536784
 20
84.4630129616
 10
161.878124064
 20
84.4611626633
 10
161.8494278382
 20
84.4632536213
 10
161.8226273174
 20
84.4693018384
 10
161.7974601853
 20
84.4792913118
 10
161.7877386523
 20
84.4844547023
  0
LWPOLYLINE
  5
38B
100
AcDbEntity
  8
IMPORT_IGES
100
AcDbPolyline
 62
7
  6
CONTINUOUS
 90
7
 70
0
 10
162.4911581314
 20
84.5263231675
 10
162.5246111868
 20
84.5437304522
 10
162.5572178028
 20
84.5572444896
 10
162.5889779794
 20
84.5668652796
 10
162.6201540332
 20
84.5726088252
 10
162.6504836476
 20
84.5744591235
 10
162.6791798734
 20
84.5723681655
  0
LWPOLYLINE
  5
38C
100
AcDbEntity
  8
IMPORT_IGES
100
AcDbPolyline
 62
7
  6
CONTINUOUS
 90
6
 70
0
 10
155.3492453371
 20
82.002407954
 10
155.3446684841
 20
82.0001803397
 10
155.3347826647
 20
81.9977983267
 10
155.3240439381
 20
81.9982520779
 10
155.3122170702
 20
82.0014051395
 10
155.2993020611
 20
82.0072575114
  0
LWPOLYLINE
  5
38D
100
AcDbEntity
  8
IMPORT_IGES
100
AcDbPolyline
 62
7
  6
CONTINUOUS
 90
6
 70
0
 10
161.3097097012
 20
83.7625226232
 10
161.3226186939
 20
83.7683745142
 10
161.3344414775
 20
83.7715279565
 10
161.345178052
 20
83.7719829501
 10
161.3550642222
 20
83.7696040296
 10
161.3596445544
 20
83.7673770424
  0
LINE
  5
38E
100
AcDbEntity
  8
0
100
AcDbLine
 62
7
  6
CONTINUOUS
 10
163.473107848
 20
77.2868125407
 11
163.473107848
 21
92.473159689
  0
LINE
  5
38F
100
AcDbEntity
  8
0
100
AcDbLine
 62
7
  6
CONTINUOUS
 10
164.3216359854
 20
77.8175655665
 11
164.3216359854
 21
77.7767420526
  0
LINE
  5
390
100
AcDbEntity
  8
0
100
AcDbLine
 62
7
  6
CONTINUOUS
 10
164.6044786979
 20
77.9808754038
 11
164.6044786979
 21
93.1263990383
  0
LWPOLYLINE
  5
391
100
AcDbEntity
  8
IMPORT_IGES
100
AcDbPolyline
 62
7
  6
CONTINUOUS
 90
10
 70
0
 10
161.9200232031
 20
85.5414186943
 10
161.8970758915
 20
85.5011739464
 10
161.8720181432
 20
85.4622390282
 10
161.8450556564
 20
85.4249573917
 10
161.8164250245
 20
85.3896756539
 10
161.786355458
 20
85.356694665
 10
161.7550614869
 20
85.3262772376
 10
161.7227941618
 20
85.2987035757
 10
161.6898443307
 20
85.2742575427
 10
161.6565000648
 20
85.2531853574
  0
LWPOLYLINE
  5
392
100
AcDbEntity
  8
IMPORT_IGES
100
AcDbPolyline
 62
7
  6
CONTINUOUS
 90
10
 70
0
 10
161.7739264418
 20
86.0172998915
 10
161.7974601853
 20
86.0584067982
 10
161.8226273174
 20
86.0974586449
 10
161.8494278382
 20
86.1344554316
 10
161.878124064
 20
86.1696840718
 10
161.9084536784
 20
86.202857652
 10
161.9396297321
 20
86.2331154318
 10
161.9713899088
 20
86.2601704977
 10
162.0039965248
 20
86.2843097632
 10
162.0374495802
 20
86.3055332283
  0
LWPOLYLINE
  5
393
100
AcDbEntity
  8
IMPORT_IGES
100
AcDbPolyline
 62
7
  6
CONTINUOUS
 90
10
 70
0
 10
162.7546812697
 20
87.1006732793
 10
162.7311475263
 20
87.0595663726
 10
162.7059803941
 20
87.0205145259
 10
162.6791798734
 20
86.9835177391
 10
162.6504836476
 20
86.9482890989
 10
162.6201540332
 20
86.9151155187
 10
162.5889779794
 20
86.8848577389
 10
162.5572178028
 20
86.857802673
 10
162.5246111868
 20
86.8336634076
 10
162.4911581314
 20
86.8124399425
  0
LWPOLYLINE
  5
394
100
AcDbEntity
  8
IMPORT_IGES
100
AcDbPolyline
 62
7
  6
CONTINUOUS
 90
10
 70
0
 10
161.7739264418
 20
83.9761241995
 10
161.7974601853
 20
84.0172311062
 10
161.8226273174
 20
84.0562829529
 10
161.8494278382
 20
84.0932797396
 10
161.878124064
 20
84.1285083798
 10
161.9084536784
 20
84.1616819601
 10
161.9396297321
 20
84.1919397398
 10
161.9713899088
 20
84.2189948057
 10
162.0039965248
 20
84.2431340712
 10
162.0374495802
 20
84.2643575363
  0
LWPOLYLINE
  5
395
100
AcDbEntity
  8
IMPORT_IGES
100
AcDbPolyline
 62
7
  6
CONTINUOUS
 90
7
 70
0
 10
160.5027917762
 20
82.6595796083
 10
160.5065360848
 20
82.6648044393
 10
160.515336046
 20
82.6800437831
 10
160.5223423837
 20
82.695503948
 10
160.5273192932
 20
82.7107771671
 10
160.5305025792
 20
82.7262712073
 10
160.5318922419
 20
82.7419860686
  0
LINE
  5
396
100
AcDbEntity
  8
IMPORT_IGES
100
AcDbLine
 62
7
  6
CONTINUOUS
 10
162.0374495802
 20
84.5092986193
 11
162.4911581314
 21
84.7712642505
  0
LINE
  5
397
100
AcDbEntity
  8
IMPORT_IGES
100
AcDbLine
 62
7
  6
CONTINUOUS
 10
162.4911581314
 20
84.5263231675
 11
162.0374495802
 21
84.2643575363
  0
LINE
  5
398
100
AcDbEntity
  8
IMPORT_IGES
100
AcDbLine
 62
7
  6
CONTINUOUS
 10
161.3097097012
 20
83.7625226232
 11
160.575996857
 21
83.3388860226
  0
LINE
  5
399
100
AcDbEntity
  8
IMPORT_IGES
100
AcDbLine
 62
7
  6
CONTINUOUS
 10
161.5238198157
 20
83.1354017525
 11
161.6565000648
 21
83.2120096655
  0
LWPOLYLINE
  5
39A
100
AcDbEntity
  8
IMPORT_IGES
100
AcDbPolyline
 62
7
  6
CONTINUOUS
 90
10
 70
0
 10
161.9200232031
 20
83.5002430023
 10
161.8970758915
 20
83.4599982544
 10
161.8720181432
 20
83.4210633363
 10
161.8450556564
 20
83.3837816997
 10
161.8164250245
 20
83.348499962
 10
161.786355458
 20
83.315518973
 10
161.7550614869
 20
83.2851015456
 10
161.7227941618
 20
83.2575278837
 10
161.6898443307
 20
83.2330818507
 10
161.6565000648
 20
83.2120096655
  0
LWPOLYLINE
  5
39B
100
AcDbEntity
  8
IMPORT_IGES
100
AcDbPolyline
 62
7
  6
CONTINUOUS
 90
10
 70
0
 10
161.9200232031
 20
81.4590673103
 10
161.8970758915
 20
81.4188225625
 10
161.8720181432
 20
81.3798876443
 10
161.8450556564
 20
81.3426060078
 10
161.8164250245
 20
81.30732427
 10
161.786355458
 20
81.2743432811
 10
161.7550614869
 20
81.2439258537
 10
161.7227941618
 20
81.2163521917
 10
161.6898443307
 20
81.1919061588
 10
161.6565000648
 20
81.1708339735
  0
LWPOLYLINE
  5
39C
100
AcDbEntity
  8
IMPORT_IGES
100
AcDbPolyline
 62
7
  6
CONTINUOUS
 90
10
 70
0
 10
162.7546812697
 20
85.0594975873
 10
162.7311475263
 20
85.0183906806
 10
162.7059803941
 20
84.9793388339
 10
162.6791798734
 20
84.9423420472
 10
162.6504836476
 20
84.907113407
 10
162.6201540332
 20
84.8739398268
 10
162.5889779794
 20
84.843682047
 10
162.5572178028
 20
84.8166269811
 10
162.5246111868
 20
84.7924877156
 10
162.4911581314
 20
84.7712642505
  0
LWPOLYLINE
  5
39D
100
AcDbEntity
  8
IMPORT_IGES
100
AcDbPolyline
 62
7
  6
CONTINUOUS
 90
10
 70
0
 10
161.7739264418
 20
81.9349485075
 10
161.7974601853
 20
81.9760554142
 10
161.8226273174
 20
82.0151072609
 10
161.8494278382
 20
82.0521040477
 10
161.878124064
 20
82.0873326879
 10
161.9084536784
 20
82.1205062681
 10
161.9396297321
 20
82.1507640479
 10
161.9713899088
 20
82.1778191138
 10
162.0039965248
 20
82.2019583793
 10
162.0374495802
 20
82.2231818443
  0
LWPOLYLINE
  5
39E
100
AcDbEntity
  8
IMPORT_IGES
100
AcDbPolyline
 62
7
  6
CONTINUOUS
 90
10
 70
0
 10
162.7546812697
 20
83.0183218954
 10
162.7311475263
 20
82.9772149886
 10
162.7059803941
 20
82.9381631419
 10
162.6791798734
 20
82.9011663552
 10
162.6504836476
 20
82.865937715
 10
162.6201540332
 20
82.8327641348
 10
162.5889779794
 20
82.802506355
 10
162.5572178028
 20
82.7754512891
 10
162.5246111868
 20
82.7513120236
 10
162.4911581314
 20
82.7300885585
  0
LWPOLYLINE
  5
39F
100
AcDbEntity
  8
IMPORT_IGES
100
AcDbPolyline
 62
7
  6
CONTINUOUS
 90
7
 70
0
 10
160.5027917762
 20
80.6184039164
 10
160.5065360848
 20
80.6236287473
 10
160.515336046
 20
80.6388680911
 10
160.5223423837
 20
80.654328256
 10
160.5273192932
 20
80.6696014751
 10
160.5305025792
 20
80.6850955153
 10
160.5318922419
 20
80.7008103767
  0
LINE
  5
3A0
100
AcDbEntity
  8
IMPORT_IGES
100
AcDbLine
 62
7
  6
CONTINUOUS
 10
157.2792010484
 20
80.0068737693
 11
157.4387427013
 21
80.0989911201
  0
LINE
  5
3A1
100
AcDbEntity
  8
IMPORT_IGES
100
AcDbLine
 62
7
  6
CONTINUOUS
 10
160.575996857
 20
81.705945469
 11
161.3097097012
 21
82.1295820696
  0
LINE
  5
3A2
100
AcDbEntity
  8
IMPORT_IGES
100
AcDbLine
 62
7
  6
CONTINUOUS
 10
162.4911581314
 20
82.7300885585
 11
162.0374495802
 21
82.4681229274
  0
LINE
  5
3A3
100
AcDbEntity
  8
IMPORT_IGES
100
AcDbLine
 62
7
  6
CONTINUOUS
 10
162.4911581314
 20
82.4851474755
 11
162.0374495802
 21
82.2231818443
  0
LINE
  5
3A4
100
AcDbEntity
  8
IMPORT_IGES
100
AcDbLine
 62
7
  6
CONTINUOUS
 10
161.3097097012
 20
81.7213469312
 11
160.575996857
 21
81.2977103306
  0
LWPOLYLINE
  5
3A5
100
AcDbEntity
  8
IMPORT_IGES
100
AcDbPolyline
 62
7
  6
CONTINUOUS
 90
10
 70
0
 10
162.0374495802
 20
82.4681229274
 10
162.0039965248
 20
82.4507156426
 10
161.9713899088
 20
82.4372016053
 10
161.9396297321
 20
82.4275808152
 10
161.9084536784
 20
82.4218372696
 10
161.878124064
 20
82.4199869713
 10
161.8494278382
 20
82.4220779293
 10
161.8226273174
 20
82.4281261464
 10
161.7974601853
 20
82.4381156198
 10
161.7877386523
 20
82.4432790103
  0
LWPOLYLINE
  5
3A6
100
AcDbEntity
  8
IMPORT_IGES
100
AcDbPolyline
 62
7
  6
CONTINUOUS
 90
7
 70
0
 10
162.4911581314
 20
82.4851474755
 10
162.5246111868
 20
82.5025547602
 10
162.5572178028
 20
82.5160687976
 10
162.5889779794
 20
82.5256895876
 10
162.6201540332
 20
82.5314331332
 10
162.6504836476
 20
82.5332834315
 10
162.6791798734
 20
82.5311924736
  0
LWPOLYLINE
  5
3A7
100
AcDbEntity
  8
IMPORT_IGES
100
AcDbPolyline
 62
7
  6
CONTINUOUS
 90
6
 70
0
 10
161.3097097012
 20
81.7213469312
 10
161.3226186939
 20
81.7271988222
 10
161.3344414775
 20
81.7303522645
 10
161.345178052
 20
81.7308072581
 10
161.3550642222
 20
81.7284283376
 10
161.3596445544
 20
81.7262013504
  0
LWPOLYLINE
  5
3A8
100
AcDbEntity
  8
IMPORT_IGES
100
AcDbPolyline
 62
7
  6
CONTINUOUS
 90
10
 70
0
 10
162.7546812697
 20
80.9771462034
 10
162.7311475263
 20
80.9360392967
 10
162.7059803941
 20
80.8969874499
 10
162.6791798734
 20
80.8599906632
 10
162.6504836476
 20
80.824762023
 10
162.6201540332
 20
80.7915884428
 10
162.5889779794
 20
80.761330663
 10
162.5572178028
 20
80.7342755971
 10
162.5246111868
 20
80.7101363316
 10
162.4911581314
 20
80.6889128665
  0
LINE
  5
3A9
100
AcDbEntity
  8
IMPORT_IGES
100
AcDbLine
 62
7
  6
CONTINUOUS
 10
161.6565000648
 20
81.1708339735
 11
161.5238198157
 21
81.0942260605
  0
LINE
  5
3AA
100
AcDbEntity
  8
IMPORT_IGES
100
AcDbLine
 62
7
  6
CONTINUOUS
 10
159.2065096543
 20
79.0783046368
 11
159.1883893576
 21
79.0678422046
  0
LINE
  5
3AB
100
AcDbEntity
  8
IMPORT_IGES
100
AcDbLine
 62
7
  6
CONTINUOUS
 10
160.575996857
 20
79.664769777
 11
161.3097097012
 21
80.0884063776
  0
LINE
  5
3AC
100
AcDbEntity
  8
IMPORT_IGES
100
AcDbLine
 62
7
  6
CONTINUOUS
 10
162.0374495802
 20
80.4269472354
 11
162.4911581314
 21
80.6889128665
  0
LINE
  5
3AD
100
AcDbEntity
  8
IMPORT_IGES
100
AcDbLine
 62
7
  6
CONTINUOUS
 10
163.146986665
 20
80.7409919316
 11
159.8247854607
 21
78.8227945933
  0
LWPOLYLINE
  5
3AE
100
AcDbEntity
  8
IMPORT_IGES
100
AcDbPolyline
 62
7
  6
CONTINUOUS
 90
10
 70
0
 10
162.0374495802
 20
80.4269472354
 10
162.0039965248
 20
80.4095399506
 10
161.9713899088
 20
80.3960259133
 10
161.9396297321
 20
80.3864051232
 10
161.9084536784
 20
80.3806615776
 10
161.878124064
 20
80.3788112793
 10
161.8494278382
 20
80.3809022373
 10
161.8226273174
 20
80.3869504545
 10
161.7974601853
 20
80.3969399279
 10
161.7877386523
 20
80.4021033183
  0
LWPOLYLINE
  5
3AF
100
AcDbEntity
  8
IMPORT_IGES
100
AcDbPolyline
 62
7
  6
CONTINUOUS
 90
10
 70
0
 10
159.1883893576
 20
79.0678422046
 10
159.159797231
 20
79.0545369778
 10
159.1297898358
 20
79.0445575634
 10
159.0983671719
 20
79.0379039614
 10
159.0645871618
 20
79.0345755127
 10
159.0293918831
 20
79.0345728765
 10
158.9956075688
 20
79.0378980298
 10
158.9641762965
 20
79.0445516318
 10
158.9341559886
 20
79.0545330234
 10
158.9055466452
 20
79.0678422046
  0
LINE
  5
3B0
100
AcDbEntity
  8
IMPORT_IGES
100
AcDbLine
 62
7
  6
CONTINUOUS
 10
162.2984585275
 20
79.6388044039
 11
162.0875271605
 21
79.5170152762
  0
LINE
  5
3B1
100
AcDbEntity
  8
0
100
AcDbLine
 62
7
  6
CONTINUOUS
 10
164.6044786979
 20
77.9808754038
 11
164.3216359854
 21
77.8175655665
  0
LINE
  5
3B2
100
AcDbEntity
  8
IMPORT_IGES
100
AcDbLine
 62
7
  6
CONTINUOUS
 10
163.473107848
 20
77.2868125407
 11
164.3216359854
 21
77.7767420526
  0
ELLIPSE
  5
3B3
100
AcDbEntity
  8
IMPORT_IGES
100
AcDbEllipse
 62
7
  6
CONTINUOUS
 10
160.575996857
 20
81.2160633029
 30
0.0
 11
0.0535268038
 21
0.0866031972
 31
0.0
 40
0.5766370667
 41
0.820064362
 42
2.3908606887
  0
ELLIPSE
  5
3B4
100
AcDbEntity
  8
IMPORT_IGES
100
AcDbEllipse
 62
7
  6
CONTINUOUS
 10
160.575996857
 20
85.2984146869
 30
0.0
 11
0.0535268038
 21
0.0866031972
 31
0.0
 40
0.5766370667
 41
0.820064362
 42
2.3908606887
  0
ELLIPSE
  5
3B5
100
AcDbEntity
  8
IMPORT_IGES
100
AcDbEllipse
 62
7
  6
CONTINUOUS
 10
160.575996857
 20
83.2572389949
 30
0.0
 11
0.0535268038
 21
0.0866031972
 31
0.0
 40
0.5766370667
 41
0.820064362
 42
2.3908606887
  0
ELLIPSE
  5
3B6
100
AcDbEntity
  8
IMPORT_IGES
100
AcDbEllipse
 62
7
  6
CONTINUOUS
 10
160.575996857
 20
87.3395903788
 30
0.0
 11
0.0535268038
 21
0.0866031972
 31
0.0
 40
0.5766370667
 41
0.820064362
 42
2.3908606887
  0
ELLIPSE
  5
3B7
100
AcDbEntity
  8
IMPORT_IGES
100
AcDbEllipse
 62
7
  6
CONTINUOUS
 10
160.575996857
 20
79.7464168047
 30
0.0
 11
0.0535268038
 21
0.0866031972
 31
0.0
 40
0.5766370667
 41
2.3908606887
 42
3.9616570155
  0
ELLIPSE
  5
3B8
100
AcDbEntity
  8
IMPORT_IGES
100
AcDbEllipse
 62
7
  6
CONTINUOUS
 10
160.575996857
 20
81.7875924967
 30
0.0
 11
0.0535268038
 21
0.0866031972
 31
0.0
 40
0.5766370667
 41
2.3908606887
 42
3.9616570155
  0
ELLIPSE
  5
3B9
100
AcDbEntity
  8
IMPORT_IGES
100
AcDbEllipse
 62
7
  6
CONTINUOUS
 10
155.0680288385
 20
84.6497853201
 30
0.0
 11
-0.0503309863
 21
0.0864111534
 31
0.0
 40
0.5798452254
 41
0.7831490594
 42
2.3539453862
  0
ELLIPSE
  5
3BA
100
AcDbEntity
  8
IMPORT_IGES
100
AcDbEllipse
 62
7
  6
CONTINUOUS
 10
155.0680288385
 20
86.6909610121
 30
0.0
 11
-0.0503309863
 21
0.0864111534
 31
0.0
 40
0.5798452254
 41
0.7831490594
 42
2.3539453862
  0
ELLIPSE
  5
3BB
100
AcDbEntity
  8
IMPORT_IGES
100
AcDbEllipse
 62
7
  6
CONTINUOUS
 10
155.0680288385
 20
88.7321367041
 30
0.0
 11
-0.0503309863
 21
0.0864111534
 31
0.0
 40
0.5798452254
 41
0.7831490594
 42
2.3539453862
  0
ELLIPSE
  5
3BC
100
AcDbEntity
  8
IMPORT_IGES
100
AcDbEllipse
 62
7
  6
CONTINUOUS
 10
155.0680288385
 20
82.6086096281
 30
0.0
 11
-0.0503309863
 21
0.0864111534
 31
0.0
 40
0.5798452254
 41
0.7831490594
 42
2.3539453862
  0
ELLIPSE
  5
3BD
100
AcDbEntity
  8
IMPORT_IGES
100
AcDbEllipse
 62
7
  6
CONTINUOUS
 10
160.575996857
 20
85.8699438806
 30
0.0
 11
0.0535268038
 21
0.0866031972
 31
0.0
 40
0.5766370667
 41
2.3908606887
 42
3.9616570155
  0
ELLIPSE
  5
3BE
100
AcDbEntity
  8
IMPORT_IGES
100
AcDbEllipse
 62
7
  6
CONTINUOUS
 10
160.575996857
 20
83.8287681886
 30
0.0
 11
0.0535268038
 21
0.0866031972
 31
0.0
 40
0.5766370667
 41
2.3908606887
 42
3.9616570155
  0
ENDSEC
  0
SECTION
  2
OBJECTS
  0
DICTIONARY
  5
C
100
AcDbDictionary
280
0
281
1
  3
ACAD_GROUP
350
D
  3
ACAD_MLINESTYLE
350
17
  3
ACAD_LAYOUT
350
1A
  3
ACAD_PLOTSETTINGS
350
19
  3
ACAD_PLOTSTYLENAME
350
E
  0
DICTIONARY
  5
D
102
{ACAD_REACTORS
330
C
102
}
100
AcDbDictionary
280
0
281
1
  0
ACDBDICTIONARYWDFLT
  5
E
102
{ACAD_REACTORS
330
C
102
}
100
AcDbDictionary
281
1
  3
Normal
350
F
100
AcDbDictionaryWithDefault
340
F
  0
DICTIONARY
  5
17
102
{ACAD_REACTORS
330
C
102
}
100
AcDbDictionary
280
0
281
1
  3
Standard
350
18
  0
DICTIONARY
  5
19
102
{ACAD_REACTORS
330
C
102
}
100
AcDbDictionary
281
1
  0
DICTIONARY
  5
1A
102
{ACAD_REACTORS
330
C
102
}
100
AcDbDictionary
281
1
  3
Model
350
3BF
  3
Layout1
350
3C0
  0
ACDBPLACEHOLDER
  5
F
102
{ACAD_REACTORS
330
E
102
}
  0
MLINESTYLE
  5
18
102
{ACAD_REACTORS
330
17
102
}
100
AcDbMlineStyle
  2
STANDARD
 70
0
  3

 62
256
 51
90.0
 52
90.0
 71
2
 49
0.5
 62
256
  6
BYLAYER
 49
-0.5
 62
256
  6
BYLAYER
  0
LAYOUT
  5
3BF
102
{ACAD_REACTORS
330
1A
102
}
100
AcDbPlotSettings
  1

  2
none_device
  4
ISO_A4_(297.00_x_210.00_MM)
  6

 40
0.0
 41
0.0
 42
0.0
 43
0.0
 44
297.0
 45
210.0
 46
0.0
 47
0.0
 48
0.0
 49
0.0
140
0.0
141
0.0
142
1.0
143
1.0
 70
1024
 72
1
 73
0
 74
0
  7

 75
0
147
1.0
148
0.0
149
0.0
100
AcDbLayout
  1
Model
 70
0
 71
0
 10
0.0
 20
0.0
 11
297.0
 21
210.0
 12
0.0
 22
0.0
 32
0.0
 14
0.0
 24
0.0
 34
0.0
 15
0.0
 25
0.0
 35
0.0
146
0.0
 13
0.0
 23
0.0
 33
0.0
 16
1.0
 26
0.0
 36
0.0
 17
0.0
 27
1.0
 37
0.0
 76
0
330
239
345
0
346
0
  0
LAYOUT
  5
3C0
102
{ACAD_REACTORS
330
1A
102
}
100
AcDbPlotSettings
  1

  2
none_device
  4
ISO_A4_(297.00_x_210.00_MM)
  6

 40
0.0
 41
0.0
 42
0.0
 43
0.0
 44
297.0
 45
210.0
 46
0.0
 47
0.0
 48
0.0
 49
0.0
140
0.0
141
0.0
142
1.0
143
1.0
 70
0
 72
1
 73
0
 74
0
  7

 75
0
147
1.0
148
0.0
149
0.0
100
AcDbLayout
  1
Layout1
 70
0
 71
1
 10
0.0
 20
0.0
 11
297.0
 21
210.0
 12
0.0
 22
0.0
 32
0.0
 14
0.0
 24
0.0
 34
0.0
 15
0.0
 25
0.0
 35
0.0
146
0.0
 13
0.0
 23
0.0
 33
0.0
 16
1.0
 26
0.0
 36
0.0
 17
0.0
 27
1.0
 37
0.0
 76
0
330
23A
345
0
346
0
  0
ENDSEC
  0
EOF
