  0
SECTION
  2
HEADER
  9
$ACADVER
  1
AC1024
  9
$DWGCODEPAGE
  3
ANSI_1252
  9
$EXTMAX
 10
558.8
 20
431.8
 30
0.0
  9
$EXTMIN
 10
0.0
 20
0.0
 30
0.0
  9
$LIMMIN
 10
0.0
 20
0.0
  9
$LIMMAX
 10
558.8
 20
431.8
  9
$VIEWCTR
 10
279.4
 20
215.9
  9
$VIEWSIZE
 40
431.8
  9
$CLAYER
  8
0
  9
$LTSCALE
 40
30.734
  9
$CELTYPE
  6
BYLAYER
  9
$DIMSCALE
 40
1.0
  9
$DIMASZ
 40
3.0
  9
$DIMEXO
 40
0.5
  9
$DIMDLI
 40
21.2344
  9
$DIMEXE
 40
1.5
  9
$DIMCEN
 40
5.0292
  9
$DIMLFAC
 40
1.0
  9
$DIMBLK
  1
_FILLED
  9
$DIMALT
 70
0
  9
$DIMALTF
 40
0.0393700787
  9
$DIMTXT
 40
3.0
  9
$DIMTOL
 70
1
  9
$DIMLIM
 70
0
  9
$DIMTFAC
 40
1.0
  9
$DIMTP
 40
0.01
  9
$DIMTM
 40
0.01
  9
$DIMGAP
 40
0.625
  9
$DIMDSEP
 70
44
  9
$AUNITS
 70
0
  9
$PDMODE
 70
3
  9
$PDSIZE
 40
3.0
  9
$HANDSEED
  5
2D6
  9
$TILEMODE
 70
1
  9
$MEASUREMENT
 70
1
  9
$INSUNITS
 70
4
  0
ENDSEC
  0
SECTION
  2
CLASSES
  0
CLASS
  1
ACDBDICTIONARYWDFLT
  2
AcDbDictionaryWithDefault
  3
AutoCAD 2000
 90
0
 91
1
280
0
281
0
  0
CLASS
  1
ACDBPLACEHOLDER
  2
AcDbPlaceHolder
  3
AutoCAD 2000
 90
0
 91
1
280
0
281
0
  0
CLASS
  1
LAYOUT
  2
AcDbLayout
  3
AutoCAD 2000
 90
0
 91
0
280
0
281
0
  0
ENDSEC
  0
SECTION
  2
TABLES
  0
TABLE
  2
VPORT
  5
8
100
AcDbSymbolTable
 70
2
  0
VPORT
  5
1F4
100
AcDbSymbolTableRecord
100
AcDbViewportTableRecord
  2
*ACTIVE
 70
0
 10
0.0
 20
0.0
 11
1.0
 21
1.0
 12
279.4
 22
215.9
 13
0.0
 23
0.0
 14
1.0
 24
1.0
 15
0.0
 25
0.0
 16
0.0
 26
0.0
 36
1.0
 17
0.0
 27
0.0
 37
0.0
 40
431.8
 41
1.2941176471
 42
50.0
 43
0.0
 44
0.0
 50
0.0
 51
0.0
 71
0
 72
100
 73
1
 74
1
 75
0
 76
0
 77
0
 78
0
  0
ENDTAB
  0
TABLE
  2
LTYPE
  5
5
100
AcDbSymbolTable
 70
6
  0
LTYPE
  5
14
100
AcDbSymbolTableRecord
100
AcDbLinetypeTableRecord
  2
BYBLOCK
 70
0
  3

 72
65
 73
0
 40
0.0
  0
LTYPE
  5
15
100
AcDbSymbolTableRecord
100
AcDbLinetypeTableRecord
  2
BYLAYER
 70
0
  3

 72
65
 73
0
 40
0.0
  0
LTYPE
  5
16
100
AcDbSymbolTableRecord
100
AcDbLinetypeTableRecord
  2
CONTINUOUS
 70
64
  3
Solid line
 72
65
 73
0
 40
0.0
  0
LTYPE
  5
1F5
100
AcDbSymbolTableRecord
100
AcDbLinetypeTableRecord
  2
CENTER
 70
64
  3
____ _ ____ _ ____ _ ____ _ ____ _ ____ _ ____
 72
65
 73
4
 40
0.6
 49
0.375
 74
0
 49
-0.075
 74
0
 49
0.075
 74
0
 49
-0.075
 74
0
  0
LTYPE
  5
1F6
100
AcDbSymbolTableRecord
100
AcDbLinetypeTableRecord
  2
HIDDEN
 70
64
  3
- - - - - - - - - - - - - - - - - - - -
 72
65
 73
2
 40
0.2
 49
0.1
 74
0
 49
-0.1
 74
0
  0
LTYPE
  5
1F7
100
AcDbSymbolTableRecord
100
AcDbLinetypeTableRecord
  2
PHANTOM
 70
64
  3
_____ _ _ _____ _ _ _____ _ _ _____
 72
65
 73
6
 40
0.8
 49
0.45
 74
0
 49
-0.05
 74
0
 49
0.1
 74
0
 49
-0.05
 74
0
 49
0.1
 74
0
 49
-0.05
 74
0
  0
LTYPE
  5
1F8
100
AcDbSymbolTableRecord
100
AcDbLinetypeTableRecord
  2
DOT
 70
64
  3
. . . . . . . . . . . . . . . . . . . .
 72
65
 73
2
 40
0.2
 49
0.1
 74
0
 49
-0.1
 74
0
  0
LTYPE
  5
1F9
100
AcDbSymbolTableRecord
100
AcDbLinetypeTableRecord
  2
DASHED
 70
64
  3
- - - - - - - - - - - - - - - - - - - -
 72
65
 73
2
 40
0.2
 49
0.1
 74
0
 49
-0.1
 74
0
  0
ENDTAB
  0
TABLE
  2
LAYER
  5
2
100
AcDbSymbolTable
 70
36
  0
LAYER
  5
10
100
AcDbSymbolTableRecord
100
AcDbLayerTableRecord
  2
0
 70
0
 62
7
  6
CONTINUOUS
370
-3
390
F
  0
LAYER
  5
1FA
100
AcDbSymbolTableRecord
100
AcDbLayerTableRecord
  2
DEFAULT_1
 70
0
 62
7
  6
CENTER
370
-3
390
F
  0
LAYER
  5
1FB
100
AcDbSymbolTableRecord
100
AcDbLayerTableRecord
  2
DEFAULT_2
 70
0
 62
7
  6
HIDDEN
370
-3
390
F
  0
LAYER
  5
1FC
100
AcDbSymbolTableRecord
100
AcDbLayerTableRecord
  2
DEFAULT_3
 70
0
 62
7
  6
PHANTOM
370
-3
390
F
  0
LAYER
  5
1FD
100
AcDbSymbolTableRecord
100
AcDbLayerTableRecord
  2
ASSI
 70
0
 62
7
  6
CONTINUOUS
370
-3
390
F
  0
LAYER
  5
1FE
100
AcDbSymbolTableRecord
100
AcDbLayerTableRecord
  2
COORDINATE
 70
0
 62
7
  6
CONTINUOUS
370
-3
390
F
  0
LAYER
  5
1FF
100
AcDbSymbolTableRecord
100
AcDbLayerTableRecord
  2
COPY_PUBLISH
 70
0
 62
7
  6
CONTINUOUS
370
-3
390
F
  0
LAYER
  5
200
100
AcDbSymbolTableRecord
100
AcDbLayerTableRecord
  2
COSMETICI
 70
0
 62
7
  6
CONTINUOUS
370
-3
390
F
  0
LAYER
  5
201
100
AcDbSymbolTableRecord
100
AcDbLayerTableRecord
  2
CURVE
 70
0
 62
7
  6
CONTINUOUS
370
-3
390
F
  0
LAYER
  5
202
100
AcDbSymbolTableRecord
100
AcDbLayerTableRecord
  2
DRAFT
 70
0
 62
7
  6
CONTINUOUS
370
-3
390
F
  0
LAYER
  5
203
100
AcDbSymbolTableRecord
100
AcDbLayerTableRecord
  2
IMPORT_IGES
 70
0
 62
7
  6
CONTINUOUS
370
-3
390
F
  0
LAYER
  5
204
100
AcDbSymbolTableRecord
100
AcDbLayerTableRecord
  2
INTF_1
 70
0
 62
7
  6
CONTINUOUS
370
-3
390
F
  0
LAYER
  5
205
100
AcDbSymbolTableRecord
100
AcDbLayerTableRecord
  2
INTF_11
 70
0
 62
7
  6
CONTINUOUS
370
-3
390
F
  0
LAYER
  5
206
100
AcDbSymbolTableRecord
100
AcDbLayerTableRecord
  2
INTF_2
 70
0
 62
7
  6
CONTINUOUS
370
-3
390
F
  0
LAYER
  5
207
100
AcDbSymbolTableRecord
100
AcDbLayerTableRecord
  2
NOTE
 70
0
 62
7
  6
CONTINUOUS
370
-3
390
F
  0
LAYER
  5
208
100
AcDbSymbolTableRecord
100
AcDbLayerTableRecord
  2
PIANI
 70
0
 62
7
  6
CONTINUOUS
370
-3
390
F
  0
LAYER
  5
209
100
AcDbSymbolTableRecord
100
AcDbLayerTableRecord
  2
PUNTI
 70
0
 62
7
  6
CONTINUOUS
370
-3
390
F
  0
LAYER
  5
20A
100
AcDbSymbolTableRecord
100
AcDbLayerTableRecord
  2
RACCORDO
 70
0
 62
7
  6
CONTINUOUS
370
-3
390
F
  0
LAYER
  5
20B
100
AcDbSymbolTableRecord
100
AcDbLayerTableRecord
  2
RGB__255__255__255__
 70
0
 62
7
  6
CONTINUOUS
370
-3
390
F
  0
LAYER
  5
20C
100
AcDbSymbolTableRecord
100
AcDbLayerTableRecord
  2
SIMBOLI
 70
0
 62
7
  6
CONTINUOUS
370
-3
390
F
  0
LAYER
  5
20D
100
AcDbSymbolTableRecord
100
AcDbLayerTableRecord
  2
SMUSSO
 70
0
 62
7
  6
CONTINUOUS
370
-3
390
F
  0
LAYER
  5
20E
100
AcDbSymbolTableRecord
100
AcDbLayerTableRecord
  2
SUPERFICI
 70
0
 62
7
  6
CONTINUOUS
370
-3
390
F
  0
LAYER
  5
20F
100
AcDbSymbolTableRecord
100
AcDbLayerTableRecord
  2
TRASH
 70
0
 62
7
  6
CONTINUOUS
370
-3
390
F
  0
ENDTAB
  0
TABLE
  2
STYLE
  5
3
100
AcDbSymbolTable
 70
1
  0
STYLE
  5
11
100
AcDbSymbolTableRecord
100
AcDbTextStyleTableRecord
  2
STANDARD
 70
0
 40
0.0
 41
0.8
 50
0.0
 71
0
 42
0.2
  3
txt
  4

  0
STYLE
  5
210
100
AcDbSymbolTableRecord
100
AcDbTextStyleTableRecord
  2
TEXTSTYLE_1
 70
0
 40
0.0
 41
0.8
 50
0.0
 71
0
 42
0.2
  3
gdt
  4

  0
ENDTAB
  0
TABLE
  2
VIEW
  5
6
100
AcDbSymbolTable
 70
0
  0
ENDTAB
  0
TABLE
  2
UCS
  5
7
100
AcDbSymbolTable
 70
0
  0
ENDTAB
  0
TABLE
  2
APPID
  5
9
100
AcDbSymbolTable
 70
1
  0
APPID
  5
211
100
AcDbSymbolTableRecord
100
AcDbRegAppTableRecord
  2
ACAD
 70
0
  0
ENDTAB
  0
TABLE
  2
BLOCK_RECORD
  5
1
100
AcDbSymbolTable
 70
0
  0
BLOCK_RECORD
  5
212
100
AcDbSymbolTableRecord
100
AcDbBlockTableRecord
  2
*Model_Space
  0
BLOCK_RECORD
  5
213
100
AcDbSymbolTableRecord
100
AcDbBlockTableRecord
  2
*Paper_Space
  0
BLOCK_RECORD
  5
214
100
AcDbSymbolTableRecord
100
AcDbBlockTableRecord
  2
_FILLED
  0
ENDTAB
  0
TABLE
  2
DIMSTYLE
  5
A
100
AcDbSymbolTable
 70
1
100
AcDbDimStyleTable
 71
0
  0
DIMSTYLE
105
215
100
AcDbSymbolTableRecord
100
AcDbDimStyleTableRecord
  2
STANDARD
 70
0
  3

  4

 40
1.0
 41
3.0
 42
0.5
 43
0.38
 44
1.5
 45
0.0
 46
0.0
 47
0.01
 48
0.01
140
3.0
141
0.09
142
0.0
143
25.4
144
1.0
145
0.0
146
1.0
147
0.625
 71
1.0
 72
0.0
 73
0
 74
0
 75
0
 76
0
 77
1
 78
8
 79
2
170
0
171
1
172
0
173
0
174
0
175
0
176
0
177
0
178
0
270
2
179
2
271
2
272
2
273
2
274
2
275
0
280
0
281
0
282
0
283
1
284
8
285
0
286
0
287
3
288
0
340
11
278
44
341
214
342
214
343
214
344
214
  0
ENDTAB
  0
ENDSEC
  0
SECTION
  2
BLOCKS
  0
BLOCK
  5
20
100
AcDbEntity
  8
0
100
AcDbBlockBegin
  2
*Model_Space
 70
0
 10
0.0
 20
0.0
 30
0.0
  3
*Model_Space
  1

  0
ENDBLK
  5
21
100
AcDbEntity
  8
0
100
AcDbBlockEnd
  0
BLOCK
  5
1C
100
AcDbEntity
  8
0
100
AcDbBlockBegin
  2
*Paper_Space
 70
0
 10
0.0
 20
0.0
 30
0.0
  3
*Paper_Space
  1

  0
ENDBLK
  5
1D
100
AcDbEntity
  8
0
100
AcDbBlockEnd
  0
BLOCK
  5
216
100
AcDbEntity
  8
0
100
AcDbBlockBegin
  2
_FILLED
 70
64
 10
0.0
 20
0.0
  3
_FILLED
  1

  0
SOLID
  5
217
100
AcDbEntity
  8
0
  6
BYBLOCK
 62
0
100
AcDbTrace
 10
0.0
 20
0.0
 11
-1.0
 21
0.1333333333
 12
-1.0
 22
-0.1333333333
 13
-1.0
 23
-0.1333333333
  0
ENDBLK
  5
218
100
AcDbEntity
  8
0
  6
BYBLOCK
 62
0
100
AcDbBlockEnd
  0
ENDSEC
  0
SECTION
  2
ENTITIES
  0
LWPOLYLINE
  5
219
100
AcDbEntity
  8
RACCORDO
100
AcDbPolyline
 62
7
  6
CONTINUOUS
 90
25
 70
0
 10
-19.3418951721
 20
24.888409618
 10
-19.9776911819
 20
24.5089116301
 10
-20.591713106
 20
24.1171900514
 10
-21.1833049949
 20
23.7136391974
 10
-21.7518878809
 20
23.2986217351
 10
-22.2967835593
 20
22.8725962333
 10
-22.8172456123
 20
22.4361232394
 10
-23.3127674747
 20
21.9896104547
 10
-23.7827835824
 20
21.5335459574
 10
-24.2265644712
 20
21.0686428003
 10
-24.643686732
 20
20.5953741008
 10
-25.0337314136
 20
20.1142426483
 10
-25.396105531
 20
19.6260436651
 10
-25.7304943917
 20
19.1313064322
 10
-26.036618596
 20
18.6305545376
 10
-26.3140709514
 20
18.1246136343
 10
-26.5626251257
 20
17.6141326961
 10
-26.7821748515
 20
17.0995909982
 10
-26.972582102
 20
16.5815924954
 10
-27.1337221004
 20
16.0608315577
 10
-27.2655732195
 20
15.5377992312
 10
-27.3681524296
 20
15.0128155278
 10
-27.4414262419
 20
14.4863964489
 10
-27.485365897
 20
13.9592492136
 10
-27.5
 20
13.431989871
  0
LINE
  5
21A
100
AcDbEntity
  8
RACCORDO
100
AcDbLine
 62
250
  6
CONTINUOUS
 10
-19.8500770236
 20
24.5417967626
 11
-19.2311545957
 21
24.9110448101
  0
LWPOLYLINE
  5
21B
100
AcDbEntity
  8
RACCORDO
100
AcDbPolyline
 62
250
  6
CONTINUOUS
 90
40
 70
0
 10
-19.2311545957
 20
24.9110448101
 10
-18.8802182691
 20
25.1124415156
 10
-18.5352505185
 20
25.3068527401
 10
-18.1964279204
 20
25.4945903913
 10
-17.865504604
 20
25.675219526
 10
-17.5410783361
 20
25.8498029276
 10
-17.2183737604
 20
26.0207553381
 10
-16.8958836744
 20
26.1888497888
 10
-16.5749317835
 20
26.3535837958
 10
-16.254768418
 20
26.5153031495
 10
-15.9355619328
 20
26.6739495429
 10
-15.6169549012
 20
26.8298186776
 10
-15.2973018447
 20
26.9837276692
 10
-14.9760854712
 20
27.1358407188
 10
-14.653418183
 20
27.2861228061
 10
-14.3284482394
 20
27.43503588
 10
-14.0002516739
 20
27.5829017699
 10
-13.6691855452
 20
27.7294649373
 10
-13.3363098351
 20
27.8743297542
 10
-13.001124689
 20
28.0177147344
 10
-12.6636643481
 20
28.1595012626
 10
-12.325981984
 20
28.2988591446
 10
-11.9893874219
 20
28.4353251788
 10
-11.652456025
 20
28.5695562061
 10
-11.3131443757
 20
28.7024056596
 10
-10.9724657518
 20
28.8332953388
 10
-10.6290388611
 20
28.9628902919
 10
-10.2766162202
 20
29.0937448709
 10
-9.9135971658
 20
29.2258320627
 10
-9.5401373691
 20
29.3589473197
 10
-9.1516482755
 20
29.4951669073
 10
-8.7419926567
 20
29.6359012172
 10
-8.314491901
 20
29.7791667239
 10
-7.8788926977
 20
29.9220903152
 10
-7.4339309662
 20
30.0652233239
 10
-6.9794495253
 20
30.2078815231
 10
-6.5287151452
 20
30.3459030685
 10
-6.083650804
 20
30.4796099164
 10
-5.6433715614
 20
30.6091959474
 10
-5.2192033665
 20
30.7308678755
  0
LWPOLYLINE
  5
21C
100
AcDbEntity
  8
RACCORDO
100
AcDbPolyline
 62
250
  6
CONTINUOUS
 90
5
 70
0
 10
-19.3418911671
 20
24.8884119304
 10
-19.318664782
 20
24.8995333975
 10
-19.2912835395
 20
24.907648385
 10
-19.2620214736
 20
24.911497625
 10
-19.2311545957
 20
24.9110448101
  0
LINE
  5
21D
100
AcDbEntity
  8
0
100
AcDbLine
 62
7
  6
CONTINUOUS
 10
-27.5
 20
6.7096066408
 11
-27.5
 21
13.431989871
  0
LWPOLYLINE
  5
21E
100
AcDbEntity
  8
RACCORDO
100
AcDbPolyline
 62
250
  6
CONTINUOUS
 90
91
 70
0
 10
-14.28355698
 20
24.7243242791
 10
-14.7739954132
 20
24.4310353731
 10
-15.2454218787
 20
24.1287436289
 10
-15.6978363765
 20
23.8174490465
 10
-16.1317784665
 20
23.4967310832
 10
-16.5467085888
 20
23.1670102818
 10
-16.9410080641
 20
22.8295482701
 10
-17.3145686099
 20
22.4843346159
 10
-17.6674985085
 20
22.1313797515
 10
-17.9985039282
 20
21.7719766022
 10
-18.3075023645
 20
21.4061036896
 10
-18.5945763218
 20
21.0337824921
 10
-18.8586794812
 20
20.6563703703
 10
-19.0997290596
 20
20.2738460221
 10
-19.3178078401
 20
19.8862307495
 10
-19.5121178538
 20
19.4949458193
 10
-19.682570763
 20
19.0999763809
 10
-19.8292549055
 20
18.7013372849
 10
-19.9516373252
 20
18.3004943496
 10
-20.0496269179
 20
17.8974427328
 10
-20.1233147879
 20
17.4921872766
 10
-20.1724412927
 20
17.0862083261
 10
-20.1969169337
 20
16.679505497
 10
-20.1968312097
 20
16.2720791736
 10
-20.1721929744
 20
15.8654108533
 10
-20.1229138728
 20
15.4595038579
 10
-20.04908226
 20
15.0543548657
 10
-19.9509720555
 20
14.6514354082
 10
-19.828496107
 20
14.2507537784
 10
-19.6817415667
 20
13.8523016833
 10
-19.5112438109
 20
13.4575257764
 10
-19.3169168534
 20
13.0664384339
 10
-19.0988466803
 20
12.6790272795
 10
-18.8578266264
 20
12.2967018372
 10
-18.5937723085
 20
11.9194793041
 10
-18.3067681099
 20
11.5473424831
 10
-17.9978605147
 20
11.1816493073
 10
-17.6669691777
 20
10.8224232163
 10
-17.3141744441
 20
10.4696407705
 10
-16.9407638345
 20
10.1245895846
 10
-16.5466623996
 20
9.7872983327
 10
-16.1319450887
 20
9.4577383408
 10
-15.6981242702
 20
9.1371112013
 10
-15.2451303683
 20
8.8254495967
 10
-14.7730329587
 20
8.5227208446
 10
-14.2835531374
 20
8.23002849
 10
-13.7766275137
 20
7.9474091369
 10
-13.2523194782
 20
7.6748261813
 10
-12.712540298
 20
7.4132733563
 10
-12.1572333761
 20
7.1627908353
 10
-11.5864553095
 20
6.923338445
 10
-11.0022871554
 20
6.6957893983
 10
-10.4046792335
 20
6.4801869633
 10
-9.7936812243
 20
6.276487872
 10
-9.1715232259
 20
6.0854355338
 10
-8.5381646356
 20
5.9070763409
 10
-7.8936460562
 20
5.7413639011
 10
-7.2403193943
 20
5.5889024476
 10
-6.5781548785
 20
5.4497407072
 10
-5.9071822802
 20
5.3238299532
 10
-5.2298428201
 20
5.2116282375
 10
-4.5461150344
 20
5.1131852074
 10
-3.8560203869
 20
5.0284512157
 10
-3.1620644895
 20
4.9577353733
 10
-2.4642330131
 20
4.9010880076
 10
-1.7625402869
 20
4.8584587912
 10
-1.0595349102
 20
4.830005853
 10
-0.3552111652
 20
4.815780205
 10
0.3504252302
 20
4.8157308351
 10
1.0548085233
 20
4.8298628364
 10
1.7579380288
 20
4.8582278731
 10
2.459814432
 20
4.900774281
 10
3.1578740356
 20
4.9573521605
 10
3.8521084501
 20
5.0280140997
 10
4.5425260651
 20
5.1127075105
 10
5.2265883519
 20
5.2111247298
 10
5.9042697269
 20
5.3233167853
 10
6.5755957737
 20
5.4492326494
 10
7.2381047156
 20
5.588411576
 10
7.8917596113
 20
5.7409013665
 10
8.536597402
 20
5.9066542195
 10
9.1702671345
 20
6.0850659852
 10
9.7927315008
 20
6.2761842594
 10
10.4040278089
 20
6.4799614462
 10
11.0019170301
 20
6.6956506092
 10
11.586381284
 20
6.9233143434
 10
12.1574384509
 20
7.1628900537
 10
12.7129031427
 20
7.4134430177
 10
13.2520468968
 20
7.674661661
 10
13.7755981759
 20
7.946857558
 10
14.28355698
 20
8.2300307086
  0
LWPOLYLINE
  5
21F
100
AcDbEntity
  8
RACCORDO
100
AcDbPolyline
 62
7
  6
CONTINUOUS
 90
25
 70
0
 10
-14.433564228
 20
24.7391866324
 10
-14.9060533172
 20
24.4571911958
 10
-15.362354605
 20
24.1661712292
 10
-15.8019801906
 20
23.8664232296
 10
-16.224491083
 20
23.5582270351
 10
-16.6293938358
 20
23.2419206041
 10
-17.0161589492
 20
22.9179033891
 10
-17.3844028068
 20
22.5864858689
 10
-17.7337090441
 20
22.2480291867
 10
-18.0635677377
 20
21.9030298384
 10
-18.373656649
 20
21.5518416498
 10
-18.6636594006
 20
21.1948383922
 10
-18.9331590018
 20
20.832570649
 10
-19.1819112596
 20
20.4654286404
 10
-19.4096957701
 20
20.0938024332
 10
-19.6162182445
 20
19.7182671164
 10
-19.8013006573
 20
19.3392876842
 10
-19.9648404896
 20
18.9572300882
 10
-20.1067186057
 20
18.5725418976
 10
-20.2268311178
 20
18.1857210056
 10
-20.3251421899
 20
17.7971393189
 10
-20.4016427148
 20
17.4070691972
 10
-20.4562977322
 20
17.0159009492
 10
-20.4890796665
 20
16.6241397554
 10
-20.5
 20
16.2322364108
  0
LWPOLYLINE
  5
220
100
AcDbEntity
  8
0
100
AcDbPolyline
 62
7
  6
CONTINUOUS
 90
33
 70
0
 10
-7.0299931167
 20
27.5781449848
 10
-6.8113514702
 20
27.6618351859
 10
-6.5977696174
 20
27.7448864836
 10
-6.3889078905
 20
27.8276893047
 10
-6.1849216426
 20
27.910125574
 10
-5.9881010287
 20
27.9911102592
 10
-5.7986197992
 20
28.0711346065
 10
-5.6166412523
 20
28.150010489
 10
-5.445068953
 20
28.2256853784
 10
-5.2860601826
 20
28.2978883066
 10
-5.1386390115
 20
28.3672217159
 10
-5.0014570427
 20
28.4329349885
 10
-4.8760823935
 20
28.4945468165
 10
-4.7621567511
 20
28.552770264
 10
-4.6553209407
 20
28.6085720755
 10
-4.5554847311
 20
28.6619428098
 10
-4.4634254299
 20
28.7130079839
 10
-4.3757570448
 20
28.7628699422
 10
-4.2921619583
 20
28.8115797002
 10
-4.2132994879
 20
28.8591451299
 10
-4.1369965579
 20
28.9065677454
 10
-4.0626341085
 20
28.9541256416
 10
-3.9909442733
 20
29.0015717471
 10
-3.921660708
 20
29.0491061294
 10
-3.854704555
 20
29.096868669
 10
-3.7902535757
 20
29.1447469212
 10
-3.7284236533
 20
29.1925604243
 10
-3.669422102
 20
29.2403295179
 10
-3.6131803658
 20
29.2880593188
 10
-3.5594191478
 20
29.3355443338
 10
-3.508097593
 20
29.3827219195
 10
-3.4594077512
 20
29.4296739553
 10
-3.4134247811
 20
29.4764096549
  0
LINE
  5
221
100
AcDbEntity
  8
0
100
AcDbLine
 62
7
  6
CONTINUOUS
 10
-7.4783143229
 20
27.4100845831
 11
-7.0299931167
 21
27.5781449848
  0
LINE
  5
222
100
AcDbEntity
  8
0
100
AcDbLine
 62
7
  6
CONTINUOUS
 10
-7.7448078906
 20
27.3122280322
 11
-7.4783143229
 21
27.4100845831
  0
LWPOLYLINE
  5
223
100
AcDbEntity
  8
RACCORDO
100
AcDbPolyline
 62
250
  6
CONTINUOUS
 90
25
 70
0
 10
-27.5
 20
6.7096066408
 10
-27.4852761539
 20
6.1900879319
 10
-27.441120386
 20
5.6711255678
 10
-27.367579979
 20
5.153275234
 10
-27.2647336812
 20
4.6370914556
 10
-27.1326916231
 20
4.123126977
 10
-26.9715951997
 20
3.6119321685
 10
-26.7816169196
 20
3.1040544353
 10
-26.5629602154
 20
2.6000376204
 10
-26.3158592249
 20
2.1004214265
 10
-26.0405785396
 20
1.6057408404
 10
-25.7374129429
 20
1.1165255941
 10
-25.4066870952
 20
0.633299586
 10
-25.0487551887
 20
0.1565803143
 10
-24.6640004776
 20
-0.3131217894
 10
-24.2528348695
 20
-0.7753038672
 10
-23.8156985431
 20
-1.2294710922
 10
-23.3530596635
 20
-1.675137029
 10
-22.8654138149
 20
-2.1118242759
 10
-22.3532832977
 20
-2.5390651404
 10
-21.8172164363
 20
-2.9564022138
 10
-21.257787165
 20
-3.3633886872
 10
-20.6755944952
 20
-3.7595887754
 10
-20.0712618897
 20
-4.1445781902
 10
-19.4454364826
 20
-4.5179446757
  0
LWPOLYLINE
  5
224
100
AcDbEntity
  8
RACCORDO
100
AcDbPolyline
 62
7
  6
CONTINUOUS
 90
13
 70
0
 10
-27.5
 20
6.7096066408
 10
-27.4887010176
 20
6.2225299278
 10
-27.4547123187
 20
5.7348264565
 10
-27.3979184092
 20
5.2470243702
 10
-27.3182855518
 20
4.7599298198
 10
-27.2157314806
 20
4.2737885786
 10
-27.0899914066
 20
3.7882830887
 10
-26.9408901613
 20
3.3037688787
 10
-26.7683693047
 20
2.8209201385
 10
-26.5721992924
 20
2.3398794722
 10
-26.3522120838
 20
1.8610163615
 10
-26.108364823
 20
1.384938527
 10
-25.84058858
 20
0.9121284094
  0
LWPOLYLINE
  5
225
100
AcDbEntity
  8
0
100
AcDbPolyline
 62
7
  6
CONTINUOUS
 90
15
 70
0
 10
-20.2571340297
 20
18.0659465351
 10
-20.2977018077
 20
17.9351634375
 10
-20.3970066652
 20
17.5381633899
 10
-20.4730337695
 20
17.1394150578
 10
-20.525687694
 20
16.7393929423
 10
-20.5549074674
 20
16.3384999896
 10
-20.5606455033
 20
15.9370870959
 10
-20.5428717254
 20
15.5357196469
 10
-20.501629011
 20
15.1351225412
 10
-20.4370467216
 20
14.7360038391
 10
-20.3492138341
 20
14.3385638743
 10
-20.2381134846
 20
13.9427678241
 10
-20.1037291075
 20
13.5488253902
 10
-19.9462256274
 20
13.1574425543
 10
-19.7658583519
 20
12.7693280758
  0
LINE
  5
226
100
AcDbEntity
  8
RACCORDO
100
AcDbLine
 62
7
  6
CONTINUOUS
 10
11.313708499
 20
-24.6658192108
 11
5.2852813742
 21
-24.6658192108
  0
LWPOLYLINE
  5
227
100
AcDbEntity
  8
RACCORDO
100
AcDbPolyline
 62
7
  6
CONTINUOUS
 90
16
 70
0
 10
5.2852813742
 20
-24.6658192108
 10
5.0463895129
 20
-24.6622176262
 10
4.8078792031
 20
-24.6514088802
 10
4.5702323112
 20
-24.6333899518
 10
4.3339750281
 20
-24.6081670457
 10
4.0995571341
 20
-24.5757437993
 10
3.8673344737
 20
-24.5361055853
 10
3.6377487626
 20
-24.4892427235
 10
3.4113345814
 20
-24.435165385
 10
3.1885486288
 20
-24.3738692323
 10
2.9697611381
 20
-24.305317307
 10
2.7555757282
 20
-24.2295402449
 10
2.5467157853
 20
-24.1466360183
 10
2.3436971282
 20
-24.0566474045
 10
2.1469064131
 20
-23.9595562588
 10
1.9568300894
 20
-23.8553791704
  0
LWPOLYLINE
  5
228
100
AcDbEntity
  8
0
100
AcDbPolyline
 62
250
  6
CONTINUOUS
 90
6
 70
0
 10
-20.2969043652
 20
17.9087513819
 10
-20.347703063
 20
17.7235659501
 10
-20.4256931885
 20
17.3713516185
 10
-20.4853995715
 20
17.0179477988
 10
-20.5267687628
 20
16.663670844
 10
-20.5497637302
 20
16.3088378729
  0
LWPOLYLINE
  5
229
100
AcDbEntity
  8
0
100
AcDbPolyline
 62
7
  6
CONTINUOUS
 90
28
 70
0
 10
-3.4085503158
 20
29.3787947077
 10
-3.4691490731
 20
29.3172539999
 10
-3.5343537539
 20
29.255580181
 10
-3.6040098518
 20
29.1937518545
 10
-3.6776606722
 20
29.1317153101
 10
-3.7554619219
 20
29.0694790608
 10
-3.8381657265
 20
29.0071084712
 10
-3.9258508992
 20
28.9445639279
 10
-4.0181140977
 20
28.8818204329
 10
-4.1149793584
 20
28.8189568653
 10
-4.2159995482
 20
28.7560562912
 10
-4.3213418948
 20
28.6929621507
 10
-4.4319172793
 20
28.6293828117
 10
-4.5468809209
 20
28.5654601453
 10
-4.6667350628
 20
28.500956472
 10
-4.7942249985
 20
28.4349756999
 10
-4.9284707624
 20
28.367439925
 10
-5.0697036367
 20
28.2982671923
 10
-5.2220014158
 20
28.2264789666
 10
-5.385164611
 20
28.1515617278
 10
-5.55827669
 20
28.0737400924
 10
-5.7441191142
 20
27.9930386824
 10
-5.944048797
 20
27.9085695762
 10
-6.155434608
 20
27.8207678195
 10
-6.3754763427
 20
27.7316112497
 10
-6.6045937484
 20
27.641058686
 10
-6.8420819895
 20
27.5487128788
 10
-7.0546115804
 20
27.4674402792
  0
LWPOLYLINE
  5
22A
100
AcDbEntity
  8
0
100
AcDbPolyline
 62
7
  6
CONTINUOUS
 90
52
 70
0
 10
-3.4134247811
 20
29.4764096549
 10
-3.3601225391
 20
29.5253706293
 10
-3.2968962693
 20
29.5732139886
 10
-3.2236438056
 20
29.6199005792
 10
-3.1394776227
 20
29.6655311193
 10
-3.0451028013
 20
29.7099063032
 10
-2.9428863652
 20
29.7525420231
 10
-2.8329714875
 20
29.7933036723
 10
-2.7152433073
 20
29.8322313597
 10
-2.5917945867
 20
29.8691269083
 10
-2.4630591781
 20
29.9038777974
 10
-2.3287542326
 20
29.9365209507
 10
-2.1899468614
 20
29.9671032251
 10
-2.0469730707
 20
29.9955808173
 10
-1.8996864498
 20
30.0219337155
 10
-1.7484347904
 20
30.0462541147
 10
-1.5931117762
 20
30.0685706016
 10
-1.4340214294
 20
30.0887917395
 10
-1.2721351025
 20
30.1068397873
 10
-1.1077100209
 20
30.1226778157
 10
-0.9407304774
 20
30.1362992287
 10
-0.771773
 20
30.147684793
 10
-0.6006542599
 20
30.156830176
 10
-0.4278155625
 20
30.1637054607
 10
-0.2547801044
 20
30.1682722307
 10
-0.0822344196
 20
30.1705233553
 10
0.0902327681
 20
30.1704698276
 10
0.2627405859
 20
30.1681130206
 10
0.4356846057
 20
30.1634438922
 10
0.6083944283
 20
30.1564684359
 10
0.7793946311
 20
30.1472226974
 10
0.9482802396
 20
30.1357334087
 10
1.1151979849
 20
30.1220075929
 10
1.2795101565
 20
30.1060710386
 10
1.4412051391
 20
30.0879333732
 10
1.6000547412
 20
30.0676295574
 10
1.7551116073
 20
30.0452367254
 10
1.906073334
 20
30.020847082
 10
2.0530461058
 20
29.9944315927
 10
2.1957030226
 20
29.965895204
 10
2.3342189338
 20
29.9352500796
 10
2.4682296991
 20
29.9025476377
 10
2.5966059486
 20
29.8677616598
 10
2.7196087083
 20
29.8308562418
 10
2.8368312866
 20
29.7919437359
 10
2.946195366
 20
29.7512414356
 10
3.0477958268
 20
29.7087160232
 10
3.1415172465
 20
29.6644954753
 10
3.2250780127
 20
29.6190620779
 10
3.2978017316
 20
29.5726139011
 10
3.3605496399
 20
29.5250502106
 10
3.4134247719
 20
29.4764096606
  0
LINE
  5
22B
100
AcDbEntity
  8
RACCORDO
100
AcDbLine
 62
250
  6
CONTINUOUS
 10
11.313708499
 20
-24.2432066779
 11
5.2852813742
 21
-24.2432066779
  0
LWPOLYLINE
  5
22C
100
AcDbEntity
  8
RACCORDO
100
AcDbPolyline
 62
250
  6
CONTINUOUS
 90
19
 70
0
 10
5.2852813742
 20
-24.2432066779
 10
5.067184456
 20
-24.2404589537
 10
4.8495026917
 20
-24.2322210113
 10
4.632650451
 20
-24.2185085316
 10
4.4170405227
 20
-24.1993476166
 10
4.2030833345
 20
-24.1747747397
 10
3.991186171
 20
-24.1448366771
 10
3.7817523919
 20
-24.1095904178
 10
3.575180665
 20
-24.0691030548
 10
3.3718642122
 20
-24.0234516583
 10
3.1721900579
 20
-23.9727231282
 10
2.9765382932
 20
-23.9170140292
 10
2.7852813533
 20
-23.8564304071
 10
2.5987833053
 20
-23.7910875858
 10
2.4173991601
 20
-23.7211099495
 10
2.2414741972
 20
-23.6466307066
 10
2.0713433004
 20
-23.5677916336
 10
1.9073303216
 20
-23.484742805
 10
1.7497474683
 20
-23.3976423092
  0
LWPOLYLINE
  5
22D
100
AcDbEntity
  8
RACCORDO
100
AcDbPolyline
 62
7
  6
CONTINUOUS
 90
16
 70
0
 10
-21.536254133
 20
-6.3348756891
 10
-21.2947460135
 20
-6.7226626086
 10
-21.0333740902
 20
-7.1061440089
 10
-20.7522709212
 20
-7.4849791726
 10
-20.4514493036
 20
-7.8589903734
 10
-20.1311806592
 20
-8.2276852714
 10
-19.7920754795
 20
-8.5902811
 10
-19.4344158055
 20
-8.9464493994
 10
-19.058432255
 20
-9.2959300967
 10
-18.6648043733
 20
-9.6380906383
 10
-18.2539149384
 20
-9.9726308684
 10
-17.8260682941
 20
-10.2993295773
 10
-17.3819410983
 20
-10.6177096297
 10
-16.922050867
 20
-10.9274621805
 10
-16.4467084763
 20
-11.2284338663
 10
-15.9563352055
 20
-11.5204014176
  0
LWPOLYLINE
  5
22E
100
AcDbEntity
  8
RACCORDO
100
AcDbPolyline
 62
250
  6
CONTINUOUS
 90
15
 70
0
 10
-25.84058858
 20
0.9121284094
 10
-25.5669524788
 20
0.4727268232
 10
-25.2384169342
 20
-0.0072988392
 10
-24.8828555865
 20
-0.4808607562
 10
-24.5006491208
 20
-0.9474519375
 10
-24.0922066264
 20
-1.4065729628
 10
-23.6579653013
 20
-1.8577323338
 10
-23.198390248
 20
-2.3004467764
 10
-22.7139738248
 20
-2.7342419892
 10
-22.2052347949
 20
-3.1586534399
 10
-21.6727179226
 20
-3.573226682
 10
-21.116993674
 20
-3.9775176314
 10
-20.5386572484
 20
-4.3710933315
 10
-19.9383279103
 20
-4.7535324042
 10
-19.3166485432
 20
-5.1244253452
  0
LINE
  5
22F
100
AcDbEntity
  8
0
100
AcDbLine
 62
7
  6
CONTINUOUS
 10
-21.536254133
 20
-6.3348756891
 11
-25.84058858
 21
0.9121284094
  0
LWPOLYLINE
  5
230
100
AcDbEntity
  8
RACCORDO
100
AcDbPolyline
 62
250
  6
CONTINUOUS
 90
10
 70
0
 10
-19.4454364826
 20
-4.5179446757
 10
-19.4438220792
 20
-4.5950152919
 10
-19.4389825549
 20
-4.6700456748
 10
-19.4309289587
 20
-4.7428645215
 10
-19.4196796781
 20
-4.8133055787
 10
-19.4052603963
 20
-4.8812080214
 10
-19.3877040341
 20
-4.946416821
 10
-19.3670506747
 20
-5.0087830985
 10
-19.3433474721
 20
-5.0681644646
 10
-19.3166485432
 20
-5.1244253452
  0
LWPOLYLINE
  5
231
100
AcDbEntity
  8
0
100
AcDbPolyline
 62
7
  6
CONTINUOUS
 90
9
 70
0
 10
-20.5
 20
16.0580098468
 10
-20.4968777507
 20
15.8514354315
 10
-20.4719054625
 20
15.43853828
 10
-20.4219913109
 20
15.0263958591
 10
-20.3471961086
 20
14.615510301
 10
-20.2476109822
 20
14.2063822064
 10
-20.1233572607
 20
13.7995100349
 10
-19.9745863281
 20
13.3953894975
 10
-19.8014794389
 20
12.9945129528
  0
LWPOLYLINE
  5
232
100
AcDbEntity
  8
RACCORDO
100
AcDbPolyline
 62
250
  6
CONTINUOUS
 90
69
 70
0
 10
-20.5
 20
16.2322364108
 10
-20.4968779228
 20
16.0256676886
 10
-20.4719059063
 20
15.6127697341
 10
-20.4219919605
 20
15.2006267104
 10
-20.3471968971
 20
14.7897405726
 10
-20.2476117886
 20
14.3806117103
 10
-20.1233578616
 20
13.9737383839
 10
-19.9745865111
 20
13.5696165191
 10
-19.8014791432
 20
13.1687388795
 10
-19.6042467523
 20
12.7715939644
 10
-19.3831296364
 20
12.3786655329
 10
-19.1383973017
 20
11.990432408
 10
-18.8703480855
 20
11.6073677327
 10
-18.5793085271
 20
11.2299380425
 10
-18.2656329672
 20
10.8586028218
 10
-17.9297034678
 20
10.4938143881
 10
-17.571929381
 20
10.1360172835
 10
-17.1927465497
 20
9.7856473938
 10
-16.79261689
 20
9.4431315582
 10
-16.3720279245
 20
9.1088871237
 10
-15.9314921626
 20
8.7833213927
 10
-15.4715463636
 20
8.46683104
 10
-14.9927508688
 20
8.159801636
 10
-14.4956890177
 20
7.8626072495
 10
-13.9809664036
 20
7.5756099662
 10
-13.4492101366
 20
7.2991594479
 10
-12.9010680805
 20
7.0335925073
 10
-12.3372080196
 20
6.7792326783
 10
-11.7583169706
 20
6.5363898794
 10
-11.1651003576
 20
6.3053600274
 10
-10.558280999
 20
6.0864246114
 10
-9.9385981557
 20
5.8798503363
 10
-9.3068067596
 20
5.6858888538
 10
-8.6636767337
 20
5.504776519
 10
-8.0099914618
 20
5.3367339286
 10
-7.3465467395
 20
5.1819656734
 10
-6.6741505781
 20
5.040660293
 10
-5.9936224325
 20
4.9129900436
 10
-5.3057915909
 20
4.799110534
 10
-4.6114958938
 20
4.6991605093
 10
-3.911581393
 20
4.6132617953
 10
-3.2069015241
 20
4.5415191338
 10
-2.4983151991
 20
4.4840199384
 10
-1.7866853756
 20
4.4408342043
 10
-1.0728787
 20
4.4120145158
 10
-0.3577645293
 20
4.397595985
 10
0.3577855693
 20
4.397596197
 10
1.0728992513
 20
4.4120151376
 10
1.786705042
 20
4.4408351977
 10
2.4983335013
 20
4.484021236
 10
3.2069177286
 20
4.5415206157
 10
3.9115942765
 20
4.6132632413
 10
4.6115047716
 20
4.6991616927
 10
5.3057970483
 20
4.7991113784
 10
5.9936253303
 20
4.9129905552
 10
6.6741514882
 20
5.0406604739
 10
7.34654661
 20
5.1819656447
 10
8.0099917304
 20
5.3367339944
 10
8.6636782644
 20
5.5047769311
 10
9.3068092292
 20
5.6858895803
 10
9.9386008329
 20
5.8798511932
 10
10.5582836013
 20
6.0864255142
 10
11.1651027506
 20
6.3053609246
 10
11.7583190349
 20
6.536390714
 10
12.3372096403
 20
6.7792333835
 10
12.9010692601
 20
7.0335930588
 10
13.4492109146
 20
7.2991598383
 10
13.9809667861
 20
7.5756101721
 10
14.4956890143
 20
7.8626072476
  0
LINE
  5
233
100
AcDbEntity
  8
0
100
AcDbLine
 62
7
  6
CONTINUOUS
 10
-20.5
 20
16.0580098468
 11
-20.5
 21
16.2322364108
  0
LINE
  5
234
100
AcDbEntity
  8
RACCORDO
100
AcDbLine
 62
250
  6
CONTINUOUS
 10
-19.4454364826
 20
-4.5179446757
 11
-19.4454364826
 21
2.2044385544
  0
LWPOLYLINE
  5
235
100
AcDbEntity
  8
0
100
AcDbPolyline
 62
250
  6
CONTINUOUS
 90
12
 70
0
 10
-20.5497637302
 20
16.3088378729
 10
-20.5543638876
 20
15.9537665175
 10
-20.5405651153
 20
15.5987746059
 10
-20.5083797588
 20
15.2441798719
 10
-20.4578366239
 20
14.8902997452
 10
-20.3889809448
 20
14.5374509776
 10
-20.3018743246
 20
14.185949328
 10
-20.1965947264
 20
13.8361094767
 10
-20.0732363603
 20
13.4882445434
 10
-19.9319095423
 20
13.1426657217
 10
-19.7727405909
 20
12.7996820811
 10
-19.6831647098
 20
12.6274464362
  0
LWPOLYLINE
  5
236
100
AcDbEntity
  8
RACCORDO
100
AcDbPolyline
 62
250
  6
CONTINUOUS
 90
13
 70
0
 10
-19.4454364826
 20
2.2044385544
 10
-19.4437690548
 20
2.2450025429
 10
-19.4387824992
 20
2.2871094184
 10
-19.4305238514
 20
2.330362012
 10
-19.4190710104
 20
2.3743523485
 10
-19.4045320042
 20
2.4186654932
 10
-19.3870439713
 20
2.4628834659
 10
-19.3667718663
 20
2.5065891852
 10
-19.3439069039
 20
2.5493704019
 10
-19.3186647566
 20
2.590823586
 10
-19.2912835188
 20
2.630557735
 10
-19.2620214614
 20
2.6681980618
 10
-19.2311545957
 20
2.7033895289
  0
LINE
  5
237
100
AcDbEntity
  8
RACCORDO
100
AcDbLine
 62
7
  6
CONTINUOUS
 10
1.9568300894
 20
-23.8553791704
 11
-11.4421597839
 21
-16.1189703464
  0
LINE
  5
238
100
AcDbEntity
  8
RACCORDO
100
AcDbLine
 62
250
  6
CONTINUOUS
 10
1.7497474683
 20
-23.3976423092
 11
-11.6492424049
 21
-15.6612334852
  0
LWPOLYLINE
  5
239
100
AcDbEntity
  8
RACCORDO
100
AcDbPolyline
 62
250
  6
CONTINUOUS
 90
19
 70
0
 10
-11.6492424049
 20
-15.6612334852
 10
-11.8000951704
 20
-15.5702471202
 10
-11.9439306944
 20
-15.4755480815
 10
-12.0804751772
 20
-15.3773166337
 10
-12.209468699
 20
-15.275739765
 10
-12.3306657116
 20
-15.1710108331
 10
-12.4438355064
 20
-15.0633291977
 10
-12.5487626575
 20
-14.9528998378
 10
-12.6452474308
 20
-14.8399329611
 10
-12.7331061616
 20
-14.724643607
 10
-12.8121716058
 20
-14.6072512352
 10
-12.8822932578
 20
-14.4879793089
 10
-12.9433376367
 20
-14.3670548695
 10
-12.9951885416
 20
-14.2447081027
 10
-13.0377472709
 20
-14.1211719034
 10
-13.0709328111
 20
-13.996681433
 10
-13.0946819923
 20
-13.8714736672
 10
-13.1089496078
 20
-13.7457869451
 10
-13.113708499
 20
-13.6198605186
  0
LWPOLYLINE
  5
23A
100
AcDbEntity
  8
RACCORDO
100
AcDbPolyline
 62
7
  6
CONTINUOUS
 90
19
 70
0
 10
-11.4421597839
 20
-16.1189703464
 10
-11.6226344658
 20
-16.0092565485
 10
-11.7937081431
 20
-15.8940263955
 10
-11.9552258276
 20
-15.773476471
 10
-12.1073760488
 20
-15.6474963235
 10
-12.2496054077
 20
-15.5165538837
 10
-12.3808304091
 20
-15.3818361421
 10
-12.5009301755
 20
-15.2438423047
 10
-12.6101155957
 20
-15.1027187768
 10
-12.7080798606
 20
-14.9593294278
 10
-12.7947777861
 20
-14.8144063123
 10
-12.8705900151
 20
-14.6680480115
 10
-12.9358522732
 20
-14.5202667048
 10
-12.9906170621
 20
-14.3716418248
 10
-13.0350846646
 20
-14.2224664281
 10
-13.0695819667
 20
-14.0723398894
 10
-13.0941719907
 20
-13.9214243667
 10
-13.1088463394
 20
-13.7704476674
 10
-13.113708499
 20
-13.6198605186
  0
LWPOLYLINE
  5
23B
100
AcDbEntity
  8
RACCORDO
100
AcDbPolyline
 62
250
  6
CONTINUOUS
 90
12
 70
0
 10
-11.4421597839
 20
-16.1189703464
 10
-11.4604815733
 20
-16.1075861702
 10
-11.4949739667
 20
-16.0812217135
 10
-11.5263746639
 20
-16.0502252752
 10
-11.5545080594
 20
-16.0147701998
 10
-11.5792168199
 20
-15.9750547666
 10
-11.6003627638
 20
-15.9313010803
 10
-11.6178276346
 20
-15.8837538294
 10
-11.6315137616
 20
-15.8326789173
 10
-11.6413446064
 20
-15.7783619757
 10
-11.6472651909
 20
-15.7211067668
 10
-11.6492424049
 20
-15.6612334852
  0
LWPOLYLINE
  5
23C
100
AcDbEntity
  8
RACCORDO
100
AcDbPolyline
 62
250
  6
CONTINUOUS
 90
12
 70
0
 10
1.9568300894
 20
-23.8553791704
 10
1.9385083
 20
-23.8439949942
 10
1.9040159065
 20
-23.8176305376
 10
1.8726152093
 20
-23.7866340992
 10
1.8444818138
 20
-23.7511790238
 10
1.8197730534
 20
-23.7114635906
 10
1.7986271094
 20
-23.6677099044
 10
1.7811622386
 20
-23.6201626534
 10
1.7674761116
 20
-23.5690877413
 10
1.7576452668
 20
-23.5147707997
 10
1.7517246823
 20
-23.4575155909
 10
1.7497474683
 20
-23.3976423092
  0
LWPOLYLINE
  5
23D
100
AcDbEntity
  8
RACCORDO
100
AcDbPolyline
 62
250
  6
CONTINUOUS
 90
6
 70
0
 10
-15.9563352055
 20
-11.5204014176
 10
-15.9812107752
 20
-11.5045324646
 10
-16.0156899564
 20
-11.4768122654
 10
-16.0469356516
 20
-11.4443380596
 10
-16.0747672452
 20
-11.4072975641
 10
-16.0990238568
 20
-11.3659048912
  0
LWPOLYLINE
  5
23E
100
AcDbEntity
  8
ASSI
100
AcDbPolyline
 62
7
  6
CONTINUOUS
 90
9
 70
0
 10
-5.0175144213
 20
-21.7948823043
 10
-4.9685796903
 20
-21.8477423823
 10
-4.9159493329
 20
-21.9147439413
 10
-4.8711100865
 20
-21.9836088358
 10
-4.8339634108
 20
-22.0543134987
 10
-4.8049831245
 20
-22.1259560674
 10
-4.7842738376
 20
-22.1985485563
 10
-4.7717309402
 20
-22.2720789511
 10
-4.7675144213
 20
-22.3456093458
  0
LINE
  5
23F
100
AcDbEntity
  8
RACCORDO
100
AcDbLine
 62
250
  6
CONTINUOUS
 10
-16.0990238568
 20
-11.3659048912
 11
-19.3166485432
 21
-5.1244253452
  0
LWPOLYLINE
  5
240
100
AcDbEntity
  8
RACCORDO
100
AcDbPolyline
 62
7
  6
CONTINUOUS
 90
31
 70
0
 10
-3.3929358529
 20
-18.7743507285
 10
-3.2591680388
 20
-18.8487559521
 10
-3.0599635492
 20
-18.9498841475
 10
-2.8534982866
 20
-19.0438535119
 10
-2.6402803803
 20
-19.1305964251
 10
-2.420771483
 20
-19.2100816664
 10
-2.1954774081
 20
-19.282257567
 10
-1.9648493778
 20
-19.3470724514
 10
-1.7293876222
 20
-19.4044719341
 10
-1.4897608102
 20
-19.4543599875
 10
-1.24649223
 20
-19.4966723423
 10
-1.0001011067
 20
-19.5313676225
 10
-0.7513172354
 20
-19.5583779529
 10
-0.5006853078
 20
-19.57766341
 10
-0.2487488458
 20
-19.5892060877
 10
0.0037302462
 20
-19.5929807192
 10
0.2561978805
 20
-19.5889763382
 10
0.5081001442
 20
-19.5772054579
 10
0.7586755886
 20
-19.5576924778
 10
1.0073812239
 20
-19.5304568356
 10
1.2536724659
 20
-19.4955398478
 10
1.4968198067
 20
-19.4530087903
 10
1.7363040563
 20
-19.4029065492
 10
1.9716027216
 20
-19.3452983989
 10
2.2020490517
 20
-19.2802796808
 10
2.4271446757
 20
-19.2079053982
 10
2.6464399819
 20
-19.128227142
 10
2.8594315583
 20
-19.0412952112
 10
3.0656574483
 20
-18.947142323
 10
3.2646079648
 20
-18.8458369518
 10
3.3929437184
 20
-18.7743461836
  0
LINE
  5
241
100
AcDbEntity
  8
RACCORDO
100
AcDbLine
 62
7
  6
CONTINUOUS
 10
-3.3928452546
 20
-18.7744030577
 11
-15.9563352055
 21
-11.5204014176
  0
LINE
  5
242
100
AcDbEntity
  8
RACCORDO
100
AcDbLine
 62
250
  6
CONTINUOUS
 10
-3.5355339059
 20
-18.6199065313
 11
-16.0990238568
 21
-11.3659048912
  0
LINE
  5
243
100
AcDbEntity
  8
RACCORDO
100
AcDbLine
 62
250
  6
CONTINUOUS
 10
-3.3476719871
 20
-18.7304551641
 11
-3.5355339059
 21
-18.6199065313
  0
LWPOLYLINE
  5
244
100
AcDbEntity
  8
RACCORDO
100
AcDbPolyline
 62
250
  6
CONTINUOUS
 90
15
 70
0
 10
-16.0990238568
 20
-11.3659048912
 10
-16.6119421875
 20
-11.0600009974
 10
-17.1074343481
 20
-10.7446663872
 10
-17.5849804861
 20
-10.4202318319
 10
-18.0440797235
 20
-10.0870375372
 10
-18.4842502163
 20
-9.7454331218
 10
-18.9050297238
 20
-9.3957772783
 10
-19.3059767345
 20
-9.0384368929
 10
-19.686670723
 20
-8.6737867583
 10
-20.046712193
 20
-8.3022095428
 10
-20.3857233823
 20
-7.9240951458
 10
-20.7033487536
 20
-7.5398401497
 10
-20.9992552172
 20
-7.149847528
 10
-21.2731323848
 20
-6.7545263459
 10
-21.2947460135
 20
-6.7226626086
  0
LWPOLYLINE
  5
245
100
AcDbEntity
  8
RACCORDO
100
AcDbPolyline
 62
250
  6
CONTINUOUS
 90
6
 70
0
 10
-3.3929358528
 20
-18.7743507285
 10
-3.4177208244
 20
-18.7585341047
 10
-3.4522000056
 20
-18.7308139055
 10
-3.4834457007
 20
-18.6983396997
 10
-3.5112772943
 20
-18.6612992042
 10
-3.5355339059
 20
-18.6199065313
  0
LWPOLYLINE
  5
246
100
AcDbEntity
  8
ASSI
100
AcDbPolyline
 62
7
  6
CONTINUOUS
 90
35
 70
0
 10
-8.6420223873
 20
-28.1969722067
 10
-8.6300457181
 20
-28.2351667512
 10
-8.6010697825
 20
-28.3069192749
 10
-8.5640281738
 20
-28.3774239542
 10
-8.5190795097
 20
-28.4463788773
 10
-8.4664162673
 20
-28.5134887685
 10
-8.4062639587
 20
-28.5784662531
 10
-8.3388801653
 20
-28.6410330875
 10
-8.2645534348
 20
-28.7009213508
 10
-8.1836020459
 20
-28.7578745924
 10
-8.0963726446
 20
-28.8116489297
 10
-8.0032387607
 20
-28.8620140928
 10
-7.9045992078
 20
-28.9087544102
 10
-7.8008763757
 20
-28.9516697328
 10
-7.6925144213
 20
-28.9905762906
 10
-7.5799773672
 20
-29.0253074797
 10
-7.4637471144
 20
-29.0557145759
 10
-7.3443213786
 20
-29.0816673712
 10
-7.2222115592
 20
-29.1030547319
 10
-7.0979405492
 20
-29.1197850739
 10
-6.9720404961
 20
-29.1317867554
 10
-6.8450505233
 20
-29.1390083833
 10
-6.7175144213
 20
-29.1414190335
 10
-6.5899783193
 20
-29.1390083833
 10
-6.4629883464
 20
-29.1317867554
 10
-6.3370882933
 20
-29.1197850739
 10
-6.2128172833
 20
-29.1030547319
 10
-6.0907074639
 20
-29.0816673712
 10
-5.9712817282
 20
-29.0557145759
 10
-5.8550514753
 20
-29.0253074797
 10
-5.7425144213
 20
-28.9905762906
 10
-5.6341524669
 20
-28.9516697328
 10
-5.5304296347
 20
-28.9087544102
 10
-5.4317900818
 20
-28.8620140928
 10
-5.338656198
 20
-28.8116489297
  0
LINE
  5
247
100
AcDbEntity
  8
RACCORDO
100
AcDbLine
 62
7
  6
CONTINUOUS
 10
-13.113708499
 20
-13.1616984514
 11
-13.113708499
 21
-13.6198605186
  0
LWPOLYLINE
  5
248
100
AcDbEntity
  8
RACCORDO
100
AcDbPolyline
 62
250
  6
CONTINUOUS
 90
34
 70
0
 10
-3.5355339059
 20
-13.6944916288
 10
-3.3594795457
 20
-13.7769544442
 10
-3.1774719391
 20
-13.8544759822
 10
-2.9901755753
 20
-13.9270083852
 10
-2.7990195625
 20
-13.9942909271
 10
-2.6039094245
 20
-14.0565985687
 10
-2.4029896803
 20
-14.1145288421
 10
-2.1957861679
 20
-14.168111504
 10
-1.9835811989
 20
-14.2169567624
 10
-1.7669721427
 20
-14.2608703967
 10
-1.5464774271
 20
-14.2997264412
 10
-1.322527288
 20
-14.3334331705
 10
-1.0956102518
 20
-14.3618785056
 10
-0.8662064216
 20
-14.3849827254
 10
-0.634829309
 20
-14.402683095
 10
-0.402027906
 20
-14.4149167101
 10
-0.1683341203
 20
-14.4216461338
 10
0.0657622044
 20
-14.4228569576
 10
0.2997707306
 20
-14.4185431487
 10
0.5332672486
 20
-14.4087035086
 10
0.7656484786
 20
-14.3933608451
 10
0.9961610696
 20
-14.3725839528
 10
1.2234128174
 20
-14.346536555
 10
1.4478242155
 20
-14.3152508506
 10
1.671282319
 20
-14.2784425273
 10
1.8939031638
 20
-14.2358525614
 10
2.114325761
 20
-14.1875471575
 10
2.3320831157
 20
-14.1335460379
 10
2.5469198107
 20
-14.0736831491
 10
2.7576880392
 20
-14.0080381494
 10
2.9626409354
 20
-13.9371104771
 10
3.1608305018
 20
-13.8611925657
 10
3.3519976084
 20
-13.7802668933
 10
3.5355339059
 20
-13.6944916288
  0
LWPOLYLINE
  5
249
100
AcDbEntity
  8
RACCORDO
100
AcDbPolyline
 62
250
  6
CONTINUOUS
 90
34
 70
0
 10
-3.3134656379
 20
-14.3693709054
 10
-3.1351239887
 20
-14.4608227057
 10
-2.9531918496
 20
-14.5455618753
 10
-2.7683884586
 20
-14.6236714299
 10
-2.582300917
 20
-14.6948945419
 10
-2.3947252738
 20
-14.7597649802
 10
-2.2034386783
 20
-14.8193765224
 10
-2.0079488677
 20
-14.8739347369
 10
-1.8095268759
 20
-14.9231014518
 10
-1.6083781343
 20
-14.9669513714
 10
-1.404927093
 20
-15.0054549014
 10
-1.199542299
 20
-15.0385880791
 10
-0.9923227727
 20
-15.0664134399
 10
-0.7836281098
 20
-15.088916086
 10
-0.5738649697
 20
-15.1060715757
 10
-0.3631884299
 20
-15.1179045888
 10
-0.1519933315
 20
-15.1244090807
 10
0.0593577812
 20
-15.1255770425
 10
0.2707626372
 20
-15.1214073741
 10
0.4819202023
 20
-15.1118971222
 10
0.6923718675
 20
-15.0970457297
 10
0.9017774469
 20
-15.0768464439
 10
1.1089200923
 20
-15.0514438752
 10
1.3142731512
 20
-15.0207847331
 10
1.5199516773
 20
-14.984390313
 10
1.7260856077
 20
-14.942007428
 10
1.9315356232
 20
-14.8935993992
 10
2.1363611194
 20
-14.8387981181
 10
2.3403194592
 20
-14.7773612172
 10
2.5423981401
 20
-14.7092491212
 10
2.7414590847
 20
-14.6344167642
 10
2.9366966953
 20
-14.5528443426
 10
3.1275971209
 20
-14.4644952029
 10
3.3134656379
 20
-14.3693709054
  0
LWPOLYLINE
  5
24A
100
AcDbEntity
  8
RACCORDO
100
AcDbPolyline
 62
250
  6
CONTINUOUS
 90
10
 70
0
 10
-3.6643218454
 20
-13.6297624834
 10
-3.6498356506
 20
-13.6379845525
 10
-3.6353918696
 20
-13.6459445988
 10
-3.6209905023
 20
-13.6536426224
 10
-3.6066292925
 20
-13.6610725736
 10
-3.5923104963
 20
-13.6682405021
 10
-3.5780408827
 20
-13.6751645569
 10
-3.5638227079
 20
-13.6818507878
 10
-3.5496537157
 20
-13.6882931451
 10
-3.5355339059
 20
-13.6944916288
  0
LINE
  5
24B
100
AcDbEntity
  8
RACCORDO
100
AcDbLine
 62
250
  6
CONTINUOUS
 10
-19.3166485432
 20
-5.1244253452
 11
-3.5355339059
 21
-14.236243153
  0
LINE
  5
24C
100
AcDbEntity
  8
RACCORDO
100
AcDbLine
 62
250
  6
CONTINUOUS
 10
-19.4454364826
 20
-4.5179446757
 11
-3.6643218454
 21
-13.6297624834
  0
LWPOLYLINE
  5
24D
100
AcDbEntity
  8
RACCORDO
100
AcDbPolyline
 62
250
  6
CONTINUOUS
 90
10
 70
0
 10
-3.5355339059
 20
-14.236243153
 10
-3.5103126713
 20
-14.2527764331
 10
-3.4852151013
 20
-14.268861697
 10
-3.4602486236
 20
-14.2845018948
 10
-3.4354253229
 20
-14.2996921925
 10
-3.4107475723
 20
-14.3144433914
 10
-3.3862077281
 20
-14.3287817373
 10
-3.3618074453
 20
-14.3427177806
 10
-3.3375579865
 20
-14.3562465631
 10
-3.3134656379
 20
-14.3693709054
  0
LWPOLYLINE
  5
24E
100
AcDbEntity
  8
ASSI
100
AcDbPolyline
 62
7
  6
CONTINUOUS
 90
37
 70
0
 10
-8.6675144213
 20
-22.3456093458
 10
-8.6632979024
 20
-22.4191397405
 10
-8.6507550049
 20
-22.4926701353
 10
-8.6300457181
 20
-22.5652626242
 10
-8.6010654318
 20
-22.6369051929
 10
-8.5639187561
 20
-22.7076098558
 10
-8.5190795097
 20
-22.7764747503
 10
-8.4664491522
 20
-22.8434763093
 10
-8.4061262241
 20
-22.9086380998
 10
-8.3388801653
 20
-22.9711289605
 10
-8.2646222917
 20
-23.0309146774
 10
-8.1834412875
 20
-23.0880294645
 10
-8.0963726446
 20
-23.1417448028
 10
-8.0033409434
 20
-23.192017146
 10
-7.9044216036
 20
-23.2388900404
 10
-7.8008763757
 20
-23.2817656059
 10
-7.692646003
 20
-23.3205926375
 10
-7.5797897422
 20
-23.3554223401
 10
-7.4637471144
 20
-23.3858104489
 10
-7.3444773027
 20
-23.4117000678
 10
-7.2220211239
 20
-23.4331480928
 10
-7.0979405492
 20
-23.4498809469
 10
-6.9722147705
 20
-23.4618382296
 10
-6.8448645959
 20
-23.4690803414
 10
-6.7175144213
 20
-23.4715149066
 10
-6.5901642467
 20
-23.4690803414
 10
-6.4628140721
 20
-23.4618382296
 10
-6.3370882933
 20
-23.4498809469
 10
-6.2130077187
 20
-23.4331480928
 10
-6.0905515399
 20
-23.4117000678
 10
-5.9712817282
 20
-23.3858104489
 10
-5.8552391003
 20
-23.3554223401
 10
-5.7423828396
 20
-23.3205926375
 10
-5.6341524669
 20
-23.2817656059
 10
-5.5310278225
 20
-23.2390893337
 10
-5.4325290662
 20
-23.1924157327
 10
-5.338656198
 20
-23.1417448028
  0
LWPOLYLINE
  5
24F
100
AcDbEntity
  8
ASSI
100
AcDbPolyline
 62
7
  6
CONTINUOUS
 90
4
 70
0
 10
-8.6675144213
 20
-28.0155134728
 10
-8.6633393216
 20
-28.0891512196
 10
-8.650831901
 20
-28.1624736384
 10
-8.6420223873
 20
-28.1969722067
  0
LWPOLYLINE
  5
250
100
AcDbEntity
  8
ASSI
100
AcDbPolyline
 62
7
  6
CONTINUOUS
 90
35
 70
0
 10
-8.4174713369
 20
-22.3456093618
 10
-8.4151846304
 20
-22.3969801587
 10
-8.4048065725
 20
-22.4651161133
 10
-8.3861844775
 20
-22.5330026066
 10
-8.359588326
 20
-22.5996554297
 10
-8.3249019496
 20
-22.66505661
 10
-8.2822415167
 20
-22.7292241199
 10
-8.2322255124
 20
-22.7912276678
 10
-8.1747467787
 20
-22.8510357284
 10
-8.1099124735
 20
-22.9086798268
 10
-8.0386625557
 20
-22.9633242469
 10
-7.9609035611
 20
-23.0149252886
 10
-7.8767289539
 20
-23.0635266518
 10
-7.7873590861
 20
-23.1084237208
 10
-7.6927182717
 20
-23.1495625303
 10
-7.5928821967
 20
-23.1869970455
 10
-7.4892982708
 20
-23.220184546
 10
-7.3819118944
 20
-23.2490631601
 10
-7.2707776672
 20
-23.2736947594
 10
-7.1575067979
 20
-23.2937222383
 10
-7.0420681595
 20
-23.3090785229
 10
-6.924492879
 20
-23.3198306872
 10
-6.8064855469
 20
-23.3258228477
 10
-6.6880398688
 20
-23.3269856595
 10
-6.5691621391
 20
-23.3233884675
 10
-6.4515758307
 20
-23.3150834235
 10
-6.3352997575
 20
-23.302001942
 10
-6.2203151057
 20
-23.2842126084
 10
-6.108288907
 20
-23.26197333
 10
-5.9992642611
 20
-23.2352192788
 10
-5.8931980683
 20
-23.2040152827
 10
-5.7916280617
 20
-23.1688137332
 10
-5.6950668193
 20
-23.1297654271
 10
-5.6030017631
 20
-23.0867195676
 10
-5.5154328933
 20
-23.0396761544
  0
LINE
  5
251
100
AcDbEntity
  8
RACCORDO
100
AcDbLine
 62
250
  6
CONTINUOUS
 10
-11.6492424049
 20
-14.0072628201
 11
-11.6492424049
 21
-15.6612334852
  0
LWPOLYLINE
  5
252
100
AcDbEntity
  8
RACCORDO
100
AcDbPolyline
 62
250
  6
CONTINUOUS
 90
28
 70
0
 10
-3.1998124041
 20
-9.3660878044
 10
-3.8842761339
 20
-8.763048514
 10
-4.5490392251
 20
-8.1796934401
 10
-5.1955385747
 20
-7.6162377349
 10
-5.8225502736
 20
-7.075933845
 10
-6.434488275
 20
-6.555903079
 10
-7.0401616642
 20
-6.0468559473
 10
-7.6422287627
 20
-5.5456074589
 10
-8.2386382998
 20
-5.0549435584
 10
-8.8300142653
 20
-4.5742510672
 10
-9.4168858244
 20
-4.1031599835
 10
-9.9996074093
 20
-3.6415738324
 10
-10.5785331664
 20
-3.1892577778
 10
-11.1541510484
 20
-2.7458619357
 10
-11.7269677107
 20
-2.3111413776
 10
-12.2974133273
 20
-1.8849867773
 10
-12.8672636365
 20
-1.4663010271
 10
-13.4357367689
 20
-1.0553873188
 10
-13.9998340323
 20
-0.6543319646
 10
-14.5562868426
 20
-0.2651991255
 10
-15.1104017329
 20
0.1146664193
 10
-15.6716195311
 20
0.4905387227
 10
-16.2417157167
 20
0.8656668123
 10
-16.8187447918
 20
1.2385202933
 10
-17.4058756915
 20
1.607782566
 10
-18.0042321669
 20
1.9738452747
 10
-18.6127069398
 20
2.3386371271
 10
-19.2311545957
 20
2.7033895289
  0
LWPOLYLINE
  5
253
100
AcDbEntity
  8
RACCORDO
100
AcDbPolyline
 62
250
  6
CONTINUOUS
 90
28
 70
0
 10
-3.5355339059
 20
-9.8321973995
 10
-4.213370168
 20
-9.2291070378
 10
-4.8744094742
 20
-8.6461234623
 10
-5.5186518247
 20
-8.0832466729
 10
-6.1425456551
 20
-7.5435725547
 10
-6.7496425297
 20
-7.0240052227
 10
-7.3505971416
 20
-6.5152570218
 10
-7.9484602227
 20
-6.0145686415
 10
-8.540181041
 20
-5.5246993923
 10
-9.1272620944
 20
-5.0446395515
 10
-9.7097661925
 20
-4.5743050184
 10
-10.2876305256
 20
-4.1137798936
 10
-10.8621691624
 20
-3.6623067562
 10
-11.4333261583
 20
-3.2198938703
 10
-12.0011574579
 20
-2.7865329719
 10
-12.5671449631
 20
-2.361441847
 10
-13.13229207
 20
-1.9439104923
 10
-13.6955953826
 20
-1.5346489112
 10
-14.255526615
 20
-1.1350048999
 10
-14.8081433018
 20
-0.747571177
 10
-15.3573879085
 20
-0.369755024
 10
-15.9135595455
 20
0.0048739181
 10
-16.4790252768
 20
0.3782420025
 10
-17.0514180384
 20
0.7484228759
 10
-17.6339357479
 20
1.1160678378
 10
-18.2276443781
 20
1.4813939881
 10
-18.8314779564
 20
1.844184227
 10
-19.4454364826
 20
2.2044385544
  0
LWPOLYLINE
  5
254
100
AcDbEntity
  8
0
100
AcDbPolyline
 62
7
  6
CONTINUOUS
 90
14
 70
0
 10
-19.6042474972
 20
12.5973688072
 10
-19.3831307998
 20
12.2044409197
 10
-19.1383987432
 20
11.8162080122
 10
-18.8703494958
 20
11.4331430869
 10
-18.5793096343
 20
11.0557128494
 10
-18.2656337459
 20
10.6843771402
 10
-17.9297039964
 20
10.3195883747
 10
-17.5719296644
 20
9.9617909919
 10
-17.1927466429
 20
9.6114209126
 10
-16.7926169079
 20
9.268905009
 10
-16.372027956
 20
8.9346605838
 10
-15.9314922099
 20
8.6090948624
 10
-15.4715463946
 20
8.2926044965
 10
-14.9927508832
 20
7.9855750809
  0
LWPOLYLINE
  5
255
100
AcDbEntity
  8
0
100
AcDbPolyline
 62
7
  6
CONTINUOUS
 90
21
 70
0
 10
-19.6918412391
 20
12.6229339686
 10
-19.7970587866
 20
12.8272023474
 10
-19.9789404419
 20
13.2170247563
 10
-20.1379421781
 20
13.6105557515
 10
-20.2736007201
 20
14.0066617343
 10
-20.3857753083
 20
14.4047210521
 10
-20.4744514865
 20
14.8044276971
 10
-20.5395547693
 20
15.2051016271
 10
-20.5810735874
 20
15.6058560597
 10
-20.5991358228
 20
16.0066519539
 10
-20.5937705943
 20
16.4080845812
 10
-20.5648477494
 20
16.8101536088
 10
-20.5123030283
 20
17.2119385141
 10
-20.4361769148
 20
17.6126548265
 10
-20.3364917058
 20
18.0119535164
 10
-20.2133470984
 20
18.4092580852
 10
-20.0671126646
 20
18.8034582762
 10
-19.8981814173
 20
19.1938028398
 10
-19.7067210304
 20
19.580170206
 10
-19.4928669571
 20
19.9624084993
 10
-19.3539371479
 20
20.1847715919
  0
LINE
  5
256
100
AcDbEntity
  8
0
100
AcDbLine
 62
7
  6
CONTINUOUS
 10
-19.8014794389
 20
12.9945129528
 11
-19.6042474972
 21
12.5973688072
  0
LINE
  5
257
100
AcDbEntity
  8
ASSI
100
AcDbLine
 62
7
  6
CONTINUOUS
 10
-8.6675144213
 20
-28.0155134728
 11
-8.6675144213
 21
-22.3456093458
  0
LINE
  5
258
100
AcDbEntity
  8
ASSI
100
AcDbLine
 62
7
  6
CONTINUOUS
 10
-8.4175144213
 20
-22.3456093458
 11
-8.4175144213
 21
-17.865362671
  0
LWPOLYLINE
  5
259
100
AcDbEntity
  8
RACCORDO
100
AcDbPolyline
 62
250
  6
CONTINUOUS
 90
25
 70
0
 10
-19.4454364826
 20
2.2044385544
 10
-20.0712619061
 20
2.57780505
 10
-20.6755945262
 20
2.9627944752
 10
-21.2577872088
 20
3.3589945738
 10
-21.8172165051
 20
3.7659810681
 10
-22.3532833885
 20
4.1833181629
 10
-22.8654138866
 20
4.6105590162
 10
-23.3530596409
 20
5.0472461801
 10
-23.8156984009
 20
5.4929119957
 10
-24.2528346622
 20
5.947079139
 10
-24.664000292
 20
6.4092612235
 10
-25.0487550595
 20
6.8789633798
 10
-25.4066870062
 20
7.3556826921
 10
-25.7374128632
 20
7.8389087019
 10
-26.0405784604
 20
8.3281239359
 10
-26.3158591496
 20
8.8228045134
 10
-26.5629601502
 20
9.32242071
 10
-26.7816168656
 20
9.8264375317
 10
-26.9715951559
 20
10.3343152718
 10
-27.1326915884
 20
10.8455100861
 10
-27.2647336549
 20
11.3594745704
 10
-27.3675799601
 20
11.8756583535
 10
-27.4411203736
 20
12.3935086893
 10
-27.4852761478
 20
12.9124710542
 10
-27.5
 20
13.431989871
  0
LWPOLYLINE
  5
25A
100
AcDbEntity
  8
RACCORDO
100
AcDbPolyline
 62
250
  6
CONTINUOUS
 90
48
 70
0
 10
-19.2311545957
 20
2.7033895289
 10
-19.850077583
 20
3.0726379212
 10
-20.4477468023
 20
3.4533820978
 10
-21.0235220691
 20
3.8452144557
 10
-21.5767871575
 20
4.2477159065
 10
-22.106948845
 20
4.6604551624
 10
-22.6134377735
 20
5.0829891008
 10
-23.0957112614
 20
5.5148649743
 10
-23.55325321
 20
5.9556205954
 10
-23.985573275
 20
6.4047835748
 10
-24.3922082853
 20
6.8618725729
 10
-24.7727232003
 20
7.3263984395
 10
-25.126711067
 20
7.7978643544
 10
-25.4537929981
 20
8.2757657944
 10
-25.7536184576
 20
8.7595907032
 10
-26.0258661597
 20
9.2488206462
 10
-26.2702445142
 20
9.7429315716
 10
-26.486491949
 20
10.2413945333
 10
-26.6743769711
 20
10.7436759123
 10
-26.833698401
 20
11.2492379227
 10
-26.9642855985
 20
11.7575391275
 10
-27.0659987105
 20
12.2680351682
 10
-27.1387288196
 20
12.7801793674
 10
-27.1823980524
 20
13.2934233315
 10
-27.1969596493
 20
13.8072174822
 10
-27.1823980167
 20
14.321011638
 10
-27.138728747
 20
14.8342556113
 10
-27.0659986006
 20
15.3463998148
 10
-26.9642854529
 20
15.8568958502
 10
-26.8336982213
 20
16.3651970448
 10
-26.6743767577
 20
16.8707590462
 10
-26.4864917013
 20
17.373040419
 10
-26.2702442319
 20
17.8715033756
 10
-26.0258658417
 20
18.365614298
 10
-25.7536181003
 20
18.8548442435
 10
-25.453792599
 20
19.3386691568
 10
-25.1267106301
 20
19.8165705935
 10
-24.7727227324
 20
20.2880364958
 10
-24.3922077928
 20
20.7525623427
 10
-23.9855727691
 20
21.2096513107
 10
-23.5532527276
 20
21.658814226
 10
-23.0957108198
 20
22.0995697747
 10
-22.6134373147
 20
22.5314456346
 10
-22.1069481991
 20
22.9539796969
 10
-21.5767862386
 20
23.366719124
 10
-21.0235210299
 20
23.7692206144
 10
-20.4477459027
 20
24.1610528335
 10
-19.8500770236
 20
24.5417967626
  0
LWPOLYLINE
  5
25B
100
AcDbEntity
  8
RACCORDO
100
AcDbPolyline
 62
250
  6
CONTINUOUS
 90
10
 70
0
 10
-3.6643218454
 20
-13.6297624834
 10
-3.6627074836
 20
-13.7068330758
 10
-3.6578679904
 20
-13.7818634409
 10
-3.6498144151
 20
-13.854682276
 10
-3.6385651447
 20
-13.9251233276
 10
-3.6241458627
 20
-13.9930257709
 10
-3.60658949
 20
-14.0582345766
 10
-3.5859361098
 20
-14.1206008657
 10
-3.5622328761
 20
-14.1799822492
 10
-3.5355339059
 20
-14.236243153
  0
LINE
  5
25C
100
AcDbEntity
  8
ASSI
100
AcDbLine
 62
7
  6
CONTINUOUS
 10
-5.0175144213
 20
-22.3456093458
 11
-5.0175144213
 21
-19.828480059
  0
LINE
  5
25D
100
AcDbEntity
  8
ASSI
100
AcDbLine
 62
7
  6
CONTINUOUS
 10
-4.7675144213
 20
-28.0155134728
 11
-4.7675144213
 21
-22.3456093458
  0
LINE
  5
25E
100
AcDbEntity
  8
RACCORDO
100
AcDbLine
 62
250
  6
CONTINUOUS
 10
-3.5355339059
 20
-18.6199065313
 11
-3.5355339059
 21
-14.236243153
  0
LINE
  5
25F
100
AcDbEntity
  8
RACCORDO
100
AcDbLine
 62
250
  6
CONTINUOUS
 10
-3.5355339059
 20
-13.6944916288
 11
-3.5355339059
 21
-9.8321973995
  0
LWPOLYLINE
  5
260
100
AcDbEntity
  8
ASSI
100
AcDbPolyline
 62
7
  6
CONTINUOUS
 90
13
 70
0
 10
-5.0175575057
 20
-22.3456093298
 10
-5.0178302928
 20
-22.362627583
 10
-5.0240604107
 20
-22.4312660942
 10
-5.0384442423
 20
-22.499158955
 10
-5.0611005731
 20
-22.5662953024
 10
-5.0919106177
 20
-22.6326859992
 10
-5.1304276962
 20
-22.6973685223
 10
-5.1767640868
 20
-22.7603179865
 10
-5.2308075114
 20
-22.8215592769
 10
-5.2917744558
 20
-22.8802045257
 10
-5.3594037485
 20
-22.9359577769
 10
-5.433956561
 20
-22.9891149865
 10
-5.5154328933
 20
-23.0396761544
  0
LWPOLYLINE
  5
261
100
AcDbEntity
  8
ASSI
100
AcDbPolyline
 62
7
  6
CONTINUOUS
 90
4
 70
0
 10
-4.7675144213
 20
-28.0155134728
 10
-4.771689521
 20
-28.0891512196
 10
-4.7841969416
 20
-28.1624736384
 10
-4.7930064553
 20
-28.1969722067
  0
LWPOLYLINE
  5
262
100
AcDbEntity
  8
ASSI
100
AcDbPolyline
 62
7
  6
CONTINUOUS
 90
13
 70
0
 10
-4.7675144213
 20
-22.3456093458
 10
-4.7717309402
 20
-22.4191397405
 10
-4.7842738376
 20
-22.4926701353
 10
-4.8049831245
 20
-22.5652626242
 10
-4.8339634108
 20
-22.6369051929
 10
-4.8711100865
 20
-22.7076098558
 10
-4.9159493329
 20
-22.7764747503
 10
-4.9685796903
 20
-22.8434763093
 10
-5.0289026185
 20
-22.9086380998
 10
-5.0961486773
 20
-22.9711289605
 10
-5.1700613868
 20
-23.0306718377
 10
-5.250897227
 20
-23.0875437851
 10
-5.338656198
 20
-23.1417448028
  0
LWPOLYLINE
  5
263
100
AcDbEntity
  8
0
100
AcDbPolyline
 62
7
  6
CONTINUOUS
 90
46
 70
0
 10
-3.4134247719
 20
-2.1339930925
 10
-3.4585542936
 20
-1.9591589746
 10
-3.5063359047
 20
-1.7843973374
 10
-3.5566975468
 20
-1.6096993306
 10
-3.6094785383
 20
-1.434725631
 10
-3.6646941192
 20
-1.2597970181
 10
-3.7225433641
 20
-1.0858930621
 10
-3.783080876
 20
-0.9130980725
 10
-3.8461244313
 20
-0.7413038926
 10
-3.9115380554
 20
-0.5711996968
 10
-3.9790908111
 20
-0.4033155934
 10
-4.0489253083
 20
-0.2370962323
 10
-4.1214554964
 20
-0.0716001626
 10
-4.1959489937
 20
0.0923760372
 10
-4.2730184276
 20
0.255658979
 10
-4.3549642584
 20
0.4216395409
 10
-4.4411278425
 20
0.5904498744
 10
-4.5318093273
 20
0.7620166073
 10
-4.6304882272
 20
0.9394591818
 10
-4.7364402719
 20
1.1233636003
 10
-4.8496722157
 20
1.3132612643
 10
-4.9744372914
 20
1.5107560855
 10
-5.1111175171
 20
1.7179670597
 10
-5.2581036967
 20
1.9330068519
 10
-5.4165633387
 20
2.1515413012
 10
-5.5872488568
 20
2.3745557215
 10
-5.768247742
 20
2.6013897466
 10
-5.9571565928
 20
2.8252537363
 10
-6.1538666386
 20
3.0452075978
 10
-6.3580797291
 20
3.2625048789
 10
-6.5676994056
 20
3.4736060467
 10
-6.7827758723
 20
3.6779829751
 10
-7.0033699544
 20
3.8764577912
 10
-7.2277838159
 20
4.0674661771
 10
-7.4553798432
 20
4.2504070311
 10
-7.687253911
 20
4.4261446104
 10
-7.9244121374
 20
4.5953081937
 10
-8.1662297976
 20
4.7580670536
 10
-8.4137240401
 20
4.9145965439
 10
-8.6702420812
 20
5.0656366033
 10
-8.9359194038
 20
5.2121761431
 10
-9.2108401666
 20
5.3537993718
 10
-9.4982354785
 20
5.4893155319
 10
-9.799325155
 20
5.6186512982
 10
-10.1132701333
 20
5.7427613417
 10
-10.4402620558
 20
5.8621176422
  0
LWPOLYLINE
  5
264
100
AcDbEntity
  8
ASSI
100
AcDbPolyline
 62
7
  6
CONTINUOUS
 90
4
 70
0
 10
4.7930064553
 20
-35.9541894799
 10
4.7841969416
 20
-35.9196909116
 10
4.771689521
 20
-35.8463684929
 10
4.7675144213
 20
-35.772730746
  0
LWPOLYLINE
  5
265
100
AcDbEntity
  8
RACCORDO
100
AcDbPolyline
 62
250
  6
CONTINUOUS
 90
10
 70
0
 10
-3.5355339059
 20
-13.6944916288
 10
-3.524801721
 20
-13.7806585805
 10
-3.5104665751
 20
-13.8645081139
 10
-3.4925652691
 20
-13.9458249742
 10
-3.4711437589
 20
-14.0244004081
 10
-3.4462570369
 20
-14.1000327002
 10
-3.4179689919
 20
-14.1725276905
 10
-3.3863522438
 20
-14.241699273
 10
-3.3514879584
 20
-14.3073698735
 10
-3.3134656379
 20
-14.3693709054
  0
LINE
  5
266
100
AcDbEntity
  8
0
100
AcDbLine
 62
250
  6
CONTINUOUS
 10
-3.4134246393
 20
29.4764097783
 11
-3.4085503158
 21
29.3787947077
  0
LWPOLYLINE
  5
267
100
AcDbEntity
  8
RACCORDO
100
AcDbPolyline
 62
250
  6
CONTINUOUS
 90
16
 70
0
 10
-3.5355339059
 20
-9.8321973995
 10
-3.5264111855
 20
-9.8028988893
 10
-3.5148466314
 20
-9.7723608634
 10
-3.5009222304
 20
-9.7407998207
 10
-3.4847366991
 20
-9.7084395123
 10
-3.4664047846
 20
-9.6755093561
 10
-3.4460564507
 20
-9.6422428095
 10
-3.4238359563
 20
-9.6088757151
 10
-3.3999008333
 20
-9.5756446282
 10
-3.3744207691
 20
-9.5427851397
 10
-3.3475764041
 20
-9.5105302063
 10
-3.3195580509
 20
-9.4791084986
 10
-3.2905643449
 20
-9.44874278
 10
-3.2608008364
 20
-9.4196483276
 10
-3.230478533
 20
-9.3920314059
 10
-3.1998124041
 20
-9.3660878044
  0
LWPOLYLINE
  5
268
100
AcDbEntity
  8
RACCORDO
100
AcDbPolyline
 62
250
  6
CONTINUOUS
 90
91
 70
0
 10
14.28355698
 20
8.2300307086
 10
14.7739954132
 20
8.5233196146
 10
15.2454218787
 20
8.8256113588
 10
15.6978363765
 20
9.1369059412
 10
16.1317784665
 20
9.4576239045
 10
16.5467085888
 20
9.7873447059
 10
16.9410080641
 20
10.1248067176
 10
17.3145686099
 20
10.4700203718
 10
17.6674985085
 20
10.8229752362
 10
17.9985039282
 20
11.1823783855
 10
18.3075023645
 20
11.5482512981
 10
18.5945763218
 20
11.9205724956
 10
18.8586794812
 20
12.2979846174
 10
19.0997290596
 20
12.6805089656
 10
19.3178078401
 20
13.0681242382
 10
19.5121178538
 20
13.4594091684
 10
19.682570763
 20
13.8543786068
 10
19.8292549055
 20
14.2530177028
 10
19.9516373252
 20
14.6538606381
 10
20.0496269179
 20
15.056912255
 10
20.1233147879
 20
15.4621677111
 10
20.1724412927
 20
15.8681466616
 10
20.1969169337
 20
16.2748494907
 10
20.1968312097
 20
16.6822758141
 10
20.1721929744
 20
17.0889441344
 10
20.1229138728
 20
17.4948511298
 10
20.04908226
 20
17.9000001221
 10
19.9509720555
 20
18.3029195795
 10
19.828496107
 20
18.7036012093
 10
19.6817415667
 20
19.1020533044
 10
19.5112438109
 20
19.4968292113
 10
19.3169168534
 20
19.8879165538
 10
19.0988466803
 20
20.2753277082
 10
18.8578266264
 20
20.6576531505
 10
18.5937723085
 20
21.0348756837
 10
18.3067681099
 20
21.4070125046
 10
17.9978605147
 20
21.7727056804
 10
17.6669691777
 20
22.1319317715
 10
17.3141744441
 20
22.4847142173
 10
16.9407638345
 20
22.8297654031
 10
16.5466623996
 20
23.167056655
 10
16.1319450887
 20
23.4966166469
 10
15.6981242702
 20
23.8172437864
 10
15.2451303683
 20
24.128905391
 10
14.7730329587
 20
24.4316341431
 10
14.2835531374
 20
24.7243264978
 10
13.7766275137
 20
25.0069458509
 10
13.2523194782
 20
25.2795288064
 10
12.712540298
 20
25.5410816314
 10
12.1572333761
 20
25.7915641524
 10
11.5864553095
 20
26.0310165427
 10
11.0022871554
 20
26.2585655894
 10
10.4046792335
 20
26.4741680244
 10
9.7936812243
 20
26.6778671157
 10
9.1715232259
 20
26.8689194539
 10
8.5381646356
 20
27.0472786468
 10
7.8936460562
 20
27.2129910866
 10
7.2403193943
 20
27.3654525402
 10
6.5781548785
 20
27.5046142805
 10
5.9071822802
 20
27.6305250345
 10
5.2298428201
 20
27.7427267502
 10
4.5461150344
 20
27.8411697803
 10
3.8560203869
 20
27.925903772
 10
3.1620644895
 20
27.9966196144
 10
2.4642330131
 20
28.0532669801
 10
1.7625402869
 20
28.0958961965
 10
1.0595349102
 20
28.1243491347
 10
0.3552111652
 20
28.1385747828
 10
-0.3504252302
 20
28.1386241526
 10
-1.0548085233
 20
28.1244921513
 10
-1.7579380288
 20
28.0961271146
 10
-2.459814432
 20
28.0535807067
 10
-3.1578740356
 20
27.9970028272
 10
-3.8521084501
 20
27.9263408881
 10
-4.5425260651
 20
27.8416474773
 10
-5.2265883519
 20
27.7432302579
 10
-5.9042697269
 20
27.6310382024
 10
-6.5755957737
 20
27.5051223383
 10
-7.2381047156
 20
27.3659434117
 10
-7.8917596113
 20
27.2134536213
 10
-8.536597402
 20
27.0477007683
 10
-9.1702671345
 20
26.8692890025
 10
-9.7927315008
 20
26.6781707284
 10
-10.4040278089
 20
26.4743935415
 10
-11.0019170301
 20
26.2587043785
 10
-11.586381284
 20
26.0310406443
 10
-12.1574384509
 20
25.791464934
 10
-12.7129031427
 20
25.5409119701
 10
-13.2520468968
 20
25.2796933267
 10
-13.7755981759
 20
25.0074974297
 10
-14.28355698
 20
24.7243242791
  0
LWPOLYLINE
  5
269
100
AcDbEntity
  8
0
100
AcDbPolyline
 62
7
  6
CONTINUOUS
 90
46
 70
0
 10
10.4402632033
 20
5.8621180316
 10
10.1164223843
 20
5.7440185265
 10
9.8053482766
 20
5.6212052703
 10
9.5068508242
 20
5.493220465
 10
9.2217300694
 20
5.3591341077
 10
8.9488079855
 20
5.2190208834
 10
8.6849756605
 20
5.0740454931
 10
8.430126611
 20
4.9245721816
 10
8.1841454167
 20
4.7696770052
 10
7.9438820355
 20
4.6087597811
 10
7.7084225764
 20
4.4416862459
 10
7.4783143229
 20
4.2682469271
 10
7.2524885203
 20
4.0878269788
 10
7.0299931167
 20
3.8997505011
 10
6.8113514702
 20
3.7044324126
 10
6.5977696174
 20
3.5028991151
 10
6.3889078905
 20
3.2941926992
 10
6.1849216426
 20
3.0789987228
 10
5.9881010287
 20
2.8607626446
 10
5.7986197992
 20
2.6380424923
 10
5.6166412523
 20
2.4119771189
 10
5.445068953
 20
2.1898316581
 10
5.2860601826
 20
1.9725180529
 10
5.1386390115
 20
1.7587928861
 10
5.0014570427
 20
1.5526964566
 10
4.8760823935
 20
1.3561149428
 10
4.7621567511
 20
1.1669304102
 10
4.6553209407
 20
0.983251184
 10
4.5554847311
 20
0.805434371
 10
4.4634254299
 20
0.6330067886
 10
4.3757570448
 20
0.4628981651
 10
4.2921619583
 20
0.295144623
 10
4.2132994879
 20
0.1296511521
 10
4.1369965579
 20
-0.0368131031
 10
4.0626341085
 20
-0.2051153225
 10
3.9909442733
 20
-0.3744193497
 10
3.921660708
 20
-0.5453873401
 10
3.854704555
 20
-0.7185018558
 10
3.7902535757
 20
-0.8933077706
 10
3.7284236533
 20
-1.0690586658
 10
3.669422102
 20
-1.2458311021
 10
3.6131803658
 20
-1.4235739751
 10
3.5594191478
 20
-1.6013471715
 10
3.508097593
 20
-1.7788431743
 10
3.4594077512
 20
-1.9563887364
 10
3.4134247811
 20
-2.1339930715
  0
LWPOLYLINE
  5
26A
100
AcDbEntity
  8
0
100
AcDbPolyline
 62
7
  6
CONTINUOUS
 90
9
 70
0
 10
9.938597215
 20
5.7056234713
 10
10.5582805357
 20
5.9121978866
 10
11.1651002178
 20
6.1311334109
 10
11.7583169452
 20
6.3621633051
 10
12.3372079746
 20
6.6050060947
 10
12.9010680165
 20
6.8593659133
 10
13.4492100943
 20
7.1249328626
 10
13.9809663813
 20
7.4013833902
 10
14.4956890143
 20
7.6883806836
  0
LWPOLYLINE
  5
26B
100
AcDbEntity
  8
0
100
AcDbPolyline
 62
7
  6
CONTINUOUS
 90
8
 70
0
 10
-14.4956890143
 20
7.6883806836
 10
-13.9809663813
 20
7.4013833902
 10
-13.4492100943
 20
7.1249328626
 10
-12.9010680165
 20
6.8593659133
 10
-12.3372079746
 20
6.6050060947
 10
-11.7583169452
 20
6.3621633051
 10
-11.1651002178
 20
6.1311334109
 10
-10.5582805357
 20
5.9121978866
  0
LWPOLYLINE
  5
26C
100
AcDbEntity
  8
0
100
AcDbPolyline
 62
7
  6
CONTINUOUS
 90
16
 70
0
 10
-14.5623909615
 20
7.7094395117
 10
-15.0384147989
 20
7.9905981317
 10
-15.4995454026
 20
8.2824793677
 10
-15.9450093431
 20
8.5848496316
 10
-16.3742614974
 20
8.8978886793
 10
-16.7862822532
 20
9.2208987697
 10
-17.179791248
 20
9.5522637718
 10
-17.5543848584
 20
9.8914745336
 10
-17.909419355
 20
10.2383475766
 10
-18.2436200905
 20
10.5916507408
 10
-18.5562300555
 20
10.9504423013
 10
-18.8474366502
 20
11.3147992213
 10
-19.1174479973
 20
11.6849918503
 10
-19.3660430187
 20
12.0608570165
 10
-19.5926920519
 20
12.4417421944
 10
-19.6918412391
 20
12.6229339686
  0
LINE
  5
26D
100
AcDbEntity
  8
0
100
AcDbLine
 62
7
  6
CONTINUOUS
 10
-14.9927508832
 20
7.9855750809
 11
-14.4956890143
 21
7.6883806836
  0
LINE
  5
26E
100
AcDbEntity
  8
RACCORDO
100
AcDbLine
 62
250
  6
CONTINUOUS
 10
1.7497474683
 20
-19.3996151999
 11
1.7497474683
 21
-23.3976423092
  0
LWPOLYLINE
  5
26F
100
AcDbEntity
  8
0
100
AcDbPolyline
 62
250
  6
CONTINUOUS
 90
7
 70
0
 10
3.4134246393
 20
29.4764097783
 10
3.412185642
 20
29.4605768127
 10
3.411117599
 20
29.4445693673
 10
3.4102202292
 20
29.4283874208
 10
3.4094933161
 20
29.412030975
 10
3.4089367075
 20
29.3955000547
 10
3.4085503158
 20
29.3787947077
  0
LWPOLYLINE
  5
270
100
AcDbEntity
  8
RACCORDO
100
AcDbPolyline
 62
250
  6
CONTINUOUS
 90
23
 70
0
 10
14.4956890143
 20
7.8626072476
 10
14.9927505094
 20
8.1598014135
 10
15.4715456876
 20
8.466830591
 10
15.9314912102
 20
8.7833207137
 10
16.3720267083
 20
9.1088861918
 10
16.7926154515
 20
9.443130372
 10
17.1927450037
 20
9.7856460193
 10
17.5719278267
 20
10.13601579
 10
17.9297019937
 20
10.4938128527
 10
18.265631717
 20
10.8586014051
 10
18.5793078154
 20
11.2299371613
 10
18.8703479665
 20
11.6073675708
 10
19.1383973426
 20
11.9904324696
 10
19.3831293154
 20
12.3786649946
 10
19.6042458616
 20
12.7715922822
 10
19.8014776774
 20
13.1687357211
 10
19.9745844576
 20
13.5696113835
 10
20.1233553525
 20
13.9737309308
 10
20.2476092162
 20
14.3806023327
 10
20.3471946429
 20
14.7897299725
 10
20.4219902329
 20
15.2006153091
 10
20.4719048242
 20
15.612757812
 10
20.4968775537
 20
16.0256554804
  0
LWPOLYLINE
  5
271
100
AcDbEntity
  8
0
100
AcDbPolyline
 62
7
  6
CONTINUOUS
 90
14
 70
0
 10
14.4956890143
 20
7.6883806836
 10
14.9927508832
 20
7.9855750809
 10
15.4715463946
 20
8.2926044965
 10
15.9314922099
 20
8.6090948624
 10
16.372027956
 20
8.9346605838
 10
16.7926169079
 20
9.268905009
 10
17.1927466429
 20
9.6114209126
 10
17.5719296644
 20
9.9617909919
 10
17.9297039964
 20
10.3195883747
 10
18.2656337459
 20
10.6843771402
 10
18.5793096343
 20
11.0557128494
 10
18.8703494958
 20
11.4331430869
 10
19.1383987432
 20
11.8162080122
 10
19.3831307998
 20
12.2044409197
  0
LWPOLYLINE
  5
272
100
AcDbEntity
  8
0
100
AcDbPolyline
 62
250
  6
CONTINUOUS
 90
36
 70
0
 10
-9.7307318162
 20
5.5891864154
 10
-9.2814453586
 20
5.4531762071
 10
-8.749297526
 20
5.3032020733
 10
-8.2098879604
 20
5.1621407071
 10
-7.6636643851
 20
5.0301092173
 10
-7.1110799407
 20
4.9072171628
 10
-6.552592824
 20
4.7935664871
 10
-5.9886669105
 20
4.6892516301
 10
-5.4197712286
 20
4.5943593557
 10
-4.8463783305
 20
4.5089684514
 10
-4.268963716
 20
4.4331496954
 10
-3.6880064522
 20
4.3669659729
 10
-3.1039887126
 20
4.3104721981
 10
-2.517395182
 20
4.2637152402
 10
-1.9287124948
 20
4.2267338782
 10
-1.3384291719
 20
4.1995587971
 10
-0.7470351521
 20
4.1822125483
 10
-0.1550211858
 20
4.1747095225
 10
0.4371214137
 20
4.1770559449
 10
1.0289011943
 20
4.1892498666
 10
1.619827038
 20
4.2112811661
 10
2.2094085082
 20
4.2431315573
 10
2.7971563054
 20
4.2847746059
 10
3.3825826888
 20
4.3361757546
 10
3.9652018163
 20
4.3972923477
 10
4.544530135
 20
4.4680736623
 10
5.1200868302
 20
4.5484609544
 10
5.6913942328
 20
4.6383875091
 10
6.2579781962
 20
4.7377786941
 10
6.8193684778
 20
4.8465520188
 10
7.3750991568
 20
4.9646172071
 10
7.9247090239
 20
5.0918762743
 10
8.4677419459
 20
5.228223605
 10
9.0037472441
 20
5.3735460405
 10
9.5322800728
 20
5.5277229735
 10
9.7359658578
 20
5.5914566232
  0
LWPOLYLINE
  5
273
100
AcDbEntity
  8
0
100
AcDbPolyline
 62
7
  6
CONTINUOUS
 90
31
 70
0
 10
-10.5582805357
 20
5.9121978866
 10
-9.938597215
 20
5.7056234713
 10
-9.3068052447
 20
5.5116618441
 10
-8.6636743657
 20
5.3305493174
 10
-8.009988134
 20
5.162506549
 10
-7.3465429657
 20
5.007738273
 10
-6.6741471664
 20
4.8664330507
 10
-5.9936199468
 20
4.7387630408
 10
-5.3057904246
 20
4.6248837896
 10
-4.611496614
 20
4.5249340413
 10
-3.9115844052
 20
4.4390355694
 10
-3.2069065333
 20
4.3672930278
 10
-2.4983215398
 20
4.3097938239
 10
-1.7866927263
 20
4.2666080116
 10
-1.072887103
 20
4.237788206
 10
-0.357774332
 20
4.2233695198
 10
0.357774332
 20
4.2233695198
 10
1.072887103
 20
4.237788206
 10
1.7866927263
 20
4.2666080116
 10
2.4983215398
 20
4.3097938239
 10
3.2069065333
 20
4.3672930278
 10
3.9115844052
 20
4.4390355694
 10
4.611496614
 20
4.5249340413
 10
5.3057904246
 20
4.6248837896
 10
5.9936199468
 20
4.7387630408
 10
6.6741471664
 20
4.8664330507
 10
7.3465429657
 20
5.007738273
 10
8.009988134
 20
5.162506549
 10
8.6636743657
 20
5.3305493174
 10
9.3068052447
 20
5.5116618441
 10
9.938597215
 20
5.7056234713
  0
LWPOLYLINE
  5
274
100
AcDbEntity
  8
0
100
AcDbPolyline
 62
7
  6
CONTINUOUS
 90
10
 70
0
 10
-10.4402620558
 20
5.8621176422
 10
-10.9417264505
 20
6.0379765723
 10
-11.4331580739
 20
6.2215339759
 10
-11.9142274673
 20
6.4125842597
 10
-12.3846683873
 20
6.6108003133
 10
-12.8441337245
 20
6.816087913
 10
-13.2921606069
 20
7.0285774893
 10
-13.728379937
 20
7.2481551776
 10
-14.1525514825
 20
7.4744715979
 10
-14.564395327
 20
7.7072903445
  0
LWPOLYLINE
  5
275
100
AcDbEntity
  8
RACCORDO
100
AcDbPolyline
 62
250
  6
CONTINUOUS
 90
16
 70
0
 10
3.535533906
 20
-9.8321973995
 10
3.5264111656
 20
-9.802898841
 10
3.5148465863
 20
-9.7723607686
 10
3.5009221564
 20
-9.7407996827
 10
3.484736594
 20
-9.7084393352
 10
3.4664046481
 20
-9.6755091457
 10
3.4460562857
 20
-9.6422425751
 10
3.4238357678
 20
-9.6088754667
 10
3.3999006278
 20
-9.5756443759
 10
3.374420556
 20
-9.5427848953
 10
3.3475761944
 20
-9.5105299813
 10
3.3195578562
 20
-9.4791083031
 10
3.2905641786
 20
-9.4487426239
 10
3.2608007124
 20
-9.419648219
 10
3.2304784647
 20
-9.3920313502
 10
3.1998124041
 20
-9.3660878044
  0
LINE
  5
276
100
AcDbEntity
  8
RACCORDO
100
AcDbLine
 62
250
  6
CONTINUOUS
 10
3.5355339059
 20
-18.6199065313
 11
3.5355339059
 21
-14.236243153
  0
LINE
  5
277
100
AcDbEntity
  8
RACCORDO
100
AcDbLine
 62
250
  6
CONTINUOUS
 10
3.5355339059
 20
-13.6944916288
 11
3.5355339059
 21
-9.8321973995
  0
LINE
  5
278
100
AcDbEntity
  8
ASSI
100
AcDbLine
 62
7
  6
CONTINUOUS
 10
4.7675144213
 20
-24.6483483306
 11
4.7675144213
 21
-24.7141227922
  0
LINE
  5
279
100
AcDbEntity
  8
ASSI
100
AcDbLine
 62
7
  6
CONTINUOUS
 10
4.7675144213
 20
-30.102826619
 11
4.7675144213
 21
-35.772730746
  0
LINE
  5
27A
100
AcDbEntity
  8
ASSI
100
AcDbLine
 62
7
  6
CONTINUOUS
 10
5.0175144213
 20
-25.2648498337
 11
5.0175144213
 21
-30.102826619
  0
LINE
  5
27B
100
AcDbEntity
  8
RACCORDO
100
AcDbLine
 62
250
  6
CONTINUOUS
 10
5.2852813742
 20
-17.68173416
 11
5.2852813742
 21
-24.6658192108
  0
LWPOLYLINE
  5
27C
100
AcDbEntity
  8
RACCORDO
100
AcDbPolyline
 62
250
  6
CONTINUOUS
 90
10
 70
0
 10
3.6643218454
 20
-13.6297624834
 10
3.662707442
 20
-13.7068330996
 10
3.6578679176
 20
-13.7818634825
 10
3.6498143215
 20
-13.8546823292
 10
3.6385650408
 20
-13.9251233864
 10
3.624145759
 20
-13.9930258292
 10
3.6065893969
 20
-14.0582346287
 10
3.5859360375
 20
-14.1206009062
 10
3.5622328348
 20
-14.1799822723
 10
3.5355339059
 20
-14.236243153
  0
LWPOLYLINE
  5
27D
100
AcDbEntity
  8
ASSI
100
AcDbPolyline
 62
7
  6
CONTINUOUS
 90
9
 70
0
 10
4.7675144213
 20
-30.102826619
 10
4.7717309402
 20
-30.0292962243
 10
4.7842738376
 20
-29.9557658295
 10
4.8049831245
 20
-29.8831733406
 10
4.8339634108
 20
-29.8115307719
 10
4.8711100865
 20
-29.740826109
 10
4.9159493329
 20
-29.6719612145
 10
4.9685796903
 20
-29.6049596555
 10
5.0175144213
 20
-29.5520995775
  0
LWPOLYLINE
  5
27E
100
AcDbEntity
  8
RACCORDO
100
AcDbPolyline
 62
250
  6
CONTINUOUS
 90
10
 70
0
 10
3.5355339059
 20
-13.6944916288
 10
3.5248017233
 20
-13.7806585733
 10
3.5104665799
 20
-13.8645081016
 10
3.4925652762
 20
-13.9458249588
 10
3.4711437674
 20
-14.0244003918
 10
3.4462570459
 20
-14.1000326848
 10
3.4179690004
 20
-14.1725276774
 10
3.3863522511
 20
-14.2416992632
 10
3.3514879628
 20
-14.3073698681
 10
3.3134656379
 20
-14.3693709054
  0
LWPOLYLINE
  5
27F
100
AcDbEntity
  8
0
100
AcDbPolyline
 62
7
  6
CONTINUOUS
 90
52
 70
0
 10
3.4134247811
 20
-2.1339930715
 10
3.3601225391
 20
-2.3192945926
 10
3.2968962693
 20
-2.4984211309
 10
3.2236438056
 20
-2.6713335326
 10
3.1394776227
 20
-2.8384180321
 10
3.0451028013
 20
-2.9991898075
 10
2.9428863652
 20
-3.1523082032
 10
2.8329714875
 20
-3.2973934007
 10
2.7152433073
 20
-3.4347307208
 10
2.5917945867
 20
-3.5640010733
 10
2.4630591781
 20
-3.6849199378
 10
2.3287542326
 20
-3.7976962375
 10
2.1899468614
 20
-3.9027719154
 10
2.0469730707
 20
-4.0000985836
 10
1.8996864498
 20
-4.0896608146
 10
1.7484347904
 20
-4.1719596436
 10
1.5931117762
 20
-4.2471861978
 10
1.4340214294
 20
-4.3150864998
 10
1.2721351025
 20
-4.3755040252
 10
1.1077100209
 20
-4.4283664406
 10
0.9407304774
 20
-4.4737025542
 10
0.771773
 20
-4.5115205619
 10
0.6006542599
 20
-4.5418422771
 10
0.4278155625
 20
-4.5646116367
 10
0.2547801044
 20
-4.5797392151
 10
0.0822344196
 20
-4.5871996319
 10
-0.0902327681
 20
-4.5870221298
 10
-0.2627405859
 20
-4.5792118215
 10
-0.4356846057
 20
-4.5637461753
 10
-0.6083944283
 20
-4.5406446742
 10
-0.7793946311
 20
-4.5099875716
 10
-0.9482802396
 20
-4.4718202617
 10
-1.1151979849
 20
-4.4261311053
 10
-1.2795101565
 20
-4.3729341125
 10
-1.4412051391
 20
-4.3122090737
 10
-1.6000547412
 20
-4.2440207865
 10
-1.7551116073
 20
-4.1685241176
 10
-1.906073334
 20
-4.0859756569
 10
-2.0530461058
 20
-3.9961819847
 10
-2.1957030226
 20
-3.8986326248
 10
-2.3342189338
 20
-3.7933153637
 10
-2.4682296991
 20
-3.6803059969
 10
-2.5966059486
 20
-3.5592360147
 10
-2.7196087083
 20
-3.429895499
 10
-2.8368312866
 20
-3.2925708161
 10
-2.946195366
 20
-3.1476590111
 10
-3.0477958268
 20
-2.9948975256
 10
-3.1415172465
 20
-2.8346435768
 10
-3.2250780127
 20
-2.6682469246
 10
-3.2978017316
 20
-2.4961947969
 10
-3.3605496399
 20
-2.3180973014
 10
-3.4134247719
 20
-2.1339930925
  0
LWPOLYLINE
  5
280
100
AcDbEntity
  8
ASSI
100
AcDbPolyline
 62
7
  6
CONTINUOUS
 90
11
 70
0
 10
-4.7930064553
 20
-28.1969722067
 10
-4.8049831245
 20
-28.2351667512
 10
-4.83395906
 20
-28.3069192749
 10
-4.8710006688
 20
-28.3774239542
 10
-4.9159493329
 20
-28.4463788773
 10
-4.9686125753
 20
-28.5134887685
 10
-5.0287648839
 20
-28.5784662531
 10
-5.0961486773
 20
-28.6410330875
 10
-5.1704754077
 20
-28.7009213508
 10
-5.2514267967
 20
-28.7578745924
 10
-5.338656198
 20
-28.8116489297
  0
LWPOLYLINE
  5
281
100
AcDbEntity
  8
ASSI
100
AcDbPolyline
 62
7
  6
CONTINUOUS
 90
9
 70
0
 10
8.6675144213
 20
-30.102826619
 10
8.6632979024
 20
-30.0292962243
 10
8.6507550049
 20
-29.9557658295
 10
8.6300457181
 20
-29.8831733406
 10
8.6010654318
 20
-29.8115307719
 10
8.5639187561
 20
-29.740826109
 10
8.5190795097
 20
-29.6719612145
 10
8.4664491522
 20
-29.6049596555
 10
8.4175144213
 20
-29.5520995775
  0
LINE
  5
282
100
AcDbEntity
  8
ASSI
100
AcDbLine
 62
7
  6
CONTINUOUS
 10
8.4175144213
 20
-25.2648498337
 11
8.4175144213
 21
-30.102826619
  0
LINE
  5
283
100
AcDbEntity
  8
ASSI
100
AcDbLine
 62
7
  6
CONTINUOUS
 10
8.6675144213
 20
-24.6658192108
 11
8.6675144213
 21
-24.7141227922
  0
LINE
  5
284
100
AcDbEntity
  8
ASSI
100
AcDbLine
 62
7
  6
CONTINUOUS
 10
8.6675144213
 20
-30.102826619
 11
8.6675144213
 21
-35.772730746
  0
LWPOLYLINE
  5
285
100
AcDbEntity
  8
ASSI
100
AcDbPolyline
 62
7
  6
CONTINUOUS
 90
9
 70
0
 10
-8.4175144213
 20
-21.7948823043
 10
-8.4664491522
 20
-21.8477423823
 10
-8.5190795097
 20
-21.9147439413
 10
-8.5639187561
 20
-21.9836088358
 10
-8.6010654318
 20
-22.0543134987
 10
-8.6300457181
 20
-22.1259560674
 10
-8.6507550049
 20
-22.1985485563
 10
-8.6632979024
 20
-22.2720789511
 10
-8.6675144213
 20
-22.3456093458
  0
LINE
  5
286
100
AcDbEntity
  8
RACCORDO
100
AcDbLine
 62
250
  6
CONTINUOUS
 10
4.0814123934
 20
-9.3453068368
 11
3.5355339059
 21
-9.8321973995
  0
LWPOLYLINE
  5
287
100
AcDbEntity
  8
RACCORDO
100
AcDbPolyline
 62
250
  6
CONTINUOUS
 90
5
 70
0
 10
4.8138051139
 20
-7.9466905829
 10
4.0701092859
 20
-8.5968401322
 10
3.7464925538
 20
-8.8782524291
 10
3.455839728
 20
-9.1344953373
 10
3.1998124041
 20
-9.3660878044
  0
LINE
  5
288
100
AcDbEntity
  8
RACCORDO
100
AcDbLine
 62
250
  6
CONTINUOUS
 10
5.2192033663
 20
-7.5957981544
 11
4.8138051139
 21
-7.9466905829
  0
LWPOLYLINE
  5
289
100
AcDbEntity
  8
RACCORDO
100
AcDbPolyline
 62
250
  6
CONTINUOUS
 90
3
 70
0
 10
6.5287151449
 20
-6.4769991341
 10
6.0836508037
 20
-6.8549284604
 10
5.2192033663
 20
-7.5957981544
  0
LWPOLYLINE
  5
28A
100
AcDbEntity
  8
RACCORDO
100
AcDbPolyline
 62
250
  6
CONTINUOUS
 90
34
 70
0
 10
3.1998124041
 20
-9.3660878044
 10
3.0429187549
 20
-9.4985673811
 10
2.8808766563
 20
-9.62325162
 10
2.7137709759
 20
-9.7401045897
 10
2.5420818547
 20
-9.8488493892
 10
2.3655183977
 20
-9.9496921952
 10
2.182993373
 20
-10.0433111684
 10
1.9934747599
 20
-10.1302495878
 10
1.7981535108
 20
-10.2098609405
 10
1.599297497
 20
-10.2810475891
 10
1.397398258
 20
-10.3434992882
 10
1.1922392108
 20
-10.3974710101
 10
0.9850744359
 20
-10.4427446251
 10
0.7762422454
 20
-10.4792502531
 10
0.5657094234
 20
-10.507027308
 10
0.354186187
 20
-10.5260392998
 10
0.1418667503
 20
-10.5363068136
 10
-0.0711274775
 20
-10.5377946133
 10
-0.2841902287
 20
-10.5303940419
 10
-0.4974184475
 20
-10.5140708886
 10
-0.7103909843
 20
-10.4888579914
 10
-0.9217248184
 20
-10.4547657209
 10
-1.1311095442
 20
-10.4118004975
 10
-1.3385426149
 20
-10.3599880427
 10
-1.5431124636
 20
-10.2993889195
 10
-1.7446899775
 20
-10.2300304358
 10
-1.9431145977
 20
-10.1519360091
 10
-2.1374426711
 20
-10.0651764964
 10
-2.3276208445
 20
-9.9697551624
 10
-2.5134472061
 20
-9.8657369899
 10
-2.6937800244
 20
-9.7533025948
 10
-2.8681776668
 20
-9.6325450037
 10
-3.0368853471
 20
-9.503459335
 10
-3.1998124041
 20
-9.3660878044
  0
LWPOLYLINE
  5
28B
100
AcDbEntity
  8
RACCORDO
100
AcDbPolyline
 62
250
  6
CONTINUOUS
 90
4
 70
0
 10
8.3144919006
 20
-4.9932524035
 10
7.8788926973
 20
-5.3502619528
 10
7.4339309659
 20
-5.7195270378
 10
6.5287151449
 20
-6.4769991341
  0
LWPOLYLINE
  5
28C
100
AcDbEntity
  8
RACCORDO
100
AcDbPolyline
 62
250
  6
CONTINUOUS
 90
3
 70
0
 10
9.5401373688
 20
-4.0041559521
 10
9.1516482752
 20
-4.3153361191
 10
8.3144919006
 20
-4.9932524035
  0
LWPOLYLINE
  5
28D
100
AcDbEntity
  8
RACCORDO
100
AcDbPolyline
 62
250
  6
CONTINUOUS
 90
4
 70
0
 10
10.9724657516
 20
-2.8848193821
 10
10.6290388608
 20
-3.1494577204
 10
10.27661622
 20
-3.4243666866
 10
9.5401373688
 20
-4.0041559521
  0
LWPOLYLINE
  5
28E
100
AcDbEntity
  8
RACCORDO
100
AcDbPolyline
 62
250
  6
CONTINUOUS
 90
23
 70
0
 10
18.5352505185
 20
2.2947565654
 10
18.1964279204
 20
2.092523089
 10
17.865504604
 20
1.8919091193
 10
17.5410783361
 20
1.6919520101
 10
17.2183737604
 20
1.4905374321
 10
16.8958836743
 20
1.2869428316
 10
16.5749317835
 20
1.0816202147
 10
16.2547684179
 20
0.8743727696
 10
15.9355619327
 20
0.6653908881
 10
15.6169549011
 20
0.4542467837
 10
15.2973018446
 20
0.2398760651
 10
14.9760854711
 20
0.0221627509
 10
14.6534181828
 20
-0.1989063584
 10
14.3284482393
 20
-0.424185147
 10
14.0002516737
 20
-0.6541379364
 10
13.669185545
 20
-0.8883666958
 10
13.336309835
 20
-1.126440255
 10
13.0011246889
 20
-1.3687698947
 10
12.6636643479
 20
-1.6150442326
 10
12.3259819838
 20
-1.8638192316
 10
11.9893874217
 20
-2.1141725847
 10
11.6524560248
 20
-2.3672202382
 10
10.9724657516
 20
-2.8848193821
  0
LINE
  5
28F
100
AcDbEntity
  8
RACCORDO
100
AcDbLine
 62
250
  6
CONTINUOUS
 10
19.2311545957
 20
2.7033895289
 11
18.5352505185
 21
2.2947565654
  0
LWPOLYLINE
  5
290
100
AcDbEntity
  8
RACCORDO
100
AcDbPolyline
 62
250
  6
CONTINUOUS
 90
39
 70
0
 10
19.4454364826
 20
2.2044385544
 10
19.096804329
 20
2.0012836781
 10
18.7544562202
 20
1.7990626943
 10
18.4183921562
 20
1.597775603
 10
18.0901674572
 20
1.3982703579
 10
17.7682268029
 20
1.1996990052
 10
17.4479042331
 20
0.9995176842
 10
17.1279523917
 20
0.797031426
 10
16.8096186348
 20
0.5929351994
 10
16.4919790696
 20
0.3867700498
 10
16.1753719187
 20
0.1787973048
 10
15.8594589595
 20
-0.0312443633
 10
15.5423016323
 20
-0.2445978926
 10
15.2236930516
 20
-0.4613586264
 10
14.9038401028
 20
-0.6814312213
 10
14.5814248824
 20
-0.9057725861
 10
14.2558232964
 20
-1.1348143108
 10
13.9276594388
 20
-1.3681248053
 10
13.597487688
 20
-1.6053662074
 10
13.264919193
 20
-1.8468594181
 10
12.9303428048
 20
-2.0922835363
 10
12.5954794538
 20
-2.3403379968
 10
12.2616830824
 20
-2.5900114976
 10
11.9275997483
 20
-2.8423153407
 10
11.5908885557
 20
-3.0989828667
 10
11.2531511601
 20
-3.3586635084
 10
10.912785906
 20
-3.6227078329
 10
10.5626469309
 20
-3.8969008825
 10
10.2025382714
 20
-4.1812170629
 10
9.8326558909
 20
-4.4756819684
 10
9.4464418173
 20
-4.7861574238
 10
9.0391290866
 20
-5.1165233891
 10
8.6154846629
 20
-5.4628999042
 10
8.1832514656
 20
-5.8195089142
 10
7.7406702358
 20
-6.1881158076
 10
7.2895002325
 20
-6.5669551959
 10
6.842762152
 20
-6.9449528576
 10
6.4003877068
 20
-7.3224855574
 10
5.5421601451
 20
-8.0628212629
  0
LINE
  5
291
100
AcDbEntity
  8
RACCORDO
100
AcDbLine
 62
250
  6
CONTINUOUS
 10
11.313708499
 20
-24.6658192108
 11
11.313708499
 21
-14.2009958921
  0
LWPOLYLINE
  5
292
100
AcDbEntity
  8
0
100
AcDbPolyline
 62
250
  6
CONTINUOUS
 90
12
 70
0
 10
19.5706303856
 20
12.4138987042
 10
19.7435396712
 20
12.7409018081
 10
19.9000632305
 20
13.0706450341
 10
20.0400711589
 20
13.4028547157
 10
20.1634472544
 20
13.7372551265
 10
20.2700891222
 20
14.0735687238
 10
20.3599082654
 20
14.4115164049
 10
20.4328301482
 20
14.7508177234
 10
20.4887942502
 20
15.0911910895
 10
20.5277541226
 20
15.432354012
 10
20.5496774306
 20
15.7740233578
 10
20.5545459771
 20
16.1159155599
  0
LWPOLYLINE
  5
293
100
AcDbEntity
  8
0
100
AcDbPolyline
 62
7
  6
CONTINUOUS
 90
12
 70
0
 10
19.595568023
 20
12.4502068927
 10
19.7318184674
 20
12.7053858701
 10
19.8971511503
 20
13.0507624651
 10
20.0443450696
 20
13.3988363257
 10
20.173263163
 20
13.749269071
 10
20.2838014332
 20
14.1017614897
 10
20.3758677727
 20
14.4560108025
 10
20.4493780301
 20
14.8116855821
 10
20.5042690931
 20
15.1684706129
 10
20.5404957852
 20
15.5260862023
 10
20.5580202312
 20
15.8842449808
 10
20.5568158031
 20
16.2425828092
  0
LWPOLYLINE
  5
294
100
AcDbEntity
  8
0
100
AcDbPolyline
 62
7
  6
CONTINUOUS
 90
11
 70
0
 10
19.3831307998
 20
12.2044409197
 10
19.6042474972
 20
12.5973688072
 10
19.8014794389
 20
12.9945129528
 10
19.9745863281
 20
13.3953894975
 10
20.1233572607
 20
13.7995100349
 10
20.2476109822
 20
14.2063822064
 10
20.3471961086
 20
14.615510301
 10
20.4219913109
 20
15.0263958591
 10
20.4719054625
 20
15.43853828
 10
20.4968777507
 20
15.8514354315
 10
20.5
 20
16.0580098468
  0
LWPOLYLINE
  5
295
100
AcDbEntity
  8
0
100
AcDbPolyline
 62
7
  6
CONTINUOUS
 90
23
 70
0
 10
19.5970137004
 20
12.4494349867
 10
19.4890939059
 20
12.2624191302
 10
19.2530234374
 20
11.8852311519
 10
18.9951824258
 20
11.5130176232
 10
18.7154183788
 20
11.1455990525
 10
18.4136835395
 20
10.7830796362
 10
18.0904975366
 20
10.426239004
 10
17.7465645939
 20
10.0759083751
 10
17.3822780832
 20
9.7324909914
 10
16.9980526618
 20
9.3963801651
 10
16.5947994128
 20
9.0683328643
 10
16.1733692754
 20
8.7489363542
 10
15.7340079675
 20
8.4382767378
 10
15.2767528544
 20
8.1363448636
 10
14.8020783527
 20
7.8434572804
 10
14.3105659103
 20
7.5599759227
 10
13.8023402236
 20
7.2859972186
 10
13.2775381749
 20
7.0216630765
 10
12.7370979615
 20
6.7675121942
 10
12.1823992804
 20
6.5242004921
 10
11.6143737476
 20
6.2920949713
 10
11.0334335542
 20
6.0713234698
 10
10.4402632033
 20
5.8621180316
  0
LWPOLYLINE
  5
296
100
AcDbEntity
  8
RACCORDO
100
AcDbPolyline
 62
250
  6
CONTINUOUS
 90
4
 70
0
 10
5.5421601451
 20
-8.0628212629
 10
5.1395771924
 20
-8.4135779592
 10
4.7546517226
 20
-8.7512884146
 10
4.0814123934
 20
-9.3453068368
  0
LWPOLYLINE
  5
297
100
AcDbEntity
  8
RACCORDO
100
AcDbPolyline
 62
250
  6
CONTINUOUS
 90
34
 70
0
 10
3.5355339059
 20
-9.8321973995
 10
3.3629720793
 20
-9.9740426423
 10
3.1838415366
 20
-10.1076654406
 10
2.9986749462
 20
-10.2329510723
 10
2.8087695382
 20
-10.3494182338
 10
2.613940483
 20
-10.4574124913
 10
2.4122866772
 20
-10.5578977456
 10
2.2028476655
 20
-10.6512096247
 10
1.9872381023
 20
-10.7364606347
 10
1.7673451651
 20
-10.8127209966
 10
1.5441253887
 20
-10.8797036343
 10
1.3176543453
 20
-10.9375353839
 10
1.088608274
 20
-10.9860597096
 10
0.8577074888
 20
-11.0251944149
 10
0.6252811111
 20
-11.0549609
 10
0.3914168753
 20
-11.0753576936
 10
0.1566679872
 20
-11.0863598375
 10
-0.0784837481
 20
-11.0879381663
 10
-0.3140634127
 20
-11.0800264137
 10
-0.549818363
 20
-11.0625577701
 10
-0.784937007
 20
-11.0355240024
 10
-1.0186022632
 20
-10.9989469367
 10
-1.2500958416
 20
-10.9528794287
 10
-1.4790704265
 20
-10.8973533887
 10
-1.705261122
 20
-10.832382027
 10
-1.928108966
 20
-10.7580229127
 10
-2.1470892725
 20
-10.6743403499
 10
-2.3619593781
 20
-10.5813331253
 10
-2.5721949467
 20
-10.479053976
 10
-2.7772004046
 20
-10.3676161602
 10
-2.9765913807
 20
-10.2470941824
 10
-3.1698517125
 20
-10.1175876929
 10
-3.3563536927
 20
-9.979238595
 10
-3.5355339059
 20
-9.8321973995
  0
LINE
  5
298
100
AcDbEntity
  8
RACCORDO
100
AcDbLine
 62
7
  6
CONTINUOUS
 10
13.113708499
 20
-13.1616984514
 11
13.113708499
 21
-23.2039092372
  0
LWPOLYLINE
  5
299
100
AcDbEntity
  8
RACCORDO
100
AcDbPolyline
 62
7
  6
CONTINUOUS
 90
25
 70
0
 10
13.113708499
 20
-23.2039092372
 10
13.1105310602
 20
-23.2935781358
 10
13.1008539888
 20
-23.3839741242
 10
13.0844966794
 20
-23.4745994402
 10
13.0613595094
 20
-23.5648437193
 10
13.0313624664
 20
-23.6542641415
 10
12.994369694
 20
-23.7426038322
 10
12.9504122681
 20
-23.8292365892
 10
12.8994970002
 20
-23.9137227145
 10
12.8413065059
 20
-23.9960939517
 10
12.7756232027
 20
-24.0760583965
 10
12.7026795443
 20
-24.1528147068
 10
12.6226935204
 20
-24.2257590403
 10
12.535287168
 20
-24.294839945
 10
12.4409446211
 20
-24.3592958436
 10
12.3412738389
 20
-24.4179386879
 10
12.2361905109
 20
-24.4708614651
 10
12.1260479817
 20
-24.51786458
 10
12.0134399055
 20
-24.558040074
 10
11.8990660932
 20
-24.591538029
 10
11.7826225423
 20
-24.6187380689
 10
11.6655470912
 20
-24.6395625745
 10
11.5485121976
 20
-24.6542026101
 10
11.43120599
 20
-24.6629217596
 10
11.313708499
 20
-24.6658192108
  0
LWPOLYLINE
  5
29A
100
AcDbEntity
  8
RACCORDO
100
AcDbPolyline
 62
250
  6
CONTINUOUS
 90
25
 70
0
 10
13.113708499
 20
-23.2039092372
 10
13.1098545615
 20
-23.2718825361
 10
13.0983092519
 20
-23.3395647641
 10
13.0791220085
 20
-23.4066660956
 10
13.0523749939
 20
-23.472899192
 10
13.0181827423
 20
-23.5379804335
 10
12.9766916693
 20
-23.6016311326
 10
12.9280794443
 20
-23.6635787286
 10
12.8725542325
 20
-23.7235579508
 10
12.8103538042
 20
-23.7813119558
 10
12.7417445134
 20
-23.8365934309
 10
12.6670201545
 20
-23.889165654
 10
12.5865007073
 20
-23.9388035039
 10
12.5005309681
 20
-23.9852944239
 10
12.4094790727
 20
-24.0284393327
 10
12.3137349177
 20
-24.0680534775
 10
12.213708492
 20
-24.1039672253
 10
12.1098281257
 20
-24.1360267865
 10
12.0025386552
 20
-24.1640948761
 10
11.8922995126
 20
-24.188051302
 10
11.7795827571
 20
-24.2077934799
 10
11.6648710585
 20
-24.2232368713
 10
11.5486556296
 20
-24.2343153454
 10
11.4314341229
 20
-24.2409814626
 10
11.313708499
 20
-24.2432066779
  0
LWPOLYLINE
  5
29B
100
AcDbEntity
  8
RACCORDO
100
AcDbPolyline
 62
250
  6
CONTINUOUS
 90
25
 70
0
 10
19.4454364826
 20
-4.5179446757
 10
20.071262
 20
-4.1445781222
 10
20.6755947073
 20
-3.7595886358
 10
21.2577874698
 20
-3.3633884727
 10
21.8172168557
 20
-2.9564018982
 10
22.3532838196
 20
-2.5390647199
 10
22.8654143426
 20
-2.1118238199
 10
23.353060047
 20
-1.6751366729
 10
23.8156987178
 20
-1.2294709175
 10
24.2528348882
 20
-0.7753038471
 10
24.6640004172
 20
-0.3131218601
 10
25.0487550874
 20
0.1565801851
 10
25.4066869924
 20
0.6332994426
 10
25.7374128903
 20
1.1165255135
 10
26.0405785576
 20
1.6057408711
 10
26.315859282
 20
2.1004215354
 10
26.5629602663
 20
2.6000377301
 10
26.7816169496
 20
3.1040545096
 10
26.9715952157
 20
3.611932215
 10
27.1326916359
 20
4.1231270218
 10
27.264733693
 20
4.6370915071
 10
27.3675799888
 20
5.1532752915
 10
27.4411203928
 20
5.6711256275
 10
27.4852761574
 20
6.190087993
 10
27.5
 20
6.7096066408
  0
LWPOLYLINE
  5
29C
100
AcDbEntity
  8
RACCORDO
100
AcDbPolyline
 62
250
  6
CONTINUOUS
 90
15
 70
0
 10
19.3166485432
 20
-5.1244253452
 10
19.9383278847
 20
-4.75353242
 10
20.5386572346
 20
-4.3710933405
 10
21.1169937055
 20
-3.9775176092
 10
21.6727180706
 20
-3.5732265707
 10
22.2052350807
 20
-3.1586532096
 10
22.7139741502
 20
-2.7342417081
 10
23.1983904541
 20
-2.300446585
 10
23.6579653225
 20
-1.8577323126
 10
24.0922065077
 20
-1.4065730911
 10
24.5006489275
 20
-0.9474521638
 10
24.8828553519
 20
-0.4808610551
 10
25.2384167023
 20
-0.0072991624
 10
25.5669523089
 20
0.4727265626
 10
25.84058858
 20
0.9121284094
  0
LINE
  5
29D
100
AcDbEntity
  8
RACCORDO
100
AcDbLine
 62
250
  6
CONTINUOUS
 10
3.6643218454
 20
-13.6297624834
 11
19.4454364826
 21
-4.5179446757
  0
LINE
  5
29E
100
AcDbEntity
  8
RACCORDO
100
AcDbLine
 62
250
  6
CONTINUOUS
 10
3.5355339059
 20
-14.236243153
 11
19.3166485432
 21
-5.1244253452
  0
LWPOLYLINE
  5
29F
100
AcDbEntity
  8
RACCORDO
100
AcDbPolyline
 62
250
  6
CONTINUOUS
 90
10
 70
0
 10
3.3134656379
 20
-14.3693709054
 10
3.3375363719
 20
-14.3562586439
 10
3.3617700574
 20
-14.3427390093
 10
3.3861603145
 20
-14.3288091185
 10
3.410696067
 20
-14.3144737909
 10
3.4353752713
 20
-14.2997224858
 10
3.4602046262
 20
-14.2845291263
 10
3.4851813878
 20
-14.2688829349
 10
3.5102936568
 20
-14.2527886126
 10
3.5355339059
 20
-14.236243153
  0
LWPOLYLINE
  5
2A0
100
AcDbEntity
  8
RACCORDO
100
AcDbPolyline
 62
250
  6
CONTINUOUS
 90
10
 70
0
 10
3.5355339059
 20
-13.6944916288
 10
3.5496412034
 20
-13.6882989809
 10
3.5638009933
 20
-13.6818610156
 10
3.5780132757
 20
-13.675177733
 10
3.5922805492
 20
-13.668255203
 10
3.6066003152
 20
-13.6610873557
 10
3.6209650774
 20
-13.653655981
 10
3.6353723372
 20
-13.6459550091
 10
3.6498245932
 20
-13.6379905099
 10
3.6643218454
 20
-13.6297624834
  0
LWPOLYLINE
  5
2A1
100
AcDbEntity
  8
ASSI
100
AcDbPolyline
 62
7
  6
CONTINUOUS
 90
4
 70
0
 10
8.6420223873
 20
-35.9541894799
 10
8.650831901
 20
-35.9196909116
 10
8.6633393216
 20
-35.8463684929
 10
8.6675144213
 20
-35.772730746
  0
LWPOLYLINE
  5
2A2
100
AcDbEntity
  8
RACCORDO
100
AcDbPolyline
 62
250
  6
CONTINUOUS
 90
6
 70
0
 10
3.3929437184
 20
-18.7743461836
 10
3.4177206495
 20
-18.7585342312
 10
3.4521998799
 20
-18.7308140291
 10
3.4834456222
 20
-18.6983398029
 10
3.5112772587
 20
-18.6612992668
 10
3.5355339059
 20
-18.6199065313
  0
LWPOLYLINE
  5
2A3
100
AcDbEntity
  8
RACCORDO
100
AcDbPolyline
 62
250
  6
CONTINUOUS
 90
6
 70
0
 10
15.9563352055
 20
-11.5204014176
 10
15.9812107752
 20
-11.5045324646
 10
16.0156899564
 20
-11.4768122654
 10
16.0469356516
 20
-11.4443380596
 10
16.0747672452
 20
-11.4072975641
 10
16.0990238568
 20
-11.3659048912
  0
LWPOLYLINE
  5
2A4
100
AcDbEntity
  8
RACCORDO
100
AcDbPolyline
 62
7
  6
CONTINUOUS
 90
16
 70
0
 10
15.9563352055
 20
-11.5204014176
 10
16.4468603639
 20
-11.2283406101
 10
16.9223060293
 20
-10.9272955563
 10
17.3822544569
 20
-10.6174919037
 10
17.8263906965
 20
-10.2990910683
 10
18.2542096764
 20
-9.9723985013
 10
18.6650606577
 20
-9.6378750697
 10
19.0586463579
 20
-9.2957376842
 10
19.4345796342
 20
-8.9462918169
 10
19.7921864809
 20
-8.5901665913
 10
20.1312286513
 20
-8.2276320439
 10
20.4514349626
 20
-7.8590075235
 10
20.7522225626
 20
-7.4850417395
 10
21.0333242597
 20
-7.1062140374
 10
21.2947137205
 20
-6.7227121394
 10
21.536254133
 20
-6.3348756891
  0
LINE
  5
2A5
100
AcDbEntity
  8
RACCORDO
100
AcDbLine
 62
250
  6
CONTINUOUS
 10
3.5355339059
 20
-18.6199065313
 11
3.3470608523
 21
-18.7307955828
  0
LINE
  5
2A6
100
AcDbEntity
  8
RACCORDO
100
AcDbLine
 62
250
  6
CONTINUOUS
 10
16.0990238568
 20
-11.3659048912
 11
3.5355339059
 21
-18.6199065313
  0
LINE
  5
2A7
100
AcDbEntity
  8
RACCORDO
100
AcDbLine
 62
7
  6
CONTINUOUS
 10
15.9563352055
 20
-11.5204014176
 11
3.3928452883
 21
-18.7744030383
  0
LWPOLYLINE
  5
2A8
100
AcDbEntity
  8
RACCORDO
100
AcDbPolyline
 62
250
  6
CONTINUOUS
 90
29
 70
0
 10
3.3470608523
 20
-18.7307955828
 10
3.1491217231
 20
-18.835513073
 10
2.9421980677
 20
-18.9337565027
 10
2.7267348734
 20
-19.0252501014
 10
2.5033350894
 20
-19.1097013235
 10
2.2727802993
 20
-19.1868223507
 10
2.0356793094
 20
-19.2563897617
 10
1.7926691221
 20
-19.3181969169
 10
1.5446408884
 20
-19.3720478289
 10
1.2922985984
 20
-19.4177968395
 10
1.0363191525
 20
-19.4553207612
 10
0.7775940933
 20
-19.484526075
 10
0.5168827222
 20
-19.5053504712
 10
0.254869909
 20
-19.5177509667
 10
-0.0076509865
 20
-19.5217186902
 10
-0.269960538
 20
-19.517266717
 10
-0.5313316325
 20
-19.5044184888
 10
-0.7909645387
 20
-19.4832273026
 10
-1.0479923286
 20
-19.4538010315
 10
-1.3018830229
 20
-19.416222591
 10
-1.5523410514
 20
-19.370511061
 10
-1.7988763588
 20
-19.3167317299
 10
-2.0406002318
 20
-19.2550416468
 10
-2.2766327528
 20
-19.1856127269
 10
-2.5064047709
 20
-19.1086066263
 10
-2.7292212077
 20
-19.0242515928
 10
-2.9440946473
 20
-18.9329041632
 10
-3.1503680165
 20
-18.8348886587
 10
-3.3476719871
 20
-18.7304551641
  0
LWPOLYLINE
  5
2A9
100
AcDbEntity
  8
0
100
AcDbPolyline
 62
7
  6
CONTINUOUS
 90
7
 70
0
 10
20.5568158031
 20
16.2425828092
 10
20.5368834613
 20
16.6007042789
 10
20.4982512687
 20
16.9582463485
 10
20.4409583932
 20
17.3149206086
 10
20.3650522129
 20
17.67044423
 10
20.270609359
 20
18.0244633706
 10
20.2524259681
 20
18.0811909165
  0
LWPOLYLINE
  5
2AA
100
AcDbEntity
  8
RACCORDO
100
AcDbPolyline
 62
250
  6
CONTINUOUS
 90
13
 70
0
 10
19.4454364826
 20
2.2044385544
 10
19.4437690557
 20
2.2450025311
 10
19.4387825027
 20
2.2871093956
 10
19.4305238588
 20
2.3303619795
 10
19.4190710224
 20
2.3743523076
 10
19.4045320214
 20
2.4186654459
 10
19.387043993
 20
2.4628834155
 10
19.3667718913
 20
2.5065891351
 10
19.3439069305
 20
2.5493703554
 10
19.318664782
 20
2.5908235468
 10
19.2912835395
 20
2.6305577068
 10
19.2620214736
 20
2.668198047
 10
19.2311545957
 20
2.7033895289
  0
LWPOLYLINE
  5
2AB
100
AcDbEntity
  8
0
100
AcDbPolyline
 62
250
  6
CONTINUOUS
 90
7
 70
0
 10
20.5545459771
 20
16.1159155599
 10
20.5423557196
 20
16.4577468782
 10
20.51311677
 20
16.7992336435
 10
20.4668533911
 20
17.1400924275
 10
20.4036039707
 20
17.4800403599
 10
20.3234209738
 20
17.8187953889
 10
20.3017345974
 20
17.8941627145
  0
LWPOLYLINE
  5
2AC
100
AcDbEntity
  8
RACCORDO
100
AcDbPolyline
 62
7
  6
CONTINUOUS
 90
67
 70
0
 10
20.5
 20
16.2322364108
 10
20.4871948799
 20
16.6566039834
 10
20.4487335691
 20
17.0809330148
 10
20.3845744911
 20
17.5046498657
 10
20.2947098068
 20
17.9271932521
 10
20.1791720112
 20
18.3479816964
 10
20.0380376549
 20
18.7664226547
 10
19.8713794294
 20
19.1820346262
 10
19.6793545366
 20
19.5942009744
 10
19.462258234
 20
20.0021567175
 10
19.2203963368
 20
20.405274636
 10
18.9539749222
 20
20.8031619521
 10
18.6632005366
 20
21.1954282611
 10
18.3482357645
 20
21.5817367173
 10
18.0095185202
 20
21.9614384685
 10
17.6477558263
 20
22.3337017996
 10
17.2634983607
 20
22.6979776797
 10
16.8571173015
 20
23.0539278112
 10
16.4291678521
 20
23.4010704257
 10
15.9801074587
 20
23.7390357597
 10
15.5105505778
 20
24.0673600697
 10
15.0213777223
 20
24.3854513719
 10
14.5133652073
 20
24.6928557215
 10
13.9870392082
 20
24.9893015615
 10
13.4429712084
 20
25.2744954334
 10
12.8817556775
 20
25.548140401
 10
12.3041915224
 20
25.8098595256
 10
11.7111997781
 20
26.0592601894
 10
11.1036546575
 20
26.2960114085
 10
10.4822311219
 20
26.5198846264
 10
9.84758932
 20
26.7306639493
 10
9.2004536282
 20
26.9281203642
 10
8.5417201217
 20
27.111990746
 10
7.8723307709
 20
27.2820283895
 10
7.1932115062
 20
27.4380197671
 10
6.5051532965
 20
27.5798036559
 10
5.8089175434
 20
27.7072360416
 10
5.1053320042
 20
27.8201718157
 10
4.3953354721
 20
27.918465846
 10
3.6798687798
 20
28.0019957838
 10
2.9598692829
 20
28.0706618188
 10
2.2362128826
 20
28.1243892774
 10
1.5097580023
 20
28.1631197827
 10
0.7814072907
 20
28.1868077569
 10
0.0520918893
 20
28.1954247934
 10
-0.6772838546
 20
28.1889613711
 10
-1.4058082296
 20
28.1674253852
 10
-2.1325556674
 20
28.1308433539
 10
-2.8566030647
 20
28.079260697
 10
-3.5770097976
 20
28.0127438334
 10
-4.292896974
 20
27.9313726332
 10
-5.0034405713
 20
27.8352353274
 10
-5.7077933199
 20
27.7244361517
 10
-6.4050146178
 20
27.5991118266
 10
-7.0941542996
 20
27.4594250769
 10
-7.7742818295
 20
27.3055601574
 10
-8.4446032579
 20
27.1376914178
 10
-9.1043900573
 20
26.9559884166
 10
-9.7528921614
 20
26.7606357647
 10
-10.389193529
 20
26.5518860489
 10
-11.0123442444
 20
26.330035502
 10
-11.6214553749
 20
26.0953943644
 10
-12.2158682168
 20
25.848208791
 10
-12.7950048064
 20
25.5886968276
 10
-13.3581774672
 20
25.317130715
 10
-13.9046003328
 20
25.033850844
 10
-14.433564228
 20
24.7391866324
  0
LINE
  5
2AD
100
AcDbEntity
  8
RACCORDO
100
AcDbLine
 62
250
  6
CONTINUOUS
 10
19.4454364826
 20
-4.5179446757
 11
19.4454364826
 21
2.2044385544
  0
LINE
  5
2AE
100
AcDbEntity
  8
0
100
AcDbLine
 62
7
  6
CONTINUOUS
 10
20.5
 20
16.0580098468
 11
20.5
 21
16.2322364108
  0
LINE
  5
2AF
100
AcDbEntity
  8
RACCORDO
100
AcDbLine
 62
250
  6
CONTINUOUS
 10
20.4968775537
 20
16.0256554804
 11
20.5
 21
16.2322364108
  0
LWPOLYLINE
  5
2B0
100
AcDbEntity
  8
RACCORDO
100
AcDbPolyline
 62
250
  6
CONTINUOUS
 90
10
 70
0
 10
19.4454364826
 20
-4.5179446757
 10
19.4438220792
 20
-4.5950152919
 10
19.4389825549
 20
-4.6700456748
 10
19.4309289587
 20
-4.7428645215
 10
19.4196796781
 20
-4.8133055787
 10
19.4052603963
 20
-4.8812080214
 10
19.3877040341
 20
-4.946416821
 10
19.3670506747
 20
-5.0087830985
 10
19.3433474721
 20
-5.0681644646
 10
19.3166485432
 20
-5.1244253452
  0
LINE
  5
2B1
100
AcDbEntity
  8
RACCORDO
100
AcDbLine
 62
250
  6
CONTINUOUS
 10
16.0990238568
 20
-11.3659048912
 11
19.3166485432
 21
-5.1244253452
  0
LWPOLYLINE
  5
2B2
100
AcDbEntity
  8
RACCORDO
100
AcDbPolyline
 62
7
  6
CONTINUOUS
 90
13
 70
0
 10
25.84058858
 20
0.9121284094
 10
26.1082974189
 20
1.3848134909
 10
26.352089085
 20
1.8607630819
 10
26.5720326788
 20
2.3394950798
 10
26.768164348
 20
2.8203841986
 10
26.940660812
 20
3.3030789427
 10
27.089767235
 20
3.7874917456
 10
27.2155376776
 20
4.2729635646
 10
27.3181351664
 20
4.7591264289
 10
27.3978188073
 20
5.2463126139
 10
27.4546616198
 20
5.7342815236
 10
27.4886867413
 20
6.2222223901
 10
27.5
 20
6.7096066408
  0
LINE
  5
2B3
100
AcDbEntity
  8
0
100
AcDbLine
 62
7
  6
CONTINUOUS
 10
21.536254133
 20
-6.3348756891
 11
25.84058858
 21
0.9121284094
  0
LINE
  5
2B4
100
AcDbEntity
  8
RACCORDO
100
AcDbLine
 62
250
  6
CONTINUOUS
 10
21.2947137205
 20
-6.7227121394
 11
21.2731326061
 21
-6.7545260108
  0
LWPOLYLINE
  5
2B5
100
AcDbEntity
  8
RACCORDO
100
AcDbPolyline
 62
250
  6
CONTINUOUS
 90
14
 70
0
 10
21.2731326061
 20
-6.7545260108
 10
20.9992554883
 20
-7.1498471544
 10
20.7033490468
 20
-7.5398397796
 10
20.3857236835
 20
-7.9240947961
 10
20.0467125319
 20
-8.3022091793
 10
19.686671164
 20
-8.67378632
 10
19.3059773216
 20
-9.0384363506
 10
18.905030466
 20
-9.3957766396
 10
18.4842511599
 20
-9.7454323642
 10
18.0440808789
 20
-10.0870366702
 10
17.5849816923
 20
-10.420230985
 10
17.1074353644
 20
-10.7446657191
 10
16.6119428078
 20
-11.0600006153
 10
16.0990238568
 20
-11.3659048912
  0
LWPOLYLINE
  5
2B6
100
AcDbEntity
  8
0
100
AcDbPolyline
 62
7
  6
CONTINUOUS
 90
52
 70
0
 10
3.4085503158
 20
29.3787947077
 10
3.3561462339
 20
29.4269610387
 10
3.2945909336
 20
29.473880117
 10
3.2238030758
 20
29.5195166502
 10
3.1431172274
 20
29.563878075
 10
3.0530625614
 20
29.6068697768
 10
2.9554012285
 20
29.6483060767
 10
2.850395935
 20
29.6880955703
 10
2.7377910665
 20
29.7262420971
 10
2.618630901
 20
29.7627154839
 10
2.4929679253
 20
29.7975059091
 10
2.3608237348
 20
29.8305349632
 10
2.223233983
 20
29.8616815957
 10
2.0803697148
 20
29.8908944283
 10
1.9322074797
 20
29.9181445537
 10
1.7795234843
 20
29.943357032
 10
1.6221850213
 20
29.9665279598
 10
1.4605189881
 20
29.9875876628
 10
1.2960241535
 20
30.006381197
 10
1.1291507516
 20
30.0228437083
 10
0.9597080089
 20
30.0369968702
 10
0.7882557561
 20
30.0488335417
 10
0.6146858436
 20
30.0583512009
 10
0.4393785652
 20
30.0655177724
 10
0.2636345682
 20
30.0702988028
 10
0.0879352578
 20
30.0726866408
 10
-0.0879114935
 20
30.0726868184
 10
-0.2636109783
 20
30.0702993153
 10
-0.4393552811
 20
30.0655185845
 10
-0.6146630351
 20
30.0583522891
 10
-0.7882337112
 20
30.0488348814
 10
-0.9596871133
 20
30.03699844
 10
-1.1291312867
 20
30.0228454775
 10
-1.2960062134
 20
30.006383115
 10
-1.4605026007
 20
29.9875896764
 10
-1.6221702711
 20
29.9665300175
 10
-1.7795104512
 20
29.9433590706
 10
-1.9321963171
 20
29.9181464905
 10
-2.0803604898
 20
29.8908961993
 10
-2.2232265234
 20
29.861683185
 10
-2.3608177786
 20
29.8305363787
 10
-2.4929633018
 20
29.797507139
 10
-2.6186274761
 20
29.762716502
 10
-2.7377887497
 20
29.7262428488
 10
-2.8503945896
 20
29.6880960318
 10
-2.9554006245
 20
29.6483062975
 10
-3.0530624133
 20
29.606869834
 10
-3.1431173188
 20
29.5638780217
 10
-3.2238032881
 20
29.5195165359
 10
-3.2945911834
 20
29.4738799902
 10
-3.3561464115
 20
29.4269609498
 10
-3.4085503158
 20
29.3787947077
  0
LWPOLYLINE
  5
2B7
100
AcDbEntity
  8
0
100
AcDbPolyline
 62
7
  6
CONTINUOUS
 90
36
 70
0
 10
3.4134247719
 20
29.4764096606
 10
3.4585542936
 20
29.4304110432
 10
3.5063359047
 20
29.384205454
 10
3.5566975468
 20
29.3377840426
 10
3.6094785383
 20
29.291060408
 10
3.6646941192
 20
29.2441024077
 10
3.7225433641
 20
29.1971308454
 10
3.783080876
 20
29.1501507117
 10
3.8461244313
 20
29.1031331689
 10
3.9115380554
 20
29.0562465827
 10
3.9790908111
 20
29.0096268098
 10
4.0489253083
 20
28.9631127518
 10
4.1214554964
 20
28.9164249033
 10
4.1959489937
 20
28.8698002284
 10
4.2730184276
 20
28.8229717297
 10
4.3549642584
 20
28.7748893183
 10
4.4411278425
 20
28.725534898
 10
4.5318093273
 20
28.6748677857
 10
4.6304882272
 20
28.6217671629
 10
4.7364402719
 20
28.5660726153
 10
4.8496722157
 20
28.5078271534
 10
4.9744372914
 20
28.4461487253
 10
5.1111175171
 20
28.380322077
 10
5.2581036967
 20
28.3108308018
 10
5.4165633387
 20
28.2385196949
 10
5.5872488568
 20
28.1628806329
 10
5.768247742
 20
28.0840967916
 10
5.9571565928
 20
28.0040368751
 10
6.1538666386
 20
27.9228225123
 10
6.3580797291
 20
27.8400186193
 10
6.5676994056
 20
27.7566991846
 10
6.7827758723
 20
27.6728999737
 10
7.0033699544
 20
27.5882912199
 10
7.2277838159
 20
27.503448779
 10
7.4553798432
 20
27.4185729063
 10
7.7518196216
 20
27.3097093892
  0
LWPOLYLINE
  5
2B8
100
AcDbEntity
  8
RACCORDO
100
AcDbPolyline
 62
7
  6
CONTINUOUS
 90
25
 70
0
 10
27.5
 20
13.431989871
 10
27.4853785246
 20
13.959021745
 10
27.4414721889
 20
14.485983283
 10
27.3682455067
 20
15.012258869
 10
27.2657195278
 20
15.5371449901
 10
27.1339212487
 20
16.0601218871
 10
26.9728304373
 20
16.5808585229
 10
26.7824633696
 20
17.098864173
 10
26.5629400657
 20
17.6134429423
 10
26.3144002063
 20
18.1239773006
 10
26.0369475332
 20
18.6299870333
 10
25.730805605
 20
19.130822701
 10
25.3963870947
 20
19.6256464285
 10
25.0339716007
 20
20.1139331991
 10
24.6438726183
 20
20.5951543011
 10
24.2266899088
 20
21.0685061014
 10
23.7828449054
 20
21.5334841522
 10
23.3127604612
 20
21.9896170109
 10
22.8171701337
 20
22.4361888365
 10
22.2966294542
 20
22.8727209928
 10
21.7516565959
 20
23.2987964265
 10
21.183040079
 20
23.7138261046
 10
20.5914783206
 20
24.1173449218
 10
19.9775429231
 20
24.5090031139
 10
19.3418951721
 20
24.888409618
  0
LINE
  5
2B9
100
AcDbEntity
  8
0
100
AcDbLine
 62
7
  6
CONTINUOUS
 10
27.5
 20
6.7096066408
 11
27.5
 21
13.431989871
  0
LWPOLYLINE
  5
2BA
100
AcDbEntity
  8
RACCORDO
100
AcDbPolyline
 62
250
  6
CONTINUOUS
 90
25
 70
0
 10
27.5
 20
13.431989871
 10
27.4852761627
 20
12.9124713172
 10
27.441120402
 20
12.3935089388
 10
27.3675800014
 20
11.8756585955
 10
27.2647337116
 20
11.3594748189
 10
27.1326916631
 20
10.845510347
 10
26.9715952476
 20
10.334315538
 10
26.7816169686
 20
9.8264377868
 10
26.5629602603
 20
9.3224209473
 10
26.3158592695
 20
8.8228047418
 10
26.0405786025
 20
8.3281241776
 10
25.7374130346
 20
7.8389089649
 10
25.4066871975
 20
7.3556829588
 10
25.0487552355
 20
6.878963604
 10
24.664000434
 20
6.4092613898
 10
24.2528348051
 20
5.9470792933
 10
23.8156986405
 20
5.4929122354
 10
23.3530600331
 20
5.0472465443
 10
22.8654143817
 20
4.6105594441
 10
22.353283866
 20
4.1833185477
 10
21.8172168907
 20
3.7659813583
 10
21.2577874923
 20
3.3589947732
 10
20.6755947228
 20
2.9627946046
 10
20.0712620081
 20
2.5778051129
 10
19.4454364826
 20
2.2044385544
  0
LWPOLYLINE
  5
2BB
100
AcDbEntity
  8
ASSI
100
AcDbPolyline
 62
7
  6
CONTINUOUS
 90
13
 70
0
 10
8.0963726446
 20
-25.5102582492
 10
8.1841316155
 20
-25.4560572315
 10
8.2649674557
 20
-25.3991852841
 10
8.3388801653
 20
-25.3396424069
 10
8.4061262241
 20
-25.2771515462
 10
8.4664491522
 20
-25.2119897557
 10
8.5190795097
 20
-25.1449881967
 10
8.5639187561
 20
-25.0761233022
 10
8.6010654318
 20
-25.0054186393
 10
8.6300457181
 20
-24.9337760706
 10
8.6507550049
 20
-24.8611835817
 10
8.6632979024
 20
-24.7876531869
 10
8.6675144213
 20
-24.7141227922
  0
LWPOLYLINE
  5
2BC
100
AcDbEntity
  8
ASSI
100
AcDbPolyline
 62
7
  6
CONTINUOUS
 90
37
 70
0
 10
8.0963726446
 20
-25.5102582492
 10
8.0024997763
 20
-25.5609291791
 10
7.90400102
 20
-25.6076027801
 10
7.8008763757
 20
-25.6502790523
 10
7.692646003
 20
-25.6891060839
 10
7.5797897422
 20
-25.7239357865
 10
7.4637471144
 20
-25.7543238953
 10
7.3444773027
 20
-25.7802135142
 10
7.2220211239
 20
-25.8016615392
 10
7.0979405492
 20
-25.8183943933
 10
6.9722147705
 20
-25.830351676
 10
6.8448645959
 20
-25.8375937878
 10
6.7175144213
 20
-25.8400283529
 10
6.5901642467
 20
-25.8375937878
 10
6.4628140721
 20
-25.830351676
 10
6.3370882933
 20
-25.8183943933
 10
6.2130077187
 20
-25.8016615392
 10
6.0905515399
 20
-25.7802135142
 10
5.9712817282
 20
-25.7543238953
 10
5.8552391003
 20
-25.7239357865
 10
5.7423828396
 20
-25.6891060839
 10
5.6341524669
 20
-25.6502790523
 10
5.530607239
 20
-25.6074034868
 10
5.4316878991
 20
-25.5605305924
 10
5.338656198
 20
-25.5102582492
 10
5.251587555
 20
-25.4565429109
 10
5.1704065508
 20
-25.3994281238
 10
5.0961486773
 20
-25.3396424069
 10
5.0289026185
 20
-25.2771515462
 10
4.9685796903
 20
-25.2119897557
 10
4.9159493329
 20
-25.1449881967
 10
4.8711100865
 20
-25.0761233022
 10
4.8339634108
 20
-25.0054186393
 10
4.8049831245
 20
-24.9337760706
 10
4.7842738376
 20
-24.8611835817
 10
4.7717309402
 20
-24.7876531869
 10
4.7675144213
 20
-24.7141227922
  0
LWPOLYLINE
  5
2BD
100
AcDbEntity
  8
0
100
AcDbPolyline
 62
7
  6
CONTINUOUS
 90
29
 70
0
 10
7.0599390006
 20
27.465482406
 10
6.9877168095
 20
27.4927723011
 10
6.7454732543
 20
27.5860088598
 10
6.5094750135
 20
27.678542453
 10
6.2827691188
 20
27.7688906777
 10
6.0662115423
 20
27.8574094085
 10
5.8594437622
 20
27.9442062563
 10
5.6644468139
 20
28.0274785341
 10
5.4837400104
 20
28.1067938223
 10
5.3161654284
 20
28.183027594
 10
5.1585059354
 20
28.2562883697
 10
5.0115698709
 20
28.3263626341
 10
4.8756698885
 20
28.3937368719
 10
4.7465831554
 20
28.4594627186
 10
4.6240404877
 20
28.5236174174
 10
4.5089429181
 20
28.5862713303
 10
4.3984745447
 20
28.6483911811
 10
4.2920846251
 20
28.7102293171
 10
4.1906365643
 20
28.7716196997
 10
4.0932449178
 20
28.8328679868
 10
3.9997190032
 20
28.8941414756
 10
3.9104994776
 20
28.9553391918
 10
3.8256165102
 20
29.0163546069
 10
3.7454378444
 20
29.0772107819
 10
3.6698954567
 20
29.1379437513
 10
3.5983691394
 20
29.198459534
 10
3.5307444326
 20
29.2587394358
 10
3.467422676
 20
29.3188444944
 10
3.4085503158
 20
29.3787947077
  0
LWPOLYLINE
  5
2BE
100
AcDbEntity
  8
0
100
AcDbPolyline
 62
7
  6
CONTINUOUS
 90
22
 70
0
 10
19.3178985673
 20
20.2427649696
 10
19.3739102748
 20
20.157788641
 10
19.5996572471
 20
19.7770464637
 10
19.8031396971
 20
19.3917645582
 10
19.9841576688
 20
19.002156409
 10
20.1423216889
 20
18.6088740478
 10
20.2771770297
 20
18.2130400695
 10
20.3885845476
 20
17.8152778615
 10
20.4765323698
 20
17.4158895249
 10
20.5409506214
 20
17.0155349506
 10
20.581827415
 20
16.6150897737
 10
20.599286361
 20
16.2146015067
 10
20.5933537162
 20
15.8134841373
 10
20.5638987633
 20
15.4117372207
 10
20.5108578605
 20
15.010280038
 10
20.4342739005
 20
14.6099056584
 10
20.3341717312
 20
14.2109664098
 10
20.2106518237
 20
13.8140330864
 10
20.064084245
 20
13.4202109014
 10
19.8948632734
 20
13.0302509869
 10
19.7031560928
 20
12.6442725132
 10
19.5970137004
 20
12.4494349867
  0
LWPOLYLINE
  5
2BF
100
AcDbEntity
  8
ASSI
100
AcDbPolyline
 62
7
  6
CONTINUOUS
 90
13
 70
0
 10
7.9195959493
 20
-30.7968934277
 10
8.0010722816
 20
-30.7463322597
 10
8.0756250941
 20
-30.6931750501
 10
8.1432543868
 20
-30.6374217989
 10
8.2042213311
 20
-30.5787765501
 10
8.2582647557
 20
-30.5175352597
 10
8.3046011463
 20
-30.4545857955
 10
8.3431182249
 20
-30.3899032725
 10
8.3739282695
 20
-30.3235125756
 10
8.3965846003
 20
-30.2563762282
 10
8.4109684319
 20
-30.1884833675
 10
8.4171985497
 20
-30.1198448562
 10
8.4174713369
 20
-30.102826603
  0
LWPOLYLINE
  5
2C0
100
AcDbEntity
  8
ASSI
100
AcDbPolyline
 62
7
  6
CONTINUOUS
 90
13
 70
0
 10
8.0963726446
 20
-30.898962076
 10
8.1841316155
 20
-30.8447610584
 10
8.2649674557
 20
-30.787889111
 10
8.3388801653
 20
-30.7283462338
 10
8.4061262241
 20
-30.665855373
 10
8.4664491522
 20
-30.6006935825
 10
8.5190795097
 20
-30.5336920235
 10
8.5639187561
 20
-30.4648271291
 10
8.6010654318
 20
-30.3941224661
 10
8.6300457181
 20
-30.3224798974
 10
8.6507550049
 20
-30.2498874085
 10
8.6632979024
 20
-30.1763570138
 10
8.6675144213
 20
-30.102826619
  0
LWPOLYLINE
  5
2C1
100
AcDbEntity
  8
ASSI
100
AcDbPolyline
 62
7
  6
CONTINUOUS
 90
37
 70
0
 10
8.0963726446
 20
-30.898962076
 10
8.0024997763
 20
-30.9496330059
 10
7.90400102
 20
-30.996306607
 10
7.8008763757
 20
-31.0389828791
 10
7.692646003
 20
-31.0778099107
 10
7.5797897422
 20
-31.1126396134
 10
7.4637471144
 20
-31.1430277221
 10
7.3444773027
 20
-31.168917341
 10
7.2220211239
 20
-31.1903653661
 10
7.0979405492
 20
-31.2070982201
 10
6.9722147705
 20
-31.2190555028
 10
6.8448645959
 20
-31.2262976146
 10
6.7175144213
 20
-31.2287321798
 10
6.5901642467
 20
-31.2262976146
 10
6.4628140721
 20
-31.2190555028
 10
6.3370882933
 20
-31.2070982201
 10
6.2130077187
 20
-31.1903653661
 10
6.0905515399
 20
-31.168917341
 10
5.9712817282
 20
-31.1430277221
 10
5.8552391003
 20
-31.1126396134
 10
5.7423828396
 20
-31.0778099107
 10
5.6341524669
 20
-31.0389828791
 10
5.530607239
 20
-30.9961073136
 10
5.4316878991
 20
-30.9492344192
 10
5.338656198
 20
-30.898962076
 10
5.251587555
 20
-30.8452467377
 10
5.1704065508
 20
-30.7881319506
 10
5.0961486773
 20
-30.7283462338
 10
5.0289026185
 20
-30.665855373
 10
4.9685796903
 20
-30.6006935825
 10
4.9159493329
 20
-30.5336920235
 10
4.8711100865
 20
-30.4648271291
 10
4.8339634108
 20
-30.3941224661
 10
4.8049831245
 20
-30.3224798974
 10
4.7842738376
 20
-30.2498874085
 10
4.7717309402
 20
-30.1763570138
 10
4.7675144213
 20
-30.102826619
  0
LWPOLYLINE
  5
2C2
100
AcDbEntity
  8
ASSI
100
AcDbPolyline
 62
7
  6
CONTINUOUS
 90
35
 70
0
 10
7.9195959493
 20
-30.7968934277
 10
7.8320270794
 20
-30.8439368408
 10
7.7399620233
 20
-30.8869827004
 10
7.6434007808
 20
-30.9260310064
 10
7.5418307743
 20
-30.961232556
 10
7.4357645815
 20
-30.992436552
 10
7.3267399355
 20
-31.0191906032
 10
7.2147137368
 20
-31.0414298816
 10
7.099729085
 20
-31.0592192152
 10
6.9834530118
 20
-31.0723006967
 10
6.8658667035
 20
-31.0806057408
 10
6.7469889737
 20
-31.0842029327
 10
6.6285432957
 20
-31.0830401209
 10
6.5105359635
 20
-31.0770479604
 10
6.392960683
 20
-31.0662957962
 10
6.2775220446
 20
-31.0509395116
 10
6.1642511753
 20
-31.0309120326
 10
6.0531169481
 20
-31.0062804333
 10
5.9457305717
 20
-30.9774018192
 10
5.8421466459
 20
-30.9442143188
 10
5.7423105709
 20
-30.9067798035
 10
5.6476697565
 20
-30.865640994
 10
5.5582998887
 20
-30.820743925
 10
5.4741252814
 20
-30.7721425618
 10
5.3963662868
 20
-30.7205415202
 10
5.3251163691
 20
-30.6658971001
 10
5.2602820639
 20
-30.6082530016
 10
5.2028033302
 20
-30.548444941
 10
5.1527873258
 20
-30.4864413932
 10
5.1101268929
 20
-30.4222738832
 10
5.0754405166
 20
-30.3568727029
 10
5.048844365
 20
-30.2902198799
 10
5.03022227
 20
-30.2223333865
 10
5.0198442122
 20
-30.1541974319
 10
5.0175575057
 20
-30.102826635
  0
LWPOLYLINE
  5
2C3
100
AcDbEntity
  8
RACCORDO
100
AcDbPolyline
 62
250
  6
CONTINUOUS
 90
3
 70
0
 10
-5.2192033665
 20
30.7308678755
 10
-4.4275276368
 20
30.9524771947
 10
-4.070109286
 20
31.0493942098
  0
LWPOLYLINE
  5
2C4
100
AcDbEntity
  8
RACCORDO
100
AcDbPolyline
 62
7
  6
CONTINUOUS
 90
16
 70
0
 10
-3.308065589
 20
31.2749660923
 10
-4.4498686735
 20
30.9695798874
 10
-5.6264611114
 20
30.6374787313
 10
-6.7872839384
 20
30.2909520906
 10
-7.9322840314
 20
29.9291760861
 10
-9.0613210077
 20
29.5514119478
 10
-10.1741642122
 20
29.1570424654
 10
-11.2705613576
 20
28.745584781
 10
-12.3501926699
 20
28.3167409434
 10
-13.4126380895
 20
27.8704487562
 10
-14.4574509259
 20
27.4068854831
 10
-15.4841428368
 20
26.9264978463
 10
-16.4921786504
 20
26.4300209333
 10
-17.4810274276
 20
25.9184582601
 10
-18.4501753298
 20
25.39306432
 10
-19.3418911671
 20
24.8884119304
  0
LINE
  5
2C5
100
AcDbEntity
  8
RACCORDO
100
AcDbLine
 62
250
  6
CONTINUOUS
 10
-4.070109286
 20
31.0493942098
 11
-3.1998124041
 21
31.2796069353
  0
LINE
  5
2C6
100
AcDbEntity
  8
RACCORDO
100
AcDbLine
 62
7
  6
CONTINUOUS
 10
-3.3081342016
 20
31.2749482018
 11
-3.308065589
 21
31.2749660923
  0
LWPOLYLINE
  5
2C7
100
AcDbEntity
  8
RACCORDO
100
AcDbPolyline
 62
250
  6
CONTINUOUS
 90
34
 70
0
 10
-3.1998124041
 20
31.2796069353
 10
-3.0429187549
 20
31.3183829781
 10
-2.8808766563
 20
31.3550652514
 10
-2.7137709759
 20
31.3896178236
 10
-2.5420818547
 20
31.4219329963
 10
-2.3655183977
 20
31.4520477437
 10
-2.182993373
 20
31.4801326187
 10
-1.9934747599
 20
31.5063121288
 10
-1.7981535108
 20
31.5303585328
 10
-1.5992974969
 20
31.5519228999
 10
-1.397398258
 20
31.5709011067
 10
-1.1922392108
 20
31.5873420036
 10
-0.9850744359
 20
31.6011578014
 10
-0.7762422454
 20
31.6123173167
 10
-0.5657094234
 20
31.6208212667
 10
-0.354186187
 20
31.6266474115
 10
-0.1418667503
 20
31.6297947351
 10
0.0711274775
 20
31.6302496024
 10
0.2841902287
 20
31.6279824087
 10
0.4974184475
 20
31.6229829618
 10
0.7103909843
 20
31.6152600811
 10
0.9217248184
 20
31.604831135
 10
1.1311095442
 20
31.5917111672
 10
1.3385426149
 20
31.5759172757
 10
1.5431124636
 20
31.5574911517
 10
1.7446899775
 20
31.5364580756
 10
1.9431145977
 20
31.5128434922
 10
2.1374426711
 20
31.4867054686
 10
2.3276208445
 20
31.4580684782
 10
2.5134472061
 20
31.4269762951
 10
2.6937800244
 20
31.3935331179
 10
2.8681776668
 20
31.3578065009
 10
3.0368853471
 20
31.3198170347
 10
3.1998124041
 20
31.2796069353
  0
LWPOLYLINE
  5
2C8
100
AcDbEntity
  8
RACCORDO
100
AcDbPolyline
 62
250
  6
CONTINUOUS
 90
5
 70
0
 10
-3.308065589
 20
31.2749660923
 10
-3.2905641786
 20
31.2788672951
 10
-3.2608007124
 20
31.2825987083
 10
-3.2304784647
 20
31.2828458378
 10
-3.1998124041
 20
31.2796069353
  0
LWPOLYLINE
  5
2C9
100
AcDbEntity
  8
RACCORDO
100
AcDbPolyline
 62
250
  6
CONTINUOUS
 90
5
 70
0
 10
3.3080661653
 20
31.2749659421
 10
3.2905643449
 20
31.2788672637
 10
3.2608008364
 20
31.2825986992
 10
3.230478533
 20
31.2828458404
 10
3.1998124041
 20
31.2796069353
  0
LWPOLYLINE
  5
2CA
100
AcDbEntity
  8
RACCORDO
100
AcDbPolyline
 62
7
  6
CONTINUOUS
 90
34
 70
0
 10
3.3081287491
 20
31.2749496243
 10
3.1857981111
 20
31.3057712382
 10
3.0072453984
 20
31.3472351093
 10
2.8230394601
 20
31.3860710757
 10
2.6339303042
 20
31.4221872874
 10
2.4403194183
 20
31.45558141
 10
2.2422377063
 20
31.4863020493
 10
2.0401832686
 20
31.5143038525
 10
1.8347214368
 20
31.5395499271
 10
1.6259247751
 20
31.5620608528
 10
1.4143110529
 20
31.5817932761
 10
1.2004313211
 20
31.5987219072
 10
0.9843560055
 20
31.6128585202
 10
0.7666050288
 20
31.6241717086
 10
0.547715739
 20
31.632650524
 10
0.3277502654
 20
31.6383012748
 10
0.1072345763
 20
31.6411052491
 10
-0.1133022938
 20
31.6410655529
 10
-0.3338057584
 20
31.6381840432
 10
-0.5537451721
 20
31.6324560194
 10
-0.772595745
 20
31.6238986259
 10
-0.9902992179
 20
31.6125088465
 10
-1.2063153672
 20
31.5982962396
 10
-1.4201235373
 20
31.5812909998
 10
-1.6316588057
 20
31.5614838415
 10
-1.8403668657
 20
31.5388985708
 10
-2.0457272034
 20
31.5135779048
 10
-2.2476703284
 20
31.4855036174
 10
-2.4456230561
 20
31.4547126833
 10
-2.639086301
 20
31.4212499484
 10
-2.8280362231
 20
31.385067226
 10
-3.0120755513
 20
31.3461654641
 10
-3.1904546102
 20
31.3046358001
 10
-3.3081342016
 20
31.2749482018
  0
LINE
  5
2CB
100
AcDbEntity
  8
RACCORDO
100
AcDbLine
 62
7
  6
CONTINUOUS
 10
3.3081287491
 20
31.2749496243
 11
3.3080661653
 21
31.2749659421
  0
LWPOLYLINE
  5
2CC
100
AcDbEntity
  8
RACCORDO
100
AcDbPolyline
 62
250
  6
CONTINUOUS
 90
28
 70
0
 10
3.1998124041
 20
31.2796069353
 10
3.8842761339
 20
31.1000000433
 10
4.5490392251
 20
30.919260499
 10
5.1955385747
 20
30.7376034546
 10
5.8225502736
 20
30.5561908442
 10
6.434488275
 20
30.3742344888
 10
7.0401616642
 20
30.1887164364
 10
7.6422287627
 20
29.9984474086
 10
8.2386382998
 20
29.8042176372
 10
8.8300142653
 20
29.6056983429
 10
9.4168858244
 20
29.4026151939
 10
9.9996074093
 20
29.1947760451
 10
10.5785331664
 20
28.9819434489
 10
11.1541510484
 20
28.7638155961
 10
11.7269677107
 20
28.5400994832
 10
12.2974133273
 20
28.3105389486
 10
12.8672636365
 20
28.0742981948
 10
13.4357367689
 20
27.8314191032
 10
13.9998340323
 20
27.5830572196
 10
14.5562868426
 20
27.3306439282
 10
15.1104017329
 20
27.0721567847
 10
15.6716195311
 20
26.8032892999
 10
16.2417157167
 20
26.5219117261
 10
16.8187447918
 20
26.228435178
 10
17.4058756915
 20
25.9217859795
 10
18.0042321669
 20
25.6007757275
 10
18.6127069398
 20
25.2642724729
 10
19.2311545957
 20
24.9110448101
  0
LWPOLYLINE
  5
2CD
100
AcDbEntity
  8
RACCORDO
100
AcDbPolyline
 62
250
  6
CONTINUOUS
 90
5
 70
0
 10
19.341891799
 20
24.8884115656
 10
19.3186647566
 20
24.8995334074
 10
19.2912835188
 20
24.9076483894
 10
19.2620214614
 20
24.9114976257
 10
19.2311545957
 20
24.9110448101
  0
LWPOLYLINE
  5
2CE
100
AcDbEntity
  8
RACCORDO
100
AcDbPolyline
 62
7
  6
CONTINUOUS
 90
16
 70
0
 10
19.341891799
 20
24.8884115656
 10
18.4454329196
 20
25.3956855674
 10
17.4762529451
 20
25.920987679
 10
16.4873979626
 20
26.4324301398
 10
15.47937734
 20
26.9287851469
 10
14.4527092123
 20
27.4090445858
 10
13.4079212891
 20
27.8724832695
 10
12.3454964831
 20
28.3186593043
 10
11.2658888794
 20
28.747387948
 10
10.1695131436
 20
29.1587388715
 10
9.0566906315
 20
29.553005887
 10
7.9276760903
 20
29.9306753155
 10
6.7826963928
 20
30.2923614747
 10
5.6218911883
 20
30.6388050323
 10
4.4453059626
 20
30.9708354457
 10
3.3080661653
 20
31.2749659421
  0
LWPOLYLINE
  5
2CF
100
AcDbEntity
  8
RACCORDO
100
AcDbPolyline
 62
250
  6
CONTINUOUS
 90
49
 70
0
 10
19.2311545957
 20
24.9110448101
 10
19.850077583
 20
24.5417964178
 10
20.4477468023
 20
24.1610522412
 10
21.0235220691
 20
23.7692198833
 10
21.5767871575
 20
23.3667184325
 10
22.106948845
 20
22.9539791765
 10
22.6134377735
 20
22.5314452381
 10
23.0957112614
 20
22.0995693646
 10
23.55325321
 20
21.6588137435
 10
23.985573275
 20
21.2096507642
 10
24.3922082853
 20
20.7525617661
 10
24.7727232003
 20
20.2880358995
 10
25.126711067
 20
19.8165699846
 10
25.4537929981
 20
19.3386685446
 10
25.7536184576
 20
18.8548436357
 10
26.0258661597
 20
18.3656136928
 10
26.2702445142
 20
17.8715027674
 10
26.486491949
 20
17.3730398057
 10
26.6743769711
 20
16.8707584266
 10
26.833698401
 20
16.3651964163
 10
26.9642855985
 20
15.8568952115
 10
27.0659987105
 20
15.3463991708
 10
27.1387288196
 20
14.8342549716
 10
27.1823980524
 20
14.3210110074
 10
27.1969596493
 20
13.8072168567
 10
27.1823980167
 20
13.293422701
 10
27.138728747
 20
12.7801787277
 10
27.0659986006
 20
12.2680345241
 10
26.9642854529
 20
11.7575384888
 10
26.8336982213
 20
11.2492372942
 10
26.6743767577
 20
10.7436752928
 10
26.4864917013
 20
10.24139392
 10
26.2702442319
 20
9.7429309634
 10
26.0258658417
 20
9.248820041
 10
25.7536181003
 20
8.7595900955
 10
25.453792599
 20
8.2757651822
 10
25.1267106301
 20
7.7978637455
 10
24.7727227324
 20
7.3263978432
 10
24.3922077928
 20
6.8618719963
 10
23.9855727691
 20
6.4047830283
 10
23.5532527276
 20
5.955620113
 10
23.0957108198
 20
5.5148645642
 10
22.6134373147
 20
5.0829887044
 10
22.1069481991
 20
4.6604546421
 10
21.5767862386
 20
4.247715215
 10
21.0235210299
 20
3.8452137246
 10
20.4477459027
 20
3.4533815055
 10
19.8500770236
 20
3.0726375764
 10
19.2311545957
 20
2.7033895289
  0
LWPOLYLINE
  5
2D0
100
AcDbEntity
  8
ASSI
100
AcDbPolyline
 62
7
  6
CONTINUOUS
 90
11
 70
0
 10
8.0963726446
 20
-36.568866203
 10
8.1836020459
 20
-36.5150918657
 10
8.2645534348
 20
-36.4581386241
 10
8.3388801653
 20
-36.3982503607
 10
8.4062639587
 20
-36.3356835264
 10
8.4664162673
 20
-36.2707060418
 10
8.5190795097
 20
-36.2035961505
 10
8.5640281738
 20
-36.1346412274
 10
8.6010697825
 20
-36.0641365481
 10
8.6300457181
 20
-35.9923840244
 10
8.6420223873
 20
-35.9541894799
  0
LWPOLYLINE
  5
2D1
100
AcDbEntity
  8
ASSI
100
AcDbPolyline
 62
7
  6
CONTINUOUS
 90
35
 70
0
 10
8.0963726446
 20
-36.568866203
 10
8.0032387607
 20
-36.619231366
 10
7.9045992078
 20
-36.6659716835
 10
7.8008763757
 20
-36.7088870061
 10
7.6925144213
 20
-36.7477935639
 10
7.5799773672
 20
-36.782524753
 10
7.4637471144
 20
-36.8129318491
 10
7.3443213786
 20
-36.8388846444
 10
7.2222115592
 20
-36.8602720051
 10
7.0979405492
 20
-36.8770023471
 10
6.9720404961
 20
-36.8890040286
 10
6.8450505233
 20
-36.8962256565
 10
6.7175144213
 20
-36.8986363067
 10
6.5899783193
 20
-36.8962256565
 10
6.4629883464
 20
-36.8890040286
 10
6.3370882933
 20
-36.8770023471
 10
6.2128172833
 20
-36.8602720051
 10
6.0907074639
 20
-36.8388846444
 10
5.9712817282
 20
-36.8129318491
 10
5.8550514753
 20
-36.782524753
 10
5.7425144213
 20
-36.7477935639
 10
5.6341524669
 20
-36.7088870061
 10
5.5304296347
 20
-36.6659716835
 10
5.4317900818
 20
-36.619231366
 10
5.338656198
 20
-36.568866203
 10
5.2514267967
 20
-36.5150918657
 10
5.1704754077
 20
-36.4581386241
 10
5.0961486773
 20
-36.3982503607
 10
5.0287648839
 20
-36.3356835264
 10
4.9686125753
 20
-36.2707060418
 10
4.9159493329
 20
-36.2035961505
 10
4.8710006688
 20
-36.1346412274
 10
4.83395906
 20
-36.0641365481
 10
4.8049831245
 20
-35.9923840244
 10
4.7930064553
 20
-35.9541894799
  0
ARC
  5
2D2
100
AcDbEntity
  8
ASSI
100
AcDbCircle
 62
7
  6
CONTINUOUS
 10
6.7175144213
 20
-35.4098834182
 40
2.0
100
AcDbArc
 50
195.7924249866
 51
344.2075750134
  0
ARC
  5
2D3
100
AcDbEntity
  8
ASSI
100
AcDbCircle
 62
7
  6
CONTINUOUS
 10
-6.7175144213
 20
-27.6526661449
 40
2.0
100
AcDbArc
 50
195.7924249866
 51
344.2075750134
  0
ENDSEC
  0
SECTION
  2
OBJECTS
  0
DICTIONARY
  5
C
100
AcDbDictionary
280
0
281
1
  3
ACAD_GROUP
350
D
  3
ACAD_MLINESTYLE
350
17
  3
ACAD_LAYOUT
350
1A
  3
ACAD_PLOTSETTINGS
350
19
  3
ACAD_PLOTSTYLENAME
350
E
  0
DICTIONARY
  5
D
102
{ACAD_REACTORS
330
C
102
}
100
AcDbDictionary
280
0
281
1
  0
ACDBDICTIONARYWDFLT
  5
E
102
{ACAD_REACTORS
330
C
102
}
100
AcDbDictionary
281
1
  3
Normal
350
F
100
AcDbDictionaryWithDefault
340
F
  0
DICTIONARY
  5
17
102
{ACAD_REACTORS
330
C
102
}
100
AcDbDictionary
280
0
281
1
  3
Standard
350
18
  0
DICTIONARY
  5
19
102
{ACAD_REACTORS
330
C
102
}
100
AcDbDictionary
281
1
  0
DICTIONARY
  5
1A
102
{ACAD_REACTORS
330
C
102
}
100
AcDbDictionary
281
1
  3
Model
350
2D4
  3
Layout1
350
2D5
  0
ACDBPLACEHOLDER
  5
F
102
{ACAD_REACTORS
330
E
102
}
  0
MLINESTYLE
  5
18
102
{ACAD_REACTORS
330
17
102
}
100
AcDbMlineStyle
  2
STANDARD
 70
0
  3

 62
256
 51
90.0
 52
90.0
 71
2
 49
0.5
 62
256
  6
BYLAYER
 49
-0.5
 62
256
  6
BYLAYER
  0
LAYOUT
  5
2D4
102
{ACAD_REACTORS
330
1A
102
}
100
AcDbPlotSettings
  1

  2
none_device
  4
ANSI_C_(22.00_x_17.00_Inches)
  6

 40
0.0
 41
0.0
 42
0.0
 43
0.0
 44
558.8
 45
431.8
 46
0.0
 47
0.0
 48
0.0
 49
0.0
140
0.0
141
0.0
142
1.0
143
1.0
 70
1024
 72
1
 73
0
 74
0
  7

 75
0
147
1.0
148
0.0
149
0.0
100
AcDbLayout
  1
Model
 70
0
 71
0
 10
0.0
 20
0.0
 11
558.8
 21
431.8
 12
0.0
 22
0.0
 32
0.0
 14
0.0
 24
0.0
 34
0.0
 15
0.0
 25
0.0
 35
0.0
146
0.0
 13
0.0
 23
0.0
 33
0.0
 16
1.0
 26
0.0
 36
0.0
 17
0.0
 27
1.0
 37
0.0
 76
0
330
212
345
0
346
0
  0
LAYOUT
  5
2D5
102
{ACAD_REACTORS
330
1A
102
}
100
AcDbPlotSettings
  1

  2
none_device
  4
ANSI_C_(22.00_x_17.00_Inches)
  6

 40
0.0
 41
0.0
 42
0.0
 43
0.0
 44
558.8
 45
431.8
 46
0.0
 47
0.0
 48
0.0
 49
0.0
140
0.0
141
0.0
142
1.0
143
1.0
 70
0
 72
1
 73
0
 74
0
  7

 75
0
147
1.0
148
0.0
149
0.0
100
AcDbLayout
  1
Layout1
 70
0
 71
1
 10
0.0
 20
0.0
 11
558.8
 21
431.8
 12
0.0
 22
0.0
 32
0.0
 14
0.0
 24
0.0
 34
0.0
 15
0.0
 25
0.0
 35
0.0
146
0.0
 13
0.0
 23
0.0
 33
0.0
 16
1.0
 26
0.0
 36
0.0
 17
0.0
 27
1.0
 37
0.0
 76
0
330
213
345
0
346
0
  0
ENDSEC
  0
EOF
