  0
SECTION
  2
HEADER
  9
$ACADVER
  1
AC1015
  9
$DWGCODEPAGE
  3
ANSI_1252
  9
$EXTMAX
 10
297.0
 20
210.0
 30
0.0
  9
$EXTMIN
 10
0.0
 20
0.0
 30
0.0
  9
$LIMMIN
 10
0.0
 20
0.0
  9
$LIMMAX
 10
297.0
 20
210.0
  9
$VIEWCTR
 10
148.5
 20
105.0
  9
$VIEWSIZE
 40
210.0
  9
$CLAYER
  8
0
  9
$LTSCALE
 40
16.335
  9
$CELTYPE
  6
BYLAYER
  9
$DIMSCALE
 40
1.0
  9
$DIMASZ
 40
3.0
  9
$DIMEXO
 40
0.5
  9
$DIMDLI
 40
11.286
  9
$DIMEXE
 40
1.5
  9
$DIMCEN
 40
2.673
  9
$DIMLFAC
 40
1.0
  9
$DIMBLK
  1
_FILLED
  9
$DIMTXT
 40
3.0
  9
$DIMTOL
 70
1
  9
$DIMLIM
 70
0
  9
$DIMTFAC
 40
1.0
  9
$DIMTP
 40
0.01
  9
$DIMTM
 40
0.01
  9
$DIMGAP
 40
0.625
  9
$DIMDSEP
 70
44
  9
$PDMODE
 70
3
  9
$PDSIZE
 40
3.0
  9
$HANDSEED
  5
3B2
  9
$TILEMODE
 70
1
  9
$MEASUREMENT
 70
1
  9
$INSUNITS
 70
4
  0
ENDSEC
  0
SECTION
  2
CLASSES
  0
CLASS
  1
ACDBDICTIONARYWDFLT
  2
AcDbDictionaryWithDefault
  3
AutoCAD 2000
 90
0
280
0
281
0
  0
CLASS
  1
ACDBPLACEHOLDER
  2
AcDbPlaceHolder
  3
AutoCAD 2000
 90
0
280
0
281
0
  0
CLASS
  1
LAYOUT
  2
AcDbLayout
  3
AutoCAD 2000
 90
0
280
0
281
0
  0
ENDSEC
  0
SECTION
  2
TABLES
  0
TABLE
  2
VPORT
  5
8
100
AcDbSymbolTable
 70
2
  0
VPORT
  5
1F4
100
AcDbSymbolTableRecord
100
AcDbViewportTableRecord
  2
*ACTIVE
 70
0
 10
0.0
 20
0.0
 11
1.0
 21
1.0
 12
148.5
 22
105.0
 13
0.0
 23
0.0
 14
1.0
 24
1.0
 15
0.0
 25
0.0
 16
0.0
 26
0.0
 36
1.0
 17
0.0
 27
0.0
 37
0.0
 40
210.0
 41
1.4142857143
 42
50.0
 43
0.0
 44
0.0
 50
0.0
 51
0.0
 71
0
 72
100
 73
1
 74
1
 75
0
 76
0
 77
0
 78
0
  0
ENDTAB
  0
TABLE
  2
LTYPE
  5
5
100
AcDbSymbolTable
 70
6
  0
LTYPE
  5
14
100
AcDbSymbolTableRecord
100
AcDbLinetypeTableRecord
  2
BYBLOCK
 70
0
  3

 72
65
 73
0
 40
0.0
  0
LTYPE
  5
15
100
AcDbSymbolTableRecord
100
AcDbLinetypeTableRecord
  2
BYLAYER
 70
0
  3

 72
65
 73
0
 40
0.0
  0
LTYPE
  5
16
100
AcDbSymbolTableRecord
100
AcDbLinetypeTableRecord
  2
CONTINUOUS
 70
64
  3
Solid line
 72
65
 73
0
 40
0.0
  0
LTYPE
  5
1F5
100
AcDbSymbolTableRecord
100
AcDbLinetypeTableRecord
  2
CENTER
 70
64
  3
____ _ ____ _ ____ _ ____ _ ____ _ ____ _ ____
 72
65
 73
4
 40
0.6
 49
0.375
 74
0
 49
-0.075
 74
0
 49
0.075
 74
0
 49
-0.075
 74
0
  0
LTYPE
  5
1F6
100
AcDbSymbolTableRecord
100
AcDbLinetypeTableRecord
  2
HIDDEN
 70
64
  3
- - - - - - - - - - - - - - - - - - - -
 72
65
 73
2
 40
0.2
 49
0.1
 74
0
 49
-0.1
 74
0
  0
LTYPE
  5
1F7
100
AcDbSymbolTableRecord
100
AcDbLinetypeTableRecord
  2
PHANTOM
 70
64
  3
_____ _ _ _____ _ _ _____ _ _ _____
 72
65
 73
6
 40
0.8
 49
0.45
 74
0
 49
-0.05
 74
0
 49
0.1
 74
0
 49
-0.05
 74
0
 49
0.1
 74
0
 49
-0.05
 74
0
  0
LTYPE
  5
1F8
100
AcDbSymbolTableRecord
100
AcDbLinetypeTableRecord
  2
DOT
 70
64
  3
. . . . . . . . . . . . . . . . . . . .
 72
65
 73
2
 40
0.2
 49
0.1
 74
0
 49
-0.1
 74
0
  0
LTYPE
  5
1F9
100
AcDbSymbolTableRecord
100
AcDbLinetypeTableRecord
  2
DASHED
 70
64
  3
- - - - - - - - - - - - - - - - - - - -
 72
65
 73
2
 40
0.2
 49
0.1
 74
0
 49
-0.1
 74
0
  0
ENDTAB
  0
TABLE
  2
LAYER
  5
2
100
AcDbSymbolTable
 70
36
  0
LAYER
  5
10
100
AcDbSymbolTableRecord
100
AcDbLayerTableRecord
  2
0
 70
0
 62
7
  6
CONTINUOUS
370
-3
390
F
  0
LAYER
  5
1FA
100
AcDbSymbolTableRecord
100
AcDbLayerTableRecord
  2
DEFAULT_1
 70
0
 62
7
  6
CENTER
370
-3
390
F
  0
LAYER
  5
1FB
100
AcDbSymbolTableRecord
100
AcDbLayerTableRecord
  2
DEFAULT_2
 70
0
 62
7
  6
HIDDEN
370
-3
390
F
  0
LAYER
  5
1FC
100
AcDbSymbolTableRecord
100
AcDbLayerTableRecord
  2
DEFAULT_3
 70
0
 62
7
  6
PHANTOM
370
-3
390
F
  0
LAYER
  5
1FD
100
AcDbSymbolTableRecord
100
AcDbLayerTableRecord
  2
218
 70
0
 62
7
  6
CONTINUOUS
370
-3
390
F
  0
LAYER
  5
1FE
100
AcDbSymbolTableRecord
100
AcDbLayerTableRecord
  2
260
 70
0
 62
7
  6
CONTINUOUS
370
-3
390
F
  0
LAYER
  5
1FF
100
AcDbSymbolTableRecord
100
AcDbLayerTableRecord
  2
268
 70
0
 62
7
  6
CONTINUOUS
370
-3
390
F
  0
LAYER
  5
200
100
AcDbSymbolTableRecord
100
AcDbLayerTableRecord
  2
284
 70
0
 62
7
  6
CONTINUOUS
370
-3
390
F
  0
LAYER
  5
201
100
AcDbSymbolTableRecord
100
AcDbLayerTableRecord
  2
320
 70
0
 62
7
  6
CONTINUOUS
370
-3
390
F
  0
LAYER
  5
202
100
AcDbSymbolTableRecord
100
AcDbLayerTableRecord
  2
340
 70
0
 62
7
  6
CONTINUOUS
370
-3
390
F
  0
LAYER
  5
203
100
AcDbSymbolTableRecord
100
AcDbLayerTableRecord
  2
712
 70
0
 62
7
  6
CONTINUOUS
370
-3
390
F
  0
LAYER
  5
204
100
AcDbSymbolTableRecord
100
AcDbLayerTableRecord
  2
715
 70
0
 62
7
  6
CONTINUOUS
370
-3
390
F
  0
LAYER
  5
205
100
AcDbSymbolTableRecord
100
AcDbLayerTableRecord
  2
ASSI
 70
0
 62
7
  6
CONTINUOUS
370
-3
390
F
  0
LAYER
  5
206
100
AcDbSymbolTableRecord
100
AcDbLayerTableRecord
  2
COLORE_TOP
 70
0
 62
7
  6
CONTINUOUS
370
-3
390
F
  0
LAYER
  5
207
100
AcDbSymbolTableRecord
100
AcDbLayerTableRecord
  2
COORDINATE
 70
0
 62
7
  6
CONTINUOUS
370
-3
390
F
  0
LAYER
  5
208
100
AcDbSymbolTableRecord
100
AcDbLayerTableRecord
  2
COORD_ORIGINE
 70
0
 62
7
  6
CONTINUOUS
370
-3
390
F
  0
LAYER
  5
209
100
AcDbSymbolTableRecord
100
AcDbLayerTableRecord
  2
COPY-PUBBLISH
 70
0
 62
7
  6
CONTINUOUS
370
-3
390
F
  0
LAYER
  5
20A
100
AcDbSymbolTableRecord
100
AcDbLayerTableRecord
  2
COSMETICHE
 70
0
 62
7
  6
CONTINUOUS
370
-3
390
F
  0
LAYER
  5
20B
100
AcDbSymbolTableRecord
100
AcDbLayerTableRecord
  2
CURVE
 70
0
 62
7
  6
CONTINUOUS
370
-3
390
F
  0
LAYER
  5
20C
100
AcDbSymbolTableRecord
100
AcDbLayerTableRecord
  2
DRAFT
 70
0
 62
7
  6
CONTINUOUS
370
-3
390
F
  0
LAYER
  5
20D
100
AcDbSymbolTableRecord
100
AcDbLayerTableRecord
  2
IMPORT
 70
0
 62
7
  6
CONTINUOUS
370
-3
390
F
  0
LAYER
  5
20E
100
AcDbSymbolTableRecord
100
AcDbLayerTableRecord
  2
IMPORTED
 70
0
 62
7
  6
CONTINUOUS
370
-3
390
F
  0
LAYER
  5
20F
100
AcDbSymbolTableRecord
100
AcDbLayerTableRecord
  2
INCISIONI_LASER
 70
0
 62
7
  6
CONTINUOUS
370
-3
390
F
  0
LAYER
  5
210
100
AcDbSymbolTableRecord
100
AcDbLayerTableRecord
  2
INTF_11
 70
0
 62
7
  6
CONTINUOUS
370
-3
390
F
  0
LAYER
  5
211
100
AcDbSymbolTableRecord
100
AcDbLayerTableRecord
  2
NOTE
 70
0
 62
7
  6
CONTINUOUS
370
-3
390
F
  0
LAYER
  5
212
100
AcDbSymbolTableRecord
100
AcDbLayerTableRecord
  2
PIANI
 70
0
 62
7
  6
CONTINUOUS
370
-3
390
F
  0
LAYER
  5
213
100
AcDbSymbolTableRecord
100
AcDbLayerTableRecord
  2
PIANI_DI_RIFERIMENTO
 70
0
 62
7
  6
CONTINUOUS
370
-3
390
F
  0
LAYER
  5
214
100
AcDbSymbolTableRecord
100
AcDbLayerTableRecord
  2
PIANI_ORIGINE
 70
0
 62
7
  6
CONTINUOUS
370
-3
390
F
  0
LAYER
  5
215
100
AcDbSymbolTableRecord
100
AcDbLayerTableRecord
  2
PIANI_RIFERIMENTO
 70
0
 62
7
  6
CONTINUOUS
370
-3
390
F
  0
LAYER
  5
216
100
AcDbSymbolTableRecord
100
AcDbLayerTableRecord
  2
PIANI_SFORMO
 70
0
 62
7
  6
CONTINUOUS
370
-3
390
F
  0
LAYER
  5
217
100
AcDbSymbolTableRecord
100
AcDbLayerTableRecord
  2
PUNTI
 70
0
 62
7
  6
CONTINUOUS
370
-3
390
F
  0
LAYER
  5
218
100
AcDbSymbolTableRecord
100
AcDbLayerTableRecord
  2
RACCORDO
 70
0
 62
7
  6
CONTINUOUS
370
-3
390
F
  0
LAYER
  5
219
100
AcDbSymbolTableRecord
100
AcDbLayerTableRecord
  2
RINTRACCIABILITA
 70
0
 62
7
  6
CONTINUOUS
370
-3
390
F
  0
LAYER
  5
21A
100
AcDbSymbolTableRecord
100
AcDbLayerTableRecord
  2
SMUSSO
 70
0
 62
7
  6
CONTINUOUS
370
-3
390
F
  0
LAYER
  5
21B
100
AcDbSymbolTableRecord
100
AcDbLayerTableRecord
  2
SNAPLINE
 70
0
 62
7
  6
CONTINUOUS
370
-3
390
F
  0
LAYER
  5
21C
100
AcDbSymbolTableRecord
100
AcDbLayerTableRecord
  2
SUPERFICI
 70
0
 62
7
  6
CONTINUOUS
370
-3
390
F
  0
LAYER
  5
21D
100
AcDbSymbolTableRecord
100
AcDbLayerTableRecord
  2
TRASH
 70
0
 62
7
  6
CONTINUOUS
370
-3
390
F
  0
LAYER
  5
21E
100
AcDbSymbolTableRecord
100
AcDbLayerTableRecord
  2
XSEC_DATUMS
 70
0
 62
7
  6
CONTINUOUS
370
-3
390
F
  0
ENDTAB
  0
TABLE
  2
STYLE
  5
3
100
AcDbSymbolTable
 70
1
  0
STYLE
  5
11
100
AcDbSymbolTableRecord
100
AcDbTextStyleTableRecord
  2
STANDARD
 70
0
 40
0.0
 41
0.8
 50
0.0
 71
0
 42
0.2
  3
txt
  4

  0
STYLE
  5
21F
100
AcDbSymbolTableRecord
100
AcDbTextStyleTableRecord
  2
TEXTSTYLE_1
 70
0
 40
0.0
 41
0.8
 50
0.0
 71
0
 42
0.2
  3
gdt
  4

  0
ENDTAB
  0
TABLE
  2
VIEW
  5
6
100
AcDbSymbolTable
 70
0
  0
ENDTAB
  0
TABLE
  2
UCS
  5
7
100
AcDbSymbolTable
 70
0
  0
ENDTAB
  0
TABLE
  2
APPID
  5
9
100
AcDbSymbolTable
 70
1
  0
APPID
  5
220
100
AcDbSymbolTableRecord
100
AcDbRegAppTableRecord
  2
ACAD
 70
0
  0
ENDTAB
  0
TABLE
  2
BLOCK_RECORD
  5
1
100
AcDbSymbolTable
 70
0
  0
BLOCK_RECORD
  5
221
100
AcDbSymbolTableRecord
100
AcDbBlockTableRecord
  2
*Model_Space
  0
BLOCK_RECORD
  5
222
100
AcDbSymbolTableRecord
100
AcDbBlockTableRecord
  2
*Paper_Space
  0
ENDTAB
  0
TABLE
  2
DIMSTYLE
  5
A
100
AcDbSymbolTable
 70
1
100
AcDbDimStyleTable
 71
0
  0
DIMSTYLE
105
223
100
AcDbSymbolTableRecord
100
AcDbDimStyleTableRecord
  2
STANDARD
 70
0
  3

  4

 40
1.0
 41
3.0
 42
0.5
 43
0.38
 44
1.5
 45
0.0
 46
0.0
 47
0.01
 48
0.01
140
3.0
141
0.09
142
0.0
143
25.4
144
1.0
145
0.0
146
1.0
147
0.625
 71
1.0
 72
0.0
 73
0
 74
0
 75
0
 76
0
 77
1
 78
8
170
0
171
2
172
0
173
0
174
0
175
0
176
0
177
0
178
0
270
2
271
2
272
2
273
2
274
2
275
0
280
0
281
0
282
0
283
1
284
8
285
0
286
0
287
3
288
0
340
11
278
44
  0
ENDTAB
  0
ENDSEC
  0
SECTION
  2
BLOCKS
  0
BLOCK
  5
20
100
AcDbEntity
  8
0
100
AcDbBlockBegin
  2
*Model_Space
 70
0
 10
0.0
 20
0.0
 30
0.0
  3
*Model_Space
  1

  0
ENDBLK
  5
21
100
AcDbEntity
  8
0
100
AcDbBlockEnd
  0
BLOCK
  5
1C
100
AcDbEntity
  8
0
100
AcDbBlockBegin
  2
*Paper_Space
 70
0
 10
0.0
 20
0.0
 30
0.0
  3
*Paper_Space
  1

  0
ENDBLK
  5
1D
100
AcDbEntity
  8
0
100
AcDbBlockEnd
  0
ENDSEC
  0
SECTION
  2
ENTITIES
  0
LWPOLYLINE
  5
224
100
AcDbEntity
  8
RACCORDO
100
AcDbPolyline
 62
253
  6
CONTINUOUS
 90
14
 70
0
 10
-20.7395702383
 20
-19.9565032508
 10
-20.7944720194
 20
-19.9238627482
 10
-20.845767053
 20
-19.8847657436
 10
-20.893211101
 20
-19.8394049676
 10
-20.9365929077
 20
-19.7879852792
 10
-20.9757012255
 20
-19.7307461848
 10
-21.0103273366
 20
-19.6679796055
 10
-21.0402950771
 20
-19.6000099888
 10
-21.0654529458
 20
-19.527186752
 10
-21.0856799279
 20
-19.4498629848
 10
-21.100882899
 20
-19.3684063621
 10
-21.1109862821
 20
-19.2832136523
 10
-21.1159352881
 20
-19.1947111587
 10
-21.1157035467
 20
-19.103336247
  0
LINE
  5
225
100
AcDbEntity
  8
268
100
AcDbLine
 62
7
  6
CONTINUOUS
 10
-13.5830445124
 20
23.1766455906
 11
-12.0002879092
 21
23.988629688
  0
LINE
  5
226
100
AcDbEntity
  8
268
100
AcDbLine
 62
7
  6
CONTINUOUS
 10
-14.0669996247
 20
21.4339451886
 11
-13.0547773406
 21
21.9508751513
  0
LINE
  5
227
100
AcDbEntity
  8
268
100
AcDbLine
 62
253
  6
CONTINUOUS
 10
-13.9094762184
 20
21.424511859
 11
-13.0547773406
 21
21.860996479
  0
LINE
  5
228
100
AcDbEntity
  8
268
100
AcDbLine
 62
7
  6
CONTINUOUS
 10
-11.9752231033
 20
22.3727348861
 11
-10.3739423125
 21
23.1754568896
  0
LINE
  5
229
100
AcDbEntity
  8
268
100
AcDbLine
 62
7
  6
CONTINUOUS
 10
-10.3739423125
 20
23.1754568896
 11
-9.8456751407
 21
23.4388957096
  0
LINE
  5
22A
100
AcDbEntity
  8
268
100
AcDbLine
 62
7
  6
CONTINUOUS
 10
-12.0002879092
 20
23.988629688
 11
-11.4658380305
 21
24.2489771545
  0
LWPOLYLINE
  5
22B
100
AcDbEntity
  8
RACCORDO
100
AcDbPolyline
 62
7
  6
CONTINUOUS
 90
12
 70
0
 10
-6.3932133218
 20
-27.1297368922
 10
-6.3670754394
 20
-27.1423968358
 10
-6.2851821442
 20
-27.1766817847
 10
-6.2002974658
 20
-27.2042739881
 10
-6.1128535364
 20
-27.22493614
 10
-6.0230095211
 20
-27.2384928287
 10
-5.9312954425
 20
-27.2447185124
 10
-5.8383173913
 20
-27.2434464737
 10
-5.7442479882
 20
-27.2345199158
 10
-5.6494612857
 20
-27.2177703572
 10
-5.5546475876
 20
-27.1931616705
 10
-5.537930773
 20
-27.1879950105
  0
LINE
  5
22C
100
AcDbEntity
  8
RACCORDO
100
AcDbLine
 62
7
  6
CONTINUOUS
 10
-20.732423064
 20
-19.9601425795
 11
-6.3922441534
 21
-27.1302320348
  0
LINE
  5
22D
100
AcDbEntity
  8
RACCORDO
100
AcDbLine
 62
253
  6
CONTINUOUS
 10
-21.1157035467
 20
-19.103336247
 11
-6.787223212
 21
-26.2675764143
  0
LINE
  5
22E
100
AcDbEntity
  8
RACCORDO
100
AcDbLine
 62
7
  6
CONTINUOUS
 10
-6.393117225
 20
-27.1297946519
 11
-6.3922860953
 21
-27.1302110639
  0
LINE
  5
22F
100
AcDbEntity
  8
RACCORDO
100
AcDbLine
 62
253
  6
CONTINUOUS
 10
-20.732423064
 20
-19.9601425795
 11
-20.7395702383
 21
-19.9565032508
  0
LWPOLYLINE
  5
230
100
AcDbEntity
  8
268
100
AcDbPolyline
 62
7
  6
CONTINUOUS
 90
12
 70
0
 10
-2.4098164155
 20
24.6563596351
 10
-2.4161032069
 20
24.6530032615
 10
-2.4279576335
 20
24.6454989883
 10
-2.4396128135
 20
24.6366264771
 10
-2.4511084083
 20
24.6264413665
 10
-2.462399706
 20
24.6150102941
 10
-2.4735447724
 20
24.602363268
 10
-2.4846116518
 20
24.5885337318
 10
-2.495557771
 20
24.573564233
 10
-2.5064050722
 20
24.5574813058
 10
-2.5172435009
 20
24.5403130515
 10
-2.5281278688
 20
24.52209442
  0
LINE
  5
231
100
AcDbEntity
  8
268
100
AcDbLine
 62
7
  6
CONTINUOUS
 10
-11.4407732246
 20
20.9048248325
 11
-10.3739423125
 21
21.443406082
  0
LINE
  5
232
100
AcDbEntity
  8
268
100
AcDbLine
 62
7
  6
CONTINUOUS
 10
-8.918161336
 20
21.4150646857
 11
-2.4101247093
 21
24.6562062913
  0
LINE
  5
233
100
AcDbEntity
  8
268
100
AcDbLine
 62
253
  6
CONTINUOUS
 10
-8.8426681955
 20
21.3773181155
 11
-2.5281278688
 21
24.52209442
  0
LINE
  5
234
100
AcDbEntity
  8
218
100
AcDbLine
 62
7
  6
CONTINUOUS
 10
4.1959512121
 20
27.1452406833
 11
-1.7111414187
 21
24.3594721631
  0
LWPOLYLINE
  5
235
100
AcDbEntity
  8
218
100
AcDbPolyline
 62
7
  6
CONTINUOUS
 90
33
 70
0
 10
4.1959512121
 20
27.1452406833
 10
4.2116243816
 20
27.1523554197
 10
4.2273990216
 20
27.158967542
 10
4.2432663329
 20
27.1650759629
 10
4.259216472
 20
27.1706791947
 10
4.2752416122
 20
27.1757772532
 10
4.2913359838
 20
27.1803715801
 10
4.3074907114
 20
27.1844618654
 10
4.323697
 20
27.1880481394
 10
4.3399492431
 20
27.191132565
 10
4.3562385712
 20
27.1937154272
 10
4.3725562266
 20
27.1957973556
 10
4.3888968148
 20
27.1973812545
 10
4.4052515028
 20
27.1984679957
 10
4.4216115978
 20
27.199058792
 10
4.4379719664
 20
27.1991572927
 10
4.4543238447
 20
27.1987649432
 10
4.4706586337
 20
27.19788352
 10
4.486971507
 20
27.1965174038
 10
4.5032538038
 20
27.1946685966
 10
4.5194970475
 20
27.1923394153
 10
4.5356967598
 20
27.1895349438
 10
4.5518444149
 20
27.1862577191
 10
4.5679316886
 20
27.182510572
 10
4.5839544877
 20
27.1782992481
 10
4.5999044597
 20
27.1736267926
 10
4.615773454
 20
27.1684965214
 10
4.6315577771
 20
27.1629147961
 10
4.6472492727
 20
27.1568851431
 10
4.6628399967
 20
27.1504113326
 10
4.6783266808
 20
27.1435002839
 10
4.693701396
 20
27.1361559733
 10
4.6968242132
 20
27.1346043103
  0
LWPOLYLINE
  5
236
100
AcDbEntity
  8
RACCORDO
100
AcDbPolyline
 62
7
  6
CONTINUOUS
 90
19
 70
0
 10
-17.3583248876
 20
19.0325406243
 10
-17.3750856761
 20
19.0252226263
 10
-17.4657009326
 20
18.9806810641
 10
-17.5537013718
 20
18.9289826043
 10
-17.6390971372
 20
18.8701802784
 10
-17.7215147527
 20
18.8045848442
 10
-17.8002318027
 20
18.7328869857
 10
-17.8752849179
 20
18.6551564106
 10
-17.9465086746
 20
18.5715956264
 10
-18.0130087696
 20
18.4832955898
 10
-18.0747494476
 20
18.3904221137
 10
-18.1315874196
 20
18.2931532675
 10
-18.1826940283
 20
18.1929077602
 10
-18.2280127792
 20
18.0899354576
 10
-18.2673959885
 20
17.9844105935
 10
-18.300277869
 20
17.8778052138
 10
-18.3265111706
 20
17.770704855
 10
-18.3461088766
 20
17.662861192
 10
-18.3505466389
 20
17.6313226839
  0
LINE
  5
237
100
AcDbEntity
  8
RACCORDO
100
AcDbLine
 62
7
  6
CONTINUOUS
 10
-17.3583278699
 20
19.0325475946
 11
-17.3582434819
 21
19.0325837237
  0
LINE
  5
238
100
AcDbEntity
  8
RACCORDO
100
AcDbLine
 62
7
  6
CONTINUOUS
 10
-17.3582434819
 20
19.0325837237
 11
-13.400875884
 21
20.726246884
  0
LINE
  5
239
100
AcDbEntity
  8
RACCORDO
100
AcDbLine
 62
253
  6
CONTINUOUS
 10
-16.9990941307
 20
19.0099857301
 11
-13.0853998171
 21
20.6849577198
  0
LWPOLYLINE
  5
23A
100
AcDbEntity
  8
RACCORDO
100
AcDbPolyline
 62
253
  6
CONTINUOUS
 90
8
 70
0
 10
-17.3582434819
 20
19.0325837237
 10
-17.3484964928
 20
19.0365848385
 10
-17.2950449561
 20
19.0528999203
 10
-17.2388395935
 20
19.0609416212
 10
-17.1804956662
 20
19.0606219112
 10
-17.1206518453
 20
19.0519442901
 10
-17.0599632208
 20
19.035003749
 10
-16.9990941307
 20
19.0099857301
  0
LWPOLYLINE
  5
23B
100
AcDbEntity
  8
268
100
AcDbPolyline
 62
7
  6
CONTINUOUS
 90
3
 70
0
 10
-2.3913686771
 20
24.6638169778
 10
-2.4039336969
 20
24.659117927
 10
-2.4098164155
 20
24.6563596351
  0
LWPOLYLINE
  5
23C
100
AcDbEntity
  8
268
100
AcDbPolyline
 62
7
  6
CONTINUOUS
 90
10
 70
0
 10
-2.3913686771
 20
24.6638169778
 10
-2.3821290563
 20
24.6665627768
 10
-2.3735659024
 20
24.6688284953
 10
-2.3656792155
 20
24.6706141333
 10
-2.3584298572
 20
24.6719405379
 10
-2.3518569659
 20
24.6727868621
 10
-2.3460779565
 20
24.6730905648
 10
-2.3410969994
 20
24.672851229
 10
-2.3369099241
 20
24.6720692718
 10
-2.334320243
 20
24.6710728387
  0
LINE
  5
23D
100
AcDbEntity
  8
268
100
AcDbLine
 62
7
  6
CONTINUOUS
 10
3.6054946869
 20
-24.7888650986
 11
3.0782499712
 21
-24.6805728266
  0
LINE
  5
23E
100
AcDbEntity
  8
268
100
AcDbLine
 62
7
  6
CONTINUOUS
 10
-0.3288586517
 20
-25.7517770114
 11
1.2776774458
 21
-26.5550450602
  0
LINE
  5
23F
100
AcDbEntity
  8
268
100
AcDbLine
 62
253
  6
CONTINUOUS
 10
-0.3934521305
 20
-25.6167484702
 11
1.2123243317
 21
-26.4196367012
  0
LINE
  5
240
100
AcDbEntity
  8
268
100
AcDbLine
 62
253
  6
CONTINUOUS
 10
1.2123243317
 20
-26.1662653075
 11
-0.3934521305
 21
-25.3633770764
  0
LWPOLYLINE
  5
241
100
AcDbEntity
  8
RACCORDO
100
AcDbPolyline
 62
253
  6
CONTINUOUS
 90
9
 70
0
 10
-21.3500207662
 20
-18.8215170624
 10
-21.3484232778
 20
-18.8518963977
 10
-21.3388677101
 20
-18.8912441052
 10
-21.320958234
 20
-18.930115764
 10
-21.2948846037
 20
-18.9680995216
 10
-21.2609230741
 20
-19.004792933
 10
-21.2194334742
 20
-19.0398072248
 10
-21.1708553939
 20
-19.0727714137
 10
-21.1157035273
 20
-19.1033362382
  0
LWPOLYLINE
  5
242
100
AcDbEntity
  8
RACCORDO
100
AcDbPolyline
 62
7
  6
CONTINUOUS
 90
15
 70
0
 10
-21.3500146567
 20
-18.8215172482
 10
-21.3507746316
 20
-18.8720152267
 10
-21.3460401198
 20
-18.9908395375
 10
-21.3322153911
 20
-19.1057259656
 10
-21.3094608519
 20
-19.2165702036
 10
-21.278005506
 20
-19.3228459372
 10
-21.2384040736
 20
-19.4233425102
 10
-21.1914295471
 20
-19.5171716914
 10
-21.1374994061
 20
-19.6044056504
 10
-21.0769451763
 20
-19.685016152
 10
-21.0106378029
 20
-19.7583225289
 10
-20.9391474215
 20
-19.8242060379
 10
-20.8622102123
 20
-19.8831094568
 10
-20.7801105932
 20
-19.93473706
 10
-20.7314510636
 20
-19.9606169888
  0
LINE
  5
243
100
AcDbEntity
  8
RACCORDO
100
AcDbLine
 62
7
  6
CONTINUOUS
 10
-21.3500156068
 20
-18.8213493393
 11
-21.3500207662
 21
-18.8215170624
  0
LINE
  5
244
100
AcDbEntity
  8
268
100
AcDbLine
 62
7
  6
CONTINUOUS
 10
-10.2860681932
 20
22.1761903949
 11
-9.7588234775
 21
22.817898123
  0
LINE
  5
245
100
AcDbEntity
  8
268
100
AcDbLine
 62
7
  6
CONTINUOUS
 10
-8.1095478811
 20
21.0238998921
 11
-7.6162258659
 21
21.276983424
  0
LINE
  5
246
100
AcDbEntity
  8
268
100
AcDbLine
 62
7
  6
CONTINUOUS
 10
-1.5351075477
 20
23.6423508893
 11
-6.2727229816
 21
21.3073003747
  0
LINE
  5
247
100
AcDbEntity
  8
268
100
AcDbLine
 62
7
  6
CONTINUOUS
 10
-1.9593716164
 20
22.202919287
 11
-1.5351075477
 21
22.4105167079
  0
LINE
  5
248
100
AcDbEntity
  8
268
100
AcDbLine
 62
7
  6
CONTINUOUS
 10
0.4509620321
 20
23.0325494696
 11
-1.6058182258
 21
22.0261425918
  0
LINE
  5
249
100
AcDbEntity
  8
268
100
AcDbLine
 62
7
  6
CONTINUOUS
 10
-7.6162258659
 20
21.276983424
 11
-2.1385858764
 21
23.9453153872
  0
LINE
  5
24A
100
AcDbEntity
  8
268
100
AcDbLine
 62
253
  6
CONTINUOUS
 10
1.3012269077
 20
-25.9348282479
 11
-0.3055780112
 21
-25.1314257884
  0
LINE
  5
24B
100
AcDbEntity
  8
268
100
AcDbLine
 62
7
  6
CONTINUOUS
 10
-0.9554226707
 20
-23.8126645584
 11
1.3640302552
 21
-24.9723910213
  0
LINE
  5
24C
100
AcDbEntity
  8
268
100
AcDbLine
 62
7
  6
CONTINUOUS
 10
1.5142799435
 20
-24.9851363322
 11
1.9235449398
 21
-25.1897688304
  0
LINE
  5
24D
100
AcDbEntity
  8
268
100
AcDbLine
 62
7
  6
CONTINUOUS
 10
1.6115176286
 20
-24.7686187695
 11
-0.9295375443
 21
-23.4980911831
  0
LINE
  5
24E
100
AcDbEntity
  8
268
100
AcDbLine
 62
253
  6
CONTINUOUS
 10
3.0348276453
 20
-24.6588616637
 11
3.0782499712
 21
-24.6805728266
  0
LINE
  5
24F
100
AcDbEntity
  8
268
100
AcDbLine
 62
7
  6
CONTINUOUS
 10
2.424690427
 20
-24.2397476391
 11
-0.8556039319
 21
-22.5996004596
  0
LINE
  5
250
100
AcDbEntity
  8
268
100
AcDbLine
 62
253
  6
CONTINUOUS
 10
2.9903758519
 20
-24.4813056811
 11
3.6054946869
 21
-24.7888650986
  0
LINE
  5
251
100
AcDbEntity
  8
268
100
AcDbLine
 62
7
  6
CONTINUOUS
 10
2.9903758519
 20
-24.4776855316
 11
3.6287740602
 21
-24.7968846357
  0
LWPOLYLINE
  5
252
100
AcDbEntity
  8
RACCORDO
100
AcDbPolyline
 62
253
  6
CONTINUOUS
 90
13
 70
0
 10
-21.1157035467
 20
-19.103336247
 10
-21.0097582465
 20
-16.1244400682
 10
-20.8775245509
 20
-13.133292004
 10
-20.7190189048
 20
-10.1302733247
 10
-20.5342610575
 20
-7.1157668721
 10
-20.323274458
 20
-4.090156698
 10
-20.0860862489
 20
-1.053828014
 10
-19.822726872
 20
1.9928324697
 10
-19.5332296541
 20
5.0494365021
 10
-19.2176311953
 20
8.1155946562
 10
-18.8759717846
 20
11.1909163929
 10
-18.5082953989
 20
14.2750101101
 10
-18.1146492811
 20
17.3674831031
  0
LWPOLYLINE
  5
253
100
AcDbEntity
  8
RACCORDO
100
AcDbPolyline
 62
253
  6
CONTINUOUS
 90
10
 70
0
 10
-18.3505466389
 20
17.6313226839
 10
-18.3511793101
 20
17.6252879885
 10
-18.3494878322
 20
17.5930543996
 10
-18.3394035961
 20
17.5601236337
 10
-18.3210334448
 20
17.5268445936
 10
-18.2945720108
 20
17.4935698723
 10
-18.260299654
 20
17.460652017
 10
-18.2185794917
 20
17.4284397938
 10
-18.1698535505
 20
17.3972744926
 10
-18.114638084
 20
17.367486311
  0
LWPOLYLINE
  5
254
100
AcDbEntity
  8
RACCORDO
100
AcDbPolyline
 62
7
  6
CONTINUOUS
 90
13
 70
0
 10
-18.3505448146
 20
17.6314037491
 10
-18.7370352603
 20
14.5967928279
 10
-19.1063088279
 20
11.5026282779
 10
-19.4493941329
 20
8.417212669
 10
-19.7662385331
 20
5.3409870839
 10
-20.0568032472
 20
2.2743391298
 10
-20.3210532268
 20
-0.7823640123
 10
-20.5589531507
 20
-3.8287407215
 10
-20.7704730657
 20
-6.8644117394
 10
-20.9555851425
 20
-9.8890132416
 10
-21.1142620824
 20
-12.9021620902
 10
-21.2464822497
 20
-15.9034289349
 10
-21.3500156068
 20
-18.8213493393
  0
LWPOLYLINE
  5
255
100
AcDbEntity
  8
RACCORDO
100
AcDbPolyline
 62
253
  6
CONTINUOUS
 90
22
 70
0
 10
-18.1146492811
 20
17.3674831031
 10
-18.0993707072
 20
17.4646059498
 10
-18.0790635096
 20
17.5627556403
 10
-18.0538296655
 20
17.6614471381
 10
-18.0237988728
 20
17.760189491
 10
-17.9891190586
 20
17.8584988518
 10
-17.9499535862
 20
17.9559005777
 10
-17.9064920803
 20
18.0519263657
 10
-17.8589545121
 20
18.14608922
 10
-17.8075831703
 20
18.2378979545
 10
-17.752648773
 20
18.3268840747
 10
-17.6944169343
 20
18.412629314
 10
-17.6331482884
 20
18.494737184
 10
-17.5691344064
 20
18.5728177963
 10
-17.5027058533
 20
18.6464665081
 10
-17.4342011239
 20
18.7152943145
 10
-17.3639741752
 20
18.7789552788
 10
-17.2923665891
 20
18.8371484455
 10
-17.21971234
 20
18.8895917404
 10
-17.1463665141
 20
18.9360269958
 10
-17.072704198
 20
18.9762243507
 10
-16.9990941307
 20
19.0099857301
  0
LWPOLYLINE
  5
256
100
AcDbEntity
  8
218
100
AcDbPolyline
 62
7
  6
CONTINUOUS
 90
6
 70
0
 10
-2.6807316878
 20
20.7815405633
 10
-2.68227594
 20
20.780739491
 10
-2.6855381071
 20
20.7788465809
 10
-2.6886655889
 20
20.7767487778
 10
-2.6916552163
 20
20.7744483956
 10
-2.6924208447
 20
20.7738078248
  0
LINE
  5
257
100
AcDbEntity
  8
268
100
AcDbLine
 62
7
  6
CONTINUOUS
 10
-0.2080337193
 20
22.1724766557
 11
-1.6058182258
 21
21.4735844024
  0
LINE
  5
258
100
AcDbEntity
  8
218
100
AcDbLine
 62
7
  6
CONTINUOUS
 10
-2.6807092994
 20
20.7815517773
 11
-2.6191739221
 21
20.812319466
  0
LINE
  5
259
100
AcDbEntity
  8
218
100
AcDbLine
 62
253
  6
CONTINUOUS
 10
-2.5957677194
 20
20.7736208503
 11
-2.529731203
 21
20.8066391085
  0
LWPOLYLINE
  5
25A
100
AcDbEntity
  8
218
100
AcDbPolyline
 62
253
  6
CONTINUOUS
 90
55
 70
0
 10
-2.529731203
 20
20.8066391085
 10
-2.5139805629
 20
20.8143066299
 10
-2.4978515192
 20
20.8217515366
 10
-2.4813440721
 20
20.8289738289
 10
-2.4644448336
 20
20.8359787285
 10
-2.4471671915
 20
20.8427610137
 10
-2.4295513093
 20
20.8493050184
 10
-2.4115967508
 20
20.8556099764
 10
-2.3933039521
 20
20.8616766541
 10
-2.3747143849
 20
20.8674916844
 10
-2.3558274545
 20
20.8730544271
 10
-2.3366437556
 20
20.8783655225
 10
-2.3172065438
 20
20.8834135248
 10
-2.2975153474
 20
20.8881977863
 10
-2.2775706381
 20
20.8927189546
 10
-2.2574170869
 20
20.8969675266
 10
-2.2370542345
 20
20.9009428638
 10
-2.2164825402
 20
20.9046456046
 10
-2.1957480529
 20
20.9080681614
 10
-2.1748505419
 20
20.911209866
 10
-2.1537902379
 20
20.9140713865
 10
-2.132613882
 20
20.9166471401
 10
-2.1113213163
 20
20.9189364677
 10
-2.0899126988
 20
20.9209400283
 10
-2.0684352444
 20
20.9226542165
 10
-2.046888968
 20
20.9240783767
 10
-2.0252738547
 20
20.9252131645
 10
-2.0036370749
 20
20.9260569416
 10
-1.9819786801
 20
20.9266090686
 10
-1.9602986189
 20
20.9268701848
 10
-1.9386439064
 20
20.9268405701
 10
-1.9170147578
 20
20.9265196
 10
-1.895410958
 20
20.925907899
 10
-1.8738788767
 20
20.9250076194
 10
-1.8524187538
 20
20.9238181538
 10
-1.8310303494
 20
20.9223401097
 10
-1.8097593138
 20
20.9205774618
 10
-1.7886060451
 20
20.9185296296
 10
-1.7675701452
 20
20.9161971937
 10
-1.7466960701
 20
20.913585871
 10
-1.7259842923
 20
20.9106951124
 10
-1.7054343395
 20
20.907525467
 10
-1.6850892503
 20
20.9040842996
 10
-1.6649495648
 20
20.9003710927
 10
-1.645014743
 20
20.8963863638
 10
-1.6253262035
 20
20.8921390299
 10
-1.6058844177
 20
20.8876285696
 10
-1.5866889141
 20
20.8828555043
 10
-1.5677796977
 20
20.8778303147
 10
-1.5491572835
 20
20.8725524631
 10
-1.5308211564
 20
20.8670224872
 10
-1.5128097756
 20
20.8612524814
 10
-1.4951359606
 20
20.855246477
 10
-1.4777868918
 20
20.8490004426
 10
-1.4607625691
 20
20.8425143783
  0
LWPOLYLINE
  5
25B
100
AcDbEntity
  8
218
100
AcDbPolyline
 62
253
  6
CONTINUOUS
 90
17
 70
0
 10
-2.619173922
 20
20.812319466
 10
-2.6158230645
 20
20.813892793
 10
-2.610847155
 20
20.8158733045
 10
-2.6057168367
 20
20.8175065325
 10
-2.6004418755
 20
20.818789368
 10
-2.5950323126
 20
20.8197193691
 10
-2.5894984454
 20
20.8202947655
 10
-2.5838508078
 20
20.8205144619
 10
-2.5781001506
 20
20.8203780401
 10
-2.5722574204
 20
20.8198857598
 10
-2.5663337393
 20
20.819038558
 10
-2.5603403831
 20
20.8178380476
 10
-2.5542887608
 20
20.8162865137
 10
-2.5481903917
 20
20.8143869098
 10
-2.5420568847
 20
20.812142852
 10
-2.5358999151
 20
20.8095586118
 10
-2.529731203
 20
20.8066391085
  0
LINE
  5
25C
100
AcDbEntity
  8
268
100
AcDbLine
 62
7
  6
CONTINUOUS
 10
2.424690427
 20
-22.5898402015
 11
-0.7252039801
 21
-21.014892998
  0
LINE
  5
25D
100
AcDbEntity
  8
218
100
AcDbLine
 62
7
  6
CONTINUOUS
 10
-2.6924333526
 20
20.7737971782
 11
-3.6224592359
 21
19.9821685018
  0
LINE
  5
25E
100
AcDbEntity
  8
218
100
AcDbLine
 62
253
  6
CONTINUOUS
 10
-2.5957677194
 20
20.7736208503
 11
-3.5614336614
 21
19.9516557146
  0
LINE
  5
25F
100
AcDbEntity
  8
268
100
AcDbLine
 62
7
  6
CONTINUOUS
 10
-1.8927819242
 20
17.9155169137
 11
-1.3936861914
 21
18.1657135868
  0
LINE
  5
260
100
AcDbEntity
  8
268
100
AcDbLine
 62
7
  6
CONTINUOUS
 10
-1.3936861914
 20
18.1657135868
 11
4.0205865037
 21
20.8657291972
  0
LINE
  5
261
100
AcDbEntity
  8
268
100
AcDbLine
 62
7
  6
CONTINUOUS
 10
3.4146399207
 20
21.1674771551
 11
-1.3229755133
 21
18.8324266405
  0
LINE
  5
262
100
AcDbEntity
  8
268
100
AcDbLine
 62
7
  6
CONTINUOUS
 10
4.6936027192
 20
20.911229126
 11
4.1072239321
 21
20.6243070583
  0
LWPOLYLINE
  5
263
100
AcDbEntity
  8
268
100
AcDbPolyline
 62
7
  6
CONTINUOUS
 90
18
 70
0
 10
4.6936027192
 20
20.911229126
 10
4.72197724
 20
20.9244110828
 10
4.750211692
 20
20.9361454745
 10
4.7783060752
 20
20.9464323012
 10
4.8063103883
 20
20.9552844358
 10
4.8341746325
 20
20.9626890054
 10
4.8617488122
 20
20.968607391
 10
4.8890179408
 20
20.9730308123
 10
4.9159970048
 20
20.9759680496
 10
4.9425809674
 20
20.9774068256
 10
4.9687859263
 20
20.977339689
 10
4.9945957838
 20
20.975774091
 10
5.0198572101
 20
20.9727201076
 10
5.0445469634
 20
20.9681743232
 10
5.0686882855
 20
20.9621401534
 10
5.0921975718
 20
20.9546379206
 10
5.115093352
 20
20.9456525059
 10
5.1346554363
 20
20.9365627729
  0
LINE
  5
264
100
AcDbEntity
  8
268
100
AcDbLine
 62
7
  6
CONTINUOUS
 10
-14.1569635918
 20
21.2207396072
 11
-14.1569635918
 21
21.2451351125
  0
LINE
  5
265
100
AcDbEntity
  8
268
100
AcDbLine
 62
7
  6
CONTINUOUS
 10
-0.2187263479
 20
16.4944865084
 11
1.3640302552
 21
17.3064706057
  0
LINE
  5
266
100
AcDbEntity
  8
218
100
AcDbLine
 62
7
  6
CONTINUOUS
 10
9.2667311176
 20
20.2927177134
 11
13.4831108953
 21
22.4380273301
  0
LINE
  5
267
100
AcDbEntity
  8
268
100
AcDbLine
 62
7
  6
CONTINUOUS
 10
-1.8927819242
 20
16.7013134408
 11
-1.3936861914
 21
16.9532780215
  0
LINE
  5
268
100
AcDbEntity
  8
218
100
AcDbLine
 62
7
  6
CONTINUOUS
 10
9.2667311176
 20
19.8824986705
 11
13.4891678822
 21
22.0005388629
  0
LINE
  5
269
100
AcDbEntity
  8
268
100
AcDbLine
 62
7
  6
CONTINUOUS
 10
-1.3936861914
 20
16.9532780215
 11
4.0205865037
 21
19.6338906188
  0
LINE
  5
26A
100
AcDbEntity
  8
268
100
AcDbLine
 62
7
  6
CONTINUOUS
 10
1.3640302552
 20
17.3064706057
 11
1.8984801339
 21
17.5668180723
  0
LINE
  5
26B
100
AcDbEntity
  8
268
100
AcDbLine
 62
253
  6
CONTINUOUS
 10
2.900853642
 20
17.1276086891
 11
7.6726926202
 21
19.4216841755
  0
LINE
  5
26C
100
AcDbEntity
  8
268
100
AcDbLine
 62
253
  6
CONTINUOUS
 10
3.1284691418
 20
17.0138009392
 11
8.1145334881
 21
19.4108658952
  0
LINE
  5
26D
100
AcDbEntity
  8
218
100
AcDbLine
 62
7
  6
CONTINUOUS
 10
8.8727451837
 20
21.3148735314
 11
12.4458188822
 21
23.0203068483
  0
LINE
  5
26E
100
AcDbEntity
  8
268
100
AcDbLine
 62
7
  6
CONTINUOUS
 10
-13.7577702949
 20
22.6183861452
 11
-13.7577702949
 21
22.8717575389
  0
LINE
  5
26F
100
AcDbEntity
  8
268
100
AcDbLine
 62
7
  6
CONTINUOUS
 10
-13.3437907935
 20
20.7448167146
 11
-13.3437907935
 21
20.814153208
  0
LINE
  5
270
100
AcDbEntity
  8
268
100
AcDbLine
 62
7
  6
CONTINUOUS
 10
-13.0547773406
 20
22.1641578662
 11
-13.0547773406
 21
21.7118268905
  0
LINE
  5
271
100
AcDbEntity
  8
268
100
AcDbLine
 62
7
  6
CONTINUOUS
 10
-12.1519938327
 20
22.0688693078
 11
-12.1519938327
 21
21.8154979141
  0
LWPOLYLINE
  5
272
100
AcDbEntity
  8
268
100
AcDbPolyline
 62
7
  6
CONTINUOUS
 90
5
 70
0
 10
8.8610501037
 20
18.3184031067
 10
8.8612845406
 20
18.3185361085
 10
8.8622117765
 20
18.3193637799
 10
8.862718194
 20
18.3204148513
 10
8.8628299393
 20
18.3213590956
  0
LINE
  5
273
100
AcDbEntity
  8
268
100
AcDbLine
 62
253
  6
CONTINUOUS
 10
3.5044566851
 20
16.0127660366
 11
8.8627834652
 21
18.9037062636
  0
LINE
  5
274
100
AcDbEntity
  8
268
100
AcDbLine
 62
253
  6
CONTINUOUS
 10
3.1378365318
 20
15.5665539105
 11
8.7786318976
 21
18.6098924197
  0
LINE
  5
275
100
AcDbEntity
  8
715
100
AcDbLine
 62
7
  6
CONTINUOUS
 10
8.954385846
 20
18.9872621793
 11
9.5866739122
 21
19.320680179
  0
LINE
  5
276
100
AcDbEntity
  8
715
100
AcDbLine
 62
253
  6
CONTINUOUS
 10
9.5865461302
 20
19.3206127921
 11
9.5866739122
 21
19.320680179
  0
LINE
  5
277
100
AcDbEntity
  8
268
100
AcDbLine
 62
253
  6
CONTINUOUS
 10
3.049446577
 20
15.4312607292
 11
8.7786318976
 21
18.3976332656
  0
LINE
  5
278
100
AcDbEntity
  8
268
100
AcDbLine
 62
7
  6
CONTINUOUS
 10
3.1692127077
 20
15.3713776639
 11
8.86084161
 21
18.3183047955
  0
LINE
  5
279
100
AcDbEntity
  8
268
100
AcDbLine
 62
253
  6
CONTINUOUS
 10
3.1317972082
 20
14.6905363217
 11
1.3640302552
 21
13.7877586222
  0
LINE
  5
27A
100
AcDbEntity
  8
268
100
AcDbLine
 62
7
  6
CONTINUOUS
 10
1.9235449398
 20
14.2226657503
 11
2.9903758519
 21
14.7612469998
  0
LINE
  5
27B
100
AcDbEntity
  8
268
100
AcDbLine
 62
7
  6
CONTINUOUS
 10
1.3890950611
 20
15.6905758039
 11
2.9903758519
 21
16.4932978074
  0
LINE
  5
27C
100
AcDbEntity
  8
715
100
AcDbLine
 62
7
  6
CONTINUOUS
 10
9.714961341
 20
19.0975884476
 11
10.2099360879
 21
19.3450758211
  0
LINE
  5
27D
100
AcDbEntity
  8
715
100
AcDbLine
 62
7
  6
CONTINUOUS
 10
12.6781140004
 20
19.5255756734
 11
11.3666496893
 21
18.8698435178
  0
LINE
  5
27E
100
AcDbEntity
  8
268
100
AcDbLine
 62
7
  6
CONTINUOUS
 10
2.9903758519
 20
16.4932978074
 11
3.5186430237
 21
16.7567366274
  0
LINE
  5
27F
100
AcDbEntity
  8
268
100
AcDbLine
 62
253
  6
CONTINUOUS
 10
3.8389039894
 20
15.0365320231
 11
3.1317972082
 21
14.6905363217
  0
LINE
  5
280
100
AcDbEntity
  8
268
100
AcDbLine
 62
253
  6
CONTINUOUS
 10
4.0863913628
 20
14.6096679032
 11
3.3792845816
 21
14.2636722018
  0
LINE
  5
281
100
AcDbEntity
  8
218
100
AcDbLine
 62
7
  6
CONTINUOUS
 10
3.7787689685
 20
15.0665995335
 11
9.4446335373
 21
17.8187880778
  0
LWPOLYLINE
  5
282
100
AcDbEntity
  8
715
100
AcDbPolyline
 62
7
  6
CONTINUOUS
 90
10
 70
0
 10
13.5266158122
 20
19.1012984418
 10
13.5380122765
 20
19.1064670971
 10
13.549232679
 20
19.1105189935
 10
13.5602770197
 20
19.113454131
 10
13.5712402786
 20
19.1152726623
 10
13.5820274758
 20
19.1159744348
 10
13.5923536712
 20
19.1155589904
 10
13.6021238849
 20
19.1140261766
 10
13.611433097
 20
19.1113761458
 10
13.6202813073
 20
19.1076088982
  0
LWPOLYLINE
  5
283
100
AcDbEntity
  8
RACCORDO
100
AcDbPolyline
 62
253
  6
CONTINUOUS
 90
22
 70
0
 10
-2.6454290575
 20
11.8331531935
 10
-2.7208735954
 20
11.8003090494
 10
-2.7963401078
 20
11.7610137926
 10
-2.8714598557
 20
11.7154654983
 10
-2.9458659495
 20
11.6638981257
 10
-3.019195106
 20
11.6065657442
 10
-3.0910887603
 20
11.5437381327
 10
-3.1612050803
 20
11.4757161216
 10
-3.2291903593
 20
11.4028457728
 10
-3.2946822631
 20
11.3255041713
 10
-3.3573485123
 20
11.244095103
 10
-3.4168992501
 20
11.1590093133
 10
-3.4730551466
 20
11.0706339426
 10
-3.5255495137
 20
10.9793867208
 10
-3.5741127073
 20
10.8857366792
 10
-3.6184869651
 20
10.7901672671
 10
-3.6584504514
 20
10.6931645482
 10
-3.6938154059
 20
10.5951977576
 10
-3.7244085842
 20
10.4967365974
 10
-3.7500787653
 20
10.3982632681
 10
-3.7706995451
 20
10.3002703688
 10
-3.7861689465
 20
10.2032429358
  0
LINE
  5
284
100
AcDbEntity
  8
RACCORDO
100
AcDbLine
 62
253
  6
CONTINUOUS
 10
1.47933832
 20
13.4025886513
 11
-2.6454290575
 21
11.8331531935
  0
LINE
  5
285
100
AcDbEntity
  8
268
100
AcDbLine
 62
7
  6
CONTINUOUS
 10
2.424690427
 20
13.6208006649
 11
1.6115176286
 21
13.336498997
  0
LINE
  5
286
100
AcDbEntity
  8
268
100
AcDbLine
 62
7
  6
CONTINUOUS
 10
-11.4407732246
 20
21.5419943912
 11
-11.4407732246
 21
20.9048248325
  0
LINE
  5
287
100
AcDbEntity
  8
268
100
AcDbLine
 62
7
  6
CONTINUOUS
 10
-10.3739423125
 20
21.443406082
 11
-10.3739423125
 21
23.1754568896
  0
LINE
  5
288
100
AcDbEntity
  8
268
100
AcDbLine
 62
7
  6
CONTINUOUS
 10
-9.6709493582
 20
23.3107783874
 11
-9.6709493582
 21
23.049849411
  0
LINE
  5
289
100
AcDbEntity
  8
268
100
AcDbLine
 62
253
  6
CONTINUOUS
 10
3.3792845816
 20
14.2636722018
 11
1.6115176286
 21
13.3608945023
  0
LINE
  5
28A
100
AcDbEntity
  8
218
100
AcDbLine
 62
253
  6
CONTINUOUS
 10
18.2744141087
 20
19.6860471874
 11
4.0863913628
 21
12.4678510685
  0
LINE
  5
28B
100
AcDbEntity
  8
715
100
AcDbLine
 62
7
  6
CONTINUOUS
 10
13.5266447081
 20
19.1013128898
 11
12.7048608824
 21
18.6904209769
  0
LINE
  5
28C
100
AcDbEntity
  8
218
100
AcDbLine
 62
7
  6
CONTINUOUS
 10
17.9315165327
 20
20.277458023
 11
10.1973276213
 21
16.5205828167
  0
LINE
  5
28D
100
AcDbEntity
  8
218
100
AcDbLine
 62
7
  6
CONTINUOUS
 10
17.106270065
 20
20.6900812569
 11
13.5428392285
 21
18.979826509
  0
LWPOLYLINE
  5
28E
100
AcDbEntity
  8
218
100
AcDbPolyline
 62
7
  6
CONTINUOUS
 90
33
 70
0
 10
17.9315165327
 20
20.277458023
 10
17.9468271667
 20
20.2847540271
 10
17.9619568115
 20
20.2916886471
 10
17.9768996453
 20
20.2982593067
 10
17.9916505224
 20
20.3044621695
 10
18.0062035378
 20
20.3102962903
 10
18.0205519803
 20
20.3157635819
 10
18.0346909255
 20
20.3208617584
 10
18.0486153183
 20
20.3255889802
 10
18.0623184647
 20
20.3299479542
 10
18.0757959715
 20
20.3339367271
 10
18.0890433499
 20
20.3375537939
 10
18.1020539882
 20
20.3408026679
 10
18.1148240304
 20
20.3436817319
 10
18.1273495584
 20
20.3461898118
 10
18.1396241041
 20
20.3483312238
 10
18.1516443521
 20
20.3501046895
 10
18.163406956
 20
20.3515093589
 10
18.1749056459
 20
20.3525503344
 10
18.1861376471
 20
20.353226675
 10
18.1971001826
 20
20.3535378477
 10
18.2077872267
 20
20.3534897103
 10
18.2181965414
 20
20.3530816559
 10
18.2283259139
 20
20.3523134594
 10
18.2381696018
 20
20.3511916911
 10
18.2477259006
 20
20.3497160721
 10
18.2569931481
 20
20.3478866743
 10
18.2659659059
 20
20.3457107317
 10
18.2746429897
 20
20.3431882846
 10
18.2830232798
 20
20.340319691
 10
18.2911016663
 20
20.3371127911
 10
18.2988774741
 20
20.3335679342
 10
18.300427149
 20
20.3328028424
  0
LWPOLYLINE
  5
28F
100
AcDbEntity
  8
RACCORDO
100
AcDbPolyline
 62
253
  6
CONTINUOUS
 90
22
 70
0
 10
-2.1390474445
 20
10.8320635522
 10
-2.1748813123
 20
10.8168925655
 10
-2.2104235187
 20
10.7988894113
 10
-2.2456740637
 20
10.7780540896
 10
-2.2808172594
 20
10.7542520996
 10
-2.3156687936
 20
10.7276179421
 10
-2.3496757299
 20
10.698555119
 10
-2.3828165905
 20
10.6670269204
 10
-2.415112853
 20
10.6330700562
 10
-2.4460760145
 20
10.5971981591
 10
-2.4756793744
 20
10.5593904716
 10
-2.5039496331
 20
10.5196677512
 10
-2.5304783892
 20
10.4786059019
 10
-2.555243961
 20
10.4361783692
 10
-2.5782680301
 20
10.3924117077
 10
-2.5992072396
 20
10.3479614849
 10
-2.6180310291
 20
10.3028025112
 10
-2.634769959
 20
10.2569599762
 10
-2.6491723542
 20
10.2111650169
 10
-2.661154323
 20
10.1656613457
 10
-2.670799757
 20
10.1202052502
 10
-2.6781086563
 20
10.0747967304
  0
LINE
  5
290
100
AcDbEntity
  8
RACCORDO
100
AcDbLine
 62
253
  6
CONTINUOUS
 10
2.0257661166
 20
12.4167362087
 11
-2.1390474445
 21
10.8320635522
  0
LINE
  5
291
100
AcDbEntity
  8
268
100
AcDbLine
 62
7
  6
CONTINUOUS
 10
-8.1961853095
 20
20.9173929502
 11
-8.1961853095
 21
19.702659564
  0
LINE
  5
292
100
AcDbEntity
  8
268
100
AcDbLine
 62
253
  6
CONTINUOUS
 10
-8.1083173439
 20
20.8108839934
 11
-8.1083173439
 21
19.5959291273
  0
LINE
  5
293
100
AcDbEntity
  8
268
100
AcDbLine
 62
7
  6
CONTINUOUS
 10
3.0782499712
 20
15.4940313127
 11
3.6054946869
 21
16.1357390408
  0
LWPOLYLINE
  5
294
100
AcDbEntity
  8
218
100
AcDbPolyline
 62
253
  6
CONTINUOUS
 90
30
 70
0
 10
18.6885645843
 20
18.2544136128
 10
18.7072257228
 20
18.2643440759
 10
18.7253388178
 20
18.2745250787
 10
18.7428904183
 20
18.2849490617
 10
18.7598674905
 20
18.2956082837
 10
18.776257427
 20
18.3064948308
 10
18.7920480567
 20
18.317600623
 10
18.8072276533
 20
18.3289174139
 10
18.8217849443
 20
18.3404368002
 10
18.8357091195
 20
18.3521502318
 10
18.8489898387
 20
18.3640490111
 10
18.8616172395
 20
18.3761243026
 10
18.8735819447
 20
18.3883671433
 10
18.8848750693
 20
18.4007684422
 10
18.8954882271
 20
18.4133189909
 10
18.9054135364
 20
18.4260094731
 10
18.9146436269
 20
18.4388304654
 10
18.9231716442
 20
18.4517724477
 10
18.9309912552
 20
18.4648258127
 10
18.9380966532
 20
18.4779808678
 10
18.9444825617
 20
18.4912278444
 10
18.9501442383
 20
18.5045569084
 10
18.9550774787
 20
18.5179581623
 10
18.9592786196
 20
18.5314216549
 10
18.962744541
 20
18.5449373905
 10
18.9654726691
 20
18.5584953331
 10
18.9674609782
 20
18.5720854151
 10
18.9687079915
 20
18.5856975462
 10
18.9692127831
 20
18.5993216191
 10
18.969224784
 20
18.6017713775
  0
LINE
  5
295
100
AcDbEntity
  8
218
100
AcDbLine
 62
253
  6
CONTINUOUS
 10
18.6885645843
 20
18.2544136128
 11
4.0863913628
 21
10.825517285
  0
LWPOLYLINE
  5
296
100
AcDbEntity
  8
RACCORDO
100
AcDbPolyline
 62
253
  6
CONTINUOUS
 90
22
 70
0
 10
-5.6711601105
 20
-26.2987671015
 10
-5.671110432
 20
-26.3416406053
 10
-5.668592831
 20
-26.3828791558
 10
-5.6636073075
 20
-26.4224827532
 10
-5.6561065306
 20
-26.460647339
 10
-5.6461378313
 20
-26.4971769717
 10
-5.633843202
 20
-26.5314838258
 10
-5.6191843986
 20
-26.5635223659
 10
-5.6021996653
 20
-26.5933381275
 10
-5.5831457275
 20
-26.6204798921
 10
-5.5619958279
 20
-26.644901761
 10
-5.5387767237
 20
-26.6666496328
 10
-5.5138254116
 20
-26.6854099845
 10
-5.4871120692
 20
-26.701141329
 10
-5.458666519
 20
-26.7138851534
 10
-5.4289152247
 20
-26.7234523959
 10
-5.3978262997
 20
-26.72978989
 10
-5.3654316307
 20
-26.7329508022
 10
-5.3322533417
 20
-26.7329055697
 10
-5.298465474
 20
-26.7296443385
 10
-5.2638939864
 20
-26.7231769627
 10
-5.2285388788
 20
-26.7135034422
  0
LWPOLYLINE
  5
297
100
AcDbEntity
  8
RACCORDO
100
AcDbPolyline
 62
253
  6
CONTINUOUS
 90
15
 70
0
 10
-6.787223212
 20
-26.2675764143
 10
-6.7872640647
 20
-26.3590467704
 10
-6.782001438
 20
-26.4477060743
 10
-6.7714617025
 20
-26.5331169603
 10
-6.7556963979
 20
-26.6148547498
 10
-6.7347843504
 20
-26.6925210497
 10
-6.7088284323
 20
-26.7657433112
 10
-6.6779476879
 20
-26.8341694298
 10
-6.6422955888
 20
-26.8974490032
 10
-6.6020639577
 20
-26.9552497542
 10
-6.5574604922
 20
-27.007280272
 10
-6.5086974602
 20
-27.05330054
 10
-6.4560048368
 20
-27.0930963395
 10
-6.3996252161
 20
-27.126475762
 10
-6.393117225
 20
-27.1297946519
  0
LWPOLYLINE
  5
298
100
AcDbEntity
  8
RACCORDO
100
AcDbPolyline
 62
253
  6
CONTINUOUS
 90
13
 70
0
 10
-3.7861689465
 20
10.2032429358
 10
-4.1875748942
 20
7.1146498577
 10
-4.561600452
 20
4.0337307266
 10
-4.9081983772
 20
0.9608782471
 10
-5.2273249624
 20
-2.1035158437
 10
-5.518939649
 20
-5.1590611418
 10
-5.7830050284
 20
-8.2053686242
 10
-6.0194872348
 20
-11.2420503096
 10
-6.2283563654
 20
-14.2687192181
 10
-6.4095860863
 20
-17.2849897339
 10
-6.5631532179
 20
-20.2904776705
 10
-6.6890377415
 20
-23.2848003207
 10
-6.787223212
 20
-26.2675764143
  0
LWPOLYLINE
  5
299
100
AcDbEntity
  8
715
100
AcDbPolyline
 62
253
  6
CONTINUOUS
 90
9
 70
0
 10
9.0811676386
 20
18.9310563773
 10
9.1253961306
 20
18.9818564342
 10
9.184475001
 20
19.0411156514
 10
9.2495677805
 20
19.0987235846
 10
9.3204436123
 20
19.1544970522
 10
9.3969367501
 20
19.2083249878
 10
9.4789281538
 20
19.2601261714
 10
9.5661767508
 20
19.3097438108
 10
9.5865461302
 20
19.3206127921
  0
LWPOLYLINE
  5
29A
100
AcDbEntity
  8
218
100
AcDbPolyline
 62
253
  6
CONTINUOUS
 90
56
 70
0
 10
18.8061166097
 20
12.8119119443
 10
18.8131603048
 20
12.8144393637
 10
18.8202684507
 20
12.8167394168
 10
18.8274400936
 20
12.818813436
 10
18.8346558863
 20
12.8206765234
 10
18.8419329639
 20
12.8223165366
 10
18.8493245358
 20
12.8236946417
 10
18.8568555127
 20
12.8248226973
 10
18.8644969439
 20
12.8256940207
 10
18.8722202031
 20
12.8262432223
 10
18.8800406148
 20
12.8264683255
 10
18.887936569
 20
12.8263789997
 10
18.8958232415
 20
12.825928135
 10
18.9036796739
 20
12.8251128624
 10
18.91151897
 20
12.8239453015
 10
18.9193068412
 20
12.8224013309
 10
18.9270218029
 20
12.8204911476
 10
18.9346757043
 20
12.8182157893
 10
18.9422829382
 20
12.8155389147
 10
18.9498375879
 20
12.8124759252
 10
18.9573324658
 20
12.809026871
 10
18.9647774583
 20
12.8051354902
 10
18.9721772616
 20
12.8008105239
 10
18.9795087816
 20
12.7960652714
 10
18.9867373036
 20
12.7908537938
 10
18.9938556066
 20
12.7851874673
 10
19.0008476883
 20
12.7790832443
 10
19.0076632526
 20
12.7725064623
 10
19.0142827341
 20
12.7654865289
 10
19.0206981624
 20
12.7580285179
 10
19.0268728752
 20
12.7500659798
 10
19.0327907729
 20
12.741642438
 10
19.0384323926
 20
12.7327603846
 10
19.0437481059
 20
12.723301972
 10
19.0487289403
 20
12.713309354
 10
19.05333346
 20
12.7028079246
 10
19.0574518756
 20
12.691669757
 10
19.0610705068
 20
12.6799117624
 10
19.064133583
 20
12.6676140132
 10
19.0664616363
 20
12.6547524382
 10
19.0680131669
 20
12.6413115705
 10
19.0687530806
 20
12.6274204639
 10
19.0685250446
 20
12.6132538543
 10
19.0672685106
 20
12.5988012183
 10
19.0649940637
 20
12.5841569391
 10
19.0616882823
 20
12.5696019632
 10
19.0573268974
 20
12.5551590894
 10
19.0519318767
 20
12.5408238538
 10
19.0455951689
 20
12.5267829023
 10
19.0383438627
 20
12.5130673932
 10
19.0301765871
 20
12.4996209806
 10
19.0211574331
 20
12.4864759422
 10
19.0112964515
 20
12.473616761
 10
19.0006076753
 20
12.4610337431
 10
18.9891641596
 20
12.4487627039
 10
18.976986925
 20
12.4367950742
  0
LINE
  5
29B
100
AcDbEntity
  8
268
100
AcDbLine
 62
7
  6
CONTINUOUS
 10
0.6922788131
 20
-6.175679294
 11
0.5036241047
 21
-6.0813519398
  0
LWPOLYLINE
  5
29C
100
AcDbEntity
  8
RACCORDO
100
AcDbPolyline
 62
253
  6
CONTINUOUS
 90
16
 70
0
 10
-2.1390474445
 20
10.8320635522
 10
-2.1374641002
 20
10.908144613
 10
-2.1419270468
 20
10.9865478708
 10
-2.1523874506
 20
11.066415088
 10
-2.1687308263
 20
11.1468719989
 10
-2.1907782888
 20
11.2270378738
 10
-2.2182885094
 20
11.3060351605
 10
-2.2509603615
 20
11.3829991024
 10
-2.2884362122
 20
11.457087192
 10
-2.3303058321
 20
11.5274883891
 10
-2.3761108992
 20
11.5934320246
 10
-2.4253500071
 20
11.6541962184
 10
-2.4774841428
 20
11.7091157737
 10
-2.5319426073
 20
11.7575894853
 10
-2.588129265
 20
11.7990867165
 10
-2.6454290561
 20
11.833153194
  0
LWPOLYLINE
  5
29D
100
AcDbEntity
  8
RACCORDO
100
AcDbPolyline
 62
253
  6
CONTINUOUS
 90
7
 70
0
 10
-4.6696530297
 20
-8.2847000285
 10
-4.9054897861
 20
-11.3131633814
 10
-5.1138174469
 20
-14.3320282232
 10
-5.2945562827
 20
-17.3401367923
 10
-5.447679717
 20
-20.3371031681
 10
-5.5732143263
 20
-23.3233132711
 10
-5.6711601105
 20
-26.2987671015
  0
LWPOLYLINE
  5
29E
100
AcDbEntity
  8
RACCORDO
100
AcDbPolyline
 62
253
  6
CONTINUOUS
 90
7
 70
0
 10
-2.6781086563
 20
10.0747967304
 10
-3.0785255371
 20
6.9938111507
 10
-3.4515452905
 20
3.9212533524
 10
-3.7971679164
 20
0.8571233353
 10
-4.1154307377
 20
-2.1989691439
 10
-4.4062964314
 20
-5.2466338417
 10
-4.6696530297
 20
-8.2847000285
  0
LWPOLYLINE
  5
29F
100
AcDbEntity
  8
715
100
AcDbPolyline
 62
253
  6
CONTINUOUS
 90
47
 70
0
 10
9.1620586555
 20
18.8980107134
 10
9.1908254352
 20
18.9364636782
 10
9.2401086535
 20
18.9932443556
 10
9.2952423282
 20
19.04883497
 10
9.3557458065
 20
19.1027774923
 10
9.4216181581
 20
19.1550303918
 10
9.4928603134
 20
19.2056351992
 10
9.5689944111
 20
19.2542584777
 10
9.6500110401
 20
19.3008862202
 10
9.7359196115
 20
19.3455324339
 10
9.8262704972
 20
19.387905703
 10
9.9213207774
 20
19.428064901
 10
10.0208133719
 20
19.4659511544
 10
10.1235274122
 20
19.5010964276
 10
10.229868281
 20
19.5334741475
 10
10.3394305956
 20
19.563110887
 10
10.44977734
 20
19.5896183292
 10
10.5608818569
 20
19.6128177227
 10
10.6727708036
 20
19.6328878187
 10
10.7830871357
 20
19.6499765545
 10
10.8914776256
 20
19.6639504504
 10
10.9982955009
 20
19.6749429859
 10
11.1022434
 20
19.6835025372
 10
11.2030792345
 20
19.6896051067
 10
11.3010450927
 20
19.6932746919
 10
11.3955698791
 20
19.6951316607
 10
11.4864916192
 20
19.6951975296
 10
11.5739722874
 20
19.6934507821
 10
11.6579267107
 20
19.6904472367
 10
11.7382307841
 20
19.6862284361
 10
11.8150086127
 20
19.6807528376
 10
11.8885473392
 20
19.6744516319
 10
11.9588138728
 20
19.6673655982
 10
12.0258413044
 20
19.6594539573
 10
12.0900160486
 20
19.6510255631
 10
12.1513237954
 20
19.6421149225
 10
12.2097788548
 20
19.6326875287
 10
12.2658105713
 20
19.6229487149
 10
12.3194151549
 20
19.6129271932
 10
12.3705963955
 20
19.6025942515
 10
12.4197950078
 20
19.5920690867
 10
12.4670141527
 20
19.5813745476
 10
12.5122506693
 20
19.5704877854
 10
12.5559357892
 20
19.5594594518
 10
12.5982132563
 20
19.5483064305
 10
12.6389393267
 20
19.5370118377
 10
12.6781140004
 20
19.5255756734
  0
LWPOLYLINE
  5
2A0
100
AcDbEntity
  8
268
100
AcDbPolyline
 62
7
  6
CONTINUOUS
 90
13
 70
0
 10
8.8594103226
 20
-18.6054161763
 10
8.8565191575
 20
-18.6015229854
 10
8.8528303933
 20
-18.5971406452
 10
8.8483704294
 20
-18.5923833523
 10
8.8431775711
 20
-18.5872434977
 10
8.837294914
 20
-18.581696139
 10
8.8307343798
 20
-18.5758285404
 10
8.8235274766
 20
-18.5696312324
 10
8.8157103309
 20
-18.5630861078
 10
8.8072863915
 20
-18.5562652317
 10
8.7982735001
 20
-18.5491832069
 10
8.7887116548
 20
-18.5417995636
 10
8.7786318976
 20
-18.5341030089
  0
LINE
  5
2A1
100
AcDbEntity
  8
268
100
AcDbLine
 62
7
  6
CONTINUOUS
 10
-0.1617685982
 20
-14.1676492594
 11
0.4190654106
 21
-19.581474833
  0
LINE
  5
2A2
100
AcDbEntity
  8
268
100
AcDbLine
 62
253
  6
CONTINUOUS
 10
-2.3158082758
 20
16.6996745933
 11
-2.3158082758
 21
17.9146294594
  0
LINE
  5
2A3
100
AcDbEntity
  8
268
100
AcDbLine
 62
7
  6
CONTINUOUS
 10
-1.9593716164
 20
22.202919287
 11
-1.9593716164
 21
20.9536244674
  0
LINE
  5
2A4
100
AcDbEntity
  8
268
100
AcDbLine
 62
253
  6
CONTINUOUS
 10
-1.8927819242
 20
16.7013134408
 11
-1.8927819242
 21
17.9155169137
  0
LINE
  5
2A5
100
AcDbEntity
  8
268
100
AcDbLine
 62
7
  6
CONTINUOUS
 10
-1.6058182258
 20
21.4735844024
 11
-1.6058182258
 21
22.0261425918
  0
LINE
  5
2A6
100
AcDbEntity
  8
268
100
AcDbLine
 62
253
  6
CONTINUOUS
 10
-1.5351075477
 20
23.6423508893
 11
-1.5351075477
 21
22.4105167079
  0
LINE
  5
2A7
100
AcDbEntity
  8
268
100
AcDbLine
 62
7
  6
CONTINUOUS
 10
-1.447239582
 20
23.7473481033
 11
-1.447239582
 21
22.5149794984
  0
LINE
  5
2A8
100
AcDbEntity
  8
268
100
AcDbLine
 62
7
  6
CONTINUOUS
 10
-1.3936861914
 20
18.1657135868
 11
-1.3936861914
 21
16.9532780215
  0
LINE
  5
2A9
100
AcDbEntity
  8
268
100
AcDbLine
 62
7
  6
CONTINUOUS
 10
-0.3934521305
 20
-25.6167484702
 11
-0.3934521305
 21
-25.3633770764
  0
LINE
  5
2AA
100
AcDbEntity
  8
268
100
AcDbLine
 62
7
  6
CONTINUOUS
 10
-0.3934521305
 20
15.936227063
 11
-0.3934521305
 21
16.1895984567
  0
LWPOLYLINE
  5
2AB
100
AcDbEntity
  8
RACCORDO
100
AcDbPolyline
 62
253
  6
CONTINUOUS
 90
11
 70
0
 10
-5.2285388788
 20
-26.7135034422
 10
-5.2393075194
 20
-26.7875313605
 10
-5.2559873147
 20
-26.8575939451
 10
-5.2783956768
 20
-26.9229242445
 10
-5.3062873087
 20
-26.9828071103
 10
-5.3393568904
 20
-27.0365870248
 10
-5.3772424202
 20
-27.0836752776
 10
-5.4195291782
 20
-27.1235564096
 10
-5.4657542655
 20
-27.1557938555
 10
-5.5154116717
 20
-27.1800347229
 10
-5.5374322429
 20
-27.1878502782
  0
LINE
  5
2AC
100
AcDbEntity
  8
218
100
AcDbLine
 62
7
  6
CONTINUOUS
 10
18.969224784
 20
12.4220417904
 11
19.884401571
 21
13.0139704095
  0
LWPOLYLINE
  5
2AD
100
AcDbEntity
  8
218
100
AcDbPolyline
 62
7
  6
CONTINUOUS
 90
16
 70
0
 10
18.8061087982
 20
2.480226283
 10
18.7970958986
 20
2.4784462997
 10
18.7882082003
 20
2.4770875803
 10
18.7794457033
 20
2.4761501249
 10
18.7707865225
 20
2.4756355094
 10
18.7622525429
 20
2.4755421579
 10
18.7539094196
 20
2.4758653425
 10
18.7457673866
 20
2.47661701
 10
18.7378162098
 20
2.4777852137
 10
18.7300908418
 20
2.4793293854
 10
18.7226024128
 20
2.4812561533
 10
18.7153397925
 20
2.4835588893
 10
18.7083045434
 20
2.4861771411
 10
18.701497186
 20
2.4890907582
 10
18.6949171996
 20
2.4923198911
 10
18.6885645843
 20
2.4958645399
  0
LINE
  5
2AE
100
AcDbEntity
  8
268
100
AcDbLine
 62
7
  6
CONTINUOUS
 10
2.424690427
 20
-22.5898402015
 11
0.6922788131
 21
-6.175679294
  0
LWPOLYLINE
  5
2AF
100
AcDbEntity
  8
268
100
AcDbPolyline
 62
7
  6
CONTINUOUS
 90
24
 70
0
 10
1.1518982209
 20
22.5170251357
 10
1.1513250364
 20
22.5514975419
 10
1.1496259234
 20
22.5852474629
 10
1.1468008819
 20
22.6182748987
 10
1.1428404473
 20
22.6506364561
 10
1.1377540842
 20
22.6822755283
 10
1.1315701858
 20
22.7130222948
 10
1.1242875704
 20
22.7428578222
 10
1.1159074197
 20
22.771801044
 10
1.1064616725
 20
22.7997389399
 10
1.095937814
 20
22.8266851027
 10
1.0843483589
 20
22.8526259397
 10
1.0717627902
 20
22.8774076526
 10
1.0581876043
 20
22.901004954
 10
1.0436163048
 20
22.9234431313
 10
1.0280988847
 20
22.9446442485
 10
1.0116155974
 20
22.9646213384
 10
0.9941861895
 20
22.9833613683
 10
0.9759198949
 20
23.0007473039
 10
0.956831239
 20
23.0167562302
 10
0.9369056963
 20
23.0314110623
 10
0.9162089238
 20
23.0446635106
 10
0.8947164092
 20
23.0565193719
 10
-2.334484857
 20
24.6711438822
  0
LINE
  5
2B0
100
AcDbEntity
  8
268
100
AcDbLine
 62
7
  6
CONTINUOUS
 10
0.3095408238
 20
15.4819987839
 11
0.3095408238
 21
15.0296678083
  0
LINE
  5
2B1
100
AcDbEntity
  8
268
100
AcDbLine
 62
7
  6
CONTINUOUS
 10
1.1518982209
 20
22.5170251357
 11
1.1518982209
 21
22.2462248431
  0
LINE
  5
2B2
100
AcDbEntity
  8
268
100
AcDbLine
 62
7
  6
CONTINUOUS
 10
1.2123243317
 20
15.3867102256
 11
1.2123243317
 21
15.1333388319
  0
LINE
  5
2B3
100
AcDbEntity
  8
268
100
AcDbLine
 62
7
  6
CONTINUOUS
 10
1.2123243317
 20
-26.1662653075
 11
1.2123243317
 21
-26.4196367012
  0
LINE
  5
2B4
100
AcDbEntity
  8
268
100
AcDbLine
 62
7
  6
CONTINUOUS
 10
1.6115176286
 20
-24.7930142748
 11
1.6115176286
 21
-24.7686187695
  0
LINE
  5
2B5
100
AcDbEntity
  8
268
100
AcDbLine
 62
7
  6
CONTINUOUS
 10
1.6115176286
 20
13.336498997
 11
1.6115176286
 21
13.3608945023
  0
LINE
  5
2B6
100
AcDbEntity
  8
268
100
AcDbLine
 62
7
  6
CONTINUOUS
 10
1.9235449398
 20
14.859835309
 11
1.9235449398
 21
14.2226657503
  0
LINE
  5
2B7
100
AcDbEntity
  8
268
100
AcDbLine
 62
7
  6
CONTINUOUS
 10
1.9235449398
 20
-24.7851467393
 11
1.9235449398
 21
-25.1897688304
  0
LINE
  5
2B8
100
AcDbEntity
  8
RACCORDO
100
AcDbLine
 62
7
  6
CONTINUOUS
 10
2.0257661166
 20
12.4167362087
 11
-1.0860026653
 21
-25.3995600205
  0
LINE
  5
2B9
100
AcDbEntity
  8
268
100
AcDbLine
 62
7
  6
CONTINUOUS
 10
0.6922788131
 20
-6.175679294
 11
2.424690427
 21
11.9708932273
  0
LWPOLYLINE
  5
2BA
100
AcDbEntity
  8
218
100
AcDbPolyline
 62
7
  6
CONTINUOUS
 90
136
 70
0
 10
18.8061086922
 20
12.8119054082
 10
18.8654749199
 20
12.8606082803
 10
18.922964345
 20
12.9080961
 10
18.9785769674
 20
12.9543688674
 10
19.0322577174
 20
12.9993919966
 10
19.0840616648
 20
13.0432000734
 10
19.1341540189
 20
13.0858968557
 10
19.1825421988
 20
13.1274874205
 10
19.2292187855
 20
13.1679666908
 10
19.2743267304
 20
13.207423194
 10
19.3178702618
 20
13.2458594836
 10
19.3598451515
 20
13.283273006
 10
19.4003816663
 20
13.3197446281
 10
19.4394836998
 20
13.3552767151
 10
19.4771473584
 20
13.3898669018
 10
19.5134912288
 20
13.4235889598
 10
19.5485189067
 20
13.4564450994
 10
19.5822267962
 20
13.4884331103
 10
19.6147226965
 20
13.5196201338
 10
19.6460099279
 20
13.5500082502
 10
19.67608517
 20
13.5795953791
 10
19.7050462606
 20
13.6084424206
 10
19.7328962675
 20
13.6365513577
 10
19.7596321228
 20
13.6639202075
 10
19.7853424612
 20
13.6906039209
 10
19.8100301118
 20
13.7166044181
 10
19.8336922453
 20
13.741919779
 10
19.8564090091
 20
13.7665991944
 10
19.8781829973
 20
13.7906445603
 10
19.8990116156
 20
13.8140539809
 10
19.9189672283
 20
13.8368709588
 10
19.9380521819
 20
13.8590974082
 10
19.9562641298
 20
13.8807314151
 10
19.9736683965
 20
13.9018107398
 10
19.9902670396
 20
13.9223373525
 10
20.0060580015
 20
13.942309283
 10
20.0211004338
 20
13.9617583818
 10
20.0353960242
 20
13.9806866953
 10
20.048943085
 20
13.9990921771
 10
20.0617957054
 20
14.0170005382
 10
20.0739550693
 20
14.0344138749
 10
20.0854199929
 20
14.0513300909
 10
20.0962410126
 20
14.0677686082
 10
20.1064185621
 20
14.0837313276
 10
20.1159522078
 20
14.0992163483
 10
20.1248911856
 20
14.1142373893
 10
20.1332352202
 20
14.1287962835
 10
20.1409845869
 20
14.142891198
 10
20.1481893473
 20
14.1565303536
 10
20.1548481481
 20
14.1697145999
 10
20.1609623427
 20
14.1824430874
 10
20.1665860525
 20
14.1947214872
 10
20.1717146097
 20
14.206540591
 10
20.1763526821
 20
14.2179096071
 10
20.180568395
 20
14.2288618328
 10
20.1843597686
 20
14.2393836651
 10
20.1877287827
 20
14.2494887068
 10
20.1907495018
 20
14.2592510638
 10
20.1934273072
 20
14.2686686005
 10
20.1957568175
 20
14.2777434524
 10
20.1977959534
 20
14.2865561311
 10
20.199552133
 20
14.2951117314
 10
20.2010179382
 20
14.3034051585
 10
20.2022290343
 20
14.3115016403
 10
20.2031916876
 20
14.3194054494
 10
20.203899632
 20
14.3271123132
 10
20.2043697343
 20
14.3346746421
 10
20.2046076164
 20
14.3420956496
 10
20.2046076566
 20
14.3493721222
 10
20.2043698563
 20
14.356546829
 10
20.2038998377
 20
14.3636223764
 10
20.2031919787
 20
14.3705961579
 10
20.2022294142
 20
14.3775031239
 10
20.2010184099
 20
14.384345493
 10
20.1995527002
 20
14.3911210465
 10
20.197796622
 20
14.3978580783
 10
20.1957575946
 20
14.4045591734
 10
20.1934281988
 20
14.4112217469
 10
20.1907505141
 20
14.4178663383
 10
20.1877299246
 20
14.4245006539
 10
20.1843610462
 20
14.4311169874
 10
20.180569806
 20
14.4377127601
 10
20.1763542228
 20
14.44429953
 10
20.1717162778
 20
14.4508657391
 10
20.1665878417
 20
14.4573741344
 10
20.1609642451
 20
14.4638290916
 10
20.1548501573
 20
14.470226235
 10
20.1481914571
 20
14.4765151845
 10
20.1409867926
 20
14.482693687
 10
20.1332375157
 20
14.4887639955
 10
20.1248935609
 20
14.4946824892
 10
20.1159546518
 20
14.5004470506
 10
20.1064210648
 20
14.5060597971
 10
20.0962435636
 20
14.5114834596
 10
20.0854225817
 20
14.5167165856
 10
20.0739576857
 20
14.5217606276
 10
20.0617983384
 20
14.5265826733
 10
20.0489457237
 20
14.5311818524
 10
20.0353986579
 20
14.5355590353
 10
20.0211030525
 20
14.5396839208
 10
20.0060605949
 20
14.5435562097
 10
19.9902695976
 20
14.5471762012
 10
19.9736709101
 20
14.5505144916
 10
19.9562665899
 20
14.5535712415
 10
19.9380545794
 20
14.5563462902
 10
19.9189695558
 20
14.5588097526
 10
19.8990138653
 20
14.5609621443
 10
19.8781851616
 20
14.5628029497
 10
19.8564110823
 20
14.5643007364
 10
19.8336942218
 20
14.5654562947
 10
19.8100319856
 20
14.5662688343
 10
19.7853442287
 20
14.5667045516
 10
19.7596337802
 20
14.5667644563
 10
19.7328978111
 20
14.5664475387
 10
19.7050476889
 20
14.5657169668
 10
19.6760864812
 20
14.5645739343
 10
19.6460111205
 20
14.5630172474
 10
19.6147237713
 20
14.5610064932
 10
19.582227754
 20
14.5585430296
 10
19.5485197481
 20
14.5556254986
 10
19.5134919573
 20
14.5522094132
 10
19.4771479773
 20
14.5482962868
 10
19.4394842124
 20
14.5438846059
 10
19.4003820787
 20
14.5389253436
 10
19.3598454698
 20
14.5334201663
 10
19.3178704922
 20
14.5273674076
 10
19.2743268822
 20
14.5207130401
 10
19.229218868
 20
14.5134588888
 10
19.1825422213
 20
14.5056031288
 10
19.134153994
 20
14.4970862581
 10
19.0840616051
 20
14.4879108827
 10
19.0322576355
 20
14.4780743968
 10
18.9785768795
 20
14.4675094804
 10
18.9229642685
 20
14.4561936937
 10
18.8654748711
 20
14.4441494766
 10
18.8061086873
 20
14.431376829
  0
LWPOLYLINE
  5
2BB
100
AcDbEntity
  8
218
100
AcDbPolyline
 62
253
  6
CONTINUOUS
 90
104
 70
0
 10
19.8844015696
 20
13.0139704086
 10
19.9187016438
 20
13.0370630797
 10
19.9495555837
 20
13.0594535986
 10
19.9797564127
 20
13.0829533582
 10
20.009290882
 20
13.107552046
 10
20.0381460668
 20
13.1332388938
 10
20.0663093466
 20
13.1600026671
 10
20.0937683949
 20
13.1878316553
 10
20.1205111619
 20
13.2167136504
 10
20.146525906
 20
13.2466359713
 10
20.1718012139
 20
13.2775854864
 10
20.1963260262
 20
13.3095486493
 10
20.2200896177
 20
13.3425114816
 10
20.2430815871
 20
13.3764595602
 10
20.2652918443
 20
13.4113779915
 10
20.2867106378
 20
13.4472514443
 10
20.3073285714
 20
13.4840641768
 10
20.3271366237
 20
13.5218000762
 10
20.346126131
 20
13.5604426376
 10
20.3642887806
 20
13.5999749502
 10
20.3816166023
 20
13.6403796716
 10
20.3981019898
 20
13.6816390657
 10
20.4137377127
 20
13.723735031
 10
20.4285169286
 20
13.7666491399
 10
20.4424331713
 20
13.8103626169
 10
20.4554803474
 20
13.8548563265
 10
20.4676527326
 20
13.9001107541
 10
20.4789449856
 20
13.9461060422
 10
20.4893521555
 20
13.9928220184
 10
20.4988696866
 20
14.0402382274
 10
20.507493413
 20
14.0883339141
 10
20.5152195572
 20
14.1370880168
 10
20.5220447306
 20
14.1864791587
 10
20.5279659398
 20
14.2364856793
 10
20.5329805897
 20
14.2870856557
 10
20.5370864846
 20
14.3382569242
 10
20.540281826
 20
14.3899770724
 10
20.5425652139
 20
14.4422234418
 10
20.5439356471
 20
14.494973133
 10
20.5443925249
 20
14.5482030275
 10
20.543935647
 20
14.6018897998
 10
20.5425652137
 20
14.6560099243
 10
20.5402818257
 20
14.7105396816
 10
20.5370864842
 20
14.7654551714
 10
20.5329805893
 20
14.8207323347
 10
20.5279659392
 20
14.8763469611
 10
20.5220447299
 20
14.9322746909
 10
20.5152195565
 20
14.9884910062
 10
20.5074934121
 20
15.0449712532
 10
20.4988696857
 20
15.1016906663
 10
20.4893521545
 20
15.1586244065
 10
20.4789449845
 20
15.2157475526
 10
20.4676527313
 20
15.2730350938
 10
20.4554803461
 20
15.3304619065
 10
20.4424331699
 20
15.3880027923
 10
20.4285169271
 20
15.4456325121
 10
20.4137377111
 20
15.5033258369
 10
20.3981019881
 20
15.5610575251
 10
20.3816166006
 20
15.6188023066
 10
20.3642887788
 20
15.6765348498
 10
20.3461261291
 20
15.734229812
 10
20.3271366216
 20
15.7918618808
 10
20.3073285693
 20
15.8494058325
 10
20.2867106355
 20
15.9068364987
 10
20.265291842
 20
15.9641287449
 10
20.2430815847
 20
16.0212574334
 10
20.2200896153
 20
16.0781974813
 10
20.1963260237
 20
16.1349239052
 10
20.1718012112
 20
16.1914118805
 10
20.1465259032
 20
16.2476367035
 10
20.1205111592
 20
16.3035737684
 10
20.0937683921
 20
16.3591985304
 10
20.0663093438
 20
16.4144865669
 10
20.0381460638
 20
16.4694136201
 10
20.0092908789
 20
16.5239556528
 10
19.9797564095
 20
16.5780888099
 10
19.9495555805
 20
16.6317893984
 10
19.9187016406
 20
16.6850338571
 10
19.8872081341
 20
16.7377988127
 10
19.8550888782
 20
16.7900611184
 10
19.8223579329
 20
16.8417978996
 10
19.7890296178
 20
16.8929865218
 10
19.7551185217
 20
16.9436045758
 10
19.7206395185
 20
16.9936298573
 10
19.6856077381
 20
17.0430404146
 10
19.6500385452
 20
17.0918145782
 10
19.6139475138
 20
17.1399309944
 10
19.5773504407
 20
17.1873686032
 10
19.5402633512
 20
17.2341066307
 10
19.5027025074
 20
17.2801245816
 10
19.4646843831
 20
17.3254022729
 10
19.4262256465
 20
17.3699198545
 10
19.3873431421
 20
17.4136578291
 10
19.3480538984
 20
17.4565970422
 10
19.3083751266
 20
17.4987186828
 10
19.268324219
 20
17.5400042874
 10
19.2279187307
 20
17.5804357595
 10
19.1871763689
 20
17.6199953808
 10
19.1461149856
 20
17.6586658176
 10
19.1047525745
 20
17.696430124
 10
19.0631072629
 20
17.7332717499
 10
19.0211972978
 20
17.7691745534
 10
18.9790410376
 20
17.8041228072
 10
18.969224784
 20
17.8119922825
  0
LWPOLYLINE
  5
2BC
100
AcDbEntity
  8
268
100
AcDbPolyline
 62
7
  6
CONTINUOUS
 90
31
 70
0
 10
3.3792845816
 20
14.2636722018
 10
3.3789459371
 20
14.2797057453
 10
3.3779292936
 20
14.2960342116
 10
3.3762377433
 20
14.3126130062
 10
3.3738765261
 20
14.3293969996
 10
3.3708521146
 20
14.3463401936
 10
3.3671721946
 20
14.3633958482
 10
3.3628471309
 20
14.3805173615
 10
3.3578890812
 20
14.3976579624
 10
3.3523110612
 20
14.4147703825
 10
3.3461286133
 20
14.4318078505
 10
3.3393589739
 20
14.4487238181
 10
3.3320201683
 20
14.4654716521
 10
3.3241325348
 20
14.4820055634
 10
3.3157179638
 20
14.4982803726
 10
3.3067990473
 20
14.5142512302
 10
3.2974004188
 20
14.5298744569
 10
3.2875480844
 20
14.5451073545
 10
3.2772686464
 20
14.5599079625
 10
3.2665904274
 20
14.5742357869
 10
3.2555429087
 20
14.5880516625
 10
3.2441560479
 20
14.6013175518
 10
3.2324611595
 20
14.6139971435
 10
3.2204904739
 20
14.6260557701
 10
3.2082765661
 20
14.6374602545
 10
3.195852971
 20
14.6481793624
 10
3.1832538748
 20
14.6581837778
 10
3.1705136669
 20
14.6674460015
 10
3.1576672522
 20
14.6759406334
 10
3.1447499556
 20
14.6836444429
 10
3.1317972082
 20
14.6905363217
  0
LINE
  5
2BD
100
AcDbEntity
  8
268
100
AcDbLine
 62
7
  6
CONTINUOUS
 10
2.424690427
 20
-24.2397476391
 11
2.424690427
 21
-22.5898402015
  0
LINE
  5
2BE
100
AcDbEntity
  8
268
100
AcDbLine
 62
7
  6
CONTINUOUS
 10
2.424690427
 20
11.9708932273
 11
2.424690427
 21
13.6208006649
  0
LINE
  5
2BF
100
AcDbEntity
  8
268
100
AcDbLine
 62
7
  6
CONTINUOUS
 10
2.9903758519
 20
-24.2631337711
 11
2.9903758519
 21
-25.7687418973
  0
LINE
  5
2C0
100
AcDbEntity
  8
268
100
AcDbLine
 62
7
  6
CONTINUOUS
 10
2.9903758519
 20
14.7612469998
 11
2.9903758519
 21
16.4932978074
  0
LINE
  5
2C1
100
AcDbEntity
  8
268
100
AcDbLine
 62
7
  6
CONTINUOUS
 10
3.6933688062
 20
16.6286193051
 11
3.6933688062
 21
16.3676903288
  0
LINE
  5
2C2
100
AcDbEntity
  8
268
100
AcDbLine
 62
7
  6
CONTINUOUS
 10
3.6933688062
 20
-24.9319138106
 11
3.6933688062
 21
-25.192842787
  0
LINE
  5
2C3
100
AcDbEntity
  8
268
100
AcDbLine
 62
253
  6
CONTINUOUS
 10
4.0205865037
 20
20.8657291972
 11
4.0205865037
 21
19.6338906188
  0
LINE
  5
2C4
100
AcDbEntity
  8
268
100
AcDbLine
 62
7
  6
CONTINUOUS
 10
4.0863913628
 20
14.6096679032
 11
4.0863913628
 21
-23.5669139415
  0
LINE
  5
2C5
100
AcDbEntity
  8
218
100
AcDbLine
 62
7
  6
CONTINUOUS
 10
4.0863913628
 20
10.825517285
 11
4.0863913628
 21
-19.7827633234
  0
LINE
  5
2C6
100
AcDbEntity
  8
268
100
AcDbLine
 62
7
  6
CONTINUOUS
 10
4.1072239321
 20
20.9701165725
 11
4.1072239321
 21
19.7377480807
  0
LWPOLYLINE
  5
2C7
100
AcDbEntity
  8
268
100
AcDbPolyline
 62
7
  6
CONTINUOUS
 90
18
 70
0
 10
3.3792845816
 20
-23.9280250213
 10
3.3789449141
 20
-23.9437194089
 10
3.3779284766
 20
-23.9590313347
 10
3.3762377433
 20
-23.9739189875
 10
3.3738767387
 20
-23.9883418699
 10
3.3708519271
 20
-24.0022604524
 10
3.3671721946
 20
-24.0156362809
 10
3.3628473416
 20
-24.0284328357
 10
3.3578889117
 20
-24.0406151969
 10
3.3523110612
 20
-24.0521496816
 10
3.346128817
 20
-24.0630048036
 10
3.3393588267
 20
-24.0731509564
 10
3.3320201683
 20
-24.0825600583
 10
3.3241327263
 20
-24.091206432
 10
3.3157178424
 20
-24.0990665137
 10
3.3067990473
 20
-24.1061185155
 10
3.2974005935
 20
-24.1123432011
 10
3.289315759
 20
-24.1168375771
  0
LINE
  5
2C8
100
AcDbEntity
  8
218
100
AcDbLine
 62
253
  6
CONTINUOUS
 10
18.976986925
 20
12.4367950742
 11
18.969224784
 21
12.4297649848
  0
LWPOLYLINE
  5
2C9
100
AcDbEntity
  8
218
100
AcDbPolyline
 62
253
  6
CONTINUOUS
 90
56
 70
0
 10
18.6885645843
 20
12.6745556593
 10
18.6943654975
 20
12.6797403184
 10
18.7001455215
 20
12.684709238
 10
18.7059034326
 20
12.6894625824
 10
18.7116329908
 20
12.6940033178
 10
18.7173380438
 20
12.6983287442
 10
18.7230320509
 20
12.7024307083
 10
18.7287154029
 20
12.7063122385
 10
18.7343842084
 20
12.709970971
 10
18.7400447824
 20
12.7133909505
 10
18.7456968431
 20
12.71657385
 10
18.7513364882
 20
12.7195188172
 10
18.7569642085
 20
12.7222062368
 10
18.7625767332
 20
12.7246358256
 10
18.7681728219
 20
12.7268086663
 10
18.7737556618
 20
12.7287072886
 10
18.7793118058
 20
12.7303322529
 10
18.7848498025
 20
12.7316837813
 10
18.7904040544
 20
12.7327444924
 10
18.795958633
 20
12.7335247261
 10
18.8015211831
 20
12.7340158968
 10
18.8071566436
 20
12.7341738102
 10
18.8128670241
 20
12.7340120471
 10
18.8186338767
 20
12.733521035
 10
18.8244858758
 20
12.7326235133
 10
18.8304331479
 20
12.7313161284
 10
18.836442385
 20
12.7296075225
 10
18.842476077
 20
12.7274385381
 10
18.8485274584
 20
12.7247959257
 10
18.8545814979
 20
12.7216968254
 10
18.8605919924
 20
12.7181264032
 10
18.8665321459
 20
12.7140900203
 10
18.8724116099
 20
12.7095841007
 10
18.8782395211
 20
12.7045799827
 10
18.8839965345
 20
12.699090002
 10
18.8896796727
 20
12.6931039799
 10
18.8953164457
 20
12.6865606068
 10
18.9008940518
 20
12.6794601651
 10
18.9063914821
 20
12.6718057015
 10
18.9118158246
 20
12.6635413103
 10
18.9171526273
 20
12.6546529394
 10
18.9223718667
 20
12.6451580594
 10
18.9274526127
 20
12.6350483519
 10
18.9323652788
 20
12.6243309492
 10
18.9370911384
 20
12.6130003379
 10
18.9416204915
 20
12.6010292821
 10
18.9459155533
 20
12.5884390458
 10
18.9499542696
 20
12.5752085508
 10
18.9537354031
 20
12.5612478864
 10
18.9572138757
 20
12.5465589398
 10
18.9603462283
 20
12.531138602
 10
18.9631080451
 20
12.5148903046
 10
18.9654412368
 20
12.4977626229
 10
18.9672742259
 20
12.4798015987
 10
18.9685416389
 20
12.4610559622
 10
18.9691708783
 20
12.4414100916
  0
LWPOLYLINE
  5
2CA
100
AcDbEntity
  8
218
100
AcDbPolyline
 62
253
  6
CONTINUOUS
 90
56
 70
0
 10
18.8061152201
 20
0.8607602251
 10
18.8131141583
 20
0.8632713672
 10
18.8201715207
 20
0.8655577021
 10
18.8272863839
 20
0.8676205186
 10
18.8344417633
 20
0.8694739573
 10
18.8416525001
 20
0.8711067424
 10
18.8489648955
 20
0.8724826763
 10
18.856396219
 20
0.873612693
 10
18.8639253949
 20
0.8744907245
 10
18.8715402005
 20
0.8750562899
 10
18.8792517889
 20
0.8753112669
 10
18.8870430151
 20
0.8752611247
 10
18.8948581871
 20
0.8748518926
 10
18.9026838466
 20
0.8740843902
 10
18.9105253763
 20
0.8729673847
 10
18.9183542975
 20
0.8714599438
 10
18.9261541126
 20
0.8695722404
 10
18.9339307199
 20
0.8673065575
 10
18.9416874615
 20
0.8646121647
 10
18.9494268188
 20
0.8614972483
 10
18.9571314505
 20
0.857971211
 10
18.9647726447
 20
0.8539878586
 10
18.9723500949
 20
0.8495505122
 10
18.9798448009
 20
0.8446789515
 10
18.9871984303
 20
0.8393534984
 10
18.9943876527
 20
0.8335972808
 10
19.001413896
 20
0.8274138477
 10
19.0082537855
 20
0.8207568159
 10
19.0148901348
 20
0.8136625647
 10
19.0213124956
 20
0.8061293579
 10
19.0275018449
 20
0.7980608676
 10
19.0334541552
 20
0.7894842282
 10
19.0391341496
 20
0.7804231609
 10
19.0444679058
 20
0.7707865001
 10
19.0494399254
 20
0.7606195061
 10
19.0540147212
 20
0.7499454409
 10
19.0580790186
 20
0.7386525299
 10
19.0616162878
 20
0.7267748998
 10
19.0645753367
 20
0.7143734794
 10
19.0667828758
 20
0.7013878468
 10
19.068197284
 20
0.6877771312
 10
19.0687785963
 20
0.6737032416
 10
19.0683708577
 20
0.6593900459
 10
19.0669062336
 20
0.6448176958
 10
19.0644063775
 20
0.6300851137
 10
19.0608939488
 20
0.6155312813
 10
19.0563674375
 20
0.6012135447
 10
19.0508406719
 20
0.587070913
 10
19.0443930895
 20
0.5732147563
 10
19.0370435378
 20
0.5596538671
 10
19.0287966416
 20
0.5463572689
 10
19.0197194474
 20
0.5333626303
 10
19.0098259367
 20
0.5206588465
 10
18.9991266296
 20
0.5082306279
 10
18.9876861117
 20
0.4961046027
 10
18.9755201306
 20
0.4842684456
  0
LWPOLYLINE
  5
2CB
100
AcDbEntity
  8
268
100
AcDbPolyline
 62
7
  6
CONTINUOUS
 90
4
 70
0
 10
8.8628299358
 20
-18.613495984
 10
8.8625954302
 20
-18.61172777
 10
8.8614546541
 20
-18.6087955443
 10
8.8594103226
 20
-18.6054161763
  0
LINE
  5
2CC
100
AcDbEntity
  8
268
100
AcDbLine
 62
7
  6
CONTINUOUS
 10
8.8627834652
 20
18.9037062636
 11
8.8627916164
 21
18.8975960311
  0
LINE
  5
2CD
100
AcDbEntity
  8
268
100
AcDbLine
 62
253
  6
CONTINUOUS
 10
8.7786318976
 20
18.6098924197
 11
8.7786318976
 21
18.3976332656
  0
LINE
  5
2CE
100
AcDbEntity
  8
268
100
AcDbLine
 62
253
  6
CONTINUOUS
 10
8.7786318976
 20
-18.3443333048
 11
8.7786318976
 21
-18.5341030089
  0
LINE
  5
2CF
100
AcDbEntity
  8
268
100
AcDbLine
 62
7
  6
CONTINUOUS
 10
8.8628299575
 20
18.897513298
 11
8.8628299575
 21
18.3215501084
  0
LINE
  5
2D0
100
AcDbEntity
  8
268
100
AcDbLine
 62
7
  6
CONTINUOUS
 10
8.8628299575
 20
-18.2998079838
 11
8.8628299575
 21
-18.6133263761
  0
LWPOLYLINE
  5
2D1
100
AcDbEntity
  8
218
100
AcDbPolyline
 62
7
  6
CONTINUOUS
 90
38
 70
0
 10
8.4781698528
 20
19.328967475
 10
8.4783541111
 20
19.3448843442
 10
8.4796515997
 20
19.374098984
 10
8.4821904787
 20
19.4032932399
 10
8.4859696015
 20
19.4324539259
 10
8.4909872612
 20
19.4615678714
 10
8.4972411915
 20
19.4906219269
 10
8.5047285678
 20
19.5196029699
 10
8.5134460084
 20
19.5484979108
 10
8.5233895759
 20
19.577293699
 10
8.5345547793
 20
19.6059773286
 10
8.5469365757
 20
19.6345358445
 10
8.5605293727
 20
19.662956348
 10
8.5753270311
 20
19.6912260027
 10
8.5913228674
 20
19.7193320405
 10
8.6085096569
 20
19.7472617669
 10
8.6268796372
 20
19.7750025673
 10
8.6464245111
 20
19.8025419124
 10
8.6671354512
 20
19.8298673637
 10
8.6890031032
 20
19.8569665796
 10
8.7120175903
 20
19.8838273204
 10
8.7361685179
 20
19.9104374543
 10
8.7614449781
 20
19.9367849625
 10
8.7878355545
 20
19.9628579451
 10
8.8153283275
 20
19.988644626
 10
8.84391088
 20
20.0141333583
 10
8.8735703022
 20
20.0393126299
 10
8.9042931984
 20
20.0641710684
 10
8.9360656922
 20
20.0886974463
 10
8.9688734333
 20
20.1128806859
 10
9.002701604
 20
20.1367098649
 10
9.0375349253
 20
20.1601742205
 10
9.0733576647
 20
20.1832631548
 10
9.1101536423
 20
20.2059662396
 10
9.1479062391
 20
20.2282732208
 10
9.1865984037
 20
20.2501740233
 10
9.2262126606
 20
20.2716587554
 10
9.2667311176
 20
20.2927177134
  0
LWPOLYLINE
  5
2D2
100
AcDbEntity
  8
268
100
AcDbPolyline
 62
7
  6
CONTINUOUS
 90
16
 70
0
 10
8.8627916164
 20
18.8975960311
 10
8.8625158429
 20
18.884110914
 10
8.8613916189
 20
18.8643340146
 10
8.8594103226
 20
18.8444357754
 10
8.8565395071
 20
18.8244855971
 10
8.8528228401
 20
18.804523098
 10
8.8483704294
 20
18.7845559336
 10
8.8431926313
 20
18.764624563
 10
8.8372874256
 20
18.7447727615
 10
8.8307343798
 20
18.7250072384
 10
8.8235392413
 20
18.7053618499
 10
8.8157026498
 20
18.6858736405
 10
8.8072863915
 20
18.6665526083
 10
8.7983099811
 20
18.6474240766
 10
8.7887570437
 20
18.6285272817
 10
8.7786318976
 20
18.6098924197
  0
LWPOLYLINE
  5
2D3
100
AcDbEntity
  8
218
100
AcDbPolyline
 62
7
  6
CONTINUOUS
 90
19
 70
0
 10
18.6885645843
 20
12.6745466392
 10
18.693820725
 20
12.6829361946
 10
18.6992186832
 20
12.6912604637
 10
18.7047584591
 20
12.6995194464
 10
18.7104369508
 20
12.7077198362
 10
18.7162572601
 20
12.7158549396
 10
18.7222286927
 20
12.7239046762
 10
18.728351375
 20
12.7318682093
 10
18.7346251806
 20
12.7397463755
 10
18.7410590358
 20
12.7475216038
 10
18.7476555235
 20
12.7551957786
 10
18.7544120608
 20
12.7627670154
 10
18.7613298249
 20
12.7702120902
 10
18.7684134987
 20
12.7775336791
 10
18.7756583993
 20
12.784729106
 10
18.783051656
 20
12.7917671176
 10
18.7905889786
 20
12.7986372963
 10
18.7982746574
 20
12.8053500598
 10
18.8061086922
 20
12.8119054082
  0
LINE
  5
2D4
100
AcDbEntity
  8
RACCORDO
100
AcDbLine
 62
253
  6
CONTINUOUS
 10
-18.1146492811
 20
17.3674831031
 11
-3.7861689465
 21
10.2032429358
  0
LWPOLYLINE
  5
2D5
100
AcDbEntity
  8
218
100
AcDbPolyline
 62
7
  6
CONTINUOUS
 90
4
 70
0
 10
8.4816144691
 20
19.2608404958
 10
8.4794850885
 20
19.2864466958
 10
8.478298599
 20
19.3156625153
 10
8.4781698528
 20
19.328967475
  0
LWPOLYLINE
  5
2D6
100
AcDbEntity
  8
268
100
AcDbPolyline
 62
7
  6
CONTINUOUS
 90
5
 70
0
 10
8.8628299393
 20
18.3213590956
 10
8.8628172889
 20
18.3216940313
 10
8.8625228858
 20
18.32321182
 10
8.8618475508
 20
18.3249284843
 10
8.8608034579
 20
18.3268481881
  0
LWPOLYLINE
  5
2D7
100
AcDbEntity
  8
268
100
AcDbPolyline
 62
7
  6
CONTINUOUS
 90
7
 70
0
 10
8.8627834652
 20
18.9037062636
 10
8.8626918571
 20
18.9080140649
 10
8.8625526864
 20
18.9123253955
 10
8.862365953
 20
18.9166402555
 10
8.8621316568
 20
18.9209586448
 10
8.8618497981
 20
18.9252805635
 10
8.8615203766
 20
18.9296060116
  0
LINE
  5
2D8
100
AcDbEntity
  8
218
100
AcDbLine
 62
253
  6
CONTINUOUS
 10
9.2667311176
 20
20.2927177134
 11
9.2667311176
 21
19.8824986705
  0
LINE
  5
2D9
100
AcDbEntity
  8
218
100
AcDbLine
 62
7
  6
CONTINUOUS
 10
9.9494413155
 20
20.2249567627
 11
9.9494413155
 21
19.7919440608
  0
LINE
  5
2DA
100
AcDbEntity
  8
715
100
AcDbLine
 62
7
  6
CONTINUOUS
 10
10.916905028
 20
18.991591351
 11
10.916905028
 21
18.5392667106
  0
LINE
  5
2DB
100
AcDbEntity
  8
715
100
AcDbLine
 62
7
  6
CONTINUOUS
 10
11.3666496893
 20
18.8698435178
 11
11.3666496893
 21
18.5302189281
  0
LINE
  5
2DC
100
AcDbEntity
  8
268
100
AcDbLine
 62
7
  6
CONTINUOUS
 10
8.8627834652
 20
-18.6142379388
 11
8.8628299358
 21
-18.613495984
  0
LWPOLYLINE
  5
2DD
100
AcDbEntity
  8
218
100
AcDbPolyline
 62
7
  6
CONTINUOUS
 90
136
 70
0
 10
18.8061086302
 20
0.8607547818
 10
18.8654750174
 20
0.9094577876
 10
18.9229645587
 20
0.9569457053
 10
18.9785772542
 20
1.0032185348
 10
19.0322580194
 20
1.0482416782
 10
19.0840619387
 20
1.0920497334
 10
19.1341542653
 20
1.1347464944
 10
19.1825424329
 20
1.1763370504
 10
19.2292190078
 20
1.2168163121
 10
19.2743269413
 20
1.2562728071
 10
19.3178704619
 20
1.2947090888
 10
19.3598453411
 20
1.3321226036
 10
19.4003818459
 20
1.3685942184
 10
19.4394838699
 20
1.4041262983
 10
19.4771475194
 20
1.4387164781
 10
19.513491381
 20
1.4724385296
 10
19.5485190505
 20
1.5052946629
 10
19.5822269321
 20
1.5372826677
 10
19.6147228247
 20
1.5684696853
 10
19.6460100487
 20
1.5988577961
 10
19.6760852839
 20
1.6284449195
 10
19.7050463678
 20
1.6572919558
 10
19.7328963683
 20
1.6854008879
 10
19.7596322175
 20
1.7127697328
 10
19.7853425501
 20
1.7394534416
 10
19.8100301951
 20
1.7654539343
 10
19.8336923234
 20
1.7907692908
 10
19.856409082
 20
1.8154487021
 10
19.8781830654
 20
1.839494064
 10
19.8990116792
 20
1.8629034807
 10
19.9189672875
 20
1.8857204549
 10
19.9380522369
 20
1.9079469008
 10
19.9562641809
 20
1.9295809042
 10
19.9736684439
 20
1.9506602256
 10
19.9902670834
 20
1.9711868351
 10
20.006058042
 20
1.9911587625
 10
20.0211004711
 20
2.0106078584
 10
20.0353960585
 20
2.0295361691
 10
20.0489431164
 20
2.0479416481
 10
20.0617957341
 20
2.0658500066
 10
20.0739550955
 20
2.0832633407
 10
20.0854200167
 20
2.1001795543
 10
20.0962410341
 20
2.1166180692
 10
20.1064185815
 20
2.1325807864
 10
20.1159522253
 20
2.1480658049
 10
20.1248912012
 20
2.1630868439
 10
20.1332352341
 20
2.177645736
 10
20.1409845992
 20
2.1917406486
 10
20.1481893581
 20
2.2053798023
 10
20.1548481576
 20
2.2185640469
 10
20.1609623509
 20
2.2312925326
 10
20.1665860596
 20
2.2435709309
 10
20.1717146158
 20
2.2553900331
 10
20.1763526872
 20
2.2667590478
 10
20.1805683993
 20
2.2777112721
 10
20.1843597722
 20
2.2882331031
 10
20.1877287856
 20
2.2983381436
 10
20.1907495041
 20
2.3081004994
 10
20.193427309
 20
2.3175180351
 10
20.195756819
 20
2.3265928861
 10
20.1977959545
 20
2.3354055639
 10
20.1995521338
 20
2.3439611633
 10
20.2010179387
 20
2.3522545897
 10
20.2022290347
 20
2.3603510708
 10
20.2031916878
 20
2.3682548792
 10
20.2038996321
 20
2.3759617423
 10
20.2043697343
 20
2.3835240705
 10
20.2046076164
 20
2.3909450774
 10
20.2046076566
 20
2.3982215494
 10
20.2043698563
 20
2.4053962556
 10
20.2038998379
 20
2.4124718024
 10
20.203191979
 20
2.4194455834
 10
20.2022294146
 20
2.4263525489
 10
20.2010184106
 20
2.4331949174
 10
20.1995527011
 20
2.4399704704
 10
20.1977966232
 20
2.4467075017
 10
20.1957575962
 20
2.4534085963
 10
20.1934282008
 20
2.4600711692
 10
20.1907505167
 20
2.4667157601
 10
20.1877299278
 20
2.4733500752
 10
20.18436105
 20
2.4799664081
 10
20.1805698106
 20
2.4865621803
 10
20.1763542283
 20
2.4931489497
 10
20.1717162843
 20
2.4997151583
 10
20.1665878492
 20
2.5062235532
 10
20.1609642538
 20
2.5126785099
 10
20.1548501673
 20
2.5190756529
 10
20.1481914685
 20
2.525364602
 10
20.1409868055
 20
2.5315431042
 10
20.1332375302
 20
2.5376134125
 10
20.1248935771
 20
2.5435319059
 10
20.1159546699
 20
2.5492964672
 10
20.106421085
 20
2.5549092136
 10
20.096243586
 20
2.560332876
 10
20.0854226064
 20
2.565566002
 10
20.0739577128
 20
2.570610044
 10
20.0617983681
 20
2.5754320898
 10
20.0489457562
 20
2.5800312692
 10
20.0353986933
 20
2.5844084523
 10
20.0211030909
 20
2.5885333381
 10
20.0060606365
 20
2.5924056274
 10
19.9902696427
 20
2.5960256193
 10
19.9736709589
 20
2.5993639102
 10
19.9562666424
 20
2.6024206606
 10
19.938054636
 20
2.60519571
 10
19.9189696165
 20
2.6076591732
 10
19.8990139305
 20
2.6098115657
 10
19.8781852314
 20
2.611652372
 10
19.856411157
 20
2.6131501597
 10
19.8336943016
 20
2.6143057191
 10
19.8100320708
 20
2.6151182599
 10
19.7853443195
 20
2.6155539785
 10
19.759633877
 20
2.6156138845
 10
19.732897914
 20
2.6152969684
 10
19.7050477982
 20
2.6145663981
 10
19.6760865974
 20
2.6134233673
 10
19.6460112437
 20
2.6118666824
 10
19.614723902
 20
2.6098559301
 10
19.5822278924
 20
2.6073924686
 10
19.5485198946
 20
2.6044749399
 10
19.5134921123
 20
2.6010588569
 10
19.4771481411
 20
2.597145733
 10
19.4394843854
 20
2.5927340548
 10
19.4003822615
 20
2.5877747953
 10
19.3598456626
 20
2.5822696211
 10
19.3178706956
 20
2.5762168656
 10
19.2743270966
 20
2.5695625015
 10
19.2292190938
 20
2.5623083537
 10
19.1825424591
 20
2.5544525975
 10
19.1341542442
 20
2.5459357308
 10
19.0840618767
 20
2.5367603614
 10
19.032257929
 20
2.5269238816
 10
18.9785771704
 20
2.5163589663
 10
18.922964524
 20
2.505043174
 10
18.8654750665
 20
2.4929989462
 10
18.8061087982
 20
2.480226283
  0
LWPOLYLINE
  5
2DE
100
AcDbEntity
  8
218
100
AcDbPolyline
 62
253
  6
CONTINUOUS
 90
104
 70
0
 10
19.8844015696
 20
1.0628198363
 10
19.9187016438
 20
1.0859125075
 10
19.9495555837
 20
1.1083030264
 10
19.9797564127
 20
1.131802786
 10
20.009290882
 20
1.1564014737
 10
20.0381460668
 20
1.1820883215
 10
20.0663093466
 20
1.2088520948
 10
20.0937683949
 20
1.2366810831
 10
20.1205111619
 20
1.2655630782
 10
20.146525906
 20
1.2954853991
 10
20.1718012139
 20
1.3264349141
 10
20.1963260262
 20
1.358398077
 10
20.2200896177
 20
1.3913609093
 10
20.2430815871
 20
1.4253089879
 10
20.2652918443
 20
1.4602274193
 10
20.2867106378
 20
1.4961008721
 10
20.3073285714
 20
1.5329136045
 10
20.3271366237
 20
1.5706495039
 10
20.346126131
 20
1.6092920654
 10
20.3642887806
 20
1.6488243779
 10
20.3816166023
 20
1.6892290994
 10
20.3981019898
 20
1.7304884935
 10
20.4137377127
 20
1.7725844587
 10
20.4285169286
 20
1.8154985677
 10
20.4424331713
 20
1.8592120446
 10
20.4554803474
 20
1.9037057543
 10
20.4676527326
 20
1.9489601818
 10
20.4789449856
 20
1.99495547
 10
20.4893521555
 20
2.0416714462
 10
20.4988696866
 20
2.0890876552
 10
20.507493413
 20
2.1371833419
 10
20.5152195572
 20
2.1859374446
 10
20.5220447306
 20
2.2353285865
 10
20.5279659398
 20
2.285335107
 10
20.5329805897
 20
2.3359350834
 10
20.5370864846
 20
2.3871063519
 10
20.540281826
 20
2.4388265002
 10
20.5425652139
 20
2.4910728695
 10
20.5439356471
 20
2.5438225608
 10
20.5443925249
 20
2.5970524553
 10
20.543935647
 20
2.6507392276
 10
20.5425652137
 20
2.7048593521
 10
20.5402818257
 20
2.7593891094
 10
20.5370864842
 20
2.8143045991
 10
20.5329805893
 20
2.8695817625
 10
20.5279659392
 20
2.9251963889
 10
20.5220447299
 20
2.9811241187
 10
20.5152195565
 20
3.037340434
 10
20.5074934121
 20
3.093820681
 10
20.4988696857
 20
3.1505400941
 10
20.4893521545
 20
3.2074738342
 10
20.4789449845
 20
3.2645969803
 10
20.4676527313
 20
3.3218845216
 10
20.4554803461
 20
3.3793113343
 10
20.4424331699
 20
3.4368522201
 10
20.4285169271
 20
3.4944819398
 10
20.4137377111
 20
3.5521752646
 10
20.3981019881
 20
3.6099069528
 10
20.3816166006
 20
3.6676517344
 10
20.3642887788
 20
3.7253842775
 10
20.3461261291
 20
3.7830792397
 10
20.3271366216
 20
3.8407113086
 10
20.3073285693
 20
3.8982552603
 10
20.2867106355
 20
3.9556859264
 10
20.265291842
 20
4.0129781727
 10
20.2430815847
 20
4.0701068612
 10
20.2200896153
 20
4.1270469091
 10
20.1963260237
 20
4.1837733329
 10
20.1718012112
 20
4.2402613083
 10
20.1465259032
 20
4.2964861313
 10
20.1205111592
 20
4.3524231962
 10
20.0937683921
 20
4.4080479582
 10
20.0663093438
 20
4.4633359947
 10
20.0381460638
 20
4.5182630479
 10
20.0092908789
 20
4.5728050805
 10
19.9797564095
 20
4.6269382376
 10
19.9495555805
 20
4.6806388262
 10
19.9187016406
 20
4.7338832849
 10
19.8872081341
 20
4.7866482405
 10
19.8550888782
 20
4.8389105462
 10
19.8223579329
 20
4.8906473274
 10
19.7890296178
 20
4.9418359496
 10
19.7551185217
 20
4.9924540035
 10
19.7206395185
 20
5.0424792851
 10
19.6856077381
 20
5.0918898424
 10
19.6500385452
 20
5.140664006
 10
19.6139475138
 20
5.1887804222
 10
19.5773504407
 20
5.236218031
 10
19.5402633512
 20
5.2829560585
 10
19.5027025074
 20
5.3289740094
 10
19.4646843831
 20
5.3742517006
 10
19.4262256465
 20
5.4187692822
 10
19.3873431421
 20
5.4625072569
 10
19.3480538984
 20
5.5054464699
 10
19.3083751266
 20
5.5475681105
 10
19.268324219
 20
5.5888537152
 10
19.2279187307
 20
5.6292851873
 10
19.1871763689
 20
5.6688448085
 10
19.1461149856
 20
5.7075152453
 10
19.1047525745
 20
5.7452795518
 10
19.0631072629
 20
5.7821211777
 10
19.0211972978
 20
5.8180239812
 10
18.9790410376
 20
5.852972235
 10
18.969224784
 20
5.8608417103
  0
LINE
  5
2DF
100
AcDbEntity
  8
218
100
AcDbLine
 62
7
  6
CONTINUOUS
 10
18.969224784
 20
0.4708912182
 11
19.884401571
 21
1.0628198373
  0
LWPOLYLINE
  5
2E0
100
AcDbEntity
  8
RACCORDO
100
AcDbPolyline
 62
253
  6
CONTINUOUS
 90
16
 70
0
 10
-2.6781086563
 20
10.0747967304
 10
-2.7398131305
 20
10.0606684876
 10
-2.8066992902
 20
10.049743612
 10
-2.8780584639
 20
10.0421378549
 10
-2.9531345878
 20
10.0379318005
 10
-3.0311322164
 20
10.0371700129
 10
-3.11122495
 20
10.0398605634
 10
-3.1925641911
 20
10.045974945
 10
-3.2742881352
 20
10.0554483747
 10
-3.3555309017
 20
10.0681804798
 10
-3.4354317083
 20
10.0840363612
 10
-3.5131439909
 20
10.1028480228
 10
-3.5878443733
 20
10.1244161518
 10
-3.6587413909
 20
10.1485122298
 10
-3.7250838764
 20
10.1748809543
 10
-3.7861689188
 20
10.2032429437
  0
LWPOLYLINE
  5
2E1
100
AcDbEntity
  8
218
100
AcDbPolyline
 62
7
  6
CONTINUOUS
 90
19
 70
0
 10
18.8061086873
 20
14.431376829
 10
18.7983234875
 20
14.4298258588
 10
18.7906719702
 20
14.4285834117
 10
18.7831541354
 20
14.4276494877
 10
18.7757629485
 20
14.4270286414
 10
18.768505444
 20
14.4267163182
 10
18.761402726
 20
14.4266988541
 10
18.7544594459
 20
14.4269797247
 10
18.7476709523
 20
14.4275554544
 10
18.7410443944
 20
14.4284019525
 10
18.7345830951
 20
14.4295212236
 10
18.7282837315
 20
14.4309112632
 10
18.7221434837
 20
14.4325419669
 10
18.7161641232
 20
14.4344145896
 10
18.7103438786
 20
14.4365278766
 10
18.7046746158
 20
14.4388479592
 10
18.6991536234
 20
14.4413635479
 10
18.693783613
 20
14.4440859322
 10
18.6885645843
 20
14.4470151122
  0
LINE
  5
2E2
100
AcDbEntity
  8
RACCORDO
100
AcDbLine
 62
253
  6
CONTINUOUS
 10
-16.9990941307
 20
19.0099857301
 11
-2.6454290575
 21
11.8331531935
  0
LWPOLYLINE
  5
2E3
100
AcDbEntity
  8
218
100
AcDbPolyline
 62
253
  6
CONTINUOUS
 90
33
 70
0
 10
12.9733102953
 20
-7.2479340479
 10
12.9733712113
 20
-7.2714838209
 10
12.9728860364
 20
-7.2947520628
 10
12.9718551387
 20
-7.3177211109
 10
12.970279301
 20
-7.3403735296
 10
12.9681597193
 20
-7.3626921236
 10
12.9654980026
 20
-7.3846599512
 10
12.9622961714
 20
-7.4062603366
 10
12.9585566563
 20
-7.4274768832
 10
12.9542822958
 20
-7.4482934858
 10
12.9494763345
 20
-7.4686943426
 10
12.9441424207
 20
-7.4886639676
 10
12.9382846032
 20
-7.5081872018
 10
12.9319073288
 20
-7.5272492255
 10
12.9250154382
 20
-7.5458355687
 10
12.9176141631
 20
-7.5639321228
 10
12.9097091218
 20
-7.5815251508
 10
12.9013063148
 20
-7.5986012981
 10
12.8924121207
 20
-7.6151476021
 10
12.883033291
 20
-7.6311515029
 10
12.8731769451
 20
-7.6466008519
 10
12.8628505648
 20
-7.6614839217
 10
12.8520619889
 20
-7.6757894146
 10
12.8408194068
 20
-7.6895064716
 10
12.8291313526
 20
-7.70262468
 10
12.8170066988
 20
-7.7151340821
 10
12.8044546489
 20
-7.7270251819
 10
12.7914847312
 20
-7.7382889531
 10
12.7781067911
 20
-7.7489168454
 10
12.7643309835
 20
-7.7589007913
 10
12.7501677656
 20
-7.768233212
 10
12.7356278886
 20
-7.7769070235
 10
12.7287943155
 20
-7.7806857337
  0
LINE
  5
2E4
100
AcDbEntity
  8
218
100
AcDbLine
 62
7
  6
CONTINUOUS
 10
11.4049465481
 20
20.1655341968
 11
11.4049465481
 21
19.7217809009
  0
LINE
  5
2E5
100
AcDbEntity
  8
218
100
AcDbLine
 62
253
  6
CONTINUOUS
 10
11.9493519762
 20
-15.640732381
 11
11.9493519762
 21
-9.0769442436
  0
LINE
  5
2E6
100
AcDbEntity
  8
218
100
AcDbLine
 62
7
  6
CONTINUOUS
 10
13.4891678822
 20
22.3275049106
 11
13.4891678822
 21
22.0005388629
  0
LWPOLYLINE
  5
2E7
100
AcDbEntity
  8
218
100
AcDbPolyline
 62
7
  6
CONTINUOUS
 90
81
 70
0
 10
12.2300121758
 20
-15.2934031957
 10
12.2300236115
 20
-8.7258298198
 10
12.2301485734
 20
-8.7164351192
 10
12.2304206643
 20
-8.706592936
 10
12.2308515202
 20
-8.6963064883
 10
12.2314523015
 20
-8.6855847965
 10
12.2322333677
 20
-8.6744428847
 10
12.2332049923
 20
-8.6628882652
 10
12.2343770497
 20
-8.6509290599
 10
12.2357580791
 20
-8.6385826576
 10
12.2373567417
 20
-8.625860049
 10
12.2391814916
 20
-8.6127704388
 10
12.2412393845
 20
-8.5993296347
 10
12.2435376516
 20
-8.5855495102
 10
12.2460832428
 20
-8.5714415852
 10
12.2488818047
 20
-8.5570217669
 10
12.251939105
 20
-8.5423026159
 10
12.2552604492
 20
-8.5272977776
 10
12.2588496674
 20
-8.5120252238
 10
12.2627114672
 20
-8.4964966856
 10
12.2668488882
 20
-8.4807292584
 10
12.271261838
 20
-8.4647496468
 10
12.275952672
 20
-8.4485724584
 10
12.2809225888
 20
-8.4322145153
 10
12.2861679098
 20
-8.4157065796
 10
12.291688449
 20
-8.3990654598
 10
12.2974834977
 20
-8.3823077432
 10
12.3035466364
 20
-8.365464297
 10
12.309875524
 20
-8.3485524017
 10
12.3164672857
 20
-8.3315892041
 10
12.3233128455
 20
-8.3146054802
 10
12.3304076878
 20
-8.2976185521
 10
12.3377468865
 20
-8.28064561
 10
12.3453188985
 20
-8.2637169522
 10
12.3531171851
 20
-8.2468493769
 10
12.3611348185
 20
-8.2300597843
 10
12.3693577845
 20
-8.2133779577
 10
12.3777778058
 20
-8.1968196785
 10
12.3863859753
 20
-8.1804011997
 10
12.395165588
 20
-8.1641520482
 10
12.4041066209
 20
-8.148087071
 10
12.4131985887
 20
-8.1322209296
 10
12.4224226484
 20
-8.1165816353
 10
12.4317670031
 20
-8.1011831487
 10
12.4412202294
 20
-8.0860376872
 10
12.4507629005
 20
-8.0711691899
 10
12.4603820651
 20
-8.0565899181
 10
12.4700655379
 20
-8.0423099186
 10
12.4797941987
 20
-8.0283482987
 10
12.48955497
 20
-8.0147144061
 10
12.4993345496
 20
-8.0014170574
 10
12.5091128846
 20
-7.9884729944
 10
12.5188761598
 20
-7.9758895378
 10
12.5286109683
 20
-7.9636729427
 10
12.5382973021
 20
-7.9518366461
 10
12.5479212229
 20
-7.9403854267
 10
12.5574691132
 20
-7.9293232828
 10
12.5669209997
 20
-7.9186607006
 10
12.5762630651
 20
-7.9084000441
 10
12.5854818157
 20
-7.8985427729
 10
12.5945577484
 20
-7.8890961784
 10
12.6034758676
 20
-7.8800617903
 10
12.612224856
 20
-7.8714367959
 10
12.6207907961
 20
-7.8632206265
 10
12.6291594713
 20
-7.8554125526
 10
12.6373201155
 20
-7.8480080859
 10
12.6452639025
 20
-7.8410007278
 10
12.6529786199
 20
-7.8343868366
 10
12.6604523778
 20
-7.8281621553
 10
12.6676762785
 20
-7.8223195665
 10
12.6746390958
 20
-7.8168535607
 10
12.6813284788
 20
-7.8117591652
 10
12.6877330847
 20
-7.8070302396
 10
12.6938423547
 20
-7.8026596201
 10
12.6996439038
 20
-7.7986409844
 10
12.7051230632
 20
-7.7949690183
 10
12.7102691223
 20
-7.7916351815
 10
12.715071425
 20
-7.7886304492
 10
12.7195149867
 20
-7.7859479044
 10
12.7235877505
 20
-7.7835781697
 10
12.7272812078
 20
-7.7815093688
  0
LWPOLYLINE
  5
2E8
100
AcDbEntity
  8
218
100
AcDbPolyline
 62
253
  6
CONTINUOUS
 90
67
 70
0
 10
11.9493519762
 20
-9.0769442436
 10
11.94962924
 20
-9.0465604637
 10
11.9504781383
 20
-9.0158674521
 10
11.9518986711
 20
-8.9848652088
 10
11.9538899404
 20
-8.9535299425
 10
11.9564528443
 20
-8.9218854445
 10
11.9595900763
 20
-8.8900030888
 10
11.9633039826
 20
-8.8578827909
 10
11.967592217
 20
-8.8255246352
 10
11.972450435
 20
-8.7930002501
 10
11.9778810227
 20
-8.760308665
 10
11.9838815939
 20
-8.7274508504
 10
11.9904406451
 20
-8.6945013455
 10
11.9975602812
 20
-8.6614604183
 10
12.0052383972
 20
-8.6283278008
 10
12.0134571747
 20
-8.5951772287
 10
12.0222168092
 20
-8.5620140556
 10
12.0315171053
 20
-8.5288329278
 10
12.0413396579
 20
-8.4956915203
 10
12.0516835886
 20
-8.4625946563
 10
12.0625497758
 20
-8.4295375124
 10
12.0739224499
 20
-8.3965632936
 10
12.0858018842
 20
-8.3636717142
 10
12.0981878056
 20
-8.3308630597
 10
12.1110636243
 20
-8.2981813922
 10
12.1244310163
 20
-8.2656238083
 10
12.1382883056
 20
-8.2331932113
 10
12.1526138751
 20
-8.2009423737
 10
12.1674093158
 20
-8.1688699576
 10
12.1826730365
 20
-8.1369773009
 10
12.1983786466
 20
-8.1053211896
 10
12.2145270117
 20
-8.0739022124
 10
12.2311172661
 20
-8.0427197805
 10
12.248120422
 20
-8.0118289138
 10
12.2655373194
 20
-7.9812302177
 10
12.2833671183
 20
-7.9509230867
 10
12.3015783107
 20
-7.9209607241
 10
12.320171773
 20
-7.8913437084
 10
12.3391466288
 20
-7.8620714612
 10
12.3584687405
 20
-7.8331954502
 10
12.3781378402
 20
-7.8047177346
 10
12.3981541959
 20
-7.7766362552
 10
12.4184844738
 20
-7.748996302
 10
12.4391271131
 20
-7.7218008415
 10
12.4600836747
 20
-7.6950469072
 10
12.4813255081
 20
-7.6687708907
 10
12.5028522922
 20
-7.6429734688
 10
12.524664348
 20
-7.6176539647
 10
12.5467339887
 20
-7.5928467392
 10
12.5690643991
 20
-7.5685490621
 10
12.5916523942
 20
-7.5447636636
 10
12.6144607317
 20
-7.5215330951
 10
12.6374938159
 20
-7.4988550804
 10
12.6607472424
 20
-7.4767318956
 10
12.6841705562
 20
-7.4552129203
 10
12.7077651985
 20
-7.4342998301
 10
12.731529728
 20
-7.4139909492
 10
12.7554093668
 20
-7.3943306306
 10
12.7794043886
 20
-7.3753217056
 10
12.8035145197
 20
-7.3569613427
 10
12.8276841597
 20
-7.3392854007
 10
12.8519144123
 20
-7.3222962123
 10
12.8762041739
 20
-7.3059914448
 10
12.9004945341
 20
-7.2903999585
 10
12.924765856
 20
-7.2755313737
 10
12.9490377764
 20
-7.2613760702
 10
12.9733102953
 20
-7.2479340479
  0
LWPOLYLINE
  5
2E9
100
AcDbEntity
  8
268
100
AcDbPolyline
 62
7
  6
CONTINUOUS
 90
7
 70
0
 10
8.8627834652
 20
-18.6142379388
 10
8.8626918571
 20
-18.6147235463
 10
8.8625526864
 20
-18.615235694
 10
8.862365953
 20
-18.6157743821
 10
8.8621316568
 20
-18.6163396104
 10
8.8618497981
 20
-18.616931379
 10
8.8615203766
 20
-18.6175496879
  0
LINE
  5
2EA
100
AcDbEntity
  8
218
100
AcDbLine
 62
7
  6
CONTINUOUS
 10
18.9702045907
 20
12.4408793459
 11
18.9702258629
 21
12.440936992
  0
LINE
  5
2EB
100
AcDbEntity
  8
218
100
AcDbLine
 62
253
  6
CONTINUOUS
 10
18.9755201306
 20
0.4842684456
 11
18.969224784
 21
0.4786169149
  0
LWPOLYLINE
  5
2EC
100
AcDbEntity
  8
218
100
AcDbPolyline
 62
253
  6
CONTINUOUS
 90
55
 70
0
 10
18.6885645843
 20
0.723404262
 10
18.6943334884
 20
0.7285604866
 10
18.7000792038
 20
0.7335019137
 10
18.7058005962
 20
0.7382286732
 10
18.7114911729
 20
0.7427430282
 10
18.7171552245
 20
0.7470429112
 10
18.7228073197
 20
0.7511221506
 10
18.7284478719
 20
0.7549839601
 10
18.7340731127
 20
0.7586257479
 10
18.7396905611
 20
0.7620329468
 10
18.7452998907
 20
0.7652074577
 10
18.7508973326
 20
0.7681481874
 10
18.7564847715
 20
0.7708362378
 10
18.7620593859
 20
0.7732717244
 10
18.7676194727
 20
0.7754553613
 10
18.7731682012
 20
0.7773692619
 10
18.7786937238
 20
0.7790139274
 10
18.784202943
 20
0.780389681
 10
18.7897255802
 20
0.7814788936
 10
18.7952468335
 20
0.7822904383
 10
18.8007736124
 20
0.7828170914
 10
18.8063639535
 20
0.7830184663
 10
18.8120175202
 20
0.7829072829
 10
18.8177195806
 20
0.7824744431
 10
18.8235013515
 20
0.7816483967
 10
18.8293669064
 20
0.7804304581
 10
18.8352906625
 20
0.7788242036
 10
18.8412569725
 20
0.7767620006
 10
18.8472585027
 20
0.7742369689
 10
18.8532794824
 20
0.7712603694
 10
18.8592924109
 20
0.767791312
 10
18.8652747057
 20
0.7638335159
 10
18.8712266246
 20
0.7593864126
 10
18.8771539854
 20
0.7544026288
 10
18.8830389196
 20
0.7488880756
 10
18.8888711625
 20
0.7428402433
 10
18.8946628496
 20
0.7361999498
 10
18.9004052258
 20
0.7289533886
 10
18.9060689419
 20
0.7211183393
 10
18.9116317726
 20
0.7126832872
 10
18.9170722809
 20
0.7036439202
 10
18.9223716138
 20
0.6940069588
 10
18.927510535
 20
0.6837770645
 10
18.9324527555
 20
0.6729848665
 10
18.9371917112
 20
0.6616003813
 10
18.941742768
 20
0.649538116
 10
18.9460732641
 20
0.6367979268
 10
18.9501485273
 20
0.6233808321
 10
18.9539610863
 20
0.6092044652
 10
18.9574674174
 20
0.5942478485
 10
18.9606155811
 20
0.5785308521
 10
18.9633667441
 20
0.5620325738
 10
18.9656603057
 20
0.5447516036
 10
18.9674381459
 20
0.5266828124
 10
18.9686430606
 20
0.5077987248
  0
LWPOLYLINE
  5
2ED
100
AcDbEntity
  8
218
100
AcDbPolyline
 62
7
  6
CONTINUOUS
 90
41
 70
0
 10
18.4440470628
 20
-4.697175759
 10
18.4601671036
 20
-4.6882861354
 10
18.4833967062
 20
-4.6747811987
 10
18.5062705512
 20
-4.660647163
 10
18.528770285
 20
-4.6458936896
 10
18.5508749012
 20
-4.6305331388
 10
18.5725713645
 20
-4.6145731492
 10
18.5938530928
 20
-4.5980162519
 10
18.6147102544
 20
-4.5808666058
 10
18.6351184633
 20
-4.5631407088
 10
18.6550498852
 20
-4.5448604545
 10
18.6744820882
 20
-4.5260454896
 10
18.6934073883
 20
-4.5067023187
 10
18.7118205823
 20
-4.4868339164
 10
18.7297087824
 20
-4.4664507287
 10
18.7470546299
 20
-4.4455689808
 10
18.7638456749
 20
-4.4242000105
 10
18.7800681147
 20
-4.4023573244
 10
18.7957072483
 20
-4.3800565205
 10
18.8107495828
 20
-4.3573125425
 10
18.825181781
 20
-4.3341410746
 10
18.8389909679
 20
-4.3105581231
 10
18.8521648877
 20
-4.2865797038
 10
18.8646915345
 20
-4.2622224633
 10
18.8765591386
 20
-4.2375038194
 10
18.8877564317
 20
-4.2124415137
 10
18.8982729651
 20
-4.1870528067
 10
18.9080981525
 20
-4.1613567437
 10
18.9172214357
 20
-4.1353743546
 10
18.9256342842
 20
-4.1091229383
 10
18.9333274971
 20
-4.0826236376
 10
18.9402911178
 20
-4.0559039707
 10
18.9465163354
 20
-4.0289931446
 10
18.951999339
 20
-4.0019025355
 10
18.9567375387
 20
-3.9746331285
 10
18.9607266761
 20
-3.9471863232
 10
18.9639569761
 20
-3.9196019384
 10
18.9664199642
 20
-3.8919390469
 10
18.968112644
 20
-3.8642432139
 10
18.969036236
 20
-3.836512099
 10
18.969224784
 20
-3.8170925763
  0
LINE
  5
2EE
100
AcDbEntity
  8
218
100
AcDbLine
 62
253
  6
CONTINUOUS
 10
12.9733102953
 20
-7.2479340479
 11
18.6885645843
 21
-4.1644232414
  0
LINE
  5
2EF
100
AcDbEntity
  8
218
100
AcDbLine
 62
7
  6
CONTINUOUS
 10
12.7272812078
 20
-7.7815093688
 11
18.4440486045
 21
-4.6971749272
  0
LWPOLYLINE
  5
2F0
100
AcDbEntity
  8
218
100
AcDbPolyline
 62
253
  6
CONTINUOUS
 90
29
 70
0
 10
18.6885645843
 20
-4.1644232414
 10
18.7072258997
 20
-4.1544938017
 10
18.7253391633
 20
-4.1443138009
 10
18.7428909237
 20
-4.1338907987
 10
18.7598681471
 20
-4.1232325348
 10
18.7762582247
 20
-4.1123469247
 10
18.7920489825
 20
-4.1012420539
 10
18.8072286931
 20
-4.0899261695
 10
18.8217860846
 20
-4.0784076746
 10
18.8357103464
 20
-4.066695123
 10
18.848991138
 20
-4.0547972127
 10
18.8616185969
 20
-4.0427227793
 10
18.8735833454
 20
-4.0304807899
 10
18.8848764982
 20
-4.0180803357
 10
18.895489669
 20
-4.0055306256
 10
18.9054149763
 20
-3.9928409793
 10
18.9146450493
 20
-3.9800208204
 10
18.9231730338
 20
-3.9670796695
 10
18.9309925966
 20
-3.9540271372
 10
18.938097931
 20
-3.9408729166
 10
18.9444837605
 20
-3.9276267763
 10
18.9501453429
 20
-3.9142985534
 10
18.9550784741
 20
-3.9008981457
 10
18.9592794908
 20
-3.8874355048
 10
18.9627452733
 20
-3.8739206285
 10
18.9654732483
 20
-3.8603635532
 10
18.9674613899
 20
-3.8467743467
 10
18.9687082222
 20
-3.8331631009
 10
18.9691968312
 20
-3.8199715738
  0
LWPOLYLINE
  5
2F1
100
AcDbEntity
  8
218
100
AcDbPolyline
 62
253
  6
CONTINUOUS
 90
30
 70
0
 10
11.9493519762
 20
-9.0769442436
 10
11.9680131166
 20
-9.0670148996
 10
11.9861262132
 20
-9.0568350006
 10
12.0036778153
 20
-9.0464121063
 10
12.0206548888
 20
-9.0357539568
 10
12.0370448265
 20
-9.0248684668
 10
12.0528354571
 20
-9.0137637201
 10
12.0680150545
 20
-9.002447963
 10
12.0825723462
 20
-8.9909295987
 10
12.0964965219
 20
-8.9792171808
 10
12.1097772414
 20
-8.967319407
 10
12.1224046424
 20
-8.9552451127
 10
12.1343693477
 20
-8.9430032643
 10
12.1456624723
 20
-8.9306029527
 10
12.1562756298
 20
-8.9180533864
 10
12.1662009389
 20
-8.9053638848
 10
12.1754310289
 20
-8.8925438712
 10
12.1839590457
 20
-8.8796028658
 10
12.1917786561
 20
-8.8665504787
 10
12.1988840534
 20
-8.8533964026
 10
12.2052699611
 20
-8.8401504059
 10
12.2109316369
 20
-8.8268223251
 10
12.2158648765
 20
-8.8134220577
 10
12.2200660164
 20
-8.7999595548
 10
12.2235319369
 20
-8.7864448137
 10
12.2262600641
 20
-8.7728878706
 10
12.2282483721
 20
-8.7592987929
 10
12.2294953845
 20
-8.7456876719
 10
12.2300001751
 20
-8.7320646154
 10
12.2300121758
 20
-8.7296150583
  0
LINE
  5
2F2
100
AcDbEntity
  8
268
100
AcDbLine
 62
7
  6
CONTINUOUS
 10
2.424690427
 20
11.9708932273
 11
2.0062934801
 21
12.1800917008
  0
LINE
  5
2F3
100
AcDbEntity
  8
268
100
AcDbLine
 62
7
  6
CONTINUOUS
 10
1.6115176286
 20
13.336498997
 11
-14.1569635918
 21
21.2207396072
  0
LINE
  5
2F4
100
AcDbEntity
  8
268
100
AcDbLine
 62
7
  6
CONTINUOUS
 10
1.3640302552
 20
13.7877586222
 11
-13.9094762184
 21
21.424511859
  0
LINE
  5
2F5
100
AcDbEntity
  8
268
100
AcDbLine
 62
7
  6
CONTINUOUS
 10
-13.0547773406
 20
21.7118268905
 11
-11.4407732246
 21
20.9048248325
  0
LINE
  5
2F6
100
AcDbEntity
  8
268
100
AcDbLine
 62
7
  6
CONTINUOUS
 10
0.3095408238
 20
15.0296678083
 11
1.9235449398
 21
14.2226657503
  0
LWPOLYLINE
  5
2F7
100
AcDbEntity
  8
218
100
AcDbPolyline
 62
7
  6
CONTINUOUS
 90
19
 70
0
 10
18.6885645843
 20
0.7233960669
 10
18.6938283068
 20
0.7317970997
 10
18.6992322392
 20
0.7401301431
 10
18.7047763816
 20
0.7483951972
 10
18.710457543
 20
0.7565986165
 10
18.7162789143
 20
0.7647340465
 10
18.7222500684
 20
0.7727824235
 10
18.7283709707
 20
0.7807428065
 10
18.7346416558
 20
0.7886161366
 10
18.7410718
 20
0.796386173
 10
18.7476638562
 20
0.804054822
 10
18.7544153715
 20
0.8116201774
 10
18.7613286634
 20
0.8190602789
 10
18.7684082723
 20
0.8263778752
 10
18.7756496578
 20
0.8335702176
 10
18.7830415166
 20
0.8406071001
 10
18.7905800811
 20
0.8474784539
 10
18.798269119
 20
0.8541943478
 10
18.8061086302
 20
0.8607547818
  0
LINE
  5
2F8
100
AcDbEntity
  8
268
100
AcDbLine
 62
7
  6
CONTINUOUS
 10
0.273212329
 20
-24.4269820582
 11
-0.3055780112
 21
-25.1314257884
  0
LINE
  5
2F9
100
AcDbEntity
  8
268
100
AcDbLine
 62
7
  6
CONTINUOUS
 10
1.3012269077
 20
14.9897758915
 11
1.9235449398
 21
14.859835309
  0
LINE
  5
2FA
100
AcDbEntity
  8
268
100
AcDbLine
 62
7
  6
CONTINUOUS
 10
-2.3158082758
 20
16.6996745933
 11
-8.1083173439
 21
19.5959291273
  0
LINE
  5
2FB
100
AcDbEntity
  8
268
100
AcDbLine
 62
7
  6
CONTINUOUS
 10
-13.6931755489
 20
22.4833569703
 11
-12.0866419859
 21
21.6800901888
  0
LINE
  5
2FC
100
AcDbEntity
  8
268
100
AcDbLine
 62
7
  6
CONTINUOUS
 10
-0.3288573845
 20
15.8011978881
 11
1.2776761786
 21
14.9979311066
  0
LINE
  5
2FD
100
AcDbEntity
  8
268
100
AcDbLine
 62
253
  6
CONTINUOUS
 10
-13.7577702949
 20
22.6183861452
 11
-12.1519938327
 21
21.8154979141
  0
LINE
  5
2FE
100
AcDbEntity
  8
268
100
AcDbLine
 62
253
  6
CONTINUOUS
 10
-0.3934521305
 20
15.936227063
 11
1.2123243317
 21
15.1333388319
  0
LINE
  5
2FF
100
AcDbEntity
  8
268
100
AcDbLine
 62
253
  6
CONTINUOUS
 10
1.2123243317
 20
15.3867102256
 11
-0.3934521305
 21
16.1895984567
  0
LINE
  5
300
100
AcDbEntity
  8
268
100
AcDbLine
 62
253
  6
CONTINUOUS
 10
-12.1519938327
 20
22.0688693078
 11
-13.7577702949
 21
22.8717575389
  0
LINE
  5
301
100
AcDbEntity
  8
268
100
AcDbLine
 62
7
  6
CONTINUOUS
 10
3.1317972082
 20
14.6905363217
 11
2.9903758519
 21
14.7612469998
  0
LINE
  5
302
100
AcDbEntity
  8
268
100
AcDbLine
 62
7
  6
CONTINUOUS
 10
-0.3125642403
 20
16.4127170459
 11
-1.3936861914
 21
16.9532780215
  0
LINE
  5
303
100
AcDbEntity
  8
268
100
AcDbLine
 62
7
  6
CONTINUOUS
 10
-8.1961853095
 20
20.3545275805
 11
-10.3739423125
 21
21.443406082
  0
LINE
  5
304
100
AcDbEntity
  8
268
100
AcDbLine
 62
253
  6
CONTINUOUS
 10
1.3890950611
 20
15.6905758039
 11
-0.2187263479
 21
16.4944865084
  0
LINE
  5
305
100
AcDbEntity
  8
268
100
AcDbLine
 62
253
  6
CONTINUOUS
 10
-11.9752231033
 20
22.3727348861
 11
-13.5830445124
 21
23.1766455906
  0
LINE
  5
306
100
AcDbEntity
  8
268
100
AcDbLine
 62
7
  6
CONTINUOUS
 10
-8.1083173439
 20
20.8108839934
 11
-2.3158082758
 21
17.9146294594
  0
LINE
  5
307
100
AcDbEntity
  8
268
100
AcDbLine
 62
7
  6
CONTINUOUS
 10
3.8389039894
 20
15.0365320231
 11
3.0391719655
 21
15.436398035
  0
LINE
  5
308
100
AcDbEntity
  8
268
100
AcDbLine
 62
7
  6
CONTINUOUS
 10
-8.8426681955
 20
21.3773181155
 11
-10.3251461989
 21
22.1185571172
  0
LINE
  5
309
100
AcDbEntity
  8
268
100
AcDbLine
 62
7
  6
CONTINUOUS
 10
-7.6162258659
 20
21.276983424
 11
-1.3936861914
 21
18.1657135868
  0
LINE
  5
30A
100
AcDbEntity
  8
268
100
AcDbLine
 62
7
  6
CONTINUOUS
 10
-12.0002879092
 20
23.988629688
 11
-10.3739423125
 21
23.1754568896
  0
LINE
  5
30B
100
AcDbEntity
  8
268
100
AcDbLine
 62
7
  6
CONTINUOUS
 10
1.3640302552
 20
17.3064706057
 11
2.9903758519
 21
16.4932978074
  0
LWPOLYLINE
  5
30C
100
AcDbEntity
  8
218
100
AcDbPolyline
 62
7
  6
CONTINUOUS
 90
104
 70
0
 10
18.969224784
 20
5.9510632938
 10
18.9819461219
 20
5.9418084736
 10
19.026767734
 20
5.9079401521
 10
19.0712515812
 20
5.8730652399
 10
19.1154092415
 20
5.8371804523
 10
19.1592398189
 20
5.8002902611
 10
19.2027115716
 20
5.7624249274
 10
19.2457891924
 20
5.7236200907
 10
19.2884521133
 20
5.6839000687
 10
19.3306898204
 20
5.6432802648
 10
19.372482322
 20
5.6017853353
 10
19.4138084483
 20
5.5594420651
 10
19.4546592022
 20
5.5162652809
 10
19.4950323242
 20
5.4722619042
 10
19.5349231482
 20
5.4274402216
 10
19.5743056209
 20
5.3818325447
 10
19.6131455465
 20
5.3354829224
 10
19.651414445
 20
5.2884314576
 10
19.6891130718
 20
5.2406832158
 10
19.7262508093
 20
5.192230054
 10
19.7628265118
 20
5.1430749144
 10
19.7988117076
 20
5.0932573398
 10
19.8341746591
 20
5.0428242996
 10
19.868891947
 20
4.9918138572
 10
19.9029609702
 20
4.9402343823
 10
19.9363815423
 20
4.8880890173
 10
19.9691455141
 20
4.8353919079
 10
20.0012342119
 20
4.7821743516
 10
20.032631349
 20
4.7284651082
 10
20.0633226933
 20
4.6742905113
 10
20.093297627
 20
4.6196711307
 10
20.1225456609
 20
4.5646274512
 10
20.1510542649
 20
4.509184144
 10
20.178812202
 20
4.453363965
 10
20.2058108843
 20
4.3971845225
 10
20.2320395456
 20
4.3406679275
 10
20.2574860285
 20
4.2838398404
 10
20.2821397348
 20
4.2267231685
 10
20.3059902541
 20
4.1693408651
 10
20.3290264568
 20
4.1117182412
 10
20.351237126
 20
4.0538817624
 10
20.3726095918
 20
3.995863068
 10
20.3931369425
 20
3.9376792153
 10
20.4128162661
 20
3.8793345647
 10
20.4316430454
 20
3.8208355037
 10
20.4496012219
 20
3.762224239
 10
20.4666716493
 20
3.7035586849
 10
20.48283952
 20
3.6448892313
 10
20.4981049768
 20
3.586214408
 10
20.5124712489
 20
3.5275140781
 10
20.5259354398
 20
3.4687844621
 10
20.5384815102
 20
3.4100782587
 10
20.5500932524
 20
3.3514595548
 10
20.5607601579
 20
3.2929754433
 10
20.5704807036
 20
3.2346270622
 10
20.579253088
 20
3.1764090116
 10
20.5870722215
 20
3.1183287661
 10
20.593928447
 20
3.0604273831
 10
20.599813116
 20
3.0027492122
 10
20.6047205345
 20
2.9453206031
 10
20.6086457191
 20
2.8881626545
 10
20.6115831216
 20
2.8313105855
 10
20.6135282704
 20
2.7747975421
 10
20.6144777678
 20
2.7186365743
 10
20.6144276346
 20
2.6628320284
 10
20.6133723212
 20
2.6073735991
 10
20.6113071344
 20
2.5523185675
 10
20.6082331175
 20
2.4977701226
 10
20.6041546918
 20
2.4437959426
 10
20.5990702213
 20
2.3903687367
 10
20.5929728534
 20
2.3374478785
 10
20.5858506275
 20
2.2849910346
 10
20.5777080713
 20
2.2330860157
 10
20.5685674371
 20
2.1818838983
 10
20.5584472125
 20
2.131462319
 10
20.5473427639
 20
2.0817758182
 10
20.5352461934
 20
2.0327873609
 10
20.5221466775
 20
1.9844672837
 10
20.5080589
 20
1.9368836411
 10
20.4930158014
 20
1.8901435167
 10
20.4770341128
 20
1.8442820347
 10
20.4601163698
 20
1.7992911618
 10
20.4422816553
 20
1.7552073915
 10
20.4235456388
 20
1.7120527987
 10
20.4039158213
 20
1.6698292055
 10
20.3834005324
 20
1.6285418102
 10
20.3619916702
 20
1.5881667722
 10
20.3397193677
 20
1.5487539306
 10
20.3166565577
 20
1.510412912
 10
20.2928636557
 20
1.473210539
 10
20.2683228293
 20
1.4370867137
 10
20.2429911277
 20
1.4019606945
 10
20.216851203
 20
1.3678029855
 10
20.1899481211
 20
1.3346672042
 10
20.1623304513
 20
1.3026010667
 10
20.1340332874
 20
1.2716286143
 10
20.1050611649
 20
1.2417384997
 10
20.0754198815
 20
1.2129234827
 10
20.0451318394
 20
1.1851933366
 10
20.0142145952
 20
1.158552282
 10
19.9826653813
 20
1.1329882113
 10
19.9504960806
 20
1.108503398
 10
19.9177345776
 20
1.0851116746
 10
19.8844015705
 20
1.062819837
  0
LINE
  5
30D
100
AcDbEntity
  8
218
100
AcDbLine
 62
253
  6
CONTINUOUS
 10
9.2667311176
 20
20.2927177134
 11
8.8727451837
 21
21.3148735314
  0
LINE
  5
30E
100
AcDbEntity
  8
715
100
AcDbLine
 62
7
  6
CONTINUOUS
 10
10.4114354458
 20
18.7493513953
 11
10.2099360879
 21
19.3450758211
  0
LINE
  5
30F
100
AcDbEntity
  8
218
100
AcDbLine
 62
7
  6
CONTINUOUS
 10
18.9702043617
 20
0.4897281922
 11
18.9702256592
 21
0.4897859215
  0
LINE
  5
310
100
AcDbEntity
  8
268
100
AcDbLine
 62
7
  6
CONTINUOUS
 10
1.9235449398
 20
-25.1897688304
 11
1.3012269077
 21
-25.9348282479
  0
LINE
  5
311
100
AcDbEntity
  8
268
100
AcDbLine
 62
253
  6
CONTINUOUS
 10
0.4190654106
 20
-19.581474833
 11
-0.6477966291
 21
-20.0741870775
  0
LINE
  5
312
100
AcDbEntity
  8
268
100
AcDbLine
 62
7
  6
CONTINUOUS
 10
0.2182118247
 20
-20.0952438896
 11
-0.6838084436
 21
-20.5118267414
  0
LWPOLYLINE
  5
313
100
AcDbEntity
  8
218
100
AcDbPolyline
 62
7
  6
CONTINUOUS
 90
3
 70
0
 10
-1.3765214695
 20
20.8507955454
 10
-1.3788161517
 20
20.8518887743
 10
-1.3816521398
 20
20.8530959937
  0
LWPOLYLINE
  5
314
100
AcDbEntity
  8
218
100
AcDbPolyline
 62
7
  6
CONTINUOUS
 90
21
 70
0
 10
-2.5957677194
 20
20.7736208503
 10
-2.60072389
 20
20.7760040763
 10
-2.6056477469
 20
20.77818232
 10
-2.6105333105
 20
20.7801530248
 10
-2.6153748184
 20
20.7819137351
 10
-2.620166336
 20
20.7834625028
 10
-2.624901761
 20
20.7847978818
 10
-2.6295755897
 20
20.7859181955
 10
-2.6341822368
 20
20.7868221443
 10
-2.6387156426
 20
20.7875092045
 10
-2.643170651
 20
20.7879784297
 10
-2.6475420592
 20
20.7882292543
 10
-2.6518239344
 20
20.7882620945
 10
-2.6560115282
 20
20.7880767447
 10
-2.6601000735
 20
20.7876733767
 10
-2.6640838361
 20
20.7870533468
 10
-2.667958523
 20
20.7862171929
 10
-2.6717198596
 20
20.7851658191
 10
-2.6753623924
 20
20.783901505
 10
-2.6788823327
 20
20.7824255219
 10
-2.6807316878
 20
20.7815405633
  0
LINE
  5
315
100
AcDbEntity
  8
268
100
AcDbLine
 62
7
  6
CONTINUOUS
 10
-1.3229755133
 20
18.8324266405
 11
-6.2727229816
 21
21.3073003747
  0
LINE
  5
316
100
AcDbEntity
  8
268
100
AcDbLine
 62
253
  6
CONTINUOUS
 10
-11.4658380305
 20
24.2489771545
 11
-9.8456751407
 21
23.4388957096
  0
LINE
  5
317
100
AcDbEntity
  8
268
100
AcDbLine
 62
253
  6
CONTINUOUS
 10
1.8984801339
 20
17.5668180723
 11
3.5186430237
 21
16.7567366274
  0
LINE
  5
318
100
AcDbEntity
  8
268
100
AcDbLine
 62
7
  6
CONTINUOUS
 10
-11.3544204152
 20
24.2552457177
 11
-9.735542837
 21
23.4458069286
  0
LINE
  5
319
100
AcDbEntity
  8
268
100
AcDbLine
 62
7
  6
CONTINUOUS
 10
2.0098977492
 20
17.5730866355
 11
3.6287753274
 21
16.7636478464
  0
LINE
  5
31A
100
AcDbEntity
  8
218
100
AcDbLine
 62
7
  6
CONTINUOUS
 10
-0.008813533
 20
19.4801437571
 11
-2.5957677194
 21
20.7736208503
  0
LINE
  5
31B
100
AcDbEntity
  8
218
100
AcDbLine
 62
253
  6
CONTINUOUS
 10
0.6321496618
 20
19.7960582628
 11
-1.4607625691
 21
20.8425143783
  0
LINE
  5
31C
100
AcDbEntity
  8
218
100
AcDbLine
 62
7
  6
CONTINUOUS
 10
0.6829130863
 20
19.8210782675
 11
-1.3765137039
 21
20.8507916626
  0
LWPOLYLINE
  5
31D
100
AcDbEntity
  8
268
100
AcDbPolyline
 62
7
  6
CONTINUOUS
 90
20
 70
0
 10
8.8608034579
 20
18.3268481881
 10
8.8594033062
 20
18.3289792529
 10
8.8576568799
 20
18.3312877003
 10
8.85557527
 20
18.3337773394
 10
8.8531703056
 20
18.3364547822
 10
8.8504502137
 20
18.3392899982
 10
8.8474252825
 20
18.3422865245
 10
8.8441067811
 20
18.3454496027
 10
8.8405026242
 20
18.3487515951
 10
8.8366227673
 20
18.3521955779
 10
8.8324780958
 20
18.3557858223
 10
8.8280768631
 20
18.3594963218
 10
8.8234285246
 20
18.3633299137
 10
8.8185440706
 20
18.3672897873
 10
8.8134336823
 20
18.3713502077
 10
8.8081068072
 20
18.3755134229
 10
8.8025746039
 20
18.3797817943
 10
8.7968501326
 20
18.3841292938
 10
8.7909449493
 20
18.388548176
 10
8.7786318976
 20
18.3976332656
  0
LINE
  5
31E
100
AcDbEntity
  8
218
100
AcDbLine
 62
7
  6
CONTINUOUS
 10
10.1973276213
 20
16.5205828167
 11
9.4446335373
 21
17.8187880778
  0
LINE
  5
31F
100
AcDbEntity
  8
218
100
AcDbLine
 62
253
  6
CONTINUOUS
 10
18.9686430606
 20
0.5077987248
 11
18.9691984237
 21
0.4879469388
  0
LWPOLYLINE
  5
320
100
AcDbEntity
  8
218
100
AcDbPolyline
 62
7
  6
CONTINUOUS
 90
31
 70
0
 10
18.9692247746
 20
18.6017737788
 10
18.9689328066
 20
18.6364984102
 10
18.967790362
 20
18.6789817539
 10
18.9657913015
 20
18.7215285396
 10
18.9629419585
 20
18.7641439887
 10
18.959249819
 20
18.8068076398
 10
18.9547258245
 20
18.8494700303
 10
18.9493779364
 20
18.8921250519
 10
18.9432134039
 20
18.9347649555
 10
18.9362467654
 20
18.9773357009
 10
18.9284866203
 20
19.0198307104
 10
18.9199404889
 20
19.0622433983
 10
18.9106267126
 20
19.1045181259
 10
18.9005548164
 20
19.1466461246
 10
18.8897324592
 20
19.1886231317
 10
18.8781798355
 20
19.2303988799
 10
18.8659089843
 20
19.2719571304
 10
18.8529258839
 20
19.3133013777
 10
18.8392436184
 20
19.3544096713
 10
18.8248712624
 20
19.3952722965
 10
18.8098153525
 20
19.4358856861
 10
18.7940853516
 20
19.4762357872
 10
18.7776880226
 20
19.516315479
 10
18.7606292094
 20
19.556117811
 10
18.7429176352
 20
19.5956281013
 10
18.7245591312
 20
19.6348380269
 10
18.7055580486
 20
19.6737403161
 10
18.6859211757
 20
19.71232223
 10
18.6656528565
 20
19.7505747064
 10
18.6447561968
 20
19.7884901702
 10
18.6272573294
 20
19.8191455673
  0
LINE
  5
321
100
AcDbEntity
  8
218
100
AcDbLine
 62
253
  6
CONTINUOUS
 10
18.9691708783
 20
12.4414100916
 11
18.9692243719
 21
12.4343783179
  0
LINE
  5
322
100
AcDbEntity
  8
218
100
AcDbLine
 62
253
  6
CONTINUOUS
 10
18.9691984237
 20
0.4879469388
 11
18.9692243484
 21
0.483250744
  0
LINE
  5
323
100
AcDbEntity
  8
218
100
AcDbLine
 62
253
  6
CONTINUOUS
 10
18.6886254979
 20
-4.1879732807
 11
18.6885645843
 21
0.7233960669
  0
LINE
  5
324
100
AcDbEntity
  8
218
100
AcDbLine
 62
253
  6
CONTINUOUS
 10
18.6885645843
 20
2.4958645399
 11
18.6885645843
 21
12.6745466392
  0
LINE
  5
325
100
AcDbEntity
  8
218
100
AcDbLine
 62
253
  6
CONTINUOUS
 10
18.6885645843
 20
14.4470151122
 11
18.6885645843
 21
18.2544136128
  0
LINE
  5
326
100
AcDbEntity
  8
218
100
AcDbLine
 62
7
  6
CONTINUOUS
 10
18.969224784
 20
-3.8170940562
 11
18.9692243484
 21
0.483250744
  0
LINE
  5
327
100
AcDbEntity
  8
218
100
AcDbLine
 62
7
  6
CONTINUOUS
 10
18.969224784
 20
18.6017713838
 11
18.9692243705
 21
15.3809314038
  0
LINE
  5
328
100
AcDbEntity
  8
218
100
AcDbLine
 62
7
  6
CONTINUOUS
 10
18.9692243719
 20
12.4343783179
 11
18.9692243473
 21
3.4297327565
  0
LWPOLYLINE
  5
329
100
AcDbEntity
  8
218
100
AcDbPolyline
 62
253
  6
CONTINUOUS
 90
57
 70
0
 10
18.9692243473
 20
3.4297327565
 10
18.9691986147
 20
3.4187570914
 10
18.9686438546
 20
3.3720563451
 10
18.9674396327
 20
3.3275290549
 10
18.96566274
 20
3.2848592267
 10
18.9633701121
 20
3.2438576637
 10
18.9606195148
 20
3.2045031629
 10
18.957471585
 20
3.1668234842
 10
18.9539652689
 20
3.1307018872
 10
18.9501525023
 20
3.0961791962
 10
18.9460767776
 20
3.0632157032
 10
18.9417457768
 20
3.0315740522
 10
18.9371942813
 20
3.0012572544
 10
18.9324549249
 20
2.9722614183
 10
18.9275124025
 20
2.9443402085
 10
18.9223735191
 20
2.9174135022
 10
18.9170744114
 20
2.8915607644
 10
18.911633695
 20
2.8667758221
 10
18.9060698273
 20
2.8430572827
 10
18.9004044939
 20
2.8204041583
 10
18.8946602166
 20
2.7988105183
 10
18.8888662823
 20
2.7783146458
 10
18.8830314854
 20
2.758874293
 10
18.877144234
 20
2.7403630021
 10
18.8712149702
 20
2.7227667828
 10
18.8652614738
 20
2.7060962058
 10
18.8592781335
 20
2.6902624625
 10
18.853264924
 20
2.6752397291
 10
18.8472442967
 20
2.6610506527
 10
18.8412433946
 20
2.6476790819
 10
18.8352779939
 20
2.6351389635
 10
18.8293554479
 20
2.6234119616
 10
18.8234910147
 20
2.612433046
 10
18.8177101338
 20
2.6022246436
 10
18.8120088482
 20
2.5927594439
 10
18.8063559194
 20
2.5838983417
 10
18.8007660215
 20
2.5756393905
 10
18.7952395289
 20
2.567980921
 10
18.7897185344
 20
2.5607858054
 10
18.7841961499
 20
2.5540295981
 10
18.7786871523
 20
2.547735096
 10
18.77316189
 20
2.5418374195
 10
18.7676134877
 20
2.5363234144
 10
18.7620537682
 20
2.5312054092
 10
18.7564795555
 20
2.5264572711
 10
18.7508925599
 20
2.5220781597
 10
18.7452955971
 20
2.518068085
 10
18.7396867564
 20
2.5144023036
 10
18.7340698051
 20
2.5110809788
 10
18.7284450704
 20
2.5081031397
 10
18.7228050094
 20
2.5054425034
 10
18.7171533887
 20
2.5030982429
 10
18.7114897944
 20
2.5010705638
 10
18.7057996339
 20
2.499335046
 10
18.7000786072
 20
2.4978835599
 10
18.694333213
 20
2.4967240407
 10
18.6885645843
 20
2.495856359
  0
LWPOLYLINE
  5
32A
100
AcDbEntity
  8
218
100
AcDbPolyline
 62
253
  6
CONTINUOUS
 90
57
 70
0
 10
18.9692243705
 20
15.3809314038
 10
18.9691704768
 20
15.3643597891
 10
18.968540406
 20
15.3181491846
 10
18.9672724072
 20
15.2739396263
 10
18.9654390694
 20
15.2315077856
 10
18.9631057414
 20
15.1908582686
 10
18.9603439393
 20
15.1520925113
 10
18.9572117612
 20
15.1151144559
 10
18.9537337583
 20
15.079631562
 10
18.9499535618
 20
15.0456349022
 10
18.9459161775
 20
15.0131346101
 10
18.9416226016
 20
14.9818675756
 10
18.9370948748
 20
14.9517783592
 10
18.9323707339
 20
14.9229222158
 10
18.927459451
 20
14.8952029326
 10
18.9223793591
 20
14.8685927612
 10
18.9171602188
 20
14.8431178624
 10
18.9118233943
 20
14.8187629369
 10
18.9063990393
 20
14.795563853
 10
18.9009014697
 20
14.7734813265
 10
18.8953237224
 20
14.7523876183
 10
18.8896868668
 20
14.73229222
 10
18.8840036601
 20
14.7131823088
 10
18.8782465711
 20
14.694897929
 10
18.872418581
 20
14.6774086817
 10
18.8665390359
 20
14.6607428082
 10
18.8605987692
 20
14.644829439
 10
18.8545881179
 20
14.6296272247
 10
18.8485338881
 20
14.6151757302
 10
18.8424822826
 20
14.6015250358
 10
18.8364483222
 20
14.5886955164
 10
18.8304387826
 20
14.5766629073
 10
18.8244912081
 20
14.565409067
 10
18.8186389168
 20
14.5549728345
 10
18.8128717768
 20
14.5453100814
 10
18.8071611266
 20
14.5362783249
 10
18.8015254246
 20
14.5278794789
 10
18.7959626556
 20
14.52010762
 10
18.7904078689
 20
14.5128101711
 10
18.7848534221
 20
14.5059597765
 10
18.7793152438
 20
14.4995820371
 10
18.7737589149
 20
14.4936053863
 10
18.7681758826
 20
14.4880143461
 10
18.7625795987
 20
14.482823612
 10
18.7569668729
 20
14.4780074748
 10
18.7513389437
 20
14.4735649067
 10
18.745699084
 20
14.4694961361
 10
18.7400468055
 20
14.4657774329
 10
18.7343860108
 20
14.4624093049
 10
18.7287169818
 20
14.4593904238
 10
18.723033405
 20
14.4566944336
 10
18.7173391723
 20
14.4543207562
 10
18.7116338929
 20
14.452269305
 10
18.7059041084
 20
14.4505147477
 10
18.7001459715
 20
14.4490486224
 10
18.6943657222
 20
14.4478791248
 10
18.6885645843
 20
14.4470060903
  0
LWPOLYLINE
  5
32B
100
AcDbEntity
  8
218
100
AcDbPolyline
 62
253
  6
CONTINUOUS
 90
31
 70
0
 10
18.6886254979
 20
-4.1879732807
 10
18.6881403081
 20
-4.2112417844
 10
18.6871093829
 20
-4.2342110893
 10
18.6855335048
 20
-4.2568637598
 10
18.6834138698
 20
-4.2791825991
 10
18.6807520873
 20
-4.3011506625
 10
18.6775501779
 20
-4.3227512731
 10
18.673810572
 20
-4.3439680344
 10
18.6695361087
 20
-4.3647848404
 10
18.6647300325
 20
-4.385185889
 10
18.659395992
 20
-4.4051556935
 10
18.6535380364
 20
-4.4246790943
 10
18.6471606126
 20
-4.4437412709
 10
18.6402685617
 20
-4.4623277532
 10
18.6328671159
 20
-4.4804244319
 10
18.6249618935
 20
-4.4980175698
 10
18.6165588958
 20
-4.5150938117
 10
18.6076645015
 20
-4.5316401947
 10
18.5982854628
 20
-4.5476441584
 10
18.5884288993
 20
-4.5630935542
 10
18.5781022937
 20
-4.5779766542
 10
18.5673134849
 20
-4.5922821605
 10
18.5560706632
 20
-4.605999214
 10
18.5443823632
 20
-4.6191174017
 10
18.532257458
 20
-4.6316267658
 10
18.5197051517
 20
-4.6435178104
 10
18.5067349733
 20
-4.6547815089
 10
18.4933567689
 20
-4.6654093113
 10
18.4795806939
 20
-4.6753931502
 10
18.4654172064
 20
-4.6847254468
 10
18.4508770583
 20
-4.6933991172
  0
LWPOLYLINE
  5
32C
100
AcDbEntity
  8
218
100
AcDbPolyline
 62
7
  6
CONTINUOUS
 90
6
 70
0
 10
18.9692252975
 20
12.4337263853
 10
18.9692773626
 20
12.435499304
 10
18.9694776939
 20
12.4375708309
 10
18.9697516815
 20
12.4391731863
 10
18.9700228219
 20
12.4402951556
 10
18.9702045907
 20
12.4408793459
  0
LWPOLYLINE
  5
32D
100
AcDbEntity
  8
218
100
AcDbPolyline
 62
7
  6
CONTINUOUS
 90
6
 70
0
 10
18.9692253099
 20
0.4825742801
 10
18.9692773636
 20
0.4843475893
 10
18.9694774998
 20
0.4864191404
 10
18.9697515304
 20
0.4880217704
 10
18.9700226757
 20
0.4891439641
 10
18.9702043617
 20
0.4897281922
  0
LWPOLYLINE
  5
32E
100
AcDbEntity
  8
218
100
AcDbPolyline
 62
253
  6
CONTINUOUS
 90
34
 70
0
 10
11.5987577897
 20
-16.6069695075
 10
11.6189323708
 20
-16.5882898756
 10
11.6385853035
 20
-16.5688259495
 10
11.6577074227
 20
-16.5485868455
 10
11.6762896515
 20
-16.5275821429
 10
11.6943230483
 20
-16.5058219111
 10
11.7117990375
 20
-16.4833165406
 10
11.7287092633
 20
-16.4600767883
 10
11.7450456748
 20
-16.4361136997
 10
11.7608005654
 20
-16.4114386248
 10
11.7759664293
 20
-16.3860633096
 10
11.7905360261
 20
-16.3599998415
 10
11.8045024677
 20
-16.3332605747
 10
11.8178591153
 20
-16.3058582108
 10
11.8305995857
 20
-16.2778058132
 10
11.8427178134
 20
-16.2491167488
 10
11.8542080402
 20
-16.2198046639
 10
11.8650647916
 20
-16.1898835087
 10
11.8752828843
 20
-16.1593675524
 10
11.8848574679
 20
-16.1282713296
 10
11.8937839978
 20
-16.0966096147
 10
11.9020582114
 20
-16.0643974484
 10
11.9096761961
 20
-16.031650144
 10
11.9166343376
 20
-15.9983832755
 10
11.9229292884
 20
-15.9646126502
 10
11.9285580928
 20
-15.930354263
 10
11.9335180781
 20
-15.8956244527
 10
11.937806805
 20
-15.8604398898
 10
11.9414222679
 20
-15.8248173995
 10
11.944362793
 20
-15.7887738159
 10
11.946626918
 20
-15.7523261313
 10
11.948213564
 20
-15.7154916137
 10
11.9491220474
 20
-15.6782878061
 10
11.9493519762
 20
-15.640732381
  0
LWPOLYLINE
  5
32F
100
AcDbEntity
  8
218
100
AcDbPolyline
 62
253
  6
CONTINUOUS
 90
4
 70
0
 10
11.5352015005
 20
-16.65821548
 10
11.5568823141
 20
-16.6419406905
 10
11.5780711184
 20
-16.6248559785
 10
11.5987577897
 20
-16.6069695075
  0
LWPOLYLINE
  5
330
100
AcDbEntity
  8
218
100
AcDbPolyline
 62
7
  6
CONTINUOUS
 90
40
 70
0
 10
11.6097802396
 20
-16.6118452543
 10
11.6293832583
 20
-16.5973729846
 10
11.657480235
 20
-16.5756777858
 10
11.6850850302
 20
-16.553213323
 10
11.7121695882
 20
-16.5299971854
 10
11.7387208636
 20
-16.5060354721
 10
11.7647401651
 20
-16.4813206085
 10
11.7902075654
 20
-16.4558639407
 10
11.815103733
 20
-16.4296772432
 10
11.8394294332
 20
-16.4027506113
 10
11.8631654364
 20
-16.3750949731
 10
11.8862919179
 20
-16.3467231815
 10
11.9088070687
 20
-16.3176254465
 10
11.9306923293
 20
-16.2878118535
 10
11.951927742
 20
-16.2572961457
 10
11.9725079566
 20
-16.2260709804
 10
11.9924140864
 20
-16.194147887
 10
12.0116277271
 20
-16.1615391733
 10
12.0301431365
 20
-16.1282356884
 10
12.0479407429
 20
-16.0942512361
 10
12.0650038589
 20
-16.0595953982
 10
12.0813293445
 20
-16.0242491692
 10
12.0969009043
 20
-15.988217756
 10
12.1116976163
 20
-15.9515175415
 10
12.1257080175
 20
-15.9141427364
 10
12.1389197965
 20
-15.8760864095
 10
12.1513084681
 20
-15.8373758217
 10
12.1628474122
 20
-15.7980545876
 10
12.1735225848
 20
-15.7581324546
 10
12.1833193927
 20
-15.7176208958
 10
12.192216873
 20
-15.6765651815
 10
12.2002043748
 20
-15.6349736504
 10
12.2072702135
 20
-15.5928582996
 10
12.2133982453
 20
-15.550269053
 10
12.2185803223
 20
-15.5072152733
 10
12.2228077861
 20
-15.4637069861
 10
12.2260696479
 20
-15.4197937064
 10
12.2283591095
 20
-15.3754970617
 10
12.2296708283
 20
-15.3308138473
 10
12.2300121662
 20
-15.2934043225
  0
LINE
  5
331
100
AcDbEntity
  8
218
100
AcDbLine
 62
7
  6
CONTINUOUS
 10
10.1973276213
 20
-17.4466294899
 11
9.4446335373
 21
-17.992140667
  0
LINE
  5
332
100
AcDbEntity
  8
218
100
AcDbLine
 62
253
  6
CONTINUOUS
 10
11.1221717157
 20
-16.9575566983
 11
11.5352015005
 21
-16.65821548
  0
LINE
  5
333
100
AcDbEntity
  8
218
100
AcDbLine
 62
7
  6
CONTINUOUS
 10
11.1985210119
 20
-16.9099032859
 11
11.6097690946
 21
-16.6118533471
  0
LWPOLYLINE
  5
334
100
AcDbEntity
  8
268
100
AcDbPolyline
 62
7
  6
CONTINUOUS
 90
25
 70
0
 10
8.1145334881
 20
-19.077390753
 10
8.1404498984
 20
-19.0625585364
 10
8.1669521351
 20
-19.0472915596
 10
8.1940401981
 20
-19.0315898227
 10
8.2217418544
 20
-19.01544072
 10
8.2500293371
 20
-18.9988568572
 10
8.2788193451
 20
-18.9818760512
 10
8.3080928641
 20
-18.9645094773
 10
8.3378689085
 20
-18.9467459604
 10
8.3681212196
 20
-18.928589792
 10
8.3988636539
 20
-18.9100328951
 10
8.430082355
 20
-18.8910833468
 10
8.4617094945
 20
-18.8717696704
 10
8.4937562291
 20
-18.8520850356
 10
8.5262114022
 20
-18.8320362728
 10
8.5589737156
 20
-18.8116723961
 10
8.5920584897
 20
-18.7909835568
 10
8.6254504041
 20
-18.7699796036
 10
8.6590021995
 20
-18.7487390969
 10
8.6927335145
 20
-18.727248811
 10
8.7266247106
 20
-18.7055219716
 10
8.7604696123
 20
-18.6836768158
 10
8.7941994947
 20
-18.6617527561
 10
8.8278830828
 20
-18.6397103802
 10
8.8615203766
 20
-18.6175496879
  0
LWPOLYLINE
  5
335
100
AcDbEntity
  8
218
100
AcDbPolyline
 62
253
  6
CONTINUOUS
 90
5
 70
0
 10
11.5352015005
 20
-16.65821548
 10
11.5540380159
 20
-16.6478552721
 10
11.5724801327
 20
-16.6368670349
 10
11.5905141556
 20
-16.6252589284
 10
11.6097690946
 20
-16.6118533471
  0
LWPOLYLINE
  5
336
100
AcDbEntity
  8
218
100
AcDbPolyline
 62
7
  6
CONTINUOUS
 90
7
 70
0
 10
11.1221717157
 20
-16.9575566983
 10
11.1374823497
 20
-16.9491795329
 10
11.1526119944
 20
-16.9403395128
 10
11.1675548283
 20
-16.9310428611
 10
11.1823057054
 20
-16.9212955848
 10
11.1968587208
 20
-16.9111045655
 10
11.1984526813
 20
-16.9099528075
  0
LWPOLYLINE
  5
337
100
AcDbEntity
  8
268
100
AcDbPolyline
 62
7
  6
CONTINUOUS
 90
3
 70
0
 10
8.1145334881
 20
-19.077390753
 10
8.079949011
 20
-19.0962664506
 10
8.0641121053
 20
-19.104367369
  0
LWPOLYLINE
  5
338
100
AcDbEntity
  8
218
100
AcDbPolyline
 62
253
  6
CONTINUOUS
 90
29
 70
0
 10
11.9493519762
 20
-15.640732381
 10
11.9680131147
 20
-15.630803038
 10
11.9861262096
 20
-15.6206231401
 10
12.0036778101
 20
-15.6102002468
 10
12.0206548823
 20
-15.5995420983
 10
12.0370448189
 20
-15.5886566094
 10
12.0528354485
 20
-15.5775518636
 10
12.0680150451
 20
-15.5662361075
 10
12.0825723362
 20
-15.5547177442
 10
12.0964965113
 20
-15.5430053273
 10
12.1097772305
 20
-15.5311075544
 10
12.1224046313
 20
-15.519033261
 10
12.1343693365
 20
-15.5067914135
 10
12.1456624612
 20
-15.4943911027
 10
12.1562756189
 20
-15.4818415371
 10
12.1662009283
 20
-15.4691520363
 10
12.1754310187
 20
-15.4563320233
 10
12.183959036
 20
-15.4433910186
 10
12.1917786471
 20
-15.430338632
 10
12.1988840451
 20
-15.4171845564
 10
12.2052699535
 20
-15.4039385601
 10
12.2109316301
 20
-15.3906104797
 10
12.2158648706
 20
-15.3772102126
 10
12.2200660114
 20
-15.3637477099
 10
12.2235319328
 20
-15.350232969
 10
12.226260061
 20
-15.336676026
 10
12.22824837
 20
-15.3230869484
 10
12.2294953833
 20
-15.3094758274
 10
12.2300001749
 20
-15.2958527708
  0
LINE
  5
339
100
AcDbEntity
  8
218
100
AcDbLine
 62
7
  6
CONTINUOUS
 10
11.1221717157
 20
-16.9575566983
 11
10.1973276213
 21
-17.4466294899
  0
LINE
  5
33A
100
AcDbEntity
  8
218
100
AcDbLine
 62
7
  6
CONTINUOUS
 10
4.0863913628
 20
-20.8256673929
 11
9.4446335373
 21
-17.992140667
  0
LINE
  5
33B
100
AcDbEntity
  8
218
100
AcDbLine
 62
253
  6
CONTINUOUS
 10
4.0863913628
 20
-19.7827633234
 11
11.9493519762
 21
-15.640732381
  0
LINE
  5
33C
100
AcDbEntity
  8
218
100
AcDbLine
 62
253
  6
CONTINUOUS
 10
4.0863913628
 20
-20.5820812593
 11
11.5352015005
 21
-16.65821548
  0
LINE
  5
33D
100
AcDbEntity
  8
268
100
AcDbLine
 62
253
  6
CONTINUOUS
 10
4.0863913628
 20
-21.0992939366
 11
8.1145334881
 21
-19.077390753
  0
LINE
  5
33E
100
AcDbEntity
  8
268
100
AcDbLine
 62
7
  6
CONTINUOUS
 10
4.0863913628
 20
-21.1009620174
 11
8.0641544338
 21
-19.1043463155
  0
LINE
  5
33F
100
AcDbEntity
  8
268
100
AcDbLine
 62
253
  6
CONTINUOUS
 10
4.0863913628
 20
-20.8614889059
 11
8.7786318976
 21
-18.5341030089
  0
LINE
  5
340
100
AcDbEntity
  8
268
100
AcDbLine
 62
253
  6
CONTINUOUS
 10
4.0863913628
 20
-20.9833636336
 11
8.8627834652
 21
-18.6142379388
  0
LWPOLYLINE
  5
341
100
AcDbEntity
  8
268
100
AcDbPolyline
 62
7
  6
CONTINUOUS
 90
13
 70
0
 10
8.1145334881
 20
19.4108658952
 10
8.0798826781
 20
19.4172955763
 10
8.0446784551
 20
19.4226787291
 10
8.0089586032
 20
19.42704087
 10
7.9727332863
 20
19.4304347931
 10
7.9360655482
 20
19.4328645428
 10
7.8990693383
 20
19.434275772
 10
7.8617823033
 20
19.4346859069
 10
7.8242313214
 20
19.4341220254
 10
7.7865106206
 20
19.4325300372
 10
7.7486712458
 20
19.4299009462
 10
7.7107220596
 20
19.426278965
 10
7.6726926202
 20
19.4216841755
  0
LINE
  5
342
100
AcDbEntity
  8
268
100
AcDbLine
 62
7
  6
CONTINUOUS
 10
-12.0630912567
 20
21.6719349737
 11
-11.4407732246
 21
21.5419943912
  0
LWPOLYLINE
  5
343
100
AcDbEntity
  8
218
100
AcDbPolyline
 62
7
  6
CONTINUOUS
 90
19
 70
0
 10
-1.3825374829
 20
20.8534416669
 10
-1.3863533127
 20
20.8547699642
 10
-1.3902587221
 20
20.8558719646
 10
-1.394249327
 20
20.8567465656
 10
-1.3983199343
 20
20.8573925888
 10
-1.4024652979
 20
20.8578091544
 10
-1.4066807997
 20
20.8579960221
 10
-1.4109609583
 20
20.857952842
 10
-1.4153002587
 20
20.857679564
 10
-1.4196939074
 20
20.8571768119
 10
-1.4241361951
 20
20.8564450666
 10
-1.4286213988
 20
20.8554851059
 10
-1.4331446111
 20
20.8542984105
 10
-1.437699958
 20
20.8528862845
 10
-1.442281571
 20
20.8512503229
 10
-1.4468844892
 20
20.8493928463
 10
-1.451503082
 20
20.8473161293
 10
-1.4561310553
 20
20.8450224005
 10
-1.4607624243
 20
20.8425143058
  0
LWPOLYLINE
  5
344
100
AcDbEntity
  8
218
100
AcDbPolyline
 62
7
  6
CONTINUOUS
 90
51
 70
0
 10
-1.3816521398
 20
20.8530959937
 10
-1.3922247758
 20
20.8572488062
 10
-1.4151867374
 20
20.8658636208
 10
-1.4384579626
 20
20.8740566279
 10
-1.4620246078
 20
20.8818327698
 10
-1.4858806556
 20
20.8891985123
 10
-1.5100081087
 20
20.8961556375
 10
-1.5343890814
 20
20.9027062801
 10
-1.5590169688
 20
20.9088549186
 10
-1.5838738901
 20
20.91460261
 10
-1.6089425052
 20
20.9199508027
 10
-1.6342162994
 20
20.9249026091
 10
-1.6596779221
 20
20.9294586623
 10
-1.6853098432
 20
20.9336197614
 10
-1.711104614
 20
20.9373878187
 10
-1.7370446844
 20
20.9407631419
 10
-1.7631129229
 20
20.9437461982
 10
-1.7893019317
 20
20.9463381195
 10
-1.8155941436
 20
20.9485390159
 10
-1.8419725831
 20
20.9503490602
 10
-1.8684303342
 20
20.9517687459
 10
-1.8949501713
 20
20.9527980229
 10
-1.9215148429
 20
20.9534367672
 10
-1.9481171915
 20
20.9536848417
 10
-1.9747400301
 20
20.9535420237
 10
-2.0013660119
 20
20.9530079547
 10
-2.0279877651
 20
20.952081922
 10
-2.0545881618
 20
20.9507635032
 10
-2.081149607
 20
20.949052117
 10
-2.1076642971
 20
20.9469464949
 10
-2.1341149372
 20
20.9444459873
 10
-2.1604837761
 20
20.941549778
 10
-2.186762841
 20
20.9382559887
 10
-2.2129361237
 20
20.9345634455
 10
-2.2389840956
 20
20.9304712247
 10
-2.264894349
 20
20.9259774985
 10
-2.290650453
 20
20.9210808465
 10
-2.316232931
 20
20.9157801932
 10
-2.3416260867
 20
20.9100739739
 10
-2.3668120277
 20
20.9039608235
 10
-2.3917726108
 20
20.8974392593
 10
-2.4164933841
 20
20.8905069518
 10
-2.4409564629
 20
20.883162001
 10
-2.4651435273
 20
20.8754025296
 10
-2.4890411025
 20
20.8672250491
 10
-2.5126303565
 20
20.8586271352
 10
-2.5358936357
 20
20.8496057936
 10
-2.5588209999
 20
20.8401544824
 10
-2.5813971676
 20
20.8302675885
 10
-2.6035988373
 20
20.8199429527
 10
-2.6191779501
 20
20.8123174202
  0
LINE
  5
345
100
AcDbEntity
  8
268
100
AcDbLine
 62
7
  6
CONTINUOUS
 10
1.1947002315
 20
20.0733251738
 11
-1.6058182258
 21
21.4735844024
  0
LINE
  5
346
100
AcDbEntity
  8
268
100
AcDbLine
 62
7
  6
CONTINUOUS
 10
-1.6058182258
 20
22.0261425918
 11
-1.9593716164
 21
22.202919287
  0
LINE
  5
347
100
AcDbEntity
  8
268
100
AcDbLine
 62
7
  6
CONTINUOUS
 10
2.6025159277
 20
20.7672018322
 11
-0.2080337193
 21
22.1724766557
  0
LINE
  5
348
100
AcDbEntity
  8
218
100
AcDbLine
 62
7
  6
CONTINUOUS
 10
8.6568448897
 20
18.2126824016
 11
9.4446335373
 21
17.8187880778
  0
LINE
  5
349
100
AcDbEntity
  8
268
100
AcDbLine
 62
7
  6
CONTINUOUS
 10
4.2530373422
 20
20.6956552824
 11
4.1072239321
 21
20.7685619875
  0
LINE
  5
34A
100
AcDbEntity
  8
268
100
AcDbLine
 62
7
  6
CONTINUOUS
 10
3.361639109
 20
21.141354399
 11
1.1518982209
 21
22.2462248431
  0
LINE
  5
34B
100
AcDbEntity
  8
268
100
AcDbLine
 62
7
  6
CONTINUOUS
 10
-1.7155595248
 20
23.9431973957
 11
-1.5351075477
 21
23.8529714071
  0
LINE
  5
34C
100
AcDbEntity
  8
268
100
AcDbLine
 62
7
  6
CONTINUOUS
 10
3.8389039894
 20
21.1659656386
 11
4.0193559665
 21
21.07573965
  0
LWPOLYLINE
  5
34D
100
AcDbEntity
  8
268
100
AcDbPolyline
 62
7
  6
CONTINUOUS
 90
17
 70
0
 10
8.8615203766
 20
18.9296060116
 10
8.8278830828
 20
18.9656681621
 10
8.7941994947
 20
19.0003068218
 10
8.7604696123
 20
19.0335219905
 10
8.7266247106
 20
19.0653292945
 10
8.6927335145
 20
19.0957131076
 10
8.6590021995
 20
19.1246265517
 10
8.6254504041
 20
19.1520457271
 10
8.5920584897
 20
19.1779945334
 10
8.5589737156
 20
19.2024977919
 10
8.5262114022
 20
19.2255414988
 10
8.4937562291
 20
19.2471396578
 10
8.4617094945
 20
19.2673591019
 10
8.430082355
 20
19.2861930159
 10
8.3988636539
 20
19.3036482148
 10
8.3681212196
 20
19.3198119763
 10
8.3608485877
 20
19.3234884233
  0
LWPOLYLINE
  5
34E
100
AcDbEntity
  8
218
100
AcDbPolyline
 62
253
  6
CONTINUOUS
 90
57
 70
0
 10
18.969224784
 20
4.1319323889
 10
18.9755057143
 20
4.1121387039
 10
18.9876716012
 20
4.0706011182
 10
18.9991120347
 20
4.0281088748
 10
19.0098113673
 20
3.9846692494
 10
19.0197051244
 20
3.940316812
 10
19.0287828217
 20
3.8950433967
 10
19.0370304396
 20
3.8488552699
 10
19.0443809244
 20
3.8018106766
 10
19.0508296033
 20
3.7538299576
 10
19.0563576898
 20
3.7049940627
 10
19.0608858475
 20
3.6556072268
 10
19.0644003251
 20
3.6053882373
 10
19.0669024258
 20
3.5546269139
 10
19.0683691282
 20
3.5045003577
 10
19.0687786149
 20
3.4551098473
 10
19.0681987899
 20
3.4063869627
 10
19.066785721
 20
3.3592729729
 10
19.0645795234
 20
3.3140990393
 10
19.0616218275
 20
3.270573518
 10
19.0580858583
 20
3.2287085127
 10
19.0540228531
 20
3.1885896987
 10
19.0494492701
 20
3.1501587278
 10
19.0444780544
 20
3.1132085116
 10
19.0391444251
 20
3.0777368628
 10
19.0334640797
 20
3.0437634876
 10
19.0275113303
 20
3.0111111224
 10
19.0213215442
 20
2.9798118613
 10
19.0148986925
 20
2.9498451721
 10
19.0082620071
 20
2.920952606
 10
19.0014221594
 20
2.8930882236
 10
18.9943961462
 20
2.8663049817
 10
18.9872069172
 20
2.8404912992
 10
18.9798530455
 20
2.815604348
 10
18.9723578503
 20
2.7916917287
 10
18.964779197
 20
2.7687770134
 10
18.9571356542
 20
2.7468935951
 10
18.9494279386
 20
2.7260118692
 10
18.9416855693
 20
2.7060606652
 10
18.9339259944
 20
2.6870598542
 10
18.9261466472
 20
2.6689922986
 10
18.9183447242
 20
2.6517309287
 10
18.9105145249
 20
2.6352494803
 10
18.9026723699
 20
2.6195760794
 10
18.8948467122
 20
2.6046649777
 10
18.8870323526
 20
2.5905077801
 10
18.8792425728
 20
2.5771143955
 10
18.8715324912
 20
2.5644664599
 10
18.8639191546
 20
2.5525911692
 10
18.8563915042
 20
2.5414626819
 10
18.8489614726
 20
2.5309829752
 10
18.8416499928
 20
2.5211689891
 10
18.8344399348
 20
2.5120048425
 10
18.8272851309
 20
2.5033430675
 10
18.8201707846
 20
2.4951347056
 10
18.813113835
 20
2.4874294365
 10
18.8061152055
 20
2.4802276253
  0
LINE
  5
34F
100
AcDbEntity
  8
268
100
AcDbLine
 62
7
  6
CONTINUOUS
 10
1.6115176286
 20
-24.7686187695
 11
2.424690427
 21
-24.2397476391
  0
LINE
  5
350
100
AcDbEntity
  8
268
100
AcDbLine
 62
253
  6
CONTINUOUS
 10
3.3792845816
 20
-23.9280250213
 11
4.0863913628
 21
-23.5669139415
  0
LINE
  5
351
100
AcDbEntity
  8
268
100
AcDbLine
 62
7
  6
CONTINUOUS
 10
3.2893206135
 20
-24.1168350979
 11
3.9964273957
 21
-23.7557240176
  0
LINE
  5
352
100
AcDbEntity
  8
268
100
AcDbLine
 62
7
  6
CONTINUOUS
 10
3.289315759
 20
-24.1168375771
 11
3.2873081128
 21
-24.1178413091
  0
LINE
  5
353
100
AcDbEntity
  8
268
100
AcDbLine
 62
253
  6
CONTINUOUS
 10
1.6115176286
 20
-24.7930142748
 11
3.3792845816
 21
-23.9280250213
  0
LWPOLYLINE
  5
354
100
AcDbEntity
  8
RACCORDO
100
AcDbPolyline
 62
253
  6
CONTINUOUS
 90
16
 70
0
 10
-5.6711601105
 20
-26.2987671015
 10
-5.7336873073
 20
-26.3228958092
 10
-5.8013873771
 20
-26.3437152032
 10
-5.8735430316
 20
-26.3610047002
 10
-5.9493897754
 20
-26.3745811163
 10
-6.0281240056
 20
-26.3843006083
 10
-6.108911526
 20
-26.3900601972
 10
-6.1908963858
 20
-26.3917988598
 10
-6.2732099481
 20
-26.3894981747
 10
-6.3549800936
 20
-26.383182518
 10
-6.4353404603
 20
-26.3729188045
 10
-6.5134396232
 20
-26.3588157794
 10
-6.5884501146
 20
-26.3410228654
 10
-6.6595771919
 20
-26.3197285801
 10
-6.7260672574
 20
-26.2951585385
 10
-6.787215843
 20
-26.2675730622
  0
LINE
  5
355
100
AcDbEntity
  8
268
100
AcDbLine
 62
7
  6
CONTINUOUS
 10
1.1518982209
 20
22.2462248431
 11
-0.2080337193
 21
22.1724766557
  0
LWPOLYLINE
  5
356
100
AcDbEntity
  8
715
100
AcDbPolyline
 62
7
  6
CONTINUOUS
 90
9
 70
0
 10
12.7597124881
 20
19.5366907476
 10
12.7535957475
 20
19.5382902453
 10
12.7438255338
 20
19.5398230592
 10
12.7334993383
 20
19.5402385035
 10
12.7227121412
 20
19.539536731
 10
12.7117488822
 20
19.5377181997
 10
12.7007045415
 20
19.5347830622
 10
12.689484139
 20
19.5307311658
 10
12.6780876748
 20
19.5255625106
  0
LINE
  5
357
100
AcDbEntity
  8
715
100
AcDbLine
 62
7
  6
CONTINUOUS
 10
11.3666496893
 20
18.8698435178
 11
10.916905028
 21
18.991591351
  0
LWPOLYLINE
  5
358
100
AcDbEntity
  8
715
100
AcDbPolyline
 62
7
  6
CONTINUOUS
 90
28
 70
0
 10
12.7597023518
 20
19.5366667951
 10
12.6509870053
 20
19.5679526409
 10
12.5361319623
 20
19.5973063179
 10
12.4188705383
 20
19.6236333881
 10
12.2994973736
 20
19.6468954799
 10
12.1782770019
 20
19.6670660327
 10
12.0554476324
 20
19.684125308
 10
11.931298835
 20
19.6980491495
 10
11.8061153719
 20
19.7088198185
 10
11.6801348544
 20
19.7164272182
 10
11.5536484683
 20
19.7208605969
 10
11.4269457454
 20
19.7221151516
 10
11.3002639999
 20
19.7201903785
 10
11.1738927301
 20
19.7150890435
 10
11.0481231396
 20
19.7068198314
 10
10.9231935402
 20
19.6953919559
 10
10.7993946656
 20
19.6808221237
 10
10.6770099132
 20
19.6631321021
 10
10.556261477
 20
19.6423379267
 10
10.4374265559
 20
19.6184663267
 10
10.3207907325
 20
19.5915512749
 10
10.2065791595
 20
19.5616165076
 10
10.0950639813
 20
19.5286994037
 10
9.9865177849
 20
19.4928427689
 10
9.8811508933
 20
19.4540711513
 10
9.7792041109
 20
19.412418343
 10
9.6809579734
 20
19.3679375684
 10
9.5866739122
 20
19.320680179
  0
LWPOLYLINE
  5
359
100
AcDbEntity
  8
715
100
AcDbPolyline
 62
7
  6
CONTINUOUS
 90
3
 70
0
 10
12.7717531698
 20
19.531872967
 10
12.7629049595
 20
19.5356402145
 10
12.7597124881
 20
19.5366907476
  0
LWPOLYLINE
  5
35A
100
AcDbEntity
  8
268
100
AcDbPolyline
 62
7
  6
CONTINUOUS
 90
18
 70
0
 10
0.8920147492
 20
23.0578831164
 10
0.8724526648
 20
23.0669728495
 10
0.8495568846
 20
23.0759582642
 10
0.8260475984
 20
23.0834604969
 10
0.8019062763
 20
23.0894946668
 10
0.7772165229
 20
23.0940404512
 10
0.7519550967
 20
23.0970944346
 10
0.7261452392
 20
23.0986600326
 10
0.6999402803
 20
23.0987271691
 10
0.6733563177
 20
23.0972883932
 10
0.6463772537
 20
23.0943511558
 10
0.6191081251
 20
23.0899277346
 10
0.5915339454
 20
23.0840093489
 10
0.5636697011
 20
23.0766047794
 10
0.5356653881
 20
23.0677526448
 10
0.5075710049
 20
23.0574658181
 10
0.4793365529
 20
23.0457314264
 10
0.4509620321
 20
23.0325494696
  0
LWPOLYLINE
  5
35B
100
AcDbEntity
  8
268
100
AcDbPolyline
 62
7
  6
CONTINUOUS
 90
10
 70
0
 10
8.3608485877
 20
19.3234884233
 10
8.3378689085
 20
19.3346798555
 10
8.3080928641
 20
19.3482562973
 10
8.2788193451
 20
19.360641914
 10
8.2500293371
 20
19.3718437105
 10
8.2217418544
 20
19.3818546821
 10
8.1940401981
 20
19.3907544265
 10
8.1669521351
 20
19.3985694765
 10
8.1404498984
 20
19.4052732994
 10
8.1145334881
 20
19.4108658952
  0
LINE
  5
35C
100
AcDbEntity
  8
268
100
AcDbLine
 62
253
  6
CONTINUOUS
 10
-2.5281278688
 20
24.52209442
 11
0.4509620321
 21
23.0325494696
  0
LINE
  5
35D
100
AcDbEntity
  8
268
100
AcDbLine
 62
253
  6
CONTINUOUS
 10
4.6936027192
 20
20.911229126
 11
7.6726926202
 21
19.4216841755
  0
LINE
  5
35E
100
AcDbEntity
  8
268
100
AcDbLine
 62
7
  6
CONTINUOUS
 10
5.1346457223
 20
20.9365785926
 11
8.3611356144
 21
19.3233336465
  0
LINE
  5
35F
100
AcDbEntity
  8
715
100
AcDbLine
 62
7
  6
CONTINUOUS
 10
10.4219302811
 20
18.7441039776
 11
9.714961341
 21
19.0975884476
  0
LINE
  5
360
100
AcDbEntity
  8
715
100
AcDbLine
 62
7
  6
CONTINUOUS
 10
10.916905028
 20
18.991591351
 11
10.2099360879
 21
19.3450758211
  0
LINE
  5
361
100
AcDbEntity
  8
218
100
AcDbLine
 62
7
  6
CONTINUOUS
 10
9.9494413155
 20
19.7919440608
 11
9.5171270648
 21
20.0081011862
  0
LINE
  5
362
100
AcDbEntity
  8
715
100
AcDbLine
 62
7
  6
CONTINUOUS
 10
10.4219302811
 20
18.7441039776
 11
10.6193209483
 21
18.5618103867
  0
LINE
  5
363
100
AcDbEntity
  8
268
100
AcDbLine
 62
7
  6
CONTINUOUS
 10
2.9903758519
 20
-25.7687418973
 11
3.5186430237
 21
-25.4977308387
  0
LINE
  5
364
100
AcDbEntity
  8
268
100
AcDbLine
 62
7
  6
CONTINUOUS
 10
1.5195367096
 20
-24.9828327391
 11
3.287303664
 21
-24.1178434849
  0
LINE
  5
365
100
AcDbEntity
  8
268
100
AcDbLine
 62
7
  6
CONTINUOUS
 10
1.3890950611
 20
-26.548776497
 11
2.9903758519
 21
-25.7687418973
  0
LINE
  5
366
100
AcDbEntity
  8
RACCORDO
100
AcDbLine
 62
253
  6
CONTINUOUS
 10
-5.2285388788
 20
-26.7135034422
 11
-1.0860026653
 21
-25.3995600205
  0
LINE
  5
367
100
AcDbEntity
  8
RACCORDO
100
AcDbLine
 62
7
  6
CONTINUOUS
 10
-1.3891009584
 20
-25.8720687566
 11
-5.5379270364
 21
-27.1880068082
  0
LWPOLYLINE
  5
368
100
AcDbEntity
  8
218
100
AcDbPolyline
 62
7
  6
CONTINUOUS
 90
10
 70
0
 10
13.6924052512
 20
19.8471194624
 10
13.7285108708
 20
19.8314117375
 10
13.7640454732
 20
19.8154032501
 10
13.7990090583
 20
19.799094
 10
13.8334117955
 20
19.7824789026
 10
13.8672435155
 20
19.7655630426
 10
13.9004737103
 20
19.748361674
 10
13.9330922105
 20
19.7308798814
 10
13.9651091854
 20
19.7131125802
 10
13.9965246351
 20
19.6950597704
  0
LINE
  5
369
100
AcDbEntity
  8
218
100
AcDbLine
 62
7
  6
CONTINUOUS
 10
14.1403987312
 20
19.6074628698
 11
13.5088674102
 21
19.9232285303
  0
LINE
  5
36A
100
AcDbEntity
  8
218
100
AcDbLine
 62
7
  6
CONTINUOUS
 10
13.6924052512
 20
19.8471194624
 11
13.9965246351
 21
19.6950597704
  0
LINE
  5
36B
100
AcDbEntity
  8
715
100
AcDbLine
 62
7
  6
CONTINUOUS
 10
13.6202813073
 20
19.1076088982
 11
13.7126934684
 21
19.0613473898
  0
LWPOLYLINE
  5
36C
100
AcDbEntity
  8
715
100
AcDbPolyline
 62
7
  6
CONTINUOUS
 90
10
 70
0
 10
13.58233724
 20
19.1202765532
 10
13.4848601863
 20
19.1703319849
 10
13.3892469845
 20
19.2193078605
 10
13.2954976345
 20
19.2672041801
 10
13.2036265532
 20
19.3140223679
 10
13.1136193238
 20
19.3597609996
 10
13.0254326958
 20
19.4044158027
 10
12.9390522524
 20
19.4479853528
 10
12.8544924104
 20
19.4904710742
 10
12.7717531698
 20
19.531872967
  0
LINE
  5
36D
100
AcDbEntity
  8
715
100
AcDbLine
 62
7
  6
CONTINUOUS
 10
13.5900956686
 20
19.1156900811
 11
13.58233724
 21
19.1202765532
  0
LWPOLYLINE
  5
36E
100
AcDbEntity
  8
715
100
AcDbPolyline
 62
253
  6
CONTINUOUS
 90
4
 70
0
 10
13.6202813073
 20
19.1076088982
 10
13.6448042976
 20
19.0871045199
 10
13.6691700593
 20
19.0658262554
 10
13.687367883
 20
19.0491924737
  0
LWPOLYLINE
  5
36F
100
AcDbEntity
  8
715
100
AcDbPolyline
 62
253
  6
CONTINUOUS
 90
6
 70
0
 10
13.5266447081
 20
19.1013128898
 10
13.5495051375
 20
19.0817341563
 10
13.5720826758
 20
19.0613811098
 10
13.594377323
 20
19.0402537502
 10
13.6164228213
 20
19.0184238633
 10
13.6185834676
 20
19.0161796615
  0
LWPOLYLINE
  5
370
100
AcDbEntity
  8
218
100
AcDbPolyline
 62
253
  6
CONTINUOUS
 90
57
 70
0
 10
18.969224784
 20
16.0830909973
 10
18.9769959793
 20
16.0583832945
 10
18.9891733031
 20
16.0163817056
 10
19.0006167114
 20
15.9733803055
 10
19.0113052451
 20
15.9294032533
 10
19.021165925
 20
15.8845156064
 10
19.030184751
 20
15.8387267628
 10
19.0383516253
 20
15.7920261908
 10
19.0456024067
 20
15.7444512562
 10
19.0519384282
 20
15.6958216936
 10
19.0573326386
 20
15.6463183015
 10
19.0616931259
 20
15.5965283069
 10
19.0649979362
 20
15.5463226294
 10
19.0672712221
 20
15.4958463372
 10
19.0685263456
 20
15.4461153165
 10
19.0687527189
 20
15.3972349409
 10
19.068011113
 20
15.3491338279
 10
19.0664582071
 20
15.3025776989
 10
19.0641292405
 20
15.257795785
 10
19.0610656187
 20
15.2145958603
 10
19.0574466947
 20
15.1731158693
 10
19.0533281145
 20
15.1334990451
 10
19.0487236321
 20
15.095629666
 10
19.0437432018
 20
15.0592546675
 10
19.0384283547
 20
15.0243938659
 10
19.0327879846
 20
14.9910445869
 10
19.0268716347
 20
14.9589164404
 10
19.0206989322
 20
14.927968494
 10
19.0142858025
 20
14.8982521297
 10
19.0076682807
 20
14.8696131919
 10
19.0008541061
 20
14.8420145383
 10
18.9938630105
 20
14.815500241
 10
18.9867452467
 20
14.7900370066
 10
18.9795166208
 20
14.7656398701
 10
18.9721845199
 20
14.742298895
 10
18.9647841873
 20
14.7199428345
 10
18.9573389261
 20
14.6986031709
 10
18.9498438429
 20
14.678252067
 10
18.9422889826
 20
14.6587287311
 10
18.9346815154
 20
14.6400196894
 10
18.9270273774
 20
14.6221407633
 10
18.9193121599
 20
14.6049745966
 10
18.9115240135
 20
14.5884836404
 10
18.9036844245
 20
14.572707043
 10
18.895827667
 20
14.5576422934
 10
18.8879406255
 20
14.5432742149
 10
18.8800442711
 20
14.5296193804
 10
18.8722234516
 20
14.5167229545
 10
18.8644997764
 20
14.50462713
 10
18.8568579227
 20
14.4932911216
 10
18.8493265434
 20
14.4826356135
 10
18.8419346016
 20
14.472689449
 10
18.834657175
 20
14.4634249208
 10
18.8274410455
 20
14.4546776734
 10
18.8202690752
 20
14.4463931227
 10
18.8131606145
 20
14.4386266003
 10
18.8061166172
 20
14.4313784851
  0
LINE
  5
371
100
AcDbEntity
  8
218
100
AcDbLine
 62
7
  6
CONTINUOUS
 10
16.5979834529
 20
20.4461310775
 11
13.4891678822
 21
22.0005388629
  0
LINE
  5
372
100
AcDbEntity
  8
218
100
AcDbLine
 62
253
  6
CONTINUOUS
 10
17.9315165327
 20
20.277458023
 11
17.106270065
 21
20.6900812569
  0
LINE
  5
373
100
AcDbEntity
  8
218
100
AcDbLine
 62
253
  6
CONTINUOUS
 10
12.4458188822
 20
23.0203068483
 11
4.1959512121
 21
27.1452406833
  0
LINE
  5
374
100
AcDbEntity
  8
218
100
AcDbLine
 62
7
  6
CONTINUOUS
 10
18.3003086058
 20
20.3328617564
 11
17.4527609975
 21
20.7566355605
  0
LINE
  5
375
100
AcDbEntity
  8
218
100
AcDbLine
 62
7
  6
CONTINUOUS
 10
12.9690737108
 20
22.9984792038
 11
4.6969049002
 21
27.1345636092
  0
LWPOLYLINE
  5
376
100
AcDbEntity
  8
218
100
AcDbPolyline
 62
7
  6
CONTINUOUS
 90
12
 70
0
 10
18.300427149
 20
20.3328028424
 10
18.3063501081
 20
20.3296857513
 10
18.3135148002
 20
20.3254746277
 10
18.3203713693
 20
20.320935208
 10
18.326919726
 20
20.316068384
 10
18.3331554472
 20
20.3108830247
 10
18.3390788284
 20
20.3053800561
 10
18.3446902661
 20
20.299560617
 10
18.3499856827
 20
20.2934339999
 10
18.3549658307
 20
20.2870013971
 10
18.3596315716
 20
20.2802641808
 10
18.3642066139
 20
20.2728409658
  0
LWPOLYLINE
  5
377
100
AcDbEntity
  8
218
100
AcDbPolyline
 62
7
  6
CONTINUOUS
 90
104
 70
0
 10
18.969224784
 20
17.902213866
 10
18.9819461219
 20
17.8929590458
 10
19.026767734
 20
17.8590907243
 10
19.0712515812
 20
17.8242158121
 10
19.1154092415
 20
17.7883310245
 10
19.1592398189
 20
17.7514408333
 10
19.2027115716
 20
17.7135754996
 10
19.2457891924
 20
17.6747706629
 10
19.2884521133
 20
17.6350506409
 10
19.3306898204
 20
17.594430837
 10
19.372482322
 20
17.5529359076
 10
19.4138084483
 20
17.5105926374
 10
19.4546592022
 20
17.4674158531
 10
19.4950323242
 20
17.4234124764
 10
19.5349231482
 20
17.3785907938
 10
19.5743056209
 20
17.3329831169
 10
19.6131455465
 20
17.2866334947
 10
19.651414445
 20
17.2395820299
 10
19.6891130718
 20
17.191833788
 10
19.7262508093
 20
17.1433806263
 10
19.7628265118
 20
17.0942254866
 10
19.7988117076
 20
17.044407912
 10
19.8341746591
 20
16.9939748718
 10
19.868891947
 20
16.9429644295
 10
19.9029609702
 20
16.8913849546
 10
19.9363815423
 20
16.8392395896
 10
19.9691455141
 20
16.7865424801
 10
20.0012342119
 20
16.7333249238
 10
20.032631349
 20
16.6796156804
 10
20.0633226933
 20
16.6254410835
 10
20.093297627
 20
16.570821703
 10
20.1225456609
 20
16.5157780234
 10
20.1510542649
 20
16.4603347162
 10
20.178812202
 20
16.4045145373
 10
20.2058108843
 20
16.3483350947
 10
20.2320395456
 20
16.2918184997
 10
20.2574860285
 20
16.2349904127
 10
20.2821397348
 20
16.1778737408
 10
20.3059902541
 20
16.1204914374
 10
20.3290264568
 20
16.0628688134
 10
20.351237126
 20
16.0050323346
 10
20.3726095918
 20
15.9470136402
 10
20.3931369425
 20
15.8888297875
 10
20.4128162661
 20
15.8304851369
 10
20.4316430454
 20
15.7719860759
 10
20.4496012219
 20
15.7133748112
 10
20.4666716493
 20
15.6547092571
 10
20.48283952
 20
15.5960398036
 10
20.4981049768
 20
15.5373649802
 10
20.5124712489
 20
15.4786646503
 10
20.5259354398
 20
15.4199350343
 10
20.5384815102
 20
15.361228831
 10
20.5500932524
 20
15.302610127
 10
20.5607601579
 20
15.2441260155
 10
20.5704807036
 20
15.1857776344
 10
20.579253088
 20
15.1275595839
 10
20.5870722215
 20
15.0694793383
 10
20.593928447
 20
15.0115779553
 10
20.599813116
 20
14.9538997844
 10
20.6047205345
 20
14.8964711753
 10
20.6086457191
 20
14.8393132267
 10
20.6115831216
 20
14.7824611577
 10
20.6135282704
 20
14.7259481144
 10
20.6144777678
 20
14.6697871466
 10
20.6144276346
 20
14.6139826007
 10
20.6133723212
 20
14.5585241713
 10
20.6113071344
 20
14.5034691397
 10
20.6082331175
 20
14.4489206949
 10
20.6041546918
 20
14.3949465148
 10
20.5990702213
 20
14.341519309
 10
20.5929728534
 20
14.2885984507
 10
20.5858506275
 20
14.2361416068
 10
20.5777080713
 20
14.184236588
 10
20.5685674371
 20
14.1330344705
 10
20.5584472125
 20
14.0826128912
 10
20.5473427639
 20
14.0329263904
 10
20.5352461934
 20
13.9839379332
 10
20.5221466775
 20
13.9356178559
 10
20.5080589
 20
13.8880342134
 10
20.4930158014
 20
13.841294089
 10
20.4770341128
 20
13.7954326069
 10
20.4601163698
 20
13.750441734
 10
20.4422816553
 20
13.7063579637
 10
20.4235456388
 20
13.6632033709
 10
20.4039158213
 20
13.6209797777
 10
20.3834005324
 20
13.5796923824
 10
20.3619916702
 20
13.5393173444
 10
20.3397193677
 20
13.4999045028
 10
20.3166565577
 20
13.4615634843
 10
20.2928636557
 20
13.4243611112
 10
20.2683228293
 20
13.3882372859
 10
20.2429911277
 20
13.3531112667
 10
20.216851203
 20
13.3189535577
 10
20.1899481211
 20
13.2858177764
 10
20.1623304513
 20
13.2537516389
 10
20.1340332874
 20
13.2227791865
 10
20.1050611649
 20
13.192889072
 10
20.0754198815
 20
13.1640740549
 10
20.0451318394
 20
13.1363439089
 10
20.0142145952
 20
13.1097028542
 10
19.9826653813
 20
13.0841387835
 10
19.9504960806
 20
13.0596539702
 10
19.9177345776
 20
13.0362622468
 10
19.8844015705
 20
13.0139704092
  0
LWPOLYLINE
  5
378
100
AcDbEntity
  8
218
100
AcDbPolyline
 62
253
  6
CONTINUOUS
 90
34
 70
0
 10
18.6272573407
 20
19.8191455738
 10
18.6263002057
 20
19.8204066468
 10
18.6244274756
 20
19.8218224082
 10
18.6219144132
 20
19.8228637012
 10
18.6187628847
 20
19.8235297525
 10
18.6149752304
 20
19.8238200677
 10
18.6105542631
 20
19.823734431
 10
18.6055032657
 20
19.8232729062
 10
18.5998259892
 20
19.8224358358
 10
18.5935266496
 20
19.8212238415
 10
18.5866099248
 20
19.8196378234
 10
18.5790809512
 20
19.8176789592
 10
18.5709453198
 20
19.8153487037
 10
18.5622090722
 20
19.8126487871
 10
18.5528786959
 20
19.8095812147
 10
18.5429611199
 20
19.8061482642
 10
18.5324637089
 20
19.8023524851
 10
18.5213942583
 20
19.7981966961
 10
18.5097609884
 20
19.7936839834
 10
18.4975725382
 20
19.788817698
 10
18.4848379587
 20
19.7836014538
 10
18.4715667069
 20
19.7780391243
 10
18.457768638
 20
19.7721348402
 10
18.4434539985
 20
19.765892986
 10
18.4286334185
 20
19.7593181969
 10
18.4133179039
 20
19.7524153554
 10
18.3975188282
 20
19.7451895877
 10
18.3812479237
 20
19.7376462595
 10
18.3645172733
 20
19.7297909727
 10
18.3473393013
 20
19.7216295605
 10
18.3297267642
 20
19.7131680838
 10
18.3116927411
 20
19.704412826
 10
18.2932506242
 20
19.6953702889
 10
18.2744141087
 20
19.6860471874
  0
LINE
  5
379
100
AcDbEntity
  8
218
100
AcDbLine
 62
253
  6
CONTINUOUS
 10
17.9315165327
 20
20.277458023
 11
18.2744141087
 21
19.6860471874
  0
LINE
  5
37A
100
AcDbEntity
  8
218
100
AcDbLine
 62
7
  6
CONTINUOUS
 10
18.3642104212
 20
20.2728343992
 11
18.6272573575
 21
19.8191455448
  0
LWPOLYLINE
  5
37B
100
AcDbEntity
  8
218
100
AcDbPolyline
 62
253
  6
CONTINUOUS
 90
37
 70
0
 10
18.2744141087
 20
19.6860471874
 10
18.2960949164
 20
19.6483085159
 10
18.3172837165
 20
19.6102402687
 10
18.3379703851
 20
19.5718605378
 10
18.3581449653
 20
19.5331876148
 10
18.3777978983
 20
19.4942398326
 10
18.3969200183
 20
19.4550355513
 10
18.4155022483
 20
19.4155932929
 10
18.4335356467
 20
19.3759319152
 10
18.451011637
 20
19.3360704519
 10
18.4679218627
 20
19.2960279219
 10
18.4842582738
 20
19.2558232994
 10
18.5000131643
 20
19.215475683
 10
18.5151790288
 20
19.1750042628
 10
18.5297486265
 20
19.1344282838
 10
18.5437150692
 20
19.0937670163
 10
18.5570717178
 20
19.0530397763
 10
18.5698121892
 20
19.0122659621
 10
18.5819304177
 20
18.9714650161
 10
18.5934206449
 20
18.9306563551
 10
18.6042773966
 20
18.8898593916
 10
18.6144954894
 20
18.8490935687
 10
18.6240700731
 20
18.8083783199
 10
18.6329966029
 20
18.7677329885
 10
18.6412708167
 20
18.7271768492
 10
18.6488888016
 20
18.6867292115
 10
18.6558469434
 20
18.6464093249
 10
18.6621418946
 20
18.6062363002
 10
18.6677706994
 20
18.5662292092
 10
18.6727306851
 20
18.5264071583
 10
18.6770194122
 20
18.486789193
 10
18.6806348752
 20
18.4473942982
 10
18.6835754002
 20
18.4082411151
 10
18.6858395254
 20
18.3693480184
 10
18.6874261717
 20
18.3307334474
 10
18.6883346553
 20
18.2924158924
 10
18.6885645843
 20
18.2544136128
  0
ELLIPSE
  5
37C
100
AcDbEntity
  8
RACCORDO
100
AcDbEllipse
 62
7
  6
CONTINUOUS
 10
-13.1061656199
 20
19.9821892409
 30
0.0
 11
-0.2788336762
 21
0.7504028808
 31
0.0
 40
0.660854826
 41
-0.3090486207
 42
0.0320396926
  0
ELLIPSE
  5
37D
100
AcDbEntity
  8
RACCORDO
100
AcDbEllipse
 62
7
  6
CONTINUOUS
 10
-1.6518414711
 20
-25.1161277815
 30
0.0
 11
-0.2788336762
 21
0.7504028808
 31
0.0
 40
0.660854826
 41
-3.1737081954
 42
-2.187168432
  0
ELLIPSE
  5
37E
100
AcDbEntity
  8
RACCORDO
100
AcDbEllipse
 62
7
  6
CONTINUOUS
 10
1.4598462471
 20
12.6991833074
 30
0.0
 11
-0.2782515188
 21
0.7500674241
 31
0.0
 40
0.6617094163
 41
-2.1859006333
 42
-0.8222376794
  0
ELLIPSE
  5
37F
100
AcDbEntity
  8
268
100
AcDbEllipse
 62
7
  6
CONTINUOUS
 10
-13.5820220563
 20
22.7072887212
 30
0.0
 11
0.110769438
 21
0.2241226716
 31
0.0
 40
0.6088015717
 41
-4.0304836828
 42
-3.1443650652
  0
ELLIPSE
  5
380
100
AcDbEntity
  8
268
100
AcDbEllipse
 62
7
  6
CONTINUOUS
 10
-0.2177038919
 20
16.025129639
 30
0.0
 11
0.110769438
 21
0.2241226716
 31
0.0
 40
0.6088015717
 41
-4.0304836828
 42
-3.1443650652
  0
ELLIPSE
  5
381
100
AcDbEntity
  8
268
100
AcDbEllipse
 62
7
  6
CONTINUOUS
 10
-0.2177038919
 20
-25.5278458941
 30
0.0
 11
0.110769438
 21
0.2241226716
 31
0.0
 40
0.6088015717
 41
-4.0304836828
 42
-3.1443955108
  0
ELLIPSE
  5
382
100
AcDbEntity
  8
268
100
AcDbEllipse
 62
7
  6
CONTINUOUS
 10
3.8389039894
 20
14.7334115899
 30
0.0
 11
-0.1565168911
 21
0.3130623908
 31
0.0
 40
0.6123677712
 41
-2.2554744912
 42
-0.6846781644
  0
ELLIPSE
  5
383
100
AcDbEntity
  8
268
100
AcDbEllipse
 62
7
  6
CONTINUOUS
 10
3.8389039894
 20
-23.4431702548
 30
0.0
 11
-0.1565168911
 21
0.3130623908
 31
0.0
 40
0.6123677712
 41
-3.1363904945
 42
-2.2554744912
  0
ELLIPSE
  5
384
100
AcDbEntity
  8
268
100
AcDbEllipse
 62
7
  6
CONTINUOUS
 10
-1.9276915592
 20
23.838642895
 30
0.0
 11
0.2999991737
 21
-0.0014183462
 31
0.0
 40
0.4964289597
 41
0.7877451926
 42
2.3527237553
  0
ELLIPSE
  5
385
100
AcDbEntity
  8
268
100
AcDbEllipse
 62
7
  6
CONTINUOUS
 10
3.626771955
 20
21.0614111379
 30
0.0
 11
0.2999991737
 21
-0.0014183462
 31
0.0
 40
0.4964289597
 41
0.7877451926
 42
2.3585415194
  0
ELLIPSE
  5
386
100
AcDbEntity
  8
268
100
AcDbEllipse
 62
7
  6
CONTINUOUS
 10
3.1661240905
 20
15.3509826007
 30
0.0
 11
0.110769438
 21
0.2241226716
 31
0.0
 40
0.6088015717
 41
1.2055040732
 42
2.252693743
  0
ELLIPSE
  5
387
100
AcDbEntity
  8
268
100
AcDbEllipse
 62
7
  6
CONTINUOUS
 10
-10.1981940739
 20
22.033141683
 30
0.0
 11
0.110769438
 21
0.2241226716
 31
0.0
 40
0.6088015717
 41
1.2055040732
 42
2.2526937431
  0
ELLIPSE
  5
388
100
AcDbEntity
  8
268
100
AcDbEllipse
 62
7
  6
CONTINUOUS
 10
3.5176205676
 20
-25.281745363
 30
0.0
 11
0.110769438
 21
0.2241226716
 31
0.0
 40
0.6088015717
 41
-2.4538695918
 42
-0.8888910292
  0
ELLIPSE
  5
389
100
AcDbEntity
  8
268
100
AcDbEllipse
 62
7
  6
CONTINUOUS
 10
-0.2177038919
 20
-25.2744745004
 30
0.0
 11
0.110769438
 21
0.2241226716
 31
0.0
 40
0.6088015717
 41
1.2055040732
 42
2.2527016244
  0
ELLIPSE
  5
38A
100
AcDbEntity
  8
268
100
AcDbEllipse
 62
7
  6
CONTINUOUS
 10
3.5176205676
 20
16.2787877528
 30
0.0
 11
0.110769438
 21
0.2241226716
 31
0.0
 40
0.6088015717
 41
-1.9360885804
 42
-0.8888910292
  0
ELLIPSE
  5
38B
100
AcDbEntity
  8
268
100
AcDbEllipse
 62
7
  6
CONTINUOUS
 10
1.8974457113
 20
17.3498041573
 30
0.0
 11
0.1128509832
 21
0.2230818409
 31
0.0
 40
0.6159267166
 41
0.0028979148
 42
0.6817883054
  0
ELLIPSE
  5
38C
100
AcDbEntity
  8
268
100
AcDbEllipse
 62
7
  6
CONTINUOUS
 10
-0.2177038919
 20
16.2785010327
 30
0.0
 11
0.110769438
 21
0.2241226716
 31
0.0
 40
0.6088015717
 41
0.6877230618
 42
2.2527016244
  0
ELLIPSE
  5
38D
100
AcDbEntity
  8
268
100
AcDbEllipse
 62
7
  6
CONTINUOUS
 10
-9.8466975968
 20
22.960946835
 30
0.0
 11
0.110769438
 21
0.2241226716
 31
0.0
 40
0.6088015717
 41
-1.9360885804
 42
-0.8888910292
  0
ELLIPSE
  5
38E
100
AcDbEntity
  8
268
100
AcDbEllipse
 62
7
  6
CONTINUOUS
 10
-11.4668724531
 20
24.0319632395
 30
0.0
 11
0.1128509832
 21
0.2230818409
 31
0.0
 40
0.6159267166
 41
0.0028979148
 42
0.6817883054
  0
ELLIPSE
  5
38F
100
AcDbEntity
  8
268
100
AcDbEllipse
 62
7
  6
CONTINUOUS
 10
-13.5820220563
 20
22.9606601149
 30
0.0
 11
0.110769438
 21
0.2241226716
 31
0.0
 40
0.6088015717
 41
0.6877230618
 42
2.2527016244
  0
ELLIPSE
  5
390
100
AcDbEntity
  8
268
100
AcDbEllipse
 62
7
  6
CONTINUOUS
 10
-9.8466975968
 20
23.2218758113
 30
0.0
 11
0.110769438
 21
0.2241226716
 31
0.0
 40
0.6088015717
 41
5.394294278
 42
6.9592728406
  0
ELLIPSE
  5
391
100
AcDbEntity
  8
268
100
AcDbEllipse
 62
7
  6
CONTINUOUS
 10
3.5176205676
 20
16.5397167291
 30
0.0
 11
0.110769438
 21
0.2241226716
 31
0.0
 40
0.6088015717
 41
5.394294278
 42
6.9592728406
  0
ELLIPSE
  5
392
100
AcDbEntity
  8
268
100
AcDbEllipse
 62
7
  6
CONTINUOUS
 10
3.5176205676
 20
-25.0208163866
 30
0.0
 11
0.110769438
 21
0.2241226716
 31
0.0
 40
0.6088015717
 41
5.394294278
 42
6.4414918292
  0
ELLIPSE
  5
393
100
AcDbEntity
  8
268
100
AcDbEllipse
 62
7
  6
CONTINUOUS
 10
-7.8961853095
 20
20.9184615271
 30
0.0
 11
0.2999991335
 21
0.0014318851
 31
0.0
 40
0.5035541159
 41
8.6427941204
 42
10.207772683
  0
ELLIPSE
  5
394
100
AcDbEntity
  8
268
100
AcDbEllipse
 62
7
  6
CONTINUOUS
 10
3.8072239321
 20
19.739350968
 30
0.0
 11
0.2999981629
 21
-0.0021225547
 31
0.0
 40
0.4946372042
 41
-0.7760807437
 42
0.0035109161
  0
ELLIPSE
  5
395
100
AcDbEntity
  8
268
100
AcDbEllipse
 62
7
  6
CONTINUOUS
 10
-1.747239582
 20
22.5165827251
 30
0.0
 11
0.2999981629
 21
-0.0021225547
 31
0.0
 40
0.4946372042
 41
-0.7818985079
 42
0.0034997008
  0
ELLIPSE
  5
396
100
AcDbEntity
  8
268
100
AcDbEllipse
 62
7
  6
CONTINUOUS
 10
1.3640302552
 20
13.484638189
 30
0.0
 11
-0.1565168911
 21
0.3130623908
 31
0.0
 40
0.6123677712
 41
-2.2554744912
 42
-0.6846781644
  0
ELLIPSE
  5
397
100
AcDbEntity
  8
268
100
AcDbEllipse
 62
7
  6
CONTINUOUS
 10
-13.9094762184
 20
21.1213914258
 30
0.0
 11
-0.1565168911
 21
0.3130623908
 31
0.0
 40
0.6123677712
 41
-0.6846781644
 42
0.8861181623
  0
ELLIPSE
  5
398
100
AcDbEntity
  8
268
100
AcDbEllipse
 62
7
  6
CONTINUOUS
 10
1.3640302552
 20
-24.6692705881
 30
0.0
 11
-0.1565168911
 21
0.3130623908
 31
0.0
 40
0.6123677712
 41
2.4569144891
 42
4.0277108159
  0
ELLIPSE
  5
399
100
AcDbEntity
  8
268
100
AcDbEllipse
 62
7
  6
CONTINUOUS
 10
-1.747239582
 20
23.7484169065
 30
0.0
 11
0.2999991737
 21
-0.0014183462
 31
0.0
 40
0.4964289597
 41
-0.7830511342
 42
0.7877451926
  0
ELLIPSE
  5
39A
100
AcDbEntity
  8
268
100
AcDbEllipse
 62
7
  6
CONTINUOUS
 10
3.8072239321
 20
20.9711851494
 30
0.0
 11
0.2999991737
 21
-0.0014183462
 31
0.0
 40
0.4964289597
 41
-0.77723337
 42
0.7877451926
  0
ELLIPSE
  5
39B
100
AcDbEntity
  8
268
100
AcDbEllipse
 62
7
  6
CONTINUOUS
 10
-7.8961853095
 20
19.7042624513
 30
0.0
 11
0.2999980272
 21
0.0021530184
 31
0.0
 40
0.5053247124
 41
3.1379773283
 42
3.9233642311
  0
ELLIPSE
  5
39C
100
AcDbEntity
  8
268
100
AcDbEllipse
 62
7
  6
CONTINUOUS
 10
-2.1036762414
 20
18.0222069931
 30
0.0
 11
0.2999991335
 21
0.0014318851
 31
0.0
 40
0.5035541159
 41
-2.3585979313
 42
-0.7936193687
  0
ELLIPSE
  5
39D
100
AcDbEntity
  8
268
100
AcDbEllipse
 62
7
  6
CONTINUOUS
 10
-2.1036762414
 20
16.8080079172
 30
0.0
 11
0.2999980272
 21
0.0021530184
 31
0.0
 40
0.5053247124
 41
-2.3598210761
 42
-0.7948425135
  0
ELLIPSE
  5
39E
100
AcDbEntity
  8
268
100
AcDbEllipse
 62
7
  6
CONTINUOUS
 10
3.1661240905
 20
-24.4486215386
 30
0.0
 11
0.110769438
 21
0.2241226716
 31
0.0
 40
0.6088015717
 41
2.2527095058
 42
3.2998991756
  0
ELLIPSE
  5
39F
100
AcDbEntity
  8
268
100
AcDbEllipse
 62
7
  6
CONTINUOUS
 10
-0.288176051
 20
-19.2276162213
 30
0.0
 11
-0.542618321
 21
0.8478124368
 31
0.0
 40
0.5451249042
 41
-3.2164376038
 42
-2.3115524019
  0
ELLIPSE
  5
3A0
100
AcDbEntity
  8
268
100
AcDbEllipse
 62
7
  6
CONTINUOUS
 10
1.3901294837
 20
-26.331762582
 30
0.0
 11
0.1128509832
 21
0.2230818409
 31
0.0
 40
0.6159267166
 41
-4.0247829108
 42
-2.4598043482
  0
ELLIPSE
  5
3A1
100
AcDbEntity
  8
268
100
AcDbEllipse
 62
7
  6
CONTINUOUS
 10
1.3901294837
 20
-26.0783911882
 30
0.0
 11
0.1128509832
 21
0.2230818409
 31
0.0
 40
0.6159267166
 41
1.2112048452
 42
2.2584023964
  0
ELLIPSE
  5
3A2
100
AcDbEntity
  8
268
100
AcDbEllipse
 62
7
  6
CONTINUOUS
 10
1.3901294837
 20
15.4745843449
 30
0.0
 11
0.1128509832
 21
0.2230818409
 31
0.0
 40
0.6159267166
 41
0.6934238338
 42
2.2584023964
  0
ELLIPSE
  5
3A3
100
AcDbEntity
  8
268
100
AcDbEllipse
 62
7
  6
CONTINUOUS
 10
1.3901294837
 20
15.2212129512
 30
0.0
 11
0.1128509832
 21
0.2230818409
 31
0.0
 40
0.6159267166
 41
-4.0247829108
 42
-2.9775853596
  0
ELLIPSE
  5
3A4
100
AcDbEntity
  8
268
100
AcDbEllipse
 62
7
  6
CONTINUOUS
 10
-11.9741886807
 20
22.1567434271
 30
0.0
 11
0.1128509832
 21
0.2230818409
 31
0.0
 40
0.6159267166
 41
0.6934238338
 42
2.2584023964
  0
ELLIPSE
  5
3A5
100
AcDbEntity
  8
268
100
AcDbEllipse
 62
7
  6
CONTINUOUS
 10
-11.9741886807
 20
21.9033720334
 30
0.0
 11
0.1128509832
 21
0.2230818409
 31
0.0
 40
0.6159267166
 41
-4.0247829108
 42
-2.9775853596
  0
ELLIPSE
  5
3A6
100
AcDbEntity
  8
218
100
AcDbEllipse
 62
7
  6
CONTINUOUS
 10
11.2281698528
 20
18.918627521
 30
0.0
 11
2.7499924258
 21
-0.0130015067
 31
0.0
 40
0.4964289597
 41
2.3672681657
 42
2.9293761949
  0
ELLIPSE
  5
3A7
100
AcDbEntity
  8
218
100
AcDbEllipse
 62
7
  6
CONTINUOUS
 10
12.7882319284
 20
21.9708661063
 30
0.0
 11
0.4410298232
 21
0.8975092442
 31
0.0
 40
0.607010042
 41
-0.8902711325
 42
-0.7587130969
  0
ELLIPSE
  5
3A8
100
AcDbEntity
  8
218
100
AcDbEllipse
 62
7
  6
CONTINUOUS
 10
16.685619999
 20
20.022172071
 30
0.0
 11
0.79574694
 21
0.7129684349
 31
0.0
 40
0.2882345029
 41
0.1136090155
 42
0.7807533904
  0
ELLIPSE
  5
3A9
100
AcDbEntity
  8
218
100
AcDbEllipse
 62
7
  6
CONTINUOUS
 10
11.8999212949
 20
18.8167040711
 30
0.0
 11
2.7583876426
 21
-0.0130411979
 31
0.0
 40
0.4964289597
 41
0.8884696282
 42
2.3585415194
  0
ELLIPSE
  5
3AA
100
AcDbEntity
  8
218
100
AcDbEllipse
 62
7
  6
CONTINUOUS
 10
11.8999212949
 20
18.8167040711
 30
0.0
 11
2.7583876426
 21
-0.0130411979
 31
0.0
 40
0.4964289597
 41
0.4412294433
 42
0.6870207571
  0
ELLIPSE
  5
3AB
100
AcDbEntity
  8
218
100
AcDbEllipse
 62
7
  6
CONTINUOUS
 10
11.2046367645
 20
20.1458397565
 30
0.0
 11
3.3022643479
 21
-0.04629945
 31
0.0
 40
0.4892378494
 41
2.3616770883
 42
5.5059722822
  0
ELLIPSE
  5
3AC
100
AcDbEntity
  8
218
100
AcDbEllipse
 62
7
  6
CONTINUOUS
 10
11.8999212949
 20
20.7971921838
 30
0.0
 11
2.7583515655
 21
-1.4175703156
 31
0.0
 40
0.0109499087
 41
-0.7017315251
 42
-0.679046417
  0
ELLIPSE
  5
3AD
100
AcDbEntity
  8
218
100
AcDbEllipse
 62
7
  6
CONTINUOUS
 10
11.8999212949
 20
20.7971921838
 30
0.0
 11
2.7583515655
 21
-1.4175703156
 31
0.0
 40
0.0109499087
 41
-0.8804952881
 42
-0.85781018
  0
ELLIPSE
  5
3AE
100
AcDbEntity
  8
218
100
AcDbEllipse
 62
7
  6
CONTINUOUS
 10
11.8999212949
 20
19.249716773
 30
0.0
 11
2.7583876426
 21
-0.0130411979
 31
0.0
 40
0.4964289597
 41
0.1877225706
 42
2.3585415194
  0
ELLIPSE
  5
3AF
100
AcDbEntity
  8
218
100
AcDbEllipse
 62
7
  6
CONTINUOUS
 10
12.8417875184
 20
21.9440883113
 30
0.0
 11
-0.3106730325
 21
1.1082908718
 31
0.0
 40
0.6760995073
 41
4.9783291412
 42
6.4001141399
  0
ENDSEC
  0
SECTION
  2
OBJECTS
  0
DICTIONARY
  5
C
100
AcDbDictionary
280
0
281
1
  3
ACAD_GROUP
350
D
  3
ACAD_MLINESTYLE
350
17
  3
ACAD_LAYOUT
350
1A
  3
ACAD_PLOTSETTINGS
350
19
  3
ACAD_PLOTSTYLENAME
350
E
  0
DICTIONARY
  5
D
102
{ACAD_REACTORS
330
C
102
}
100
AcDbDictionary
280
0
281
1
  0
ACDBDICTIONARYWDFLT
  5
E
102
{ACAD_REACTORS
330
C
102
}
100
AcDbDictionary
281
1
  3
Normal
350
F
100
AcDbDictionaryWithDefault
340
F
  0
DICTIONARY
  5
17
102
{ACAD_REACTORS
330
C
102
}
100
AcDbDictionary
280
0
281
1
  3
Standard
350
18
  0
DICTIONARY
  5
19
102
{ACAD_REACTORS
330
C
102
}
100
AcDbDictionary
281
1
  0
DICTIONARY
  5
1A
102
{ACAD_REACTORS
330
C
102
}
100
AcDbDictionary
281
1
  3
Model
350
3B0
  3
Layout1
350
3B1
  0
ACDBPLACEHOLDER
  5
F
102
{ACAD_REACTORS
330
E
102
}
  0
MLINESTYLE
  5
18
102
{ACAD_REACTORS
330
17
102
}
100
AcDbMlineStyle
  2
STANDARD
 70
0
  3

 62
256
 51
90.0
 52
90.0
 71
2
 49
0.5
 62
256
  6
BYLAYER
 49
-0.5
 62
256
  6
BYLAYER
  0
LAYOUT
  5
3B0
102
{ACAD_REACTORS
330
1A
102
}
100
AcDbPlotSettings
  1

  2
none_device
  4
ISO_A4_(297.00_x_210.00_MM)
  6

 40
0.0
 41
0.0
 42
0.0
 43
0.0
 44
297.0
 45
210.0
 46
0.0
 47
0.0
 48
0.0
 49
0.0
140
0.0
141
0.0
142
1.0
143
1.0
 70
1024
 72
1
 73
0
 74
0
  7

 75
0
147
1.0
148
0.0
149
0.0
100
AcDbLayout
  1
Model
 70
0
 71
0
 10
0.0
 20
0.0
 11
297.0
 21
210.0
 12
0.0
 22
0.0
 32
0.0
 14
0.0
 24
0.0
 34
0.0
 15
0.0
 25
0.0
 35
0.0
146
0.0
 13
0.0
 23
0.0
 33
0.0
 16
1.0
 26
0.0
 36
0.0
 17
0.0
 27
1.0
 37
0.0
 76
0
330
221
345
0
346
0
  0
LAYOUT
  5
3B1
102
{ACAD_REACTORS
330
1A
102
}
100
AcDbPlotSettings
  1

  2
none_device
  4
ISO_A4_(297.00_x_210.00_MM)
  6

 40
0.0
 41
0.0
 42
0.0
 43
0.0
 44
297.0
 45
210.0
 46
0.0
 47
0.0
 48
0.0
 49
0.0
140
0.0
141
0.0
142
1.0
143
1.0
 70
0
 72
1
 73
0
 74
0
  7

 75
0
147
1.0
148
0.0
149
0.0
100
AcDbLayout
  1
Layout1
 70
0
 71
1
 10
0.0
 20
0.0
 11
297.0
 21
210.0
 12
0.0
 22
0.0
 32
0.0
 14
0.0
 24
0.0
 34
0.0
 15
0.0
 25
0.0
 35
0.0
146
0.0
 13
0.0
 23
0.0
 33
0.0
 16
1.0
 26
0.0
 36
0.0
 17
0.0
 27
1.0
 37
0.0
 76
0
330
222
345
0
346
0
  0
ENDSEC
  0
EOF
