  0
SECTION
  2
HEADER
  9
$ACADVER
  1
AC1024
  9
$DWGCODEPAGE
  3
ANSI_1252
  9
$EXTMAX
 10
297.0
 20
210.0
 30
0.0
  9
$EXTMIN
 10
0.0
 20
0.0
 30
0.0
  9
$LIMMIN
 10
0.0
 20
0.0
  9
$LIMMAX
 10
297.0
 20
210.0
  9
$VIEWCTR
 10
148.5
 20
105.0
  9
$VIEWSIZE
 40
210.0
  9
$CLAYER
  8
0
  9
$LTSCALE
 40
16.335
  9
$CELTYPE
  6
BYLAYER
  9
$DIMSCALE
 40
1.0
  9
$DIMASZ
 40
3.0
  9
$DIMEXO
 40
0.5
  9
$DIMDLI
 40
11.286
  9
$DIMEXE
 40
1.5
  9
$DIMCEN
 40
2.673
  9
$DIMLFAC
 40
1.0
  9
$DIMBLK
  1
_FILLED
  9
$DIMALT
 70
0
  9
$DIMALTF
 40
0.0393700787
  9
$DIMTXT
 40
3.0
  9
$DIMTOL
 70
1
  9
$DIMLIM
 70
0
  9
$DIMTFAC
 40
1.0
  9
$DIMTP
 40
0.01
  9
$DIMTM
 40
0.01
  9
$DIMGAP
 40
0.625
  9
$DIMDSEP
 70
44
  9
$AUNITS
 70
0
  9
$PDMODE
 70
3
  9
$PDSIZE
 40
3.0
  9
$HANDSEED
  5
524
  9
$TILEMODE
 70
1
  9
$MEASUREMENT
 70
1
  9
$INSUNITS
 70
4
  0
ENDSEC
  0
SECTION
  2
CLASSES
  0
CLASS
  1
ACDBDICTIONARYWDFLT
  2
AcDbDictionaryWithDefault
  3
AutoCAD 2000
 90
0
 91
1
280
0
281
0
  0
CLASS
  1
ACDBPLACEHOLDER
  2
AcDbPlaceHolder
  3
AutoCAD 2000
 90
0
 91
1
280
0
281
0
  0
CLASS
  1
LAYOUT
  2
AcDbLayout
  3
AutoCAD 2000
 90
0
 91
0
280
0
281
0
  0
ENDSEC
  0
SECTION
  2
TABLES
  0
TABLE
  2
VPORT
  5
8
100
AcDbSymbolTable
 70
2
  0
VPORT
  5
1F4
100
AcDbSymbolTableRecord
100
AcDbViewportTableRecord
  2
*ACTIVE
 70
0
 10
0.0
 20
0.0
 11
1.0
 21
1.0
 12
148.5
 22
105.0
 13
0.0
 23
0.0
 14
1.0
 24
1.0
 15
0.0
 25
0.0
 16
0.0
 26
0.0
 36
1.0
 17
0.0
 27
0.0
 37
0.0
 40
210.0
 41
1.4142857143
 42
50.0
 43
0.0
 44
0.0
 50
0.0
 51
0.0
 71
0
 72
100
 73
1
 74
1
 75
0
 76
0
 77
0
 78
0
  0
ENDTAB
  0
TABLE
  2
LTYPE
  5
5
100
AcDbSymbolTable
 70
6
  0
LTYPE
  5
14
100
AcDbSymbolTableRecord
100
AcDbLinetypeTableRecord
  2
BYBLOCK
 70
0
  3

 72
65
 73
0
 40
0.0
  0
LTYPE
  5
15
100
AcDbSymbolTableRecord
100
AcDbLinetypeTableRecord
  2
BYLAYER
 70
0
  3

 72
65
 73
0
 40
0.0
  0
LTYPE
  5
16
100
AcDbSymbolTableRecord
100
AcDbLinetypeTableRecord
  2
CONTINUOUS
 70
64
  3
Solid line
 72
65
 73
0
 40
0.0
  0
LTYPE
  5
1F5
100
AcDbSymbolTableRecord
100
AcDbLinetypeTableRecord
  2
CENTER
 70
64
  3
____ _ ____ _ ____ _ ____ _ ____ _ ____ _ ____
 72
65
 73
4
 40
0.6
 49
0.375
 74
0
 49
-0.075
 74
0
 49
0.075
 74
0
 49
-0.075
 74
0
  0
LTYPE
  5
1F6
100
AcDbSymbolTableRecord
100
AcDbLinetypeTableRecord
  2
HIDDEN
 70
64
  3
- - - - - - - - - - - - - - - - - - - -
 72
65
 73
2
 40
0.2
 49
0.1
 74
0
 49
-0.1
 74
0
  0
LTYPE
  5
1F7
100
AcDbSymbolTableRecord
100
AcDbLinetypeTableRecord
  2
PHANTOM
 70
64
  3
_____ _ _ _____ _ _ _____ _ _ _____
 72
65
 73
6
 40
0.8
 49
0.45
 74
0
 49
-0.05
 74
0
 49
0.1
 74
0
 49
-0.05
 74
0
 49
0.1
 74
0
 49
-0.05
 74
0
  0
LTYPE
  5
1F8
100
AcDbSymbolTableRecord
100
AcDbLinetypeTableRecord
  2
DOT
 70
64
  3
. . . . . . . . . . . . . . . . . . . .
 72
65
 73
2
 40
0.2
 49
0.1
 74
0
 49
-0.1
 74
0
  0
LTYPE
  5
1F9
100
AcDbSymbolTableRecord
100
AcDbLinetypeTableRecord
  2
DASHED
 70
64
  3
- - - - - - - - - - - - - - - - - - - -
 72
65
 73
2
 40
0.2
 49
0.1
 74
0
 49
-0.1
 74
0
  0
ENDTAB
  0
TABLE
  2
LAYER
  5
2
100
AcDbSymbolTable
 70
36
  0
LAYER
  5
10
100
AcDbSymbolTableRecord
100
AcDbLayerTableRecord
  2
0
 70
0
 62
7
  6
CONTINUOUS
370
-3
390
F
  0
LAYER
  5
1FA
100
AcDbSymbolTableRecord
100
AcDbLayerTableRecord
  2
DEFAULT_1
 70
0
 62
7
  6
CENTER
370
-3
390
F
  0
LAYER
  5
1FB
100
AcDbSymbolTableRecord
100
AcDbLayerTableRecord
  2
DEFAULT_2
 70
0
 62
7
  6
HIDDEN
370
-3
390
F
  0
LAYER
  5
1FC
100
AcDbSymbolTableRecord
100
AcDbLayerTableRecord
  2
DEFAULT_3
 70
0
 62
7
  6
PHANTOM
370
-3
390
F
  0
LAYER
  5
1FD
100
AcDbSymbolTableRecord
100
AcDbLayerTableRecord
  2
218
 70
0
 62
7
  6
CONTINUOUS
370
-3
390
F
  0
LAYER
  5
1FE
100
AcDbSymbolTableRecord
100
AcDbLayerTableRecord
  2
268
 70
0
 62
7
  6
CONTINUOUS
370
-3
390
F
  0
LAYER
  5
1FF
100
AcDbSymbolTableRecord
100
AcDbLayerTableRecord
  2
284
 70
0
 62
7
  6
CONTINUOUS
370
-3
390
F
  0
LAYER
  5
200
100
AcDbSymbolTableRecord
100
AcDbLayerTableRecord
  2
320
 70
0
 62
7
  6
CONTINUOUS
370
-3
390
F
  0
LAYER
  5
201
100
AcDbSymbolTableRecord
100
AcDbLayerTableRecord
  2
712
 70
0
 62
7
  6
CONTINUOUS
370
-3
390
F
  0
LAYER
  5
202
100
AcDbSymbolTableRecord
100
AcDbLayerTableRecord
  2
ASSI
 70
0
 62
7
  6
CONTINUOUS
370
-3
390
F
  0
LAYER
  5
203
100
AcDbSymbolTableRecord
100
AcDbLayerTableRecord
  2
COLORE_TOP
 70
0
 62
7
  6
CONTINUOUS
370
-3
390
F
  0
LAYER
  5
204
100
AcDbSymbolTableRecord
100
AcDbLayerTableRecord
  2
COORDINATE
 70
0
 62
7
  6
CONTINUOUS
370
-3
390
F
  0
LAYER
  5
205
100
AcDbSymbolTableRecord
100
AcDbLayerTableRecord
  2
COORD_ORIGINE
 70
0
 62
7
  6
CONTINUOUS
370
-3
390
F
  0
LAYER
  5
206
100
AcDbSymbolTableRecord
100
AcDbLayerTableRecord
  2
COPY-PUBBLISH
 70
0
 62
7
  6
CONTINUOUS
370
-3
390
F
  0
LAYER
  5
207
100
AcDbSymbolTableRecord
100
AcDbLayerTableRecord
  2
COSMETICHE
 70
0
 62
7
  6
CONTINUOUS
370
-3
390
F
  0
LAYER
  5
208
100
AcDbSymbolTableRecord
100
AcDbLayerTableRecord
  2
COSMETICI
 70
0
 62
7
  6
CONTINUOUS
370
-3
390
F
  0
LAYER
  5
209
100
AcDbSymbolTableRecord
100
AcDbLayerTableRecord
  2
CURVE
 70
0
 62
7
  6
CONTINUOUS
370
-3
390
F
  0
LAYER
  5
20A
100
AcDbSymbolTableRecord
100
AcDbLayerTableRecord
  2
DRAFT
 70
0
 62
7
  6
CONTINUOUS
370
-3
390
F
  0
LAYER
  5
20B
100
AcDbSymbolTableRecord
100
AcDbLayerTableRecord
  2
IMPORT
 70
0
 62
7
  6
CONTINUOUS
370
-3
390
F
  0
LAYER
  5
20C
100
AcDbSymbolTableRecord
100
AcDbLayerTableRecord
  2
IMPORTED
 70
0
 62
7
  6
CONTINUOUS
370
-3
390
F
  0
LAYER
  5
20D
100
AcDbSymbolTableRecord
100
AcDbLayerTableRecord
  2
INTF_1
 70
0
 62
7
  6
CONTINUOUS
370
-3
390
F
  0
LAYER
  5
20E
100
AcDbSymbolTableRecord
100
AcDbLayerTableRecord
  2
INTF_11
 70
0
 62
7
  6
CONTINUOUS
370
-3
390
F
  0
LAYER
  5
20F
100
AcDbSymbolTableRecord
100
AcDbLayerTableRecord
  2
INTF_2
 70
0
 62
7
  6
CONTINUOUS
370
-3
390
F
  0
LAYER
  5
210
100
AcDbSymbolTableRecord
100
AcDbLayerTableRecord
  2
NOTE
 70
0
 62
7
  6
CONTINUOUS
370
-3
390
F
  0
LAYER
  5
211
100
AcDbSymbolTableRecord
100
AcDbLayerTableRecord
  2
PIANI
 70
0
 62
7
  6
CONTINUOUS
370
-3
390
F
  0
LAYER
  5
212
100
AcDbSymbolTableRecord
100
AcDbLayerTableRecord
  2
PIANI_DI_RIFERIMENTO
 70
0
 62
7
  6
CONTINUOUS
370
-3
390
F
  0
LAYER
  5
213
100
AcDbSymbolTableRecord
100
AcDbLayerTableRecord
  2
PIANI_ORIGINE
 70
0
 62
7
  6
CONTINUOUS
370
-3
390
F
  0
LAYER
  5
214
100
AcDbSymbolTableRecord
100
AcDbLayerTableRecord
  2
PIANI_RIFERIMENTO
 70
0
 62
7
  6
CONTINUOUS
370
-3
390
F
  0
LAYER
  5
215
100
AcDbSymbolTableRecord
100
AcDbLayerTableRecord
  2
PIANI_SFORMO
 70
0
 62
7
  6
CONTINUOUS
370
-3
390
F
  0
LAYER
  5
216
100
AcDbSymbolTableRecord
100
AcDbLayerTableRecord
  2
PREM_14013
 70
0
 62
7
  6
CONTINUOUS
370
-3
390
F
  0
LAYER
  5
217
100
AcDbSymbolTableRecord
100
AcDbLayerTableRecord
  2
PUNTI
 70
0
 62
7
  6
CONTINUOUS
370
-3
390
F
  0
LAYER
  5
218
100
AcDbSymbolTableRecord
100
AcDbLayerTableRecord
  2
RACCORDO
 70
0
 62
7
  6
CONTINUOUS
370
-3
390
F
  0
LAYER
  5
219
100
AcDbSymbolTableRecord
100
AcDbLayerTableRecord
  2
RGB__255__255__255__
 70
0
 62
7
  6
CONTINUOUS
370
-3
390
F
  0
LAYER
  5
21A
100
AcDbSymbolTableRecord
100
AcDbLayerTableRecord
  2
RINTRACCIABILITA
 70
0
 62
7
  6
CONTINUOUS
370
-3
390
F
  0
LAYER
  5
21B
100
AcDbSymbolTableRecord
100
AcDbLayerTableRecord
  2
SMUSSO
 70
0
 62
7
  6
CONTINUOUS
370
-3
390
F
  0
LAYER
  5
21C
100
AcDbSymbolTableRecord
100
AcDbLayerTableRecord
  2
SUPERFICI
 70
0
 62
7
  6
CONTINUOUS
370
-3
390
F
  0
LAYER
  5
21D
100
AcDbSymbolTableRecord
100
AcDbLayerTableRecord
  2
TRASH
 70
0
 62
7
  6
CONTINUOUS
370
-3
390
F
  0
LAYER
  5
21E
100
AcDbSymbolTableRecord
100
AcDbLayerTableRecord
  2
XSEC_DATUMS
 70
0
 62
7
  6
CONTINUOUS
370
-3
390
F
  0
ENDTAB
  0
TABLE
  2
STYLE
  5
3
100
AcDbSymbolTable
 70
1
  0
STYLE
  5
11
100
AcDbSymbolTableRecord
100
AcDbTextStyleTableRecord
  2
STANDARD
 70
0
 40
0.0
 41
0.8
 50
0.0
 71
0
 42
0.2
  3
txt
  4

  0
STYLE
  5
21F
100
AcDbSymbolTableRecord
100
AcDbTextStyleTableRecord
  2
TEXTSTYLE_1
 70
0
 40
0.0
 41
0.8
 50
0.0
 71
0
 42
0.2
  3
gdt
  4

  0
ENDTAB
  0
TABLE
  2
VIEW
  5
6
100
AcDbSymbolTable
 70
0
  0
ENDTAB
  0
TABLE
  2
UCS
  5
7
100
AcDbSymbolTable
 70
0
  0
ENDTAB
  0
TABLE
  2
APPID
  5
9
100
AcDbSymbolTable
 70
1
  0
APPID
  5
220
100
AcDbSymbolTableRecord
100
AcDbRegAppTableRecord
  2
ACAD
 70
0
  0
ENDTAB
  0
TABLE
  2
BLOCK_RECORD
  5
1
100
AcDbSymbolTable
 70
0
  0
BLOCK_RECORD
  5
221
100
AcDbSymbolTableRecord
100
AcDbBlockTableRecord
  2
*Model_Space
  0
BLOCK_RECORD
  5
222
100
AcDbSymbolTableRecord
100
AcDbBlockTableRecord
  2
*Paper_Space
  0
BLOCK_RECORD
  5
223
100
AcDbSymbolTableRecord
100
AcDbBlockTableRecord
  2
_FILLED
  0
ENDTAB
  0
TABLE
  2
DIMSTYLE
  5
A
100
AcDbSymbolTable
 70
1
100
AcDbDimStyleTable
 71
0
  0
DIMSTYLE
105
224
100
AcDbSymbolTableRecord
100
AcDbDimStyleTableRecord
  2
STANDARD
 70
0
  3

  4

 40
1.0
 41
3.0
 42
0.5
 43
0.38
 44
1.5
 45
0.0
 46
0.0
 47
0.01
 48
0.01
140
3.0
141
0.09
142
0.0
143
25.4
144
1.0
145
0.0
146
1.0
147
0.625
 71
1
 72
0
 73
0
 74
0
 75
0
 76
0
 77
1
 78
8
 79
2
170
0
171
1
172
0
173
0
174
0
175
0
176
0
177
0
178
0
270
2
179
2
271
2
272
2
273
2
274
2
275
0
280
0
281
0
282
0
283
1
284
8
285
0
286
0
287
3
288
0
340
11
278
44
341
223
342
223
343
223
344
223
  0
ENDTAB
  0
ENDSEC
  0
SECTION
  2
BLOCKS
  0
BLOCK
  5
20
100
AcDbEntity
  8
0
100
AcDbBlockBegin
  2
*Model_Space
 70
0
 10
0.0
 20
0.0
 30
0.0
  3
*Model_Space
  1

  0
ENDBLK
  5
21
100
AcDbEntity
  8
0
100
AcDbBlockEnd
  0
BLOCK
  5
1C
100
AcDbEntity
  8
0
100
AcDbBlockBegin
  2
*Paper_Space
 70
0
 10
0.0
 20
0.0
 30
0.0
  3
*Paper_Space
  1

  0
ENDBLK
  5
1D
100
AcDbEntity
  8
0
100
AcDbBlockEnd
  0
BLOCK
  5
225
100
AcDbEntity
  8
0
100
AcDbBlockBegin
  2
_FILLED
 70
64
 10
0.0
 20
0.0
  3
_FILLED
  1

  0
SOLID
  5
226
100
AcDbEntity
  8
0
  6
BYBLOCK
 62
0
100
AcDbTrace
 10
0.0
 20
0.0
 11
-1.0
 21
0.1333333333
 12
-1.0
 22
-0.1333333333
 13
-1.0
 23
-0.1333333333
  0
ENDBLK
  5
227
100
AcDbEntity
  8
0
  6
BYBLOCK
 62
0
100
AcDbBlockEnd
  0
ENDSEC
  0
SECTION
  2
ENTITIES
  0
LINE
  5
228
100
AcDbEntity
  8
268
100
AcDbLine
 62
7
  6
CONTINUOUS
 10
-15.1990381084
 20
27.5416418601
 11
-13.6162815052
 21
28.3536259574
  0
LINE
  5
229
100
AcDbEntity
  8
268
100
AcDbLine
 62
7
  6
CONTINUOUS
 10
-13.6162815052
 20
28.3536259574
 11
-13.0818316265
 21
28.613973424
  0
LWPOLYLINE
  5
22A
100
AcDbEntity
  8
RACCORDO
100
AcDbPolyline
 62
250
  6
CONTINUOUS
 90
19
 70
0
 10
8.9675607567
 20
-30.2915613624
 10
8.9263462486
 20
-30.3032335016
 10
8.886280607
 20
-30.3104879111
 10
8.8473638321
 20
-30.313324591
 10
8.8093212133
 20
-30.31171199
 10
8.772427461
 20
-30.3056816593
 10
8.7375067067
 20
-30.2953282532
 10
8.7046237871
 20
-30.2805550452
 10
8.6737138654
 20
-30.2614587616
 10
8.6454065629
 20
-30.238424236
 10
8.6197555012
 20
-30.2113685233
 10
8.5967070587
 20
-30.1803745685
 10
8.576729992
 20
-30.1460760396
 10
8.5598890433
 20
-30.1083764152
 10
8.5461194703
 20
-30.0673722167
 10
8.5356958029
 20
-30.0239866764
 10
8.528709551
 20
-29.9785275385
 10
8.5250692046
 20
-29.9306870588
 10
8.5247747638
 20
-29.8804652372
  0
LINE
  5
22B
100
AcDbEntity
  8
268
100
AcDbLine
 62
7
  6
CONTINUOUS
 10
-15.68298837
 20
25.7989439353
 11
-14.6707709366
 21
26.3158714207
  0
LINE
  5
22C
100
AcDbEntity
  8
268
100
AcDbLine
 62
250
  6
CONTINUOUS
 10
-15.5254698144
 20
25.7895081285
 11
-14.6707709366
 21
26.2259927484
  0
LINE
  5
22D
100
AcDbEntity
  8
268
100
AcDbLine
 62
7
  6
CONTINUOUS
 10
-11.9899359085
 20
25.8084023515
 11
-13.0567668206
 21
25.269821102
  0
LINE
  5
22E
100
AcDbEntity
  8
268
100
AcDbLine
 62
7
  6
CONTINUOUS
 10
-13.5912166993
 20
26.7377311556
 11
-11.9899359085
 21
27.5404531591
  0
LINE
  5
22F
100
AcDbEntity
  8
268
100
AcDbLine
 62
7
  6
CONTINUOUS
 10
-11.9899359085
 20
27.5404531591
 11
-11.4616687368
 21
27.8038919791
  0
LWPOLYLINE
  5
230
100
AcDbEntity
  8
RACCORDO
100
AcDbPolyline
 62
250
  6
CONTINUOUS
 90
19
 70
0
 10
-18.49395378
 20
23.3717835136
 10
-18.5806580581
 20
23.3326405961
 10
-18.6674104162
 20
23.2846452866
 10
-18.7536154761
 20
23.2281223733
 10
-18.8386784031
 20
23.1634516579
 10
-18.9220188918
 20
23.0910743431
 10
-19.0030753928
 20
23.011490984
 10
-19.0812904528
 20
22.9252451884
 10
-19.1561301971
 20
22.8329203567
 10
-19.2270974631
 20
22.7351443173
 10
-19.293706598
 20
22.6325809963
 10
-19.3555001275
 20
22.5259262557
 10
-19.4120665019
 20
22.4159031747
 10
-19.463019681
 20
22.3032558042
 10
-19.5080067581
 20
22.1887520329
 10
-19.5467232387
 20
22.0731774553
 10
-19.5789053067
 20
21.957320414
 10
-19.6043308565
 20
21.8419664634
 10
-19.6228256376
 20
21.7279004327
  0
LWPOLYLINE
  5
231
100
AcDbEntity
  8
RACCORDO
100
AcDbPolyline
 62
7
  6
CONTINUOUS
 90
18
 70
0
 10
-18.8461031133
 20
23.3973910503
 10
-18.9286835391
 20
23.3602129314
 10
-19.0208725146
 20
23.3103903291
 10
-19.1106645038
 20
23.2527743165
 10
-19.1975471324
 20
23.1876572156
 10
-19.2806618485
 20
23.1158027815
 10
-19.3600393027
 20
23.0372689753
 10
-19.4354633269
 20
22.9522316101
 10
-19.5059086694
 20
22.8619399881
 10
-19.5713061391
 20
22.7665501419
 10
-19.6314735214
 20
22.6662575374
 10
-19.6854680728
 20
22.5627109488
 10
-19.7331875128
 20
22.4561721203
 10
-19.7745079239
 20
22.3468106439
 10
-19.8087789113
 20
22.236289012
 10
-19.8358214315
 20
22.1252967533
 10
-19.85569281
 20
22.0136142537
 10
-19.8586762326
 20
21.992071822
  0
LINE
  5
232
100
AcDbEntity
  8
RACCORDO
100
AcDbLine
 62
7
  6
CONTINUOUS
 10
-14.8700211639
 20
25.0227112614
 11
-18.8461098109
 21
23.3974074276
  0
LINE
  5
233
100
AcDbEntity
  8
RACCORDO
100
AcDbLine
 62
250
  6
CONTINUOUS
 10
-14.5606674686
 20
24.9795910171
 11
-18.49395378
 21
23.3717835136
  0
LWPOLYLINE
  5
234
100
AcDbEntity
  8
268
100
AcDbPolyline
 62
7
  6
CONTINUOUS
 90
3
 70
0
 10
-4.0073622731
 20
29.0288132473
 10
-4.0199272929
 20
29.0241141964
 10
-4.0255780776
 20
29.0214715964
  0
LWPOLYLINE
  5
235
100
AcDbEntity
  8
268
100
AcDbPolyline
 62
7
  6
CONTINUOUS
 90
10
 70
0
 10
-4.0073622731
 20
29.0288132473
 10
-3.9981226523
 20
29.0315590462
 10
-3.9895594985
 20
29.0338247647
 10
-3.9816728115
 20
29.0356104028
 10
-3.9744234533
 20
29.0369368074
 10
-3.9678505619
 20
29.0377831315
 10
-3.9620715525
 20
29.0380868343
 10
-3.9570905954
 20
29.0378474985
 10
-3.9529035202
 20
29.0370655413
 10
-3.9503015479
 20
29.0360628295
  0
LWPOLYLINE
  5
236
100
AcDbEntity
  8
RACCORDO
100
AcDbPolyline
 62
250
  6
CONTINUOUS
 90
6
 70
0
 10
16.3478092726
 20
-28.3096319318
 10
16.3229294905
 20
-28.3142672001
 10
16.2974151914
 20
-28.3175323009
 10
16.2715705226
 20
-28.3194057299
 10
16.2456548191
 20
-28.3198878855
 10
16.2198521198
 20
-28.3189677134
  0
LINE
  5
237
100
AcDbEntity
  8
268
100
AcDbLine
 62
7
  6
CONTINUOUS
 10
-11.3748170735
 20
27.1828943924
 11
-11.9020617892
 21
26.5411866644
  0
LWPOLYLINE
  5
238
100
AcDbEntity
  8
268
100
AcDbPolyline
 62
7
  6
CONTINUOUS
 90
12
 70
0
 10
-4.0255780776
 20
29.0214715964
 10
-4.0320968029
 20
29.017999531
 10
-4.0439512295
 20
29.0104952578
 10
-4.0556064095
 20
29.0016227465
 10
-4.0671020043
 20
28.991437636
 10
-4.078393302
 20
28.9800065636
 10
-4.0895383685
 20
28.9673595374
 10
-4.1006052479
 20
28.9535300013
 10
-4.111551367
 20
28.9385605025
 10
-4.1223986682
 20
28.9224775753
 10
-4.1332370969
 20
28.905309321
 10
-4.1441214649
 20
28.8870906895
  0
LINE
  5
239
100
AcDbEntity
  8
268
100
AcDbLine
 62
7
  6
CONTINUOUS
 10
-9.7255414771
 20
25.3888961616
 11
-9.2322194619
 21
25.6419796935
  0
LINE
  5
23A
100
AcDbEntity
  8
268
100
AcDbLine
 62
7
  6
CONTINUOUS
 10
-10.534154932
 20
25.7800609552
 11
-4.0255084829
 21
29.0215062654
  0
LINE
  5
23B
100
AcDbEntity
  8
268
100
AcDbLine
 62
250
  6
CONTINUOUS
 10
-10.4586617915
 20
25.742314385
 11
-4.1441214649
 21
28.8870906895
  0
LINE
  5
23C
100
AcDbEntity
  8
268
100
AcDbLine
 62
7
  6
CONTINUOUS
 10
-3.1511011437
 20
28.0073471587
 11
-7.8887165776
 21
25.6722966441
  0
LINE
  5
23D
100
AcDbEntity
  8
268
100
AcDbLine
 62
7
  6
CONTINUOUS
 10
-9.2322194619
 20
25.6419796935
 11
-3.7545794724
 21
28.3103116567
  0
LINE
  5
23E
100
AcDbEntity
  8
218
100
AcDbLine
 62
7
  6
CONTINUOUS
 10
3.4052040838
 20
31.097613719
 11
-0.1678696147
 21
29.3921804021
  0
LINE
  5
23F
100
AcDbEntity
  8
218
100
AcDbLine
 62
7
  6
CONTINUOUS
 10
2.4339214754
 20
31.3962155829
 11
-3.2806639781
 21
28.7012329142
  0
LINE
  5
240
100
AcDbEntity
  8
218
100
AcDbLine
 62
250
  6
CONTINUOUS
 10
2.8728062258
 20
31.3638126479
 11
-3.034286405
 21
28.5780441277
  0
LWPOLYLINE
  5
241
100
AcDbEntity
  8
218
100
AcDbPolyline
 62
250
  6
CONTINUOUS
 90
26
 70
0
 10
2.8728062258
 20
31.3638126479
 10
2.8920788303
 20
31.3727149096
 10
2.9113279425
 20
31.3809621042
 10
2.930539249
 20
31.3885480978
 10
2.9496984566
 20
31.3954672453
 10
2.9687913266
 20
31.4017144032
 10
2.9878036841
 20
31.4072849311
 10
3.0067214114
 20
31.4121746875
 10
3.0255304203
 20
31.4163800261
 10
3.0442166871
 20
31.4198978095
 10
3.0627663037
 20
31.4227254201
 10
3.0811654897
 20
31.4248607579
 10
3.0994005659
 20
31.4263022354
 10
3.1174579741
 20
31.4270487804
 10
3.1353242853
 20
31.4270998373
 10
3.1529862118
 20
31.4264553681
 10
3.1704306194
 20
31.425115852
 10
3.1876445373
 20
31.4230822851
 10
3.2046151652
 20
31.4203561795
 10
3.2213298838
 20
31.4169395624
 10
3.2377762639
 20
31.4128349744
 10
3.2539420762
 20
31.4080454677
 10
3.2698152997
 20
31.4025746036
 10
3.2853841311
 20
31.3964264504
 10
3.3006369935
 20
31.3896055798
 10
3.3076791064
 20
31.3861759775
  0
LINE
  5
242
100
AcDbEntity
  8
PREM_14013
100
AcDbLine
 62
7
  6
CONTINUOUS
 10
-0.0180595938
 20
27.033669022
 11
0.4046377575
 21
27.2565656935
  0
LWPOLYLINE
  5
243
100
AcDbEntity
  8
218
100
AcDbPolyline
 62
7
  6
CONTINUOUS
 90
38
 70
0
 10
0.2261163191
 20
28.3700245841
 10
0.1855978621
 20
28.3489656261
 10
0.1459836052
 20
28.327480894
 10
0.1072914406
 20
28.3055800915
 10
0.0695388438
 20
28.2832731103
 10
0.0327428662
 20
28.2605700255
 10
-0.0030798731
 20
28.2374810912
 10
-0.0379131945
 20
28.2140167356
 10
-0.0717413651
 20
28.1901875566
 10
-0.1045491063
 20
28.166004317
 10
-0.1363216001
 20
28.1414779391
 10
-0.1670444963
 20
28.1166195006
 10
-0.1967039185
 20
28.091440229
 10
-0.2252864709
 20
28.0659514967
 10
-0.252779244
 20
28.0401648158
 10
-0.2791698204
 20
28.0140918332
 10
-0.3044462805
 20
27.987744325
 10
-0.3285972082
 20
27.9611341911
 10
-0.3516116953
 20
27.9342734503
 10
-0.3734793473
 20
27.9071742344
 10
-0.3941902873
 20
27.8798487831
 10
-0.4137351613
 20
27.852309438
 10
-0.4321051415
 20
27.8245686376
 10
-0.4492919311
 20
27.7966389111
 10
-0.4652877674
 20
27.7685328734
 10
-0.4800854258
 20
27.7402632187
 10
-0.4936782228
 20
27.7118427152
 10
-0.5060600192
 20
27.6832841993
 10
-0.5172252225
 20
27.6546005697
 10
-0.5271687901
 20
27.6258047815
 10
-0.5358862306
 20
27.5969098406
 10
-0.5433736069
 20
27.5679287976
 10
-0.5496275373
 20
27.5388747421
 10
-0.5546451969
 20
27.5097607966
 10
-0.5584243198
 20
27.4806001106
 10
-0.5609631988
 20
27.4514058547
 10
-0.5622606874
 20
27.4221912149
 10
-0.5624449457
 20
27.4062743457
  0
LINE
  5
244
100
AcDbEntity
  8
218
100
AcDbLine
 62
7
  6
CONTINUOUS
 10
4.4424960968
 20
30.5153342008
 11
0.2261163191
 21
28.3700245841
  0
LINE
  5
245
100
AcDbEntity
  8
218
100
AcDbLine
 62
7
  6
CONTINUOUS
 10
4.4485530837
 20
30.0778457336
 11
0.2261163191
 21
27.9598055412
  0
LINE
  5
246
100
AcDbEntity
  8
268
100
AcDbLine
 62
7
  6
CONTINUOUS
 10
-1.8240273153
 20
26.5374729252
 11
-3.2218118218
 21
25.8385806719
  0
LINE
  5
247
100
AcDbEntity
  8
PREM_14013
100
AcDbLine
 62
7
  6
CONTINUOUS
 10
0.5329251863
 20
27.0334739621
 11
1.0278999331
 21
27.2809613355
  0
LWPOLYLINE
  5
248
100
AcDbEntity
  8
218
100
AcDbPolyline
 62
7
  6
CONTINUOUS
 90
6
 70
0
 10
-4.2118791983
 20
25.0521437799
 10
-4.220579964
 20
25.0477973692
 10
-4.228681725
 20
25.0431184508
 10
-4.2364989993
 20
25.0379609559
 10
-4.2440262825
 20
25.0323289945
 10
-4.2498887311
 20
25.0274369122
  0
LINE
  5
249
100
AcDbEntity
  8
268
100
AcDbLine
 62
7
  6
CONTINUOUS
 10
-3.5753652124
 20
26.5679155565
 11
-3.1511011437
 21
26.7755129773
  0
LINE
  5
24A
100
AcDbEntity
  8
268
100
AcDbLine
 62
7
  6
CONTINUOUS
 10
-1.1650315639
 20
27.397545739
 11
-3.2218118218
 21
26.3911388612
  0
LINE
  5
24B
100
AcDbEntity
  8
218
100
AcDbLine
 62
250
  6
CONTINUOUS
 10
-3.9409727729
 20
25.0598824382
 11
-3.8868852585
 21
25.0859516577
  0
LINE
  5
24C
100
AcDbEntity
  8
218
100
AcDbLine
 62
250
  6
CONTINUOUS
 10
-3.9516714271
 20
25.0548024477
 11
-3.9409727729
 21
25.0598824382
  0
LINE
  5
24D
100
AcDbEntity
  8
218
100
AcDbLine
 62
250
  6
CONTINUOUS
 10
-3.8868852585
 20
25.0859516577
 11
-3.874556574
 21
25.0917884411
  0
LINE
  5
24E
100
AcDbEntity
  8
218
100
AcDbLine
 62
250
  6
CONTINUOUS
 10
-3.9595985032
 20
25.0510943582
 11
-3.9516714271
 21
25.0548024477
  0
LINE
  5
24F
100
AcDbEntity
  8
218
100
AcDbLine
 62
250
  6
CONTINUOUS
 10
-3.874556574
 20
25.0917884411
 11
-3.8650407109
 21
25.0962295977
  0
LINE
  5
250
100
AcDbEntity
  8
218
100
AcDbLine
 62
250
  6
CONTINUOUS
 10
-3.999683129
 20
25.0325780266
 11
-3.9595985032
 21
25.0510943582
  0
LINE
  5
251
100
AcDbEntity
  8
218
100
AcDbLine
 62
7
  6
CONTINUOUS
 10
-4.161146523
 20
25.0755353316
 11
-4.2118801946
 21
25.0521433198
  0
LINE
  5
252
100
AcDbEntity
  8
218
100
AcDbLine
 62
250
  6
CONTINUOUS
 10
-3.8650407109
 20
25.0962295977
 11
-3.8552766323
 21
25.1007190264
  0
LWPOLYLINE
  5
253
100
AcDbEntity
  8
218
100
AcDbPolyline
 62
250
  6
CONTINUOUS
 90
17
 70
0
 10
-3.0077102899
 20
25.1598835619
 10
-3.0018968445
 20
25.1625194293
 10
-2.9960974135
 20
25.1648556856
 10
-2.9903218111
 20
25.1668883773
 10
-2.9845798111
 20
25.1686140644
 10
-2.9788811304
 20
25.1700298268
 10
-2.9732354126
 20
25.1711332686
 10
-2.9676522117
 20
25.1719225225
 10
-2.9621409758
 20
25.1723962528
 10
-2.9567110315
 20
25.172553658
 10
-2.9513715676
 20
25.1723944716
 10
-2.9461316197
 20
25.1719189631
 10
-2.9410000552
 20
25.171127937
 10
-2.9359855581
 20
25.1700227322
 10
-2.9310966141
 20
25.1686052187
 10
-2.9263414965
 20
25.1668777955
 10
-2.9217884864
 20
25.1648699486
  0
LINE
  5
254
100
AcDbEntity
  8
218
100
AcDbLine
 62
250
  6
CONTINUOUS
 10
-3.8552766323
 20
25.1007190264
 11
-3.8486221308
 21
25.1037359327
  0
LWPOLYLINE
  5
255
100
AcDbEntity
  8
218
100
AcDbPolyline
 62
250
  6
CONTINUOUS
 90
22
 70
0
 10
-4.1780338437
 20
25.0677746863
 10
-4.1749055305
 20
25.0691846183
 10
-4.165657068
 20
25.0729585124
 10
-4.1561974538
 20
25.0762409679
 10
-4.1465368134
 20
25.0790284711
 10
-4.1366854877
 20
25.0813180383
 10
-4.1266540218
 20
25.0831072187
 10
-4.1164531533
 20
25.0843940971
 10
-4.1060938014
 20
25.0851772961
 10
-4.0955870548
 20
25.0854559774
 10
-4.0849441601
 20
25.0852298425
 10
-4.0741765096
 20
25.0844991336
 10
-4.063295629
 20
25.0832646328
 10
-4.0523131653
 20
25.0815276616
 10
-4.0412408743
 20
25.0792900791
 10
-4.030090608
 20
25.0765542806
 10
-4.0188743015
 20
25.0733231945
 10
-4.0076039611
 20
25.0696002793
 10
-3.9962916505
 20
25.0653895201
 10
-3.9849494786
 20
25.0606954241
 10
-3.9735895862
 20
25.055523016
 10
-3.9622241331
 20
25.0498778322
  0
LINE
  5
256
100
AcDbEntity
  8
218
100
AcDbLine
 62
250
  6
CONTINUOUS
 10
-3.8486221308
 20
25.1037359327
 11
-3.8418463419
 21
25.1067697922
  0
LINE
  5
257
100
AcDbEntity
  8
218
100
AcDbLine
 62
250
  6
CONTINUOUS
 10
-3.8418463419
 20
25.1067697922
 11
-3.8349444458
 21
25.109818456
  0
LINE
  5
258
100
AcDbEntity
  8
218
100
AcDbLine
 62
250
  6
CONTINUOUS
 10
-3.8349444458
 20
25.109818456
 11
-3.8279131064
 21
25.1128805293
  0
LINE
  5
259
100
AcDbEntity
  8
218
100
AcDbLine
 62
250
  6
CONTINUOUS
 10
-3.8279131064
 20
25.1128805293
 11
-3.8207470328
 21
25.115954025
  0
LINE
  5
25A
100
AcDbEntity
  8
218
100
AcDbLine
 62
250
  6
CONTINUOUS
 10
-3.8207470328
 20
25.115954025
 11
-3.8134416488
 21
25.1190365714
  0
LINE
  5
25B
100
AcDbEntity
  8
218
100
AcDbLine
 62
250
  6
CONTINUOUS
 10
-3.8134416488
 20
25.1190365714
 11
-3.8059939211
 21
25.1221265683
  0
LINE
  5
25C
100
AcDbEntity
  8
218
100
AcDbLine
 62
250
  6
CONTINUOUS
 10
-3.8059939211
 20
25.1221265683
 11
-3.7983994258
 21
25.1252215415
  0
LINE
  5
25D
100
AcDbEntity
  8
218
100
AcDbLine
 62
250
  6
CONTINUOUS
 10
-3.7983994258
 20
25.1252215415
 11
-3.7906537404
 21
25.128318947
  0
LINE
  5
25E
100
AcDbEntity
  8
218
100
AcDbLine
 62
250
  6
CONTINUOUS
 10
-3.7906537404
 20
25.128318947
 11
-3.782754011
 21
25.1314170349
  0
LINE
  5
25F
100
AcDbEntity
  8
218
100
AcDbLine
 62
250
  6
CONTINUOUS
 10
-3.782754011
 20
25.1314170349
 11
-3.774696016
 21
25.1345131316
  0
LINE
  5
260
100
AcDbEntity
  8
218
100
AcDbLine
 62
250
  6
CONTINUOUS
 10
-3.774696016
 20
25.1345131316
 11
-3.7664760665
 21
25.1376042887
  0
LINE
  5
261
100
AcDbEntity
  8
218
100
AcDbLine
 62
250
  6
CONTINUOUS
 10
-3.7664760665
 20
25.1376042887
 11
-3.7580917589
 21
25.1406885088
  0
LINE
  5
262
100
AcDbEntity
  8
218
100
AcDbLine
 62
250
  6
CONTINUOUS
 10
-3.7580917589
 20
25.1406885088
 11
-3.7495397674
 21
25.1437626762
  0
LINE
  5
263
100
AcDbEntity
  8
218
100
AcDbLine
 62
250
  6
CONTINUOUS
 10
-3.7495397674
 20
25.1437626762
 11
-3.7408159808
 21
25.146823878
  0
LINE
  5
264
100
AcDbEntity
  8
218
100
AcDbLine
 62
250
  6
CONTINUOUS
 10
-3.7408159808
 20
25.146823878
 11
-3.7319179919
 21
25.1498700334
  0
LINE
  5
265
100
AcDbEntity
  8
218
100
AcDbLine
 62
250
  6
CONTINUOUS
 10
-3.7319179919
 20
25.1498700334
 11
-3.7228424033
 21
25.152897909
  0
LINE
  5
266
100
AcDbEntity
  8
218
100
AcDbLine
 62
250
  6
CONTINUOUS
 10
-3.7228424033
 20
25.152897909
 11
-3.7135869139
 21
25.1559038384
  0
LINE
  5
267
100
AcDbEntity
  8
218
100
AcDbLine
 62
250
  6
CONTINUOUS
 10
-3.7135869139
 20
25.1559038384
 11
-3.7041499224
 21
25.1588853911
  0
LINE
  5
268
100
AcDbEntity
  8
218
100
AcDbLine
 62
250
  6
CONTINUOUS
 10
-3.7041499224
 20
25.1588853911
 11
-3.694529043
 21
25.1618388993
  0
LINE
  5
269
100
AcDbEntity
  8
218
100
AcDbLine
 62
250
  6
CONTINUOUS
 10
-3.694529043
 20
25.1618388993
 11
-3.6847222393
 21
25.1647605255
  0
LINE
  5
26A
100
AcDbEntity
  8
218
100
AcDbLine
 62
250
  6
CONTINUOUS
 10
-3.6847222393
 20
25.1647605255
 11
-3.6747283421
 21
25.1676476449
  0
LINE
  5
26B
100
AcDbEntity
  8
RACCORDO
100
AcDbLine
 62
250
  6
CONTINUOUS
 10
17.8499702576
 20
-28.6299917601
 11
17.3196401717
 21
-28.5201568031
  0
LINE
  5
26C
100
AcDbEntity
  8
RACCORDO
100
AcDbLine
 62
250
  6
CONTINUOUS
 10
17.7615819099
 20
-28.3099092386
 11
17.231251824
 21
-28.2000742816
  0
LWPOLYLINE
  5
26D
100
AcDbEntity
  8
RACCORDO
100
AcDbPolyline
 62
7
  6
CONTINUOUS
 90
10
 70
0
 10
7.7962273145
 20
-30.712344687
 10
7.883657306
 20
-30.7513540787
 10
7.9746989067
 20
-30.7825700632
 10
8.0686596204
 20
-30.8056596239
 10
8.1653991915
 20
-30.8204714221
 10
8.2642412553
 20
-30.8267252707
 10
8.3644274384
 20
-30.8242142772
 10
8.4658423933
 20
-30.8127335445
 10
8.5680242076
 20
-30.7920958337
 10
8.6652401252
 20
-30.7638836994
  0
LWPOLYLINE
  5
26E
100
AcDbEntity
  8
RACCORDO
100
AcDbPolyline
 62
250
  6
CONTINUOUS
 90
16
 70
0
 10
7.4036921647
 20
-29.8511616001
 10
7.4652003345
 20
-29.8789364847
 10
7.5321065833
 20
-29.9036585317
 10
7.6036940199
 20
-29.9250628479
 10
7.679195595
 20
-29.9429200892
 10
7.7578023197
 20
-29.9570389176
 10
7.8386719339
 20
-29.9672680514
 10
7.920937931
 20
-29.9734978869
 10
8.0037188423
 20
-29.9756616722
 10
8.0861276818
 20
-29.9737362228
 10
8.1672814503
 20
-29.9677421695
 10
8.2463105965
 20
-29.9577437378
 10
8.3223683342
 20
-29.9438480595
 10
8.3946397152
 20
-29.9262040248
 10
8.4623503617
 20
-29.9050006871
 10
8.5247747638
 20
-29.8804652372
  0
LINE
  5
26F
100
AcDbEntity
  8
RACCORDO
100
AcDbLine
 62
7
  6
CONTINUOUS
 10
7.7966990091
 20
-30.7126055017
 11
-22.2461109988
 21
-15.6912004978
  0
LINE
  5
270
100
AcDbEntity
  8
RACCORDO
100
AcDbLine
 62
250
  6
CONTINUOUS
 10
7.4036921405
 20
-29.8511616112
 11
-22.6313452586
 21
-14.8336429117
  0
LWPOLYLINE
  5
271
100
AcDbEntity
  8
RACCORDO
100
AcDbPolyline
 62
250
  6
CONTINUOUS
 90
13
 70
0
 10
7.7961203257
 20
-30.7123157491
 10
7.7842141547
 20
-30.7061703854
 10
7.7190931576
 20
-30.6658093557
 10
7.6591007932
 20
-30.6166552388
 10
7.6046424493
 20
-30.5590411403
 10
7.5560844713
 20
-30.4933570593
 10
7.5137613547
 20
-30.4200490877
 10
7.4779593943
 20
-30.3396116559
 10
7.4489211503
 20
-30.2525915711
 10
7.4268500033
 20
-30.1595858668
 10
7.4118969206
 20
-30.0612288874
 10
7.4041602993
 20
-29.9581871929
 10
7.4036921405
 20
-29.8511616112
  0
LWPOLYLINE
  5
272
100
AcDbEntity
  8
RACCORDO
100
AcDbPolyline
 62
250
  6
CONTINUOUS
 90
9
 70
0
 10
-22.6313300502
 20
-14.8336359881
 10
-22.6867755521
 20
-14.802934171
 10
-22.7355700323
 20
-14.769806163
 10
-22.7771906749
 20
-14.7346069191
 10
-22.8111915293
 20
-14.6977135869
 10
-22.8372082881
 20
-14.6595214655
 10
-22.854962191
 20
-14.6204397697
 10
-22.8642630109
 20
-14.5808872461
 10
-22.8656758672
 20
-14.5522585304
  0
LWPOLYLINE
  5
273
100
AcDbEntity
  8
RACCORDO
100
AcDbPolyline
 62
250
  6
CONTINUOUS
 90
12
 70
0
 10
-22.6313452586
 20
-14.8336429117
 10
-22.6310367528
 20
-14.9405886669
 10
-22.6235710586
 20
-15.0434948978
 10
-22.609000177
 20
-15.1416607766
 10
-22.5874265576
 20
-15.2344177171
 10
-22.5589971152
 20
-15.3211334011
 10
-22.523903073
 20
-15.4012168738
 10
-22.4823890706
 20
-15.4741202883
 10
-22.4347393235
 20
-15.5393502539
 10
-22.3812699312
 20
-15.5964698765
 10
-22.3223489462
 20
-15.6450883038
 10
-22.2583800493
 20
-15.6848732835
  0
LWPOLYLINE
  5
274
100
AcDbEntity
  8
RACCORDO
100
AcDbPolyline
 62
7
  6
CONTINUOUS
 90
15
 70
0
 10
-22.8656630972
 20
-14.5522589091
 10
-22.8662481882
 20
-14.5791639486
 10
-22.8629473726
 20
-14.7025206898
 10
-22.8499436865
 20
-14.8215271654
 10
-22.8275627666
 20
-14.9355913147
 10
-22.7961255573
 20
-15.0445824276
 10
-22.7558302685
 20
-15.1483925672
 10
-22.7070058594
 20
-15.2463949545
 10
-22.6500716868
 20
-15.3380391427
 10
-22.5854166405
 20
-15.4229053372
 10
-22.5136644388
 20
-15.5003085
 10
-22.4355375323
 20
-15.5696335682
 10
-22.3517763025
 20
-15.6304600684
 10
-22.2632829536
 20
-15.6823899264
 10
-22.2448012713
 20
-15.6918294319
  0
LINE
  5
275
100
AcDbEntity
  8
RACCORDO
100
AcDbLine
 62
7
  6
CONTINUOUS
 10
-22.8656758672
 20
-14.5522585304
 11
-22.8656689723
 21
-14.5520285072
  0
LWPOLYLINE
  5
276
100
AcDbEntity
  8
RACCORDO
100
AcDbPolyline
 62
7
  6
CONTINUOUS
 90
13
 70
0
 10
-19.858675145
 20
21.9921719357
 10
-20.2448873314
 20
18.973708703
 10
-20.6170315471
 20
15.8688958369
 10
-20.9625626709
 20
12.7727690655
 10
-21.2814272814
 20
9.6857743027
 10
-21.5735860882
 20
6.6083033047
 10
-21.8390036848
 20
3.5407267736
 10
-22.0776443562
 20
0.4834301434
 10
-22.2894778481
 20
-2.5632032827
 10
-22.4744760888
 20
-5.5988058081
 10
-22.632611558
 20
-8.6229903816
 10
-22.7638625713
 20
-11.6353233008
 10
-22.8656689723
 20
-14.5520285072
  0
LWPOLYLINE
  5
277
100
AcDbEntity
  8
RACCORDO
100
AcDbPolyline
 62
250
  6
CONTINUOUS
 90
13
 70
0
 10
-19.6228256376
 20
21.7279004327
 10
-20.0191089654
 20
18.628260609
 10
-20.3890572679
 20
15.536918771
 10
-20.7326229099
 20
12.4542705776
 10
-21.0497616003
 20
9.3807105976
 10
-21.3404326814
 20
6.3166322806
 10
-21.6045991313
 20
3.2624279073
 10
-21.842227279
 20
0.2184885944
 10
-22.053286549
 20
-2.814796007
 10
-22.2377497434
 20
-5.8370377377
 10
-22.3955933042
 20
-8.8478496549
 10
-22.526797319
 20
-11.8468460829
 10
-22.6313452586
 20
-14.8336429117
  0
LINE
  5
278
100
AcDbEntity
  8
218
100
AcDbLine
 62
7
  6
CONTINUOUS
 10
-5.1039892001
 20
24.2799329554
 11
-4.2498879361
 21
25.0274372928
  0
LINE
  5
279
100
AcDbEntity
  8
218
100
AcDbLine
 62
250
  6
CONTINUOUS
 10
-4.9500866453
 20
24.202981678
 11
-4.0012880538
 21
25.0333645523
  0
LINE
  5
27A
100
AcDbEntity
  8
268
100
AcDbLine
 62
7
  6
CONTINUOUS
 10
-3.5087755202
 20
22.2805131831
 11
-3.0096797874
 21
22.5307098563
  0
LINE
  5
27B
100
AcDbEntity
  8
PREM_14013
100
AcDbLine
 62
7
  6
CONTINUOUS
 10
3.4960778457
 20
27.4614611878
 11
2.1846135346
 21
26.8057290323
  0
LINE
  5
27C
100
AcDbEntity
  8
PREM_14013
100
AcDbLine
 62
7
  6
CONTINUOUS
 10
4.3446085534
 20
27.0371984042
 11
3.9761600259
 21
26.8529741405
  0
LINE
  5
27D
100
AcDbEntity
  8
268
100
AcDbLine
 62
7
  6
CONTINUOUS
 10
-3.0096797874
 20
22.5307098563
 11
2.4045929077
 21
25.2307254666
  0
LINE
  5
27E
100
AcDbEntity
  8
268
100
AcDbLine
 62
7
  6
CONTINUOUS
 10
1.7986463246
 20
25.5324734246
 11
-2.9389691093
 21
23.19742291
  0
LINE
  5
27F
100
AcDbEntity
  8
268
100
AcDbLine
 62
7
  6
CONTINUOUS
 10
3.0776091232
 20
25.2762253955
 11
2.4912303361
 21
24.9893033278
  0
LINE
  5
280
100
AcDbEntity
  8
218
100
AcDbLine
 62
7
  6
CONTINUOUS
 10
8.0656552666
 20
28.7673881276
 11
4.50222443
 21
27.0571333797
  0
LWPOLYLINE
  5
281
100
AcDbEntity
  8
268
100
AcDbPolyline
 62
7
  6
CONTINUOUS
 90
18
 70
0
 10
3.0776091232
 20
25.2762253955
 10
3.105983644
 20
25.2894073523
 10
3.134218096
 20
25.301141744
 10
3.1623124792
 20
25.3114285707
 10
3.1903167923
 20
25.3202807053
 10
3.2181810365
 20
25.3276852748
 10
3.2457552162
 20
25.3336036605
 10
3.2730243448
 20
25.3380270817
 10
3.3000034088
 20
25.3409643191
 10
3.3265873714
 20
25.342403095
 10
3.3527923303
 20
25.3423359585
 10
3.3786021878
 20
25.3407703605
 10
3.403863614
 20
25.3377163771
 10
3.4285533674
 20
25.3331705927
 10
3.4526946895
 20
25.3271364228
 10
3.4762039758
 20
25.3196341901
 10
3.499099756
 20
25.3106487754
 10
3.518642808
 20
25.301579521
  0
LWPOLYLINE
  5
282
100
AcDbEntity
  8
PREM_14013
100
AcDbPolyline
 62
7
  6
CONTINUOUS
 90
10
 70
0
 10
4.3445796575
 20
27.0371839563
 10
4.3559761218
 20
27.0423526115
 10
4.3671965242
 20
27.0464045079
 10
4.378240865
 20
27.0493396455
 10
4.3892041239
 20
27.0511581768
 10
4.399991321
 20
27.0518599493
 10
4.4103175165
 20
27.0514445049
 10
4.4200877302
 20
27.049911691
 10
4.4293969422
 20
27.0472616603
 10
4.4382451525
 20
27.0434944127
  0
LINE
  5
283
100
AcDbEntity
  8
RACCORDO
100
AcDbLine
 62
250
  6
CONTINUOUS
 10
18.3803003435
 20
-19.8511781394
 11
22.5789104262
 21
-19.5549702166
  0
LINE
  5
284
100
AcDbEntity
  8
RACCORDO
100
AcDbLine
 62
250
  6
CONTINUOUS
 10
17.2140764493
 20
-28.1948267344
 11
17.231251824
 21
-28.2000742816
  0
LWPOLYLINE
  5
285
100
AcDbEntity
  8
PREM_14013
100
AcDbPolyline
 62
250
  6
CONTINUOUS
 90
45
 70
0
 10
0.1087981517
 20
26.9802759297
 10
0.1132061734
 20
26.9847204844
 10
0.1737096518
 20
27.0386630067
 10
0.2395820034
 20
27.0909159062
 10
0.3108241587
 20
27.1415207137
 10
0.3869582564
 20
27.1901439922
 10
0.4679748854
 20
27.2367717347
 10
0.5538834568
 20
27.2814179483
 10
0.6442343425
 20
27.3237912174
 10
0.7392846227
 20
27.3639504154
 10
0.8387772172
 20
27.4018366689
 10
0.9414912575
 20
27.436981942
 10
1.0478321263
 20
27.4693596619
 10
1.1573944409
 20
27.4989964015
 10
1.2677411853
 20
27.5255038437
 10
1.3788457022
 20
27.5487032371
 10
1.4907346489
 20
27.5687733332
 10
1.601050981
 20
27.585862069
 10
1.7094414709
 20
27.5998359648
 10
1.8162593462
 20
27.6108285004
 10
1.9202072453
 20
27.6193880516
 10
2.0210430798
 20
27.6254906212
 10
2.119008938
 20
27.6291602064
 10
2.2135337244
 20
27.6310171752
 10
2.3044554645
 20
27.631083044
 10
2.3919361326
 20
27.6293362965
 10
2.475890556
 20
27.6263327511
 10
2.5561946294
 20
27.6221139505
 10
2.632972458
 20
27.616638352
 10
2.7065111845
 20
27.6103371464
 10
2.7767777181
 20
27.6032511126
 10
2.8438051497
 20
27.5953394717
 10
2.9079798938
 20
27.5869110775
 10
2.9692876407
 20
27.578000437
 10
3.0277427001
 20
27.5685730432
 10
3.0837744166
 20
27.5588342294
 10
3.1373790001
 20
27.5488127077
 10
3.1885602408
 20
27.5384797659
 10
3.2377588531
 20
27.5279546012
 10
3.284977998
 20
27.517260062
 10
3.3302145146
 20
27.5063732999
 10
3.3738996345
 20
27.4953449663
 10
3.4161771015
 20
27.484191945
 10
3.456903172
 20
27.4728973521
 10
3.4960778457
 20
27.4614611878
  0
LWPOLYLINE
  5
286
100
AcDbEntity
  8
PREM_14013
100
AcDbPolyline
 62
250
  6
CONTINUOUS
 90
7
 70
0
 10
0.038744961
 20
27.0091325366
 10
0.0675316258
 20
27.034609099
 10
0.1384074576
 20
27.0903825667
 10
0.2149005954
 20
27.1442105022
 10
0.2968919991
 20
27.1960116859
 10
0.3841405961
 20
27.2456293252
 10
0.4046377575
 20
27.2565656935
  0
LWPOLYLINE
  5
287
100
AcDbEntity
  8
218
100
AcDbPolyline
 62
7
  6
CONTINUOUS
 90
38
 70
0
 10
7.6507375216
 20
24.6577139829
 10
7.6102190646
 20
24.6366550249
 10
7.5706048077
 20
24.6151702928
 10
7.5319126431
 20
24.5932694902
 10
7.4941600463
 20
24.570962509
 10
7.4573640687
 20
24.5482594243
 10
7.4215413293
 20
24.5251704899
 10
7.386708008
 20
24.5017061344
 10
7.3528798373
 20
24.4778769554
 10
7.3200720962
 20
24.4536937157
 10
7.2882996023
 20
24.4291673379
 10
7.2575767062
 20
24.4043088994
 10
7.2279172839
 20
24.3791296278
 10
7.1993347315
 20
24.3536408954
 10
7.1718419584
 20
24.3278542146
 10
7.1454513821
 20
24.301781232
 10
7.1201749219
 20
24.2754337237
 10
7.0960239943
 20
24.2488235899
 10
7.0730095072
 20
24.2219628491
 10
7.0511418552
 20
24.1948636332
 10
7.0304309151
 20
24.1675381818
 10
7.0108860412
 20
24.1399988368
 10
6.9925160609
 20
24.1122580363
 10
6.9753292714
 20
24.0843283099
 10
6.9593334351
 20
24.0562222722
 10
6.9445357767
 20
24.0279526175
 10
6.9309429797
 20
23.999532114
 10
6.9185611833
 20
23.9709735981
 10
6.9073959799
 20
23.9422899684
 10
6.8974524124
 20
23.9134941802
 10
6.8887349718
 20
23.8845992393
 10
6.8812475955
 20
23.8556181964
 10
6.8749936652
 20
23.8265641409
 10
6.8699760055
 20
23.7974501954
 10
6.8661968827
 20
23.7682895094
 10
6.8636580037
 20
23.7390952535
 10
6.8623605151
 20
23.7098806136
 10
6.8621762568
 20
23.6939637445
  0
LINE
  5
288
100
AcDbEntity
  8
268
100
AcDbLine
 62
7
  6
CONTINUOUS
 10
-1.834719944
 20
20.8594827779
 11
-0.2519633408
 21
21.6714668752
  0
LINE
  5
289
100
AcDbEntity
  8
218
100
AcDbLine
 62
7
  6
CONTINUOUS
 10
11.8671172993
 20
26.8030235996
 11
7.6507375216
 21
24.6577139829
  0
LINE
  5
28A
100
AcDbEntity
  8
268
100
AcDbLine
 62
7
  6
CONTINUOUS
 10
-3.5087755202
 20
21.0663097103
 11
-3.0096797874
 21
21.318274291
  0
LINE
  5
28B
100
AcDbEntity
  8
218
100
AcDbLine
 62
7
  6
CONTINUOUS
 10
11.8731742862
 20
26.3655351324
 11
7.6507375216
 21
24.2474949399
  0
LINE
  5
28C
100
AcDbEntity
  8
268
100
AcDbLine
 62
7
  6
CONTINUOUS
 10
-0.2268985349
 20
20.0555720733
 11
1.3743822559
 21
20.8582940768
  0
LINE
  5
28D
100
AcDbEntity
  8
268
100
AcDbLine
 62
7
  6
CONTINUOUS
 10
1.3743822559
 20
20.8582940768
 11
1.9026494277
 21
21.1217328969
  0
LINE
  5
28E
100
AcDbEntity
  8
268
100
AcDbLine
 62
7
  6
CONTINUOUS
 10
-3.0096797874
 20
21.318274291
 11
2.4045929077
 21
23.9988868883
  0
LINE
  5
28F
100
AcDbEntity
  8
268
100
AcDbLine
 62
7
  6
CONTINUOUS
 10
-0.2519633408
 20
21.6714668752
 11
0.2824865379
 21
21.9318143418
  0
LINE
  5
290
100
AcDbEntity
  8
268
100
AcDbLine
 62
250
  6
CONTINUOUS
 10
1.284860046
 20
21.4926049586
 11
6.0566990241
 21
23.786680445
  0
LINE
  5
291
100
AcDbEntity
  8
268
100
AcDbLine
 62
250
  6
CONTINUOUS
 10
1.5124755458
 20
21.3787972087
 11
6.4985398921
 21
23.7758621647
  0
LINE
  5
292
100
AcDbEntity
  8
218
100
AcDbLine
 62
7
  6
CONTINUOUS
 10
10.8298252862
 20
27.3853031177
 11
7.2567515877
 21
25.6798698009
  0
LINE
  5
293
100
AcDbEntity
  8
RACCORDO
100
AcDbLine
 62
7
  6
CONTINUOUS
 10
22.1112401975
 20
-18.9193467198
 11
18.3803003435
 21
-19.1179982016
  0
LWPOLYLINE
  5
294
100
AcDbEntity
  8
RACCORDO
100
AcDbPolyline
 62
7
  6
CONTINUOUS
 90
18
 70
0
 10
22.1112261812
 20
-18.9193016383
 10
22.1481680343
 20
-18.9205932744
 10
22.1851876992
 20
-18.9279056732
 10
22.2233468947
 20
-18.9414498751
 10
22.2623953767
 20
-18.9609741161
 10
22.3005545722
 20
-18.9855891097
 10
22.3375742371
 20
-19.0152963758
 10
22.3737046154
 20
-19.0500943945
 10
22.4079178664
 20
-19.0890893202
 10
22.4403680504
 20
-19.1326733364
 10
22.4709011071
 20
-19.1804542596
 10
22.4980270144
 20
-19.230361693
 10
22.5215210189
 20
-19.2822740969
 10
22.5416078741
 20
-19.3363130111
 10
22.5574718186
 20
-19.3907726579
 10
22.5688409319
 20
-19.4450844448
 10
22.5759871344
 20
-19.4998169644
 10
22.5789104262
 20
-19.5549702166
  0
LWPOLYLINE
  5
295
100
AcDbEntity
  8
RACCORDO
100
AcDbPolyline
 62
250
  6
CONTINUOUS
 90
3
 70
0
 10
17.7846784225
 20
-28.3178381002
 10
17.7788415226
 20
-28.3151915217
 10
17.7615819099
 20
-28.3099092386
  0
LINE
  5
296
100
AcDbEntity
  8
RACCORDO
100
AcDbLine
 62
250
  6
CONTINUOUS
 10
17.2078367728
 20
-28.1919869055
 11
17.2140764493
 21
-28.1948267344
  0
LINE
  5
297
100
AcDbEntity
  8
RACCORDO
100
AcDbLine
 62
7
  6
CONTINUOUS
 10
15.4400698198
 20
-30.1771843541
 11
14.0965669356
 21
-29.505432912
  0
LINE
  5
298
100
AcDbEntity
  8
RACCORDO
100
AcDbLine
 62
250
  6
CONTINUOUS
 10
15.3750965234
 20
-30.041965904
 11
14.0315936392
 21
-29.3702144619
  0
LINE
  5
299
100
AcDbEntity
  8
RACCORDO
100
AcDbLine
 62
250
  6
CONTINUOUS
 10
15.3750965234
 20
-29.6906519319
 11
14.0315936392
 21
-29.0189004898
  0
LINE
  5
29A
100
AcDbEntity
  8
RACCORDO
100
AcDbLine
 62
250
  6
CONTINUOUS
 10
15.4634848711
 20
-29.4589577581
 11
14.1199819868
 21
-28.787206316
  0
LINE
  5
29B
100
AcDbEntity
  8
RACCORDO
100
AcDbLine
 62
250
  6
CONTINUOUS
 10
14.6503120727
 20
-28.147041273
 11
15.993814957
 21
-28.8187927151
  0
LINE
  5
29C
100
AcDbEntity
  8
RACCORDO
100
AcDbLine
 62
250
  6
CONTINUOUS
 10
14.7387004204
 20
-27.9153470992
 11
16.0822033046
 21
-28.5870985413
  0
LINE
  5
29D
100
AcDbEntity
  8
RACCORDO
100
AcDbLine
 62
7
  6
CONTINUOUS
 10
13.2211251822
 20
-27.0395129051
 11
15.8682372649
 21
-28.3630689464
  0
LWPOLYLINE
  5
29E
100
AcDbEntity
  8
RACCORDO
100
AcDbPolyline
 62
250
  6
CONTINUOUS
 90
8
 70
0
 10
14.0965669356
 20
-29.505432912
 10
14.0838558766
 20
-29.4977688164
 10
14.0684628062
 20
-29.4841196884
 10
14.0554906518
 20
-29.4669706193
 10
14.0451668647
 20
-29.4466260533
 10
14.0376676865
 20
-29.4234438488
 10
14.0331181788
 20
-29.3978251178
 10
14.0315936392
 20
-29.3702144619
  0
LINE
  5
29F
100
AcDbEntity
  8
268
100
AcDbLine
 62
7
  6
CONTINUOUS
 10
-15.7729571878
 20
25.610131382
 11
-15.7729571878
 21
25.5857358767
  0
LINE
  5
2A0
100
AcDbEntity
  8
268
100
AcDbLine
 62
7
  6
CONTINUOUS
 10
-15.3737638909
 20
26.9833824146
 11
-15.3737638909
 21
27.2367538084
  0
LWPOLYLINE
  5
2A1
100
AcDbEntity
  8
RACCORDO
100
AcDbPolyline
 62
250
  6
CONTINUOUS
 90
13
 70
0
 10
0.84405217
 20
19.6190714025
 10
0.8214914038
 20
19.606020594
 10
0.7991435494
 20
19.5895142362
 10
0.7773912014
 20
19.5697575657
 10
0.7565732557
 20
19.5469642649
 10
0.7371262077
 20
19.5215122147
 10
0.7195377122
 20
19.4939932958
 10
0.7041446418
 20
19.4649510975
 10
0.6911724873
 20
19.434829874
 10
0.6808487003
 20
19.4041615209
 10
0.6733495221
 20
19.3734801382
 10
0.6688000144
 20
19.3433118995
 10
0.6672754747
 20
19.3141767039
  0
LWPOLYLINE
  5
2A2
100
AcDbEntity
  8
PREM_14013
100
AcDbPolyline
 62
7
  6
CONTINUOUS
 90
4
 70
0
 10
7.6975277392
 20
23.5143180881
 10
7.5878520063
 20
23.4517440688
 10
7.4756977701
 20
23.3875831365
 10
7.3804254315
 20
23.3329394891
  0
LWPOLYLINE
  5
2A3
100
AcDbEntity
  8
268
100
AcDbPolyline
 62
7
  6
CONTINUOUS
 90
5
 70
0
 10
7.2450429324
 20
22.6833922802
 10
7.2452909446
 20
22.683532378
 10
7.2462181805
 20
22.6843600494
 10
7.246724598
 20
22.6854111208
 10
7.2468363615
 20
22.6863430447
  0
LINE
  5
2A4
100
AcDbEntity
  8
268
100
AcDbLine
 62
250
  6
CONTINUOUS
 10
1.8884630891
 20
20.3777623061
 11
7.2467898692
 21
23.268702533
  0
LINE
  5
2A5
100
AcDbEntity
  8
268
100
AcDbLine
 62
250
  6
CONTINUOUS
 10
2.9701016187
 20
20.7129189649
 11
7.1626383016
 21
22.9748886892
  0
LINE
  5
2A6
100
AcDbEntity
  8
PREM_14013
100
AcDbLine
 62
7
  6
CONTINUOUS
 10
7.33839225
 20
23.3522584488
 11
7.9706803162
 21
23.6856764485
  0
LINE
  5
2A7
100
AcDbEntity
  8
218
100
AcDbLine
 62
7
  6
CONTINUOUS
 10
3.7806938475
 20
20.3350730536
 11
7.7052139936
 21
22.3966626176
  0
LINE
  5
2A8
100
AcDbEntity
  8
268
100
AcDbLine
 62
250
  6
CONTINUOUS
 10
3.115998779
 20
20.6674205878
 11
7.1626383016
 21
22.7626295351
  0
LINE
  5
2A9
100
AcDbEntity
  8
268
100
AcDbLine
 62
7
  6
CONTINUOUS
 10
3.2357649097
 20
20.6075375225
 11
7.2450423768
 21
22.6834016993
  0
LINE
  5
2AA
100
AcDbEntity
  8
268
100
AcDbLine
 62
250
  6
CONTINUOUS
 10
0.9026909448
 20
18.7424231949
 11
-0.2519633408
 21
18.1527548917
  0
LINE
  5
2AB
100
AcDbEntity
  8
268
100
AcDbLine
 62
250
  6
CONTINUOUS
 10
1.3011589512
 20
18.3926631006
 11
-0.0044759674
 21
17.7258907717
  0
LINE
  5
2AC
100
AcDbEntity
  8
268
100
AcDbLine
 62
7
  6
CONTINUOUS
 10
0.7577026034
 20
18.8149173656
 11
0.3075513438
 21
18.5876620198
  0
LINE
  5
2AD
100
AcDbEntity
  8
RACCORDO
100
AcDbLine
 62
7
  6
CONTINUOUS
 10
0.7322487712
 20
19.6261718493
 11
2.8535691147
 21
20.6868320211
  0
LINE
  5
2AE
100
AcDbEntity
  8
RACCORDO
100
AcDbLine
 62
250
  6
CONTINUOUS
 10
0.84405217
 20
19.6190714025
 11
2.9653725136
 21
20.6797315743
  0
LINE
  5
2AF
100
AcDbEntity
  8
RACCORDO
100
AcDbLine
 62
250
  6
CONTINUOUS
 10
2.1875550543
 20
18.9473199604
 11
4.3088753979
 21
20.0079801321
  0
LINE
  5
2B0
100
AcDbEntity
  8
RACCORDO
100
AcDbLine
 62
250
  6
CONTINUOUS
 10
2.3643317496
 20
18.6424252618
 11
4.4856520931
 21
19.7030854336
  0
LWPOLYLINE
  5
2B1
100
AcDbEntity
  8
RACCORDO
100
AcDbPolyline
 62
7
  6
CONTINUOUS
 90
15
 70
0
 10
1.1746214447
 20
18.2961092071
 10
1.160339692
 20
18.2889803645
 10
1.1292908902
 20
18.2724403109
 10
1.0999413958
 20
18.2555113548
 10
1.0722293797
 20
18.2383916644
 10
1.0458198452
 20
18.2211457395
 10
1.0208226415
 20
18.2041588249
 10
0.9977666738
 20
18.1880848295
 10
0.9761553095
 20
18.1728886978
 10
0.955827742
 20
18.1587484721
 10
0.9377255431
 20
18.1465193606
 10
0.9219194883
 20
18.1363331361
 10
0.908160569
 20
18.128043222
 10
0.8970897204
 20
18.1219276485
 10
0.8925734739
 20
18.1196226806
  0
LINE
  5
2B2
100
AcDbEntity
  8
RACCORDO
100
AcDbLine
 62
7
  6
CONTINUOUS
 10
0.6580802867
 20
18.0032992067
 11
0.892682479
 21
18.1196636236
  0
LINE
  5
2B3
100
AcDbEntity
  8
RACCORDO
100
AcDbLine
 62
250
  6
CONTINUOUS
 10
0.8812415145
 20
17.9888331369
 11
1.1210314293
 21
18.1077679729
  0
LINE
  5
2B4
100
AcDbEntity
  8
RACCORDO
100
AcDbLine
 62
7
  6
CONTINUOUS
 10
1.2911514521
 20
18.352988931
 11
1.1746226351
 21
18.2961066749
  0
LINE
  5
2B5
100
AcDbEntity
  8
RACCORDO
100
AcDbLine
 62
7
  6
CONTINUOUS
 10
1.3011589512
 20
18.3578749267
 11
1.2911514521
 21
18.352988931
  0
LINE
  5
2B6
100
AcDbEntity
  8
RACCORDO
100
AcDbLine
 62
250
  6
CONTINUOUS
 10
1.2790382738
 20
18.3171173224
 11
1.2976669503
 21
18.3260833216
  0
LINE
  5
2B7
100
AcDbEntity
  8
218
100
AcDbLine
 62
7
  6
CONTINUOUS
 10
15.490276469
 20
25.0550775263
 11
11.9268456325
 21
23.3448227785
  0
LWPOLYLINE
  5
2B8
100
AcDbEntity
  8
RACCORDO
100
AcDbPolyline
 62
250
  6
CONTINUOUS
 90
7
 70
0
 10
2.8535691147
 20
20.6868320211
 10
2.85775768
 20
20.6887986769
 10
2.8769841659
 20
20.6949193972
 10
2.8977230011
 20
20.6970757659
 10
2.9196193381
 20
20.695230887
 10
2.9422985247
 20
20.6894163269
 10
2.9653725136
 20
20.6797315743
  0
LWPOLYLINE
  5
2B9
100
AcDbEntity
  8
RACCORDO
100
AcDbPolyline
 62
250
  6
CONTINUOUS
 90
7
 70
0
 10
0.7322487712
 20
19.6261718493
 10
0.7364373364
 20
19.6281385051
 10
0.7556638224
 20
19.6342592254
 10
0.7764026575
 20
19.6364155941
 10
0.7982989946
 20
19.6345707152
 10
0.8209781811
 20
19.6287561551
 10
0.84405217
 20
19.6190714025
  0
LWPOLYLINE
  5
2BA
100
AcDbEntity
  8
RACCORDO
100
AcDbPolyline
 62
250
  6
CONTINUOUS
 90
5
 70
0
 10
1.1749193735
 20
18.2962518089
 10
1.181870817
 20
18.2994824048
 10
1.2124895135
 20
18.3101800672
 10
1.244990894
 20
18.3160787414
 10
1.2790382738
 20
18.3171173224
  0
LWPOLYLINE
  5
2BB
100
AcDbEntity
  8
RACCORDO
100
AcDbPolyline
 62
250
  6
CONTINUOUS
 90
4
 70
0
 10
1.3193050161
 20
18.3247961189
 10
1.3171117705
 20
18.3237882486
 10
1.305123646
 20
18.3196358259
 10
1.2923885281
 20
18.3174044976
  0
LWPOLYLINE
  5
2BC
100
AcDbEntity
  8
RACCORDO
100
AcDbPolyline
 62
250
  6
CONTINUOUS
 90
8
 70
0
 10
0.892682479
 20
18.1196636236
 10
0.9084124566
 20
18.1266382302
 10
0.9403418688
 20
18.1362449078
 10
0.9741839784
 20
18.1407604218
 10
1.0095675942
 20
18.1401353412
 10
1.0461047804
 20
18.1343766849
 10
1.0833951503
 20
18.1235477173
 10
1.1210299995
 20
18.1077672637
  0
LWPOLYLINE
  5
2BD
100
AcDbEntity
  8
RACCORDO
100
AcDbPolyline
 62
250
  6
CONTINUOUS
 90
13
 70
0
 10
2.3643317496
 20
18.6424252618
 10
2.3403254371
 20
18.6318676518
 10
2.3136236714
 20
18.6228706803
 10
2.2846204283
 20
18.6156199538
 10
2.2536907212
 20
18.6102668617
 10
2.2214013853
 20
18.6069644816
 10
2.1885242599
 20
18.6058145488
 10
2.1557025285
 20
18.6068323441
 10
2.1234323579
 20
18.6099952749
 10
2.0922826338
 20
18.6152463499
 10
2.0627937382
 20
18.6224916195
 10
2.0354692956
 20
18.6316043332
 10
2.010778359
 20
18.6424252618
  0
LWPOLYLINE
  5
2BE
100
AcDbEntity
  8
RACCORDO
100
AcDbPolyline
 62
250
  6
CONTINUOUS
 90
13
 70
0
 10
2.3643317496
 20
18.2911112897
 10
2.3397454115
 20
18.2803304698
 10
2.3125550543
 20
18.2712464619
 10
2.2832259124
 20
18.2640146958
 10
2.2522598156
 20
18.2587589091
 10
2.2201866023
 20
18.2555690297
 10
2.1875550543
 20
18.2544996373
 10
2.1549235062
 20
18.2555690297
 10
2.122850293
 20
18.2587589091
 10
2.0918841962
 20
18.2640146958
 10
2.0625550543
 20
18.2712464619
 10
2.035364697
 20
18.2803304698
 10
2.010778359
 20
18.2911112897
  0
LINE
  5
2BF
100
AcDbEntity
  8
268
100
AcDbLine
 62
7
  6
CONTINUOUS
 10
-0.0044759674
 20
17.7014952665
 11
0.5610026951
 21
17.8991980514
  0
LINE
  5
2C0
100
AcDbEntity
  8
DRAFT
100
AcDbLine
 62
7
  6
CONTINUOUS
 10
13.2574084523
 20
-26.5985743305
 11
16.2219522156
 21
-28.0808462121
  0
LINE
  5
2C1
100
AcDbEntity
  8
RACCORDO
100
AcDbLine
 62
250
  6
CONTINUOUS
 10
17.2249793586
 20
-28.1969380489
 11
17.231251824
 21
-28.2000742816
  0
LINE
  5
2C2
100
AcDbEntity
  8
DRAFT
100
AcDbLine
 62
7
  6
CONTINUOUS
 10
13.2991970158
 20
-26.0907317476
 11
16.68959431
 21
-27.7859303947
  0
LINE
  5
2C3
100
AcDbEntity
  8
RACCORDO
100
AcDbLine
 62
250
  6
CONTINUOUS
 10
17.2160867811
 20
-28.0371616742
 11
17.7615819099
 21
-28.3099092386
  0
LINE
  5
2C4
100
AcDbEntity
  8
RACCORDO
100
AcDbLine
 62
7
  6
CONTINUOUS
 10
17.2160867811
 20
-28.0335415247
 11
17.7849969612
 21
-28.3179966147
  0
LINE
  5
2C5
100
AcDbEntity
  8
DRAFT
100
AcDbLine
 62
7
  6
CONTINUOUS
 10
13.4272836444
 20
-24.5341373387
 11
16.68959431
 21
-26.1652926715
  0
LWPOLYLINE
  5
2C6
100
AcDbEntity
  8
RACCORDO
100
AcDbPolyline
 62
250
  6
CONTINUOUS
 90
8
 70
0
 10
15.4399081897
 20
-30.1771033441
 10
15.4273587609
 20
-30.1695202585
 10
15.4119656905
 20
-30.1558711305
 10
15.398993536
 20
-30.1387220615
 10
15.3886697489
 20
-30.1183774954
 10
15.3811705708
 20
-30.095195291
 10
15.3766210631
 20
-30.0695765599
 10
15.3750965234
 20
-30.041965904
  0
LINE
  5
2C7
100
AcDbEntity
  8
268
100
AcDbLine
 62
7
  6
CONTINUOUS
 10
-14.9597843895
 20
25.1791494775
 11
-14.9597843895
 21
24.986018792
  0
LINE
  5
2C8
100
AcDbEntity
  8
268
100
AcDbLine
 62
7
  6
CONTINUOUS
 10
-14.6707709366
 20
26.07682316
 11
-14.6707709366
 21
26.5291541356
  0
LINE
  5
2C9
100
AcDbEntity
  8
268
100
AcDbLine
 62
7
  6
CONTINUOUS
 10
-13.7679874287
 20
26.4338655773
 11
-13.7679874287
 21
26.1804941836
  0
LINE
  5
2CA
100
AcDbEntity
  8
268
100
AcDbLine
 62
7
  6
CONTINUOUS
 10
-13.0567668206
 20
25.269821102
 11
-13.0567668206
 21
25.9069906607
  0
LWPOLYLINE
  5
2CB
100
AcDbEntity
  8
PREM_14013
100
AcDbPolyline
 62
250
  6
CONTINUOUS
 90
5
 70
0
 10
7.6975277392
 20
23.5143180881
 10
7.7736782072
 20
23.5684550396
 10
7.855336533
 20
23.6205476107
 10
7.9422836569
 20
23.670455821
 10
7.9706803162
 20
23.6856764485
  0
LWPOLYLINE
  5
2CC
100
AcDbEntity
  8
PREM_14013
100
AcDbPolyline
 62
250
  6
CONTINUOUS
 90
43
 70
0
 10
7.8220017414
 20
23.5321269697
 10
7.8948540448
 20
23.5825411964
 10
7.9723164747
 20
23.6307956746
 10
8.0543890311
 20
23.6768904044
 10
8.1413112694
 20
23.7209339423
 10
8.2328436343
 20
23.7628177318
 10
8.3282674598
 20
23.8022161033
 10
8.4276129736
 20
23.8391099741
 10
8.5308499481
 20
23.8735184269
 10
8.6371690351
 20
23.90517304
 10
8.746588835
 20
23.9340511879
 10
8.8590907474
 20
23.9601754961
 10
8.9738096222
 20
23.9833454191
 10
9.0907601022
 20
24.0035390319
 10
9.2099275447
 20
24.0207782595
 10
9.3304028714
 20
24.0349283316
 10
9.4522157094
 20
24.0459660177
 10
9.5753364316
 20
24.0539145484
 10
9.6987670793
 20
24.0587088444
 10
9.8225194398
 20
24.0603189843
 10
9.9465817257
 20
24.0587748895
 10
10.0699206163
 20
24.0541012452
 10
10.1924604095
 20
24.0462809541
 10
10.3142768074
 20
24.0353311135
 10
10.4345635954
 20
24.0213277003
 10
10.5532914039
 20
24.0042690723
 10
10.6704896025
 20
23.9841568718
 10
10.7854400854
 20
23.9610720025
 10
10.8983580557
 20
23.9349227555
 10
11.0090283103
 20
23.9058008397
 10
11.1160871344
 20
23.874062286
 10
11.2196573463
 20
23.8395121103
 10
11.3196161277
 20
23.8023452967
 10
11.414231309
 20
23.7635028282
 10
11.5031675072
 20
23.7229213862
 10
11.5867601054
 20
23.6806642893
 10
11.664283083
 20
23.6378624767
 10
11.735345392
 20
23.5946197733
 10
11.8003380806
 20
23.5508323542
 10
11.8597082727
 20
23.5073196846
 10
11.9133103318
 20
23.464181389
 10
11.9612898945
 20
23.4213178428
 10
12.0025638375
 20
23.381163436
  0
LINE
  5
2CD
100
AcDbEntity
  8
PREM_14013
100
AcDbLine
 62
7
  6
CONTINUOUS
 10
9.8692743047
 20
23.419460175
 11
9.5642176997
 21
23.214215889
  0
LWPOLYLINE
  5
2CE
100
AcDbEntity
  8
RACCORDO
100
AcDbPolyline
 62
250
  6
CONTINUOUS
 90
13
 70
0
 10
2.1875550543
 20
18.9473199604
 10
2.164994288
 20
18.9342691519
 10
2.1426464337
 20
18.9177627941
 10
2.1208940857
 20
18.8980061235
 10
2.10007614
 20
18.8752128227
 10
2.0806290919
 20
18.8497607726
 10
2.0630405964
 20
18.8222418537
 10
2.0476475261
 20
18.7931996554
 10
2.0346753716
 20
18.7630784319
 10
2.0243515845
 20
18.7324100787
 10
2.0168524063
 20
18.7017286961
 10
2.0123028987
 20
18.6715604574
 10
2.010778359
 20
18.6424252618
  0
LWPOLYLINE
  5
2CF
100
AcDbEntity
  8
RACCORDO
100
AcDbPolyline
 62
250
  6
CONTINUOUS
 90
7
 70
0
 10
3.778545312
 20
18.2482180709
 10
3.8001069517
 20
18.2605112399
 10
3.8182749676
 20
18.2741064185
 10
3.8327384998
 20
18.2887709895
 10
3.8432500732
 20
18.3042540379
 10
3.849629832
 20
18.3202906445
 10
3.8517686167
 20
18.3366064185
  0
LINE
  5
2D0
100
AcDbEntity
  8
RACCORDO
100
AcDbLine
 62
250
  6
CONTINUOUS
 10
3.7962182209
 20
17.9334897778
 11
3.778545312
 21
17.9243956431
  0
LINE
  5
2D1
100
AcDbEntity
  8
218
100
AcDbLine
 62
250
  6
CONTINUOUS
 10
16.6584205127
 20
24.0510434569
 11
4.8866274496
 21
18.062110924
  0
LINE
  5
2D2
100
AcDbEntity
  8
RACCORDO
100
AcDbLine
 62
7
  6
CONTINUOUS
 10
5.3218376358
 20
17.8445058309
 11
11.5868406204
 21
20.9519934975
  0
LINE
  5
2D3
100
AcDbEntity
  8
RACCORDO
100
AcDbLine
 62
7
  6
CONTINUOUS
 10
6.3241414189
 20
17.5122821726
 11
12.0115291317
 21
20.3234062556
  0
LINE
  5
2D4
100
AcDbEntity
  8
218
100
AcDbLine
 62
250
  6
CONTINUOUS
 10
8.4507409293
 20
21.1108188588
 11
16.022674327
 21
24.7888785974
  0
LINE
  5
2D5
100
AcDbEntity
  8
218
100
AcDbLine
 62
250
  6
CONTINUOUS
 10
8.7884092631
 20
20.5284271318
 11
16.5225981745
 21
24.2853023381
  0
LINE
  5
2D6
100
AcDbEntity
  8
RACCORDO
100
AcDbLine
 62
250
  6
CONTINUOUS
 10
3.778545312
 20
17.9243956431
 11
3.0714385308
 21
17.5859587822
  0
LINE
  5
2D7
100
AcDbEntity
  8
RACCORDO
100
AcDbLine
 62
250
  6
CONTINUOUS
 10
3.9174985252
 20
17.6792721927
 11
3.210391744
 21
17.3408353318
  0
LWPOLYLINE
  5
2D8
100
AcDbEntity
  8
RACCORDO
100
AcDbPolyline
 62
250
  6
CONTINUOUS
 90
13
 70
0
 10
3.0714385308
 20
17.8946646803
 10
3.0468521927
 20
17.8838838604
 10
3.0196618355
 20
17.8747998525
 10
2.9903326936
 20
17.8675680864
 10
2.9593665968
 20
17.8623122996
 10
2.9272933835
 20
17.8591224203
 10
2.8946618355
 20
17.8580530279
 10
2.8620302874
 20
17.8591224203
 10
2.8299570742
 20
17.8623122996
 10
2.7989909774
 20
17.8675680864
 10
2.7696618355
 20
17.8747998525
 10
2.7424714782
 20
17.8838838604
 10
2.7178851402
 20
17.8946646803
  0
LWPOLYLINE
  5
2D9
100
AcDbEntity
  8
RACCORDO
100
AcDbPolyline
 62
250
  6
CONTINUOUS
 90
16
 70
0
 10
3.210391744
 20
17.3408353318
 10
3.1742414499
 20
17.3254819286
 10
3.1360006241
 20
17.3123256945
 10
3.0956692664
 20
17.3013666295
 10
3.0527764453
 20
17.2925531019
 10
3.0077930925
 20
17.2859367434
 10
2.962132003
 20
17.2816724496
 10
2.9158168352
 20
17.2798157562
 10
2.8688239309
 20
17.2803111276
 10
2.82249511
 20
17.2831468527
 10
2.7768019401
 20
17.2883800441
 10
2.7317728538
 20
17.2959535892
 10
2.688834969
 20
17.3056844392
 10
2.6484639915
 20
17.3175115779
 10
2.6101842155
 20
17.3314960216
 10
2.573995641
 20
17.3476377701
  0
LWPOLYLINE
  5
2DA
100
AcDbEntity
  8
RACCORDO
100
AcDbPolyline
 62
250
  6
CONTINUOUS
 90
16
 70
0
 10
3.0714385308
 20
17.5859587822
 10
3.0517902906
 20
17.5778523134
 10
3.0304580766
 20
17.5708304236
 10
3.007694523
 20
17.5649679936
 10
2.9837768555
 20
17.5603343259
 10
2.9589662707
 20
17.556965109
 10
2.9335003323
 20
17.5548690143
 10
2.907675743
 20
17.5540672771
 10
2.8817552629
 20
17.5545668506
 10
2.8559241823
 20
17.5563538993
 10
2.8304440488
 20
17.559423272
 10
2.8056139429
 20
17.5637538207
 10
2.781676854
 20
17.569305848
 10
2.7588959877
 20
17.576032995
 10
2.737547669
 20
17.5838764406
 10
2.7178851402
 20
17.5927612205
  0
LINE
  5
2DB
100
AcDbEntity
  8
RACCORDO
100
AcDbLine
 62
250
  6
CONTINUOUS
 10
3.8992668016
 20
17.9833910019
 11
3.9174985252
 21
17.9906678059
  0
LINE
  5
2DC
100
AcDbEntity
  8
RACCORDO
100
AcDbLine
 62
250
  6
CONTINUOUS
 10
17.78393252
 20
-28.3234520259
 11
17.7615819099
 21
-28.3099092386
  0
LINE
  5
2DD
100
AcDbEntity
  8
268
100
AcDbLine
 62
7
  6
CONTINUOUS
 10
-11.9899359085
 20
25.8084023515
 11
-11.9899359085
 21
27.5404531591
  0
LINE
  5
2DE
100
AcDbEntity
  8
268
100
AcDbLine
 62
7
  6
CONTINUOUS
 10
-11.2869429542
 20
27.6757746568
 11
-11.2869429542
 21
27.4148456805
  0
LINE
  5
2DF
100
AcDbEntity
  8
268
100
AcDbLine
 62
7
  6
CONTINUOUS
 10
1.9895010909
 20
20.5007353102
 11
1.6465384888
 21
20.0833167081
  0
LWPOLYLINE
  5
2E0
100
AcDbEntity
  8
RACCORDO
100
AcDbPolyline
 62
7
  6
CONTINUOUS
 90
9
 70
0
 10
1.2875545574
 20
18.3049582038
 10
1.2874256208
 20
18.3048279731
 10
1.2883118931
 20
18.3059387138
 10
1.2909089497
 20
18.3098835362
 10
1.2943135404
 20
18.3166202565
 10
1.2975328845
 20
18.3254922389
 10
1.3000189548
 20
18.336453075
 10
1.3011448762
 20
18.3489948061
 10
1.301164556
 20
18.3510497831
  0
LWPOLYLINE
  5
2E1
100
AcDbEntity
  8
218
100
AcDbPolyline
 62
250
  6
CONTINUOUS
 90
30
 70
0
 10
17.0725709883
 20
22.6194098823
 10
17.0912321268
 20
22.6293361113
 10
17.1093452218
 20
22.6395129375
 10
17.1268968223
 20
22.6499328013
 10
17.1438738944
 20
22.6605879657
 10
17.160263831
 20
22.6714705128
 10
17.1760544607
 20
22.6825723493
 10
17.1912340572
 20
22.6938852288
 10
17.2057913483
 20
22.7054007482
 10
17.2197155235
 20
22.7171103443
 10
17.2329962426
 20
22.7290053193
 10
17.2456236434
 20
22.741076838
 10
17.2575883487
 20
22.7533159248
 10
17.2688814733
 20
22.7657134885
 10
17.279494631
 20
22.7782603209
 10
17.2894199404
 20
22.790947094
 10
17.2986500309
 20
22.8037643841
 10
17.3071780482
 20
22.8167026713
 10
17.3149976592
 20
22.8297523379
 10
17.3221030572
 20
22.8429036905
 10
17.3284889657
 20
22.8561469613
 10
17.3341506423
 20
22.8694723077
 10
17.3390838827
 20
22.8828698315
 10
17.3432850236
 20
22.8963295822
 10
17.346750945
 20
22.9098415579
 10
17.3494790731
 20
22.9233957219
 10
17.3514673822
 20
22.9369820074
 10
17.3527143955
 20
22.9505903202
 10
17.3532191871
 20
22.9642105515
 10
17.3532311877
 20
22.966647051
  0
LWPOLYLINE
  5
2E2
100
AcDbEntity
  8
RACCORDO
100
AcDbPolyline
 62
7
  6
CONTINUOUS
 90
13
 70
0
 10
6.3241414189
 20
17.5122821726
 10
6.3014198418
 20
17.5002662258
 10
6.2804803819
 20
17.4876483752
 10
6.261323039
 20
17.4744286209
 10
6.2438807441
 20
17.460544924
 10
6.2282205663
 20
17.4460593233
 10
6.2145437131
 20
17.431157935
 10
6.2028757766
 20
17.4158353939
 10
6.1931911648
 20
17.4000970651
 10
6.1856143089
 20
17.3841451603
 10
6.1801724067
 20
17.3679769236
 10
6.1768382605
 20
17.351595111
 10
6.1756526353
 20
17.3344857773
  0
LINE
  5
2E3
100
AcDbEntity
  8
218
100
AcDbLine
 62
250
  6
CONTINUOUS
 10
17.0725709883
 20
22.6194098823
 11
12.9382757961
 21
20.5160756795
  0
LINE
  5
2E4
100
AcDbEntity
  8
RACCORDO
100
AcDbLine
 62
7
  6
CONTINUOUS
 10
12.6173800768
 20
20.020480783
 11
8.0211859991
 21
17.7223837442
  0
LINE
  5
2E5
100
AcDbEntity
  8
0
100
AcDbLine
 62
7
  6
CONTINUOUS
 10
13.5985362979
 20
18.3388521551
 11
10.1933927376
 21
16.6362803749
  0
LINE
  5
2E6
100
AcDbEntity
  8
DRAFT
100
AcDbLine
 62
7
  6
CONTINUOUS
 10
9.2755539742
 20
17.0951997566
 11
12.9709334674
 21
18.8638896758
  0
LINE
  5
2E7
100
AcDbEntity
  8
RACCORDO
100
AcDbLine
 62
7
  6
CONTINUOUS
 10
14.7510411353
 20
19.3698932401
 11
9.6291073648
 21
16.9184230613
  0
LINE
  5
2E8
100
AcDbEntity
  8
268
100
AcDbLine
 62
7
  6
CONTINUOUS
 10
-9.8121789055
 20
25.282388993
 11
-9.8121789055
 21
24.0676554927
  0
LINE
  5
2E9
100
AcDbEntity
  8
268
100
AcDbLine
 62
250
  6
CONTINUOUS
 10
-9.7243109399
 20
25.1758802629
 11
-9.7243109399
 21
23.9609253968
  0
LINE
  5
2EA
100
AcDbEntity
  8
RACCORDO
100
AcDbLine
 62
250
  6
CONTINUOUS
 10
3.9553220073
 20
18.7116064185
 11
3.9289435747
 21
18.6776965676
  0
LWPOLYLINE
  5
2EB
100
AcDbEntity
  8
RACCORDO
100
AcDbPolyline
 62
7
  6
CONTINUOUS
 90
13
 70
0
 10
3.9710643501
 20
18.640506773
 10
3.9537169776
 20
18.618284221
 10
3.9369849021
 20
18.5941589621
 10
3.9211661732
 20
18.5684250635
 10
3.9064913757
 20
18.5413382694
 10
3.8932514712
 20
18.5133512333
 10
3.8817465656
 20
18.4851276235
 10
3.8720894252
 20
18.4570983258
 10
3.8643385693
 20
18.4296813205
 10
3.8585513263
 20
18.4035442588
 10
3.8546449646
 20
18.3791529388
 10
3.8524495429
 20
18.3567492854
 10
3.8517686167
 20
18.3366064185
  0
LINE
  5
2EC
100
AcDbEntity
  8
RACCORDO
100
AcDbLine
 62
250
  6
CONTINUOUS
 10
3.9553220073
 20
18.7116064185
 11
4.4856520931
 21
19.3517714615
  0
LINE
  5
2ED
100
AcDbEntity
  8
RACCORDO
100
AcDbLine
 62
7
  6
CONTINUOUS
 10
3.9710643501
 20
18.640506773
 11
4.5013944359
 21
19.2806718159
  0
LINE
  5
2EE
100
AcDbEntity
  8
RACCORDO
100
AcDbLine
 62
7
  6
CONTINUOUS
 10
17.5671275451
 20
17.5456070489
 11
12.9709334674
 21
15.24751001
  0
LWPOLYLINE
  5
2EF
100
AcDbEntity
  8
RACCORDO
100
AcDbPolyline
 62
7
  6
CONTINUOUS
 90
12
 70
0
 10
17.5671275451
 20
17.5456070489
 10
17.5904136783
 20
17.5562901201
 10
17.6134052933
 20
17.5650125216
 10
17.6361023899
 20
17.5717742536
 10
17.6585993683
 20
17.5765874444
 10
17.6808018284
 20
17.5794399655
 10
17.7024265701
 20
17.5802954321
 10
17.723466193
 20
17.5791282624
 10
17.7439280974
 20
17.5759640381
 10
17.7635512847
 20
17.5708431202
 10
17.7823250111
 20
17.5637404436
 10
17.7907365458
 20
17.559806841
  0
LWPOLYLINE
  5
2F0
100
AcDbEntity
  8
RACCORDO
100
AcDbPolyline
 62
7
  6
CONTINUOUS
 90
12
 70
0
 10
18.9936818224
 20
17.2485728965
 10
19.0396965939
 20
17.2687201285
 10
19.0850911462
 20
17.2850215141
 10
19.1298654796
 20
17.2974770534
 10
19.1742013859
 20
17.3061066394
 10
19.2179170731
 20
17.3108903791
 10
19.2604671652
 20
17.3117685927
 10
19.3018370598
 20
17.3086923533
 10
19.3420413592
 20
17.3017105878
 10
19.3805784935
 20
17.2909103974
 10
19.4174275773
 20
17.2762439464
 10
19.4285755758
 20
17.2709257889
  0
LINE
  5
2F1
100
AcDbEntity
  8
DRAFT
100
AcDbLine
 62
7
  6
CONTINUOUS
 10
22.5789104262
 20
-21.1967462067
 11
23.3126878812
 21
-21.5636349342
  0
LINE
  5
2F2
100
AcDbEntity
  8
DRAFT
100
AcDbLine
 62
7
  6
CONTINUOUS
 10
18.3803003435
 20
-18.3935951939
 11
19.6896729609
 21
-19.0482815027
  0
LWPOLYLINE
  5
2F3
100
AcDbEntity
  8
RACCORDO
100
AcDbPolyline
 62
250
  6
CONTINUOUS
 90
5
 70
0
 10
1.1210330084
 20
18.1077801346
 10
1.1233279604
 20
18.1143832005
 10
1.1255909485
 20
18.1215451356
 10
1.1278787859
 20
18.1292790266
 10
1.1328169771
 20
18.1466311317
  0
LWPOLYLINE
  5
2F4
100
AcDbEntity
  8
RACCORDO
100
AcDbPolyline
 62
250
  6
CONTINUOUS
 90
12
 70
0
 10
2.3643317496
 20
18.2911112897
 10
2.3513868152
 20
18.2618312673
 10
2.3356406942
 20
18.2344769772
 10
2.3173424244
 20
18.2095267353
 10
2.2967715131
 20
18.1874077507
 10
2.2742792077
 20
18.1685389271
 10
2.2502958361
 20
18.1532974586
 10
2.225252367
 20
18.1419521837
 10
2.1995617689
 20
18.1346853626
 10
2.1736661145
 20
18.1316217489
 10
2.1480102865
 20
18.1328133637
 10
2.1368543017
 20
18.1346947483
  0
LWPOLYLINE
  5
2F5
100
AcDbEntity
  8
RACCORDO
100
AcDbPolyline
 62
250
  6
CONTINUOUS
 90
5
 70
0
 10
3.9289435747
 20
18.6776965676
 10
3.9044932392
 20
18.6424813117
 10
3.8819710008
 20
18.6059606511
 10
3.8612526827
 20
18.567862885
 10
3.8424624617
 20
18.5284597142
  0
LINE
  5
2F6
100
AcDbEntity
  8
PREM_14013
100
AcDbLine
 62
7
  6
CONTINUOUS
 10
9.8692743047
 20
23.419460175
 11
10.2120404257
 21
23.8890668058
  0
LINE
  5
2F7
100
AcDbEntity
  8
PREM_14013
100
AcDbLine
 62
7
  6
CONTINUOUS
 10
10.5268517738
 20
23.2994686419
 11
10.8696178948
 21
23.7690752727
  0
LINE
  5
2F8
100
AcDbEntity
  8
RACCORDO
100
AcDbLine
 62
7
  6
CONTINUOUS
 10
12.5507303242
 20
14.3989877199
 11
18.1729784902
 21
17.2426815763
  0
LINE
  5
2F9
100
AcDbEntity
  8
RACCORDO
100
AcDbLine
 62
7
  6
CONTINUOUS
 10
14.0965669356
 20
12.9440127671
 11
16.2178872791
 21
14.0046729389
  0
LINE
  5
2FA
100
AcDbEntity
  8
RACCORDO
100
AcDbLine
 62
250
  6
CONTINUOUS
 10
14.2083703345
 20
12.9369123203
 11
16.329690678
 21
13.9975724921
  0
LINE
  5
2FB
100
AcDbEntity
  8
RACCORDO
100
AcDbLine
 62
7
  6
CONTINUOUS
 10
18.5244955369
 20
16.087108641
 11
12.5507303242
 21
13.1940668872
  0
LINE
  5
2FC
100
AcDbEntity
  8
RACCORDO
100
AcDbLine
 62
7
  6
CONTINUOUS
 10
18.5230713501
 20
17.0233283716
 11
18.9936818224
 21
17.2485728965
  0
LWPOLYLINE
  5
2FD
100
AcDbEntity
  8
RACCORDO
100
AcDbPolyline
 62
250
  6
CONTINUOUS
 90
7
 70
0
 10
16.2178872791
 20
14.0046729389
 10
16.2227647157
 20
14.0069392666
 10
16.2422117637
 20
14.0129442687
 10
16.2630297094
 20
14.0149196238
 10
16.2847820574
 20
14.0129239464
 10
16.3071299118
 20
14.0070824498
 10
16.329690678
 20
13.9975724921
  0
LWPOLYLINE
  5
2FE
100
AcDbEntity
  8
RACCORDO
100
AcDbPolyline
 62
250
  6
CONTINUOUS
 90
7
 70
0
 10
14.0967514377
 20
12.9441047647
 10
14.1014443721
 20
12.9462790948
 10
14.1208914201
 20
12.952284097
 10
14.1417093658
 20
12.9542594521
 10
14.1634617139
 20
12.9522637746
 10
14.1858095682
 20
12.9464222781
 10
14.2083703345
 20
12.9369123203
  0
LINE
  5
2FF
100
AcDbEntity
  8
RACCORDO
100
AcDbLine
 62
7
  6
CONTINUOUS
 10
17.4585289383
 20
13.4961555082
 11
22.1578823373
 21
15.6664726391
  0
LWPOLYLINE
  5
300
100
AcDbEntity
  8
RACCORDO
100
AcDbPolyline
 62
250
  6
CONTINUOUS
 90
13
 70
0
 10
17.5608292805
 20
10.5251500043
 10
17.5906416271
 20
10.5337278734
 10
17.601554302
 20
10.536841291
 10
17.613025481
 20
10.5402005021
 10
17.625078119
 20
10.5437975386
 10
17.6376892609
 20
10.5476403686
 10
17.6508638219
 20
10.5518677198
 10
17.664586926
 20
10.5564597932
 10
17.6788734492
 20
10.5614363878
 10
17.693772934
 20
10.5669956285
 10
17.7093018948
 20
10.5732035567
 10
17.7254438173
 20
10.579994131
 10
17.7421987014
 20
10.5873673514
  0
LINE
  5
301
100
AcDbEntity
  8
268
100
AcDbLine
 62
250
  6
CONTINUOUS
 10
-3.9318018718
 20
21.0646708628
 11
-3.9318018718
 21
22.2796257288
  0
LINE
  5
302
100
AcDbEntity
  8
268
100
AcDbLine
 62
7
  6
CONTINUOUS
 10
-3.5753652124
 20
25.2412351213
 11
-3.5753652124
 21
26.5679155565
  0
LINE
  5
303
100
AcDbEntity
  8
268
100
AcDbLine
 62
250
  6
CONTINUOUS
 10
-3.5087755202
 20
21.0663097103
 11
-3.5087755202
 21
22.2805131831
  0
LINE
  5
304
100
AcDbEntity
  8
268
100
AcDbLine
 62
7
  6
CONTINUOUS
 10
-3.2218118218
 20
25.8385806719
 11
-3.2218118218
 21
26.3911388612
  0
LINE
  5
305
100
AcDbEntity
  8
268
100
AcDbLine
 62
250
  6
CONTINUOUS
 10
-3.1511011437
 20
28.0073471587
 11
-3.1511011437
 21
26.7755129773
  0
LINE
  5
306
100
AcDbEntity
  8
268
100
AcDbLine
 62
7
  6
CONTINUOUS
 10
-3.063233178
 20
28.1123443723
 11
-3.063233178
 21
26.8799757665
  0
LINE
  5
307
100
AcDbEntity
  8
268
100
AcDbLine
 62
7
  6
CONTINUOUS
 10
-3.0096797874
 20
22.5307098563
 11
-3.0096797874
 21
21.318274291
  0
LWPOLYLINE
  5
308
100
AcDbEntity
  8
RACCORDO
100
AcDbPolyline
 62
250
  6
CONTINUOUS
 90
3
 70
0
 10
1.1328169771
 20
18.1466311317
 10
1.1355855891
 20
18.156050821
 10
1.1386635291
 20
18.1658677663
  0
LWPOLYLINE
  5
309
100
AcDbEntity
  8
RACCORDO
100
AcDbPolyline
 62
250
  6
CONTINUOUS
 90
18
 70
0
 10
1.1386635291
 20
18.1658677663
 10
1.1421511486
 20
18.1760851854
 10
1.1461206185
 20
18.1864966004
 10
1.1506420072
 20
18.1969348655
 10
1.1557980646
 20
18.2073429215
 10
1.1616454598
 20
18.2176680536
 10
1.1682051598
 20
18.227842165
 10
1.1754888519
 20
18.2378157652
 10
1.1835021281
 20
18.2475570979
 10
1.1921994593
 20
18.2569852924
 10
1.2015129228
 20
18.2660186727
 10
1.2113985566
 20
18.2746357341
 10
1.2217859293
 20
18.2828193965
 10
1.2326171928
 20
18.2905634335
 10
1.2438564218
 20
18.2978825857
 10
1.2554121417
 20
18.3047625844
 10
1.2671670594
 20
18.3111762952
 10
1.2790361131
 20
18.3171195357
  0
LWPOLYLINE
  5
30A
100
AcDbEntity
  8
RACCORDO
100
AcDbPolyline
 62
250
  6
CONTINUOUS
 90
3
 70
0
 10
3.8424624617
 20
18.5284597142
 10
3.8259728673
 20
18.4885662399
 10
3.8118172692
 20
18.4481697612
  0
LWPOLYLINE
  5
30B
100
AcDbEntity
  8
RACCORDO
100
AcDbPolyline
 62
250
  6
CONTINUOUS
 90
12
 70
0
 10
2.8946618355
 20
18.1812763326
 10
2.8816124919
 20
18.1517903489
 10
2.8657617279
 20
18.1243212277
 10
2.8473807545
 20
18.0993389733
 10
2.8267840753
 20
18.0772710389
 10
2.8043241051
 20
18.0584950131
 10
2.7803851402
 20
18.0433321588
 10
2.755376783
 20
18.0320419167
 10
2.7297269334
 20
18.024817466
 10
2.7038744674
 20
18.021782419
 10
2.6782617279
 20
18.0229887063
 10
2.6671843876
 20
18.0248597913
  0
LINE
  5
30C
100
AcDbEntity
  8
218
100
AcDbLine
 62
7
  6
CONTINUOUS
 10
18.2178359663
 20
17.3462571307
 11
18.2684079746
 21
17.3789666787
  0
LWPOLYLINE
  5
30D
100
AcDbEntity
  8
RACCORDO
100
AcDbPolyline
 62
250
  6
CONTINUOUS
 90
13
 70
0
 10
14.2083703345
 20
12.9369123203
 10
14.1852963456
 20
12.923523084
 10
14.162617159
 20
12.9066584575
 10
14.1407208219
 20
12.8866069994
 10
14.1199819868
 20
12.8637117955
 10
14.1007555008
 20
12.8383645892
 10
14.0833703345
 20
12.8109990783
 10
14.0681239528
 20
12.7820834941
 10
14.0552772255
 20
12.7521125903
 10
14.0450499639
 20
12.7215991775
 10
14.037617159
 20
12.6910653486
 10
14.0331059883
 20
12.6610335458
 10
14.0315936392
 20
12.6320176217
  0
LWPOLYLINE
  5
30E
100
AcDbEntity
  8
RACCORDO
100
AcDbPolyline
 62
250
  6
CONTINUOUS
 90
13
 70
0
 10
15.5518732187
 20
12.2651608782
 10
15.5287992298
 20
12.2517716419
 10
15.5061200432
 20
12.2349070154
 10
15.4842237062
 20
12.2148555572
 10
15.4634848711
 20
12.1919603534
 10
15.4442583851
 20
12.1666131471
 10
15.4268732187
 20
12.1392476361
 10
15.411626837
 20
12.110332052
 10
15.3987801098
 20
12.0803611482
 10
15.3885528481
 20
12.0498477354
 10
15.3811200432
 20
12.0193139065
 10
15.3766088726
 20
11.9892821037
 10
15.3750965234
 20
11.9602661796
  0
LWPOLYLINE
  5
30F
100
AcDbEntity
  8
RACCORDO
100
AcDbPolyline
 62
250
  6
CONTINUOUS
 90
13
 70
0
 10
14.5948109211
 20
11.33723013
 10
14.613492766
 20
11.3476867595
 10
14.6318909998
 20
11.3610113196
 10
14.6496837996
 20
11.3769707364
 10
14.6665599325
 20
11.3952858467
 10
14.6822242004
 20
11.4156362816
 10
14.6964026029
 20
11.4376660701
 10
14.7088471305
 20
11.4609898657
 10
14.7193401029
 20
11.4851996872
 10
14.7276979763
 20
11.509872055
 10
14.7337745543
 20
11.5345753986
 10
14.737463545
 20
11.5588776057
 10
14.7387004204
 20
11.5823535804
  0
LWPOLYLINE
  5
310
100
AcDbEntity
  8
RACCORDO
100
AcDbPolyline
 62
250
  6
CONTINUOUS
 90
16
 70
0
 10
14.5948109211
 20
11.6486257432
 10
14.5624993599
 20
11.6311836912
 10
14.5346803412
 20
11.6126777831
 10
14.511353865
 20
11.5931080187
 10
14.4924141265
 20
11.5722387486
 10
14.4779669305
 20
11.5503056223
 10
14.4683296916
 20
11.5280155888
 10
14.4636198492
 20
11.5053861942
 10
14.4637199639
 20
11.4823998923
 10
14.4685951326
 20
11.4597109938
 10
14.4783537785
 20
11.4373117344
 10
14.4928874784
 20
11.4152098783
 10
14.5118360599
 20
11.3940830294
 10
14.5350794654
 20
11.3741570557
 10
14.5627377525
 20
11.3552060893
 10
14.5948109211
 20
11.33723013
  0
LINE
  5
311
100
AcDbEntity
  8
RACCORDO
100
AcDbLine
 62
7
  6
CONTINUOUS
 10
17.3910517423
 20
12.0255463931
 11
23.2692196489
 21
15.1969528339
  0
LINE
  5
312
100
AcDbEntity
  8
DRAFT
100
AcDbLine
 62
7
  6
CONTINUOUS
 10
17.6265566586
 20
11.6921463195
 11
23.3126878812
 21
14.636226944
  0
LINE
  5
313
100
AcDbEntity
  8
RACCORDO
100
AcDbLine
 62
250
  6
CONTINUOUS
 10
15.5518732187
 20
12.2651608782
 11
17.6731935623
 21
13.3258210499
  0
LINE
  5
314
100
AcDbEntity
  8
RACCORDO
100
AcDbLine
 62
250
  6
CONTINUOUS
 10
15.728649914
 20
11.9602661796
 11
17.8499702576
 21
13.0209263513
  0
LWPOLYLINE
  5
315
100
AcDbEntity
  8
RACCORDO
100
AcDbPolyline
 62
250
  6
CONTINUOUS
 90
24
 70
0
 10
17.2370740067
 20
11.0285608927
 10
17.2467714682
 20
11.0332491236
 10
17.2563779163
 20
11.0382212653
 10
17.2658886937
 20
11.043462987
 10
17.2752811292
 20
11.0489434829
 10
17.284503908
 20
11.0546467879
 10
17.2934881484
 20
11.0605730644
 10
17.3021717836
 20
11.0667033282
 10
17.3105382918
 20
11.0730204018
 10
17.318581134
 20
11.0795249707
 10
17.326248022
 20
11.0862198093
 10
17.3335135913
 20
11.0930761701
 10
17.3404021976
 20
11.1000467037
 10
17.3468393307
 20
11.1071418626
 10
17.3528001515
 20
11.1143292756
 10
17.3583758329
 20
11.1215055548
 10
17.3635089723
 20
11.1286609043
 10
17.3681638854
 20
11.1358094014
 10
17.3724786887
 20
11.1428987262
 10
17.3764557575
 20
11.1499636688
 10
17.3800930424
 20
11.1570039631
 10
17.3835142676
 20
11.1639221958
 10
17.3867041986
 20
11.1707201994
 10
17.3925461523
 20
11.1840135588
  0
LINE
  5
316
100
AcDbEntity
  8
RACCORDO
100
AcDbLine
 62
250
  6
CONTINUOUS
 10
14.6601977697
 20
11.6799213274
 11
14.5948109211
 21
11.6486257432
  0
LINE
  5
317
100
AcDbEntity
  8
RACCORDO
100
AcDbLine
 62
250
  6
CONTINUOUS
 10
16.4357566952
 20
10.9037997
 11
17.1428634764
 21
11.2422365609
  0
LINE
  5
318
100
AcDbEntity
  8
RACCORDO
100
AcDbLine
 62
250
  6
CONTINUOUS
 10
16.5264624359
 20
10.6934052414
 11
17.2370738008
 21
11.0285599951
  0
LINE
  5
319
100
AcDbEntity
  8
RACCORDO
100
AcDbLine
 62
250
  6
CONTINUOUS
 10
17.4010403816
 20
11.2032335549
 11
18.0265853928
 21
11.4921319524
  0
LINE
  5
31A
100
AcDbEntity
  8
RACCORDO
100
AcDbLine
 62
250
  6
CONTINUOUS
 10
15.8682372649
 20
10.4953352617
 11
16.1166020333
 21
10.6100008666
  0
LWPOLYLINE
  5
31B
100
AcDbEntity
  8
RACCORDO
100
AcDbPolyline
 62
250
  6
CONTINUOUS
 90
4
 70
0
 10
16.7470740738
 20
10.1643933176
 10
16.8269722314
 20
10.200684256
 10
16.9068784283
 20
10.2369844028
 10
17.4662973348
 20
10.4912748267
  0
LWPOLYLINE
  5
31C
100
AcDbEntity
  8
RACCORDO
100
AcDbPolyline
 62
250
  6
CONTINUOUS
 90
14
 70
0
 10
17.4662973348
 20
10.4912748267
 10
17.4722244094
 20
10.4939381571
 10
17.4783326166
 20
10.4965816849
 10
17.4846219564
 20
10.4992054102
 10
17.4910695496
 20
10.5018047965
 10
17.4976982753
 20
10.5043843804
 10
17.5045767714
 20
10.5069577713
 10
17.5117081327
 20
10.5095230694
 10
17.5190892643
 20
10.5120821746
 10
17.5267795197
 20
10.5146543968
 10
17.5347734122
 20
10.517233446
 10
17.5430764284
 20
10.5198256123
 10
17.5517643815
 20
10.5224690754
 10
17.5608292805
 20
10.5251500043
  0
LWPOLYLINE
  5
31D
100
AcDbEntity
  8
RACCORDO
100
AcDbPolyline
 62
250
  6
CONTINUOUS
 90
13
 70
0
 10
15.728649914
 20
11.6089522075
 10
15.704063576
 20
11.5981713876
 10
15.6768732187
 20
11.5890873797
 10
15.6475440768
 20
11.5818556136
 10
15.61657798
 20
11.5765998268
 10
15.5845047668
 20
11.5734099475
 10
15.5518732187
 20
11.5723405551
 10
15.5192416707
 20
11.5734099475
 10
15.4871684574
 20
11.5765998268
 10
15.4562023606
 20
11.5818556136
 10
15.4268732187
 20
11.5890873797
 10
15.3996828615
 20
11.5981713876
 10
15.3750965234
 20
11.6089522075
  0
LWPOLYLINE
  5
31E
100
AcDbEntity
  8
RACCORDO
100
AcDbPolyline
 62
250
  6
CONTINUOUS
 90
13
 70
0
 10
16.4357566952
 20
11.2125055981
 10
16.4111703572
 20
11.2017247782
 10
16.3839799999
 20
11.1926407702
 10
16.354650858
 20
11.1854090042
 10
16.3236847612
 20
11.1801532174
 10
16.291611548
 20
11.1769633381
 10
16.2589799999
 20
11.1758939457
 10
16.2263484518
 20
11.1769633381
 10
16.1942752386
 20
11.1801532174
 10
16.1633091418
 20
11.1854090042
 10
16.1339799999
 20
11.1926407702
 10
16.1067896427
 20
11.2017247782
 10
16.0822033046
 20
11.2125055981
  0
LWPOLYLINE
  5
31F
100
AcDbEntity
  8
RACCORDO
100
AcDbPolyline
 62
250
  6
CONTINUOUS
 90
13
 70
0
 10
15.728649914
 20
11.9602661796
 10
15.7039589775
 20
11.9494452509
 10
15.6766345348
 20
11.9403325373
 10
15.6471456392
 20
11.9330872677
 10
15.6159959151
 20
11.9278361927
 10
15.5837257445
 20
11.9246732619
 10
15.5509040132
 20
11.9236554666
 10
15.5180268877
 20
11.9248053994
 10
15.4857375519
 20
11.9281077795
 10
15.4548078447
 20
11.9334608716
 10
15.4258046017
 20
11.9407115981
 10
15.3991028359
 20
11.9497085696
 10
15.3750965234
 20
11.9602661796
  0
LWPOLYLINE
  5
320
100
AcDbEntity
  8
RACCORDO
100
AcDbPolyline
 62
250
  6
CONTINUOUS
 90
4
 70
0
 10
17.2818166896
 20
11.3085087237
 10
17.263584877
 20
11.3012318912
 10
17.2456994302
 20
11.2969952145
 10
17.228459621
 20
11.2958695845
  0
LINE
  5
321
100
AcDbEntity
  8
RACCORDO
100
AcDbLine
 62
250
  6
CONTINUOUS
 10
11.5580218727
 20
8.3457956872
 11
15.6717644385
 21
9.8986353541
  0
LINE
  5
322
100
AcDbEntity
  8
RACCORDO
100
AcDbLine
 62
250
  6
CONTINUOUS
 10
12.0644999187
 20
7.3445154029
 11
16.1782424845
 21
8.8973550698
  0
LINE
  5
323
100
AcDbEntity
  8
DRAFT
100
AcDbLine
 62
7
  6
CONTINUOUS
 10
16.2219522156
 20
9.8593975767
 11
16.68959431
 21
10.0160784805
  0
LWPOLYLINE
  5
324
100
AcDbEntity
  8
RACCORDO
100
AcDbPolyline
 62
250
  6
CONTINUOUS
 90
13
 70
0
 10
15.728649914
 20
-29.6906519319
 10
15.7156005704
 20
-29.6711905935
 10
15.6997498065
 20
-29.6505498949
 10
15.6813688331
 20
-29.6290830041
 10
15.6607721538
 20
-29.6071572256
 10
15.6383121836
 20
-29.5851477156
 10
15.6143732187
 20
-29.5634310628
 10
15.5893648615
 20
-29.5423788452
 10
15.5637150119
 20
-29.5223512721
 10
15.5378625459
 20
-29.5036910208
 10
15.5122498065
 20
-29.4867173734
 10
15.4873150345
 20
-29.4717207537
 10
15.4634848711
 20
-29.4589577581
  0
LWPOLYLINE
  5
325
100
AcDbEntity
  8
RACCORDO
100
AcDbPolyline
 62
250
  6
CONTINUOUS
 90
13
 70
0
 10
16.2589799999
 20
-29.050486889
 10
16.2459306563
 20
-29.0310255506
 10
16.2300798923
 20
-29.010384852
 10
16.211698919
 20
-28.9889179612
 10
16.1911022397
 20
-28.9669921827
 10
16.1686422695
 20
-28.9449826726
 10
16.1447033046
 20
-28.9232660198
 10
16.1196949474
 20
-28.9022138023
 10
16.0940450978
 20
-28.8821862292
 10
16.0681926318
 20
-28.8635259779
 10
16.0425798923
 20
-28.8465523305
 10
16.0176451204
 20
-28.8315557108
 10
15.993814957
 20
-28.8187927151
  0
LWPOLYLINE
  5
326
100
AcDbEntity
  8
268
100
AcDbPolyline
 62
7
  6
CONTINUOUS
 90
24
 70
0
 10
-0.4640953752
 20
26.8820214052
 10
-0.4646685596
 20
26.9164938114
 10
-0.4663676726
 20
26.9502437324
 10
-0.4691927141
 20
26.9832711681
 10
-0.4731531487
 20
27.0156327255
 10
-0.4782395118
 20
27.0472717977
 10
-0.4844234102
 20
27.0780185643
 10
-0.4917060256
 20
27.1078540917
 10
-0.5000861763
 20
27.1367973134
 10
-0.5095319235
 20
27.1647352094
 10
-0.520055782
 20
27.1916813722
 10
-0.5316452371
 20
27.2176222091
 10
-0.5442308058
 20
27.242403922
 10
-0.5578059917
 20
27.2660012234
 10
-0.5723772912
 20
27.2884394007
 10
-0.5878947113
 20
27.309640518
 10
-0.6043779986
 20
27.3296176079
 10
-0.6218074065
 20
27.3483576378
 10
-0.6400737011
 20
27.3657435733
 10
-0.659162357
 20
27.3817524997
 10
-0.6790878997
 20
27.3964073317
 10
-0.6997846722
 20
27.4096597801
 10
-0.7212771868
 20
27.4215156414
 10
-0.7239978791
 20
27.4228998646
  0
LWPOLYLINE
  5
327
100
AcDbEntity
  8
218
100
AcDbPolyline
 62
7
  6
CONTINUOUS
 90
4
 70
0
 10
-0.5624449457
 20
27.4062743457
 10
-0.5623161995
 20
27.392969386
 10
-0.56112971
 20
27.3637535665
 10
-0.5590003292
 20
27.3381473644
  0
LINE
  5
328
100
AcDbEntity
  8
268
100
AcDbLine
 62
7
  6
CONTINUOUS
 10
-2.0094457265
 20
20.3012233324
 11
-2.0094457265
 21
20.5545947262
  0
LINE
  5
329
100
AcDbEntity
  8
268
100
AcDbLine
 62
7
  6
CONTINUOUS
 10
-1.3064527722
 20
19.3946640778
 11
-1.3064527722
 21
19.8469950534
  0
LINE
  5
32A
100
AcDbEntity
  8
268
100
AcDbLine
 62
7
  6
CONTINUOUS
 10
-0.4640953752
 20
26.8820214052
 11
-0.4640953752
 21
26.6112211126
  0
LINE
  5
32B
100
AcDbEntity
  8
268
100
AcDbLine
 62
7
  6
CONTINUOUS
 10
-0.4036692643
 20
19.7517064951
 11
-0.4036692643
 21
19.4983351013
  0
LINE
  5
32C
100
AcDbEntity
  8
268
100
AcDbLine
 62
7
  6
CONTINUOUS
 10
-0.0044759674
 20
17.7258907717
 11
-0.0044759674
 21
17.7014952665
  0
LINE
  5
32D
100
AcDbEntity
  8
218
100
AcDbLine
 62
250
  6
CONTINUOUS
 10
0.2261163191
 20
27.9598055412
 11
0.2261163191
 21
28.3700245841
  0
LINE
  5
32E
100
AcDbEntity
  8
268
100
AcDbLine
 62
7
  6
CONTINUOUS
 10
0.3075513438
 20
18.5876620198
 11
0.3075513438
 21
19.2248315785
  0
LWPOLYLINE
  5
32F
100
AcDbEntity
  8
RACCORDO
100
AcDbPolyline
 62
250
  6
CONTINUOUS
 90
6
 70
0
 10
3.8118172692
 20
18.4481697612
 10
3.7999622977
 20
18.4072829792
 10
3.7906803741
 20
18.3667590987
 10
3.7840623055
 20
18.3268825213
 10
3.7800172848
 20
18.2873688453
 10
3.778545312
 20
18.2482180709
  0
LWPOLYLINE
  5
330
100
AcDbEntity
  8
218
100
AcDbPolyline
 62
7
  6
CONTINUOUS
 90
126
 70
0
 10
17.7020630242
 20
17.611021027
 10
17.7440420473
 20
17.6484398612
 10
17.7845811138
 20
17.6849154668
 10
17.8236841445
 20
17.7204502211
 10
17.8613472185
 20
17.7550417469
 10
17.8976894739
 20
17.7887642228
 10
17.9327145707
 20
17.821619908
 10
17.9664188489
 20
17.8536065434
 10
17.9989104668
 20
17.8847915303
 10
18.0301927684
 20
17.9151769638
 10
18.0602624097
 20
17.9447607489
 10
18.0892175161
 20
17.9736040024
 10
18.1170611659
 20
18.0017087089
 10
18.1437902808
 20
18.0290728838
 10
18.1694937509
 20
18.0557516893
 10
18.194174422
 20
18.0817470529
 10
18.2178294483
 20
18.1070570472
 10
18.240539182
 20
18.1317310517
 10
18.2623062333
 20
18.1557709688
 10
18.2831279919
 20
18.1791748961
 10
18.3030769803
 20
18.2019865065
 10
18.3221555622
 20
18.2242077223
 10
18.3403613737
 20
18.2458366212
 10
18.3577598452
 20
18.2669111092
 10
18.3743530546
 20
18.2874331691
 10
18.390138924
 20
18.3074008181
 10
18.40517665
 20
18.3268460137
 10
18.4194679373
 20
18.345770813
 10
18.4330110813
 20
18.3641731589
 10
18.4458601654
 20
18.3820788376
 10
18.4580163998
 20
18.3994899752
 10
18.4694785744
 20
18.4164044457
 10
18.4802971418
 20
18.4328416569
 10
18.4904725549
 20
18.4488035438
 10
18.5000043607
 20
18.4642881715
 10
18.5089416539
 20
18.4793091433
 10
18.5172841719
 20
18.4938683403
 10
18.5250321771
 20
18.5079638813
 10
18.532235551
 20
18.5216037267
 10
18.5388928622
 20
18.5347885826
 10
18.5450055421
 20
18.5475177428
 10
18.5506277661
 20
18.5597970492
 10
18.5557549042
 20
18.5716173602
 10
18.5603915865
 20
18.5829878173
 10
18.5646058784
 20
18.5939416877
 10
18.568395839
 20
18.6044655402
 10
18.5717634092
 20
18.6145728059
 10
18.574782478
 20
18.6243370457
 10
18.5774583523
 20
18.6337559806
 10
18.5797857252
 20
18.6428318896
 10
18.581822565
 20
18.6516451706
 10
18.5835762708
 20
18.6602008196
 10
18.5850394436
 20
18.6684938405
 10
18.5862478539
 20
18.6765896432
 10
18.5872077878
 20
18.6844924773
 10
18.5879129593
 20
18.6921980932
 10
18.5883802806
 20
18.6997591518
 10
18.5886154123
 20
18.707178825
 10
18.5886126938
 20
18.7144539411
 10
18.5883720557
 20
18.7216276449
 10
18.587899148
 20
18.728702668
 10
18.5871883207
 20
18.7356762789
 10
18.5862225536
 20
18.742583428
 10
18.5850081684
 20
18.749426247
 10
18.5835388435
 20
18.7562026042
 10
18.5817785939
 20
18.7629410542
 10
18.579735079
 20
18.7696439388
 10
18.5774006395
 20
18.7763089162
 10
18.5747163125
 20
18.7829575152
 10
18.5716872776
 20
18.7895981286
 10
18.5683083553
 20
18.7962223637
 10
18.5645050438
 20
18.8028265711
 10
18.5602749262
 20
18.809422542
 10
18.5556204194
 20
18.8159984852
 10
18.550474273
 20
18.8225153781
 10
18.5448320841
 20
18.8289769613
 10
18.5386982556
 20
18.8353794942
 10
18.5320187457
 20
18.8416727326
 10
18.5247922755
 20
18.8478543915
 10
18.5170201239
 20
18.853926756
 10
18.5086520865
 20
18.8598464375
 10
18.49968776
 20
18.8656114112
 10
18.4901275477
 20
18.871223702
 10
18.4799224551
 20
18.8766459962
 10
18.4690729956
 20
18.8818767908
 10
18.4575786559
 20
18.8869175889
 10
18.4453889017
 20
18.8917355854
 10
18.4325049382
 20
18.8963299188
 10
18.4189255604
 20
18.9007014508
 10
18.4045966192
 20
18.9048199614
 10
18.3895198299
 20
18.9086851618
 10
18.3736934773
 20
18.912297341
 10
18.3570582673
 20
18.9156271455
 10
18.3396162878
 20
18.9186747488
 10
18.3213654508
 20
18.9214399775
 10
18.3022401982
 20
18.9238929578
 10
18.2822428842
 20
18.9260342206
 10
18.2613711545
 20
18.927863235
 10
18.2395523887
 20
18.9293485344
 10
18.2167892641
 20
18.9304909232
 10
18.1930791034
 20
18.9312895969
 10
18.1683412538
 20
18.9317106762
 10
18.1425783365
 20
18.9317551754
 10
18.1157877304
 20
18.9314220802
 10
18.0878809187
 20
18.9306744671
 10
18.0588618887
 20
18.9295136109
 10
18.0287266531
 20
18.9279382368
 10
17.9973747332
 20
18.9259075971
 10
17.9648074838
 20
18.9234228867
 10
17.9310235502
 20
18.9204829107
 10
17.8959183889
 20
18.9170433363
 10
17.8594871009
 20
18.9131042109
 10
17.8217345852
 20
18.9086654872
 10
17.7825709955
 20
18.9036826901
 10
17.742005086
 20
18.8981574927
 10
17.7000281025
 20
18.8920882221
 10
17.6565239351
 20
18.8854253842
 10
17.6115074876
 20
18.8781726919
 10
17.5649638562
 20
18.8703264324
 10
17.5167322201
 20
18.8618259733
 10
17.466812753
 20
18.8526729378
 10
17.4152052812
 20
18.8428657027
 10
17.3617484628
 20
18.832338766
 10
17.3063885173
 20
18.8210702936
 10
17.2491792251
 20
18.8090821196
 10
17.1901205864
 20
18.7963742439
  0
LINE
  5
331
100
AcDbEntity
  8
218
100
AcDbLine
 62
7
  6
CONTINUOUS
 10
17.6638146075
 20
17.5772574863
 11
17.7020630242
 21
17.611021027
  0
LWPOLYLINE
  5
332
100
AcDbEntity
  8
RACCORDO
100
AcDbPolyline
 62
250
  6
CONTINUOUS
 90
7
 70
0
 10
17.1428634764
 20
11.5660589887
 10
17.1644251162
 20
11.5783521577
 10
17.182593132
 20
11.5919473363
 10
17.1970566642
 20
11.6066119073
 10
17.2075682377
 20
11.6220949557
 10
17.2139479964
 20
11.6381315623
 10
17.2160867811
 20
11.6544473363
  0
LWPOLYLINE
  5
333
100
AcDbEntity
  8
RACCORDO
100
AcDbPolyline
 62
250
  6
CONTINUOUS
 90
13
 70
0
 10
15.9383138054
 20
10.6654786879
 10
15.956995898
 20
10.6759354771
 10
15.9753943198
 20
10.6892602317
 10
15.993187241
 20
10.7052198477
 10
16.0100634263
 20
10.7235351321
 10
16.0257276835
 20
10.7438856938
 10
16.0399060257
 20
10.7659155499
 10
16.0523504541
 20
10.7892393391
 10
16.0628433058
 20
10.8134490771
 10
16.07120106
 20
10.8381213013
 10
16.0772775362
 20
10.8628244532
 10
16.0809664556
 20
10.8871264257
 10
16.0822033046
 20
10.9106021383
  0
LWPOLYLINE
  5
334
100
AcDbEntity
  8
RACCORDO
100
AcDbPolyline
 62
250
  6
CONTINUOUS
 90
8
 70
0
 10
17.1428634764
 20
11.2422365609
 10
17.1605906183
 20
11.251361532
 10
17.1760797912
 20
11.2613562426
 10
17.1891817506
 20
11.2720925701
 10
17.1997732384
 20
11.2834258646
 10
17.207769347
 20
11.2952285416
 10
17.2131145853
 20
11.3073932095
 10
17.2157695373
 20
11.319769591
  0
LWPOLYLINE
  5
335
100
AcDbEntity
  8
RACCORDO
100
AcDbPolyline
 62
250
  6
CONTINUOUS
 90
10
 70
0
 10
16.4576983523
 20
9.9941464956
 10
16.4746958888
 20
10.0023183724
 10
16.4916689831
 20
10.0109298735
 10
16.508617635
 20
10.0199809989
 10
16.5256806664
 20
10.0296097782
 10
16.5427192554
 20
10.0396781818
 10
16.5593169367
 20
10.0497721204
 10
16.5754897551
 20
10.0599300328
 10
16.5912216658
 20
10.0701134801
 10
16.6197796038
 20
10.0888211369
  0
LINE
  5
336
100
AcDbEntity
  8
RACCORDO
100
AcDbLine
 62
250
  6
CONTINUOUS
 10
17.7421987014
 20
10.5873673514
 11
18.3803003435
 21
10.8820639053
  0
LINE
  5
337
100
AcDbEntity
  8
RACCORDO
100
AcDbLine
 62
250
  6
CONTINUOUS
 10
16.2219522156
 20
9.8852672146
 11
16.4576983523
 21
9.9941464956
  0
LINE
  5
338
100
AcDbEntity
  8
DRAFT
100
AcDbLine
 62
7
  6
CONTINUOUS
 10
14.6561117291
 20
-9.6005962806
 11
14.9269433388
 21
-9.7360120855
  0
LINE
  5
339
100
AcDbEntity
  8
RACCORDO
100
AcDbLine
 62
250
  6
CONTINUOUS
 10
1.3014923327
 20
18.3446983158
 11
1.3011589512
 21
18.3509078655
  0
LINE
  5
33A
100
AcDbEntity
  8
RACCORDO
100
AcDbLine
 62
7
  6
CONTINUOUS
 10
0.5275265638
 20
17.7324800405
 11
0.5275265638
 21
17.7066104026
  0
LINE
  5
33B
100
AcDbEntity
  8
RACCORDO
100
AcDbLine
 62
7
  6
CONTINUOUS
 10
0.59405217
 20
19.0512510795
 11
0.59405217
 21
19.4025650516
  0
LINE
  5
33C
100
AcDbEntity
  8
RACCORDO
100
AcDbLine
 62
250
  6
CONTINUOUS
 10
0.6672754747
 20
18.9628627318
 11
0.6672754747
 21
19.3141767039
  0
LINE
  5
33D
100
AcDbEntity
  8
268
100
AcDbLine
 62
7
  6
CONTINUOUS
 10
0.808696831
 20
17.566025269
 11
0.808696831
 21
17.3301691579
  0
LINE
  5
33E
100
AcDbEntity
  8
218
100
AcDbLine
 62
7
  6
CONTINUOUS
 10
0.9088265171
 20
28.3022636334
 11
0.9088265171
 21
27.8692509315
  0
LINE
  5
33F
100
AcDbEntity
  8
DRAFT
100
AcDbLine
 62
7
  6
CONTINUOUS
 10
0.9791232849
 20
17.480812042
 11
0.9791232849
 21
17.2449559309
  0
LINE
  5
340
100
AcDbEntity
  8
RACCORDO
100
AcDbLine
 62
7
  6
CONTINUOUS
 10
1.3011589512
 20
18.3509083923
 11
1.3011589512
 21
18.5431891917
  0
LINE
  5
341
100
AcDbEntity
  8
RACCORDO
100
AcDbLine
 62
250
  6
CONTINUOUS
 10
1.3743822559
 20
18.2645126627
 11
1.3743822559
 21
18.5065775393
  0
LINE
  5
342
100
AcDbEntity
  8
268
100
AcDbLine
 62
7
  6
CONTINUOUS
 10
1.3743822559
 20
19.9472385917
 11
1.3743822559
 21
20.8582940768
  0
LINE
  5
343
100
AcDbEntity
  8
PREM_14013
100
AcDbLine
 62
7
  6
CONTINUOUS
 10
1.7348688733
 20
26.9274768655
 11
1.7348688733
 21
26.6256346837
  0
LINE
  5
344
100
AcDbEntity
  8
RACCORDO
100
AcDbLine
 62
250
  6
CONTINUOUS
 10
2.010778359
 20
18.6424252618
 11
2.010778359
 21
18.2911112897
  0
LINE
  5
345
100
AcDbEntity
  8
268
100
AcDbLine
 62
7
  6
CONTINUOUS
 10
2.0773752102
 20
20.9936155746
 11
2.0773752102
 21
20.7326865982
  0
LINE
  5
346
100
AcDbEntity
  8
PREM_14013
100
AcDbLine
 62
7
  6
CONTINUOUS
 10
2.1846135346
 20
26.8057290323
 11
2.1846135346
 21
26.6070949315
  0
LINE
  5
347
100
AcDbEntity
  8
218
100
AcDbLine
 62
7
  6
CONTINUOUS
 10
2.3643317496
 20
28.2428410675
 11
2.3643317496
 21
27.6568182003
  0
LINE
  5
348
100
AcDbEntity
  8
RACCORDO
100
AcDbLine
 62
250
  6
CONTINUOUS
 10
2.3643317496
 20
18.6424252618
 11
2.3643317496
 21
18.2911112897
  0
LINE
  5
349
100
AcDbEntity
  8
268
100
AcDbLine
 62
250
  6
CONTINUOUS
 10
2.4045929077
 20
25.2307254666
 11
2.4045929077
 21
23.9988868883
  0
LINE
  5
34A
100
AcDbEntity
  8
268
100
AcDbLine
 62
7
  6
CONTINUOUS
 10
2.4912303361
 20
25.3351126153
 11
2.4912303361
 21
24.1027440095
  0
LINE
  5
34B
100
AcDbEntity
  8
RACCORDO
100
AcDbLine
 62
250
  6
CONTINUOUS
 10
2.7178851402
 20
17.8946646803
 11
2.7178851402
 21
17.5927612205
  0
LWPOLYLINE
  5
34C
100
AcDbEntity
  8
RACCORDO
100
AcDbPolyline
 62
250
  6
CONTINUOUS
 90
13
 70
0
 10
1.3743822559
 20
18.2645126627
 10
1.3731453714
 20
18.2410365985
 10
1.3694563561
 20
18.2167343105
 10
1.3633797426
 20
18.1920308994
 10
1.3550218267
 20
18.1673584788
 10
1.3445288103
 20
18.1431486242
 10
1.3320842457
 20
18.1198248233
 10
1.3179058197
 20
18.0977950562
 10
1.3022415458
 20
18.0774446644
 10
1.2853654303
 20
18.0591296157
 10
1.2675726744
 20
18.0431702714
 10
1.2491745097
 20
18.0298457827
 10
1.2304927567
 20
18.0193892123
  0
LWPOLYLINE
  5
34D
100
AcDbEntity
  8
RACCORDO
100
AcDbPolyline
 62
250
  6
CONTINUOUS
 90
13
 70
0
 10
2.7178851402
 20
17.5927612205
 10
2.7166482648
 20
17.5692852458
 10
2.712959274
 20
17.5449830388
 10
2.706882696
 20
17.5202796952
 10
2.6985248227
 20
17.4956073273
 10
2.6880318503
 20
17.4713975057
 10
2.6755873227
 20
17.4480737101
 10
2.6614089202
 20
17.4260439217
 10
2.6457446523
 20
17.4056934868
 10
2.6288685193
 20
17.3873783765
 10
2.6110757196
 20
17.3714189597
 10
2.5926774858
 20
17.3580943996
 10
2.573995641
 20
17.3476377701
  0
LWPOLYLINE
  5
34E
100
AcDbEntity
  8
RACCORDO
100
AcDbPolyline
 62
250
  6
CONTINUOUS
 90
8
 70
0
 10
3.8517686167
 20
18.0079746972
 10
3.8514296633
 20
18.0017263663
 10
3.8487333331
 20
17.9893604996
 10
3.8433569848
 20
17.97721961
 10
3.8353462552
 20
17.9654504657
 10
3.8247565346
 20
17.9541528247
 10
3.8116718823
 20
17.943450944
 10
3.7962182209
 20
17.9334897778
  0
LWPOLYLINE
  5
34F
100
AcDbEntity
  8
RACCORDO
100
AcDbPolyline
 62
250
  6
CONTINUOUS
 90
7
 70
0
 10
4.5588753979
 20
19.4401598091
 10
4.5567366132
 20
19.4238440351
 10
4.5503568544
 20
19.4078074285
 10
4.539845281
 20
19.3923243801
 10
4.5253817488
 20
19.3776598091
 10
4.5072137329
 20
19.3640646305
 10
4.4856520931
 20
19.3517714615
  0
LWPOLYLINE
  5
350
100
AcDbEntity
  8
RACCORDO
100
AcDbPolyline
 62
250
  6
CONTINUOUS
 90
7
 70
0
 10
4.5588753979
 20
19.7914737812
 10
4.5565736536
 20
19.7745506157
 10
4.5499688933
 20
19.7584059478
 10
4.5392627091
 20
19.7429410942
 10
4.5247612561
 20
19.7284394727
 10
4.5067673131
 20
19.7150885898
 10
4.4856520931
 20
19.7030854336
  0
LWPOLYLINE
  5
351
100
AcDbEntity
  8
RACCORDO
100
AcDbPolyline
 62
7
  6
CONTINUOUS
 90
8
 70
0
 10
14.6522764338
 20
11.6231927052
 10
14.6519093494
 20
11.6228375763
 10
14.6521041986
 20
11.6231053423
 10
14.6542387303
 20
11.6261076543
 10
14.6574456194
 20
11.6318685516
 10
14.6607595931
 20
11.6399184287
 10
14.6636035493
 20
11.6503133435
 10
14.6652720504
 20
11.662568031
  0
LWPOLYLINE
  5
352
100
AcDbEntity
  8
RACCORDO
100
AcDbPolyline
 62
250
  6
CONTINUOUS
 90
14
 70
0
 10
16.6197796038
 20
10.0888211369
 10
16.644629631
 20
10.1052791523
 10
16.6557987662
 20
10.1125542445
 10
16.6661658741
 20
10.1192389332
 10
16.6759929463
 20
10.1254516157
 10
16.6853096503
 20
10.1311954781
 10
16.6940863186
 20
10.1364673344
 10
16.7024959414
 20
10.1413760234
 10
16.7105412792
 20
10.1459217508
 10
16.7182195715
 20
10.150104311
 10
16.7256955262
 20
10.1540319256
 10
16.7330240462
 20
10.1577406685
 10
16.7401502287
 20
10.1611944658
 10
16.7470740738
 20
10.1643933176
  0
LWPOLYLINE
  5
353
100
AcDbEntity
  8
RACCORDO
100
AcDbPolyline
 62
250
  6
CONTINUOUS
 90
8
 70
0
 10
2.7178851402
 20
17.8946646803
 10
2.7166898394
 20
17.9192018831
 10
2.7131201015
 20
17.9422119616
 10
2.707224201
 20
17.9633837439
 10
2.6990818699
 20
17.9824309179
 10
2.6888032191
 20
17.9990959034
 10
2.67652725
 20
18.013153335
 10
2.6624199738
 20
18.02441311
  0
LWPOLYLINE
  5
354
100
AcDbEntity
  8
RACCORDO
100
AcDbPolyline
 62
250
  6
CONTINUOUS
 90
13
 70
0
 10
3.0714385308
 20
17.8946646803
 10
3.0699760457
 20
17.9322723079
 10
3.0659447663
 20
17.9676852092
 10
3.0593446925
 20
18.0009033844
 10
3.0500896944
 20
18.0321202836
 10
3.0382659019
 20
18.0611424567
 10
3.024131705
 20
18.0873895527
 10
3.0076496398
 20
18.1108221391
 10
2.98885717
 20
18.1314796484
 10
2.9681250767
 20
18.1489000278
 10
2.9455769533
 20
18.1629292594
 10
2.9210892062
 20
18.1737213611
 10
2.8946618355
 20
18.1812763326
  0
LWPOLYLINE
  5
355
100
AcDbEntity
  8
RACCORDO
100
AcDbPolyline
 62
250
  6
CONTINUOUS
 90
13
 70
0
 10
3.0714385308
 20
17.5859587822
 10
3.0723262686
 20
17.5625882274
 10
3.0756186072
 20
17.5384076836
 10
3.0812592053
 20
17.513830894
 10
3.0891515445
 20
17.4892783741
 10
3.0991605754
 20
17.4651702327
 10
3.1111150249
 20
17.4419189822
 10
3.1248103377
 20
17.4199224559
 10
3.1400121759
 20
17.399557011
 10
3.1564604191
 20
17.3811711022
 10
3.1738736264
 20
17.3650793037
 10
3.1919538533
 20
17.3515569299
 10
3.210391744
 20
17.3408353318
  0
LWPOLYLINE
  5
356
100
AcDbEntity
  8
RACCORDO
100
AcDbPolyline
 62
250
  6
CONTINUOUS
 90
13
 70
0
 10
3.778545312
 20
17.9243956431
 10
3.779433034
 20
17.9010252684
 10
3.7827253254
 20
17.876844888
 10
3.7883658543
 20
17.8522682349
 10
3.7962581096
 20
17.8277158224
 10
3.8062670526
 20
17.8036077492
 10
3.8182214276
 20
17.780356511
 10
3.8319166918
 20
17.758359943
 10
3.8471185156
 20
17.7379944125
 10
3.8635667914
 20
17.7196083795
 10
3.8809800848
 20
17.703516434
 10
3.8990604494
 20
17.6899939137
 10
3.9174985252
 20
17.6792721927
  0
LWPOLYLINE
  5
357
100
AcDbEntity
  8
RACCORDO
100
AcDbPolyline
 62
7
  6
CONTINUOUS
 90
6
 70
0
 10
3.8517630445
 20
18.0081312792
 10
3.8518080328
 20
18.0051031289
 10
3.8530710948
 20
17.9925831373
 10
3.8556257778
 20
17.981901618
 10
3.8587522123
 20
17.973585379
 10
3.8610226434
 20
17.9690429925
  0
LINE
  5
358
100
AcDbEntity
  8
RACCORDO
100
AcDbLine
 62
250
  6
CONTINUOUS
 10
3.0714385308
 20
17.8946646803
 11
3.0714385308
 21
17.5859587822
  0
LINE
  5
359
100
AcDbEntity
  8
RACCORDO
100
AcDbLine
 62
250
  6
CONTINUOUS
 10
3.778545312
 20
17.9243956431
 11
3.778545312
 21
18.2482180709
  0
LINE
  5
35A
100
AcDbEntity
  8
RACCORDO
100
AcDbLine
 62
7
  6
CONTINUOUS
 10
3.8517686167
 20
18.0079746972
 11
3.8517686167
 21
18.3366064185
  0
LINE
  5
35B
100
AcDbEntity
  8
218
100
AcDbLine
 62
7
  6
CONTINUOUS
 10
4.4485530837
 20
30.4048117813
 11
4.4485530837
 21
30.0778457336
  0
LINE
  5
35C
100
AcDbEntity
  8
RACCORDO
100
AcDbLine
 62
250
  6
CONTINUOUS
 10
4.4856520931
 20
19.7030854336
 11
4.4856520931
 21
19.3517714615
  0
LINE
  5
35D
100
AcDbEntity
  8
RACCORDO
100
AcDbLine
 62
7
  6
CONTINUOUS
 10
4.5588753979
 20
19.7914737812
 11
4.5588753979
 21
19.4401598091
  0
LWPOLYLINE
  5
35E
100
AcDbEntity
  8
RACCORDO
100
AcDbPolyline
 62
250
  6
CONTINUOUS
 90
5
 70
0
 10
17.8510231095
 20
-28.4118193888
 10
17.8382194426
 20
-28.3853054351
 10
17.8225831907
 20
-28.3614758684
 10
17.8043833736
 20
-28.3407396606
 10
17.78393252
 20
-28.3234520259
  0
LWPOLYLINE
  5
35F
100
AcDbEntity
  8
RACCORDO
100
AcDbPolyline
 62
250
  6
CONTINUOUS
 90
7
 70
0
 10
0.59405217
 20
19.0512510795
 10
0.5961909547
 20
19.0349353054
 10
0.6025707135
 20
19.0188986988
 10
0.6130822869
 20
19.0034156504
 10
0.6275458191
 20
18.9887510795
 10
0.645713835
 20
18.9751559008
 10
0.6672754747
 20
18.9628627318
  0
LWPOLYLINE
  5
360
100
AcDbEntity
  8
RACCORDO
100
AcDbPolyline
 62
250
  6
CONTINUOUS
 90
7
 70
0
 10
0.59405217
 20
19.4025650516
 10
0.5960896394
 20
19.3866387887
 10
0.602415501
 20
19.3705037034
 10
0.612917651
 20
19.3549288413
 10
0.6274081902
 20
19.3401843935
 10
0.6456336175
 20
19.3265221722
 10
0.6672754747
 20
19.3141767039
  0
LWPOLYLINE
  5
361
100
AcDbEntity
  8
RACCORDO
100
AcDbPolyline
 62
7
  6
CONTINUOUS
 90
13
 70
0
 10
6.1756526353
 20
17.3344857773
 10
6.1766495013
 20
17.3188221557
 10
6.1797948883
 20
17.3024310132
 10
6.1850504566
 20
17.2862473732
 10
6.192443435
 20
17.2702739134
 10
6.2019465947
 20
17.2545079561
 10
6.2134378356
 20
17.2391520681
 10
6.2269428113
 20
17.2242115406
 10
6.2424358681
 20
17.2096810824
 10
6.2597179459
 20
17.1957473858
 10
6.2787226912
 20
17.1824726819
 10
6.2995164575
 20
17.1697947396
 10
6.3220992446
 20
17.157713559
  0
LWPOLYLINE
  5
362
100
AcDbEntity
  8
268
100
AcDbPolyline
 62
7
  6
CONTINUOUS
 90
5
 70
0
 10
7.2468363615
 20
22.6863430447
 10
7.2468236929
 20
22.6866903007
 10
7.2465292898
 20
22.6882080895
 10
7.2458539548
 20
22.6899247538
 10
7.2448098619
 20
22.6918444576
  0
LWPOLYLINE
  5
363
100
AcDbEntity
  8
268
100
AcDbPolyline
 62
7
  6
CONTINUOUS
 90
7
 70
0
 10
7.2467898692
 20
23.268702533
 10
7.2466982611
 20
23.2730103343
 10
7.2465590904
 20
23.2773216649
 10
7.2463723569
 20
23.2816365249
 10
7.2461380608
 20
23.2859549143
 10
7.245856202
 20
23.290276833
 10
7.2455267806
 20
23.2946022811
  0
LWPOLYLINE
  5
364
100
AcDbEntity
  8
218
100
AcDbPolyline
 62
7
  6
CONTINUOUS
 90
4
 70
0
 10
6.8621762568
 20
23.6939637445
 10
6.862305003
 20
23.6806587848
 10
6.8634914925
 20
23.6514429652
 10
6.8656208731
 20
23.6258367652
  0
LINE
  5
365
100
AcDbEntity
  8
268
100
AcDbLine
 62
7
  6
CONTINUOUS
 10
7.2467898692
 20
23.268702533
 11
7.2468363604
 21
23.2627248785
  0
LINE
  5
366
100
AcDbEntity
  8
RACCORDO
100
AcDbLine
 62
7
  6
CONTINUOUS
 10
6.1756526352
 20
16.1349574542
 11
6.1756526352
 21
17.3344902543
  0
LINE
  5
367
100
AcDbEntity
  8
RACCORDO
100
AcDbLine
 62
250
  6
CONTINUOUS
 10
6.3220992446
 20
15.9603945234
 11
6.3220992446
 21
17.157713559
  0
LINE
  5
368
100
AcDbEntity
  8
268
100
AcDbLine
 62
250
  6
CONTINUOUS
 10
7.1626383016
 20
22.9748886892
 11
7.1626383016
 21
22.7626295351
  0
LINE
  5
369
100
AcDbEntity
  8
268
100
AcDbLine
 62
7
  6
CONTINUOUS
 10
7.2468363615
 20
23.2627422342
 11
7.2468363615
 21
22.6863507519
  0
LINE
  5
36A
100
AcDbEntity
  8
218
100
AcDbLine
 62
250
  6
CONTINUOUS
 10
7.6507375216
 20
24.2474949399
 11
7.6507375216
 21
24.6577139829
  0
LWPOLYLINE
  5
36B
100
AcDbEntity
  8
268
100
AcDbPolyline
 62
7
  6
CONTINUOUS
 90
16
 70
0
 10
7.2468363604
 20
23.2627248785
 10
7.2466018342
 20
23.2490508867
 10
7.2454610581
 20
23.2292856955
 10
7.2434167266
 20
23.2094320449
 10
7.2405255615
 20
23.189496261
 10
7.2368367973
 20
23.1695140247
 10
7.2323768334
 20
23.1495522031
 10
7.2271839751
 20
23.1296314854
 10
7.221301318
 20
23.109763734
 10
7.2147407838
 20
23.0900035079
 10
7.2075338806
 20
23.0703664412
 10
7.1997167349
 20
23.0508644766
 10
7.1912927955
 20
23.0315488777
 10
7.1822799041
 20
23.0124461513
 10
7.1727180587
 20
22.9935556574
 10
7.1626383016
 20
22.9748886892
  0
LINE
  5
36C
100
AcDbEntity
  8
PREM_14013
100
AcDbLine
 62
7
  6
CONTINUOUS
 10
10.4957984246
 20
23.0442255766
 11
10.5268517738
 21
23.2994686419
  0
LINE
  5
36D
100
AcDbEntity
  8
PREM_14013
100
AcDbLine
 62
7
  6
CONTINUOUS
 10
10.0593904197
 20
22.906520733
 11
10.2120404257
 21
23.8890668058
  0
LWPOLYLINE
  5
36E
100
AcDbEntity
  8
RACCORDO
100
AcDbPolyline
 62
250
  6
CONTINUOUS
 90
5
 70
0
 10
17.2932617392
 20
11.9955374853
 10
17.2688114037
 20
11.9603222295
 10
17.2462891652
 20
11.9238015689
 10
17.2255708471
 20
11.8857038028
 10
17.2067806261
 20
11.8463006319
  0
LINE
  5
36F
100
AcDbEntity
  8
RACCORDO
100
AcDbLine
 62
250
  6
CONTINUOUS
 10
17.3196401717
 20
12.0294473363
 11
17.2932617392
 21
11.9955374853
  0
LWPOLYLINE
  5
370
100
AcDbEntity
  8
RACCORDO
100
AcDbPolyline
 62
7
  6
CONTINUOUS
 90
13
 70
0
 10
17.3353825145
 20
11.9583476908
 10
17.318035142
 20
11.9361251387
 10
17.3013030666
 20
11.9119998798
 10
17.2854843377
 20
11.8862659813
 10
17.2708095401
 20
11.8591791872
 10
17.2575696356
 20
11.8311921511
 10
17.24606473
 20
11.8029685413
 10
17.2364075896
 20
11.7749392435
 10
17.2286567338
 20
11.7475222382
 10
17.2228694907
 20
11.7213851766
 10
17.218963129
 20
11.6969938566
 10
17.2167677074
 20
11.6745902032
 10
17.2160867811
 20
11.6544473363
  0
LINE
  5
371
100
AcDbEntity
  8
RACCORDO
100
AcDbLine
 62
250
  6
CONTINUOUS
 10
17.3196401717
 20
12.0294473363
 11
17.8499702576
 21
12.6696123793
  0
LINE
  5
372
100
AcDbEntity
  8
RACCORDO
100
AcDbLine
 62
7
  6
CONTINUOUS
 10
17.3353825145
 20
11.9583476908
 11
17.8657126004
 21
12.5985127337
  0
LINE
  5
373
100
AcDbEntity
  8
RACCORDO
100
AcDbLine
 62
7
  6
CONTINUOUS
 10
18.3803003435
 20
9.1997259946
 11
22.4932280713
 21
13.1128949508
  0
LINE
  5
374
100
AcDbEntity
  8
RACCORDO
100
AcDbLine
 62
250
  6
CONTINUOUS
 10
22.5789104262
 20
13.3613396814
 11
18.3803003435
 21
9.3850109439
  0
LWPOLYLINE
  5
375
100
AcDbEntity
  8
218
100
AcDbPolyline
 62
250
  6
CONTINUOUS
 90
73
 70
0
 10
18.3803003435
 20
5.5105750752
 10
18.3951100919
 20
5.5229621729
 10
18.4238721661
 20
5.5486696401
 10
18.4519440106
 20
5.5754494996
 10
18.479313351
 20
5.6032900376
 10
18.5059682564
 20
5.6321791134
 10
18.5318971152
 20
5.6621041421
 10
18.5570886214
 20
5.69305208
 10
18.5815317561
 20
5.7250093954
 10
18.6052158212
 20
5.7579621012
 10
18.6281304608
 20
5.7918957838
 10
18.6502656871
 20
5.8267956467
 10
18.6716118573
 20
5.8626464868
 10
18.6921596631
 20
5.8994326762
 10
18.7119001164
 20
5.93713813
 10
18.7308245785
 20
5.9757463474
 10
18.7489247759
 20
6.0152404438
 10
18.7661928186
 20
6.0556031971
 10
18.7826211826
 20
6.0968170199
 10
18.7982027022
 20
6.1388639422
 10
18.8129305627
 20
6.1817255816
 10
18.8267983212
 20
6.2253831877
 10
18.8397999169
 20
6.2698176735
 10
18.851929681
 20
6.3150096583
 10
18.8631823258
 20
6.3609394411
 10
18.8735529414
 20
6.4075869877
 10
18.8830369935
 20
6.4549319109
 10
18.8916303354
 20
6.5029535104
 10
18.8993292131
 20
6.551630801
 10
18.9061302686
 20
6.6009425433
 10
18.9120305352
 20
6.6508672265
 10
18.9170274373
 20
6.7013830628
 10
18.921118791
 20
6.7524679839
 10
18.9243028085
 20
6.8040996705
 10
18.9265780998
 20
6.8562555716
 10
18.9279436719
 20
6.9089129193
 10
18.9283989289
 20
6.9620487255
 10
18.9279436718
 20
7.0156397887
 10
18.9265780996
 20
7.0696627085
 10
18.9243028082
 20
7.1240939009
 10
18.9211187905
 20
7.1789096052
 10
18.9170274367
 20
7.23408588
 10
18.9120305345
 20
7.2895986185
 10
18.9061302677
 20
7.3454235683
 10
18.8993292121
 20
7.4015363662
 10
18.8916303343
 20
7.4579125345
 10
18.8830369923
 20
7.514527476
 10
18.8735529401
 20
7.5713564513
 10
18.8631823244
 20
7.6283746135
 10
18.8519296794
 20
7.6855570412
 10
18.8397999152
 20
7.7428787901
 10
18.8267983194
 20
7.8003148717
 10
18.8129305608
 20
7.8578402362
 10
18.7982027001
 20
7.9154297362
 10
18.7826211805
 20
7.973058178
 10
18.7661928164
 20
8.0307003648
 10
18.7489247735
 20
8.0883311609
 10
18.730824576
 20
8.1459254548
 10
18.7119001139
 20
8.2034581342
 10
18.6921596604
 20
8.2609040413
 10
18.6716118546
 20
8.3182380364
 10
18.6502656842
 20
8.3754350468
 10
18.6281304578
 20
8.4324701361
 10
18.605215818
 20
8.4893184584
 10
18.5815317529
 20
8.5459552292
 10
18.5570886181
 20
8.6023556791
 10
18.5318971119
 20
8.6584951231
 10
18.505968253
 20
8.7143490107
 10
18.4793133473
 20
8.7698929921
 10
18.4519440068
 20
8.8251028705
 10
18.4238721623
 20
8.8799545743
 10
18.3951100881
 20
8.9344241156
 10
18.3803003435
 20
8.9616209547
  0
LINE
  5
376
100
AcDbEntity
  8
RACCORDO
100
AcDbLine
 62
250
  6
CONTINUOUS
 10
17.8607736854
 20
-28.4405616862
 11
17.8510231095
 21
-28.4118193888
  0
LINE
  5
377
100
AcDbEntity
  8
218
100
AcDbLine
 62
7
  6
CONTINUOUS
 10
8.3334477195
 20
24.5899530322
 11
8.3334477195
 21
24.1569403303
  0
LINE
  5
378
100
AcDbEntity
  8
PREM_14013
100
AcDbLine
 62
7
  6
CONTINUOUS
 10
9.5642176997
 20
23.214215889
 11
9.5642176997
 21
22.895347327
  0
LINE
  5
379
100
AcDbEntity
  8
218
100
AcDbLine
 62
7
  6
CONTINUOUS
 10
9.788952952
 20
24.0866627782
 11
9.788952952
 21
24.5305304663
  0
LINE
  5
37A
100
AcDbEntity
  8
PREM_14013
100
AcDbLine
 62
7
  6
CONTINUOUS
 10
9.8692743047
 20
22.8978574708
 11
9.8692743047
 21
23.419460175
  0
LINE
  5
37B
100
AcDbEntity
  8
PREM_14013
100
AcDbLine
 62
7
  6
CONTINUOUS
 10
10.4957984246
 20
23.0442255766
 11
10.4957984246
 21
22.9475215976
  0
LWPOLYLINE
  5
37C
100
AcDbEntity
  8
RACCORDO
100
AcDbPolyline
 62
250
  6
CONTINUOUS
 90
13
 70
0
 10
7.4036921405
 20
-29.8511616112
 10
7.5030417242
 20
-26.8617656045
 10
7.6299923904
 20
-23.8606425022
 10
7.7845276096
 20
-20.8481764142
 10
7.9666272883
 20
-17.8247529256
 10
8.1762680495
 20
-14.7907590699
 10
8.41342324
 20
-11.7465832784
 10
8.6780626471
 20
-8.6926153837
 10
8.9701522369
 20
-5.629246321
 10
9.289654443
 20
-2.5568680989
 10
9.6365284266
 20
0.5241259237
 10
10.0107300778
 20
3.6133410874
 10
10.4122117615
 20
6.7103817332
  0
LWPOLYLINE
  5
37D
100
AcDbEntity
  8
RACCORDO
100
AcDbPolyline
 62
250
  6
CONTINUOUS
 90
10
 70
0
 10
8.5247747638
 20
-29.8804652372
 10
8.6238849879
 20
-26.8984096278
 10
8.7504855209
 20
-23.9054220631
 10
8.9045763625
 20
-20.9015025433
 10
9.0861843304
 20
-17.8862619653
 10
9.2952826071
 20
-14.8600894321
 10
9.5317907401
 20
-11.8241522526
 10
9.7957194657
 20
-8.7784464513
 10
10.0870580477
 20
-5.7229760038
 10
10.4056938248
 20
-2.6589201456
  0
LWPOLYLINE
  5
37E
100
AcDbEntity
  8
RACCORDO
100
AcDbPolyline
 62
250
  6
CONTINUOUS
 90
3
 70
0
 10
10.4056938248
 20
-2.6589201456
 10
10.7515892434
 20
0.4133280449
 10
11.124781857
 20
3.4941616462
  0
LINE
  5
37F
100
AcDbEntity
  8
RACCORDO
100
AcDbLine
 62
250
  6
CONTINUOUS
 10
11.124781857
 20
3.4941616462
 11
11.5252716658
 21
6.5835806582
  0
LWPOLYLINE
  5
380
100
AcDbEntity
  8
RACCORDO
100
AcDbPolyline
 62
250
  6
CONTINUOUS
 90
19
 70
0
 10
10.4122117615
 20
6.7103817332
 10
10.4308661956
 20
6.8243679373
 10
10.4565626725
 20
6.9395864244
 10
10.4891269417
 20
7.0552523651
 10
10.5283409498
 20
7.170578179
 10
10.5739368285
 20
7.2847775495
 10
10.6255979258
 20
7.3970709608
 10
10.6829734144
 20
7.5066894847
 10
10.7456751747
 20
7.6128901099
 10
10.8132732613
 20
7.714958955
 10
10.8853119067
 20
7.8121993048
 10
10.9613037512
 20
7.9039480865
 10
11.0407281165
 20
7.9895892293
 10
11.1230521031
 20
8.0685388457
 10
11.2077172826
 20
8.1402538151
 10
11.2941356648
 20
8.2042468029
 10
11.3817181308
 20
8.2600810131
 10
11.4698786596
 20
8.3073722373
 10
11.5580218727
 20
8.3457956872
  0
LWPOLYLINE
  5
381
100
AcDbEntity
  8
RACCORDO
100
AcDbPolyline
 62
250
  6
CONTINUOUS
 90
19
 70
0
 10
11.5252716658
 20
6.5835806582
 10
11.5340986448
 20
6.6370519488
 10
11.5460698789
 20
6.6904539912
 10
11.5611853683
 20
6.7437867854
 10
11.5795943257
 20
6.7974438322
 10
11.6011475383
 20
6.8510316307
 10
11.6253973675
 20
6.9033696792
 10
11.6523961014
 20
6.9544031479
 10
11.6820914519
 20
7.0041868665
 10
11.7138789161
 20
7.0517048227
 10
11.7478012916
 20
7.0969084204
 10
11.7838157807
 20
7.1398462558
 10
11.821189488
 20
7.1796481042
 10
11.859974767
 20
7.2162589878
 10
11.9001192642
 20
7.2497338845
 10
11.9407330235
 20
7.2793675035
 10
11.9815193931
 20
7.3049247477
 10
12.0227750248
 20
7.3266407142
 10
12.0644999187
 20
7.3445154029
  0
LWPOLYLINE
  5
382
100
AcDbEntity
  8
RACCORDO
100
AcDbPolyline
 62
250
  6
CONTINUOUS
 90
12
 70
0
 10
15.728649914
 20
11.6089522075
 10
15.7157049796
 20
11.5796721851
 10
15.6999588586
 20
11.552317895
 10
15.6816605888
 20
11.5273676531
 10
15.6610896775
 20
11.5052486685
 10
15.6385973721
 20
11.4863798449
 10
15.6146140006
 20
11.4711383764
 10
15.5895705314
 20
11.4597931015
 10
15.5638799333
 20
11.4525262803
 10
15.5379842789
 20
11.4494626667
 10
15.5123284509
 20
11.4506542815
 10
15.5011724661
 20
11.4525356661
  0
LWPOLYLINE
  5
383
100
AcDbEntity
  8
RACCORDO
100
AcDbPolyline
 62
250
  6
CONTINUOUS
 90
12
 70
0
 10
16.2589799999
 20
11.4991172504
 10
16.2459306563
 20
11.4696312667
 10
16.2300798923
 20
11.4421621455
 10
16.211698919
 20
11.4171798911
 10
16.1911022397
 20
11.3951119567
 10
16.1686422695
 20
11.3763359309
 10
16.1447033046
 20
11.3611730766
 10
16.1196949474
 20
11.3498828345
 10
16.0940450978
 20
11.3426583838
 10
16.0681926318
 20
11.3396233368
 10
16.0425798923
 20
11.340829624
 10
16.031502552
 20
11.3427007091
  0
LWPOLYLINE
  5
384
100
AcDbEntity
  8
218
100
AcDbPolyline
 62
7
  6
CONTINUOUS
 90
68
 70
0
 10
18.3803003435
 20
6.3438053611
 10
18.3901389603
 20
6.3562502923
 10
18.4051766831
 20
6.3756954847
 10
18.4194679673
 20
6.3946202809
 10
18.4330111083
 20
6.4130226239
 10
18.4458601897
 20
6.4309282998
 10
18.4580164216
 20
6.4483394347
 10
18.4694785938
 20
6.4652539025
 10
18.4802971591
 20
6.4816911113
 10
18.49047257
 20
6.4976529958
 10
18.500004374
 20
6.5131376213
 10
18.5089416654
 20
6.5281585909
 10
18.5172841818
 20
6.5427177858
 10
18.5250321856
 20
6.5568133248
 10
18.5322355582
 20
6.5704531684
 10
18.5388928682
 20
6.5836380224
 10
18.545005547
 20
6.5963671809
 10
18.55062777
 20
6.6086464858
 10
18.5557549073
 20
6.6204667952
 10
18.5603915888
 20
6.6318372509
 10
18.5646058801
 20
6.64279112
 10
18.5683958401
 20
6.6533149712
 10
18.5717634099
 20
6.6634222358
 10
18.5747824783
 20
6.6731864746
 10
18.5774583523
 20
6.6826054085
 10
18.579785725
 20
6.6916813166
 10
18.5818225646
 20
6.7004945967
 10
18.5835762704
 20
6.7090502449
 10
18.585039443
 20
6.717343265
 10
18.5862478533
 20
6.725439067
 10
18.5872077873
 20
6.7333419004
 10
18.5879129588
 20
6.7410475156
 10
18.5883802803
 20
6.7486085735
 10
18.5886154122
 20
6.7560282462
 10
18.5886126939
 20
6.7633033616
 10
18.5883720561
 20
6.7704770647
 10
18.5878991487
 20
6.7775520873
 10
18.5871883218
 20
6.7845256976
 10
18.5862225552
 20
6.791432846
 10
18.5850081705
 20
6.7982756645
 10
18.5835388461
 20
6.8050520211
 10
18.5817785971
 20
6.8117904704
 10
18.579735083
 20
6.8184933544
 10
18.5774006443
 20
6.8251583311
 10
18.5747163182
 20
6.8318069295
 10
18.5716872844
 20
6.8384475423
 10
18.5683083633
 20
6.8450717767
 10
18.5645050531
 20
6.8516759835
 10
18.560274937
 20
6.8582719537
 10
18.5556204319
 20
6.8648478963
 10
18.5504742873
 20
6.8713647887
 10
18.5448321003
 20
6.8778263714
 10
18.5386982738
 20
6.8842289039
 10
18.5320187662
 20
6.890522142
 10
18.5247922983
 20
6.8967038006
 10
18.5170201493
 20
6.9027761649
 10
18.5086521147
 20
6.9086958463
 10
18.4996877911
 20
6.9144608199
 10
18.4901275818
 20
6.9200731107
 10
18.4799224926
 20
6.925495405
 10
18.4690730365
 20
6.9307261998
 10
18.4575787004
 20
6.9357669981
 10
18.4453889502
 20
6.940584995
 10
18.4325049907
 20
6.9451793288
 10
18.4189256171
 20
6.9495508613
 10
18.4045966805
 20
6.9536693725
 10
18.3895198959
 20
6.9575345736
 10
18.3803003435
 20
6.9596388293
  0
LWPOLYLINE
  5
385
100
AcDbEntity
  8
RACCORDO
100
AcDbPolyline
 62
250
  6
CONTINUOUS
 90
4
 70
0
 10
14.6491183377
 20
11.6348423193
 10
14.6658521919
 20
11.636637269
 10
14.6814127476
 20
11.641621594
 10
14.6836231806
 20
11.6426370367
  0
LWPOLYLINE
  5
386
100
AcDbEntity
  8
RACCORDO
100
AcDbPolyline
 62
250
  6
CONTINUOUS
 90
20
 70
0
 10
16.1901649851
 20
10.6166517319
 10
16.2082767787
 20
10.6185020242
 10
16.2274859951
 20
10.6205931615
 10
16.2476645895
 20
10.622965572
 10
16.26812472
 20
10.6255798244
 10
16.288514578
 20
10.6284226605
 10
16.3089179558
 20
10.6315390715
 10
16.3292230086
 20
10.6349443311
 10
16.3491587429
 20
10.6386217936
 10
16.3685561717
 20
10.642552028
 10
16.3874230126
 20
10.6467415591
 10
16.4056497077
 20
10.651164523
 10
16.4231534889
 20
10.6557972932
 10
16.4400365554
 20
10.6606655454
 10
16.4562387635
 20
10.6657440141
 10
16.4716833971
 20
10.6709845897
 10
16.4864499959
 20
10.6763948446
 10
16.5005358313
 20
10.681961056
 10
16.5138764596
 20
10.6876396428
 10
16.5264629681
 20
10.6934045481
  0
LWPOLYLINE
  5
387
100
AcDbEntity
  8
RACCORDO
100
AcDbPolyline
 62
250
  6
CONTINUOUS
 90
5
 70
0
 10
16.1166580947
 20
10.6099965028
 10
16.1293276012
 20
10.6110185069
 10
16.1428708017
 20
10.6121816396
 10
16.1573907001
 20
10.6134957503
 10
16.1901649851
 20
10.6166517319
  0
LWPOLYLINE
  5
388
100
AcDbEntity
  8
RACCORDO
100
AcDbPolyline
 62
250
  6
CONTINUOUS
 90
16
 70
0
 10
10.4122267531
 20
6.7103860221
 10
10.4736767996
 20
6.6819135371
 10
10.5404394165
 20
6.6554566333
 10
10.6117992656
 20
6.6312987873
 10
10.686991751
 20
6.609698842
 10
10.7652112116
 20
6.5908882331
 10
10.845619553
 20
6.5750685092
 10
10.9273552279
 20
6.5624091732
 10
11.0095424671
 20
6.5530458654
 10
11.0913006631
 20
6.5470789102
 10
11.1717538052
 20
6.5445722417
 10
11.2500398663
 20
6.5455527177
 10
11.3253200384
 20
6.5500098329
 10
11.3967877208
 20
6.5578958309
 10
11.4636771622
 20
6.5691262158
 10
11.5252716657
 20
6.5835806582
  0
LINE
  5
389
100
AcDbEntity
  8
RACCORDO
100
AcDbLine
 62
250
  6
CONTINUOUS
 10
-19.6228256376
 20
21.7279004327
 11
10.4122117615
 21
6.7103817332
  0
LWPOLYLINE
  5
38A
100
AcDbEntity
  8
RACCORDO
100
AcDbPolyline
 62
250
  6
CONTINUOUS
 90
10
 70
0
 10
-19.6228256114
 20
21.7279004402
 10
-19.6783289755
 20
21.7579047535
 10
-19.7272664607
 20
21.7892981375
 10
-19.7691137085
 20
21.8217442162
 10
-19.8034223316
 20
21.8548953347
 10
-19.8298247178
 20
21.8883962832
 10
-19.8480379693
 20
21.9218881033
 10
-19.8578669337
 20
21.9550119348
 10
-19.859206295
 20
21.9874128605
 10
-19.8586881041
 20
21.9920733838
  0
LINE
  5
38B
100
AcDbEntity
  8
218
100
AcDbLine
 62
250
  6
CONTINUOUS
 10
-0.1678696147
 20
29.3921804021
 11
0.2261163191
 21
28.3700245841
  0
LINE
  5
38C
100
AcDbEntity
  8
PREM_14013
100
AcDbLine
 62
7
  6
CONTINUOUS
 10
1.2293992911
 20
26.6852369097
 11
1.0278999331
 21
27.2809613355
  0
LWPOLYLINE
  5
38D
100
AcDbEntity
  8
RACCORDO
100
AcDbPolyline
 62
250
  6
CONTINUOUS
 90
7
 70
0
 10
13.9583703345
 20
-28.9305121421
 10
13.9605091191
 20
-28.9468279162
 10
13.9668888779
 20
-28.9628645228
 10
13.9774004513
 20
-28.9783475712
 10
13.9918639835
 20
-28.9930121421
 10
14.0100319994
 20
-29.0066073208
 10
14.0315936392
 20
-29.0189004898
  0
LWPOLYLINE
  5
38E
100
AcDbEntity
  8
RACCORDO
100
AcDbPolyline
 62
250
  6
CONTINUOUS
 90
7
 70
0
 10
13.9583704928
 20
-29.2819668068
 10
13.9604078038
 20
-29.2977523771
 10
13.9667336655
 20
-29.3138874624
 10
13.9772358154
 20
-29.3294623245
 10
13.9917263546
 20
-29.3442067722
 10
14.0099517819
 20
-29.3578689936
 10
14.0315936392
 20
-29.3702144619
  0
LINE
  5
38F
100
AcDbEntity
  8
RACCORDO
100
AcDbLine
 62
7
  6
CONTINUOUS
 10
13.9035802576
 20
-18.7458622192
 11
14.4049912211
 21
-23.4194031208
  0
LINE
  5
390
100
AcDbEntity
  8
RACCORDO
100
AcDbLine
 62
250
  6
CONTINUOUS
 10
11.8415930971
 20
14.3979666328
 11
11.8415930971
 21
13.2006475972
  0
LINE
  5
391
100
AcDbEntity
  8
218
100
AcDbLine
 62
7
  6
CONTINUOUS
 10
11.8731742862
 20
26.6925011801
 11
11.8731742862
 21
26.3655351324
  0
LINE
  5
392
100
AcDbEntity
  8
RACCORDO
100
AcDbLine
 62
250
  6
CONTINUOUS
 10
12.5507303242
 20
14.3989877199
 11
12.5507303242
 21
13.1940668872
  0
LINE
  5
393
100
AcDbEntity
  8
RACCORDO
100
AcDbLine
 62
7
  6
CONTINUOUS
 10
12.9709334674
 20
19.7642447764
 11
12.9709334674
 21
18.8638896758
  0
LWPOLYLINE
  5
394
100
AcDbEntity
  8
RACCORDO
100
AcDbPolyline
 62
250
  6
CONTINUOUS
 90
6
 70
0
 10
17.1761354336
 20
11.766010679
 10
17.1642804621
 20
11.725123897
 10
17.1549985385
 20
11.6846000165
 10
17.1483804699
 20
11.644723439
 10
17.1443354492
 20
11.6052097631
 10
17.1428634764
 20
11.5660589887
  0
LWPOLYLINE
  5
395
100
AcDbEntity
  8
RACCORDO
100
AcDbPolyline
 62
250
  6
CONTINUOUS
 90
3
 70
0
 10
17.2067806261
 20
11.8463006319
 10
17.1902910318
 20
11.8064071577
 10
17.1761354336
 20
11.766010679
  0
LINE
  5
396
100
AcDbEntity
  8
RACCORDO
100
AcDbLine
 62
250
  6
CONTINUOUS
 10
17.3925461523
 20
11.1840135588
 11
17.4010408406
 21
11.2032325812
  0
LWPOLYLINE
  5
397
100
AcDbEntity
  8
RACCORDO
100
AcDbPolyline
 62
250
  6
CONTINUOUS
 90
4
 70
0
 10
17.228459621
 20
11.2958695845
 10
17.2121539178
 20
11.297873836
 10
17.1970551588
 20
11.3029744325
 10
17.1948421135
 20
11.3040360578
  0
LINE
  5
398
100
AcDbEntity
  8
RACCORDO
100
AcDbLine
 62
250
  6
CONTINUOUS
 10
-18.49395378
 20
23.3717835136
 11
11.5580218727
 21
8.3457956872
  0
LWPOLYLINE
  5
399
100
AcDbEntity
  8
RACCORDO
100
AcDbPolyline
 62
250
  6
CONTINUOUS
 90
16
 70
0
 10
11.5580218727
 20
8.3457956872
 10
11.6158340133
 20
8.3119226368
 10
11.6724730352
 20
8.2705917118
 10
11.7273186299
 20
8.222255567
 10
11.7797701303
 20
8.1674435783
 10
11.8292530896
 20
8.1067560445
 10
11.8752255724
 20
8.0408576135
 10
11.9171840898
 20
7.9704700026
 10
11.9546691135
 20
7.8963640945
 10
11.9872701089
 20
7.8193514944
 10
12.014630031
 20
7.7402756416
 10
12.0364492351
 20
7.660002572
 10
12.0524887578
 20
7.5794114335
 10
12.062572935
 20
7.4993848573
 10
12.066591325
 20
7.4207992917
 10
12.0644999187
 20
7.3445154029
  0
LWPOLYLINE
  5
39A
100
AcDbEntity
  8
RACCORDO
100
AcDbPolyline
 62
250
  6
CONTINUOUS
 90
7
 70
0
 10
4.4856520931
 20
19.3517714615
 10
4.4956157267
 20
19.3339457231
 10
4.5024416885
 20
19.3178774744
 10
4.5059927472
 20
19.3038518967
 10
4.5061851262
 20
19.2921145573
 10
4.5029891269
 20
19.2828938867
 10
4.5014117062
 20
19.2806926922
  0
LWPOLYLINE
  5
39B
100
AcDbEntity
  8
RACCORDO
100
AcDbPolyline
 62
250
  6
CONTINUOUS
 90
7
 70
0
 10
3.9553220073
 20
18.7116064185
 10
3.9653466526
 20
18.6936574293
 10
3.9721750752
 20
18.6775279014
 10
3.9756904388
 20
18.6634938154
 10
3.9758325947
 20
18.6517952986
 10
3.9725991105
 20
18.6426325158
 10
3.9710643501
 20
18.640506773
  0
LWPOLYLINE
  5
39C
100
AcDbEntity
  8
RACCORDO
100
AcDbPolyline
 62
250
  6
CONTINUOUS
 90
7
 70
0
 10
14.6654771157
 20
-27.8269587515
 10
14.6676159003
 20
-27.8432745256
 10
14.6739956591
 20
-27.8593111322
 10
14.6845072325
 20
-27.8747941806
 10
14.6989707647
 20
-27.8894587515
 10
14.7171387806
 20
-27.9030539302
 10
14.7387004204
 20
-27.9153470992
  0
LINE
  5
39D
100
AcDbEntity
  8
DRAFT
100
AcDbLine
 62
7
  6
CONTINUOUS
 10
14.9269433388
 20
-9.7360120855
 11
16.68959431
 21
-26.1652926715
  0
LWPOLYLINE
  5
39E
100
AcDbEntity
  8
RACCORDO
100
AcDbPolyline
 62
250
  6
CONTINUOUS
 90
3
 70
0
 10
17.8705032907
 20
-28.5027746194
 10
17.8673072913
 20
-28.4710616435
 10
17.8607736854
 20
-28.4405616862
  0
LWPOLYLINE
  5
39F
100
AcDbEntity
  8
RACCORDO
100
AcDbPolyline
 62
250
  6
CONTINUOUS
 90
8
 70
0
 10
14.6654771157
 20
11.6687494404
 10
14.6658324891
 20
11.662338176
 10
14.6685580824
 20
11.6498794509
 10
14.673954852
 20
11.6375503263
 10
14.6819730077
 20
11.6254971848
 10
14.692558846
 20
11.6138208333
 10
14.705630519
 20
11.6026455538
 10
14.7210608122
 20
11.5921146576
  0
LWPOLYLINE
  5
3A0
100
AcDbEntity
  8
RACCORDO
100
AcDbPolyline
 62
7
  6
CONTINUOUS
 90
15
 70
0
 10
12.9709334674
 20
19.7642447764
 10
12.9701496344
 20
19.7923724322
 10
12.967885158
 20
19.8193990565
 10
12.9641400381
 20
19.8453246493
 10
12.9588856389
 20
19.8702505086
 10
12.9521505963
 20
19.8940753364
 10
12.944020818
 20
19.9164952388
 10
12.9344784378
 20
19.9374922189
 10
12.9235413221
 20
19.9570842735
 10
12.9113489774
 20
19.9750214991
 10
12.8978853246
 20
19.9912826978
 10
12.8831664429
 20
20.0058890675
 10
12.8673800768
 20
20.018654299
 10
12.850512552
 20
20.0295548075
 10
12.8409890775
 20
20.0346805751
  0
LWPOLYLINE
  5
3A1
100
AcDbEntity
  8
RACCORDO
100
AcDbPolyline
 62
7
  6
CONTINUOUS
 90
15
 70
0
 10
15.4458072015
 20
18.8513827693
 10
15.44427532
 20
18.907014517
 10
15.4398461368
 20
18.9604998267
 10
15.4325196519
 20
19.0118386982
 10
15.4222410732
 20
19.0612275896
 10
15.409065193
 20
19.108470043
 10
15.393156387
 20
19.1529766837
 10
15.3744804184
 20
19.1947132386
 10
15.353071524
 20
19.233713981
 10
15.3291967913
 20
19.2694923559
 10
15.302825329
 20
19.302007995
 10
15.2739880283
 20
19.3313012666
 10
15.2430446496
 20
19.3570067219
 10
15.2099688089
 20
19.3790794141
 10
15.1859348887
 20
19.3922461324
  0
LINE
  5
3A2
100
AcDbEntity
  8
RACCORDO
100
AcDbLine
 62
250
  6
CONTINUOUS
 10
13.9583703345
 20
-29.2818261142
 11
13.9583704928
 21
-29.2819668068
  0
LINE
  5
3A3
100
AcDbEntity
  8
RACCORDO
100
AcDbLine
 62
7
  6
CONTINUOUS
 10
13.9583703345
 20
-29.2818261142
 11
13.9583703345
 21
-28.9305121421
  0
LINE
  5
3A4
100
AcDbEntity
  8
RACCORDO
100
AcDbLine
 62
7
  6
CONTINUOUS
 10
13.9583703345
 20
12.3690919973
 11
13.9583703345
 21
12.7204059693
  0
LINE
  5
3A5
100
AcDbEntity
  8
RACCORDO
100
AcDbLine
 62
250
  6
CONTINUOUS
 10
14.0315936392
 20
-29.3702144619
 11
14.0315936392
 21
-29.0189004898
  0
LINE
  5
3A6
100
AcDbEntity
  8
RACCORDO
100
AcDbLine
 62
250
  6
CONTINUOUS
 10
14.0315936392
 20
12.2807036496
 11
14.0315936392
 21
12.6320176217
  0
LINE
  5
3A7
100
AcDbEntity
  8
RACCORDO
100
AcDbLine
 62
7
  6
CONTINUOUS
 10
14.6654771157
 20
-27.8269587515
 11
14.6654771157
 21
-27.7616888718
  0
LINE
  5
3A8
100
AcDbEntity
  8
RACCORDO
100
AcDbLine
 62
7
  6
CONTINUOUS
 10
14.6654771157
 20
11.6687500084
 11
14.6654771157
 21
11.8610301095
  0
LINE
  5
3A9
100
AcDbEntity
  8
RACCORDO
100
AcDbLine
 62
250
  6
CONTINUOUS
 10
14.7387004204
 20
-27.9153470992
 11
14.7387004204
 21
-27.7983005242
  0
LINE
  5
3AA
100
AcDbEntity
  8
RACCORDO
100
AcDbLine
 62
250
  6
CONTINUOUS
 10
14.7387004204
 20
11.5823535804
 11
14.7387004204
 21
11.8244184571
  0
LINE
  5
3AB
100
AcDbEntity
  8
RACCORDO
100
AcDbLine
 62
250
  6
CONTINUOUS
 10
15.3750965234
 20
11.9602661796
 11
15.3750965234
 21
11.6089522075
  0
LINE
  5
3AC
100
AcDbEntity
  8
RACCORDO
100
AcDbLine
 62
250
  6
CONTINUOUS
 10
15.3750965234
 20
-29.6906519319
 11
15.3750965234
 21
-30.041965904
  0
LINE
  5
3AD
100
AcDbEntity
  8
RACCORDO
100
AcDbLine
 62
7
  6
CONTINUOUS
 10
15.4458072015
 20
18.8513827693
 11
15.4458072015
 21
18.6562698242
  0
LINE
  5
3AE
100
AcDbEntity
  8
RACCORDO
100
AcDbLine
 62
250
  6
CONTINUOUS
 10
15.728649914
 20
11.9602661796
 11
15.728649914
 21
11.6089522075
  0
LINE
  5
3AF
100
AcDbEntity
  8
RACCORDO
100
AcDbLine
 62
250
  6
CONTINUOUS
 10
15.728649914
 20
-29.6906519319
 11
15.728649914
 21
-30.041965904
  0
LINE
  5
3B0
100
AcDbEntity
  8
RACCORDO
100
AcDbLine
 62
7
  6
CONTINUOUS
 10
14.6652720504
 20
11.662568031
 11
14.6654815299
 21
11.668923327
  0
LWPOLYLINE
  5
3B1
100
AcDbEntity
  8
RACCORDO
100
AcDbPolyline
 62
250
  6
CONTINUOUS
 90
10
 70
0
 10
14.0315936392
 20
-29.0189004898
 10
14.0327526045
 20
-28.9935698583
 10
14.0362382165
 20
-28.9672750475
 10
14.0420399059
 20
-28.9403542168
 10
14.0501304745
 20
-28.9131166843
 10
14.0604257894
 20
-28.8859786452
 10
14.0727491214
 20
-28.8594511179
 10
14.0869060575
 20
-28.8339399763
 10
14.1027223742
 20
-28.8097482116
 10
14.1199819868
 20
-28.787206316
  0
LINE
  5
3B2
100
AcDbEntity
  8
RACCORDO
100
AcDbLine
 62
7
  6
CONTINUOUS
 10
16.1782424845
 20
8.8973550698
 11
13.0664962157
 21
-28.9186675632
  0
LINE
  5
3B3
100
AcDbEntity
  8
DRAFT
100
AcDbLine
 62
7
  6
CONTINUOUS
 10
16.68959431
 20
8.3954407573
 11
14.9269433388
 21
-9.7360120855
  0
LWPOLYLINE
  5
3B4
100
AcDbEntity
  8
218
100
AcDbPolyline
 62
7
  6
CONTINUOUS
 90
16
 70
0
 10
17.1901205864
 20
18.7963742439
 10
17.1811594131
 20
18.7946070351
 10
17.172337347
 20
18.7932536679
 10
17.1636543878
 20
18.7923141421
 10
17.1551000623
 20
18.7917900139
 10
17.1466848438
 20
18.7916797273
 10
17.1384401528
 20
18.7919786137
 10
17.1303698138
 20
18.792693474
 10
17.1224700022
 20
18.7938175074
 10
17.1147606648
 20
18.7953256432
 10
17.1072474692
 20
18.7972235567
 10
17.0999247479
 20
18.7995055728
 10
17.0927954448
 20
18.8021295951
 10
17.0858605411
 20
18.8050815917
 10
17.0791190557
 20
18.8083755946
 10
17.0725709883
 20
18.8120116039
  0
LINE
  5
3B5
100
AcDbEntity
  8
0
100
AcDbLine
 62
7
  6
CONTINUOUS
 10
15.4458072015
 20
18.6562698242
 11
13.5985362979
 21
18.3388521551
  0
LINE
  5
3B6
100
AcDbEntity
  8
RACCORDO
100
AcDbLine
 62
7
  6
CONTINUOUS
 10
15.5011724661
 20
11.4525356661
 11
16.031502552
 21
11.3427007091
  0
LINE
  5
3B7
100
AcDbEntity
  8
RACCORDO
100
AcDbLine
 62
250
  6
CONTINUOUS
 10
15.728649914
 20
11.6089522075
 11
16.2589799999
 21
11.4991172504
  0
LWPOLYLINE
  5
3B8
100
AcDbEntity
  8
RACCORDO
100
AcDbPolyline
 62
250
  6
CONTINUOUS
 90
7
 70
0
 10
-18.49395378
 20
23.3717835136
 10
-18.5543620141
 20
23.3970205335
 10
-18.614648535
 20
23.4141520845
 10
-18.674153074
 20
23.4229905722
 10
-18.7322239427
 20
23.4234392297
 10
-18.7882251351
 20
23.4154931756
 10
-18.8459589102
 20
23.3974691519
  0
LINE
  5
3B9
100
AcDbEntity
  8
DRAFT
100
AcDbLine
 62
7
  6
CONTINUOUS
 10
16.1587811045
 20
8.66084736
 11
16.68959431
 21
8.3954407573
  0
LINE
  5
3BA
100
AcDbEntity
  8
268
100
AcDbLine
 62
7
  6
CONTINUOUS
 10
-15.7729571878
 20
25.5857358767
 11
-0.0044759674
 21
17.7014952665
  0
LINE
  5
3BB
100
AcDbEntity
  8
RACCORDO
100
AcDbLine
 62
7
  6
CONTINUOUS
 10
0.0370252693
 20
17.7160049387
 11
15.6717644385
 21
9.8986353541
  0
LINE
  5
3BC
100
AcDbEntity
  8
218
100
AcDbLine
 62
250
  6
CONTINUOUS
 10
7.2567515877
 20
25.6798698009
 11
7.6507375216
 21
24.6577139829
  0
LWPOLYLINE
  5
3BD
100
AcDbEntity
  8
RACCORDO
100
AcDbPolyline
 62
250
  6
CONTINUOUS
 90
7
 70
0
 10
13.9583703345
 20
12.7204059693
 10
13.9606720788
 20
12.7034828038
 10
13.967276839
 20
12.6873381359
 10
13.9779830232
 20
12.6718732823
 10
13.9924844762
 20
12.6573716608
 10
14.0104784192
 20
12.6440207779
 10
14.0315936392
 20
12.6320176217
  0
LWPOLYLINE
  5
3BE
100
AcDbEntity
  8
RACCORDO
100
AcDbPolyline
 62
250
  6
CONTINUOUS
 90
7
 70
0
 10
13.9583703345
 20
12.3690919973
 10
13.9605091191
 20
12.3527762232
 10
13.9668888779
 20
12.3367396166
 10
13.9774004513
 20
12.3212565682
 10
13.9918639835
 20
12.3065919973
 10
14.0100319994
 20
12.2929968186
 10
14.0315936392
 20
12.2807036496
  0
LWPOLYLINE
  5
3BF
100
AcDbEntity
  8
RACCORDO
100
AcDbPolyline
 62
250
  6
CONTINUOUS
 90
8
 70
0
 10
16.0822033046
 20
11.2125055981
 10
16.0810080038
 20
11.2370428009
 10
16.0774382659
 20
11.2600528794
 10
16.0715423654
 20
11.2812246617
 10
16.0634000343
 20
11.3002718357
 10
16.0531213836
 20
11.3169368212
 10
16.0408454144
 20
11.3309942528
 10
16.0267381382
 20
11.3422540278
  0
LWPOLYLINE
  5
3C0
100
AcDbEntity
  8
RACCORDO
100
AcDbPolyline
 62
250
  6
CONTINUOUS
 90
13
 70
0
 10
17.1428634764
 20
-28.2335451507
 10
17.1443259614
 20
-28.2711527783
 10
17.1483572409
 20
-28.3065656797
 10
17.1549573147
 20
-28.3397838548
 10
17.1642123128
 20
-28.3710007541
 10
17.1760361052
 20
-28.4000229271
 10
17.1901703022
 20
-28.4262700231
 10
17.2066523674
 20
-28.4497026095
 10
17.2254448371
 20
-28.4703601189
 10
17.2461769305
 20
-28.4877804982
 10
17.2687250539
 20
-28.5018097299
 10
17.293212801
 20
-28.5126018315
 10
17.3196401717
 20
-28.5201568031
  0
LWPOLYLINE
  5
3C1
100
AcDbEntity
  8
RACCORDO
100
AcDbPolyline
 62
250
  6
CONTINUOUS
 90
13
 70
0
 10
16.4357566952
 20
11.2125055981
 10
16.4342942101
 20
11.2501132257
 10
16.4302629307
 20
11.285526127
 10
16.4236628569
 20
11.3187443022
 10
16.4144078588
 20
11.3499612014
 10
16.4025840664
 20
11.3789833744
 10
16.3884498694
 20
11.4052304705
 10
16.3719678042
 20
11.4286630569
 10
16.3531753345
 20
11.4493205662
 10
16.3324432411
 20
11.4667409456
 10
16.3098951177
 20
11.4807701772
 10
16.2854073706
 20
11.4915622788
 10
16.2589799999
 20
11.4991172504
  0
LWPOLYLINE
  5
3C2
100
AcDbEntity
  8
RACCORDO
100
AcDbPolyline
 62
7
  6
CONTINUOUS
 90
6
 70
0
 10
17.2160867811
 20
-28.1451568031
 10
17.2165601252
 20
-28.1609744531
 10
17.2178331622
 20
-28.174594099
 10
17.2196540811
 20
-28.1858665229
 10
17.221743919
 20
-28.1947380142
 10
17.2234027527
 20
-28.2000912606
  0
LWPOLYLINE
  5
3C3
100
AcDbEntity
  8
RACCORDO
100
AcDbPolyline
 62
7
  6
CONTINUOUS
 90
6
 70
0
 10
17.2160822551
 20
11.3259107484
 10
17.2162227016
 20
11.3207004034
 10
17.2176634927
 20
11.308884095
 10
17.2202287908
 20
11.2988341471
 10
17.2232820862
 20
11.2909699803
 10
17.2254710731
 20
11.2866617157
  0
LWPOLYLINE
  5
3C4
100
AcDbEntity
  8
218
100
AcDbPolyline
 62
7
  6
CONTINUOUS
 90
31
 70
0
 10
17.3532311771
 20
22.9666470501
 10
17.3529438854
 20
23.0012146855
 10
17.3518068141
 20
23.0437057856
 10
17.3498127379
 20
23.0862605906
 10
17.3469679862
 20
23.1288843115
 10
17.3432800433
 20
23.1715564606
 10
17.33875985
 20
23.2142275263
 10
17.3334153657
 20
23.2568914055
 10
17.327253843
 20
23.2995403391
 10
17.3202898236
 20
23.3421202215
 10
17.3125319111
 20
23.3846244707
 10
17.3039876293
 20
23.4270464957
 10
17.2946753307
 20
23.4693305901
 10
17.2846045485
 20
23.5114679779
 10
17.2737829445
 20
23.5534543953
 10
17.2622307314
 20
23.5952395145
 10
17.2499599596
 20
23.6368070797
 10
17.23697661
 20
23.6781605948
 10
17.2232937799
 20
23.7192780866
 10
17.208920551
 20
23.7601498315
 10
17.1938634652
 20
23.8007722639
 10
17.178131993
 20
23.8411313212
 10
17.1617329024
 20
23.8812198784
 10
17.1446720428
 20
23.9210309816
 10
17.1269581435
 20
23.9605499387
 10
17.1085970405
 20
23.9997684223
 10
17.0895930894
 20
24.0386791561
 10
17.0699530843
 20
24.0772693907
 10
17.0496813735
 20
24.1155300586
 10
17.0287810641
 20
24.1534535825
 10
17.0112637335
 20
24.1841418367
  0
LINE
  5
3C5
100
AcDbEntity
  8
RACCORDO
100
AcDbLine
 62
250
  6
CONTINUOUS
 10
16.0822033046
 20
11.2125055981
 11
16.0822033046
 21
10.9106021383
  0
LINE
  5
3C6
100
AcDbEntity
  8
RACCORDO
100
AcDbLine
 62
250
  6
CONTINUOUS
 10
16.0822033046
 20
-28.3770082565
 11
16.0822033046
 21
-28.5870985413
  0
LINE
  5
3C7
100
AcDbEntity
  8
RACCORDO
100
AcDbLine
 62
7
  6
CONTINUOUS
 10
16.2219522156
 20
9.8852672146
 11
16.2219522156
 21
9.8593975767
  0
LINE
  5
3C8
100
AcDbEntity
  8
RACCORDO
100
AcDbLine
 62
7
  6
CONTINUOUS
 10
16.2219522156
 20
-28.10671585
 11
16.2219522156
 21
-28.0808462121
  0
LINE
  5
3C9
100
AcDbEntity
  8
RACCORDO
100
AcDbLine
 62
250
  6
CONTINUOUS
 10
16.4357566952
 20
11.2125055981
 11
16.4357566952
 21
10.9037997
  0
LINE
  5
3CA
100
AcDbEntity
  8
RACCORDO
100
AcDbLine
 62
250
  6
CONTINUOUS
 10
16.4357566952
 20
-28.2783926432
 11
16.4357566952
 21
-28.5870985413
  0
LINE
  5
3CB
100
AcDbEntity
  8
DRAFT
100
AcDbLine
 62
7
  6
CONTINUOUS
 10
16.68959431
 20
10.0160784805
 11
16.68959431
 21
8.3954407573
  0
LINE
  5
3CC
100
AcDbEntity
  8
DRAFT
100
AcDbLine
 62
7
  6
CONTINUOUS
 10
16.68959431
 20
-26.1652926715
 11
16.68959431
 21
-27.7859303947
  0
LINE
  5
3CD
100
AcDbEntity
  8
218
100
AcDbLine
 62
250
  6
CONTINUOUS
 10
17.0725709883
 20
18.8120116039
 11
17.0725709883
 21
22.6194098823
  0
LINE
  5
3CE
100
AcDbEntity
  8
RACCORDO
100
AcDbLine
 62
250
  6
CONTINUOUS
 10
17.1428634764
 20
-28.2335451507
 11
17.1428634764
 21
-27.909722723
  0
LINE
  5
3CF
100
AcDbEntity
  8
RACCORDO
100
AcDbLine
 62
250
  6
CONTINUOUS
 10
17.1428634764
 20
11.2422365609
 11
17.1428634764
 21
11.5660589887
  0
LINE
  5
3D0
100
AcDbEntity
  8
RACCORDO
100
AcDbLine
 62
7
  6
CONTINUOUS
 10
17.2160867811
 20
-28.1451568031
 11
17.2160867811
 21
-27.8431015436
  0
LINE
  5
3D1
100
AcDbEntity
  8
RACCORDO
100
AcDbLine
 62
7
  6
CONTINUOUS
 10
17.2160867811
 20
11.3258149579
 11
17.2160867811
 21
11.6544473363
  0
LINE
  5
3D2
100
AcDbEntity
  8
218
100
AcDbLine
 62
7
  6
CONTINUOUS
 10
17.353231188
 20
19.7475058831
 11
17.353231188
 21
22.966659617
  0
LINE
  5
3D3
100
AcDbEntity
  8
218
100
AcDbLine
 62
7
  6
CONTINUOUS
 10
17.3532311865
 20
19.747612111
 11
17.353231188
 21
19.7475065461
  0
LINE
  5
3D4
100
AcDbEntity
  8
RACCORDO
100
AcDbLine
 62
250
  6
CONTINUOUS
 10
17.8499702576
 20
13.0209263513
 11
17.8499702576
 21
12.6696123793
  0
LINE
  5
3D5
100
AcDbEntity
  8
RACCORDO
100
AcDbLine
 62
250
  6
CONTINUOUS
 10
17.8499702576
 20
-28.6299917601
 11
17.8499702576
 21
-28.9813057322
  0
LINE
  5
3D6
100
AcDbEntity
  8
RACCORDO
100
AcDbLine
 62
7
  6
CONTINUOUS
 10
17.9231935623
 20
13.109314699
 11
17.9231935623
 21
12.7580007269
  0
LINE
  5
3D7
100
AcDbEntity
  8
RACCORDO
100
AcDbLine
 62
7
  6
CONTINUOUS
 10
17.9231935623
 20
-28.5416034125
 11
17.9231935623
 21
-28.8929173846
  0
LINE
  5
3D8
100
AcDbEntity
  8
RACCORDO
100
AcDbLine
 62
7
  6
CONTINUOUS
 10
18.3803003435
 20
-27.0192199814
 11
18.3803003435
 21
10.8820639053
  0
LINE
  5
3D9
100
AcDbEntity
  8
RACCORDO
100
AcDbLine
 62
7
  6
CONTINUOUS
 10
18.5244955369
 20
16.9874637417
 11
18.5244955369
 21
16.087108641
  0
LINE
  5
3DA
100
AcDbEntity
  8
RACCORDO
100
AcDbLine
 62
250
  6
CONTINUOUS
 10
17.9231935623
 20
-28.8929173846
 11
17.9231934039
 21
-28.8930580771
  0
LWPOLYLINE
  5
3DB
100
AcDbEntity
  8
218
100
AcDbPolyline
 62
250
  6
CONTINUOUS
 90
57
 70
0
 10
17.353231188
 20
19.7475065461
 10
17.3531314687
 20
19.7229170041
 10
17.3524075846
 20
19.6769106479
 10
17.3510647279
 20
19.633154416
 10
17.3491777941
 20
19.5912864447
 10
17.3468037305
 20
19.5511277992
 10
17.3440056969
 20
19.5127178153
 10
17.3408413498
 20
19.476022481
 10
17.3373316968
 20
19.4407523694
 10
17.3335128314
 20
19.4068607523
 10
17.3294308246
 20
19.3743959463
 10
17.3251005646
 20
19.3432115849
 10
17.3205507263
 20
19.3132880275
 10
17.3158161251
 20
19.2846441609
 10
17.3109101044
 20
19.2571917497
 10
17.3058587296
 20
19.2309321128
 10
17.3006879933
 20
19.2058615418
 10
17.2954041059
 20
19.1818846098
 10
17.2900301499
 20
19.159008656
 10
17.2845853261
 20
19.1372231091
 10
17.2790633795
 20
19.1164063293
 10
17.2734821052
 20
19.0965596687
 10
17.2678563204
 20
19.0776785553
 10
17.2621684706
 20
19.0596334699
 10
17.2564256013
 20
19.0424061016
 10
17.2506441929
 20
19.0260122067
 10
17.2448156709
 20
19.0103742623
 10
17.2389407567
 20
18.9954713615
 10
17.2330372255
 20
18.9813221385
 10
17.2271205638
 20
18.9679085368
 10
17.2211991954
 20
18.9552336225
 10
17.2152829389
 20
18.9432913263
 10
17.2093899658
 20
18.932049524
 10
17.2035326549
 20
18.9215171253
 10
17.197716456
 20
18.9116815626
 10
17.1919492382
 20
18.9024782873
 10
17.1862573836
 20
18.8939285061
 10
17.1806309808
 20
18.8860070588
 10
17.1750204864
 20
18.8785806739
 10
17.1694259945
 20
18.8716319408
 10
17.1638568878
 20
18.8651761433
 10
17.1582730808
 20
18.8591305002
 10
17.152665457
 20
18.8534774621
 10
17.1470484057
 20
18.8482336789
 10
17.1414149115
 20
18.8433684092
 10
17.1357655519
 20
18.8388794086
 10
17.1301043273
 20
18.8347681121
 10
17.1244287918
 20
18.831009474
 10
17.1187427692
 20
18.8276036235
 10
17.1130465695
 20
18.8245496473
 10
17.1073319578
 20
18.8218211165
 10
17.1016026864
 20
18.8194168207
 10
17.0958583454
 20
18.8173373921
 10
17.0900836256
 20
18.8155595025
 10
17.0842739564
 20
18.8140754139
 10
17.0784360421
 20
18.8128927389
 10
17.0725709883
 20
18.8120113816
  0
LWPOLYLINE
  5
3DC
100
AcDbEntity
  8
RACCORDO
100
AcDbPolyline
 62
250
  6
CONTINUOUS
 90
10
 70
0
 10
16.7470025822
 20
-27.8787742303
 10
16.7460737994
 20
-27.9214248771
 10
16.7415566233
 20
-27.9617707754
 10
16.7334978475
 20
-27.9993939782
 10
16.7219809537
 20
-28.0339047433
 10
16.7071252464
 20
-28.0649455705
 10
16.6890846174
 20
-28.0921949051
 10
16.668045951
 20
-28.1153704688
 10
16.6442271888
 20
-28.1342321837
 10
16.6273694073
 20
-28.1440847922
  0
LWPOLYLINE
  5
3DD
100
AcDbEntity
  8
RACCORDO
100
AcDbPolyline
 62
250
  6
CONTINUOUS
 90
10
 70
0
 10
17.4663055678
 20
-27.5110689565
 10
17.4653034743
 20
-27.55462462
 10
17.4605574147
 20
-27.5957650168
 10
17.4521187137
 20
-27.6340453604
 10
17.440078616
 20
-27.6690517862
 10
17.4245672988
 20
-27.700405826
 10
17.4057524657
 20
-27.7277685001
 10
17.3838375325
 20
-27.7508439813
 10
17.3590594293
 20
-27.7693827937
 10
17.3465955699
 20
-27.7764209345
  0
LWPOLYLINE
  5
3DE
100
AcDbEntity
  8
RACCORDO
100
AcDbPolyline
 62
250
  6
CONTINUOUS
 90
10
 70
0
 10
16.4576983555
 20
-27.9879377332
 10
16.4564557863
 20
-28.0318910723
 10
16.4514208768
 20
-28.0733921924
 10
16.4426488662
 20
-28.1119863371
 10
16.4302359847
 20
-28.1472505831
 10
16.4143182663
 20
-28.1787985484
 10
16.3950700547
 20
-28.2062846223
 10
16.3727023059
 20
-28.2294076347
 10
16.3474601695
 20
-28.2479142199
 10
16.3353852399
 20
-28.2546050598
  0
LWPOLYLINE
  5
3DF
100
AcDbEntity
  8
RACCORDO
100
AcDbPolyline
 62
250
  6
CONTINUOUS
 90
10
 70
0
 10
17.7421987013
 20
-27.3407310206
 10
17.7409513932
 20
-27.3846926131
 10
17.7359108829
 20
-27.4262013032
 10
17.7271324162
 20
-27.4648021384
 10
17.7147122082
 20
-27.5000720378
 10
17.6987863892
 20
-27.5316244288
 10
17.6795295124
 20
-27.5591134841
 10
17.6571526407
 20
-27.5822379127
 10
17.6319010335
 20
-27.6007442611
 10
17.6198522246
 20
-27.6074191303
  0
LWPOLYLINE
  5
3E0
100
AcDbEntity
  8
RACCORDO
100
AcDbPolyline
 62
250
  6
CONTINUOUS
 90
10
 70
0
 10
15.3750965234
 20
-29.6906519319
 10
15.3763040498
 20
-29.6647855403
 10
15.37991014
 20
-29.6380649549
 10
15.3858655403
 20
-29.6108552197
 10
15.394104713
 20
-29.5834818353
 10
15.4045066035
 20
-29.5563658687
 10
15.4168607152
 20
-29.5300113449
 10
15.4309445655
 20
-29.5048058058
 10
15.4465626486
 20
-29.4810237121
 10
15.4634848711
 20
-29.4589577581
  0
LINE
  5
3E1
100
AcDbEntity
  8
RACCORDO
100
AcDbLine
 62
250
  6
CONTINUOUS
 10
17.2157695373
 20
11.319769591
 11
17.2160867811
 21
11.3258149579
  0
LWPOLYLINE
  5
3E2
100
AcDbEntity
  8
RACCORDO
100
AcDbPolyline
 62
250
  6
CONTINUOUS
 90
8
 70
0
 10
15.728649914
 20
-30.041965904
 10
15.7271375649
 20
-30.069469479
 10
15.7226263942
 20
-30.0949901111
 10
15.7151935893
 20
-30.1180911351
 10
15.7049663276
 20
-30.1383772863
 10
15.6921196004
 20
-30.1555014628
 10
15.6768732187
 20
-30.1691706653
 10
15.6636766176
 20
-30.1771843541
  0
LWPOLYLINE
  5
3E3
100
AcDbEntity
  8
RACCORDO
100
AcDbPolyline
 62
250
  6
CONTINUOUS
 90
7
 70
0
 10
17.9231935623
 20
13.109314699
 10
17.9211560929
 20
13.0933884361
 10
17.9148302313
 20
13.0772533508
 10
17.9043280813
 20
13.0616784887
 10
17.8898375422
 20
13.046934041
 10
17.8716121148
 20
13.0332718196
 10
17.8499702576
 20
13.0209263513
  0
LWPOLYLINE
  5
3E4
100
AcDbEntity
  8
RACCORDO
100
AcDbPolyline
 62
250
  6
CONTINUOUS
 90
7
 70
0
 10
17.9231935613
 20
12.7579896227
 10
17.9210020791
 20
12.7414860441
 10
17.9145499254
 20
12.7254158149
 10
17.9039759012
 20
12.7099395367
 10
17.8895001783
 20
12.6953280696
 10
17.871388175
 20
12.6818119885
 10
17.8499702576
 20
12.6696123793
  0
LINE
  5
3E5
100
AcDbEntity
  8
RACCORDO
100
AcDbLine
 62
250
  6
CONTINUOUS
 10
1.2923885281
 20
18.3174044976
 11
1.2790382738
 21
18.3171173224
  0
LWPOLYLINE
  5
3E6
100
AcDbEntity
  8
RACCORDO
100
AcDbPolyline
 62
250
  6
CONTINUOUS
 90
4
 70
0
 10
3.8478359673
 20
17.9800328698
 10
3.8641416541
 20
17.9780286615
 10
3.8813814214
 20
17.9791543205
 10
3.8992668016
 20
17.9833910019
  0
LINE
  5
3E7
100
AcDbEntity
  8
RACCORDO
100
AcDbLine
 62
7
  6
CONTINUOUS
 10
2.1368543017
 20
18.1346947483
 11
2.6671843876
 21
18.0248597913
  0
LINE
  5
3E8
100
AcDbEntity
  8
RACCORDO
100
AcDbLine
 62
250
  6
CONTINUOUS
 10
2.3643317496
 20
18.2911112897
 11
2.8946618355
 21
18.1812763326
  0
LWPOLYLINE
  5
3E9
100
AcDbEntity
  8
RACCORDO
100
AcDbPolyline
 62
250
  6
CONTINUOUS
 90
4
 70
0
 10
14.5948109211
 20
11.6486257432
 10
14.6132911964
 20
11.6408882836
 10
14.6314975068
 20
11.6362674534
 10
14.6491183377
 20
11.6348423193
  0
LWPOLYLINE
  5
3EA
100
AcDbEntity
  8
RACCORDO
100
AcDbPolyline
 62
250
  6
CONTINUOUS
 90
16
 70
0
 10
16.0822033046
 20
10.9106021383
 10
16.1018103433
 20
10.9017398922
 10
16.1230962044
 20
10.8939127112
 10
16.1458100169
 20
10.887195248
 10
16.1696724887
 20
10.8816474443
 10
16.1944277251
 20
10.8773138897
 10
16.2198521198
 20
10.8742324321
 10
16.2456548191
 20
10.8724270111
 10
16.2715705227
 20
10.871906726
 10
16.2974151914
 20
10.872688249
 10
16.3229294905
 20
10.8747683863
 10
16.3478092726
 20
10.878129226
 10
16.3718012505
 20
10.8827622752
 10
16.3946374202
 20
10.8886314976
 10
16.416041317
 20
10.8956688466
 10
16.4357566952
 20
10.9037997
  0
LWPOLYLINE
  5
3EB
100
AcDbEntity
  8
RACCORDO
100
AcDbPolyline
 62
250
  6
CONTINUOUS
 90
7
 70
0
 10
15.9383138054
 20
10.6654786879
 10
15.9648981824
 20
10.6532734649
 10
15.9927346905
 20
10.6422518096
 10
16.0218233296
 20
10.6324137222
 10
16.0521640998
 20
10.6237592025
 10
16.083757001
 20
10.6162882507
 10
16.1166020333
 20
10.6100008666
  0
LWPOLYLINE
  5
3EC
100
AcDbEntity
  8
RACCORDO
100
AcDbPolyline
 62
7
  6
CONTINUOUS
 90
25
 70
0
 10
11.8415930971
 20
14.3979666328
 10
11.8657554582
 20
14.3866752392
 10
11.8911113427
 20
14.3762783561
 10
11.9176607507
 20
14.3667759834
 10
11.9455281438
 20
14.3581349445
 10
11.9745890602
 20
14.3503884161
 10
12.0044701151
 20
14.3436359283
 10
12.0351818912
 20
14.3378903078
 10
12.0667138057
 20
14.333138728
 10
12.0986607254
 20
14.3294422388
 10
12.1310280054
 20
14.3268144547
 10
12.1638102905
 20
14.3252417611
 10
12.1965863823
 20
14.3247443648
 10
12.229356201
 20
14.3253361407
 10
12.2621198263
 20
14.3270032138
 10
12.2944562997
 20
14.329724165
 10
12.3263601092
 20
14.3335125929
 10
12.3578367668
 20
14.3383548988
 10
12.388481849
 20
14.344188867
 10
12.4182846257
 20
14.3510272936
 10
12.447255827
 20
14.3588573825
 10
12.4750232208
 20
14.36757853
 10
12.5014627295
 20
14.3771572014
 10
12.5266984306
 20
14.3876269314
 10
12.5507303242
 20
14.3989877199
  0
LWPOLYLINE
  5
3ED
100
AcDbEntity
  8
RACCORDO
100
AcDbPolyline
 62
250
  6
CONTINUOUS
 90
3
 70
0
 10
3.8305239491
 20
17.98619514
 10
3.8327372021
 20
17.9851334192
 10
3.8478359673
 20
17.9800328698
  0
LINE
  5
3EE
100
AcDbEntity
  8
DRAFT
100
AcDbLine
 62
7
  6
CONTINUOUS
 10
0.5275265638
 20
17.7066104026
 11
16.2219522156
 21
9.8593975767
  0
LINE
  5
3EF
100
AcDbEntity
  8
268
100
AcDbLine
 62
7
  6
CONTINUOUS
 10
-0.2519633408
 20
18.1527548917
 11
-15.5254698144
 21
25.7895081285
  0
LINE
  5
3F0
100
AcDbEntity
  8
RACCORDO
100
AcDbLine
 62
7
  6
CONTINUOUS
 10
15.8682372649
 20
10.4953352617
 11
0.8812415145
 21
17.9888331369
  0
LINE
  5
3F1
100
AcDbEntity
  8
RACCORDO
100
AcDbLine
 62
250
  6
CONTINUOUS
 10
14.5948109211
 20
11.33723013
 11
15.9383138054
 21
10.6654786879
  0
LINE
  5
3F2
100
AcDbEntity
  8
RACCORDO
100
AcDbLine
 62
250
  6
CONTINUOUS
 10
2.573995641
 20
17.3476377701
 11
1.2304927567
 21
18.0193892123
  0
LINE
  5
3F3
100
AcDbEntity
  8
268
100
AcDbLine
 62
7
  6
CONTINUOUS
 10
0.3075513438
 20
18.5876620198
 11
-1.3064527722
 21
19.3946640778
  0
LINE
  5
3F4
100
AcDbEntity
  8
268
100
AcDbLine
 62
7
  6
CONTINUOUS
 10
-13.0567668206
 20
25.269821102
 11
-14.6707709366
 21
26.07682316
  0
LINE
  5
3F5
100
AcDbEntity
  8
RACCORDO
100
AcDbLine
 62
250
  6
CONTINUOUS
 10
14.7387004204
 20
11.5823535804
 11
16.0822033046
 21
10.9106021383
  0
LINE
  5
3F6
100
AcDbEntity
  8
RACCORDO
100
AcDbLine
 62
250
  6
CONTINUOUS
 10
2.7178851402
 20
17.5927612205
 11
1.3743822559
 21
18.2645126627
  0
LINE
  5
3F7
100
AcDbEntity
  8
268
100
AcDbLine
 62
7
  6
CONTINUOUS
 10
-9.7243109399
 20
23.9609253968
 11
-3.9318018718
 21
21.0646708628
  0
LINE
  5
3F8
100
AcDbEntity
  8
RACCORDO
100
AcDbLine
 62
7
  6
CONTINUOUS
 10
11.8415930971
 20
13.2006475972
 11
6.3220992446
 21
15.9603945234
  0
LINE
  5
3F9
100
AcDbEntity
  8
268
100
AcDbLine
 62
7
  6
CONTINUOUS
 10
-15.3091685981
 20
26.8483529663
 11
-13.7026361287
 21
26.0450867317
  0
LINE
  5
3FA
100
AcDbEntity
  8
268
100
AcDbLine
 62
7
  6
CONTINUOUS
 10
-1.9448504336
 20
20.1661938841
 11
-0.3383179643
 21
19.3629276495
  0
LINE
  5
3FB
100
AcDbEntity
  8
RACCORDO
100
AcDbLine
 62
7
  6
CONTINUOUS
 10
15.4400698198
 20
11.4737337574
 11
14.0965669356
 21
12.1454851995
  0
LINE
  5
3FC
100
AcDbEntity
  8
RACCORDO
100
AcDbLine
 62
7
  6
CONTINUOUS
 10
2.0757516554
 20
18.1558928396
 11
0.7322487712
 21
18.8276442817
  0
LINE
  5
3FD
100
AcDbEntity
  8
RACCORDO
100
AcDbLine
 62
250
  6
CONTINUOUS
 10
2.3092220725
 20
18.0989962141
 11
2.7178851402
 21
17.8946646803
  0
LINE
  5
3FE
100
AcDbEntity
  8
RACCORDO
100
AcDbLine
 62
250
  6
CONTINUOUS
 10
15.6735402369
 20
11.4168371319
 11
16.0822033046
 21
11.2125055981
  0
LINE
  5
3FF
100
AcDbEntity
  8
268
100
AcDbLine
 62
250
  6
CONTINUOUS
 10
-15.3737638909
 20
26.9833824146
 11
-13.7679874287
 21
26.1804941836
  0
LINE
  5
400
100
AcDbEntity
  8
268
100
AcDbLine
 62
250
  6
CONTINUOUS
 10
-2.0094457265
 20
20.3012233324
 11
-0.4036692643
 21
19.4983351013
  0
LINE
  5
401
100
AcDbEntity
  8
RACCORDO
100
AcDbLine
 62
250
  6
CONTINUOUS
 10
15.3750965234
 20
11.6089522075
 11
14.0315936392
 21
12.2807036496
  0
LINE
  5
402
100
AcDbEntity
  8
RACCORDO
100
AcDbLine
 62
250
  6
CONTINUOUS
 10
2.010778359
 20
18.2911112897
 11
0.6672754747
 21
18.9628627318
  0
LINE
  5
403
100
AcDbEntity
  8
268
100
AcDbLine
 62
250
  6
CONTINUOUS
 10
-0.4036692643
 20
19.7517064951
 11
-2.0094457265
 21
20.5545947262
  0
LINE
  5
404
100
AcDbEntity
  8
268
100
AcDbLine
 62
250
  6
CONTINUOUS
 10
-13.7679874287
 20
26.4338655773
 11
-15.3737638909
 21
27.2367538084
  0
LINE
  5
405
100
AcDbEntity
  8
RACCORDO
100
AcDbLine
 62
250
  6
CONTINUOUS
 10
0.6672754747
 20
19.3141767039
 11
2.010778359
 21
18.6424252618
  0
LINE
  5
406
100
AcDbEntity
  8
RACCORDO
100
AcDbLine
 62
250
  6
CONTINUOUS
 10
14.0315936392
 20
12.6320176217
 11
15.3750965234
 21
11.9602661796
  0
LINE
  5
407
100
AcDbEntity
  8
268
100
AcDbLine
 62
7
  6
CONTINUOUS
 10
-11.9899359085
 20
25.8084023515
 11
-9.8121789055
 21
24.71952385
  0
LINE
  5
408
100
AcDbEntity
  8
268
100
AcDbLine
 62
7
  6
CONTINUOUS
 10
-3.0096797874
 20
21.318274291
 11
-1.9285578363
 21
20.7777133154
  0
LINE
  5
409
100
AcDbEntity
  8
268
100
AcDbLine
 62
250
  6
CONTINUOUS
 10
-0.2268985349
 20
20.0555720733
 11
-1.834719944
 21
20.8594827779
  0
LINE
  5
40A
100
AcDbEntity
  8
268
100
AcDbLine
 62
250
  6
CONTINUOUS
 10
-13.5912166993
 20
26.7377311556
 11
-15.1990381084
 21
27.5416418601
  0
LINE
  5
40B
100
AcDbEntity
  8
RACCORDO
100
AcDbLine
 62
250
  6
CONTINUOUS
 10
3.8579319659
 20
18.0204510856
 11
3.9174985252
 21
17.9906678059
  0
LINE
  5
40C
100
AcDbEntity
  8
RACCORDO
100
AcDbLine
 62
250
  6
CONTINUOUS
 10
17.2818166896
 20
11.3085087237
 11
17.2222683321
 21
11.3382829025
  0
LINE
  5
40D
100
AcDbEntity
  8
RACCORDO
100
AcDbLine
 62
250
  6
CONTINUOUS
 10
0.84405217
 20
19.6190714025
 11
2.1875550543
 21
18.9473199604
  0
LINE
  5
40E
100
AcDbEntity
  8
RACCORDO
100
AcDbLine
 62
250
  6
CONTINUOUS
 10
14.2083703345
 20
12.9369123203
 11
15.5518732187
 21
12.2651608782
  0
LINE
  5
40F
100
AcDbEntity
  8
268
100
AcDbLine
 62
7
  6
CONTINUOUS
 10
-9.7243109399
 20
25.1758802629
 11
-3.9318018718
 21
22.2796257288
  0
LINE
  5
410
100
AcDbEntity
  8
RACCORDO
100
AcDbLine
 62
7
  6
CONTINUOUS
 10
11.8415930971
 20
14.3979666328
 11
6.3220992446
 21
17.157713559
  0
LINE
  5
411
100
AcDbEntity
  8
RACCORDO
100
AcDbLine
 62
7
  6
CONTINUOUS
 10
3.9111126882
 20
18.5498683047
 11
5.3218376358
 21
17.8445058309
  0
LINE
  5
412
100
AcDbEntity
  8
RACCORDO
100
AcDbLine
 62
7
  6
CONTINUOUS
 10
17.2754308526
 20
11.8677092225
 11
18.0265853928
 21
11.4921319524
  0
LINE
  5
413
100
AcDbEntity
  8
268
100
AcDbLine
 62
7
  6
CONTINUOUS
 10
-10.4586617915
 20
25.742314385
 11
-11.9411397949
 21
26.4835533867
  0
LWPOLYLINE
  5
414
100
AcDbEntity
  8
RACCORDO
100
AcDbPolyline
 62
250
  6
CONTINUOUS
 90
7
 70
0
 10
1.2304927567
 20
18.0193892123
 10
1.2061290281
 20
18.0326571766
 10
1.184213369
 20
18.0465098726
 10
1.1647457797
 20
18.0609473002
 10
1.1477262599
 20
18.0759694595
 10
1.1331548098
 20
18.0915763504
 10
1.1210314293
 20
18.1077679729
  0
LINE
  5
415
100
AcDbEntity
  8
RACCORDO
100
AcDbLine
 62
250
  6
CONTINUOUS
 10
14.7210608122
 20
11.5921146576
 11
14.7387004204
 21
11.5823535804
  0
LWPOLYLINE
  5
416
100
AcDbEntity
  8
RACCORDO
100
AcDbPolyline
 62
250
  6
CONTINUOUS
 90
8
 70
0
 10
1.3743822559
 20
18.2645126627
 10
1.3566978016
 20
18.2743013742
 10
1.3412360259
 20
18.2848629757
 10
1.3281468575
 20
18.2960708461
 10
1.3175557132
 20
18.3077829354
 10
1.3095475362
 20
18.3198715284
 10
1.3041783969
 20
18.3322267921
 10
1.3014923327
 20
18.3446983158
  0
LWPOLYLINE
  5
417
100
AcDbEntity
  8
RACCORDO
100
AcDbPolyline
 62
250
  6
CONTINUOUS
 90
16
 70
0
 10
3.9174985252
 20
17.9906678059
 10
3.9496967161
 20
17.9726161717
 10
3.9774403615
 20
17.9535889043
 10
4.0007294612
 20
17.9335860036
 10
4.0196783208
 20
17.9123734797
 10
4.0341726348
 20
17.8901853225
 10
4.0438694866
 20
17.8677235021
 10
4.0486527797
 20
17.8450031719
 10
4.0486386106
 20
17.8220091785
 10
4.0438323513
 20
17.7993980325
 10
4.034119982
 20
17.777159377
 10
4.0196155226
 20
17.7553035688
 10
4.000666404
 20
17.7345181882
 10
3.9773884368
 20
17.7150324288
 10
3.9496658106
 20
17.6966170969
 10
3.9174985252
 20
17.6792721927
  0
LWPOLYLINE
  5
418
100
AcDbEntity
  8
RACCORDO
100
AcDbPolyline
 62
250
  6
CONTINUOUS
 90
9
 70
0
 10
0.7322487712
 20
18.8276442817
 10
0.7225878931
 20
18.8332146367
 10
0.7084309569
 20
18.8445688421
 10
0.696107625
 20
18.8587730375
 10
0.6858123101
 20
18.8756157617
 10
0.6777217415
 20
18.8947627256
 10
0.6719200521
 20
18.9158818669
 10
0.66843444
 20
18.9386910657
 10
0.6672754747
 20
18.9628627318
  0
LWPOLYLINE
  5
419
100
AcDbEntity
  8
RACCORDO
100
AcDbPolyline
 62
250
  6
CONTINUOUS
 90
9
 70
0
 10
2.0757516554
 20
18.1558928396
 10
2.0660907774
 20
18.1614631946
 10
2.0519338412
 20
18.1728174
 10
2.0396105093
 20
18.1870215954
 10
2.0293151943
 20
18.2038643195
 10
2.0212246257
 20
18.2230112835
 10
2.0154229363
 20
18.2441304248
 10
2.0119373243
 20
18.2669396235
 10
2.010778359
 20
18.2911112897
  0
LWPOLYLINE
  5
41A
100
AcDbEntity
  8
RACCORDO
100
AcDbPolyline
 62
250
  6
CONTINUOUS
 90
9
 70
0
 10
14.0965669356
 20
12.1454851995
 10
14.0869060575
 20
12.1510555545
 10
14.0727491214
 20
12.1624097599
 10
14.0604257894
 20
12.1766139553
 10
14.0501304745
 20
12.1934566795
 10
14.0420399059
 20
12.2126036434
 10
14.0362382165
 20
12.2337227847
 10
14.0327526045
 20
12.2565319835
 10
14.0315936392
 20
12.2807036496
  0
LWPOLYLINE
  5
41B
100
AcDbEntity
  8
RACCORDO
100
AcDbPolyline
 62
250
  6
CONTINUOUS
 90
9
 70
0
 10
15.4400698198
 20
11.4737337574
 10
15.4304089418
 20
11.4793041124
 10
15.4162520056
 20
11.4906583178
 10
15.4039286737
 20
11.5048625132
 10
15.3936333588
 20
11.5217052373
 10
15.3855427902
 20
11.5408522013
 10
15.3797411008
 20
11.5619713426
 10
15.3762554887
 20
11.5847805413
 10
15.3750965234
 20
11.6089522075
  0
LWPOLYLINE
  5
41C
100
AcDbEntity
  8
RACCORDO
100
AcDbPolyline
 62
250
  6
CONTINUOUS
 90
13
 70
0
 10
15.5518732187
 20
12.2651608782
 10
15.574433985
 20
12.2521100697
 10
15.5967818393
 20
12.2356037119
 10
15.6185341873
 20
12.2158470413
 10
15.639352133
 20
12.1930537405
 10
15.6587991811
 20
12.1676016904
 10
15.6763876766
 20
12.1400827715
 10
15.6917807469
 20
12.1110405731
 10
15.7047529014
 20
12.0809193497
 10
15.7150766885
 20
12.0502509965
 10
15.7225758667
 20
12.0195696139
 10
15.7271253744
 20
11.9894013752
 10
15.728649914
 20
11.9602661796
  0
LWPOLYLINE
  5
41D
100
AcDbEntity
  8
RACCORDO
100
AcDbPolyline
 62
250
  6
CONTINUOUS
 90
13
 70
0
 10
2.1875550543
 20
18.9473199604
 10
2.2106290432
 20
18.9339307241
 10
2.2333082298
 20
18.9170660976
 10
2.2552045668
 20
18.8970146395
 10
2.2759434019
 20
18.8741194356
 10
2.2951698879
 20
18.8487722293
 10
2.3125550543
 20
18.8214067183
 10
2.327801436
 20
18.7924911342
 10
2.3406481632
 20
18.7625202304
 10
2.3508754249
 20
18.7320068176
 10
2.3583082298
 20
18.7014729887
 10
2.3628194005
 20
18.6714411859
 10
2.3643317496
 20
18.6424252618
  0
LWPOLYLINE
  5
41E
100
AcDbEntity
  8
RACCORDO
100
AcDbPolyline
 62
250
  6
CONTINUOUS
 90
16
 70
0
 10
16.1165987297
 20
10.6099993387
 10
16.1528982015
 20
10.5888141002
 10
16.1887246662
 20
10.5630813177
 10
16.2236855947
 20
10.5330847136
 10
16.2573960533
 20
10.4991555965
 10
16.2894892973
 20
10.4616663734
 10
16.3196201012
 20
10.4210251097
 10
16.3474601033
 20
10.3776756753
 10
16.3727022362
 20
10.33209421
 10
16.3950699828
 20
10.2847801651
 10
16.4143181945
 20
10.2362519424
 10
16.4302359163
 20
10.1870412635
 10
16.4426488054
 20
10.1376873703
 10
16.4514208286
 20
10.0887310465
 10
16.456455757
 20
10.040708693
 10
16.4576983523
 20
9.9941464956
  0
LWPOLYLINE
  5
41F
100
AcDbEntity
  8
RACCORDO
100
AcDbPolyline
 62
250
  6
CONTINUOUS
 90
16
 70
0
 10
17.40104028
 20
11.203233508
 10
17.4373194332
 20
11.1820562658
 10
17.4731333114
 20
11.1563320492
 10
17.5080893802
 20
11.1263428066
 10
17.5418045069
 20
11.0924172327
 10
17.57390916
 20
11.0549271662
 10
17.6040514597
 20
11.014283514
 10
17.6319010342
 20
10.9709317477
 10
17.657152641
 20
10.925347021
 10
17.6795295124
 20
10.8780289615
 10
17.698786389
 20
10.8294961953
 10
17.7147122079
 20
10.7802806617
 10
17.7271324158
 20
10.7309217839
 10
17.7359108826
 20
10.6819605558
 10
17.740951393
 20
10.6339336131
 10
17.7421987014
 20
10.5873673514
  0
LWPOLYLINE
  5
420
100
AcDbEntity
  8
268
100
AcDbPolyline
 62
7
  6
CONTINUOUS
 90
20
 70
0
 10
7.2448098619
 20
22.6918444576
 10
7.2434097102
 20
22.6939755224
 10
7.2416632839
 20
22.6962839698
 10
7.239581674
 20
22.6987736088
 10
7.2371767096
 20
22.7014510517
 10
7.2344566177
 20
22.7042862676
 10
7.2314316865
 20
22.707282794
 10
7.2281131851
 20
22.7104458722
 10
7.2245090282
 20
22.7137478646
 10
7.2206291713
 20
22.7171918474
 10
7.2164844998
 20
22.7207820917
 10
7.2120832671
 20
22.7244925913
 10
7.2074349286
 20
22.7283261832
 10
7.2025504746
 20
22.7322860568
 10
7.1974400862
 20
22.7363464771
 10
7.1921132112
 20
22.7405096924
 10
7.1865810079
 20
22.7447780638
 10
7.1808565366
 20
22.7491255633
 10
7.1749513532
 20
22.7535444455
 10
7.1626383016
 20
22.7626295351
  0
LINE
  5
421
100
AcDbEntity
  8
218
100
AcDbLine
 62
7
  6
CONTINUOUS
 10
8.7884092631
 20
20.5284271318
 11
7.7052139936
 21
22.3966626176
  0
LWPOLYLINE
  5
422
100
AcDbEntity
  8
RACCORDO
100
AcDbPolyline
 62
250
  6
CONTINUOUS
 90
8
 70
0
 10
17.8499702576
 20
-28.9813057322
 10
17.8484457179
 20
-29.0089163882
 10
17.8438962102
 20
-29.0345351192
 10
17.836397032
 20
-29.0577173236
 10
17.826073245
 20
-29.0780618897
 10
17.8131010905
 20
-29.0952109587
 10
17.7977080201
 20
-29.1088600867
 10
17.7849969612
 20
-29.1165241823
  0
LWPOLYLINE
  5
423
100
AcDbEntity
  8
RACCORDO
100
AcDbPolyline
 62
250
  6
CONTINUOUS
 90
3
 70
0
 10
17.1449447925
 20
-27.8794577187
 10
17.143371301
 20
-27.8922556764
 10
17.1428634764
 20
-27.909722723
  0
LINE
  5
424
100
AcDbEntity
  8
RACCORDO
100
AcDbLine
 62
250
  6
CONTINUOUS
 10
17.2139479964
 20
-28.1614725771
 11
17.2160867811
 21
-28.1451568031
  0
LINE
  5
425
100
AcDbEntity
  8
268
100
AcDbLine
 62
7
  6
CONTINUOUS
 10
0.3075513438
 20
19.2248315785
 11
-0.3147666883
 21
19.354772161
  0
LWPOLYLINE
  5
426
100
AcDbEntity
  8
218
100
AcDbPolyline
 62
7
  6
CONTINUOUS
 90
21
 70
0
 10
-4.0012880538
 20
25.0333645523
 10
-4.0131250981
 20
25.0388385834
 10
-4.0248959902
 20
25.0438566116
 10
-4.0365881803
 20
25.0484129228
 10
-4.0481883216
 20
25.0525024378
 10
-4.0596847316
 20
25.0561204435
 10
-4.0710673905
 20
25.0592624487
 10
-4.0823236406
 20
25.0619248529
 10
-4.0934413745
 20
25.0641044421
 10
-4.104411456
 20
25.0657978429
 10
-4.1152215306
 20
25.0670030017
 10
-4.1258596263
 20
25.0677181755
 10
-4.1363172756
 20
25.0679410308
 10
-4.1465820488
 20
25.0676711176
 10
-4.1566427032
 20
25.0669082851
 10
-4.1664926581
 20
25.0656511676
 10
-4.1761207189
 20
25.0639006798
 10
-4.1855151316
 20
25.0616581855
 10
-4.1946687056
 20
25.058923765
 10
-4.203568563
 20
25.0557009513
 10
-4.2118791983
 20
25.0521437799
  0
LWPOLYLINE
  5
427
100
AcDbEntity
  8
RACCORDO
100
AcDbPolyline
 62
250
  6
CONTINUOUS
 90
7
 70
0
 10
4.4204942946
 20
20.0151725766
 10
4.4158013602
 20
20.0173469067
 10
4.3963543122
 20
20.0233519088
 10
4.3755363665
 20
20.0253272639
 10
4.3537840184
 20
20.0233315864
 10
4.3314361641
 20
20.0174900899
 10
4.3088753979
 20
20.0079801321
  0
LWPOLYLINE
  5
428
100
AcDbEntity
  8
RACCORDO
100
AcDbPolyline
 62
250
  6
CONTINUOUS
 90
7
 70
0
 10
3.0771759125
 20
20.6868320211
 10
3.0722984759
 20
20.6890983488
 10
3.0528514279
 20
20.695103351
 10
3.0320334822
 20
20.6970787061
 10
3.0102811342
 20
20.6950830286
 10
2.9879332798
 20
20.689241532
 10
2.9653725136
 20
20.6797315743
  0
LWPOLYLINE
  5
429
100
AcDbEntity
  8
RACCORDO
100
AcDbPolyline
 62
250
  6
CONTINUOUS
 90
7
 70
0
 10
17.7849969612
 20
13.3329214967
 10
17.7808083959
 20
13.3348881525
 10
17.7615819099
 20
13.3410088728
 10
17.7408430748
 20
13.3431652415
 10
17.7189467378
 20
13.3413203627
 10
17.6962675512
 20
13.3355058025
 10
17.6731935623
 20
13.3258210499
  0
LWPOLYLINE
  5
42A
100
AcDbEntity
  8
RACCORDO
100
AcDbPolyline
 62
250
  6
CONTINUOUS
 90
7
 70
0
 10
16.4414940769
 20
14.0046729389
 10
16.4373055117
 20
14.0066395947
 10
16.4180790257
 20
14.0127603149
 10
16.3973401905
 20
14.0149166837
 10
16.3754438535
 20
14.0130718048
 10
16.3527646669
 20
14.0072572447
 10
16.329690678
 20
13.9975724921
  0
LINE
  5
42B
100
AcDbEntity
  8
268
100
AcDbLine
 62
7
  6
CONTINUOUS
 10
-9.2322194619
 20
25.6419796935
 11
-3.0096797874
 21
22.5307098563
  0
LINE
  5
42C
100
AcDbEntity
  8
268
100
AcDbLine
 62
7
  6
CONTINUOUS
 10
-13.6162815052
 20
28.3536259574
 11
-11.9899359085
 21
27.5404531591
  0
LINE
  5
42D
100
AcDbEntity
  8
268
100
AcDbLine
 62
7
  6
CONTINUOUS
 10
-0.2519633408
 20
21.6714668752
 11
1.3743822559
 21
20.8582940768
  0
LINE
  5
42E
100
AcDbEntity
  8
268
100
AcDbLine
 62
7
  6
CONTINUOUS
 10
-7.8887165776
 20
25.6722966441
 11
-2.9389691093
 21
23.19742291
  0
LINE
  5
42F
100
AcDbEntity
  8
0
100
AcDbLine
 62
7
  6
CONTINUOUS
 10
12.9709334674
 20
15.24751001
 11
8.0211859991
 21
17.7223837442
  0
LINE
  5
430
100
AcDbEntity
  8
268
100
AcDbLine
 62
250
  6
CONTINUOUS
 10
-13.0818316265
 20
28.613973424
 11
-11.4616687368
 21
27.8038919791
  0
LINE
  5
431
100
AcDbEntity
  8
268
100
AcDbLine
 62
250
  6
CONTINUOUS
 10
0.2824865379
 20
21.9318143418
 11
1.9026494277
 21
21.1217328969
  0
LINE
  5
432
100
AcDbEntity
  8
268
100
AcDbLine
 62
7
  6
CONTINUOUS
 10
-12.9704121971
 20
28.6202410802
 11
-11.3515382471
 21
27.8108041051
  0
LINE
  5
433
100
AcDbEntity
  8
268
100
AcDbLine
 62
7
  6
CONTINUOUS
 10
0.3939059673
 20
21.938081998
 11
2.0127799174
 21
21.1286450229
  0
LINE
  5
434
100
AcDbEntity
  8
RACCORDO
100
AcDbLine
 62
250
  6
CONTINUOUS
 10
2.9653725136
 20
20.6797315743
 11
4.3088753979
 21
20.0079801321
  0
LINE
  5
435
100
AcDbEntity
  8
RACCORDO
100
AcDbLine
 62
250
  6
CONTINUOUS
 10
16.329690678
 20
13.9975724921
 11
17.6731935623
 21
13.3258210499
  0
LINE
  5
436
100
AcDbEntity
  8
RACCORDO
100
AcDbLine
 62
7
  6
CONTINUOUS
 10
3.0771759125
 20
20.6868320211
 11
4.4206787967
 21
20.015080579
  0
LINE
  5
437
100
AcDbEntity
  8
RACCORDO
100
AcDbLine
 62
7
  6
CONTINUOUS
 10
16.4414940769
 20
14.0046729389
 11
17.7849969612
 21
13.3329214967
  0
LINE
  5
438
100
AcDbEntity
  8
218
100
AcDbLine
 62
7
  6
CONTINUOUS
 10
-3.999683129
 20
25.0325780266
 11
-1.624807129
 21
23.8451400266
  0
LINE
  5
439
100
AcDbEntity
  8
218
100
AcDbLine
 62
250
  6
CONTINUOUS
 10
-0.9970421242
 20
24.154549479
 11
-3.0102695787
 21
25.1611495867
  0
LINE
  5
43A
100
AcDbEntity
  8
218
100
AcDbLine
 62
7
  6
CONTINUOUS
 10
-0.948737986
 20
24.1783573639
 11
-2.9207357135
 21
25.1643562277
  0
LWPOLYLINE
  5
43B
100
AcDbEntity
  8
RACCORDO
100
AcDbPolyline
 62
250
  6
CONTINUOUS
 90
13
 70
0
 10
17.6731935623
 20
13.3258210499
 10
17.6957543285
 20
13.3127702415
 10
17.7181021829
 20
13.2962638836
 10
17.7398545309
 20
13.2765072131
 10
17.7606724766
 20
13.2537139123
 10
17.7801195246
 20
13.2282618621
 10
17.7977080201
 20
13.2007429433
 10
17.8131010905
 20
13.1717007449
 10
17.826073245
 20
13.1415795214
 10
17.836397032
 20
13.1109111683
 10
17.8438962102
 20
13.0802297856
 10
17.8484457179
 20
13.050061547
 10
17.8499702576
 20
13.0209263513
  0
LWPOLYLINE
  5
43C
100
AcDbEntity
  8
RACCORDO
100
AcDbPolyline
 62
250
  6
CONTINUOUS
 90
13
 70
0
 10
4.3088753979
 20
20.0079801321
 10
4.3319493868
 20
19.9945908958
 10
4.3546285733
 20
19.9777262694
 10
4.3765249104
 20
19.9576748112
 10
4.3972637455
 20
19.9347796074
 10
4.4164902315
 20
19.9094324011
 10
4.4338753979
 20
19.8820668901
 10
4.4491217796
 20
19.8531513059
 10
4.4619685068
 20
19.8231804022
 10
4.4721957685
 20
19.7926669894
 10
4.4796285733
 20
19.7621331605
 10
4.484139744
 20
19.7321013577
 10
4.4856520931
 20
19.7030854336
  0
LWPOLYLINE
  5
43D
100
AcDbEntity
  8
RACCORDO
100
AcDbPolyline
 62
250
  6
CONTINUOUS
 90
13
 70
0
 10
17.2370738008
 20
11.0285599951
 10
17.2234881159
 20
11.0420378806
 10
17.2105593509
 20
11.056914897
 10
17.1984272022
 20
11.0730302952
 10
17.18722276
 20
11.0902099429
 10
17.177067087
 20
11.1082682136
 10
17.1680699115
 20
11.1270099938
 10
17.1603284485
 20
11.1462327803
 10
17.1539263479
 20
11.1657288656
 10
17.1489327861
 20
11.1852875911
 10
17.14540172
 20
11.2046976218
 10
17.1433713036
 20
11.2237492302
 10
17.1428634764
 20
11.2422365609
  0
LWPOLYLINE
  5
43E
100
AcDbEntity
  8
RACCORDO
100
AcDbPolyline
 62
250
  6
CONTINUOUS
 90
13
 70
0
 10
17.2370740067
 20
11.0285608927
 10
17.2703656454
 20
10.9945378025
 10
17.3020202704
 20
10.9570179464
 10
17.3316956501
 20
10.9164069597
 10
17.3590709524
 20
10.8731438968
 10
17.3838502136
 20
10.8276964858
 10
17.4057655384
 20
10.7805560707
 10
17.4245799961
 20
10.7322323001
 10
17.4400901829
 20
10.6832476174
 10
17.4521284202
 20
10.634131612
 10
17.4605645686
 20
10.5854152944
 10
17.4653074341
 20
10.5376253551
 10
17.4663057546
 20
10.4912784707
  0
LWPOLYLINE
  5
43F
100
AcDbEntity
  8
RACCORDO
100
AcDbPolyline
 62
250
  6
CONTINUOUS
 90
13
 70
0
 10
16.5264624359
 20
10.6934052414
 10
16.513314055
 20
10.7069379675
 10
16.5008242995
 20
10.7217778206
 10
16.4891227235
 20
10.7377718452
 10
16.4783302886
 20
10.7547559239
 10
16.4685598129
 20
10.772553833
 10
16.4599142405
 20
10.790978674
 10
16.4524834624
 20
10.8098386425
 10
16.446343948
 20
10.8289393783
 10
16.4415592746
 20
10.8480830853
 10
16.4381789894
 20
10.8670715227
 10
16.4362380967
 20
10.8857080572
 10
16.4357566952
 20
10.9037997
  0
LWPOLYLINE
  5
440
100
AcDbEntity
  8
RACCORDO
100
AcDbPolyline
 62
250
  6
CONTINUOUS
 90
13
 70
0
 10
16.5264624358
 20
10.6934052413
 10
16.5586861233
 20
10.6592311268
 10
16.5892625833
 20
10.6217935324
 10
16.6178750716
 20
10.5814802776
 10
16.6442271889
 20
10.5387089711
 10
16.668045951
 20
10.4939226847
 10
16.6890846174
 20
10.4475853638
 10
16.7071252464
 20
10.4001770209
 10
16.7219809536
 20
10.3521887632
 10
16.7334978474
 20
10.3041177056
 10
16.7415566232
 20
10.2564618206
 10
16.7460737994
 20
10.2097147798
 10
16.7470025821
 20
10.16436084
  0
LWPOLYLINE
  5
441
100
AcDbEntity
  8
268
100
AcDbPolyline
 62
7
  6
CONTINUOUS
 90
17
 70
0
 10
7.2455267806
 20
23.2946022811
 10
7.2118894867
 20
23.3306644316
 10
7.1782058987
 20
23.3653030912
 10
7.1444760163
 20
23.39851826
 10
7.1106311145
 20
23.430325564
 10
7.0767399185
 20
23.4607093771
 10
7.0430086035
 20
23.4896228212
 10
7.0094568081
 20
23.5170419965
 10
6.9760648937
 20
23.5429908028
 10
6.9429801196
 20
23.5674940613
 10
6.9102178062
 20
23.5905377682
 10
6.8777626331
 20
23.6121359273
 10
6.8457158985
 20
23.6323553713
 10
6.814088759
 20
23.6511892853
 10
6.7828700579
 20
23.6686444843
 10
6.7521276236
 20
23.6848082458
 10
6.7449778452
 20
23.6884231329
  0
LWPOLYLINE
  5
442
100
AcDbEntity
  8
218
100
AcDbPolyline
 62
7
  6
CONTINUOUS
 90
75
 70
0
 10
18.3803003435
 20
9.1553638243
 10
18.3852406167
 20
9.1471706197
 10
18.4166377536
 20
9.0934613765
 10
18.4473290977
 20
9.0392867799
 10
18.4773040313
 20
8.9846673996
 10
18.506552065
 20
8.9296237203
 10
18.5350606689
 20
8.8741804134
 10
18.5628186059
 20
8.8183602347
 10
18.5898172881
 20
8.7621807924
 10
18.6160459492
 20
8.7056641977
 10
18.6414924321
 20
8.648836111
 10
18.6661461382
 20
8.5917194394
 10
18.6899966574
 20
8.5343371363
 10
18.71303286
 20
8.4767145126
 10
18.7352435291
 20
8.4188780341
 10
18.7566159949
 20
8.36085934
 10
18.7771433455
 20
8.3026754876
 10
18.7968226691
 20
8.2443308373
 10
18.8156494484
 20
8.1858317766
 10
18.8336076247
 20
8.1272205122
 10
18.8506780521
 20
8.0685549584
 10
18.8668459229
 20
8.0098855051
 10
18.8821113796
 20
7.951210682
 10
18.8964776517
 20
7.8925103525
 10
18.9099418426
 20
7.8337807368
 10
18.9224879131
 20
7.7750745337
 10
18.9340996553
 20
7.71645583
 10
18.9447665608
 20
7.6579717188
 10
18.9544871066
 20
7.599623338
 10
18.9632594911
 20
7.5414052877
 10
18.9710786246
 20
7.4833250425
 10
18.9779348502
 20
7.4254236597
 10
18.9838195193
 20
7.367745489
 10
18.9887269379
 20
7.3103168802
 10
18.9926521226
 20
7.2531589319
 10
18.9955895253
 20
7.1963068631
 10
18.9975346742
 20
7.13979382
 10
18.9984841718
 20
7.0836328524
 10
18.9984340387
 20
7.0278283067
 10
18.9973787254
 20
6.9723698775
 10
18.9953135388
 20
6.9173148462
 10
18.9922395221
 20
6.8627664015
 10
18.9881610966
 20
6.8087922216
 10
18.9830766263
 20
6.755365016
 10
18.9769792587
 20
6.7024441579
 10
18.9698570329
 20
6.6499873141
 10
18.961714477
 20
6.5980822954
 10
18.952573843
 20
6.5468801781
 10
18.9424536187
 20
6.4964585989
 10
18.9313491703
 20
6.4467720981
 10
18.9192526001
 20
6.397783641
 10
18.9061530846
 20
6.3494635638
 10
18.8920653073
 20
6.3018799213
 10
18.877022209
 20
6.255139797
 10
18.8610405207
 20
6.209278315
 10
18.844122778
 20
6.1642874421
 10
18.8262880638
 20
6.1202036717
 10
18.8075520476
 20
6.077049079
 10
18.7879222305
 20
6.0348254857
 10
18.7674069419
 20
5.9935380904
 10
18.7459980801
 20
5.9531630523
 10
18.7237257778
 20
5.9137502106
 10
18.7006629682
 20
5.875409192
 10
18.6768700666
 20
5.8382068188
 10
18.6523292405
 20
5.8020829934
 10
18.6269975392
 20
5.7669569741
 10
18.6008576148
 20
5.7327992649
 10
18.5739545333
 20
5.6996634835
 10
18.5463368639
 20
5.6675973458
 10
18.5180397003
 20
5.6366248933
 10
18.4890675782
 20
5.6067347785
 10
18.4594262951
 20
5.5779197612
 10
18.4291382534
 20
5.550189615
 10
18.3982210095
 20
5.5235485601
 10
18.3803003435
 20
5.5090275903
  0
LWPOLYLINE
  5
443
100
AcDbEntity
  8
RACCORDO
100
AcDbPolyline
 62
250
  6
CONTINUOUS
 90
7
 70
0
 10
17.4010403816
 20
11.2032335549
 10
17.3895010634
 20
11.2227563016
 10
17.3746292264
 20
11.2414882942
 10
17.3564248705
 20
11.2594295327
 10
17.3348879958
 20
11.2765800171
 10
17.3100186021
 20
11.2929397475
 10
17.2818166896
 20
11.3085087237
  0
LWPOLYLINE
  5
444
100
AcDbEntity
  8
RACCORDO
100
AcDbPolyline
 62
250
  6
CONTINUOUS
 90
7
 70
0
 10
17.3196401717
 20
12.0294473363
 10
17.329664817
 20
12.0114983471
 10
17.3364932396
 20
11.9953688191
 10
17.3400086033
 20
11.9813347332
 10
17.3401507591
 20
11.9696362164
 10
17.3369172749
 20
11.9604734336
 10
17.3353825145
 20
11.9583476908
  0
LINE
  5
445
100
AcDbEntity
  8
RACCORDO
100
AcDbLine
 62
7
  6
CONTINUOUS
 10
22.5789104262
 20
14.2563025449
 11
22.5789104262
 21
13.3613396814
  0
LINE
  5
446
100
AcDbEntity
  8
RACCORDO
100
AcDbLine
 62
7
  6
CONTINUOUS
 10
22.5789104262
 20
-19.5549702166
 11
22.5789104262
 21
-21.1967462067
  0
LINE
  5
447
100
AcDbEntity
  8
RACCORDO
100
AcDbLine
 62
7
  6
CONTINUOUS
 10
23.3126878812
 20
14.9179424294
 11
23.3126878812
 21
14.636226944
  0
LINE
  5
448
100
AcDbEntity
  8
RACCORDO
100
AcDbLine
 62
7
  6
CONTINUOUS
 10
23.3126878812
 20
-21.5636349342
 11
23.3126878812
 21
-21.8453504196
  0
LWPOLYLINE
  5
449
100
AcDbEntity
  8
RACCORDO
100
AcDbPolyline
 62
7
  6
CONTINUOUS
 90
8
 70
0
 10
22.5789104262
 20
13.3613396814
 10
22.5759871344
 20
13.309109721
 10
22.5688409319
 20
13.261523404
 10
22.5574718186
 20
13.2185807303
 10
22.5416078741
 20
13.179985028
 10
22.5215210189
 20
13.146032969
 10
22.4980270144
 20
13.1176145696
 10
22.4932221993
 20
13.1129039823
  0
LWPOLYLINE
  5
44A
100
AcDbEntity
  8
RACCORDO
100
AcDbPolyline
 62
250
  6
CONTINUOUS
 90
7
 70
0
 10
17.9231934039
 20
-28.8930580771
 10
17.9211560929
 20
-28.9088436475
 10
17.9148302313
 20
-28.9249787327
 10
17.9043280813
 20
-28.9405535948
 10
17.8898375422
 20
-28.9552980426
 10
17.8716121148
 20
-28.9689602639
 10
17.8499702576
 20
-28.9813057322
  0
LWPOLYLINE
  5
44B
100
AcDbEntity
  8
RACCORDO
100
AcDbPolyline
 62
250
  6
CONTINUOUS
 90
7
 70
0
 10
17.9231935623
 20
-28.5416034125
 10
17.9210547776
 20
-28.5579191865
 10
17.9146750189
 20
-28.5739557931
 10
17.9041634454
 20
-28.5894388415
 10
17.8896999132
 20
-28.6041034125
 10
17.8715318974
 20
-28.6176985911
 10
17.8499702576
 20
-28.6299917601
  0
LINE
  5
44C
100
AcDbEntity
  8
268
100
AcDbLine
 62
7
  6
CONTINUOUS
 10
-13.0567668206
 20
25.9069906607
 11
-13.6790848527
 21
26.0369312432
  0
LWPOLYLINE
  5
44D
100
AcDbEntity
  8
RACCORDO
100
AcDbPolyline
 62
7
  6
CONTINUOUS
 90
12
 70
0
 10
12.8409890775
 20
20.0346805751
 10
12.8325775428
 20
20.0386141778
 10
12.8138038164
 20
20.0457168543
 10
12.7941806291
 20
20.0508377723
 10
12.7737187247
 20
20.0540019965
 10
12.7526791018
 20
20.0551691663
 10
12.7310543601
 20
20.0543136996
 10
12.7088519
 20
20.0514611785
 10
12.6863549216
 20
20.0466479878
 10
12.663657825
 20
20.0398862558
 10
12.64066621
 20
20.0311638542
 10
12.6173800768
 20
20.020480783
  0
LWPOLYLINE
  5
44E
100
AcDbEntity
  8
218
100
AcDbPolyline
 62
7
  6
CONTINUOUS
 90
64
 70
0
 10
-2.9207320547
 20
25.1643543945
 10
-2.9311733074
 20
25.1694498777
 10
-2.9486793901
 20
25.1774571672
 10
-2.9666567288
 20
25.1850328255
 10
-2.9850738338
 20
25.1921706603
 10
-3.0039216291
 20
25.1988763855
 10
-3.0232125998
 20
25.2051632833
 10
-3.0429240761
 20
25.2110327567
 10
-3.0630335957
 20
25.2164880185
 10
-3.0835497648
 20
25.2215407941
 10
-3.1044204869
 20
25.2261879477
 10
-3.1256573237
 20
25.2304417148
 10
-3.1473624568
 20
25.2343270457
 10
-3.1694873616
 20
25.2378368186
 10
-3.1920507813
 20
25.2409753526
 10
-3.2152565406
 20
25.2437648809
 10
-3.2391809721
 20
25.2461998707
 10
-3.2637242253
 20
25.2482555009
 10
-3.2888238648
 20
25.2499154475
 10
-3.3145826938
 20
25.2511733536
 10
-3.3408701311
 20
25.252009262
 10
-3.3672703412
 20
25.2524088437
 10
-3.3937463333
 20
25.2523799108
 10
-3.4203077618
 20
25.2519295192
 10
-3.4466095917
 20
25.2510765708
 10
-3.4725617176
 20
25.249845046
 10
-3.4982360778
 20
25.2482509577
 10
-3.5235330036
 20
25.2463187394
 10
-3.5484325973
 20
25.2440691523
 10
-3.5729436701
 20
25.2415194797
 10
-3.5970105424
 20
25.2386933396
 10
-3.6206145658
 20
25.2356111725
 10
-3.6437693078
 20
25.2322886182
 10
-3.6664674826
 20
25.2287432114
 10
-3.6887014141
 20
25.224992243
 10
-3.7104771427
 20
25.2210502335
 10
-3.7318068587
 20
25.2169296879
 10
-3.7526909735
 20
25.2126446013
 10
-3.773129036
 20
25.2082088027
 10
-3.7931303029
 20
25.2036335821
 10
-3.8126970492
 20
25.198931288
 10
-3.8318277544
 20
25.1941149584
 10
-3.8505242999
 20
25.1891966394
 10
-3.8687963595
 20
25.1841859978
 10
-3.8866352108
 20
25.179097537
 10
-3.904014199
 20
25.1739514867
 10
-3.9209212832
 20
25.1687645991
 10
-3.9373712106
 20
25.1635454257
 10
-3.9533761073
 20
25.158302718
 10
-3.9689157872
 20
25.1530557646
 10
-3.9840116736
 20
25.1478099418
 10
-3.9987334131
 20
25.1425522912
 10
-4.0130795568
 20
25.1372936126
 10
-4.0270447102
 20
25.1320463095
 10
-4.0406850303
 20
25.1267990754
 10
-4.0539832146
 20
25.1215679326
 10
-4.0669393289
 20
25.1163625567
 10
-4.0796255243
 20
25.1111628981
 10
-4.0920043352
 20
25.1059930228
 10
-4.1040765246
 20
25.1008619728
 10
-4.1159539793
 20
25.0957306074
 10
-4.1275904989
 20
25.0906270356
 10
-4.1389527783
 20
25.0855752955
 10
-4.161146523
 20
25.0755353316
  0
LINE
  5
44F
100
AcDbEntity
  8
268
100
AcDbLine
 62
7
  6
CONTINUOUS
 10
-0.4212933646
 20
24.4383214433
 11
-3.2218118218
 21
25.8385806719
  0
LINE
  5
450
100
AcDbEntity
  8
268
100
AcDbLine
 62
7
  6
CONTINUOUS
 10
-3.5753652124
 20
26.5679155565
 11
-3.2218118218
 21
26.3911388612
  0
LINE
  5
451
100
AcDbEntity
  8
0
100
AcDbLine
 62
7
  6
CONTINUOUS
 10
13.5985362979
 20
18.3388521551
 11
16.3760770277
 21
16.9500817902
  0
LINE
  5
452
100
AcDbEntity
  8
268
100
AcDbLine
 62
7
  6
CONTINUOUS
 10
0.9865223317
 20
25.1321981017
 11
-1.8240273153
 21
26.5374729252
  0
LINE
  5
453
100
AcDbEntity
  8
218
100
AcDbLine
 62
7
  6
CONTINUOUS
 10
7.1893779901
 20
22.6545806194
 11
7.7052139936
 21
22.3966626176
  0
LINE
  5
454
100
AcDbEntity
  8
RACCORDO
100
AcDbLine
 62
250
  6
CONTINUOUS
 10
12.0115291317
 20
20.3234062556
 11
12.6173800768
 21
20.020480783
  0
LINE
  5
455
100
AcDbEntity
  8
RACCORDO
100
AcDbLine
 62
250
  6
CONTINUOUS
 10
17.5671275451
 20
17.5456070489
 11
18.1729784902
 21
17.2426815763
  0
LINE
  5
456
100
AcDbEntity
  8
268
100
AcDbLine
 62
7
  6
CONTINUOUS
 10
-0.4640953752
 20
26.6112211126
 11
1.745645513
 21
25.5063506685
  0
LINE
  5
457
100
AcDbEntity
  8
268
100
AcDbLine
 62
7
  6
CONTINUOUS
 10
2.4912303361
 20
25.1335582569
 11
2.6370437462
 21
25.0606515519
  0
LINE
  5
458
100
AcDbEntity
  8
0
100
AcDbLine
 62
7
  6
CONTINUOUS
 10
18.6194409172
 20
17.0694529664
 11
18.5018474978
 21
17.1282496761
  0
LINE
  5
459
100
AcDbEntity
  8
0
100
AcDbLine
 62
7
  6
CONTINUOUS
 10
17.6227525132
 20
17.5677971684
 11
15.4458072015
 21
18.6562698242
  0
LINE
  5
45A
100
AcDbEntity
  8
RACCORDO
100
AcDbLine
 62
7
  6
CONTINUOUS
 10
12.2364238264
 20
20.3369632007
 11
12.8409868745
 21
20.0346816766
  0
LINE
  5
45B
100
AcDbEntity
  8
RACCORDO
100
AcDbLine
 62
7
  6
CONTINUOUS
 10
17.7907343429
 20
17.5598079425
 11
18.395297391
 21
17.2575264184
  0
LINE
  5
45C
100
AcDbEntity
  8
268
100
AcDbLine
 62
7
  6
CONTINUOUS
 10
-3.3315531208
 20
28.3081936651
 11
-3.1511011437
 21
28.2179676766
  0
LINE
  5
45D
100
AcDbEntity
  8
268
100
AcDbLine
 62
7
  6
CONTINUOUS
 10
2.2229103934
 20
25.5309619081
 11
2.4033623705
 21
25.4407359195
  0
LINE
  5
45E
100
AcDbEntity
  8
PREM_14013
100
AcDbLine
 62
250
  6
CONTINUOUS
 10
4.4382451525
 20
27.0434944127
 11
4.4507785507
 21
27.0330148776
  0
LWPOLYLINE
  5
45F
100
AcDbEntity
  8
PREM_14013
100
AcDbPolyline
 62
250
  6
CONTINUOUS
 90
3
 70
0
 10
4.3446085534
 20
27.0371984042
 10
4.3674689828
 20
27.0176196708
 10
4.3835594916
 20
27.0031145077
  0
LWPOLYLINE
  5
460
100
AcDbEntity
  8
RACCORDO
100
AcDbPolyline
 62
250
  6
CONTINUOUS
 90
7
 70
0
 10
17.8499702576
 20
12.6696123793
 10
17.8599949029
 20
12.65166339
 10
17.8668233255
 20
12.6355338621
 10
17.8703386891
 20
12.6214997762
 10
17.870480845
 20
12.6098012594
 10
17.8672473608
 20
12.6006384765
 10
17.8657126004
 20
12.5985127337
  0
LWPOLYLINE
  5
461
100
AcDbEntity
  8
218
100
AcDbPolyline
 62
250
  6
CONTINUOUS
 90
57
 70
0
 10
17.353231188
 20
20.4481377293
 10
17.3625722331
 20
20.418158384
 10
17.374770865
 20
20.3756239975
 10
17.38621489
 20
20.3320850362
 10
17.3968863553
 20
20.2875480024
 10
17.406718389
 20
20.2420255541
 10
17.4157113503
 20
20.1954117194
 10
17.4238357437
 20
20.1478088042
 10
17.4309883249
 20
20.0995474152
 10
17.4371535524
 20
20.0505634437
 10
17.4423331515
 20
20.000928729
 10
17.4464701266
 20
19.9511891793
 10
17.4495496509
 20
19.9012847062
 10
17.4515979407
 20
19.8512956289
 10
17.4526485785
 20
19.801992246
 10
17.4526928488
 20
19.7533475767
 10
17.4517844381
 20
19.7054198054
 10
17.4500840015
 20
19.6591204912
 10
17.4476323845
 20
19.6147659062
 10
17.4444689581
 20
19.5720775911
 10
17.4407663104
 20
19.531079711
 10
17.4365809102
 20
19.4918949252
 10
17.4319234003
 20
19.4544269587
 10
17.4268883429
 20
19.4183681339
 10
17.421506865
 20
19.3836865829
 10
17.4157948455
 20
19.3504301327
 10
17.409813347
 20
19.3184073094
 10
17.4035813126
 20
19.2875925878
 10
17.3971156144
 20
19.2580219096
 10
17.3904681914
 20
19.2295943024
 10
17.3836560721
 20
19.2023097585
 10
17.376690991
 20
19.1761754764
 10
17.3696130857
 20
19.1511003453
 10
17.3624388656
 20
19.1270937326
 10
17.3551746246
 20
19.1041512652
 10
17.3478418972
 20
19.0821605274
 10
17.3404553178
 20
19.0611283687
 10
17.3330176633
 20
19.0410513615
 10
17.3255297504
 20
19.0218011056
 10
17.3179989072
 20
19.0033697673
 10
17.3104306475
 20
18.9857674928
 10
17.302820786
 20
18.9688924311
 10
17.2951661919
 20
18.9527246866
 10
17.2874795495
 20
18.9372857878
 10
17.2797789865
 20
18.9225357998
 10
17.2720608597
 20
18.9084670234
 10
17.2643362452
 20
18.8950884904
 10
17.2566444968
 20
18.882385296
 10
17.2489910034
 20
18.8703686565
 10
17.2413760412
 20
18.8590285521
 10
17.2338305202
 20
18.8483181734
 10
17.2263677527
 20
18.8382532926
 10
17.2189783276
 20
18.8288191731
 10
17.2116582834
 20
18.8199231244
 10
17.2044069883
 20
18.8115344913
 10
17.1972274237
 20
18.8036847317
 10
17.1901205864
 20
18.7963742439
  0
LWPOLYLINE
  5
462
100
AcDbEntity
  8
RACCORDO
100
AcDbPolyline
 62
250
  6
CONTINUOUS
 90
13
 70
0
 10
17.3196401717
 20
-28.5201568031
 10
17.329664817
 20
-28.4891584702
 10
17.3364932396
 20
-28.4571781783
 10
17.3400086033
 20
-28.424763119
 10
17.3401507591
 20
-28.392467923
 10
17.3369172749
 20
-28.3608451699
 10
17.3303634764
 20
-28.3304359339
 10
17.3206015009
 20
-28.3017605255
 10
17.3077983785
 20
-28.2753095888
 10
17.2921731742
 20
-28.2515357067
 10
17.2739932396
 20
-28.2308456569
 10
17.2535696384
 20
-28.2135934518
 10
17.231251824
 20
-28.2000742816
  0
LWPOLYLINE
  5
463
100
AcDbEntity
  8
RACCORDO
100
AcDbPolyline
 62
250
  6
CONTINUOUS
 90
5
 70
0
 10
17.8499702576
 20
-28.6299917601
 10
17.8599338911
 20
-28.5992210873
 10
17.8667598529
 20
-28.5674067176
 10
17.8703109116
 20
-28.5350828701
 10
17.8705032907
 20
-28.5027746194
  0
LWPOLYLINE
  5
464
100
AcDbEntity
  8
RACCORDO
100
AcDbPolyline
 62
250
  6
CONTINUOUS
 90
7
 70
0
 10
17.2090457182
 20
-27.846699786
 10
17.207769347
 20
-27.849887499
 10
17.1997732384
 20
-27.8629646046
 10
17.1891817506
 20
-27.8756232883
 10
17.1760797912
 20
-27.8877231304
 10
17.1605906183
 20
-27.8991323163
 10
17.1428634764
 20
-27.909722723
  0
LINE
  5
465
100
AcDbEntity
  8
218
100
AcDbLine
 62
250
  6
CONTINUOUS
 10
-3.6747283421
 20
25.1676476449
 11
-3.6645457968
 21
25.1704962393
  0
LWPOLYLINE
  5
466
100
AcDbEntity
  8
218
100
AcDbPolyline
 62
250
  6
CONTINUOUS
 90
3
 70
0
 10
-3.6645457968
 20
25.1704962393
 10
-3.6541738955
 20
25.1733020136
 10
-3.6489168292
 20
25.1746883125
  0
LWPOLYLINE
  5
467
100
AcDbEntity
  8
218
100
AcDbPolyline
 62
250
  6
CONTINUOUS
 90
4
 70
0
 10
-3.6489168292
 20
25.1746883125
 10
-3.6382602338
 20
25.1774232976
 10
-3.6328607048
 20
25.1787719839
 10
-3.6274138421
 20
25.1801065927
  0
LWPOLYLINE
  5
468
100
AcDbEntity
  8
218
100
AcDbPolyline
 62
250
  6
CONTINUOUS
 90
128
 70
0
 10
-3.6274138421
 20
25.1801065927
 10
-3.616377964
 20
25.1827336136
 10
-3.6107893828
 20
25.1840244202
 10
-3.6051536259
 20
25.1852996021
 10
-3.5994708937
 20
25.1865591188
 10
-3.5937421448
 20
25.187801261
 10
-3.5879672176
 20
25.1890260509
 10
-3.5821462738
 20
25.1902334664
 10
-3.5762807563
 20
25.1914217308
 10
-3.5703708459
 20
25.1925907997
 10
-3.5644163618
 20
25.1937407177
 10
-3.5584182048
 20
25.1948698416
 10
-3.5523761432
 20
25.1959782085
 10
-3.5462904086
 20
25.1970657815
 10
-3.5401625969
 20
25.1981308063
 10
-3.5339843901
 20
25.199174457
 10
-3.5277641062
 20
25.2001955596
 10
-3.5215282958
 20
25.2011888374
 10
-3.5152805309
 20
25.2021533429
 10
-3.5090172394
 20
25.2030900236
 10
-3.5027542558
 20
25.2039964455
 10
-3.4964940727
 20
25.2048720475
 10
-3.4902341975
 20
25.2057173907
 10
-3.4839829864
 20
25.2065317243
 10
-3.4777415393
 20
25.2073148086
 10
-3.4715087563
 20
25.2080668834
 10
-3.4652896937
 20
25.2087879162
 10
-3.4590847275
 20
25.2094778096
 10
-3.4528934817
 20
25.2101366611
 10
-3.4467198854
 20
25.2107647307
 10
-3.4405643326
 20
25.2113619471
 10
-3.4344264291
 20
25.2119283815
 10
-3.4283089221
 20
25.2124645086
 10
-3.4222120871
 20
25.2129702911
 10
-3.4161356484
 20
25.2134457662
 10
-3.4100815258
 20
25.2138915194
 10
-3.4040493422
 20
25.2143075609
 10
-3.3980394745
 20
25.2146938805
 10
-3.3920549734
 20
25.2150510341
 10
-3.3860960304
 20
25.2153789878
 10
-3.380162454
 20
25.2156777754
 10
-3.37425672
 20
25.2159480543
 10
-3.3683789969
 20
25.2161898031
 10
-3.3625291163
 20
25.216403043
 10
-3.3567090484
 20
25.2165884949
 10
-3.3509187145
 20
25.2167461484
 10
-3.3451581932
 20
25.2168760139
 10
-3.3394296913
 20
25.2169788429
 10
-3.3337331861
 20
25.2170546189
 10
-3.3280687002
 20
25.2171033585
 10
-3.3224385084
 20
25.2171258632
 10
-3.316842736
 20
25.217122117
 10
-3.3112812578
 20
25.2170921359
 10
-3.3057559723
 20
25.2170367696
 10
-3.3002670719
 20
25.2169560117
 10
-3.2948143643
 20
25.2168498685
 10
-3.289399171
 20
25.2167192092
 10
-3.2840215469
 20
25.2165640314
 10
-3.2786814372
 20
25.2163843373
 10
-3.2733799991
 20
25.2161810033
 10
-3.2681169498
 20
25.2159540051
 10
-3.2628925722
 20
25.215703367
 10
-3.257708872
 20
25.215430037
 10
-3.2525660589
 20
25.2151340097
 10
-3.2474639232
 20
25.2148152906
 10
-3.2424038412
 20
25.2144748444
 10
-3.2373860256
 20
25.2141126785
 10
-3.2324102637
 20
25.2137287854
 10
-3.2274772939
 20
25.2133241072
 10
-3.2225871996
 20
25.2128986499
 10
-3.2177398973
 20
25.2124524075
 10
-3.2129358751
 20
25.2119863035
 10
-3.208175185
 20
25.211500344
 10
-3.203457775
 20
25.210994523
 10
-3.1987839761
 20
25.2104697456
 10
-3.194153845
 20
25.2099260205
 10
-3.189567325
 20
25.209363339
 10
-3.1850245777
 20
25.2087825808
 10
-3.1805256824
 20
25.2081837605
 10
-3.1760705598
 20
25.2075668635
 10
-3.1716591336
 20
25.2069327255
 10
-3.1672914554
 20
25.2062813608
 10
-3.1629674735
 20
25.2056127551
 10
-3.1586869575
 20
25.2049277021
 10
-3.1544499447
 20
25.2042262155
 10
-3.1502563977
 20
25.2035082816
 10
-3.1461059736
 20
25.2027746522
 10
-3.1419987219
 20
25.2020253455
 10
-3.1379345932
 20
25.2012603433
 10
-3.1339130959
 20
25.200480343
 10
-3.1299342669
 20
25.1996853629
 10
-3.1259980694
 20
25.1988753847
 10
-3.1221039016
 20
25.1980510509
 10
-3.1182518045
 20
25.1972123833
 10
-3.1144417372
 20
25.1963593601
 10
-3.1106729751
 20
25.1954925587
 10
-3.1069455601
 20
25.1946120043
 10
-3.1032594504
 20
25.1937176717
 10
-3.0996137956
 20
25.1928100625
 10
-3.0960086121
 20
25.1918891985
 10
-3.0924438836
 20
25.1909550578
 10
-3.088918711
 20
25.1900080773
 10
-3.0854330948
 20
25.1890482753
 10
-3.0819870346
 20
25.1880756334
 10
-3.0785796303
 20
25.1870905324
 10
-3.0752108918
 20
25.1860929946
 10
-3.0718808092
 20
25.1850829978
 10
-3.0685884529
 20
25.1840608552
 10
-3.0653338302
 20
25.1830265906
 10
-3.0621169337
 20
25.1819801803
 10
-3.0589368114
 20
25.1809218668
 10
-3.0557934553
 20
25.1798516703
 10
-3.0526868734
 20
25.1787695706
 10
-3.0496161381
 20
25.1776757499
 10
-3.0465812262
 20
25.1765702228
 10
-3.0435821609
 20
25.1754529747
 10
-3.040618084
 20
25.1743241434
 10
-3.03768896
 20
25.1731837382
 10
-3.0347948244
 20
25.1720317499
 10
-3.0319349257
 20
25.1708682888
 10
-3.0291092381
 20
25.1696933655
 10
-3.0263177873
 20
25.1685069694
 10
-3.0235598987
 20
25.1673091799
 10
-3.0208355598
 20
25.1661000151
 10
-3.0181447831
 20
25.164879457
 10
-3.0154869314
 20
25.1636475301
 10
-3.0128617925
 20
25.1624042428
 10
-3.0102695787
 20
25.1611495867
  0
LWPOLYLINE
  5
469
100
AcDbEntity
  8
PREM_14013
100
AcDbPolyline
 62
7
  6
CONTINUOUS
 90
10
 70
0
 10
7.8219630151
 20
23.5321340363
 10
7.8068227313
 20
23.5343671846
 10
7.7919163469
 20
23.5355289242
 10
7.7772438617
 20
23.5356192549
 10
7.7626790943
 20
23.5346138646
 10
7.7483482263
 20
23.5325370655
 10
7.7346298022
 20
23.5294617946
 10
7.7216500038
 20
23.5254123642
 10
7.7092826495
 20
23.5203644621
 10
7.6975277392
 20
23.5143180881
  0
LINE
  5
46A
100
AcDbEntity
  8
PREM_14013
100
AcDbLine
 62
7
  6
CONTINUOUS
 10
10.7833743887
 20
22.9917501157
 11
10.4957984246
 21
23.0442255766
  0
LINE
  5
46B
100
AcDbEntity
  8
PREM_14013
100
AcDbLine
 62
7
  6
CONTINUOUS
 10
9.5642176997
 20
23.214215889
 11
7.8220017414
 21
23.5321269697
  0
LINE
  5
46C
100
AcDbEntity
  8
PREM_14013
100
AcDbLine
 62
7
  6
CONTINUOUS
 10
10.2120404257
 20
23.8890668058
 11
10.8696178948
 21
23.7690752727
  0
LWPOLYLINE
  5
46D
100
AcDbEntity
  8
268
100
AcDbPolyline
 62
7
  6
CONTINUOUS
 90
13
 70
0
 10
6.4985398921
 20
23.7758621647
 10
6.4638890821
 20
23.7822918458
 10
6.428684859
 20
23.7876749986
 10
6.3929650071
 20
23.7920371395
 10
6.3567396903
 20
23.7954310626
 10
6.3200719522
 20
23.7978608123
 10
6.2830757423
 20
23.7992720414
 10
6.2457887073
 20
23.7996821764
 10
6.2082377254
 20
23.7991182948
 10
6.1705170246
 20
23.7975263067
 10
6.1326776498
 20
23.7948972157
 10
6.0947284636
 20
23.7912752345
 10
6.0566990241
 20
23.786680445
  0
LINE
  5
46E
100
AcDbEntity
  8
PREM_14013
100
AcDbLine
 62
7
  6
CONTINUOUS
 10
2.1846135346
 20
26.8057290323
 11
1.7348688733
 21
26.9274768655
  0
LWPOLYLINE
  5
46F
100
AcDbEntity
  8
268
100
AcDbPolyline
 62
7
  6
CONTINUOUS
 90
18
 70
0
 10
-0.7239978791
 20
27.4228998646
 10
-0.7435409312
 20
27.431969119
 10
-0.7664367114
 20
27.4409545336
 10
-0.7899459976
 20
27.4484567664
 10
-0.8140873198
 20
27.4544909362
 10
-0.8387770731
 20
27.4590367206
 10
-0.8640384993
 20
27.4620907041
 10
-0.8898483568
 20
27.463656302
 10
-0.9160533157
 20
27.4637234386
 10
-0.9426372783
 20
27.4622846626
 10
-0.9696163423
 20
27.4593474253
 10
-0.9968854709
 20
27.454924004
 10
-1.0244596506
 20
27.4490056184
 10
-1.0523238949
 20
27.4416010489
 10
-1.0803282079
 20
27.4327489143
 10
-1.1084225911
 20
27.4224620876
 10
-1.1366570431
 20
27.4107276958
 10
-1.1650315639
 20
27.397545739
  0
LWPOLYLINE
  5
470
100
AcDbEntity
  8
RACCORDO
100
AcDbPolyline
 62
7
  6
CONTINUOUS
 90
12
 70
0
 10
15.1859348887
 20
19.3922461324
 10
15.1747868902
 20
19.39756429
 10
15.1379378064
 20
19.412230741
 10
15.099400672
 20
19.4230309314
 10
15.0591963727
 20
19.4300126968
 10
15.017826478
 20
19.4330889363
 10
14.975276386
 20
19.4322107227
 10
14.9315606988
 20
19.427426983
 10
14.8872247924
 20
19.4187973969
 10
14.8424504591
 20
19.4063418577
 10
14.7970559067
 20
19.3900404721
 10
14.7510411353
 20
19.3698932401
  0
LWPOLYLINE
  5
471
100
AcDbEntity
  8
268
100
AcDbPolyline
 62
7
  6
CONTINUOUS
 90
10
 70
0
 10
6.7449778452
 20
23.6884231329
 10
6.7218753125
 20
23.699676125
 10
6.6920992681
 20
23.7132525667
 10
6.6628257491
 20
23.7256381835
 10
6.6340357411
 20
23.73683998
 10
6.6057482584
 20
23.7468509515
 10
6.5780466021
 20
23.755750696
 10
6.5509585391
 20
23.763565746
 10
6.5244563024
 20
23.7702695689
 10
6.4985398921
 20
23.7758621647
  0
LWPOLYLINE
  5
472
100
AcDbEntity
  8
PREM_14013
100
AcDbPolyline
 62
7
  6
CONTINUOUS
 90
31
 70
0
 10
11.677936266
 20
23.6856764485
 10
11.5764550914
 20
23.736349304
 10
11.4703936036
 20
23.7838228096
 10
11.3600742759
 20
23.8280309799
 10
11.2458244727
 20
23.8689127145
 10
11.1279603489
 20
23.906416709
 10
11.0068049978
 20
23.9404939202
 10
10.8827295769
 20
23.9710890825
 10
10.7560509619
 20
23.9981683918
 10
10.6270341163
 20
24.0217099441
 10
10.4960276622
 20
24.0416774695
 10
10.3633866064
 20
24.0580412508
 10
10.229395644
 20
24.0707849454
 10
10.0944114851
 20
24.0798880705
 10
9.9587926736
 20
24.0853377596
 10
9.8228315634
 20
24.0871288613
 10
9.6868871333
 20
24.0852586134
 10
9.551318789
 20
24.0797320452
 10
9.416419225
 20
24.0705566192
 10
9.2825448323
 20
24.0577474063
 10
9.1500518081
 20
24.0413272142
 10
9.0192269204
 20
24.0213152331
 10
8.8904206159
 20
23.9977432566
 10
8.7639803936
 20
23.9706501814
 10
8.6401771365
 20
23.9400626122
 10
8.519345084
 20
23.9060238743
 10
8.4018265202
 20
23.8685865521
 10
8.2878852498
 20
23.8277820015
 10
8.177820233
 20
23.7836521751
 10
8.0719775341
 20
23.7362623275
 10
7.9706803162
 20
23.6856764485
  0
LINE
  5
473
100
AcDbEntity
  8
RACCORDO
100
AcDbLine
 62
250
  6
CONTINUOUS
 10
11.5868406204
 20
20.9519934975
 11
14.7510411353
 21
19.3698932401
  0
LINE
  5
474
100
AcDbEntity
  8
RACCORDO
100
AcDbLine
 62
250
  6
CONTINUOUS
 10
18.9936818224
 20
17.2485728965
 11
22.1578823373
 21
15.6664726391
  0
LINE
  5
475
100
AcDbEntity
  8
268
100
AcDbLine
 62
250
  6
CONTINUOUS
 10
-4.1441214649
 20
28.8870906895
 11
-1.1650315639
 21
27.397545739
  0
LINE
  5
476
100
AcDbEntity
  8
268
100
AcDbLine
 62
250
  6
CONTINUOUS
 10
3.0776091232
 20
25.2762253955
 11
6.0566990241
 21
23.786680445
  0
LINE
  5
477
100
AcDbEntity
  8
RACCORDO
100
AcDbLine
 62
7
  6
CONTINUOUS
 10
11.8624369731
 20
21.053995091
 11
15.1859140159
 21
19.3922565697
  0
LINE
  5
478
100
AcDbEntity
  8
RACCORDO
100
AcDbLine
 62
7
  6
CONTINUOUS
 10
19.428554703
 20
17.2709362261
 11
22.7520317457
 21
15.6091977047
  0
LINE
  5
479
100
AcDbEntity
  8
268
100
AcDbLine
 62
7
  6
CONTINUOUS
 10
-3.950311804
 20
29.0360568272
 11
-0.7239885608
 21
27.4228952056
  0
LINE
  5
47A
100
AcDbEntity
  8
268
100
AcDbLine
 62
7
  6
CONTINUOUS
 10
3.5186521263
 20
25.3015748621
 11
6.7449753694
 21
23.6884132405
  0
LINE
  5
47B
100
AcDbEntity
  8
PREM_14013
100
AcDbLine
 62
7
  6
CONTINUOUS
 10
1.2348483372
 20
26.6825123867
 11
0.5329251863
 21
27.0334739621
  0
LINE
  5
47C
100
AcDbEntity
  8
PREM_14013
100
AcDbLine
 62
7
  6
CONTINUOUS
 10
1.7348688733
 20
26.9274768655
 11
1.0278999331
 21
27.2809613355
  0
LINE
  5
47D
100
AcDbEntity
  8
218
100
AcDbLine
 62
7
  6
CONTINUOUS
 10
7.9011334687
 20
24.3730974557
 11
8.3334477195
 21
24.1569403303
  0
LINE
  5
47E
100
AcDbEntity
  8
218
100
AcDbLine
 62
7
  6
CONTINUOUS
 10
0.9088265171
 20
27.8692509315
 11
0.4765122663
 21
28.0854080569
  0
LINE
  5
47F
100
AcDbEntity
  8
PREM_14013
100
AcDbLine
 62
7
  6
CONTINUOUS
 10
4.4382451525
 20
27.0434944127
 11
4.4551749142
 21
27.0350230744
  0
LWPOLYLINE
  5
480
100
AcDbEntity
  8
PREM_14013
100
AcDbPolyline
 62
7
  6
CONTINUOUS
 90
10
 70
0
 10
4.4003010853
 20
27.0561620677
 10
4.3028240316
 20
27.1062174994
 10
4.2072108298
 20
27.155193375
 10
4.1134614798
 20
27.2030896946
 10
4.0215903985
 20
27.2499078824
 10
3.9315831691
 20
27.2956465141
 10
3.8433965411
 20
27.3403013171
 10
3.7570160977
 20
27.3838708673
 10
3.6724562557
 20
27.4263565887
 10
3.5897170151
 20
27.4677584814
  0
LINE
  5
481
100
AcDbEntity
  8
PREM_14013
100
AcDbLine
 62
7
  6
CONTINUOUS
 10
12.1349325378
 20
23.444693278
 11
11.677936266
 21
23.6856764485
  0
LWPOLYLINE
  5
482
100
AcDbEntity
  8
PREM_14013
100
AcDbPolyline
 62
250
  6
CONTINUOUS
 90
8
 70
0
 10
11.677936266
 20
23.6856764485
 10
11.7036096124
 20
23.6719372317
 10
11.7844156899
 20
23.6258807131
 10
11.8583787145
 20
23.5794774656
 10
11.9259492669
 20
23.5328578317
 10
11.9872074045
 20
23.4863904195
 10
12.0424006714
 20
23.4403499248
 10
12.0710603298
 20
23.4140380607
  0
LINE
  5
483
100
AcDbEntity
  8
PREM_14013
100
AcDbLine
 62
7
  6
CONTINUOUS
 10
4.4080595139
 20
27.0515755956
 11
4.4003010853
 21
27.0561620677
  0
LWPOLYLINE
  5
484
100
AcDbEntity
  8
218
100
AcDbPolyline
 62
250
  6
CONTINUOUS
 90
37
 70
0
 10
16.6584205127
 20
24.0510434569
 10
16.6801013204
 20
24.0133047853
 10
16.7012901206
 20
23.975236538
 10
16.7219767892
 20
23.936856807
 10
16.7421513694
 20
23.898183884
 10
16.7618043024
 20
23.8592361017
 10
16.7809264224
 20
23.8200318205
 10
16.7995086524
 20
23.7805895622
 10
16.8175420508
 20
23.7409281845
 10
16.835018041
 20
23.7010667212
 10
16.8519282668
 20
23.6610241912
 10
16.8682646778
 20
23.6208195687
 10
16.8840195684
 20
23.5804719522
 10
16.8991854329
 20
23.5400005321
 10
16.9137550306
 20
23.4994245531
 10
16.9277214732
 20
23.4587632856
 10
16.9410781218
 20
23.4180360457
 10
16.9538185932
 20
23.3772622315
 10
16.9659368217
 20
23.3364612855
 10
16.9774270489
 20
23.2956526246
 10
16.9882838006
 20
23.254855661
 10
16.9985018934
 20
23.2140898382
 10
17.008076477
 20
23.1733745894
 10
17.0170030069
 20
23.132729258
 10
17.0252772206
 20
23.0921731187
 10
17.0328952056
 20
23.051725481
 10
17.0398533474
 20
23.0114055944
 10
17.0461482986
 20
22.9712325698
 10
17.0517771034
 20
22.9312254788
 10
17.0567370891
 20
22.8914034279
 10
17.0610258161
 20
22.8517854626
 10
17.0646412791
 20
22.8123905678
 10
17.0675818041
 20
22.7732373846
 10
17.0698459294
 20
22.7343442879
 10
17.0714325756
 20
22.6957297169
 10
17.0723410593
 20
22.6574121619
 10
17.0725709883
 20
22.6194098823
  0
LWPOLYLINE
  5
485
100
AcDbEntity
  8
RACCORDO
100
AcDbPolyline
 62
250
  6
CONTINUOUS
 90
6
 70
0
 10
16.44639631
 20
-28.2159688775
 10
16.4463414239
 20
-28.21608074
 10
16.4415578605
 20
-28.2299679267
 10
16.4381783754
 20
-28.2450885265
 10
16.436237957
 20
-28.2612859961
 10
16.4357566952
 20
-28.2783926432
  0
LWPOLYLINE
  5
486
100
AcDbEntity
  8
RACCORDO
100
AcDbPolyline
 62
250
  6
CONTINUOUS
 90
10
 70
0
 10
14.6503120727
 20
-28.147041273
 10
14.6674874475
 20
-28.1246183511
 10
14.683235254
 20
-28.1005606953
 10
14.6973425302
 20
-28.0751936441
 10
14.7096184993
 20
-28.0488602434
 10
14.71989715
 20
-28.0219166072
 10
14.7280394812
 20
-27.994727102
 10
14.7339353817
 20
-27.9676594192
 10
14.7375051196
 20
-27.9410796028
 10
14.7387004204
 20
-27.9153470992
  0
LWPOLYLINE
  5
487
100
AcDbEntity
  8
RACCORDO
100
AcDbPolyline
 62
7
  6
CONTINUOUS
 90
13
 70
0
 10
14.5461813823
 20
-28.130859106
 10
14.5635287547
 20
-28.108636554
 10
14.5802608302
 20
-28.0845112951
 10
14.5960795591
 20
-28.0587773965
 10
14.6107543566
 20
-28.0316906024
 10
14.6239942611
 20
-28.0037035663
 10
14.6354991668
 20
-27.9754799566
 10
14.6451563072
 20
-27.9474506588
 10
14.652907163
 20
-27.9200336535
 10
14.658694406
 20
-27.8938965918
 10
14.6626007677
 20
-27.8695052718
 10
14.6647961894
 20
-27.8471016184
 10
14.6654771157
 20
-27.8269587515
  0
LINE
  5
488
100
AcDbEntity
  8
RACCORDO
100
AcDbLine
 62
250
  6
CONTINUOUS
 10
13.4840115347
 20
-23.8447420602
 11
14.4049912211
 21
-23.4194031208
  0
LINE
  5
489
100
AcDbEntity
  8
RACCORDO
100
AcDbLine
 62
7
  6
CONTINUOUS
 10
13.4660056275
 20
-24.0635618922
 11
14.3046436925
 21
-23.6762510422
  0
LINE
  5
48A
100
AcDbEntity
  8
268
100
AcDbLine
 62
7
  6
CONTINUOUS
 10
-1.8240273153
 20
26.5374729252
 11
-0.4640953752
 21
26.6112211126
  0
LWPOLYLINE
  5
48B
100
AcDbEntity
  8
PREM_14013
100
AcDbPolyline
 62
7
  6
CONTINUOUS
 90
9
 70
0
 10
3.5776763334
 20
27.472576262
 10
3.5715595928
 20
27.4741757597
 10
3.5617893791
 20
27.4757085736
 10
3.5514631836
 20
27.476124018
 10
3.5406759865
 20
27.4754222455
 10
3.5297127275
 20
27.4736037142
 10
3.5186683868
 20
27.4706685766
 10
3.5074479843
 20
27.4666166803
 10
3.4960515201
 20
27.461448025
  0
LWPOLYLINE
  5
48C
100
AcDbEntity
  8
PREM_14013
100
AcDbPolyline
 62
7
  6
CONTINUOUS
 90
28
 70
0
 10
3.5776661971
 20
27.4725523096
 10
3.4689508506
 20
27.5038381554
 10
3.3540958076
 20
27.5331918324
 10
3.2368343836
 20
27.5595189026
 10
3.1174612188
 20
27.5827809943
 10
2.9962408472
 20
27.6029515471
 10
2.8734114777
 20
27.6200108224
 10
2.7492626803
 20
27.633934664
 10
2.6240792172
 20
27.644705333
 10
2.4980986997
 20
27.6523127327
 10
2.3716123136
 20
27.6567461114
 10
2.2449095907
 20
27.658000666
 10
2.1182278452
 20
27.656075893
 10
1.9918565754
 20
27.650974558
 10
1.8660869848
 20
27.6427053458
 10
1.7411573855
 20
27.6312774704
 10
1.6173585109
 20
27.6167076381
 10
1.4949737585
 20
27.5990176165
 10
1.3742253223
 20
27.5782234412
 10
1.2553904012
 20
27.5543518412
 10
1.1387545778
 20
27.5274367894
 10
1.0245430048
 20
27.4975020221
 10
0.9130278266
 20
27.4645849182
 10
0.8044816302
 20
27.4287282834
 10
0.6991147386
 20
27.3899566658
 10
0.5971679561
 20
27.3483038574
 10
0.4989218187
 20
27.3038230829
 10
0.4046377575
 20
27.2565656935
  0
LWPOLYLINE
  5
48D
100
AcDbEntity
  8
PREM_14013
100
AcDbPolyline
 62
7
  6
CONTINUOUS
 90
3
 70
0
 10
3.5897170151
 20
27.4677584814
 10
3.5808688048
 20
27.471525729
 10
3.5776763334
 20
27.472576262
  0
LWPOLYLINE
  5
48E
100
AcDbEntity
  8
218
100
AcDbPolyline
 62
7
  6
CONTINUOUS
 90
10
 70
0
 10
12.0764116552
 20
24.2121157319
 10
12.1125172748
 20
24.196408007
 10
12.1480518771
 20
24.1803995195
 10
12.1830154623
 20
24.1640902694
 10
12.2174181995
 20
24.1474751721
 10
12.2512499195
 20
24.1305593121
 10
12.2844801143
 20
24.1133579434
 10
12.3170986145
 20
24.0958761509
 10
12.3491155894
 20
24.0781088497
 10
12.3805310391
 20
24.0600560399
  0
LWPOLYLINE
  5
48F
100
AcDbEntity
  8
218
100
AcDbPolyline
 62
7
  6
CONTINUOUS
 90
10
 70
0
 10
4.6517904527
 20
27.9244263331
 10
4.6878960723
 20
27.9087186082
 10
4.7234306747
 20
27.8927101208
 10
4.7583942598
 20
27.8764008707
 10
4.7927969971
 20
27.8597857733
 10
4.8266287171
 20
27.8428699133
 10
4.8598589118
 20
27.8256685447
 10
4.892477412
 20
27.8081867521
 10
4.9244943869
 20
27.7904194509
 10
4.9559098367
 20
27.7723666411
  0
LINE
  5
490
100
AcDbEntity
  8
218
100
AcDbLine
 62
7
  6
CONTINUOUS
 10
4.4682526117
 20
28.000535401
 11
5.0997839327
 21
27.6847697405
  0
LINE
  5
491
100
AcDbEntity
  8
218
100
AcDbLine
 62
7
  6
CONTINUOUS
 10
11.8928738141
 20
24.2882247998
 11
12.5244051352
 21
23.9724591393
  0
LINE
  5
492
100
AcDbEntity
  8
218
100
AcDbLine
 62
7
  6
CONTINUOUS
 10
12.0764116552
 20
24.2121157319
 11
12.3805310391
 21
24.0600560399
  0
LINE
  5
493
100
AcDbEntity
  8
218
100
AcDbLine
 62
7
  6
CONTINUOUS
 10
4.9559098367
 20
27.7723666411
 11
4.6517904527
 21
27.9244263331
  0
LINE
  5
494
100
AcDbEntity
  8
218
100
AcDbLine
 62
7
  6
CONTINUOUS
 10
14.9819898569
 20
24.811127347
 11
11.8731742862
 21
26.3655351324
  0
LINE
  5
495
100
AcDbEntity
  8
218
100
AcDbLine
 62
7
  6
CONTINUOUS
 10
7.5573686545
 20
28.5234379482
 11
4.4485530837
 21
30.0778457336
  0
LWPOLYLINE
  5
496
100
AcDbEntity
  8
218
100
AcDbPolyline
 62
7
  6
CONTINUOUS
 90
104
 70
0
 10
17.353231188
 20
22.2672101355
 10
17.3659525327
 20
22.2579553103
 10
17.4107741445
 20
22.2240869887
 10
17.4552579915
 20
22.1892120765
 10
17.4994156515
 20
22.153327289
 10
17.5432462286
 20
22.1164370979
 10
17.586717981
 20
22.0785717642
 10
17.6297956016
 20
22.0397669276
 10
17.6724585222
 20
22.0000469057
 10
17.7146962291
 20
21.9594271019
 10
17.7564887305
 20
21.9179321725
 10
17.7978148565
 20
21.8755889024
 10
17.8386656101
 20
21.8324121183
 10
17.879038732
 20
21.7884087417
 10
17.9189295556
 20
21.7435870593
 10
17.9583120282
 20
21.6979793826
 10
17.9971519535
 20
21.6516297605
 10
18.0354208518
 20
21.6045782958
 10
18.0731194783
 20
21.5568300542
 10
18.1102572156
 20
21.5083768926
 10
18.1468329179
 20
21.4592217531
 10
18.1828181135
 20
21.4094041788
 10
18.2181810648
 20
21.3589711387
 10
18.2528983525
 20
21.3079606966
 10
18.2869673755
 20
21.256381222
 10
18.3203879474
 20
21.2042358572
 10
18.353151919
 20
21.151538748
 10
18.3852406166
 20
21.0983211919
 10
18.4166377536
 20
21.0446119488
 10
18.4473290977
 20
20.9904373522
 10
18.4773040313
 20
20.9358179718
 10
18.506552065
 20
20.8807742925
 10
18.5350606689
 20
20.8253309856
 10
18.5628186059
 20
20.7695108069
 10
18.5898172881
 20
20.7133313647
 10
18.6160459492
 20
20.6568147699
 10
18.6414924321
 20
20.5999866832
 10
18.6661461382
 20
20.5428700116
 10
18.6899966574
 20
20.4854877084
 10
18.71303286
 20
20.4278650848
 10
18.7352435292
 20
20.3700286063
 10
18.7566159949
 20
20.3120099122
 10
18.7771433455
 20
20.2538260597
 10
18.7968226691
 20
20.1954814094
 10
18.8156494484
 20
20.1369823487
 10
18.8336076248
 20
20.0783710843
 10
18.8506780522
 20
20.0197055305
 10
18.8668459229
 20
19.9610360772
 10
18.8821113797
 20
19.9023612541
 10
18.8964776517
 20
19.8436609246
 10
18.9099418426
 20
19.7849313088
 10
18.9224879131
 20
19.7262251058
 10
18.9340996553
 20
19.6676064021
 10
18.9447665608
 20
19.6091222909
 10
18.9544871066
 20
19.55077391
 10
18.9632594911
 20
19.4925558597
 10
18.9710786247
 20
19.4344756145
 10
18.9779348502
 20
19.3765742317
 10
18.9838195193
 20
19.318896061
 10
18.9887269379
 20
19.2614674522
 10
18.9926521226
 20
19.2043095039
 10
18.9955895253
 20
19.1474574351
 10
18.9975346742
 20
19.090944392
 10
18.9984841718
 20
19.0347834244
 10
18.9984340387
 20
18.9789788787
 10
18.9973787254
 20
18.9235204495
 10
18.9953135388
 20
18.8684654181
 10
18.9922395221
 20
18.8139169734
 10
18.9881610965
 20
18.7599427936
 10
18.9830766263
 20
18.7065155879
 10
18.9769792586
 20
18.6535947298
 10
18.9698570329
 20
18.601137886
 10
18.9617144769
 20
18.5492328673
 10
18.952573843
 20
18.49803075
 10
18.9424536186
 20
18.4476091708
 10
18.9313491703
 20
18.3979226701
 10
18.9192526
 20
18.3489342129
 10
18.9061530845
 20
18.3006141357
 10
18.8920653072
 20
18.2530304932
 10
18.8770222089
 20
18.2062903689
 10
18.8610405206
 20
18.1604288869
 10
18.8441227779
 20
18.115438014
 10
18.8262880636
 20
18.0713542436
 10
18.8075520475
 20
18.0281996509
 10
18.7879222303
 20
17.9859760576
 10
18.7674069418
 20
17.9446886623
 10
18.7459980799
 20
17.9043136242
 10
18.7237257776
 20
17.8649007826
 10
18.700662968
 20
17.8265597639
 10
18.6768700664
 20
17.7893573907
 10
18.6523292403
 20
17.7532335654
 10
18.626997539
 20
17.718107546
 10
18.6008576146
 20
17.6839498369
 10
18.5739545331
 20
17.6508140554
 10
18.5463368637
 20
17.6187479178
 10
18.5180397
 20
17.5877754652
 10
18.489067578
 20
17.5578853505
 10
18.4594262948
 20
17.5290703332
 10
18.4291382531
 20
17.501340187
 10
18.3982210092
 20
17.4746991321
 10
18.3666717957
 20
17.4491350612
 10
18.3345024954
 20
17.4246502476
 10
18.3017409928
 20
17.401258524
 10
18.2684079746
 20
17.3789666787
  0
LWPOLYLINE
  5
497
100
AcDbEntity
  8
218
100
AcDbPolyline
 62
250
  6
CONTINUOUS
 90
105
 70
0
 10
17.353231188
 20
22.1769614971
 10
17.3677739325
 20
22.16525829
 10
17.4098289928
 20
22.1302655852
 10
17.4516366238
 20
22.0943234113
 10
17.4931785593
 20
22.0574474718
 10
17.5344366553
 20
22.0196538733
 10
17.5753929017
 20
21.9809591141
 10
17.6160294191
 20
21.9413800864
 10
17.6563284641
 20
21.9009340719
 10
17.69627244
 20
21.8596387315
 10
17.735843908
 20
21.8175120936
 10
17.7750255935
 20
21.774572548
 10
17.8138003837
 20
21.7308388482
 10
17.8521513385
 20
21.6863301009
 10
17.8900617042
 20
21.6410657509
 10
17.9275149359
 20
21.5950655535
 10
17.9644946949
 20
21.548349576
 10
18.0009848452
 20
21.5009382009
 10
18.0369694414
 20
21.4528521447
 10
18.072432751
 20
21.4041124304
 10
18.1073592752
 20
21.3547403616
 10
18.1417337788
 20
21.3047574766
 10
18.1755412761
 20
21.2541855658
 10
18.2087670208
 20
21.2030466849
 10
18.2413964874
 20
21.151363188
 10
18.2734154022
 20
21.0991576843
 10
18.3048097672
 20
21.0464529998
 10
18.3355658934
 20
20.993272119
 10
18.365670379
 20
20.939638215
 10
18.3951100963
 20
20.8855746723
 10
18.4238721706
 20
20.8311051304
 10
18.4519440151
 20
20.7762534261
 10
18.4793133554
 20
20.7210435476
 10
18.5059682607
 20
20.6654995663
 10
18.5318971194
 20
20.6096456787
 10
18.5570886256
 20
20.5535062343
 10
18.5815317603
 20
20.4971057838
 10
18.6052158254
 20
20.4404690126
 10
18.6281304649
 20
20.3836206903
 10
18.650265691
 20
20.3265856009
 10
18.6716118611
 20
20.2693885905
 10
18.6921596668
 20
20.2120545952
 10
18.7119001201
 20
20.1546086876
 10
18.7308245821
 20
20.0970760079
 10
18.7489247793
 20
20.0394817139
 10
18.766192822
 20
19.9818509178
 10
18.7826211858
 20
19.9242087309
 10
18.7982027052
 20
19.8665802889
 10
18.8129305656
 20
19.8089907887
 10
18.826798324
 20
19.751465424
 10
18.8397999195
 20
19.6940293423
 10
18.8519296835
 20
19.6367075933
 10
18.8631823282
 20
19.5795251655
 10
18.8735529436
 20
19.5225070032
 10
18.8830369955
 20
19.4656780279
 10
18.8916303372
 20
19.4090630863
 10
18.8993292147
 20
19.3526869179
 10
18.9061302701
 20
19.2965741199
 10
18.9120305365
 20
19.24074917
 10
18.9170274384
 20
19.1852364316
 10
18.9211187918
 20
19.1300601568
 10
18.9243028092
 20
19.0752444526
 10
18.9265781003
 20
19.0208132601
 10
18.9279436722
 20
18.9667903402
 10
18.9283989289
 20
18.913199277
 10
18.9279436716
 20
18.8600634709
 10
18.9265780991
 20
18.8074061233
 10
18.9243028075
 20
18.7552502224
 10
18.9211187895
 20
18.7036185358
 10
18.9170274355
 20
18.6525336147
 10
18.9120305331
 20
18.6020177783
 10
18.906130266
 20
18.5520930954
 10
18.8993292101
 20
18.5027813532
 10
18.8916303321
 20
18.4541040628
 10
18.8830369898
 20
18.4060824634
 10
18.8735529373
 20
18.3587375404
 10
18.8631823213
 20
18.3120899939
 10
18.8519296761
 20
18.2661602112
 10
18.8397999116
 20
18.2209682267
 10
18.8267983155
 20
18.176533741
 10
18.8129305566
 20
18.1328761352
 10
18.7982026957
 20
18.0900144961
 10
18.7826211757
 20
18.0479675741
 10
18.7661928113
 20
18.0067537514
 10
18.7489247681
 20
17.9663909984
 10
18.7308245703
 20
17.9268969022
 10
18.7119001078
 20
17.8882886851
 10
18.6921596541
 20
17.8505832318
 10
18.671611848
 20
17.8137970428
 10
18.6502656773
 20
17.7779462029
 10
18.6281304505
 20
17.7430463401
 10
18.6052158104
 20
17.7091126578
 10
18.581531745
 20
17.6761599525
 10
18.55708861
 20
17.6442026377
 10
18.5318971035
 20
17.6132547003
 10
18.5059682442
 20
17.5833296719
 10
18.4793133381
 20
17.5544405963
 10
18.4519439972
 20
17.5266000586
 10
18.4238721525
 20
17.4998201997
 10
18.3951100781
 20
17.4741127331
 10
18.3656703605
 20
17.4494889086
 10
18.3355658743
 20
17.4259594908
 10
18.3048097472
 20
17.4035347367
 10
18.2734153817
 20
17.3822244179
 10
18.268407975
 20
17.378966679
  0
LWPOLYLINE
  5
498
100
AcDbEntity
  8
218
100
AcDbPolyline
 62
250
  6
CONTINUOUS
 90
34
 70
0
 10
17.0112637448
 20
24.1841418432
 10
17.0103066096
 20
24.1854029164
 10
17.0084338795
 20
24.1868186777
 10
17.005920817
 20
24.1878599707
 10
17.0027692885
 20
24.188526022
 10
16.9989816342
 20
24.1888163372
 10
16.9945606668
 20
24.1887307005
 10
16.9895096694
 20
24.1882691756
 10
16.9838323929
 20
24.1874321052
 10
16.9775330532
 20
24.1862201109
 10
16.9706163284
 20
24.1846340928
 10
16.9630873547
 20
24.1826752286
 10
16.9549517233
 20
24.180344973
 10
16.9462154757
 20
24.1776450565
 10
16.9368850994
 20
24.174577484
 10
16.9269675234
 20
24.1711445335
 10
16.9164701124
 20
24.1673487544
 10
16.9054006618
 20
24.1631929654
 10
16.8937673919
 20
24.1586802526
 10
16.8815789417
 20
24.1538139673
 10
16.8688443622
 20
24.1485977231
 10
16.8555731104
 20
24.1430353936
 10
16.8417750415
 20
24.1371311095
 10
16.827460402
 20
24.1308892552
 10
16.8126398221
 20
24.1243144662
 10
16.7973243076
 20
24.1174116247
 10
16.7815252318
 20
24.110185857
 10
16.7652543274
 20
24.1026425288
 10
16.748523677
 20
24.094787242
 10
16.7313457051
 20
24.0866258299
 10
16.713733168
 20
24.0781643532
 10
16.695699145
 20
24.0694090954
 10
16.6772570281
 20
24.0603665583
 10
16.6584205127
 20
24.0510434569
  0
LWPOLYLINE
  5
499
100
AcDbEntity
  8
218
100
AcDbPolyline
 62
250
  6
CONTINUOUS
 90
34
 70
0
 10
16.8754414233
 20
24.4184006955
 10
16.8744842711
 20
24.4196617979
 10
16.8726115409
 20
24.4210775591
 10
16.8700984784
 20
24.422118852
 10
16.8669469497
 20
24.4227849033
 10
16.8631592952
 20
24.4230752184
 10
16.8587383278
 20
24.4229895817
 10
16.8536873303
 20
24.4225280567
 10
16.8480100537
 20
24.4216909862
 10
16.841710714
 20
24.4204789919
 10
16.834793989
 20
24.4188929737
 10
16.8272650153
 20
24.4169341095
 10
16.8191293838
 20
24.4146038538
 10
16.8103931361
 20
24.4119039373
 10
16.8010627599
 20
24.4088363647
 10
16.7911451838
 20
24.4054034142
 10
16.7806477727
 20
24.4016076351
 10
16.7695783222
 20
24.3974518461
 10
16.7579450523
 20
24.3929391333
 10
16.7457566021
 20
24.3880728479
 10
16.7330220227
 20
24.3828566037
 10
16.7197507709
 20
24.3772942742
 10
16.705952702
 20
24.3713899901
 10
16.6916380626
 20
24.3651481359
 10
16.6768174827
 20
24.3585733468
 10
16.6615019683
 20
24.3516705054
 10
16.6457028927
 20
24.3444447377
 10
16.6294319883
 20
24.3369014096
 10
16.6127013381
 20
24.3290461228
 10
16.5955233663
 20
24.3208847108
 10
16.5779108294
 20
24.3124232341
 10
16.5598768065
 20
24.3036679764
 10
16.5414346898
 20
24.2946254394
 10
16.5225981745
 20
24.2853023381
  0
LWPOLYLINE
  5
49A
100
AcDbEntity
  8
218
100
AcDbPolyline
 62
250
  6
CONTINUOUS
 90
28
 70
0
 10
16.5225981745
 20
24.2853023381
 10
16.5079886741
 20
24.3102966572
 10
16.492958243
 20
24.3349581583
 10
16.4775195945
 20
24.359265982
 10
16.461685787
 20
24.383199568
 10
16.4454702131
 20
24.4067386726
 10
16.4288865886
 20
24.4298633859
 10
16.4119489402
 20
24.4525541482
 10
16.3946715943
 20
24.4747917671
 10
16.3770691645
 20
24.4965574334
 10
16.3591565396
 20
24.5178327371
 10
16.3409488704
 20
24.5385996829
 10
16.3224615576
 20
24.5588407055
 10
16.3037102382
 20
24.5785386846
 10
16.2847107727
 20
24.5976769591
 10
16.2654792312
 20
24.6162393412
 10
16.2460318804
 20
24.6342101303
 10
16.2263851695
 20
24.6515741263
 10
16.206555716
 20
24.6683166423
 10
16.1865602925
 20
24.6844235168
 10
16.1664158114
 20
24.6998811263
 10
16.1461393117
 20
24.7146763964
 10
16.1257479436
 20
24.7287968126
 10
16.1052589549
 20
24.7422304317
 10
16.0846896757
 20
24.754965891
 10
16.0640575041
 20
24.7669924186
 10
16.0433798912
 20
24.7782998421
 10
16.022674327
 20
24.7888785974
  0
LINE
  5
49B
100
AcDbEntity
  8
218
100
AcDbLine
 62
250
  6
CONTINUOUS
 10
16.5225981745
 20
24.2853023381
 11
16.6584205127
 21
24.0510434569
  0
LINE
  5
49C
100
AcDbEntity
  8
218
100
AcDbLine
 62
7
  6
CONTINUOUS
 10
16.8754414233
 20
24.4184006955
 11
17.0112637615
 21
24.1841418143
  0
LWPOLYLINE
  5
49D
100
AcDbEntity
  8
RACCORDO
100
AcDbPolyline
 62
250
  6
CONTINUOUS
 90
10
 70
0
 10
15.993814957
 20
-28.8187927151
 10
16.0109903317
 20
-28.7963697932
 10
16.0267381382
 20
-28.7723121374
 10
16.0408454144
 20
-28.7469450862
 10
16.0531213836
 20
-28.7206116855
 10
16.0634000343
 20
-28.6936680493
 10
16.0715423654
 20
-28.6664785441
 10
16.0774382659
 20
-28.6394108613
 10
16.0810080038
 20
-28.6128310449
 10
16.0822033046
 20
-28.5870985413
  0
LWPOLYLINE
  5
49E
100
AcDbEntity
  8
RACCORDO
100
AcDbPolyline
 62
250
  6
CONTINUOUS
 90
13
 70
0
 10
16.2589799999
 20
-29.050486889
 10
16.2853584324
 20
-29.016577038
 10
16.3098087679
 20
-28.9813617822
 10
16.3323310064
 20
-28.9448411215
 10
16.3530493244
 20
-28.9067433555
 10
16.3718395455
 20
-28.8673401846
 10
16.3883291398
 20
-28.8274467103
 10
16.402484738
 20
-28.7870502317
 10
16.4143397095
 20
-28.7461634496
 10
16.4236216331
 20
-28.7056395691
 10
16.4302397017
 20
-28.6657629917
 10
16.4342847224
 20
-28.6262493157
 10
16.4357566952
 20
-28.5870985413
  0
LINE
  5
49F
100
AcDbEntity
  8
RACCORDO
100
AcDbLine
 62
7
  6
CONTINUOUS
 10
14.0158512964
 20
-28.7710241489
 11
14.5461813823
 21
-28.130859106
  0
LINE
  5
4A0
100
AcDbEntity
  8
RACCORDO
100
AcDbLine
 62
250
  6
CONTINUOUS
 10
14.1199819868
 20
-28.787206316
 11
14.6503120727
 21
-28.147041273
  0
LINE
  5
4A1
100
AcDbEntity
  8
RACCORDO
100
AcDbLine
 62
250
  6
CONTINUOUS
 10
15.993814957
 20
-28.8187927151
 11
15.4634848711
 21
-29.4589577581
  0
LINE
  5
4A2
100
AcDbEntity
  8
RACCORDO
100
AcDbLine
 62
250
  6
CONTINUOUS
 10
16.2589799999
 20
-29.050486889
 11
15.728649914
 21
-29.6906519319
  0
LWPOLYLINE
  5
4A3
100
AcDbEntity
  8
RACCORDO
100
AcDbPolyline
 62
250
  6
CONTINUOUS
 90
8
 70
0
 10
14.0158512964
 20
-28.7710241489
 10
14.0207902113
 20
-28.766729634
 10
14.0305407872
 20
-28.7630308058
 10
14.0433444541
 20
-28.7622074502
 10
14.058980706
 20
-28.7642735378
 10
14.0771805231
 20
-28.769193158
 10
14.0976313768
 20
-28.7768815183
 10
14.1199819868
 20
-28.787206316
  0
LWPOLYLINE
  5
4A4
100
AcDbEntity
  8
RACCORDO
100
AcDbPolyline
 62
250
  6
CONTINUOUS
 90
8
 70
0
 10
14.5461813823
 20
-28.130859106
 10
14.5512004204
 20
-28.1265145777
 10
14.5609623959
 20
-28.1228475265
 10
14.5737655182
 20
-28.1220464394
 10
14.5893907225
 20
-28.1241250232
 10
14.6075706571
 20
-28.1290477129
 10
14.6279942584
 20
-28.1367302798
 10
14.6503120727
 20
-28.147041273
  0
LINE
  5
4A5
100
AcDbEntity
  8
DRAFT
100
AcDbLine
 62
7
  6
CONTINUOUS
 10
18.3803003435
 20
-24.1174533415
 11
23.3126878812
 21
-21.5636349342
  0
LINE
  5
4A6
100
AcDbEntity
  8
DRAFT
100
AcDbLine
 62
7
  6
CONTINUOUS
 10
18.3803003435
 20
-23.3330145369
 11
22.5789104262
 21
-21.1967462067
  0
LINE
  5
4A7
100
AcDbEntity
  8
RACCORDO
100
AcDbLine
 62
7
  6
CONTINUOUS
 10
18.3803003435
 20
-24.7319631956
 11
22.1578823373
 21
-22.8286072178
  0
LINE
  5
4A8
100
AcDbEntity
  8
RACCORDO
100
AcDbLine
 62
7
  6
CONTINUOUS
 10
18.3803003435
 20
-24.5943135133
 11
23.2692196489
 21
-22.1693734962
  0
LINE
  5
4A9
100
AcDbEntity
  8
RACCORDO
100
AcDbLine
 62
250
  6
CONTINUOUS
 10
13.0664962157
 20
-28.9186675632
 11
8.9675607567
 21
-30.2915613624
  0
LWPOLYLINE
  5
4AA
100
AcDbEntity
  8
RACCORDO
100
AcDbPolyline
 62
250
  6
CONTINUOUS
 90
17
 70
0
 10
16.5810928782
 20
-27.9381319543
 10
16.6089027718
 20
-27.9294480885
 10
16.6217093099
 20
-27.9255165927
 10
16.6337923865
 20
-27.9218747115
 10
16.6452627464
 20
-27.9183582954
 10
16.6561104681
 20
-27.9149452314
 10
16.6663454732
 20
-27.9116576325
 10
16.6761082718
 20
-27.9083976874
 10
16.6854075928
 20
-27.9051466485
 10
16.6942347073
 20
-27.9019232634
 10
16.7027039377
 20
-27.898685964
 10
16.7108222217
 20
-27.895426417
 10
16.7185826217
 20
-27.8921529557
 10
16.7260786473
 20
-27.8888490116
 10
16.7333414684
 20
-27.8855090617
 10
16.7403399151
 20
-27.8821386289
 10
16.7470739875
 20
-27.8787377132
  0
LWPOLYLINE
  5
4AB
100
AcDbEntity
  8
218
100
AcDbPolyline
 62
250
  6
CONTINUOUS
 90
26
 70
0
 10
16.4575472075
 20
24.811241927
 10
16.4504979113
 20
24.8146749352
 10
16.4352452015
 20
24.8214953581
 10
16.4196765404
 20
24.8276430882
 10
16.4038035044
 20
24.833113554
 10
16.3876378962
 20
24.837902688
 10
16.3711917361
 20
24.8420069291
 10
16.3544772528
 20
24.8454232255
 10
16.3375068748
 20
24.848149037
 10
16.3202932208
 20
24.8501823366
 10
16.3028490903
 20
24.8515216126
 10
16.2851874534
 20
24.8521658691
 10
16.2673214435
 20
24.852114627
 10
16.2492643477
 20
24.8513679244
 10
16.2310295942
 20
24.8499263171
 10
16.2126307403
 20
24.8477908773
 10
16.1940814646
 20
24.8449631926
 10
16.1753955465
 20
24.8414453628
 10
16.1565868934
 20
24.8372400056
 10
16.1376695282
 20
24.8323502581
 10
16.1186575381
 20
24.8267797666
 10
16.0995650403
 20
24.8205326724
 10
16.0804062084
 20
24.8136136157
 10
16.0611952807
 20
24.8060277396
 10
16.0419465494
 20
24.797780689
 10
16.022674327
 20
24.7888785974
  0
LWPOLYLINE
  5
4AC
100
AcDbEntity
  8
218
100
AcDbPolyline
 62
250
  6
CONTINUOUS
 90
24
 70
0
 10
2.8728062258
 20
31.3638126479
 10
2.8523874668
 20
31.3737960543
 10
2.8319755405
 20
31.3830334004
 10
2.8115877117
 20
31.391516873
 10
2.7912412252
 20
31.3992392966
 10
2.7709532905
 20
31.4061941392
 10
2.7507410677
 20
31.4123755183
 10
2.730621653
 20
31.4177782055
 10
2.7106120638
 20
31.4223976311
 10
2.6907292249
 20
31.4262298878
 10
2.6709899537
 20
31.4292717342
 10
2.6514109462
 20
31.4315205974
 10
2.632008763
 20
31.4329745753
 10
2.6127998148
 20
31.433632438
 10
2.5938003493
 20
31.4334936291
 10
2.5750264366
 20
31.432558266
 10
2.5564939563
 20
31.4308271399
 10
2.5382185836
 20
31.4283017151
 10
2.5202157764
 20
31.4249841275
 10
2.502500762
 20
31.4208771832
 10
2.4850885242
 20
31.4159843562
 10
2.4679937908
 20
31.4103097848
 10
2.451231021
 20
31.4038582687
 10
2.4339214754
 20
31.3962155829
  0
LINE
  5
4AD
100
AcDbEntity
  8
218
100
AcDbLine
 62
250
  6
CONTINUOUS
 10
15.490276469
 20
25.0550775263
 11
16.022674327
 21
24.7888785974
  0
LINE
  5
4AE
100
AcDbEntity
  8
218
100
AcDbLine
 62
250
  6
CONTINUOUS
 10
10.8298252862
 20
27.3853031177
 11
8.0656552666
 21
28.7673881276
  0
LINE
  5
4AF
100
AcDbEntity
  8
218
100
AcDbLine
 62
250
  6
CONTINUOUS
 10
3.4052040838
 20
31.097613719
 11
2.8728062258
 21
31.3638126479
  0
LINE
  5
4B0
100
AcDbEntity
  8
218
100
AcDbLine
 62
7
  6
CONTINUOUS
 10
15.8369825798
 20
25.1215242408
 11
16.4575472075
 21
24.811241927
  0
LINE
  5
4B1
100
AcDbEntity
  8
218
100
AcDbLine
 62
7
  6
CONTINUOUS
 10
11.3528649365
 20
27.3635830625
 11
8.4123613774
 21
28.833834842
  0
LINE
  5
4B2
100
AcDbEntity
  8
218
100
AcDbLine
 62
7
  6
CONTINUOUS
 10
3.9282437341
 20
31.0758936637
 11
3.3076791064
 21
31.3861759775
  0
LINE
  5
4B3
100
AcDbEntity
  8
RACCORDO
100
AcDbLine
 62
250
  6
CONTINUOUS
 10
17.5674479599
 20
-27.4491966157
 11
17.6020826199
 21
-27.4256841546
  0
LWPOLYLINE
  5
4B4
100
AcDbEntity
  8
RACCORDO
100
AcDbPolyline
 62
250
  6
CONTINUOUS
 90
9
 70
0
 10
17.6020826199
 20
-27.4256841546
 10
17.6282837022
 20
-27.4081020269
 10
17.6423780877
 20
-27.3988997378
 10
17.6571357646
 20
-27.3894536148
 10
17.6725727965
 20
-27.3797780419
 10
17.6887877495
 20
-27.3700502708
 10
17.705813479
 20
-27.3603293856
 10
17.7236171296
 20
-27.3505563022
 10
17.7421987013
 20
-27.3407310206
  0
LINE
  5
4B5
100
AcDbEntity
  8
DRAFT
100
AcDbLine
 62
7
  6
CONTINUOUS
 10
16.68959431
 20
-27.7859303947
 11
16.2219522156
 21
-28.0808462121
  0
LWPOLYLINE
  5
4B6
100
AcDbEntity
  8
RACCORDO
100
AcDbPolyline
 62
250
  6
CONTINUOUS
 90
6
 70
0
 10
17.1428634764
 20
-28.2335451507
 10
17.1644251162
 20
-28.2212519817
 10
17.182593132
 20
-28.2076568031
 10
17.1970566642
 20
-28.1929922321
 10
17.2075682377
 20
-28.1775091837
 10
17.2139479964
 20
-28.1614725771
  0
LWPOLYLINE
  5
4B7
100
AcDbEntity
  8
RACCORDO
100
AcDbPolyline
 62
7
  6
CONTINUOUS
 90
11
 70
0
 10
17.3527670066
 20
-27.7732408631
 10
17.3870447651
 20
-27.7546700484
 10
17.4194418199
 20
-27.7357238808
 10
17.4506723885
 20
-27.7162642692
 10
17.4808078973
 20
-27.6965734036
 10
17.5093305506
 20
-27.677366063
 10
17.536085963
 20
-27.6591941636
 10
17.5613236792
 20
-27.6423427464
 10
17.584459173
 20
-27.6275608322
 10
17.6040321576
 20
-27.6159220825
 10
17.6197930356
 20
-27.6074488597
  0
LINE
  5
4B8
100
AcDbEntity
  8
RACCORDO
100
AcDbLine
 62
250
  6
CONTINUOUS
 10
17.1428634764
 20
-27.909722723
 11
16.4357566952
 21
-28.2783926432
  0
LWPOLYLINE
  5
4B9
100
AcDbEntity
  8
RACCORDO
100
AcDbPolyline
 62
250
  6
CONTINUOUS
 90
12
 70
0
 10
17.4662983087
 20
-27.5110728509
 10
17.4731687318
 20
-27.5075199302
 10
17.4802780951
 20
-27.5037059524
 10
17.4876263987
 20
-27.4996309173
 10
17.4951871932
 20
-27.4953144337
 10
17.5029869279
 20
-27.4907368929
 10
17.5111049508
 20
-27.4858394686
 10
17.5195383733
 20
-27.4806182229
 10
17.5282900841
 20
-27.4750770938
 10
17.5374480967
 20
-27.4691690696
 10
17.547005524
 20
-27.462887293
 10
17.5674479599
 20
-27.4491966157
  0
LINE
  5
4BA
100
AcDbEntity
  8
RACCORDO
100
AcDbLine
 62
250
  6
CONTINUOUS
 10
16.7470739875
 20
-27.8787377132
 11
17.3064969805
 21
-27.5927240829
  0
LINE
  5
4BB
100
AcDbEntity
  8
RACCORDO
100
AcDbLine
 62
7
  6
CONTINUOUS
 10
16.6273694073
 20
-28.1440847922
 11
17.2182602238
 21
-27.8419908344
  0
LINE
  5
4BC
100
AcDbEntity
  8
RACCORDO
100
AcDbLine
 62
250
  6
CONTINUOUS
 10
17.3064969805
 20
-27.5927240829
 11
17.4662983087
 21
-27.5110728509
  0
LINE
  5
4BD
100
AcDbEntity
  8
RACCORDO
100
AcDbLine
 62
7
  6
CONTINUOUS
 10
17.2182602238
 20
-27.8419908344
 11
17.3527670066
 21
-27.7732408631
  0
LINE
  5
4BE
100
AcDbEntity
  8
RACCORDO
100
AcDbLine
 62
250
  6
CONTINUOUS
 10
16.2219522156
 20
-28.10671585
 11
16.4576983555
 21
-27.9879377332
  0
LINE
  5
4BF
100
AcDbEntity
  8
RACCORDO
100
AcDbLine
 62
250
  6
CONTINUOUS
 10
17.7421987013
 20
-27.3407310206
 11
18.3803003435
 21
-27.0192199814
  0
LINE
  5
4C0
100
AcDbEntity
  8
RACCORDO
100
AcDbLine
 62
7
  6
CONTINUOUS
 10
16.0924521695
 20
-28.3770082565
 11
16.3353852399
 21
-28.2546050598
  0
LINE
  5
4C1
100
AcDbEntity
  8
RACCORDO
100
AcDbLine
 62
7
  6
CONTINUOUS
 10
17.6198522246
 20
-27.6074191303
 11
18.2508002973
 21
-27.2895123879
  0
LINE
  5
4C2
100
AcDbEntity
  8
RACCORDO
100
AcDbLine
 62
250
  6
CONTINUOUS
 10
15.728649914
 20
-30.041965904
 11
17.8499702576
 21
-28.9813057322
  0
LINE
  5
4C3
100
AcDbEntity
  8
RACCORDO
100
AcDbLine
 62
7
  6
CONTINUOUS
 10
15.6636766176
 20
-30.1771843541
 11
17.7849969612
 21
-29.1165241823
  0
LWPOLYLINE
  5
4C4
100
AcDbEntity
  8
RACCORDO
100
AcDbPolyline
 62
250
  6
CONTINUOUS
 90
5
 70
0
 10
16.4357566952
 20
-28.2783926432
 10
16.416041317
 20
-28.2879889322
 10
16.3946374202
 20
-28.2964407564
 10
16.3718012505
 20
-28.3036734935
 10
16.3478092726
 20
-28.3096319318
  0
LWPOLYLINE
  5
4C5
100
AcDbEntity
  8
RACCORDO
100
AcDbPolyline
 62
7
  6
CONTINUOUS
 90
7
 70
0
 10
16.3350466174
 20
-28.2547832965
 10
16.3423405609
 20
-28.2512377195
 10
16.354244316
 20
-28.2460325366
 10
16.3670545244
 20
-28.2410938161
 10
16.3824344834
 20
-28.2357726842
 10
16.4014269037
 20
-28.2297183492
 10
16.448634798
 20
-28.2152841504
  0
LWPOLYLINE
  5
4C6
100
AcDbEntity
  8
RACCORDO
100
AcDbPolyline
 62
250
  6
CONTINUOUS
 90
8
 70
0
 10
16.4576983555
 20
-27.9879377332
 10
16.4780563998
 20
-27.9782672605
 10
16.4974934455
 20
-27.9694787557
 10
16.5160094927
 20
-27.9615722186
 10
16.5335623944
 20
-27.9546663987
 10
16.5501942975
 20
-27.9486425466
 10
16.5660316427
 20
-27.9431444144
 10
16.5810928782
 20
-27.9381319543
  0
LWPOLYLINE
  5
4C7
100
AcDbEntity
  8
RACCORDO
100
AcDbPolyline
 62
250
  6
CONTINUOUS
 90
13
 70
0
 10
15.728649914
 20
-30.041965904
 10
15.7046436015
 20
-30.052523514
 10
15.6779418358
 20
-30.0615204855
 10
15.6489385927
 20
-30.0687712119
 10
15.6180088856
 20
-30.0741243041
 10
15.5857195497
 20
-30.0774266842
 10
15.5528424243
 20
-30.078576617
 10
15.5200206929
 20
-30.0775588217
 10
15.4877505223
 20
-30.0743958908
 10
15.4566007982
 20
-30.0691448159
 10
15.4271119027
 20
-30.0618995463
 10
15.39978746
 20
-30.0527868326
 10
15.3750965234
 20
-30.041965904
  0
LWPOLYLINE
  5
4C8
100
AcDbEntity
  8
RACCORDO
100
AcDbPolyline
 62
250
  6
CONTINUOUS
 90
13
 70
0
 10
15.728649914
 20
-29.6906519319
 10
15.7042506956
 20
-29.7013608906
 10
15.6772185333
 20
-29.7104168922
 10
15.6479955991
 20
-29.7176547537
 10
15.6170430427
 20
-29.7229417658
 10
15.5849025843
 20
-29.7261678427
 10
15.5521943299
 20
-29.7272634811
 10
15.5195044141
 20
-29.7262114165
 10
15.4873703504
 20
-29.7230313159
 10
15.4563449948
 20
-29.7177780405
 10
15.4269611614
 20
-29.7105421347
 10
15.3997225957
 20
-29.7014479932
 10
15.3750965234
 20
-29.6906519319
  0
LWPOLYLINE
  5
4C9
100
AcDbEntity
  8
RACCORDO
100
AcDbPolyline
 62
250
  6
CONTINUOUS
 90
13
 70
0
 10
16.4357566952
 20
-28.5870985413
 10
16.4111703572
 20
-28.5978793612
 10
16.3839799999
 20
-28.6069633691
 10
16.354650858
 20
-28.6141951352
 10
16.3236847612
 20
-28.6194509219
 10
16.291611548
 20
-28.6226408013
 10
16.2589799999
 20
-28.6237101937
 10
16.2263484518
 20
-28.6226408013
 10
16.1942752386
 20
-28.6194509219
 10
16.1633091418
 20
-28.6141951352
 10
16.1339799999
 20
-28.6069633691
 10
16.1067896427
 20
-28.5978793612
 10
16.0822033046
 20
-28.5870985413
  0
LWPOLYLINE
  5
4CA
100
AcDbEntity
  8
RACCORDO
100
AcDbPolyline
 62
250
  6
CONTINUOUS
 90
11
 70
0
 10
8.6658582108
 20
-30.7636967958
 10
8.6826417731
 20
-30.7575898349
 10
8.7323893056
 20
-30.7333193113
 10
8.778625426
 20
-30.7010735539
 10
8.820843763
 20
-30.6612057816
 10
8.8585819715
 20
-30.6141526804
 10
8.8914267835
 20
-30.5604296172
 10
8.91901852
 20
-30.5006250137
 10
8.9410550426
 20
-30.4353938845
 10
8.9572950583
 20
-30.3654506581
 10
8.9675607567
 20
-30.2915613624
  0
LINE
  5
4CB
100
AcDbEntity
  8
RACCORDO
100
AcDbLine
 62
7
  6
CONTINUOUS
 10
8.6652459816
 20
-30.763901221
 11
12.7686660515
 21
-29.3895059845
  0
LWPOLYLINE
  5
4CC
100
AcDbEntity
  8
RACCORDO
100
AcDbPolyline
 62
7
  6
CONTINUOUS
 90
7
 70
0
 10
16.448634798
 20
-28.2152841504
 10
16.4756226633
 20
-28.2066713135
 10
16.5043010578
 20
-28.1968791911
 10
16.5340742177
 20
-28.1858375627
 10
16.5644111821
 20
-28.1735223773
 10
16.595077124
 20
-28.1598602165
 10
16.6273194559
 20
-28.1441123764
  0
ARC
  5
4CD
100
AcDbEntity
  8
218
100
AcDbCircle
 62
7
  6
CONTINUOUS
 10
2.8604655109
 20
30.4917487865
 40
1.0
100
AcDbArc
 50
63.4349373369
 51
115.2504241015
  0
ARC
  5
4CE
100
AcDbEntity
  8
218
100
AcDbCircle
 62
7
  6
CONTINUOUS
 10
16.010333612
 20
23.916814736
 40
1.0
100
AcDbArc
 50
30.1049818266
 51
63.4349150214
  0
ARC
  5
4CF
100
AcDbEntity
  8
RACCORDO
100
AcDbCircle
 62
7
  6
CONTINUOUS
 10
17.6731935623
 20
-28.5416034125
 40
0.25
100
AcDbArc
 50
0.0
 51
63.5164922203
  0
ARC
  5
4D0
100
AcDbEntity
  8
RACCORDO
100
AcDbCircle
 62
7
  6
CONTINUOUS
 10
17.6731935623
 20
-28.8929173846
 40
0.25
100
AcDbArc
 50
296.5178013085
 51
359.9677556247
  0
ARC
  5
4D1
100
AcDbEntity
  8
RACCORDO
100
AcDbCircle
 62
7
  6
CONTINUOUS
 10
14.2083703345
 20
-28.9305121421
 40
0.25
100
AcDbArc
 50
140.366937223
 51
180.0
  0
ARC
  5
4D2
100
AcDbEntity
  8
RACCORDO
100
AcDbCircle
 62
7
  6
CONTINUOUS
 10
14.2083703345
 20
-29.2818261142
 40
0.25
100
AcDbArc
 50
180.0322443753
 51
243.4821986915
  0
ARC
  5
4D3
100
AcDbEntity
  8
RACCORDO
100
AcDbCircle
 62
7
  6
CONTINUOUS
 10
15.5518732187
 20
-29.9535775563
 40
0.25
100
AcDbArc
 50
243.3935135911
 51
296.5650511771
  0
ARC
  5
4D4
100
AcDbEntity
  8
RACCORDO
100
AcDbCircle
 62
7
  6
CONTINUOUS
 10
14.2083703345
 20
12.7204059693
 40
0.25
100
AcDbArc
 50
116.5178013085
 51
179.9677556247
  0
ARC
  5
4D5
100
AcDbEntity
  8
RACCORDO
100
AcDbCircle
 62
7
  6
CONTINUOUS
 10
16.329690678
 20
13.7810661411
 40
0.25
100
AcDbArc
 50
63.4349488229
 51
116.6064864089
  0
ARC
  5
4D6
100
AcDbEntity
  8
RACCORDO
100
AcDbCircle
 62
7
  6
CONTINUOUS
 10
17.6731935623
 20
12.7580007269
 40
0.25
100
AcDbArc
 50
320.3607277622
 51
359.9974551036
  0
ARC
  5
4D7
100
AcDbEntity
  8
RACCORDO
100
AcDbCircle
 62
7
  6
CONTINUOUS
 10
17.6731935623
 20
13.109314699
 40
0.25
100
AcDbArc
 50
0.0049403466
 51
63.4349488229
  0
ARC
  5
4D8
100
AcDbEntity
  8
RACCORDO
100
AcDbCircle
 62
7
  6
CONTINUOUS
 10
15.5518732187
 20
11.6973405551
 40
0.25
100
AcDbArc
 50
243.4349488229
 51
258.2990804918
  0
ARC
  5
4D9
100
AcDbEntity
  8
RACCORDO
100
AcDbCircle
 62
7
  6
CONTINUOUS
 10
14.2083703345
 20
12.3690919973
 40
0.25
100
AcDbArc
 50
180.0
 51
243.5164922203
  0
ARC
  5
4DA
100
AcDbEntity
  8
RACCORDO
100
AcDbCircle
 62
7
  6
CONTINUOUS
 10
0.84405217
 20
19.0512510795
 40
0.25
100
AcDbArc
 50
180.0
 51
243.5164922203
  0
ARC
  5
4DB
100
AcDbEntity
  8
RACCORDO
100
AcDbCircle
 62
7
  6
CONTINUOUS
 10
2.1875550543
 20
18.3794996373
 40
0.25
100
AcDbArc
 50
243.4349488229
 51
258.2990804918
  0
ARC
  5
4DC
100
AcDbEntity
  8
RACCORDO
100
AcDbCircle
 62
7
  6
CONTINUOUS
 10
0.84405217
 20
19.4025650516
 40
0.25
100
AcDbArc
 50
116.5650511771
 51
179.9950596534
  0
ARC
  5
4DD
100
AcDbEntity
  8
RACCORDO
100
AcDbCircle
 62
7
  6
CONTINUOUS
 10
2.9653725136
 20
20.4632252233
 40
0.25
100
AcDbArc
 50
63.3935135911
 51
116.5650511771
  0
ARC
  5
4DE
100
AcDbEntity
  8
RACCORDO
100
AcDbCircle
 62
7
  6
CONTINUOUS
 10
4.3088753979
 20
19.4401598091
 40
0.25
100
AcDbArc
 50
320.366937223
 51
360.0
  0
ARC
  5
4DF
100
AcDbEntity
  8
RACCORDO
100
AcDbCircle
 62
7
  6
CONTINUOUS
 10
4.3088753979
 20
19.7914737812
 40
0.25
100
AcDbArc
 50
0.0322443753
 51
63.4821986915
  0
ELLIPSE
  5
4E0
100
AcDbEntity
  8
268
100
AcDbEllipse
 62
7
  6
CONTINUOUS
 10
-15.1980156523
 20
27.0722849907
 30
0.0
 11
0.110769438
 21
0.2241226716
 31
0.0
 40
0.6088015717
 41
-4.0304836828
 42
-3.144406558
  0
ELLIPSE
  5
4E1
100
AcDbEntity
  8
268
100
AcDbEllipse
 62
7
  6
CONTINUOUS
 10
-1.8336974879
 20
20.3901259084
 30
0.0
 11
0.110769438
 21
0.2241226716
 31
0.0
 40
0.6088015717
 41
-4.0304836828
 42
-3.144406558
  0
ELLIPSE
  5
4E2
100
AcDbEntity
  8
268
100
AcDbEllipse
 62
7
  6
CONTINUOUS
 10
-3.5436851552
 20
28.2036391645
 30
0.0
 11
0.2999991737
 21
-0.0014183462
 31
0.0
 40
0.4964289597
 41
0.7877451926
 42
2.3527237553
  0
ELLIPSE
  5
4E3
100
AcDbEntity
  8
268
100
AcDbEllipse
 62
7
  6
CONTINUOUS
 10
2.010778359
 20
25.4264074074
 30
0.0
 11
0.2999991737
 21
-0.0014183462
 31
0.0
 40
0.4964289597
 41
0.7877451926
 42
2.3585415194
  0
ELLIPSE
  5
4E4
100
AcDbEntity
  8
268
100
AcDbEllipse
 62
7
  6
CONTINUOUS
 10
-11.8141876699
 20
26.3981379524
 30
0.0
 11
0.110769438
 21
0.2241226716
 31
0.0
 40
0.6088015717
 41
1.2055040732
 42
2.2526937431
  0
ELLIPSE
  5
4E5
100
AcDbEntity
  8
268
100
AcDbEllipse
 62
7
  6
CONTINUOUS
 10
1.9016269716
 20
20.6437840222
 30
0.0
 11
0.110769438
 21
0.2241226716
 31
0.0
 40
0.6088015717
 41
-1.9360885804
 42
-0.8888910292
  0
ELLIPSE
  5
4E6
100
AcDbEntity
  8
268
100
AcDbEllipse
 62
7
  6
CONTINUOUS
 10
0.2814521153
 20
21.7148004268
 30
0.0
 11
0.1128509832
 21
0.2230818409
 31
0.0
 40
0.6159267166
 41
0.0028868672
 42
0.6817883054
  0
ELLIPSE
  5
4E7
100
AcDbEntity
  8
268
100
AcDbEllipse
 62
7
  6
CONTINUOUS
 10
-1.8336974879
 20
20.6434973022
 30
0.0
 11
0.110769438
 21
0.2241226716
 31
0.0
 40
0.6088015717
 41
0.6877230618
 42
2.2527016244
  0
ELLIPSE
  5
4E8
100
AcDbEntity
  8
268
100
AcDbEllipse
 62
7
  6
CONTINUOUS
 10
-11.4626911928
 20
27.3259431044
 30
0.0
 11
0.110769438
 21
0.2241226716
 31
0.0
 40
0.6088015717
 41
-1.9360885804
 42
-0.8888910292
  0
ELLIPSE
  5
4E9
100
AcDbEntity
  8
268
100
AcDbEllipse
 62
7
  6
CONTINUOUS
 10
-13.0828660492
 20
28.396959509
 30
0.0
 11
0.1128509832
 21
0.2230818409
 31
0.0
 40
0.6159267166
 41
0.0028868672
 42
0.6817883054
  0
ELLIPSE
  5
4EA
100
AcDbEntity
  8
268
100
AcDbEllipse
 62
7
  6
CONTINUOUS
 10
-15.1980156523
 20
27.3256563844
 30
0.0
 11
0.110769438
 21
0.2241226716
 31
0.0
 40
0.6088015717
 41
0.6877230618
 42
2.2527016244
  0
ELLIPSE
  5
4EB
100
AcDbEntity
  8
268
100
AcDbEllipse
 62
7
  6
CONTINUOUS
 10
-11.4626911928
 20
27.5868720808
 30
0.0
 11
0.110769438
 21
0.2241226716
 31
0.0
 40
0.6088015717
 41
5.394294278
 42
6.9592728406
  0
ELLIPSE
  5
4EC
100
AcDbEntity
  8
268
100
AcDbEllipse
 62
7
  6
CONTINUOUS
 10
1.9016269716
 20
20.9047129986
 30
0.0
 11
0.110769438
 21
0.2241226716
 31
0.0
 40
0.6088015717
 41
5.394294278
 42
6.9592728406
  0
ELLIPSE
  5
4ED
100
AcDbEntity
  8
268
100
AcDbEllipse
 62
7
  6
CONTINUOUS
 10
-3.363233178
 20
26.8815789945
 30
0.0
 11
0.2999981629
 21
-0.0021225547
 31
0.0
 40
0.4946372042
 41
-0.7818985079
 42
0.0034996555
  0
ELLIPSE
  5
4EE
100
AcDbEntity
  8
268
100
AcDbEllipse
 62
7
  6
CONTINUOUS
 10
2.1912303361
 20
24.1043472374
 30
0.0
 11
0.2999981629
 21
-0.0021225547
 31
0.0
 40
0.4946372042
 41
-0.7760807437
 42
0.0034996555
  0
ELLIPSE
  5
4EF
100
AcDbEntity
  8
268
100
AcDbEllipse
 62
7
  6
CONTINUOUS
 10
-9.5121789055
 20
25.2834577966
 30
0.0
 11
0.2999991335
 21
0.0014318851
 31
0.0
 40
0.5035541159
 41
8.6427941204
 42
10.207772683
  0
ELLIPSE
  5
4F0
100
AcDbEntity
  8
268
100
AcDbEllipse
 62
7
  6
CONTINUOUS
 10
-15.5254698144
 20
25.4863876953
 30
0.0
 11
-0.1565168911
 21
0.3130623908
 31
0.0
 40
0.6123677712
 41
-0.6846781644
 42
0.8861181623
  0
ELLIPSE
  5
4F1
100
AcDbEntity
  8
268
100
AcDbEllipse
 62
7
  6
CONTINUOUS
 10
-0.2519633408
 20
17.8496344584
 30
0.0
 11
-0.1565168911
 21
0.3130623908
 31
0.0
 40
0.6123677712
 41
-2.2554744912
 42
-0.6846781644
  0
ELLIPSE
  5
4F2
100
AcDbEntity
  8
268
100
AcDbEllipse
 62
7
  6
CONTINUOUS
 10
-3.7196698375
 20
22.3872032625
 30
0.0
 11
0.2999991335
 21
0.0014318851
 31
0.0
 40
0.5035541159
 41
-2.3585979313
 42
-0.7936193687
  0
ELLIPSE
  5
4F3
100
AcDbEntity
  8
268
100
AcDbEllipse
 62
7
  6
CONTINUOUS
 10
-3.7196698375
 20
21.1730041867
 30
0.0
 11
0.2999980272
 21
0.0021530184
 31
0.0
 40
0.5053247124
 41
-2.3598210761
 42
-0.7948425135
  0
ELLIPSE
  5
4F4
100
AcDbEntity
  8
268
100
AcDbEllipse
 62
7
  6
CONTINUOUS
 10
-9.5121789055
 20
24.0692587207
 30
0.0
 11
0.2999980272
 21
0.0021530184
 31
0.0
 40
0.5053247124
 41
3.1379660677
 42
3.9233642311
  0
ELLIPSE
  5
4F5
100
AcDbEntity
  8
268
100
AcDbEllipse
 62
7
  6
CONTINUOUS
 10
2.1912303361
 20
25.3361814188
 30
0.0
 11
0.2999991737
 21
-0.0014183462
 31
0.0
 40
0.4964289597
 41
-0.77723337
 42
0.7877451926
  0
ELLIPSE
  5
4F6
100
AcDbEntity
  8
268
100
AcDbEllipse
 62
7
  6
CONTINUOUS
 10
-3.363233178
 20
28.1134131759
 30
0.0
 11
0.2999991737
 21
-0.0014183462
 31
0.0
 40
0.4964289597
 41
-0.7830511342
 42
0.7877451926
  0
ELLIPSE
  5
4F7
100
AcDbEntity
  8
268
100
AcDbEllipse
 62
7
  6
CONTINUOUS
 10
-0.2258641123
 20
19.8395806144
 30
0.0
 11
0.1128509832
 21
0.2230818409
 31
0.0
 40
0.6159267166
 41
0.6934238338
 42
2.2584023964
  0
ELLIPSE
  5
4F8
100
AcDbEntity
  8
268
100
AcDbEllipse
 62
7
  6
CONTINUOUS
 10
-0.2258641123
 20
19.5862092206
 30
0.0
 11
0.1128509832
 21
0.2230818409
 31
0.0
 40
0.6159267166
 41
-4.0247829108
 42
-2.9775853596
  0
ELLIPSE
  5
4F9
100
AcDbEntity
  8
268
100
AcDbEllipse
 62
7
  6
CONTINUOUS
 10
-13.5901822767
 20
26.5217396966
 30
0.0
 11
0.1128509832
 21
0.2230818409
 31
0.0
 40
0.6159267166
 41
0.6934238338
 42
2.2584023964
  0
ELLIPSE
  5
4FA
100
AcDbEntity
  8
268
100
AcDbEllipse
 62
7
  6
CONTINUOUS
 10
-13.5901822767
 20
26.2683683028
 30
0.0
 11
0.1128509832
 21
0.2230818409
 31
0.0
 40
0.6159267166
 41
-4.0247829108
 42
-2.9775853596
  0
ELLIPSE
  5
4FB
100
AcDbEntity
  8
RACCORDO
100
AcDbEllipse
 62
7
  6
CONTINUOUS
 10
18.0266930968
 20
-26.842548268
 30
0.0
 11
-0.2235807756
 21
0.4472283268
 31
0.0
 40
0.6125552124
 41
-3.1396695482
 42
-2.255296188
  0
ELLIPSE
  5
4FC
100
AcDbEntity
  8
RACCORDO
100
AcDbEllipse
 62
7
  6
CONTINUOUS
 10
18.0266930968
 20
11.0589994385
 30
0.0
 11
-0.2237009107
 21
0.4473351135
 31
0.0
 40
0.6121897086
 41
-2.2557347926
 42
-0.6846338794
  0
ELLIPSE
  5
4FD
100
AcDbEntity
  8
RACCORDO
100
AcDbEllipse
 62
7
  6
CONTINUOUS
 10
10.8675008201
 20
20.4334291788
 30
0.0
 11
0.9987332359
 21
0.6172510855
 31
0.0
 40
0.0815198604
 41
0.0503393611
 42
0.7176053907
  0
ELLIPSE
  5
4FE
100
AcDbEntity
  8
RACCORDO
100
AcDbEllipse
 62
7
  6
CONTINUOUS
 10
22.6179236948
 20
14.5582177415
 30
0.0
 11
0.4349639225
 21
0.9005141702
 31
0.0
 40
0.6016116119
 41
-0.8943064336
 42
-0.538697204
  0
ELLIPSE
  5
4FF
100
AcDbEntity
  8
RACCORDO
100
AcDbEllipse
 62
7
  6
CONTINUOUS
 10
22.8525407077
 20
-22.322383614
 30
0.0
 11
0.9987332359
 21
0.6172510855
 31
0.0
 40
0.0815198604
 41
-2.3890806779
 42
-1.1913468732
  0
ELLIPSE
  5
500
100
AcDbEntity
  8
RACCORDO
100
AcDbEllipse
 62
7
  6
CONTINUOUS
 10
22.6179236948
 20
-22.2050751076
 30
0.0
 11
0.4349639225
 21
0.9005141702
 31
0.0
 40
0.6016116119
 41
-1.2499156631
 42
-0.8943064336
  0
ELLIPSE
  5
501
100
AcDbEntity
  8
RACCORDO
100
AcDbEllipse
 62
7
  6
CONTINUOUS
 10
12.0115291317
 20
19.8903935537
 30
0.0
 11
0.2256808774
 21
0.4461742732
 31
0.0
 40
0.6158912572
 41
0.0028576325
 42
0.6875768343
  0
ELLIPSE
  5
502
100
AcDbEntity
  8
RACCORDO
100
AcDbEllipse
 62
7
  6
CONTINUOUS
 10
18.1729784902
 20
16.8096688744
 30
0.0
 11
0.2215594226
 21
0.4482351134
 31
0.0
 40
0.6088373611
 41
5.3943220613
 42
6.9651183881
  0
ELLIPSE
  5
503
100
AcDbEntity
  8
RACCORDO
100
AcDbEllipse
 62
7
  6
CONTINUOUS
 10
22.8525407077
 20
14.440909235
 30
0.0
 11
-0.7417913999
 21
1.2002436976
 31
0.0
 40
0.5587454355
 41
5.0176587298
 42
6.2153925345
  0
ELLIPSE
  5
504
100
AcDbEntity
  8
RACCORDO
100
AcDbEllipse
 62
7
  6
CONTINUOUS
 10
15.8683449689
 20
-27.9300441366
 30
0.0
 11
-0.2235807756
 21
0.4472283268
 31
0.0
 40
0.6125552124
 41
2.4567882058
 42
4.0278891191
  0
ELLIPSE
  5
505
100
AcDbEntity
  8
RACCORDO
100
AcDbEllipse
 62
7
  6
CONTINUOUS
 10
15.8683449689
 20
10.0622027479
 30
0.0
 11
-0.2237009107
 21
0.4473351135
 31
0.0
 40
0.6121897086
 41
4.0274505145
 42
5.5985514278
  0
ELLIPSE
  5
506
100
AcDbEntity
  8
RACCORDO
100
AcDbEllipse
 62
7
  6
CONTINUOUS
 10
14.0513704903
 20
-23.242473815
 30
0.0
 11
-0.2713091605
 21
0.4239062184
 31
0.0
 40
0.5451249042
 41
-3.2164266161
 42
-2.3115524019
  0
ELLIPSE
  5
507
100
AcDbEntity
  8
RACCORDO
100
AcDbEllipse
 62
7
  6
CONTINUOUS
 10
6.6756526352
 20
16.1296129539
 30
0.0
 11
0.4999881828
 21
-0.0070264249
 31
0.0
 40
0.4892375088
 41
-3.1347174182
 42
-2.3493192548
  0
ELLIPSE
  5
508
100
AcDbEntity
  8
RACCORDO
100
AcDbEllipse
 62
7
  6
CONTINUOUS
 10
0.8811338105
 20
17.5558083271
 30
0.0
 11
-0.2235807756
 21
0.4472283268
 31
0.0
 40
0.6125552124
 41
-0.6848044477
 42
0.8862964655
  0
ELLIPSE
  5
509
100
AcDbEntity
  8
RACCORDO
100
AcDbEllipse
 62
7
  6
CONTINUOUS
 10
12.1951464877
 20
13.3698660276
 30
0.0
 11
0.4999881828
 21
-0.0070264249
 31
0.0
 40
0.4892375088
 41
-2.3493192548
 42
-0.7727633415
  0
ELLIPSE
  5
50A
100
AcDbEntity
  8
218
100
AcDbEllipse
 62
7
  6
CONTINUOUS
 10
2.1875550543
 20
26.9959343917
 30
0.0
 11
2.7499924258
 21
-0.0130015067
 31
0.0
 40
0.4964289597
 41
2.3672681657
 42
2.9293761837
  0
ELLIPSE
  5
50B
100
AcDbEntity
  8
218
100
AcDbEllipse
 62
7
  6
CONTINUOUS
 10
9.6121762568
 20
23.2836237904
 30
0.0
 11
2.7499924258
 21
-0.0130015067
 31
0.0
 40
0.4964289597
 41
2.3672681657
 42
2.9293761949
  0
ELLIPSE
  5
50C
100
AcDbEntity
  8
218
100
AcDbEllipse
 62
7
  6
CONTINUOUS
 10
10.2839276989
 20
23.1817003406
 30
0.0
 11
2.7583876426
 21
-0.0130411979
 31
0.0
 40
0.4964289597
 41
0.8884696282
 42
2.3585415194
  0
ELLIPSE
  5
50D
100
AcDbEntity
  8
218
100
AcDbEllipse
 62
7
  6
CONTINUOUS
 10
10.2839276989
 20
23.1817003406
 30
0.0
 11
2.7583876426
 21
-0.0130411979
 31
0.0
 40
0.4964289597
 41
0.4412294433
 42
0.6870207571
  0
ELLIPSE
  5
50E
100
AcDbEntity
  8
218
100
AcDbEllipse
 62
7
  6
CONTINUOUS
 10
2.8593064964
 20
26.8940109418
 30
0.0
 11
2.7583876426
 21
-0.0130411979
 31
0.0
 40
0.4964289597
 41
0.4412294433
 42
0.6870207571
  0
ELLIPSE
  5
50F
100
AcDbEntity
  8
218
100
AcDbEllipse
 62
7
  6
CONTINUOUS
 10
2.8593064964
 20
26.8940109418
 30
0.0
 11
2.7583876426
 21
-0.0130411979
 31
0.0
 40
0.4964289597
 41
0.8884696282
 42
2.3585415194
  0
ELLIPSE
  5
510
100
AcDbEntity
  8
218
100
AcDbEllipse
 62
7
  6
CONTINUOUS
 10
15.069626403
 20
24.3871683405
 30
0.0
 11
0.79574694
 21
0.7129684349
 31
0.0
 40
0.2882345029
 41
0.1134874791
 42
0.7807533904
  0
ELLIPSE
  5
511
100
AcDbEntity
  8
218
100
AcDbEllipse
 62
7
  6
CONTINUOUS
 10
7.6450052005
 20
28.0994789417
 30
0.0
 11
0.79574694
 21
0.7129684349
 31
0.0
 40
0.2882345029
 41
0.1134874791
 42
0.7807533904
  0
ELLIPSE
  5
512
100
AcDbEntity
  8
218
100
AcDbEllipse
 62
7
  6
CONTINUOUS
 10
11.1722383324
 20
26.3358623758
 30
0.0
 11
0.4410298232
 21
0.8975092442
 31
0.0
 40
0.607010042
 41
-0.8902711325
 42
-0.7587130969
  0
ELLIPSE
  5
513
100
AcDbEntity
  8
218
100
AcDbEllipse
 62
7
  6
CONTINUOUS
 10
3.7476171299
 20
30.048172977
 30
0.0
 11
0.4410298232
 21
0.8975092442
 31
0.0
 40
0.607010042
 41
-0.8902711325
 42
-0.7587130969
  0
ELLIPSE
  5
514
100
AcDbEntity
  8
218
100
AcDbEllipse
 62
7
  6
CONTINUOUS
 10
-5.1822807212
 20
24.0532330134
 30
0.0
 11
1.2141619185
 21
0.9541526469
 31
0.0
 40
0.2329077568
 41
0.1095198182
 42
0.114024621
  0
ELLIPSE
  5
515
100
AcDbEntity
  8
218
100
AcDbEllipse
 62
7
  6
CONTINUOUS
 10
3.80117272
 20
30.021395182
 30
0.0
 11
-0.3106730325
 21
1.1082908718
 31
0.0
 40
0.6760995073
 41
4.9783291412
 42
6.4001141399
  0
ELLIPSE
  5
516
100
AcDbEntity
  8
218
100
AcDbEllipse
 62
7
  6
CONTINUOUS
 10
2.1640219661
 20
28.2231466272
 30
0.0
 11
3.3022643479
 21
-0.04629945
 31
0.0
 40
0.4892378494
 41
2.3616770883
 42
5.5059722822
  0
ELLIPSE
  5
517
100
AcDbEntity
  8
218
100
AcDbEllipse
 62
7
  6
CONTINUOUS
 10
11.2257939224
 20
26.3090845808
 30
0.0
 11
-0.3106730325
 21
1.1082908718
 31
0.0
 40
0.6760995073
 41
4.9783291412
 42
6.4001141399
  0
ELLIPSE
  5
518
100
AcDbEntity
  8
218
100
AcDbEllipse
 62
7
  6
CONTINUOUS
 10
10.2839276989
 20
25.1621884532
 30
0.0
 11
2.7583515655
 21
-1.4175703156
 31
0.0
 40
0.0109499087
 41
-0.8804952881
 42
-0.85781018
  0
ELLIPSE
  5
519
100
AcDbEntity
  8
218
100
AcDbEllipse
 62
7
  6
CONTINUOUS
 10
2.8593064964
 20
28.8744990545
 30
0.0
 11
2.7583515655
 21
-1.4175703156
 31
0.0
 40
0.0109499087
 41
-0.7017315251
 42
-0.679046417
  0
ELLIPSE
  5
51A
100
AcDbEntity
  8
218
100
AcDbEllipse
 62
7
  6
CONTINUOUS
 10
2.8593064964
 20
27.3270236437
 30
0.0
 11
2.7583876426
 21
-0.0130411979
 31
0.0
 40
0.4964289597
 41
0.1877225706
 42
2.3585415194
  0
ELLIPSE
  5
51B
100
AcDbEntity
  8
218
100
AcDbEllipse
 62
7
  6
CONTINUOUS
 10
10.2839276989
 20
23.6147130425
 30
0.0
 11
2.7583876426
 21
-0.0130411979
 31
0.0
 40
0.4964289597
 41
0.1877225706
 42
2.3585415194
  0
ELLIPSE
  5
51C
100
AcDbEntity
  8
218
100
AcDbEllipse
 62
7
  6
CONTINUOUS
 10
2.8593064964
 20
28.8744990545
 30
0.0
 11
2.7583515655
 21
-1.4175703156
 31
0.0
 40
0.0109499087
 41
-0.8804952881
 42
-0.85781018
  0
ELLIPSE
  5
51D
100
AcDbEntity
  8
218
100
AcDbEllipse
 62
7
  6
CONTINUOUS
 10
10.2839276989
 20
25.1621884532
 30
0.0
 11
2.7583515655
 21
-1.4175703156
 31
0.0
 40
0.0109499087
 41
-0.7017315251
 42
-0.679046417
  0
ELLIPSE
  5
51E
100
AcDbEntity
  8
218
100
AcDbEllipse
 62
7
  6
CONTINUOUS
 10
9.5886431685
 20
24.5108360259
 30
0.0
 11
3.3022643479
 21
-0.04629945
 31
0.0
 40
0.4892378494
 41
2.3616770883
 42
5.5059722822
  0
ELLIPSE
  5
51F
100
AcDbEntity
  8
RACCORDO
100
AcDbEllipse
 62
7
  6
CONTINUOUS
 10
-14.5808343404
 20
24.2766655696
 30
0.0
 11
-0.2786191524
 21
0.7501668109
 31
0.0
 40
0.6610921126
 41
-0.3090511146
 42
0.0214395704
  0
ELLIPSE
  5
520
100
AcDbEntity
  8
RACCORDO
100
AcDbEllipse
 62
7
  6
CONTINUOUS
 10
12.5007426341
 20
-28.6355628597
 30
0.0
 11
-0.2786191524
 21
0.7501668109
 31
0.0
 40
0.6610921126
 41
-3.1630322343
 42
-2.1868166574
  0
ELLIPSE
  5
521
100
AcDbEntity
  8
RACCORDO
100
AcDbEllipse
 62
7
  6
CONTINUOUS
 10
15.6124528767
 20
9.180021961
 30
0.0
 11
-0.2783604326
 21
0.7500177284
 31
0.0
 40
0.6614719787
 41
-2.1862531203
 42
-0.61576138
  0
ENDSEC
  0
SECTION
  2
OBJECTS
  0
DICTIONARY
  5
C
100
AcDbDictionary
280
0
281
1
  3
ACAD_GROUP
350
D
  3
ACAD_MLINESTYLE
350
17
  3
ACAD_LAYOUT
350
1A
  3
ACAD_PLOTSETTINGS
350
19
  3
ACAD_PLOTSTYLENAME
350
E
  0
DICTIONARY
  5
D
102
{ACAD_REACTORS
330
C
102
}
100
AcDbDictionary
280
0
281
1
  0
ACDBDICTIONARYWDFLT
  5
E
102
{ACAD_REACTORS
330
C
102
}
100
AcDbDictionary
281
1
  3
Normal
350
F
100
AcDbDictionaryWithDefault
340
F
  0
DICTIONARY
  5
17
102
{ACAD_REACTORS
330
C
102
}
100
AcDbDictionary
280
0
281
1
  3
Standard
350
18
  0
DICTIONARY
  5
19
102
{ACAD_REACTORS
330
C
102
}
100
AcDbDictionary
281
1
  0
DICTIONARY
  5
1A
102
{ACAD_REACTORS
330
C
102
}
100
AcDbDictionary
281
1
  3
Model
350
522
  3
Layout1
350
523
  0
ACDBPLACEHOLDER
  5
F
102
{ACAD_REACTORS
330
E
102
}
  0
MLINESTYLE
  5
18
102
{ACAD_REACTORS
330
17
102
}
100
AcDbMlineStyle
  2
STANDARD
 70
0
  3

 62
256
 51
90.0
 52
90.0
 71
2
 49
0.5
 62
256
  6
BYLAYER
 49
-0.5
 62
256
  6
BYLAYER
  0
LAYOUT
  5
522
102
{ACAD_REACTORS
330
1A
102
}
100
AcDbPlotSettings
  1

  2
none_device
  4
ISO_A4_(297.00_x_210.00_MM)
  6

 40
0.0
 41
0.0
 42
0.0
 43
0.0
 44
297.0
 45
210.0
 46
0.0
 47
0.0
 48
0.0
 49
0.0
140
0.0
141
0.0
142
1.0
143
1.0
 70
1024
 72
1
 73
0
 74
0
  7

 75
0
147
1.0
148
0.0
149
0.0
100
AcDbLayout
  1
Model
 70
0
 71
0
 10
0.0
 20
0.0
 11
297.0
 21
210.0
 12
0.0
 22
0.0
 32
0.0
 14
0.0
 24
0.0
 34
0.0
 15
0.0
 25
0.0
 35
0.0
146
0.0
 13
0.0
 23
0.0
 33
0.0
 16
1.0
 26
0.0
 36
0.0
 17
0.0
 27
1.0
 37
0.0
 76
0
330
221
345
0
346
0
  0
LAYOUT
  5
523
102
{ACAD_REACTORS
330
1A
102
}
100
AcDbPlotSettings
  1

  2
none_device
  4
ISO_A4_(297.00_x_210.00_MM)
  6

 40
0.0
 41
0.0
 42
0.0
 43
0.0
 44
297.0
 45
210.0
 46
0.0
 47
0.0
 48
0.0
 49
0.0
140
0.0
141
0.0
142
1.0
143
1.0
 70
0
 72
1
 73
0
 74
0
  7

 75
0
147
1.0
148
0.0
149
0.0
100
AcDbLayout
  1
Layout1
 70
0
 71
1
 10
0.0
 20
0.0
 11
297.0
 21
210.0
 12
0.0
 22
0.0
 32
0.0
 14
0.0
 24
0.0
 34
0.0
 15
0.0
 25
0.0
 35
0.0
146
0.0
 13
0.0
 23
0.0
 33
0.0
 16
1.0
 26
0.0
 36
0.0
 17
0.0
 27
1.0
 37
0.0
 76
0
330
222
345
0
346
0
  0
ENDSEC
  0
EOF
