  0
SECTION
  2
HEADER
  9
$ACADVER
  1
AC1015
  9
$DWGCODEPAGE
  3
ANSI_1252
  9
$EXTMAX
 10
297.0
 20
210.0
 30
0.0
  9
$EXTMIN
 10
0.0
 20
0.0
 30
0.0
  9
$LIMMIN
 10
0.0
 20
0.0
  9
$LIMMAX
 10
297.0
 20
210.0
  9
$VIEWCTR
 10
148.5
 20
105.0
  9
$VIEWSIZE
 40
210.0
  9
$CLAYER
  8
0
  9
$LTSCALE
 40
16.335
  9
$CELTYPE
  6
BYLAYER
  9
$DIMSCALE
 40
1.0
  9
$DIMASZ
 40
3.0
  9
$DIMEXO
 40
0.5
  9
$DIMDLI
 40
11.286
  9
$DIMEXE
 40
1.5
  9
$DIMCEN
 40
2.673
  9
$DIMLFAC
 40
1.0
  9
$DIMBLK
  1
_FILLED
  9
$DIMTXT
 40
3.0
  9
$DIMTOL
 70
1
  9
$DIMLIM
 70
0
  9
$DIMTFAC
 40
1.0
  9
$DIMTP
 40
0.01
  9
$DIMTM
 40
0.01
  9
$DIMGAP
 40
0.625
  9
$DIMDSEP
 70
44
  9
$PDMODE
 70
3
  9
$PDSIZE
 40
3.0
  9
$HANDSEED
  5
353
  9
$TILEMODE
 70
1
  9
$MEASUREMENT
 70
1
  9
$INSUNITS
 70
4
  0
ENDSEC
  0
SECTION
  2
CLASSES
  0
CLASS
  1
ACDBDICTIONARYWDFLT
  2
AcDbDictionaryWithDefault
  3
AutoCAD 2000
 90
0
280
0
281
0
  0
CLASS
  1
ACDBPLACEHOLDER
  2
AcDbPlaceHolder
  3
AutoCAD 2000
 90
0
280
0
281
0
  0
CLASS
  1
LAYOUT
  2
AcDbLayout
  3
AutoCAD 2000
 90
0
280
0
281
0
  0
ENDSEC
  0
SECTION
  2
TABLES
  0
TABLE
  2
VPORT
  5
8
100
AcDbSymbolTable
 70
2
  0
VPORT
  5
1F4
100
AcDbSymbolTableRecord
100
AcDbViewportTableRecord
  2
*ACTIVE
 70
0
 10
0.0
 20
0.0
 11
1.0
 21
1.0
 12
148.5
 22
105.0
 13
0.0
 23
0.0
 14
1.0
 24
1.0
 15
0.0
 25
0.0
 16
0.0
 26
0.0
 36
1.0
 17
0.0
 27
0.0
 37
0.0
 40
210.0
 41
1.4142857143
 42
50.0
 43
0.0
 44
0.0
 50
0.0
 51
0.0
 71
0
 72
100
 73
1
 74
1
 75
0
 76
0
 77
0
 78
0
  0
ENDTAB
  0
TABLE
  2
LTYPE
  5
5
100
AcDbSymbolTable
 70
6
  0
LTYPE
  5
14
100
AcDbSymbolTableRecord
100
AcDbLinetypeTableRecord
  2
BYBLOCK
 70
0
  3

 72
65
 73
0
 40
0.0
  0
LTYPE
  5
15
100
AcDbSymbolTableRecord
100
AcDbLinetypeTableRecord
  2
BYLAYER
 70
0
  3

 72
65
 73
0
 40
0.0
  0
LTYPE
  5
16
100
AcDbSymbolTableRecord
100
AcDbLinetypeTableRecord
  2
CONTINUOUS
 70
64
  3
Solid line
 72
65
 73
0
 40
0.0
  0
LTYPE
  5
1F5
100
AcDbSymbolTableRecord
100
AcDbLinetypeTableRecord
  2
CENTER
 70
64
  3
____ _ ____ _ ____ _ ____ _ ____ _ ____ _ ____
 72
65
 73
4
 40
0.6
 49
0.375
 74
0
 49
-0.075
 74
0
 49
0.075
 74
0
 49
-0.075
 74
0
  0
LTYPE
  5
1F6
100
AcDbSymbolTableRecord
100
AcDbLinetypeTableRecord
  2
HIDDEN
 70
64
  3
- - - - - - - - - - - - - - - - - - - -
 72
65
 73
2
 40
0.2
 49
0.1
 74
0
 49
-0.1
 74
0
  0
LTYPE
  5
1F7
100
AcDbSymbolTableRecord
100
AcDbLinetypeTableRecord
  2
PHANTOM
 70
64
  3
_____ _ _ _____ _ _ _____ _ _ _____
 72
65
 73
6
 40
0.8
 49
0.45
 74
0
 49
-0.05
 74
0
 49
0.1
 74
0
 49
-0.05
 74
0
 49
0.1
 74
0
 49
-0.05
 74
0
  0
LTYPE
  5
1F8
100
AcDbSymbolTableRecord
100
AcDbLinetypeTableRecord
  2
DOT
 70
64
  3
. . . . . . . . . . . . . . . . . . . .
 72
65
 73
2
 40
0.2
 49
0.1
 74
0
 49
-0.1
 74
0
  0
LTYPE
  5
1F9
100
AcDbSymbolTableRecord
100
AcDbLinetypeTableRecord
  2
DASHED
 70
64
  3
- - - - - - - - - - - - - - - - - - - -
 72
65
 73
2
 40
0.2
 49
0.1
 74
0
 49
-0.1
 74
0
  0
ENDTAB
  0
TABLE
  2
LAYER
  5
2
100
AcDbSymbolTable
 70
36
  0
LAYER
  5
10
100
AcDbSymbolTableRecord
100
AcDbLayerTableRecord
  2
0
 70
0
 62
7
  6
CONTINUOUS
370
-3
390
F
  0
LAYER
  5
1FA
100
AcDbSymbolTableRecord
100
AcDbLayerTableRecord
  2
DEFAULT_1
 70
0
 62
7
  6
CENTER
370
-3
390
F
  0
LAYER
  5
1FB
100
AcDbSymbolTableRecord
100
AcDbLayerTableRecord
  2
DEFAULT_2
 70
0
 62
7
  6
HIDDEN
370
-3
390
F
  0
LAYER
  5
1FC
100
AcDbSymbolTableRecord
100
AcDbLayerTableRecord
  2
DEFAULT_3
 70
0
 62
7
  6
PHANTOM
370
-3
390
F
  0
LAYER
  5
1FD
100
AcDbSymbolTableRecord
100
AcDbLayerTableRecord
  2
ASSI
 70
0
 62
7
  6
CONTINUOUS
370
-3
390
F
  0
LAYER
  5
1FE
100
AcDbSymbolTableRecord
100
AcDbLayerTableRecord
  2
COORDINATE
 70
0
 62
7
  6
CONTINUOUS
370
-3
390
F
  0
LAYER
  5
1FF
100
AcDbSymbolTableRecord
100
AcDbLayerTableRecord
  2
COORD_ORIGINE
 70
0
 62
7
  6
CONTINUOUS
370
-3
390
F
  0
LAYER
  5
200
100
AcDbSymbolTableRecord
100
AcDbLayerTableRecord
  2
CURVE
 70
0
 62
7
  6
CONTINUOUS
370
-3
390
F
  0
LAYER
  5
201
100
AcDbSymbolTableRecord
100
AcDbLayerTableRecord
  2
DRAFT
 70
0
 62
7
  6
CONTINUOUS
370
-3
390
F
  0
LAYER
  5
202
100
AcDbSymbolTableRecord
100
AcDbLayerTableRecord
  2
IGES-IMPORTATI
 70
0
 62
7
  6
CONTINUOUS
370
-3
390
F
  0
LAYER
  5
203
100
AcDbSymbolTableRecord
100
AcDbLayerTableRecord
  2
INTF_1
 70
0
 62
7
  6
CONTINUOUS
370
-3
390
F
  0
LAYER
  5
204
100
AcDbSymbolTableRecord
100
AcDbLayerTableRecord
  2
INTF_CYAN
 70
0
 62
7
  6
CONTINUOUS
370
-3
390
F
  0
LAYER
  5
205
100
AcDbSymbolTableRecord
100
AcDbLayerTableRecord
  2
NOTE
 70
0
 62
7
  6
CONTINUOUS
370
-3
390
F
  0
LAYER
  5
206
100
AcDbSymbolTableRecord
100
AcDbLayerTableRecord
  2
PIANI
 70
0
 62
7
  6
CONTINUOUS
370
-3
390
F
  0
LAYER
  5
207
100
AcDbSymbolTableRecord
100
AcDbLayerTableRecord
  2
PIANI_ORIGINE
 70
0
 62
7
  6
CONTINUOUS
370
-3
390
F
  0
LAYER
  5
208
100
AcDbSymbolTableRecord
100
AcDbLayerTableRecord
  2
PIANI_RIFERIMENTO
 70
0
 62
7
  6
CONTINUOUS
370
-3
390
F
  0
LAYER
  5
209
100
AcDbSymbolTableRecord
100
AcDbLayerTableRecord
  2
PUNTI
 70
0
 62
7
  6
CONTINUOUS
370
-3
390
F
  0
LAYER
  5
20A
100
AcDbSymbolTableRecord
100
AcDbLayerTableRecord
  2
RACCORDO
 70
0
 62
7
  6
CONTINUOUS
370
-3
390
F
  0
LAYER
  5
20B
100
AcDbSymbolTableRecord
100
AcDbLayerTableRecord
  2
RGB____0____0____0__
 70
0
 62
7
  6
CONTINUOUS
370
-3
390
F
  0
LAYER
  5
20C
100
AcDbSymbolTableRecord
100
AcDbLayerTableRecord
  2
SMUSSO
 70
0
 62
7
  6
CONTINUOUS
370
-3
390
F
  0
LAYER
  5
20D
100
AcDbSymbolTableRecord
100
AcDbLayerTableRecord
  2
SNAPLINE
 70
0
 62
7
  6
CONTINUOUS
370
-3
390
F
  0
LAYER
  5
20E
100
AcDbSymbolTableRecord
100
AcDbLayerTableRecord
  2
SUPERFICI
 70
0
 62
7
  6
CONTINUOUS
370
-3
390
F
  0
LAYER
  5
20F
100
AcDbSymbolTableRecord
100
AcDbLayerTableRecord
  2
TRASH
 70
0
 62
7
  6
CONTINUOUS
370
-3
390
F
  0
ENDTAB
  0
TABLE
  2
STYLE
  5
3
100
AcDbSymbolTable
 70
1
  0
STYLE
  5
11
100
AcDbSymbolTableRecord
100
AcDbTextStyleTableRecord
  2
STANDARD
 70
0
 40
0.0
 41
0.8
 50
0.0
 71
0
 42
0.2
  3
txt
  4

  0
STYLE
  5
210
100
AcDbSymbolTableRecord
100
AcDbTextStyleTableRecord
  2
TEXTSTYLE_1
 70
0
 40
0.0
 41
0.8
 50
0.0
 71
0
 42
0.2
  3
gdt
  4

  0
ENDTAB
  0
TABLE
  2
VIEW
  5
6
100
AcDbSymbolTable
 70
0
  0
ENDTAB
  0
TABLE
  2
UCS
  5
7
100
AcDbSymbolTable
 70
0
  0
ENDTAB
  0
TABLE
  2
APPID
  5
9
100
AcDbSymbolTable
 70
1
  0
APPID
  5
211
100
AcDbSymbolTableRecord
100
AcDbRegAppTableRecord
  2
ACAD
 70
0
  0
ENDTAB
  0
TABLE
  2
BLOCK_RECORD
  5
1
100
AcDbSymbolTable
 70
0
  0
BLOCK_RECORD
  5
212
100
AcDbSymbolTableRecord
100
AcDbBlockTableRecord
  2
*Model_Space
  0
BLOCK_RECORD
  5
213
100
AcDbSymbolTableRecord
100
AcDbBlockTableRecord
  2
*Paper_Space
  0
ENDTAB
  0
TABLE
  2
DIMSTYLE
  5
A
100
AcDbSymbolTable
 70
1
100
AcDbDimStyleTable
 71
0
  0
DIMSTYLE
105
214
100
AcDbSymbolTableRecord
100
AcDbDimStyleTableRecord
  2
STANDARD
 70
0
  3

  4

 40
1.0
 41
3.0
 42
0.5
 43
0.38
 44
1.5
 45
0.0
 46
0.0
 47
0.01
 48
0.01
140
3.0
141
0.09
142
0.0
143
25.4
144
1.0
145
0.0
146
1.0
147
0.625
 71
1.0
 72
0.0
 73
0
 74
0
 75
0
 76
0
 77
1
 78
8
170
0
171
2
172
0
173
0
174
0
175
0
176
0
177
0
178
0
270
2
271
2
272
2
273
2
274
2
275
0
280
0
281
0
282
0
283
1
284
8
285
0
286
0
287
3
288
0
340
11
278
44
  0
ENDTAB
  0
ENDSEC
  0
SECTION
  2
BLOCKS
  0
BLOCK
  5
20
100
AcDbEntity
  8
0
100
AcDbBlockBegin
  2
*Model_Space
 70
0
 10
0.0
 20
0.0
 30
0.0
  3
*Model_Space
  1

  0
ENDBLK
  5
21
100
AcDbEntity
  8
0
100
AcDbBlockEnd
  0
BLOCK
  5
1C
100
AcDbEntity
  8
0
100
AcDbBlockBegin
  2
*Paper_Space
 70
0
 10
0.0
 20
0.0
 30
0.0
  3
*Paper_Space
  1

  0
ENDBLK
  5
1D
100
AcDbEntity
  8
0
100
AcDbBlockEnd
  0
ENDSEC
  0
SECTION
  2
ENTITIES
  0
LINE
  5
215
100
AcDbEntity
  8
RACCORDO
100
AcDbLine
 62
7
  6
CONTINUOUS
 10
-6.982716294
 20
24.9148444233
 11
-8.565887989
 21
24.1026473761
  0
LINE
  5
216
100
AcDbEntity
  8
RACCORDO
100
AcDbLine
 62
253
  6
CONTINUOUS
 10
-6.8700457197
 20
24.9081834982
 11
-8.4528023228
 21
24.0961994009
  0
LINE
  5
217
100
AcDbEntity
  8
RACCORDO
100
AcDbLine
 62
7
  6
CONTINUOUS
 10
-6.9809779085
 20
24.9157136561
 11
-6.9827143203
 21
24.9148454359
  0
LINE
  5
218
100
AcDbEntity
  8
RACCORDO
100
AcDbLine
 62
7
  6
CONTINUOUS
 10
-6.4461079521
 20
25.1762657559
 11
-6.9809751429
 21
24.9157150033
  0
LINE
  5
219
100
AcDbEntity
  8
RACCORDO
100
AcDbLine
 62
253
  6
CONTINUOUS
 10
-6.335595841
 20
25.1685309648
 11
-6.8700457197
 21
24.9081834982
  0
LWPOLYLINE
  5
21A
100
AcDbEntity
  8
RACCORDO
100
AcDbPolyline
 62
7
  6
CONTINUOUS
 90
37
 70
0
 10
-12.5877460398
 20
20.0788065496
 10
-12.6194273177
 20
20.0597572868
 10
-12.6623197019
 20
20.0321007249
 10
-12.7043942554
 20
20.0028219571
 10
-12.7456342934
 20
19.9719812333
 10
-12.7860310003
 20
19.9396320897
 10
-12.8255704736
 20
19.9058267586
 10
-12.8642384052
 20
19.8706168722
 10
-12.9020196353
 20
19.8340508893
 10
-12.938889058
 20
19.7961838714
 10
-12.9748297938
 20
19.7570636744
 10
-13.0098227795
 20
19.7167356175
 10
-13.0438345797
 20
19.6752620633
 10
-13.0768443668
 20
19.6326904105
 10
-13.1088302139
 20
19.5890653692
 10
-13.1397546014
 20
19.5444556679
 10
-13.1695939217
 20
19.498908762
 10
-13.1983247188
 20
19.4524708803
 10
-13.2259080644
 20
19.4052147703
 10
-13.2523191526
 20
19.3571879551
 10
-13.277533612
 20
19.3084389214
 10
-13.3015118848
 20
19.2590439277
 10
-13.3242292668
 20
19.2090514305
 10
-13.3456610093
 20
19.1585103969
 10
-13.3657690499
 20
19.1074980243
 10
-13.384529637
 20
19.0560626579
 10
-13.4019170577
 20
19.0042529696
 10
-13.4178964657
 20
18.952144506
 10
-13.4324439825
 20
18.8997843331
 10
-13.4455328227
 20
18.8472194836
 10
-13.4571318881
 20
18.7945200029
 10
-13.4672152122
 20
18.7417321829
 10
-13.4757546379
 20
18.6889011612
 10
-13.4827204184
 20
18.6360843966
 10
-13.4880823353
 20
18.5833260941
 10
-13.4918099821
 20
18.530671376
 10
-13.4934503269
 20
18.4932640813
  0
LINE
  5
21B
100
AcDbEntity
  8
RACCORDO
100
AcDbLine
 62
7
  6
CONTINUOUS
 10
-12.5877557561
 20
20.0788011118
 11
-7.9987809292
 21
22.7545937537
  0
LINE
  5
21C
100
AcDbEntity
  8
RACCORDO
100
AcDbLine
 62
253
  6
CONTINUOUS
 10
-7.9987809292
 20
22.6097595772
 11
-12.3544017085
 21
20.0700337187
  0
LWPOLYLINE
  5
21D
100
AcDbEntity
  8
RACCORDO
100
AcDbPolyline
 62
253
  6
CONTINUOUS
 90
17
 70
0
 10
-12.5877461387
 20
20.0788067192
 10
-12.5852970938
 20
20.0802085785
 10
-12.5726606226
 20
20.0866603383
 10
-12.5594884317
 20
20.0921169811
 10
-12.5458103258
 20
20.0965661601
 10
-12.5316572539
 20
20.0999978083
 10
-12.5170612403
 20
20.1024041609
 10
-12.502055311
 20
20.1037797731
 10
-12.4866734198
 20
20.1041215323
 10
-12.4709503712
 20
20.1034286652
 10
-12.4549217415
 20
20.1017027395
 10
-12.4386237985
 20
20.0989476606
 10
-12.4220934194
 20
20.0951696622
 10
-12.4053680072
 20
20.0903772928
 10
-12.3884854065
 20
20.084581396
 10
-12.3714838171
 20
20.0777950862
 10
-12.3544017085
 20
20.0700337187
  0
LINE
  5
21E
100
AcDbEntity
  8
RACCORDO
100
AcDbLine
 62
253
  6
CONTINUOUS
 10
-5.5265368522
 20
24.2364290645
 11
-7.127817643
 21
23.433707061
  0
LINE
  5
21F
100
AcDbEntity
  8
RACCORDO
100
AcDbLine
 62
253
  6
CONTINUOUS
 10
-5.3497631485
 20
23.9315395257
 11
-6.9510439393
 21
23.1288175222
  0
LINE
  5
220
100
AcDbEntity
  8
RACCORDO
100
AcDbLine
 62
253
  6
CONTINUOUS
 10
-4.9982696805
 20
24.4998678845
 11
-5.5265368522
 21
24.2364290645
  0
LINE
  5
221
100
AcDbEntity
  8
RACCORDO
100
AcDbLine
 62
253
  6
CONTINUOUS
 10
-4.8214959768
 20
24.1949783457
 11
-5.3497631485
 21
23.9315395257
  0
LINE
  5
222
100
AcDbEntity
  8
RACCORDO
100
AcDbLine
 62
7
  6
CONTINUOUS
 10
-5.3497631485
 20
22.3293888647
 11
-6.2398233312
 21
21.8327079434
  0
LINE
  5
223
100
AcDbEntity
  8
RACCORDO
100
AcDbLine
 62
7
  6
CONTINUOUS
 10
2.6507475976
 20
25.6081068323
 11
-3.9417204135
 21
22.3249165892
  0
LWPOLYLINE
  5
224
100
AcDbEntity
  8
ASSI
100
AcDbPolyline
 62
7
  6
CONTINUOUS
 90
7
 70
0
 10
3.3632278312
 20
24.4972506915
 10
3.3551450801
 20
24.4945353209
 10
3.3470370273
 20
24.4915775274
 10
3.3389036728
 20
24.488377311
 10
3.3307450168
 20
24.4849346717
 10
3.322561059
 20
24.4812496095
 10
3.3143517997
 20
24.4773221244
  0
LINE
  5
225
100
AcDbEntity
  8
RACCORDO
100
AcDbLine
 62
253
  6
CONTINUOUS
 10
8.5428221877
 20
-24.1343163926
 11
8.0145550159
 21
-24.0258141155
  0
LINE
  5
226
100
AcDbEntity
  8
RACCORDO
100
AcDbLine
 62
253
  6
CONTINUOUS
 10
8.4534083923
 20
-23.8147495866
 11
8.0145550159
 21
-23.7246122599
  0
LWPOLYLINE
  5
227
100
AcDbEntity
  8
RACCORDO
100
AcDbPolyline
 62
7
  6
CONTINUOUS
 90
34
 70
0
 10
7.1244948332
 20
-24.3414231564
 10
7.1166157102
 20
-24.3397468275
 10
7.1083954611
 20
-24.3378789214
 10
7.0998375999
 20
-24.335829516
 10
7.0909391694
 20
-24.3336191036
 10
7.0817127344
 20
-24.3312492649
 10
7.0721861601
 20
-24.328702571
 10
7.0623659718
 20
-24.3259921628
 10
7.0522600735
 20
-24.3231305292
 10
7.0418992906
 20
-24.3201000341
 10
7.0312927693
 20
-24.3169155023
 10
7.0204508579
 20
-24.3135912312
 10
7.0094070808
 20
-24.3101095782
 10
6.9981732324
 20
-24.3064869714
 10
6.9867622816
 20
-24.3027395017
 10
6.9752104611
 20
-24.2988498476
 10
6.9635323292
 20
-24.294835946
 10
6.9517435977
 20
-24.2907156583
 10
6.9398832837
 20
-24.2864724377
 10
6.9279688361
 20
-24.282125572
 10
6.9160188227
 20
-24.2776946625
 10
6.9040751452
 20
-24.2731645691
 10
6.8921582955
 20
-24.268555683
 10
6.8802897283
 20
-24.2638892583
 10
6.8685141497
 20
-24.2591523718
 10
6.8568553292
 20
-24.2543662045
 10
6.8453373921
 20
-24.249553394
 10
6.8340070394
 20
-24.244704017
 10
6.822901777
 20
-24.2398461794
 10
6.8120374252
 20
-24.234996245
 10
6.8014307396
 20
-24.2301302335
 10
6.7911086813
 20
-24.2252590261
 10
6.7811069847
 20
-24.2204246565
 10
6.7714586452
 20
-24.2156533184
  0
LWPOLYLINE
  5
228
100
AcDbEntity
  8
RACCORDO
100
AcDbPolyline
 62
7
  6
CONTINUOUS
 90
24
 70
0
 10
1.8712548487
 20
-25.469986835
 10
1.8941082259
 20
-25.481011478
 10
1.9264916682
 20
-25.4952906241
 10
1.9595560244
 20
-25.5083240123
 10
1.9932716949
 20
-25.5200846179
 10
2.0276302707
 20
-25.5305519002
 10
2.0625916982
 20
-25.5396956364
 10
2.0981129802
 20
-25.5474883664
 10
2.1341840423
 20
-25.5539101458
 10
2.1707666452
 20
-25.5589344977
 10
2.2078144558
 20
-25.5625366376
 10
2.2453092711
 20
-25.5646969153
 10
2.283208176
 20
-25.5653937512
 10
2.3214710239
 20
-25.5646071804
 10
2.3600891297
 20
-25.5623173252
 10
2.3990219637
 20
-25.5585060951
 10
2.4382310193
 20
-25.5531562957
 10
2.4777166613
 20
-25.5462440352
 10
2.5174460925
 20
-25.5377497669
 10
2.5573805327
 20
-25.5276565021
 10
2.5975179225
 20
-25.5159364005
 10
2.637835016
 20
-25.5025651959
 10
2.6782815441
 20
-25.4875295661
 10
2.7058322437
 20
-25.476348956
  0
LINE
  5
229
100
AcDbEntity
  8
RACCORDO
100
AcDbLine
 62
7
  6
CONTINUOUS
 10
1.87134715
 20
-25.4700329965
 11
-12.9625515641
 21
-18.0530836394
  0
LINE
  5
22A
100
AcDbEntity
  8
RACCORDO
100
AcDbLine
 62
7
  6
CONTINUOUS
 10
1.8712555926
 20
-25.4699872077
 11
1.8713468234
 21
-25.4700328332
  0
LINE
  5
22B
100
AcDbEntity
  8
RACCORDO
100
AcDbLine
 62
253
  6
CONTINUOUS
 10
1.4778783591
 20
-24.7094333436
 11
-13.3469677185
 21
-17.2970103048
  0
LWPOLYLINE
  5
22C
100
AcDbEntity
  8
RACCORDO
100
AcDbPolyline
 62
253
  6
CONTINUOUS
 90
25
 70
0
 10
-12.9625512474
 20
-18.0530837978
 10
-12.9913180917
 20
-18.0376160813
 10
-13.0185893688
 20
-18.0208233617
 10
-13.0449714187
 20
-18.0024058728
 10
-13.0704312663
 20
-17.9823865868
 10
-13.0949370165
 20
-17.9607904863
 10
-13.1184591347
 20
-17.9376438827
 10
-13.1409682951
 20
-17.91297548
 10
-13.1624362053
 20
-17.886816053
 10
-13.1828367962
 20
-17.8591978473
 10
-13.2021445399
 20
-17.8301552882
 10
-13.2203353212
 20
-17.7997244021
 10
-13.2373872513
 20
-17.7679424792
 10
-13.2532790243
 20
-17.7348490076
 10
-13.2679907449
 20
-17.7004850218
 10
-13.2815047719
 20
-17.6648925014
 10
-13.2938043555
 20
-17.6281151085
 10
-13.3048738704
 20
-17.590198826
 10
-13.3146996992
 20
-17.5511913474
 10
-13.3232694972
 20
-17.511141919
 10
-13.3305727877
 20
-17.4700993808
 10
-13.3366010449
 20
-17.4281126917
 10
-13.3413468002
 20
-17.3852331185
 10
-13.3448038295
 20
-17.3415143051
 10
-13.3469677185
 20
-17.2970103048
  0
LWPOLYLINE
  5
22D
100
AcDbEntity
  8
RACCORDO
100
AcDbPolyline
 62
7
  6
CONTINUOUS
 90
30
 70
0
 10
-6.2398233312
 20
22.6403400652
 10
-6.2477024542
 20
22.631205662
 10
-6.2559227033
 20
22.622208221
 10
-6.2644805645
 20
22.6133692344
 10
-6.273378995
 20
22.6047127046
 10
-6.2826054301
 20
22.5962580253
 10
-6.2921320044
 20
22.5880201326
 10
-6.3019521927
 20
22.580021379
 10
-6.3120580909
 20
22.5722835022
 10
-6.3224188739
 20
22.5648209624
 10
-6.3330253951
 20
22.5576561845
 10
-6.3438673065
 20
22.5508108792
 10
-6.3549110836
 20
22.5442989076
 10
-6.3661449321
 20
22.5381423885
 10
-6.3775558829
 20
22.5323627246
 10
-6.3891077033
 20
22.5269732011
 10
-6.4007858352
 20
22.5219952434
 10
-6.4125745667
 20
22.5174495461
 10
-6.4244348807
 20
22.513348761
 10
-6.4363493284
 20
22.5097131355
 10
-6.4482993417
 20
22.5065621504
 10
-6.4602430193
 20
22.5039076142
 10
-6.4721598689
 20
22.5017679818
 10
-6.4840284361
 20
22.5001608443
 10
-6.4958040148
 20
22.4990966835
 10
-6.5074628352
 20
22.4985913782
 10
-6.5189807724
 20
22.4986597443
 10
-6.5303111251
 20
22.4993101427
 10
-6.5414163874
 20
22.5005535355
 10
-6.5522807392
 20
22.5024010309
  0
LINE
  5
22E
100
AcDbEntity
  8
RACCORDO
100
AcDbLine
 62
7
  6
CONTINUOUS
 10
-2.9809434302
 20
21.9992704514
 11
-2.6274020409
 21
22.1806438762
  0
LINE
  5
22F
100
AcDbEntity
  8
ASSI
100
AcDbLine
 62
7
  6
CONTINUOUS
 10
3.3143517997
 20
24.4773221244
 11
-1.2838991567
 21
22.2109608269
  0
LINE
  5
230
100
AcDbEntity
  8
DRAFT
100
AcDbLine
 62
7
  6
CONTINUOUS
 10
-0.0558183336
 20
21.5969204154
 11
3.3632278312
 21
23.2699000945
  0
LINE
  5
231
100
AcDbEntity
  8
ASSI
100
AcDbLine
 62
7
  6
CONTINUOUS
 10
-2.6274020409
 20
22.1806438762
 11
2.708821365
 21
24.7800873417
  0
LWPOLYLINE
  5
232
100
AcDbEntity
  8
RACCORDO
100
AcDbPolyline
 62
253
  6
CONTINUOUS
 90
31
 70
0
 10
6.0607522654
 20
-25.5323808438
 10
6.0702124148
 20
-25.5368703373
 10
6.0801280014
 20
-25.5411070394
 10
6.0904720392
 20
-25.5450794165
 10
6.1012163874
 20
-25.5487766581
 10
6.112331793
 20
-25.5521886943
 10
6.1237879665
 20
-25.5553062265
 10
6.1355537158
 20
-25.5581207677
 10
6.1475970231
 20
-25.56062466
 10
6.1598850957
 20
-25.5628110871
 10
6.1723844833
 20
-25.564674099
 10
6.1850611651
 20
-25.5662086269
 10
6.197880631
 20
-25.5674104952
 10
6.2108080025
 20
-25.5682764356
 10
6.2238080777
 20
-25.5688040915
 10
6.236845421
 20
-25.5689920289
 10
6.2498844924
 20
-25.5688397437
 10
6.2628898573
 20
-25.5683476578
 10
6.2758262317
 20
-25.5675171081
 10
6.2886585708
 20
-25.5663503351
 10
6.3013517779
 20
-25.5648505203
 10
6.3138709272
 20
-25.5630218036
 10
6.3261817238
 20
-25.5608692342
 10
6.3382509286
 20
-25.5583986642
 10
6.3500460464
 20
-25.5556167604
 10
6.3615374689
 20
-25.5525303811
 10
6.3726912854
 20
-25.5491485064
 10
6.383470441
 20
-25.5454827473
 10
6.393844207
 20
-25.5415444615
 10
6.403787511
 20
-25.537344109
 10
6.4132742251
 20
-25.5328935677
  0
LWPOLYLINE
  5
233
100
AcDbEntity
  8
RACCORDO
100
AcDbPolyline
 62
7
  6
CONTINUOUS
 90
33
 70
0
 10
6.070202026
 20
-25.0721113286
 10
6.0800597611
 20
-25.0768666604
 10
6.0902928937
 20
-25.081665102
 10
6.1008782156
 20
-25.0865139396
 10
6.1117734499
 20
-25.0913927148
 10
6.1229142424
 20
-25.0962557432
 10
6.1342524416
 20
-25.1010995738
 10
6.1457648154
 20
-25.105926165
 10
6.1574228143
 20
-25.1107013189
 10
6.1691929625
 20
-25.1154263499
 10
6.1810429404
 20
-25.1201026805
 10
6.1929477016
 20
-25.1246966863
 10
6.2048765784
 20
-25.1292113384
 10
6.2168000192
 20
-25.1336502888
 10
6.2286963534
 20
-25.137981068
 10
6.2405379647
 20
-25.1422080361
 10
6.2522981066
 20
-25.1463365275
 10
6.2639579372
 20
-25.1503354794
 10
6.275492883
 20
-25.1542103949
 10
6.2868790133
 20
-25.1579678928
 10
6.2980997615
 20
-25.1615784384
 10
6.309133499
 20
-25.1650484655
 10
6.3199590909
 20
-25.1683855975
 10
6.3305618397
 20
-25.171561923
 10
6.3409229456
 20
-25.1745846206
 10
6.3510240508
 20
-25.1774621239
 10
6.3608521319
 20
-25.1801682728
 10
6.3703911118
 20
-25.1827108196
 10
6.3796254122
 20
-25.1850988668
 10
6.3885437154
 20
-25.187308187
 10
6.3971333824
 20
-25.1893365616
 10
6.4053807627
 20
-25.1912039853
 10
6.4132742251
 20
-25.1929196335
  0
LINE
  5
234
100
AcDbEntity
  8
RACCORDO
100
AcDbLine
 62
7
  6
CONTINUOUS
 10
4.800740882
 20
-25.005106954
 11
6.1257255619
 21
-25.6675992939
  0
LINE
  5
235
100
AcDbEntity
  8
RACCORDO
100
AcDbLine
 62
253
  6
CONTINUOUS
 10
4.7357675856
 20
-24.8698885039
 11
6.0607522654
 21
-25.5323808438
  0
LINE
  5
236
100
AcDbEntity
  8
RACCORDO
100
AcDbLine
 62
7
  6
CONTINUOUS
 10
6.070202026
 20
-25.0721113286
 11
4.9742540052
 21
-24.5241577796
  0
LWPOLYLINE
  5
237
100
AcDbEntity
  8
RACCORDO
100
AcDbPolyline
 62
253
  6
CONTINUOUS
 90
16
 70
0
 10
4.7357675856
 20
-24.8698885039
 10
4.7268108843
 20
-24.8651707983
 10
4.7183521023
 20
-24.8602234021
 10
4.7104151244
 20
-24.8550593231
 10
4.7030210308
 20
-24.8496910788
 10
4.6961926414
 20
-24.8441339492
 10
4.6899532634
 20
-24.8384063047
 10
4.6843210201
 20
-24.8325250111
 10
4.679309841
 20
-24.8265048672
 10
4.6749332554
 20
-24.8203620932
 10
4.6712031613
 20
-24.8141132823
 10
4.6681298466
 20
-24.8077755453
 10
4.6657217864
 20
-24.8013663098
 10
4.6639855468
 20
-24.794903101
 10
4.6629258137
 20
-24.7884034315
 10
4.6625442813
 20
-24.7815069423
  0
LWPOLYLINE
  5
238
100
AcDbEntity
  8
RACCORDO
100
AcDbPolyline
 62
7
  6
CONTINUOUS
 90
22
 70
0
 10
4.800740882
 20
-25.005106954
 10
4.7890843161
 20
-24.9988883697
 10
4.7777289334
 20
-24.9920347637
 10
4.7667180879
 20
-24.9845634997
 10
4.7560895258
 20
-24.9764922318
 10
4.7458880373
 20
-24.9678484763
 10
4.7361631135
 20
-24.9586714964
 10
4.7269885949
 20
-24.9490384724
 10
4.7183503259
 20
-24.9389444563
 10
4.7101798312
 20
-24.9282946708
 10
4.7024790353
 20
-24.9170456927
 10
4.6953455113
 20
-24.9052931059
 10
4.6888585073
 20
-24.8931454637
 10
4.6830548753
 20
-24.8806697717
 10
4.6779442318
 20
-24.8678877528
 10
4.6735451935
 20
-24.8548447963
 10
4.6698736022
 20
-24.8415912669
 10
4.6669386167
 20
-24.8281676782
 10
4.6647449668
 20
-24.8145984933
 10
4.6632991948
 20
-24.8009137324
 10
4.6626085103
 20
-24.7871667704
 10
4.6625442813
 20
-24.7815069423
  0
LWPOLYLINE
  5
239
100
AcDbEntity
  8
RACCORDO
100
AcDbPolyline
 62
7
  6
CONTINUOUS
 90
14
 70
0
 10
-4.8061354044
 20
23.7766116624
 10
-4.7976500367
 20
23.7875424327
 10
-4.7897667181
 20
23.7989501412
 10
-4.7825145768
 20
23.810800806
 10
-4.7759174011
 20
23.8230650425
 10
-4.7700039514
 20
23.8356992607
 10
-4.764803841
 20
23.8486451673
 10
-4.7603348825
 20
23.8618581024
 10
-4.7566093414
 20
23.87530149
 10
-4.753640088
 20
23.8889283907
 10
-4.7514352157
 20
23.9027007427
 10
-4.7500018025
 20
23.9165752306
 10
-4.7493446064
 20
23.9304985553
 10
-4.7492981198
 20
23.9353211179
  0
LINE
  5
23A
100
AcDbEntity
  8
RACCORDO
100
AcDbLine
 62
253
  6
CONTINUOUS
 10
-5.3497631485
 20
23.2044946732
 11
-4.8214959768
 21
23.847446829
  0
LINE
  5
23B
100
AcDbEntity
  8
RACCORDO
100
AcDbLine
 62
7
  6
CONTINUOUS
 10
-5.3497631485
 20
23.1149642069
 11
-4.8061354044
 21
23.7766116624
  0
LINE
  5
23C
100
AcDbEntity
  8
0
100
AcDbLine
 62
7
  6
CONTINUOUS
 10
4.7807901056
 20
23.0761371079
 11
0.8832691934
 21
21.1273766518
  0
LINE
  5
23D
100
AcDbEntity
  8
RACCORDO
100
AcDbLine
 62
7
  6
CONTINUOUS
 10
5.7201603325
 20
24.0734004648
 11
0.2977350569
 21
21.4201437201
  0
LWPOLYLINE
  5
23E
100
AcDbEntity
  8
ASSI
100
AcDbPolyline
 62
7
  6
CONTINUOUS
 90
7
 70
0
 10
8.3129752995
 20
22.0223769573
 10
8.3048925484
 20
22.0196615867
 10
8.2967844956
 20
22.0167037932
 10
8.2886511411
 20
22.0135035768
 10
8.2804924851
 20
22.0100609375
 10
8.2723085273
 20
22.0063758753
 10
8.264099268
 20
22.0024483902
  0
LINE
  5
23F
100
AcDbEntity
  8
RACCORDO
100
AcDbLine
 62
7
  6
CONTINUOUS
 10
2.5978707191
 20
18.7352719585
 11
2.574832818
 21
18.7284801719
  0
LWPOLYLINE
  5
240
100
AcDbEntity
  8
RACCORDO
100
AcDbPolyline
 62
7
  6
CONTINUOUS
 90
4
 70
0
 10
2.574832818
 20
18.7284801719
 10
2.5530132612
 20
18.7221528206
 10
2.5425638288
 20
18.7191926853
 10
2.5324145649
 20
18.7163900694
  0
LWPOLYLINE
  5
241
100
AcDbEntity
  8
ASSI
100
AcDbPolyline
 62
7
  6
CONTINUOUS
 90
16
 70
0
 10
8.3129752995
 20
22.0223769573
 10
8.3251331374
 20
22.0258667265
 10
8.3378631165
 20
22.0285895524
 10
8.3511576972
 20
22.0305293927
 10
8.3650134105
 20
22.0316832131
 10
8.3794136616
 20
22.032021324
 10
8.3943270034
 20
22.0314886352
 10
8.4097334826
 20
22.030064389
 10
8.4256185756
 20
22.027739197
 10
8.4419542778
 20
22.0244767816
 10
8.4586817029
 20
22.0202735484
 10
8.475812529
 20
22.0151066043
 10
8.4934262956
 20
22.0089050746
 10
8.5115136227
 20
22.0016483406
 10
8.5300343125
 20
21.9933165581
 10
8.5395439473
 20
21.9886848865
  0
LWPOLYLINE
  5
242
100
AcDbEntity
  8
RACCORDO
100
AcDbPolyline
 62
253
  6
CONTINUOUS
 90
5
 70
0
 10
8.4768171176
 20
-23.8228338
 10
8.4752434182
 20
-23.822065385
 10
8.4682157183
 20
-23.8190591795
 10
8.4609313367
 20
-23.8166185565
 10
8.4534083923
 20
-23.8147495866
  0
LINE
  5
243
100
AcDbEntity
  8
RACCORDO
100
AcDbLine
 62
7
  6
CONTINUOUS
 10
6.7719728735
 20
-24.2159104325
 11
6.2866698453
 21
-23.9732589184
  0
LINE
  5
244
100
AcDbEntity
  8
RACCORDO
100
AcDbLine
 62
253
  6
CONTINUOUS
 10
8.0145550159
 20
-23.5953228984
 11
8.4534083923
 21
-23.8147495866
  0
LINE
  5
245
100
AcDbEntity
  8
RACCORDO
100
AcDbLine
 62
7
  6
CONTINUOUS
 10
8.0145550159
 20
-23.5917027489
 11
8.4768234435
 21
-23.8228369627
  0
LINE
  5
246
100
AcDbEntity
  8
RACCORDO
100
AcDbLine
 62
7
  6
CONTINUOUS
 10
3.2374584842
 20
18.8900694942
 11
3.5951376335
 21
19.069374039
  0
LINE
  5
247
100
AcDbEntity
  8
ASSI
100
AcDbLine
 62
7
  6
CONTINUOUS
 10
3.5951376335
 20
19.069374039
 11
8.8696297026
 21
21.6996831729
  0
LINE
  5
248
100
AcDbEntity
  8
ASSI
100
AcDbLine
 62
7
  6
CONTINUOUS
 10
8.264099268
 20
22.0024483902
 11
3.6658483116
 21
19.7360870927
  0
LINE
  5
249
100
AcDbEntity
  8
RACCORDO
100
AcDbLine
 62
7
  6
CONTINUOUS
 10
9.9628010196
 20
21.9520801213
 11
9.0435657676
 21
21.5022874531
  0
LWPOLYLINE
  5
24A
100
AcDbEntity
  8
RACCORDO
100
AcDbPolyline
 62
7
  6
CONTINUOUS
 90
17
 70
0
 10
9.9628010196
 20
21.9520801213
 10
9.9812400176
 20
21.9606094838
 10
9.999578758
 20
21.9681185705
 10
10.0178172411
 20
21.9746073814
 10
10.0359988332
 20
21.9800859032
 10
10.0540801679
 20
21.9845441493
 10
10.0719311455
 20
21.9879521596
 10
10.0895284287
 20
21.9903016254
 10
10.1068953548
 20
21.9916008556
 10
10.1239718355
 20
21.9918448169
 10
10.1407806338
 20
21.9910272319
 10
10.1572989866
 20
21.9891543782
 10
10.1733985168
 20
21.9862400549
 10
10.1890563903
 20
21.982281733
 10
10.2042954411
 20
21.9772819415
 10
10.219055795
 20
21.9712620675
 10
10.2274084722
 20
21.9672954979
  0
LINE
  5
24B
100
AcDbEntity
  8
RACCORDO
100
AcDbLine
 62
7
  6
CONTINUOUS
 10
2.6473809973
 20
18.7500078634
 11
2.5978707191
 21
18.7352719585
  0
LINE
  5
24C
100
AcDbEntity
  8
RACCORDO
100
AcDbLine
 62
253
  6
CONTINUOUS
 10
13.2430029969
 20
-15.0946282564
 11
9.0752151877
 21
-15.3658869553
  0
LWPOLYLINE
  5
24D
100
AcDbEntity
  8
RACCORDO
100
AcDbPolyline
 62
253
  6
CONTINUOUS
 90
17
 70
0
 10
-13.4932422247
 20
-17.1233113958
 10
-13.4919202051
 20
-17.1356245771
 10
-13.489494502
 20
-17.1478645444
 10
-13.4859704891
 20
-17.1600041825
 10
-13.4813559731
 20
-17.1720165982
 10
-13.4756611766
 20
-17.1838751803
 10
-13.4688987155
 20
-17.1955536582
 10
-13.4610835706
 20
-17.2070261607
 10
-13.4522330549
 20
-17.2182672724
 10
-13.4423667751
 20
-17.2292520908
 10
-13.4315065881
 20
-17.239956281
 10
-13.4196765526
 20
-17.2503561301
 10
-13.4069028757
 20
-17.260428599
 10
-13.3932138553
 20
-17.2701513741
 10
-13.3786398167
 20
-17.2795029165
 10
-13.363213046
 20
-17.2884625095
 10
-13.3469677184
 20
-17.2970103048
  0
LWPOLYLINE
  5
24E
100
AcDbEntity
  8
RACCORDO
100
AcDbPolyline
 62
7
  6
CONTINUOUS
 90
27
 70
0
 10
-13.4934313529
 20
-17.1193628397
 10
-13.4916679994
 20
-17.1574826668
 10
-13.4877577384
 20
-17.2085505103
 10
-13.4821191755
 20
-17.2587016178
 10
-13.4747633473
 20
-17.3079298774
 10
-13.4657083273
 20
-17.3561801871
 10
-13.4549870724
 20
-17.4033428542
 10
-13.4426212684
 20
-17.4493948374
 10
-13.4286346171
 20
-17.4943029406
 10
-13.4130836511
 20
-17.5379445777
 10
-13.3960038279
 20
-17.5802927388
 10
-13.3774315554
 20
-17.621320125
 10
-13.3574515688
 20
-17.6609077388
 10
-13.3361332821
 20
-17.6990026158
 10
-13.3135165651
 20
-17.7356124227
 10
-13.2896614125
 20
-17.7707082045
 10
-13.2646508237
 20
-17.8042386307
 10
-13.2385295921
 20
-17.8362134423
 10
-13.211300322
 20
-17.8666816415
 10
-13.1830266293
 20
-17.8956131886
 10
-13.1537704386
 20
-17.9229876229
 10
-13.1235217935
 20
-17.9488473536
 10
-13.0923442897
 20
-17.9731616541
 10
-13.0603001157
 20
-17.9959062623
 10
-13.0273678781
 20
-18.0171143203
 10
-12.9935797516
 20
-18.0367725945
 10
-12.9624291609
 20
-18.0531448206
  0
LWPOLYLINE
  5
24F
100
AcDbEntity
  8
RACCORDO
100
AcDbPolyline
 62
253
  6
CONTINUOUS
 90
22
 70
0
 10
-13.3469677185
 20
-17.2970103048
 10
-13.400274259
 20
-15.62947016
 10
-13.4482524984
 20
-13.9589239939
 10
-13.4909016874
 20
-12.285397454
 10
-13.5282211514
 20
-10.6089162413
 10
-13.5602103162
 20
-8.9295060848
 10
-13.5868687089
 20
-7.2471927419
 10
-13.6081959173
 20
-5.5620020335
 10
-13.6241916041
 20
-3.8739598327
 10
-13.6348555326
 20
-2.1830920396
 10
-13.6401875406
 20
-0.4894246097
 10
-13.6401875406
 20
1.2070164614
 10
-13.6348555326
 20
2.9062051496
 10
-13.6241916041
 20
4.6081153802
 10
-13.6081959173
 20
6.3127210271
 10
-13.5868687089
 20
8.0199959272
 10
-13.5602103162
 20
9.7299138788
 10
-13.5282211514
 20
11.4424486403
 10
-13.4909016874
 20
13.1575739289
 10
-13.4482524984
 20
14.875263424
 10
-13.400274259
 20
16.5954907676
 10
-13.3469677185
 20
18.3182295628
  0
LWPOLYLINE
  5
250
100
AcDbEntity
  8
RACCORDO
100
AcDbPolyline
 62
7
  6
CONTINUOUS
 90
22
 70
0
 10
-13.4934501415
 20
18.4932731119
 10
-13.5464053598
 20
16.7824293216
 10
-13.5944478887
 20
15.0610758454
 10
-13.6371541733
 20
13.342257279
 10
-13.6745233878
 20
11.6260032339
 10
-13.7065549921
 20
9.91233943
 10
-13.7332485188
 20
8.2012900191
 10
-13.7546035075
 20
6.4928804234
 10
-13.7706196311
 20
4.7871370359
 10
-13.7812966026
 20
3.0840854724
 10
-13.7866341656
 20
1.3837515336
 10
-13.7866322276
 20
-0.3138381783
 10
-13.781290747
 20
-2.0086568464
 10
-13.7706097325
 20
-3.7006779222
 10
-13.7545893568
 20
-5.3898758272
 10
-13.7332298236
 20
-7.076225201
 10
-13.7065313762
 20
-8.7596999446
 10
-13.6744943914
 20
-10.4402750684
 10
-13.637119253
 20
-12.1179268668
 10
-13.5944064169
 20
-13.7926301443
 10
-13.5463566249
 20
-15.464356106
 10
-13.4934315199
 20
-17.1193633433
  0
LWPOLYLINE
  5
251
100
AcDbEntity
  8
RACCORDO
100
AcDbPolyline
 62
253
  6
CONTINUOUS
 90
43
 70
0
 10
-13.3469677185
 20
18.3182295628
 10
-13.3448038159
 20
18.3649488806
 10
-13.3413467654
 20
18.4122062686
 10
-13.3366009867
 20
18.4599432564
 10
-13.3305727129
 20
18.5081001586
 10
-13.3232694161
 20
18.5566180527
 10
-13.3146996137
 20
18.6054388996
 10
-13.3048737767
 20
18.6545035226
 10
-13.293804253
 20
18.7037501914
 10
-13.2815046592
 20
18.7531166226
 10
-13.267990618
 20
18.8025413164
 10
-13.2532788805
 20
18.8519637525
 10
-13.2373870937
 20
18.9013230122
 10
-13.2203351577
 20
18.9505582562
 10
-13.2021443757
 20
18.9996086005
 10
-13.1828366305
 20
19.0484132967
 10
-13.1624360344
 20
19.0969123058
 10
-13.1409681172
 20
19.1450455719
 10
-13.1184589485
 20
19.1927529026
 10
-13.0949368193
 20
19.23997532
 10
-13.0704310561
 20
19.2866547048
 10
-13.0449711976
 20
19.332733066
 10
-13.0185891424
 20
19.3781536012
 10
-12.991317863
 20
19.4228602884
 10
-12.9631902262
 20
19.4667975257
 10
-12.934241365
 20
19.5099113076
 10
-12.9045075552
 20
19.5521483321
 10
-12.8740249315
 20
19.5934556014
 10
-12.8428317923
 20
19.6337821205
 10
-12.8109670508
 20
19.6730783615
 10
-12.7784691078
 20
19.7112953642
 10
-12.7453787235
 20
19.7483860296
 10
-12.7117372311
 20
19.7843047686
 10
-12.6775849836
 20
19.8190069411
 10
-12.6429643486
 20
19.852450209
 10
-12.6079190057
 20
19.8845930059
 10
-12.5724921742
 20
19.9153942566
 10
-12.5367290102
 20
19.944815556
 10
-12.5006735121
 20
19.972821517
 10
-12.4643677872
 20
19.999378083
 10
-12.4278562474
 20
20.0244526235
 10
-12.3911855896
 20
20.0480141675
 10
-12.3544017085
 20
20.0700337187
  0
LWPOLYLINE
  5
252
100
AcDbEntity
  8
RACCORDO
100
AcDbPolyline
 62
253
  6
CONTINUOUS
 90
27
 70
0
 10
-6.9510439393
 20
22.7888435881
 10
-6.9559224391
 20
22.7768876864
 10
-6.9612680807
 20
22.7652034123
 10
-6.9670666709
 20
22.7538228639
 10
-6.973303356
 20
22.7427763505
 10
-6.9799609502
 20
22.7320953887
 10
-6.9870195993
 20
22.7218122633
 10
-6.994459255
 20
22.7119560323
 10
-7.0022602912
 20
22.7025525561
 10
-7.0104016105
 20
22.6936272984
 10
-7.0188611459
 20
22.6852045357
 10
-7.0276156827
 20
22.6773074631
 10
-7.0366411029
 20
22.6699578659
 10
-7.0459126693
 20
22.6631758776
 10
-7.0554051386
 20
22.6569799532
 10
-7.0650926069
 20
22.6513870033
 10
-7.0749486315
 20
22.6464123013
 10
-7.0849462774
 20
22.642069449
 10
-7.0950582133
 20
22.6383703213
 10
-7.1052568113
 20
22.6353250242
 10
-7.1155142231
 20
22.6329418725
 10
-7.1258024311
 20
22.6312273755
 10
-7.1360933497
 20
22.630186215
 10
-7.1463588546
 20
22.6298212381
 10
-7.1565708605
 20
22.6301334386
 10
-7.1667014457
 20
22.6311219506
 10
-7.1767229714
 20
22.6327840649
  0
LINE
  5
253
100
AcDbEntity
  8
RACCORDO
100
AcDbLine
 62
7
  6
CONTINUOUS
 10
3.5951376335
 20
17.8569384737
 11
3.2374584842
 21
17.6573425219
  0
LINE
  5
254
100
AcDbEntity
  8
RACCORDO
100
AcDbLine
 62
7
  6
CONTINUOUS
 10
6.3833402559
 20
18.2335545739
 11
6.3816038441
 21
18.2326863537
  0
LINE
  5
255
100
AcDbEntity
  8
DRAFT
100
AcDbLine
 62
7
  6
CONTINUOUS
 10
3.5951376335
 20
17.8569384737
 11
8.9199717037
 21
20.4932699056
  0
LINE
  5
256
100
AcDbEntity
  8
RACCORDO
100
AcDbLine
 62
7
  6
CONTINUOUS
 10
6.9182102123
 20
18.4941066736
 11
6.3833430215
 21
18.2335559211
  0
LINE
  5
257
100
AcDbEntity
  8
RACCORDO
100
AcDbLine
 62
253
  6
CONTINUOUS
 10
7.0287223234
 20
18.4863718826
 11
6.4942724447
 21
18.226024416
  0
LWPOLYLINE
  5
258
100
AcDbEntity
  8
RACCORDO
100
AcDbPolyline
 62
7
  6
CONTINUOUS
 90
18
 70
0
 10
6.9182102123
 20
18.4941066736
 10
6.9304311721
 20
18.4996590398
 10
6.9430602957
 20
18.5045934799
 10
6.9560590949
 20
18.5088721089
 10
6.9694043454
 20
18.5124646828
 10
6.9830300747
 20
18.51533291
 10
6.9968290335
 20
18.5174423819
 10
7.0107280156
 20
18.51877863
 10
7.0246974369
 20
18.5193370176
 10
7.0386982885
 20
18.5191126647
 10
7.0526717527
 20
18.5181040584
 10
7.066577508
 20
18.5163125909
 10
7.0804109479
 20
18.5137335986
 10
7.0941790093
 20
18.5103523364
 10
7.1077800583
 20
18.5061802379
 10
7.1210658888
 20
18.5012637268
 10
7.1340000442
 20
18.4956269366
 10
7.1395032879
 20
18.492958771
  0
LINE
  5
259
100
AcDbEntity
  8
RACCORDO
100
AcDbLine
 62
7
  6
CONTINUOUS
 10
12.8509688281
 20
-14.4994255917
 11
9.0752151877
 21
-14.7017022595
  0
LINE
  5
25A
100
AcDbEntity
  8
RACCORDO
100
AcDbLine
 62
253
  6
CONTINUOUS
 10
12.8631441922
 20
-14.4990182665
 11
12.8590452446
 21
-14.499155722
  0
LWPOLYLINE
  5
25B
100
AcDbEntity
  8
RACCORDO
100
AcDbPolyline
 62
253
  6
CONTINUOUS
 90
18
 70
0
 10
-13.4934503269
 20
18.4932640813
 10
-13.4932421128
 20
18.4818712704
 10
-13.4919200898
 20
18.4706972717
 10
-13.4894943836
 20
18.4595373443
 10
-13.4859703681
 20
18.4484162109
 10
-13.4813558499
 20
18.4373585084
 10
-13.4756610518
 20
18.426388733
 10
-13.4688985893
 20
18.4155311861
 10
-13.4610834435
 20
18.4048099206
 10
-13.4522329274
 20
18.3942486875
 10
-13.4423666477
 20
18.3838708832
 10
-13.4315064611
 20
18.3736994977
 10
-13.4196764264
 20
18.3637570638
 10
-13.4069027508
 20
18.3540656071
 10
-13.393213732
 20
18.3446465972
 10
-13.3786396954
 20
18.3355209002
 10
-13.3632129271
 20
18.3267087322
 10
-13.3469676021
 20
18.3182296151
  0
LWPOLYLINE
  5
25C
100
AcDbEntity
  8
RACCORDO
100
AcDbPolyline
 62
7
  6
CONTINUOUS
 90
22
 70
0
 10
4.7984246277
 20
17.4204854475
 10
4.7886178954
 20
17.4151745148
 10
4.7776062707
 20
17.4085078644
 10
4.7669426072
 20
17.4012762411
 10
4.756655909
 20
17.393497024
 10
4.7467672225
 20
17.3851827331
 10
4.7373040302
 20
17.3763517519
 10
4.728295769
 20
17.3670266598
 10
4.7197664117
 20
17.3572268907
 10
4.7117415868
 20
17.3469755836
 10
4.7042470735
 20
17.3362989974
 10
4.697305977
 20
17.3252228878
 10
4.6909409602
 20
17.3137755234
 10
4.6851732204
 20
17.3019864502
 10
4.6800219208
 20
17.2898851354
 10
4.6755047799
 20
17.2775016781
 10
4.6716393395
 20
17.2648710793
 10
4.6684415501
 20
17.2520320036
 10
4.6659239623
 20
17.2390203572
 10
4.6640970114
 20
17.2258718842
 10
4.6629694854
 20
17.2126265367
 10
4.6625442809
 20
17.1980515152
  0
LINE
  5
25D
100
AcDbEntity
  8
RACCORDO
100
AcDbLine
 62
7
  6
CONTINUOUS
 10
6.3816018704
 20
18.2326853411
 11
4.7984301754
 21
17.4204882938
  0
LINE
  5
25E
100
AcDbEntity
  8
RACCORDO
100
AcDbLine
 62
253
  6
CONTINUOUS
 10
6.4942724447
 20
18.226024416
 11
4.9115158416
 21
17.4140403187
  0
LINE
  5
25F
100
AcDbEntity
  8
RACCORDO
100
AcDbLine
 62
253
  6
CONTINUOUS
 10
7.8377813122
 20
17.5542699823
 11
6.2365005214
 21
16.7515479788
  0
LINE
  5
260
100
AcDbEntity
  8
RACCORDO
100
AcDbLine
 62
253
  6
CONTINUOUS
 10
8.0145550159
 20
17.2493804435
 11
6.4132742251
 21
16.44665844
  0
LINE
  5
261
100
AcDbEntity
  8
RACCORDO
100
AcDbLine
 62
253
  6
CONTINUOUS
 10
8.366048484
 20
17.8177088023
 11
7.8377813122
 21
17.5542699823
  0
LINE
  5
262
100
AcDbEntity
  8
RACCORDO
100
AcDbLine
 62
253
  6
CONTINUOUS
 10
8.5428221877
 20
17.5128192635
 11
8.0145550159
 21
17.2493804435
  0
LINE
  5
263
100
AcDbEntity
  8
RACCORDO
100
AcDbLine
 62
7
  6
CONTINUOUS
 10
13.0322137545
 20
20.4173737538
 11
8.0658556085
 21
18.029782611
  0
LWPOLYLINE
  5
264
100
AcDbEntity
  8
RACCORDO
100
AcDbPolyline
 62
253
  6
CONTINUOUS
 90
43
 70
0
 10
2.4938167523
 20
12.6459244883
 10
2.4561649063
 20
12.6243389195
 10
2.4186311082
 20
12.6012089457
 10
2.3812612524
 20
12.5765635632
 10
2.3441010031
 20
12.5504342594
 10
2.3071958051
 20
12.5228531484
 10
2.2705908641
 20
12.4938527374
 10
2.2343301807
 20
12.4634684127
 10
2.1984589088
 20
12.4317385803
 10
2.16302336
 20
12.3987027693
 10
2.12806727
 20
12.3644025181
 10
2.0936329502
 20
12.3288801928
 10
2.0597636778
 20
12.2921789714
 10
2.0265008341
 20
12.2543444191
 10
1.9938851313
 20
12.2154236587
 10
1.9619577512
 20
12.17546426
 10
1.9307576677
 20
12.1345157207
 10
1.9003231186
 20
12.0926290658
 10
1.8706928381
 20
12.0498559936
 10
1.841903176
 20
12.0062497689
 10
1.8139891913
 20
11.9618644344
 10
1.7869861291
 20
11.9167544026
 10
1.7609270423
 20
11.8709756556
 10
1.7358437489
 20
11.8245850359
 10
1.7117679252
 20
11.7776394658
 10
1.6887289847
 20
11.730197021
 10
1.6667551314
 20
11.6823167229
 10
1.6458743108
 20
11.634057826
 10
1.6261121497
 20
11.5854803378
 10
1.6074926634
 20
11.5366443456
 10
1.5900393204
 20
11.4876098051
 10
1.5737735256
 20
11.4384375494
 10
1.5587150774
 20
11.3891884687
 10
1.5448829024
 20
11.3399228418
 10
1.5322938538
 20
11.290701138
 10
1.5209634523
 20
11.2415849081
 10
1.5109062871
 20
11.1926359492
 10
1.5021348208
 20
11.1439159342
 10
1.4946594098
 20
11.0954840972
 10
1.4884892001
 20
11.0473981631
 10
1.4836318733
 20
10.9997169492
 10
1.4800934531
 20
10.9525002461
 10
1.4778783591
 20
10.905806524
  0
LINE
  5
265
100
AcDbEntity
  8
RACCORDO
100
AcDbLine
 62
7
  6
CONTINUOUS
 10
7.1244948332
 20
15.149680159
 11
8.0145550159
 21
15.6469769699
  0
LINE
  5
266
100
AcDbEntity
  8
RACCORDO
100
AcDbLine
 62
253
  6
CONTINUOUS
 10
2.4938167523
 20
12.6459244883
 11
7.0128478907
 21
15.1129964165
  0
LINE
  5
267
100
AcDbEntity
  8
RACCORDO
100
AcDbLine
 62
7
  6
CONTINUOUS
 10
13.6309279466
 20
19.5475484149
 11
8.1393846184
 21
16.584734804
  0
LWPOLYLINE
  5
268
100
AcDbEntity
  8
RACCORDO
100
AcDbPolyline
 62
7
  6
CONTINUOUS
 90
13
 70
0
 10
7.1244948332
 20
15.149680159
 10
7.1166245416
 20
15.1454728508
 10
7.1084376725
 20
15.1414624415
 10
7.0999494836
 20
15.137655679
 10
7.0911752604
 20
15.1340627543
 10
7.0821319035
 20
15.1306859808
 10
7.0728380579
 20
15.1275196609
 10
7.0633111531
 20
15.1245720418
 10
7.0535692205
 20
15.1218449446
 10
7.0436327338
 20
15.119322212
 10
7.0335212357
 20
15.1170008647
 10
7.0232531565
 20
15.1148912434
 10
7.0128478907
 20
15.1129964165
  0
LINE
  5
269
100
AcDbEntity
  8
RACCORDO
100
AcDbLine
 62
7
  6
CONTINUOUS
 10
13.6309279466
 20
18.9707967714
 11
8.2935430642
 21
16.2072848503
  0
LINE
  5
26A
100
AcDbEntity
  8
RACCORDO
100
AcDbLine
 62
253
  6
CONTINUOUS
 10
8.721554087
 20
15.993279339
 11
8.0145550159
 21
15.6593357065
  0
LINE
  5
26B
100
AcDbEntity
  8
RACCORDO
100
AcDbLine
 62
253
  6
CONTINUOUS
 10
9.0752151877
 20
15.3833536483
 11
8.3573387648
 21
15.0442722123
  0
LWPOLYLINE
  5
26C
100
AcDbEntity
  8
RACCORDO
100
AcDbPolyline
 62
7
  6
CONTINUOUS
 90
23
 70
0
 10
-8.7017738835
 20
23.5402369995
 10
-8.7014554755
 20
23.5276234472
 10
-8.7004968589
 20
23.515000499
 10
-8.6988950846
 20
23.5024069588
 10
-8.6966509247
 20
23.4898858854
 10
-8.6937668846
 20
23.4774724604
 10
-8.6902450604
 20
23.4651936934
 10
-8.6860916952
 20
23.4530867666
 10
-8.6813168404
 20
23.4411913993
 10
-8.6759290455
 20
23.4295371199
 10
-8.669940685
 20
23.418158145
 10
-8.6633686438
 20
23.4070917502
 10
-8.65622921
 20
23.3963689367
 10
-8.648539417
 20
23.3860185674
 10
-8.6403220972
 20
23.3760737542
 10
-8.6316030634
 20
23.3665664318
 10
-8.6224018474
 20
23.3575183691
 10
-8.6127453979
 20
23.3489566514
 10
-8.6026709961
 20
23.3409129883
 10
-8.5921984463
 20
23.3334014558
 10
-8.5813557562
 20
23.326441447
 10
-8.5701920065
 20
23.3200617326
 10
-8.5635709565
 20
23.3166270391
  0
LWPOLYLINE
  5
26D
100
AcDbEntity
  8
RACCORDO
100
AcDbPolyline
 62
253
  6
CONTINUOUS
 90
19
 70
0
 10
-8.6285505788
 20
23.4518486518
 10
-8.6283317076
 20
23.4411876596
 10
-8.6276751519
 20
23.4307662431
 10
-8.6265818143
 20
23.4206106657
 10
-8.6250533644
 20
23.4107448116
 10
-8.6230930458
 20
23.4011956149
 10
-8.6207064628
 20
23.3919923788
 10
-8.61790013
 20
23.3831596522
 10
-8.6146806129
 20
23.3747176114
 10
-8.6110558437
 20
23.3666870969
 10
-8.6070347606
 20
23.3590880116
 10
-8.6026273875
 20
23.3519393898
 10
-8.5978447596
 20
23.3452591622
 10
-8.5926987867
 20
23.3390639612
 10
-8.5872022579
 20
23.3333691809
 10
-8.5813689146
 20
23.3281890446
 10
-8.5752133257
 20
23.3235364532
 10
-8.5687507705
 20
23.3194229207
 10
-8.5635772803
 20
23.3166302007
  0
LINE
  5
26E
100
AcDbEntity
  8
RACCORDO
100
AcDbLine
 62
7
  6
CONTINUOUS
 10
-8.7017738835
 20
23.8802109336
 11
-8.7017738835
 21
23.5402369995
  0
LINE
  5
26F
100
AcDbEntity
  8
RACCORDO
100
AcDbLine
 62
253
  6
CONTINUOUS
 10
-8.6285505788
 20
23.7918225859
 11
-8.6285505788
 21
23.4518486518
  0
LINE
  5
270
100
AcDbEntity
  8
RACCORDO
100
AcDbLine
 62
7
  6
CONTINUOUS
 10
-7.9987809292
 20
23.0342320251
 11
-7.9987809292
 21
22.5802749306
  0
LINE
  5
271
100
AcDbEntity
  8
RACCORDO
100
AcDbLine
 62
253
  6
CONTINUOUS
 10
-7.9255576245
 20
22.9976203728
 11
-7.9255576245
 21
22.4885462286
  0
LWPOLYLINE
  5
272
100
AcDbEntity
  8
RACCORDO
100
AcDbPolyline
 62
253
  6
CONTINUOUS
 90
31
 70
0
 10
-8.6285505788
 20
23.7918225859
 10
-8.6283112239
 20
23.8032050861
 10
-8.6275932187
 20
23.8148033118
 10
-8.6263976286
 20
23.8265861727
 10
-8.6247264311
 20
23.8385244401
 10
-8.6225834962
 20
23.8505834911
 10
-8.6199755407
 20
23.862723195
 10
-8.6169103687
 20
23.8749078958
 10
-8.6133958145
 20
23.8871070212
 10
-8.6094413332
 20
23.8992876932
 10
-8.6050575694
 20
23.9114169811
 10
-8.6002564898
 20
23.9234616449
 10
-8.5950512843
 20
23.9353885557
 10
-8.5894561953
 20
23.9471651072
 10
-8.5834863924
 20
23.9587593969
 10
-8.5771580705
 20
23.9701399674
 10
-8.5704884194
 20
23.981275885
 10
-8.5634956119
 20
23.9921367885
 10
-8.5561987032
 20
24.0026930731
 10
-8.5486175607
 20
24.0129159933
 10
-8.5407728094
 20
24.0227777337
 10
-8.5326858032
 20
24.0322514461
 10
-8.524378551
 20
24.041311344
 10
-8.5158736643
 20
24.0499327636
 10
-8.5071942992
 20
24.0580922292
 10
-8.4983640732
 20
24.0657675357
 10
-8.4894070269
 20
24.0729377848
 10
-8.4803475677
 20
24.0795834392
 10
-8.4712103642
 20
24.0856864079
 10
-8.4620202778
 20
24.0912300903
 10
-8.4528023228
 20
24.0961994009
  0
LWPOLYLINE
  5
273
100
AcDbEntity
  8
RACCORDO
100
AcDbPolyline
 62
253
  6
CONTINUOUS
 90
31
 70
0
 10
-7.303565899
 20
23.129330246
 10
-7.3033265441
 20
23.1407127462
 10
-7.3026085389
 20
23.1523109719
 10
-7.3014129488
 20
23.1640938328
 10
-7.2997417513
 20
23.1760321002
 10
-7.2975988164
 20
23.1880911512
 10
-7.2949908609
 20
23.2002308551
 10
-7.2919256889
 20
23.2124155559
 10
-7.2884111346
 20
23.2246146813
 10
-7.2844566534
 20
23.2367953533
 10
-7.2800728896
 20
23.2489246412
 10
-7.27527181
 20
23.260969305
 10
-7.2700666045
 20
23.2728962158
 10
-7.2644715155
 20
23.2846727673
 10
-7.2585017126
 20
23.296267057
 10
-7.2521733907
 20
23.3076476275
 10
-7.2455037396
 20
23.3187835451
 10
-7.2385109321
 20
23.3296444486
 10
-7.2312140234
 20
23.3402007332
 10
-7.2236328809
 20
23.3504236534
 10
-7.2157881296
 20
23.3602853938
 10
-7.2077011234
 20
23.3697591062
 10
-7.1993938712
 20
23.3788190041
 10
-7.1908889845
 20
23.3874404237
 10
-7.1822096194
 20
23.3955998893
 10
-7.1733793934
 20
23.4032751958
 10
-7.1644223471
 20
23.4104454449
 10
-7.1553628879
 20
23.4170910993
 10
-7.1462256843
 20
23.423194068
 10
-7.137035598
 20
23.4287377503
 10
-7.127817643
 20
23.433707061
  0
LWPOLYLINE
  5
274
100
AcDbEntity
  8
RACCORDO
100
AcDbPolyline
 62
7
  6
CONTINUOUS
 90
20
 70
0
 10
-8.7017738835
 20
23.8802109336
 10
-8.7013700114
 20
23.8944155455
 10
-8.7001513998
 20
23.9086469695
 10
-8.6981110123
 20
23.9228491672
 10
-8.6952462609
 20
23.9369665622
 10
-8.6915599386
 20
23.9509403314
 10
-8.6870606462
 20
23.9647102786
 10
-8.6817620528
 20
23.97821829
 10
-8.6756803112
 20
23.9914130538
 10
-8.6688328298
 20
24.0042488867
 10
-8.6612421593
 20
24.016677198
 10
-8.6529357728
 20
24.0286491168
 10
-8.6439393649
 20
24.0401247472
 10
-8.6342780566
 20
24.0510682621
 10
-8.6239887841
 20
24.0614346295
 10
-8.6131145132
 20
24.0711800442
 10
-8.6016803496
 20
24.0802810496
 10
-8.5897281935
 20
24.0887022004
 10
-8.577325562
 20
24.0963978343
 10
-8.565880831
 20
24.1026510479
  0
LWPOLYLINE
  5
275
100
AcDbEntity
  8
RACCORDO
100
AcDbPolyline
 62
253
  6
CONTINUOUS
 90
15
 70
0
 10
-4.7496024363
 20
23.9291537159
 10
-4.7505852356
 20
23.9226515763
 10
-4.7522448409
 20
23.9161839091
 10
-4.7545767604
 20
23.9097682563
 10
-4.7575746362
 20
23.9034221356
 10
-4.7612302112
 20
23.8971629711
 10
-4.7655334127
 20
23.8910078889
 10
-4.7704725393
 20
23.8849735235
 10
-4.7760342524
 20
23.8790761381
 10
-4.7822040726
 20
23.8733312068
 10
-4.7889646798
 20
23.867754966
 10
-4.7962955622
 20
23.862364061
 10
-4.8041755581
 20
23.8571734665
 10
-4.8125834531
 20
23.8521966104
 10
-4.8214959768
 20
23.847446829
  0
LWPOLYLINE
  5
276
100
AcDbEntity
  8
RACCORDO
100
AcDbPolyline
 62
7
  6
CONTINUOUS
 90
5
 70
0
 10
-3.120517705
 20
21.8566569587
 10
-3.1225542483
 20
21.8475355607
 10
-3.1240686072
 20
21.8377019632
 10
-3.1250249909
 20
21.8272438033
 10
-3.1253567377
 20
21.815570047
  0
LWPOLYLINE
  5
277
100
AcDbEntity
  8
RACCORDO
100
AcDbPolyline
 62
253
  6
CONTINUOUS
 90
43
 70
0
 10
2.8596494923
 20
12.0429220425
 10
2.8343710486
 20
12.0285815276
 10
2.8092280218
 20
12.0132488171
 10
2.7842204118
 20
11.996923911
 10
2.7593163134
 20
11.9795834882
 10
2.7345476319
 20
11.9612508699
 10
2.7100100828
 20
11.9419960194
 10
2.6857056408
 20
11.9218160476
 10
2.6616323313
 20
11.9007138436
 10
2.6378799461
 20
11.8787680384
 10
2.6144499515
 20
11.8559757097
 10
2.5913408811
 20
11.8323397797
 10
2.5686381275
 20
11.8079476455
 10
2.546343147
 20
11.7827964798
 10
2.5244544834
 20
11.7568891098
 10
2.5030531604
 20
11.7303214144
 10
2.4821409184
 20
11.7030908461
 10
2.461716017
 20
11.6751999524
 10
2.4418542596
 20
11.6467522541
 10
2.4225578038
 20
11.6177457751
 10
2.4038244919
 20
11.5881824915
 10
2.3857236537
 20
11.5581718532
 10
2.3682576263
 20
11.5277121994
 10
2.3514240726
 20
11.496805191
 10
2.3352853113
 20
11.4655652605
 10
2.3198438759
 20
11.4339910656
 10
2.3050972328
 20
11.4020839486
 10
2.2911000997
 20
11.3699623697
 10
2.2778553197
 20
11.3376256652
 10
2.2653600498
 20
11.3050744988
 10
2.2536604779
 20
11.2724293209
 10
2.2427595511
 20
11.2396898386
 10
2.2326543224
 20
11.2068563448
 10
2.2233821394
 20
11.1740501694
 10
2.2149460288
 20
11.1412710585
 10
2.2073429639
 20
11.108519266
 10
2.2006012112
 20
11.0759168834
 10
2.194724006
 20
11.0434636185
 10
2.189708113
 20
11.0111597636
 10
2.1855720932
 20
10.9791282872
 10
2.1823221333
 20
10.947410179
 10
2.1799520466
 20
10.9159644493
 10
2.178461833
 20
10.8847910983
  0
LINE
  5
278
100
AcDbEntity
  8
RACCORDO
100
AcDbLine
 62
253
  6
CONTINUOUS
 10
8.3573387648
 20
15.0442722123
 11
2.8596494923
 21
12.0429220425
  0
LWPOLYLINE
  5
279
100
AcDbEntity
  8
RACCORDO
100
AcDbPolyline
 62
253
  6
CONTINUOUS
 90
15
 70
0
 10
13.2430029969
 20
17.6378537274
 10
13.2509088243
 20
17.6420917929
 10
13.2583103552
 20
17.6465517324
 10
13.2651827305
 20
17.6512185665
 10
13.2715028679
 20
17.6560766207
 10
13.2772495402
 20
17.6611095786
 10
13.2824034463
 20
17.666300536
 10
13.2869472758
 20
17.6716320582
 10
13.2908657676
 20
17.6770862383
 10
13.2941457606
 20
17.6826447576
 10
13.2967762385
 20
17.6882889469
 10
13.2987483663
 20
17.693999849
 10
13.3000555204
 20
17.6997582831
 10
13.3006933103
 20
17.7055449083
 10
13.3007612824
 20
17.7081501524
  0
LWPOLYLINE
  5
27A
100
AcDbEntity
  8
RACCORDO
100
AcDbPolyline
 62
253
  6
CONTINUOUS
 90
34
 70
0
 10
2.178461833
 20
10.8847910983
 10
2.1611675017
 20
10.8776636316
 10
2.1431420402
 20
10.8709503451
 10
2.1244253805
 20
10.8646661108
 10
2.1050589858
 20
10.8588248501
 10
2.0850857588
 20
10.8534395033
 10
2.0645499463
 20
10.8485220007
 10
2.0434970417
 20
10.844083236
 10
2.0219736837
 20
10.8401330424
 10
2.0000275531
 20
10.836680171
 10
1.9777072677
 20
10.8337322708
 10
1.9550622737
 20
10.8312958724
 10
1.9321427368
 20
10.8293763732
 10
1.9089994312
 20
10.8279780255
 10
1.8856836262
 20
10.827103927
 10
1.8622469739
 20
10.8267560142
 10
1.8387413935
 20
10.8269350577
 10
1.8152189575
 20
10.827640661
 10
1.7917317752
 20
10.828871261
 10
1.7683318782
 20
10.8306241313
 10
1.7450711044
 20
10.832895389
 10
1.7220009839
 20
10.8356800024
 10
1.699172624
 20
10.8389718028
 10
1.6766365968
 20
10.8427634977
 10
1.6544428266
 20
10.8470466875
 10
1.6326404795
 20
10.8518118835
 10
1.6112778545
 20
10.8570485293
 10
1.5904022766
 20
10.8627450241
 10
1.5700599915
 20
10.8688887484
 10
1.5502960639
 20
10.8754660919
 10
1.531154277
 20
10.8824624838
 10
1.5126770358
 20
10.8898624248
 10
1.4949052732
 20
10.8976495219
 10
1.4778783592
 20
10.905806524
  0
LINE
  5
27B
100
AcDbEntity
  8
RACCORDO
100
AcDbLine
 62
7
  6
CONTINUOUS
 10
13.3007612824
 20
-16.7165987416
 11
13.624811437
 21
-16.8786238189
  0
LINE
  5
27C
100
AcDbEntity
  8
RACCORDO
100
AcDbLine
 62
253
  6
CONTINUOUS
 10
9.0752151877
 20
-14.3678206796
 11
9.6783549083
 21
-14.6693905399
  0
LINE
  5
27D
100
AcDbEntity
  8
RACCORDO
100
AcDbLine
 62
7
  6
CONTINUOUS
 10
9.0752151877
 20
-14.2940593891
 11
9.8116008458
 21
-14.6622522182
  0
LWPOLYLINE
  5
27E
100
AcDbEntity
  8
RACCORDO
100
AcDbPolyline
 62
253
  6
CONTINUOUS
 90
31
 70
0
 10
-6.9510439393
 20
23.1288175222
 10
-6.9513376413
 20
23.1402157406
 10
-6.9521105698
 20
23.1518327216
 10
-6.9533615141
 20
23.1636371057
 10
-6.9550883592
 20
23.1755994357
 10
-6.9572870514
 20
23.187684739
 10
-6.9599506251
 20
23.1998524076
 10
-6.9630710436
 20
23.2120663999
 10
-6.9666402826
 20
23.2242958806
 10
-6.9706486745
 20
23.2365076633
 10
-6.9750853551
 20
23.2486684997
 10
-6.9799381212
 20
23.2607448052
 10
-6.9851935364
 20
23.2727031012
 10
-6.9908371121
 20
23.2845104486
 10
-6.9968534364
 20
23.2961346291
 10
-7.0032260668
 20
23.30754387
 10
-7.0099375652
 20
23.3187069302
 10
-7.0169695089
 20
23.3295931483
 10
-7.0243025929
 20
23.3401726287
 10
-7.0319167027
 20
23.3504163489
 10
-7.0397909704
 20
23.3602962306
 10
-7.047903803
 20
23.3697851774
 10
-7.0562329578
 20
23.3788571698
 10
-7.0647555954
 20
23.3874873281
 10
-7.073448339
 20
23.3956519782
 10
-7.0822873589
 20
23.4033287359
 10
-7.0912484125
 20
23.4104965445
 10
-7.1003069023
 20
23.4171357299
 10
-7.1094379801
 20
23.4232280849
 10
-7.1186166165
 20
23.4287569142
 10
-7.127817643
 20
23.433707061
  0
LWPOLYLINE
  5
27F
100
AcDbEntity
  8
RACCORDO
100
AcDbPolyline
 62
253
  6
CONTINUOUS
 90
19
 70
0
 10
-7.303565899
 20
22.7893563119
 10
-7.3033470278
 20
22.7786953197
 10
-7.3026904721
 20
22.7682739031
 10
-7.3015971344
 20
22.7581183258
 10
-7.3000686846
 20
22.7482524717
 10
-7.298108366
 20
22.738703275
 10
-7.2957217829
 20
22.7295000389
 10
-7.2929154502
 20
22.7206673123
 10
-7.2896959331
 20
22.7122252715
 10
-7.2860711639
 20
22.704194757
 10
-7.2820500808
 20
22.6965956717
 10
-7.2776427077
 20
22.6894470499
 10
-7.2728600798
 20
22.6827668223
 10
-7.2677141069
 20
22.6765716212
 10
-7.262217578
 20
22.670876841
 10
-7.2563842347
 20
22.6656967047
 10
-7.2502286459
 20
22.6610441133
 10
-7.2437660907
 20
22.6569305808
 10
-7.2385926005
 20
22.6541378608
  0
LINE
  5
280
100
AcDbEntity
  8
RACCORDO
100
AcDbLine
 62
253
  6
CONTINUOUS
 10
-7.303565899
 20
22.7893563119
 11
-7.303565899
 21
23.129330246
  0
LINE
  5
281
100
AcDbEntity
  8
RACCORDO
100
AcDbLine
 62
253
  6
CONTINUOUS
 10
-6.9510439393
 20
22.7888435881
 11
-6.9510439393
 21
23.1288175222
  0
LINE
  5
282
100
AcDbEntity
  8
RACCORDO
100
AcDbLine
 62
253
  6
CONTINUOUS
 10
-6.5923452909
 20
22.5107606847
 11
-6.5923452909
 21
21.8219400618
  0
LINE
  5
283
100
AcDbEntity
  8
RACCORDO
100
AcDbLine
 62
253
  6
CONTINUOUS
 10
-6.2398233312
 20
22.6403400652
 11
-6.2398233312
 21
21.8327079434
  0
LWPOLYLINE
  5
284
100
AcDbEntity
  8
RACCORDO
100
AcDbPolyline
 62
253
  6
CONTINUOUS
 90
16
 70
0
 10
-4.7492981198
 20
24.2828509812
 10
-4.7495993903
 20
24.276716149
 10
-4.7505791089
 20
24.2702132009
 10
-4.7522357979
 20
24.2637446366
 10
-4.7545649494
 20
24.2573280699
 10
-4.7575602297
 20
24.2509809588
 10
-4.7612134885
 20
24.244720582
 10
-4.7655147866
 20
24.2385639788
 10
-4.7704524192
 20
24.2325279084
 10
-4.7760129445
 20
24.2266288059
 10
-4.7821812336
 20
24.2208827245
 10
-4.7889404949
 20
24.2153053088
 10
-4.7962723087
 20
24.2099117565
 10
-4.8041567069
 20
24.2047167521
 10
-4.8125722326
 20
24.1997344286
 10
-4.8214959768
 20
24.1949783457
  0
LINE
  5
285
100
AcDbEntity
  8
RACCORDO
100
AcDbLine
 62
253
  6
CONTINUOUS
 10
-4.7492981198
 20
23.9353194599
 11
-4.7493446064
 21
23.9304985553
  0
LWPOLYLINE
  5
286
100
AcDbEntity
  8
RACCORDO
100
AcDbPolyline
 62
7
  6
CONTINUOUS
 90
34
 70
0
 10
-5.3497631485
 20
23.9315395257
 10
-5.3499632046
 20
23.9419413343
 10
-5.350563442
 20
23.9525197024
 10
-5.3515624
 20
23.9632507205
 10
-5.3529576356
 20
23.9741101736
 10
-5.3547459838
 20
23.9850734661
 10
-5.3569235651
 20
23.996115677
 10
-5.3594853896
 20
24.0072118239
 10
-5.3624255639
 20
24.0183368173
 10
-5.3657375589
 20
24.0294653878
 10
-5.369413836
 20
24.0405723456
 10
-5.3734459963
 20
24.0516325668
 10
-5.3778249936
 20
24.062620948
 10
-5.3825408941
 20
24.0735126056
 10
-5.3875829642
 20
24.0842828927
 10
-5.3929398248
 20
24.094907384
 10
-5.398599349
 20
24.1053620085
 10
-5.404548687
 20
24.1156230986
 10
-5.4107743587
 20
24.125667405
 10
-5.4172622912
 20
24.1354721599
 10
-5.4239977801
 20
24.145015157
 10
-5.4309655193
 20
24.1542747972
 10
-5.4381497764
 20
24.1632300797
 10
-5.445534292
 20
24.1718607116
 10
-5.4531022464
 20
24.1801471844
 10
-5.4608365679
 20
24.1880706917
 10
-5.4687197738
 20
24.1956132678
 10
-5.4767338733
 20
24.2027578915
 10
-5.4848608037
 20
24.2094883343
 10
-5.4930822147
 20
24.2157893228
 10
-5.5013793114
 20
24.2216466701
 10
-5.5097333048
 20
24.2270471069
 10
-5.5181254539
 20
24.2319783115
 10
-5.5265368522
 20
24.2364290645
  0
LWPOLYLINE
  5
287
100
AcDbEntity
  8
RACCORDO
100
AcDbPolyline
 62
253
  6
CONTINUOUS
 90
31
 70
0
 10
-4.8214959768
 20
24.1949783457
 10
-4.8216862249
 20
24.206459008
 10
-4.8223634894
 20
24.2181491629
 10
-4.8235259162
 20
24.2300167569
 10
-4.8251703229
 20
24.242029261
 10
-4.8272922024
 20
24.2541537259
 10
-4.8298857313
 20
24.2663568711
 10
-4.8329437948
 20
24.2786052268
 10
-4.836458008
 20
24.290865215
 10
-4.8404187297
 20
24.3031032069
 10
-4.8448150963
 20
24.3152856434
 10
-4.8496350515
 20
24.3273791224
 10
-4.8548653746
 20
24.3393504797
 10
-4.8604917284
 20
24.3511669042
 10
-4.866498677
 20
24.3627959821
 10
-4.8728697218
 20
24.3742057843
 10
-4.8795873586
 20
24.3853649837
 10
-4.8866331881
 20
24.3962430356
 10
-4.8939879506
 20
24.406810209
 10
-4.901631583
 20
24.4170376569
 10
-4.9095430361
 20
24.4268971947
 10
-4.9177003703
 20
24.4363615065
 10
-4.9260810365
 20
24.4454045058
 10
-4.9346621962
 20
24.4540016227
 10
-4.9434205558
 20
24.4621295461
 10
-4.9523340659
 20
24.4697676053
 10
-4.9613763864
 20
24.4768930242
 10
-4.9705169551
 20
24.483482296
 10
-4.979728628
 20
24.4895171828
 10
-4.9889879918
 20
24.4949836635
 10
-4.9982696805
 20
24.4998678845
  0
LINE
  5
288
100
AcDbEntity
  8
RACCORDO
100
AcDbLine
 62
7
  6
CONTINUOUS
 10
-5.3497631485
 20
22.3293888647
 11
-5.3497631485
 21
23.9315395257
  0
LINE
  5
289
100
AcDbEntity
  8
RACCORDO
100
AcDbLine
 62
253
  6
CONTINUOUS
 10
-4.8214959768
 20
24.1949783457
 11
-4.8214959768
 21
23.847446829
  0
LINE
  5
28A
100
AcDbEntity
  8
RACCORDO
100
AcDbLine
 62
7
  6
CONTINUOUS
 10
-4.7492981198
 20
24.2828509779
 11
-4.7492981198
 21
23.9353194612
  0
LINE
  5
28B
100
AcDbEntity
  8
RACCORDO
100
AcDbLine
 62
253
  6
CONTINUOUS
 10
8.0145550159
 20
16.522335591
 11
8.5428221877
 21
17.1652877468
  0
LINE
  5
28C
100
AcDbEntity
  8
RACCORDO
100
AcDbLine
 62
7
  6
CONTINUOUS
 10
8.0145550159
 20
16.4328051247
 11
8.6139152177
 21
17.1622843625
  0
LWPOLYLINE
  5
28D
100
AcDbEntity
  8
RACCORDO
100
AcDbPolyline
 62
7
  6
CONTINUOUS
 90
5
 70
0
 10
8.6139649706
 20
17.1623490751
 10
8.613619138
 20
17.1619632614
 10
8.6121207136
 20
17.1608199161
 10
8.6101007912
 20
17.1598943101
 10
8.6075714373
 20
17.1591591585
  0
LINE
  5
28E
100
AcDbEntity
  8
RACCORDO
100
AcDbLine
 62
253
  6
CONTINUOUS
 10
9.0752151877
 20
13.6925458704
 11
13.2430029969
 21
17.6378537274
  0
LWPOLYLINE
  5
28F
100
AcDbEntity
  8
RACCORDO
100
AcDbPolyline
 62
7
  6
CONTINUOUS
 90
27
 70
0
 10
-3.1253567377
 20
21.815570047
 10
-3.1250807408
 20
21.8048061639
 10
-3.1242895567
 20
21.7929463139
 10
-3.1229777863
 20
21.7807334973
 10
-3.1211250285
 20
21.7682276922
 10
-3.1188021988
 20
21.7554507445
 10
-3.1160076625
 20
21.7424457882
 10
-3.1127299645
 20
21.7292588096
 10
-3.1090222147
 20
21.715901297
 10
-3.1048841996
 20
21.7024057334
 10
-3.1003099958
 20
21.6888082825
 10
-3.0953405037
 20
21.6751170946
 10
-3.0899760357
 20
21.6613579235
 10
-3.084213991
 20
21.6475599192
 10
-3.0780874369
 20
21.6337311391
 10
-3.0715968918
 20
21.6198928191
 10
-3.0647418461
 20
21.6060692851
 10
-3.0575508346
 20
21.592270325
 10
-3.0500245363
 20
21.5785140388
 10
-3.0421638969
 20
21.5648214115
 10
-3.0339954574
 20
21.5512050468
 10
-3.0255199292
 20
21.5376803893
 10
-3.016739658
 20
21.5242664099
 10
-3.0076819731
 20
21.5109802589
 10
-2.9983571314
 20
21.4978380169
 10
-2.9887595341
 20
21.4848543668
 10
-2.9788925347
 20
21.4720436192
  0
LINE
  5
290
100
AcDbEntity
  8
RACCORDO
100
AcDbLine
 62
7
  6
CONTINUOUS
 10
-3.1253391442
 20
21.8151134502
 11
-3.1253391442
 21
20.5749244176
  0
LINE
  5
291
100
AcDbEntity
  8
RACCORDO
100
AcDbLine
 62
253
  6
CONTINUOUS
 10
-2.9788925347
 20
21.4720436192
 11
-2.9788925347
 21
20.3914603084
  0
LWPOLYLINE
  5
292
100
AcDbEntity
  8
RACCORDO
100
AcDbPolyline
 62
7
  6
CONTINUOUS
 90
18
 70
0
 10
13.194543832
 20
17.4358281593
 10
13.2016830523
 20
17.4428342468
 10
13.2127818846
 20
17.4547024677
 10
13.2233503724
 20
17.4672697794
 10
13.2333534637
 20
17.4805142554
 10
13.2427718644
 20
17.4944334743
 10
13.2515739422
 20
17.5090081824
 10
13.2597295934
 20
17.5242155237
 10
13.2672221145
 20
17.5400558881
 10
13.2740263243
 20
17.5565164765
 10
13.2801140759
 20
17.5735740745
 10
13.2854652579
 20
17.5912226905
 10
13.290055943
 20
17.6094476749
 10
13.2938623001
 20
17.6282359101
 10
13.2968632519
 20
17.6475934687
 10
13.2990327848
 20
17.6675189003
 10
13.300341548
 20
17.687995943
 10
13.300761058
 20
17.7081501524
  0
LWPOLYLINE
  5
293
100
AcDbEntity
  8
RACCORDO
100
AcDbPolyline
 62
253
  6
CONTINUOUS
 90
17
 70
0
 10
13.1945415237
 20
17.435825667
 10
13.1966215587
 20
17.4378453665
 10
13.2044542444
 20
17.4463279628
 10
13.2116740697
 20
17.4556163051
 10
13.2182526481
 20
17.4656818144
 10
13.224178792
 20
17.4765092063
 10
13.2294414736
 20
17.4880799315
 10
13.2340154488
 20
17.5003575905
 10
13.2378947682
 20
17.5133219142
 10
13.2410737944
 20
17.526949127
 10
13.2435312079
 20
17.5411945499
 10
13.2452664256
 20
17.5560322804
 10
13.2462800851
 20
17.5714345224
 10
13.2465564782
 20
17.5873509199
 10
13.2460945433
 20
17.6037438678
 10
13.2449072206
 20
17.6205889919
 10
13.2430029969
 20
17.6378537274
  0
LINE
  5
294
100
AcDbEntity
  8
RACCORDO
100
AcDbLine
 62
7
  6
CONTINUOUS
 10
9.0752151877
 20
13.5243859837
 11
13.1945375069
 21
17.4358218528
  0
LWPOLYLINE
  5
295
100
AcDbEntity
  8
RACCORDO
100
AcDbPolyline
 62
253
  6
CONTINUOUS
 90
25
 70
0
 10
1.4778783591
 20
-24.7094333436
 10
1.4800934378
 20
-24.7539629387
 10
1.4836318356
 20
-24.7977224365
 10
1.4884891385
 20
-24.8406577834
 10
1.494659332
 20
-24.8827154407
 10
1.5021347379
 20
-24.9238440365
 10
1.5109062001
 20
-24.963994297
 10
1.520963356
 20
-25.0031174392
 10
1.5322937469
 20
-25.0411641597
 10
1.5448827836
 20
-25.0780862792
 10
1.5587149436
 20
-25.113837866
 10
1.5737733744
 20
-25.1483752069
 10
1.5900391546
 20
-25.1816556822
 10
1.6074924908
 20
-25.2136383081
 10
1.6261119755
 20
-25.2442835459
 10
1.6458741341
 20
-25.2735533125
 10
1.6667549486
 20
-25.3014116299
 10
1.688728794
 20
-25.3278240246
 10
1.7117677251
 20
-25.3527573126
 10
1.7358435368
 20
-25.376180763
 10
1.7609268162
 20
-25.398065628
 10
1.7869858914
 20
-25.4183845278
 10
1.8139889477
 20
-25.43711252
 10
1.8419029298
 20
-25.454226592
 10
1.8712555926
 20
-25.4699872077
  0
LWPOLYLINE
  5
296
100
AcDbEntity
  8
RACCORDO
100
AcDbPolyline
 62
253
  6
CONTINUOUS
 90
27
 70
0
 10
6.4132742251
 20
16.1066845058
 10
6.4083957253
 20
16.0947286042
 10
6.4030500837
 20
16.0830443301
 10
6.3972514936
 20
16.0716637817
 10
6.3910148084
 20
16.0606172682
 10
6.3843572142
 20
16.0499363064
 10
6.3772985652
 20
16.0396531811
 10
6.3698589094
 20
16.02979695
 10
6.3620578733
 20
16.0203934739
 10
6.3539165539
 20
16.0114682162
 10
6.3454570185
 20
16.0030454535
 10
6.3367024817
 20
15.9951483809
 10
6.3276770615
 20
15.9877987837
 10
6.3184054951
 20
15.9810167954
 10
6.3089130258
 20
15.974820871
 10
6.2992255575
 20
15.9692279211
 10
6.2893695329
 20
15.9642532191
 10
6.2793718871
 20
15.9599103668
 10
6.2692599511
 20
15.9562112391
 10
6.2590613531
 20
15.953165942
 10
6.2488039414
 20
15.9507827903
 10
6.2385157333
 20
15.9490682932
 10
6.2282248148
 20
15.9480271328
 10
6.2179593098
 20
15.9476621559
 10
6.2077473039
 20
15.9479743564
 10
6.1976167188
 20
15.9489628684
 10
6.187595193
 20
15.9506249826
  0
LWPOLYLINE
  5
297
100
AcDbEntity
  8
RACCORDO
100
AcDbPolyline
 62
253
  6
CONTINUOUS
 90
43
 70
0
 10
2.178461833
 20
-24.6948335295
 10
2.1799514612
 20
-24.7245622689
 10
2.1823210082
 20
-24.753715114
 10
2.1855704739
 20
-24.7822920648
 10
2.1897060657
 20
-24.810328599
 10
2.1947215762
 20
-24.8377892388
 10
2.2005983834
 20
-24.8645675515
 10
2.2073396988
 20
-24.8906596593
 10
2.2149423109
 20
-24.91606944
 10
2.2233779636
 20
-24.9407020932
 10
2.2326496866
 20
-24.964554436
 10
2.2427544501
 20
-24.9876296513
 10
2.2536549082
 20
-25.0098424879
 10
2.265354008
 20
-25.0311898135
 10
2.2778488024
 20
-25.0516747602
 10
2.2910931036
 20
-25.0712214738
 10
2.3050897458
 20
-25.0898265358
 10
2.3198358949
 20
-25.1074933647
 10
2.33527686
 20
-25.1241563606
 10
2.3514151752
 20
-25.139811743
 10
2.3682483063
 20
-25.1544632925
 10
2.3857139607
 20
-25.168056751
 10
2.4038144858
 20
-25.1805882084
 10
2.422547534
 20
-25.1920615747
 10
2.4418437705
 20
-25.2024343226
 10
2.4617053602
 20
-25.2117023889
 10
2.4821301381
 20
-25.2198698369
 10
2.5030422738
 20
-25.2269063281
 10
2.5244434964
 20
-25.2328076293
 10
2.5463320768
 20
-25.2375779738
 10
2.568626997
 20
-25.2411997233
 10
2.5913297189
 20
-25.2436686423
 10
2.6144387806
 20
-25.2449889663
 10
2.6378687789
 20
-25.2451557644
 10
2.6616211765
 20
-25.2441647036
 10
2.6856945105
 20
-25.2420201167
 10
2.7099989899
 20
-25.2387300711
 10
2.7345361969
 20
-25.2342899261
 10
2.7593045491
 20
-25.2287043224
 10
2.7842095085
 20
-25.2219952488
 10
2.8092195625
 20
-25.2141700349
 10
2.8343662238
 20
-25.2052213512
 10
2.8596494923
 20
-25.1951491976
  0
LWPOLYLINE
  5
298
100
AcDbEntity
  8
RACCORDO
100
AcDbPolyline
 62
253
  6
CONTINUOUS
 90
22
 70
0
 10
1.4778783591
 20
10.905806524
 10
1.4226797087
 20
9.1840137838
 10
1.3729985312
 20
7.4646379092
 10
1.3288355759
 20
5.7477052972
 10
1.2901915
 20
4.0332423146
 10
1.257066895
 20
2.3212752732
 10
1.2294622863
 20
0.6118304296
 10
1.2073780946
 20
-1.0950659788
 10
1.1908146485
 20
-2.7993877461
 10
1.179772211
 20
-4.5011087222
 10
1.1742509528
 20
-6.2002027852
 10
1.1742509528
 20
-7.8966438563
 10
1.179772211
 20
-9.5904059114
 10
1.1908146485
 20
-11.281462959
 10
1.2073780946
 20
-12.9697890394
 10
1.2294622863
 20
-14.6553582395
 10
1.257066895
 20
-16.3381446905
 10
1.2901915
 20
-18.018122567
 10
1.3288355759
 20
-19.6952660857
 10
1.3729985312
 20
-21.3695495087
 10
1.4226797087
 20
-23.0409471439
 10
1.4778783591
 20
-24.7094333436
  0
LWPOLYLINE
  5
299
100
AcDbEntity
  8
RACCORDO
100
AcDbPolyline
 62
253
  6
CONTINUOUS
 90
22
 70
0
 10
2.178461833
 20
10.8847910983
 10
2.1233163339
 20
9.1646770422
 10
2.0736842405
 20
7.4470299616
 10
2.0295655527
 20
5.7318498565
 10
1.9909597616
 20
4.0191104462
 10
1.9578673762
 20
2.3088380115
 10
1.9302899229
 20
0.6011113941
 10
1.9082276565
 20
-1.1040692564
 10
1.8916803223
 20
-2.8067040896
 10
1.8806486817
 20
-4.5067147118
 10
1.8751329886
 20
-6.2041009993
 10
1.8751329892
 20
-7.8988630759
 10
1.8806486835
 20
-9.5909229198
 10
1.8916803254
 20
-11.2802804098
 10
1.9082276609
 20
-12.966935667
 10
1.9302899285
 20
-14.6508110337
 10
1.9578673836
 20
-16.331906427
 10
1.9909597707
 20
-18.0102219298
 10
2.0295655619
 20
-19.6856801323
 10
2.0736842481
 20
-21.3582552316
 10
2.1233163384
 20
-23.0279730306
 10
2.178461833
 20
-24.6948335295
  0
LWPOLYLINE
  5
29A
100
AcDbEntity
  8
RACCORDO
100
AcDbPolyline
 62
253
  6
CONTINUOUS
 90
34
 70
0
 10
2.8596494923
 20
12.0429220425
 10
2.8583615342
 20
12.0632567304
 10
2.8562905932
 20
12.0839523179
 10
2.8534413551
 20
12.1049619775
 10
2.8498202667
 20
12.1262381707
 10
2.8454355215
 20
12.1477327564
 10
2.8402970406
 20
12.169397099
 10
2.8344164508
 20
12.1911821789
 10
2.8278070579
 20
12.2130387033
 10
2.8204838169
 20
12.2349172178
 10
2.812463298
 20
12.256768218
 10
2.8037636489
 20
12.278542262
 10
2.7944045542
 20
12.300190082
 10
2.7844071907
 20
12.3216626956
 10
2.7737941791
 20
12.342911517
 10
2.7625895334
 20
12.3638884667
 10
2.7508186061
 20
12.3845460805
 10
2.7385080311
 20
12.4048376164
 10
2.7256856635
 20
12.4247171611
 10
2.7123805162
 20
12.4441397332
 10
2.6986226945
 20
12.4630613855
 10
2.6844433282
 20
12.4814393041
 10
2.6698745008
 20
12.4992319055
 10
2.6549491769
 20
12.5163989304
 10
2.639701128
 20
12.5329015352
 10
2.6241648556
 20
12.5487023795
 10
2.6083755135
 20
12.5637657109
 10
2.5923688281
 20
12.5780574457
 10
2.5761810175
 20
12.591545246
 10
2.5598487099
 20
12.6041985932
 10
2.5434088601
 20
12.6159888565
 10
2.5268986665
 20
12.6268893583
 10
2.5103554866
 20
12.636875434
 10
2.4938167523
 20
12.6459244883
  0
LINE
  5
29B
100
AcDbEntity
  8
RACCORDO
100
AcDbLine
 62
253
  6
CONTINUOUS
 10
2.5324145649
 20
17.6358067586
 11
2.5324145649
 21
18.7163900694
  0
LINE
  5
29C
100
AcDbEntity
  8
RACCORDO
100
AcDbLine
 62
253
  6
CONTINUOUS
 10
3.2374584842
 20
17.6573425219
 11
3.2374584842
 21
18.8900694942
  0
LINE
  5
29D
100
AcDbEntity
  8
ASSI
100
AcDbLine
 62
253
  6
CONTINUOUS
 10
3.3632278312
 20
23.2699000945
 11
3.3632278312
 21
24.4972506915
  0
LINE
  5
29E
100
AcDbEntity
  8
RACCORDO
100
AcDbLine
 62
7
  6
CONTINUOUS
 10
3.4885773384
 20
23.4189282529
 11
3.4885773384
 21
24.5065623106
  0
LINE
  5
29F
100
AcDbEntity
  8
DRAFT
100
AcDbLine
 62
7
  6
CONTINUOUS
 10
3.5951376335
 20
19.069374039
 11
3.5951376335
 21
17.8569384737
  0
LWPOLYLINE
  5
2A0
100
AcDbEntity
  8
ASSI
100
AcDbPolyline
 62
7
  6
CONTINUOUS
 90
6
 70
0
 10
3.4885773072
 20
24.5068477998
 10
3.4885204975
 20
24.508131094
 10
3.4877102711
 20
24.5115687679
 10
3.4859825914
 20
24.5143907293
 10
3.4833824246
 20
24.5166480175
 10
3.4817655412
 20
24.5175741519
  0
LWPOLYLINE
  5
2A1
100
AcDbEntity
  8
RACCORDO
100
AcDbPolyline
 62
7
  6
CONTINUOUS
 90
23
 70
0
 10
4.6625442809
 20
16.8580779173
 10
4.6628626889
 20
16.845464365
 10
4.6638213056
 20
16.8328414168
 10
4.6654230798
 20
16.8202478766
 10
4.6676672398
 20
16.8077268032
 10
4.6705512798
 20
16.7953133781
 10
4.674073104
 20
16.7830346112
 10
4.6782264692
 20
16.7709276844
 10
4.683001324
 20
16.7590323171
 10
4.6883891189
 20
16.7473780377
 10
4.6943774794
 20
16.7359990628
 10
4.7009495206
 20
16.724932668
 10
4.7080889544
 20
16.7142098545
 10
4.7157787474
 20
16.7038594852
 10
4.7239960673
 20
16.693914672
 10
4.732715101
 20
16.6844073496
 10
4.741916317
 20
16.6753592869
 10
4.7515727665
 20
16.6667975692
 10
4.7616471684
 20
16.6587539061
 10
4.7721197181
 20
16.6512423736
 10
4.7829624082
 20
16.6442823648
 10
4.794126158
 20
16.6379026503
 10
4.8007472079
 20
16.6344679569
  0
LWPOLYLINE
  5
2A2
100
AcDbEntity
  8
RACCORDO
100
AcDbPolyline
 62
253
  6
CONTINUOUS
 90
18
 70
0
 10
4.7357675856
 20
-24.8698885039
 10
4.7360080611
 20
-24.8810574043
 10
4.7367288333
 20
-24.8919554423
 10
4.7379279412
 20
-24.902552968
 10
4.7396021225
 20
-24.9128211491
 10
4.7417468222
 20
-24.922732049
 10
4.7443562053
 20
-24.9322587037
 10
4.7474231727
 20
-24.9413751942
 10
4.7509393799
 20
-24.9500567176
 10
4.7548952607
 20
-24.9582796543
 10
4.7592800524
 20
-24.9660216324
 10
4.7640818254
 20
-24.9732615885
 10
4.7692875157
 20
-24.9799798252
 10
4.7748829603
 20
-24.9861580642
 10
4.7808529358
 20
-24.9917794968
 10
4.7871812
 20
-24.9968288287
 10
4.7938505357
 20
-25.0012923226
 10
4.800740882
 20
-25.005106954
  0
LWPOLYLINE
  5
2A3
100
AcDbEntity
  8
RACCORDO
100
AcDbPolyline
 62
253
  6
CONTINUOUS
 90
18
 70
0
 10
6.0607522654
 20
-25.5323808438
 10
6.0609928467
 20
-25.543552172
 10
6.0617139379
 20
-25.5544525374
 10
6.0629135797
 20
-25.5650522687
 10
6.0645885122
 20
-25.5753225229
 10
6.0667341787
 20
-25.5852353314
 10
6.0693447333
 20
-25.5947636806
 10
6.0724130668
 20
-25.6038816292
 10
6.0759308281
 20
-25.6125643674
 10
6.0798884373
 20
-25.6207882551
 10
6.0842751192
 20
-25.6285309088
 10
6.0890789322
 20
-25.6357712579
 10
6.0942867968
 20
-25.6424895952
 10
6.0998845422
 20
-25.6486676446
 10
6.1058569238
 20
-25.6542885854
 10
6.1121876581
 20
-25.6593371033
 10
6.118859479
 20
-25.6637994501
 10
6.1257195569
 20
-25.6675962912
  0
LWPOLYLINE
  5
2A4
100
AcDbEntity
  8
RACCORDO
100
AcDbPolyline
 62
253
  6
CONTINUOUS
 90
19
 70
0
 10
4.7357675856
 20
16.7696895696
 10
4.7359864568
 20
16.7590285774
 10
4.7366430125
 20
16.7486071608
 10
4.7377363502
 20
16.7384515835
 10
4.7392648
 20
16.7285857294
 10
4.7412251186
 20
16.7190365327
 10
4.7436117017
 20
16.7098332966
 10
4.7464180344
 20
16.70100057
 10
4.7496375515
 20
16.6925585292
 10
4.7532623207
 20
16.6845280147
 10
4.7572834038
 20
16.6769289294
 10
4.7616907769
 20
16.6697803076
 10
4.7664734048
 20
16.66310008
 10
4.7716193777
 20
16.6569048789
 10
4.7771159066
 20
16.6512100987
 10
4.7829492499
 20
16.6460299624
 10
4.7891048387
 20
16.641377371
 10
4.7955673939
 20
16.6372638385
 10
4.8007408841
 20
16.6344711185
  0
LINE
  5
2A5
100
AcDbEntity
  8
RACCORDO
100
AcDbLine
 62
7
  6
CONTINUOUS
 10
4.6625442809
 20
17.1980518514
 11
4.6625442809
 21
16.8580779173
  0
LINE
  5
2A6
100
AcDbEntity
  8
RACCORDO
100
AcDbLine
 62
7
  6
CONTINUOUS
 10
4.6625442809
 20
-24.6550008606
 11
4.6625442809
 21
-24.7815001563
  0
LINE
  5
2A7
100
AcDbEntity
  8
RACCORDO
100
AcDbLine
 62
253
  6
CONTINUOUS
 10
4.7357675856
 20
17.1096635037
 11
4.7357675856
 21
16.7696895696
  0
LINE
  5
2A8
100
AcDbEntity
  8
RACCORDO
100
AcDbLine
 62
253
  6
CONTINUOUS
 10
4.7357675856
 20
-24.6242646915
 11
4.7357675856
 21
-24.8698885039
  0
LINE
  5
2A9
100
AcDbEntity
  8
RACCORDO
100
AcDbLine
 62
7
  6
CONTINUOUS
 10
5.3655372352
 20
15.89810075
 11
5.3655372352
 21
16.3520729429
  0
LINE
  5
2AA
100
AcDbEntity
  8
RACCORDO
100
AcDbLine
 62
253
  6
CONTINUOUS
 10
5.4387605399
 20
15.8063871464
 11
5.4387605399
 21
16.3154612906
  0
LINE
  5
2AB
100
AcDbEntity
  8
RACCORDO
100
AcDbLine
 62
253
  6
CONTINUOUS
 10
6.0607522654
 20
-25.5323808438
 11
6.0607522654
 21
-25.0674069097
  0
LINE
  5
2AC
100
AcDbEntity
  8
RACCORDO
100
AcDbLine
 62
253
  6
CONTINUOUS
 10
6.0607522654
 20
16.1071972297
 11
6.0607522654
 21
16.4471711638
  0
LWPOLYLINE
  5
2AD
100
AcDbEntity
  8
RACCORDO
100
AcDbPolyline
 62
253
  6
CONTINUOUS
 90
31
 70
0
 10
4.7357675856
 20
17.1096635037
 10
4.7360080611
 20
17.1210728796
 10
4.7367288333
 20
17.1326916898
 10
4.7379279412
 20
17.1444883235
 10
4.7396021225
 20
17.1564306857
 10
4.7417468222
 20
17.1684862854
 10
4.7443562053
 20
17.1806223233
 10
4.7474231727
 20
17.1928057811
 10
4.7509393799
 20
17.2050035118
 10
4.7548952607
 20
17.2171823293
 10
4.7592800524
 20
17.229309099
 10
4.7640818254
 20
17.2413508282
 10
4.7692875157
 20
17.2532747551
 10
4.7748829603
 20
17.2650484388
 10
4.7808529358
 20
17.2766398468
 10
4.7871812
 20
17.288017443
 10
4.7938505357
 20
17.2991502725
 10
4.8008427978
 20
17.3100080466
 10
4.8081389628
 20
17.3205612248
 10
4.8157191801
 20
17.3307810956
 10
4.8235628265
 20
17.340639854
 10
4.831648562
 20
17.3501106775
 10
4.8399543881
 20
17.3591677993
 10
4.8484577072
 20
17.3677865777
 10
4.8571353848
 20
17.3759435641
 10
4.8659638116
 20
17.383616566
 10
4.8749189685
 20
17.3907847076
 10
4.8839764915
 20
17.3974284867
 10
4.8931117379
 20
17.403529828
 10
4.9022998539
 20
17.4090721316
 10
4.9115158416
 20
17.4140403187
  0
LWPOLYLINE
  5
2AE
100
AcDbEntity
  8
RACCORDO
100
AcDbPolyline
 62
253
  6
CONTINUOUS
 90
31
 70
0
 10
6.0607522654
 20
16.4471711638
 10
6.0609928467
 20
16.4585830732
 10
6.0617139379
 20
16.4702045299
 10
6.0629135797
 20
16.482003903
 10
6.0645885122
 20
16.4939490896
 10
6.0667341787
 20
16.5060075647
 10
6.0693447333
 20
16.5181464684
 10
6.0724130668
 20
16.5303327506
 10
6.0759308281
 20
16.54253325
 10
6.0798884373
 20
16.5547147469
 10
6.0842751192
 20
16.5668440825
 10
6.0890789322
 20
16.5788882447
 10
6.0942867968
 20
16.5908144467
 10
6.0998845422
 20
16.6025902414
 10
6.1058569238
 20
16.6141835638
 10
6.1121876581
 20
16.625562816
 10
6.118859479
 20
16.6366969837
 10
6.1258542474
 20
16.6475558153
 10
6.1331529842
 20
16.6581098513
 10
6.1407359268
 20
16.6683304941
 10
6.1485823452
 20
16.6781897829
 10
6.1566706365
 20
16.6876605992
 10
6.1649786042
 20
16.6967170272
 10
6.1734837766
 20
16.7053346438
 10
6.1821632393
 20
16.7134902577
 10
6.1909953298
 20
16.7211633062
 10
6.1999541128
 20
16.7283310538
 10
6.2090094497
 20
16.7349699603
 10
6.2181346185
 20
16.7410617577
 10
6.227306623
 20
16.746592405
 10
6.2365005214
 20
16.7515479788
  0
LWPOLYLINE
  5
2AF
100
AcDbEntity
  8
RACCORDO
100
AcDbPolyline
 62
253
  6
CONTINUOUS
 90
21
 70
0
 10
2.8596494923
 20
-25.1951491976
 10
2.8583615336
 20
-25.2159412837
 10
2.8562905915
 20
-25.2362794134
 10
2.8534413517
 20
-25.2561175677
 10
2.8498202614
 20
-25.2754108592
 10
2.8454355138
 20
-25.294115633
 10
2.8402970303
 20
-25.3121895662
 10
2.8344164376
 20
-25.3295917631
 10
2.8278070418
 20
-25.3462828478
 10
2.8204837978
 20
-25.3622250538
 10
2.8124632758
 20
-25.3773823086
 10
2.8037636239
 20
-25.3917203163
 10
2.7944045265
 20
-25.4052066343
 10
2.7844071604
 20
-25.4178107474
 10
2.7737941465
 20
-25.4295041362
 10
2.7625894988
 20
-25.4402603424
 10
2.7508185699
 20
-25.450055028
 10
2.7385079938
 20
-25.4588660307
 10
2.7256856254
 20
-25.4666734139
 10
2.7123804777
 20
-25.473459512
 10
2.7058422469
 20
-25.476344896
  0
LWPOLYLINE
  5
2B0
100
AcDbEntity
  8
RACCORDO
100
AcDbPolyline
 62
253
  6
CONTINUOUS
 90
31
 70
0
 10
6.4132742251
 20
16.44665844
 10
6.4129792482
 20
16.4580841477
 10
6.412203395
 20
16.4697222008
 10
6.4109487919
 20
16.4815407016
 10
6.4092188776
 20
16.4935072579
 10
6.4070183934
 20
16.5055890715
 10
6.4043533705
 20
16.5177530285
 10
6.4012311132
 20
16.5299657897
 10
6.397660179
 20
16.5421938822
 10
6.3936503552
 20
16.5544037912
 10
6.3892126319
 20
16.5665620515
 10
6.3843591722
 20
16.5786353397
 10
6.3791032783
 20
16.5905905651
 10
6.3734593559
 20
16.6023949607
 10
6.3674428737
 20
16.6140161729
 10
6.3610703218
 20
16.6254223501
 10
6.3543591663
 20
16.6365822301
 10
6.3473278011
 20
16.6474652258
 10
6.3399954978
 20
16.658041509
 10
6.332382353
 20
16.6682820919
 10
6.3245092329
 20
16.6781589072
 10
6.3163977161
 20
16.6876448843
 10
6.3080700349
 20
16.6967140239
 10
6.2995490138
 20
16.7053414692
 10
6.2908580074
 20
16.713503574
 10
6.2820208361
 20
16.7211779675
 10
6.2730617209
 20
16.7283436157
 10
6.264005217
 20
16.7349808788
 10
6.2548761467
 20
16.7410715653
 10
6.2456995311
 20
16.7465989818
 10
6.2365005214
 20
16.7515479788
  0
LWPOLYLINE
  5
2B1
100
AcDbEntity
  8
RACCORDO
100
AcDbPolyline
 62
7
  6
CONTINUOUS
 90
23
 70
0
 10
8.6150200447
 20
-24.0464437604
 10
8.6147016367
 20
-24.0338302081
 10
8.61374302
 20
-24.02120726
 10
8.6121412457
 20
-24.0086137198
 10
8.6098970858
 20
-23.9960926464
 10
8.6070130458
 20
-23.9836792213
 10
8.6034912216
 20
-23.9714004544
 10
8.5993378564
 20
-23.9592935276
 10
8.5945630015
 20
-23.9473981603
 10
8.5891752067
 20
-23.9357438808
 10
8.5831868461
 20
-23.924364906
 10
8.5766148049
 20
-23.9132985112
 10
8.5694753711
 20
-23.9025756977
 10
8.5617855781
 20
-23.8922253283
 10
8.5535682583
 20
-23.8822805151
 10
8.5448492245
 20
-23.8727731928
 10
8.5356480085
 20
-23.86372513
 10
8.525991559
 20
-23.8551634124
 10
8.5159171572
 20
-23.8471197493
 10
8.5054446074
 20
-23.8396082168
 10
8.4946019174
 20
-23.832648208
 10
8.4834381676
 20
-23.8262684935
 10
8.4768171176
 20
-23.8228338
  0
LWPOLYLINE
  5
2B2
100
AcDbEntity
  8
RACCORDO
100
AcDbPolyline
 62
253
  6
CONTINUOUS
 90
19
 70
0
 10
6.0607522654
 20
16.1071972297
 10
6.0609711366
 20
16.0965362375
 10
6.0616276923
 20
16.0861148209
 10
6.06272103
 20
16.0759592436
 10
6.0642494798
 20
16.0660933895
 10
6.0662097984
 20
16.0565441928
 10
6.0685963815
 20
16.0473409567
 10
6.0714027143
 20
16.0385082301
 10
6.0746222313
 20
16.0300661893
 10
6.0782470005
 20
16.0220356748
 10
6.0822680836
 20
16.0144365895
 10
6.0866754568
 20
16.0072879677
 10
6.0914580846
 20
16.0006077401
 10
6.0966040575
 20
15.994412539
 10
6.1021005864
 20
15.9887177588
 10
6.1079339297
 20
15.9835376225
 10
6.1140895185
 20
15.9788850311
 10
6.1205520737
 20
15.9747714986
 10
6.125725564
 20
15.9719787785
  0
LWPOLYLINE
  5
2B3
100
AcDbEntity
  8
RACCORDO
100
AcDbPolyline
 62
7
  6
CONTINUOUS
 90
22
 70
0
 10
6.1407220458
 20
23.7640858645
 10
6.1403194817
 20
23.7864728133
 10
6.1391239512
 20
23.8083489597
 10
6.1371354542
 20
23.8297143037
 10
6.1343448192
 20
23.8506174727
 10
6.1307612177
 20
23.8710098394
 10
6.1264121642
 20
23.8907455218
 10
6.121300198
 20
23.9097971795
 10
6.1154227797
 20
23.9281921529
 10
6.1087998057
 20
23.945866582
 10
6.1014170565
 20
23.9628413889
 10
6.0932887515
 20
23.9790956515
 10
6.0844774448
 20
23.994502743
 10
6.0749901939
 20
24.0090381494
 10
6.0648199412
 20
24.0227263847
 10
6.0540080688
 20
24.0355143639
 10
6.0425435731
 20
24.0474084025
 10
6.0304374575
 20
24.0584021851
 10
6.0177641141
 20
24.0684236803
 10
6.0045188296
 20
24.0774648096
 10
5.9907063172
 20
24.0855336516
 10
5.9847677851
 20
24.0886158414
  0
LINE
  5
2B4
100
AcDbEntity
  8
RACCORDO
100
AcDbLine
 62
7
  6
CONTINUOUS
 10
6.1407220458
 20
23.7640858645
 11
6.1407220458
 21
23.1498852953
  0
LINE
  5
2B5
100
AcDbEntity
  8
RACCORDO
100
AcDbLine
 62
253
  6
CONTINUOUS
 10
6.4132742251
 20
-25.5328935677
 11
6.4132742251
 21
-25.1929196335
  0
LINE
  5
2B6
100
AcDbEntity
  8
RACCORDO
100
AcDbLine
 62
253
  6
CONTINUOUS
 10
6.4132742251
 20
16.1066845058
 11
6.4132742251
 21
16.44665844
  0
LINE
  5
2B7
100
AcDbEntity
  8
RACCORDO
100
AcDbLine
 62
253
  6
CONTINUOUS
 10
6.7719728735
 20
-24.2159104325
 11
6.7719728735
 21
-23.7695484195
  0
LINE
  5
2B8
100
AcDbEntity
  8
RACCORDO
100
AcDbLine
 62
253
  6
CONTINUOUS
 10
6.7719728735
 20
15.1397809796
 11
6.7719728735
 21
15.8286016025
  0
LINE
  5
2B9
100
AcDbEntity
  8
RACCORDO
100
AcDbLine
 62
253
  6
CONTINUOUS
 10
7.1244948332
 20
-24.3414231564
 11
7.1244948332
 21
-23.6215740198
  0
LINE
  5
2BA
100
AcDbEntity
  8
RACCORDO
100
AcDbLine
 62
253
  6
CONTINUOUS
 10
7.1244948332
 20
15.149680159
 11
7.1244948332
 21
15.958180983
  0
LINE
  5
2BB
100
AcDbEntity
  8
RACCORDO
100
AcDbLine
 62
7
  6
CONTINUOUS
 10
8.0145550159
 20
-23.2479629081
 11
8.0145550159
 21
-24.752858968
  0
LINE
  5
2BC
100
AcDbEntity
  8
RACCORDO
100
AcDbLine
 62
7
  6
CONTINUOUS
 10
8.0145550159
 20
15.6469612869
 11
8.0145550159
 21
17.2493804435
  0
LWPOLYLINE
  5
2BD
100
AcDbEntity
  8
RACCORDO
100
AcDbPolyline
 62
7
  6
CONTINUOUS
 90
4
 70
0
 10
8.615020037
 20
17.165272493
 10
8.6150019358
 20
17.1648544054
 10
8.614583408
 20
17.1633120899
 10
8.6139649706
 20
17.1623490751
  0
LWPOLYLINE
  5
2BE
100
AcDbEntity
  8
RACCORDO
100
AcDbPolyline
 62
253
  6
CONTINUOUS
 90
16
 70
0
 10
8.6150200447
 20
17.6006918957
 10
8.6147168236
 20
17.5945372514
 10
8.6137353178
 20
17.5880357422
 10
8.61207714
 20
17.5815686661
 10
8.6097468015
 20
17.5751536181
 10
8.6067506423
 20
17.5688080513
 10
8.6030968141
 20
17.5625492298
 10
8.5987952577
 20
17.556394182
 10
8.5938576762
 20
17.5503596536
 10
8.5882975031
 20
17.5444620626
 10
8.5821298659
 20
17.5387174543
 10
8.5753715446
 20
17.5331414581
 10
8.5680409264
 20
17.5277492443
 10
8.5601579554
 20
17.5225554833
 10
8.5517440787
 20
17.5175743056
 10
8.5428221877
 20
17.5128192635
  0
LWPOLYLINE
  5
2BF
100
AcDbEntity
  8
RACCORDO
100
AcDbPolyline
 62
253
  6
CONTINUOUS
 90
14
 70
0
 10
-4.8214959768
 20
23.847446829
 10
-4.8171484157
 20
23.8400939599
 10
-4.8132982673
 20
23.8330011317
 10
-4.8099560456
 20
23.8261877134
 10
-4.8071308775
 20
23.8196723111
 10
-4.8048304778
 20
23.813472717
 10
-4.8030611286
 20
23.8076058608
 10
-4.8018276615
 20
23.8020877637
 10
-4.8011334449
 20
23.7969334945
 10
-4.8009803746
 20
23.7921571284
 10
-4.8013688685
 20
23.7877717087
 10
-4.8022978657
 20
23.7837892109
 10
-4.8037648294
 20
23.7802205106
 10
-4.805721722
 20
23.7771445641
  0
LWPOLYLINE
  5
2C0
100
AcDbEntity
  8
ASSI
100
AcDbPolyline
 62
7
  6
CONTINUOUS
 90
6
 70
0
 10
9.0435657458
 20
21.7293489241
 10
9.0435272834
 20
21.7304092212
 10
9.0427790461
 20
21.7338719127
 10
9.0411171786
 20
21.7367221141
 10
9.0385864608
 20
21.7390099795
 10
9.0367499049
 20
21.7400819611
  0
LWPOLYLINE
  5
2C1
100
AcDbEntity
  8
RACCORDO
100
AcDbPolyline
 62
7
  6
CONTINUOUS
 90
20
 70
0
 10
8.6150200447
 20
17.6006918957
 10
8.6146145773
 20
17.6149245114
 10
8.6133913933
 20
17.6291817522
 10
8.611343806
 20
17.6434072862
 10
8.6084698083
 20
17.6575444463
 10
8.604772503
 20
17.6715350932
 10
8.6002600626
 20
17.6853212874
 10
8.5949460596
 20
17.6988449779
 10
8.5888468848
 20
17.7120541223
 10
8.5819795064
 20
17.724903779
 10
8.5743664245
 20
17.7373450813
 10
8.5660353716
 20
17.7493284937
 10
8.5570119567
 20
17.7608140544
 10
8.5473217934
 20
17.7717651908
 10
8.5370020038
 20
17.7821366688
 10
8.5260949352
 20
17.7918852001
 10
8.5146262247
 20
17.8009866555
 10
8.5026381952
 20
17.8094052029
 10
8.490197376
 20
17.8170957675
 10
8.4768163414
 20
17.8243022441
  0
LWPOLYLINE
  5
2C2
100
AcDbEntity
  8
RACCORDO
100
AcDbPolyline
 62
7
  6
CONTINUOUS
 90
34
 70
0
 10
8.0145550159
 20
17.2493804435
 10
8.0143549599
 20
17.2597822521
 10
8.0137547224
 20
17.2703606201
 10
8.0127557644
 20
17.2810916382
 10
8.0113605289
 20
17.2919510914
 10
8.0095721806
 20
17.3029143838
 10
8.0073945993
 20
17.3139565948
 10
8.0048327748
 20
17.3250527417
 10
8.0018926005
 20
17.3361777351
 10
7.9985806055
 20
17.3473063055
 10
7.9949043284
 20
17.3584132634
 10
7.9908721682
 20
17.3694734845
 10
7.9864931709
 20
17.3804618658
 10
7.9817772703
 20
17.3913535234
 10
7.9767352003
 20
17.4021238105
 10
7.9713783397
 20
17.4127483018
 10
7.9657188154
 20
17.4232029263
 10
7.9597694775
 20
17.4334640164
 10
7.9535438057
 20
17.4435083228
 10
7.9470558732
 20
17.4533130777
 10
7.9403203843
 20
17.4628560748
 10
7.9333526451
 20
17.472115715
 10
7.9261683881
 20
17.4810709974
 10
7.9187838724
 20
17.4897016294
 10
7.9112159181
 20
17.4979881022
 10
7.9034815965
 20
17.5059116095
 10
7.8955983906
 20
17.5134541855
 10
7.8875842911
 20
17.5205988093
 10
7.8794573608
 20
17.5273292521
 10
7.8712359497
 20
17.5336302406
 10
7.862938853
 20
17.5394875879
 10
7.8545848596
 20
17.5448880247
 10
7.8461927105
 20
17.5498192293
 10
7.8377813122
 20
17.5542699823
  0
LWPOLYLINE
  5
2C3
100
AcDbEntity
  8
RACCORDO
100
AcDbPolyline
 62
253
  6
CONTINUOUS
 90
31
 70
0
 10
8.5428221877
 20
17.5128192635
 10
8.5426330669
 20
17.5242697725
 10
8.5419588836
 20
17.5359361262
 10
8.5408005676
 20
17.5477868244
 10
8.5391599862
 20
17.5597922862
 10
8.537040924
 20
17.5719174046
 10
8.5344500725
 20
17.5841214342
 10
8.5313952552
 20
17.5963682271
 10
8.5278843331
 20
17.6086268663
 10
8.5239268156
 20
17.6208640861
 10
8.5195334272
 20
17.6330465687
 10
8.5147162509
 20
17.6451406691
 10
8.5094886242
 20
17.6571128594
 10
8.5038649593
 20
17.6689301621
 10
8.497860614
 20
17.6805603321
 10
8.491491998
 20
17.6919715802
 10
8.4847765382
 20
17.7031326597
 10
8.477732668
 20
17.7140129146
 10
8.470379725
 20
17.7245824655
 10
8.4627378783
 20
17.7348123172
 10
8.4548280717
 20
17.7446744295
 10
8.4466719955
 20
17.7541417545
 10
8.4382920111
 20
17.7631883321
 10
8.4297110972
 20
17.7717893522
 10
8.4209527903
 20
17.7799212207
 10
8.4120411001
 20
17.7875616432
 10
8.4030004682
 20
17.7946896627
 10
8.3938557106
 20
17.8012857142
 10
8.3846319123
 20
17.8073317089
 10
8.3753543569
 20
17.8128110787
 10
8.366048484
 20
17.8177088023
  0
LINE
  5
2C4
100
AcDbEntity
  8
RACCORDO
100
AcDbLine
 62
253
  6
CONTINUOUS
 10
8.5428221877
 20
17.5128192635
 11
8.5428221877
 21
17.1652877468
  0
LINE
  5
2C5
100
AcDbEntity
  8
RACCORDO
100
AcDbLine
 62
253
  6
CONTINUOUS
 10
8.5428221877
 20
-24.1343163926
 11
8.5428221877
 21
-24.4818479094
  0
LINE
  5
2C6
100
AcDbEntity
  8
RACCORDO
100
AcDbLine
 62
7
  6
CONTINUOUS
 10
8.6150200447
 20
17.6006918957
 11
8.6150200447
 21
17.1654474167
  0
LINE
  5
2C7
100
AcDbEntity
  8
RACCORDO
100
AcDbLine
 62
7
  6
CONTINUOUS
 10
8.6150200447
 20
-24.0464437604
 11
8.6150200447
 21
-24.3939752772
  0
LINE
  5
2C8
100
AcDbEntity
  8
ASSI
100
AcDbLine
 62
253
  6
CONTINUOUS
 10
8.9199717037
 20
20.4932699056
 11
8.9199717037
 21
21.7203198729
  0
LINE
  5
2C9
100
AcDbEntity
  8
RACCORDO
100
AcDbLine
 62
7
  6
CONTINUOUS
 10
9.0435657676
 20
20.6414335264
 11
9.0435657676
 21
21.7291100155
  0
LINE
  5
2CA
100
AcDbEntity
  8
RACCORDO
100
AcDbLine
 62
7
  6
CONTINUOUS
 10
9.0752151877
 20
-22.5332787823
 11
9.0752151877
 21
15.3833536483
  0
LWPOLYLINE
  5
2CB
100
AcDbEntity
  8
RACCORDO
100
AcDbPolyline
 62
7
  6
CONTINUOUS
 90
22
 70
0
 10
8.3573387648
 20
-22.8874425496
 10
8.3567193109
 20
-22.9052884208
 10
8.3555100841
 20
-22.9228293959
 10
8.3537091615
 20
-22.9400340581
 10
8.3513152656
 20
-22.9568691135
 10
8.3483290932
 20
-22.9733061312
 10
8.3447524188
 20
-22.9893209213
 10
8.3405882089
 20
-23.004877634
 10
8.3358378656
 20
-23.01995192
 10
8.3304990118
 20
-23.0345345407
 10
8.3245729354
 20
-23.0485958479
 10
8.3180637324
 20
-23.0621027086
 10
8.3109705731
 20
-23.0750369038
 10
8.3032907819
 20
-23.087376375
 10
8.295035527
 20
-23.0990781253
 10
8.2862272553
 20
-23.1100943436
 10
8.2768725497
 20
-23.1204018297
 10
8.266986451
 20
-23.1299697457
 10
8.2566123799
 20
-23.1387495329
 10
8.2457663378
 20
-23.1467249975
 10
8.2344690483
 20
-23.1538782936
 10
8.2226938239
 20
-23.1602177617
  0
LWPOLYLINE
  5
2CC
100
AcDbEntity
  8
RACCORDO
100
AcDbPolyline
 62
253
  6
CONTINUOUS
 90
16
 70
0
 10
8.6150200447
 20
-24.3939752739
 10
8.6147187741
 20
-24.400110106
 10
8.6137390555
 20
-24.4066130542
 10
8.6120823665
 20
-24.4130816185
 10
8.609753215
 20
-24.4194981852
 10
8.6067579348
 20
-24.4258452963
 10
8.6031046759
 20
-24.4321056731
 10
8.5988033778
 20
-24.4382622763
 10
8.5938657453
 20
-24.4442983467
 10
8.58830522
 20
-24.4501974492
 10
8.5821369309
 20
-24.4559435306
 10
8.5753776696
 20
-24.4615209463
 10
8.5680458557
 20
-24.4669144985
 10
8.5601614576
 20
-24.472109503
 10
8.5517459318
 20
-24.4770918265
 10
8.5428221877
 20
-24.4818479094
  0
LWPOLYLINE
  5
2CD
100
AcDbEntity
  8
RACCORDO
100
AcDbPolyline
 62
253
  6
CONTINUOUS
 90
16
 70
0
 10
8.6150200447
 20
-24.0464437604
 10
8.6147168236
 20
-24.0525984047
 10
8.6137353178
 20
-24.0590999139
 10
8.61207714
 20
-24.06556699
 10
8.6097468015
 20
-24.071982038
 10
8.6067506423
 20
-24.0783276049
 10
8.6030968141
 20
-24.0845864263
 10
8.5987952577
 20
-24.0907414741
 10
8.5938576762
 20
-24.0967760025
 10
8.5882975031
 20
-24.1026735936
 10
8.5821298659
 20
-24.1084182018
 10
8.5753715446
 20
-24.113994198
 10
8.5680409264
 20
-24.1193864119
 10
8.5601579554
 20
-24.1245801728
 10
8.5517440787
 20
-24.1295613505
 10
8.5428221877
 20
-24.1343163926
  0
LINE
  5
2CE
100
AcDbEntity
  8
RACCORDO
100
AcDbLine
 62
253
  6
CONTINUOUS
 10
1.4778783591
 20
10.905806524
 11
-13.3469677185
 21
18.3182295628
  0
LWPOLYLINE
  5
2CF
100
AcDbEntity
  8
RACCORDO
100
AcDbPolyline
 62
7
  6
CONTINUOUS
 90
18
 70
0
 10
13.7712475477
 20
-17.055405846
 10
13.7709874952
 20
-17.0473138993
 10
13.7696808495
 20
-17.0355592099
 10
13.7672688546
 20
-17.023877987
 10
13.7637563645
 20
-17.012253332
 10
13.7591597481
 20
-17.0007380738
 10
13.7534656216
 20
-16.9893179275
 10
13.7466873688
 20
-16.9780071779
 10
13.7388815103
 20
-16.9669015084
 10
13.7300496877
 20
-16.9560145761
 10
13.7201902594
 20
-16.9453327239
 10
13.7093548211
 20
-16.934910664
 10
13.6975286357
 20
-16.9247414319
 10
13.6847264404
 20
-16.9148319922
 10
13.6710440421
 20
-16.9052579505
 10
13.6565133767
 20
-16.8960445087
 10
13.6411025083
 20
-16.8871664648
 10
13.624811437
 20
-16.8786238189
  0
LWPOLYLINE
  5
2D0
100
AcDbEntity
  8
RACCORDO
100
AcDbPolyline
 62
7
  6
CONTINUOUS
 90
40
 70
0
 10
13.3007610548
 20
-15.0243481252
 10
13.300717468
 20
-15.0177871646
 10
13.2999716443
 20
-14.9962772367
 10
13.2983261491
 20
-14.9747940301
 10
13.2958067128
 20
-14.9533429719
 10
13.2924388846
 20
-14.9319577513
 10
13.2882553201
 20
-14.9107135463
 10
13.2832824796
 20
-14.8896390871
 10
13.2775389378
 20
-14.8687451477
 10
13.2710544722
 20
-14.8480905667
 10
13.2638513305
 20
-14.827703591
 10
13.255943
 20
-14.807597755
 10
13.2473533061
 20
-14.7878160899
 10
13.2380939191
 20
-14.7683764523
 10
13.2281782799
 20
-14.7493071318
 10
13.2176370344
 20
-14.7306664698
 10
13.2064769172
 20
-14.7124718077
 10
13.1947117498
 20
-14.6947544661
 10
13.1823829713
 20
-14.6775851216
 10
13.1695002978
 20
-14.6609868898
 10
13.156074228
 20
-14.6449842116
 10
13.1421442447
 20
-14.6296381478
 10
13.1277169625
 20
-14.6149685094
 10
13.1128039973
 20
-14.6010025151
 10
13.0974511514
 20
-14.587800289
 10
13.0816347906
 20
-14.5753576914
 10
13.0653966524
 20
-14.5637285404
 10
13.048894476
 20
-14.5530324847
 10
13.0321640652
 20
-14.5432821266
 10
13.0152159854
 20
-14.5344774971
 10
12.9981946621
 20
-14.5266795747
 10
12.9811883072
 20
-14.5198969821
 10
12.9641782114
 20
-14.5140932154
 10
12.9471640773
 20
-14.5092481965
 10
12.930184698
 20
-14.505352826
 10
12.913274525
 20
-14.5023953086
 10
12.8964358656
 20
-14.5003606292
 10
12.8797142314
 20
-14.4992398025
 10
12.8631441922
 20
-14.4990182665
 10
12.8509386466
 20
-14.4994275715
  0
LINE
  5
2D1
100
AcDbEntity
  8
RACCORDO
100
AcDbLine
 62
253
  6
CONTINUOUS
 10
13.2430029969
 20
-16.8283182036
 11
13.2430029969
 21
-15.0946282564
  0
LINE
  5
2D2
100
AcDbEntity
  8
RACCORDO
100
AcDbLine
 62
253
  6
CONTINUOUS
 10
13.2430029969
 20
17.6378537274
 11
13.2430029969
 21
18.7699427489
  0
LINE
  5
2D3
100
AcDbEntity
  8
RACCORDO
100
AcDbLine
 62
7
  6
CONTINUOUS
 10
13.3007612824
 20
-16.7580200978
 11
13.3007612824
 21
-15.0243301487
  0
LINE
  5
2D4
100
AcDbEntity
  8
RACCORDO
100
AcDbLine
 62
7
  6
CONTINUOUS
 10
13.3007612824
 20
17.7081518332
 11
13.3007612824
 21
18.7998479767
  0
LINE
  5
2D5
100
AcDbEntity
  8
RACCORDO
100
AcDbLine
 62
253
  6
CONTINUOUS
 10
13.6309279466
 20
19.5475484149
 11
13.6309279466
 21
18.9707967714
  0
LINE
  5
2D6
100
AcDbEntity
  8
RACCORDO
100
AcDbLine
 62
253
  6
CONTINUOUS
 10
13.6309279466
 20
-17.2290651068
 11
13.6309279466
 21
-17.8058167503
  0
LINE
  5
2D7
100
AcDbEntity
  8
RACCORDO
100
AcDbLine
 62
7
  6
CONTINUOUS
 10
13.7712580465
 20
19.8482809001
 11
13.7712580465
 21
19.144461364
  0
LINE
  5
2D8
100
AcDbEntity
  8
RACCORDO
100
AcDbLine
 62
7
  6
CONTINUOUS
 10
13.7712580465
 20
-17.0554005142
 11
13.7712580465
 21
-17.7592200502
  0
LWPOLYLINE
  5
2D9
100
AcDbEntity
  8
RACCORDO
100
AcDbPolyline
 62
7
  6
CONTINUOUS
 90
18
 70
0
 10
13.7712475477
 20
19.1444560321
 10
13.7711936458
 20
19.1407367215
 10
13.7702974943
 20
19.1289724204
 10
13.7682935976
 20
19.117271929
 10
13.7651873989
 20
19.1056183938
 10
13.7609934205
 20
19.0940647784
 10
13.7556987793
 20
19.0825966833
 10
13.7493163585
 20
19.071228508
 10
13.7418993302
 20
19.0600564145
 10
13.7334488591
 20
19.049094072
 10
13.7239637805
 20
19.0383278113
 10
13.7134937725
 20
19.0278127865
 10
13.7020243435
 20
19.0175419056
 10
13.6895699851
 20
19.0075222606
 10
13.6762238509
 20
18.9978302817
 10
13.662016992
 20
18.9884914455
 10
13.6469183572
 20
18.9794802754
 10
13.6309279466
 20
18.9707967714
  0
LWPOLYLINE
  5
2DA
100
AcDbEntity
  8
RACCORDO
100
AcDbPolyline
 62
7
  6
CONTINUOUS
 90
15
 70
0
 10
13.3007570173
 20
-16.7580208322
 10
13.3006895951
 20
-16.7606334838
 10
13.3000555204
 20
-16.7664136479
 10
13.2987468651
 20
-16.7721654012
 10
13.2967703436
 20
-16.7778890264
 10
13.2941457606
 20
-16.7835271734
 10
13.2908666007
 20
-16.7890789828
 10
13.2869393791
 20
-16.794545314
 10
13.2824034463
 20
-16.799871395
 10
13.2772526825
 20
-16.8050558158
 10
13.2714932075
 20
-16.8100999863
 10
13.2651827305
 20
-16.8149533645
 10
13.2583404879
 20
-16.8195991032
 10
13.2509472434
 20
-16.8240540495
 10
13.2430029969
 20
-16.8283182036
  0
LINE
  5
2DB
100
AcDbEntity
  8
RACCORDO
100
AcDbLine
 62
253
  6
CONTINUOUS
 10
2.4938167523
 20
12.6459244883
 11
-12.3544017085
 21
20.0700337187
  0
LWPOLYLINE
  5
2DC
100
AcDbEntity
  8
RACCORDO
100
AcDbPolyline
 62
253
  6
CONTINUOUS
 90
41
 70
0
 10
13.2430029969
 20
-15.0946282564
 10
13.2449072207
 20
-15.0747081151
 10
13.2460945434
 20
-15.0544776072
 10
13.2465564783
 20
-15.033984186
 10
13.2462800852
 20
-15.0132744717
 10
13.2452664256
 20
-14.9923981977
 10
13.2435312077
 20
-14.9714082468
 10
13.2410737942
 20
-14.9503535897
 10
13.2378947681
 20
-14.9292831981
 10
13.2340154487
 20
-14.9082501193
 10
13.2294414735
 20
-14.8873036721
 10
13.2241787918
 20
-14.8664913034
 10
13.2182526479
 20
-14.845862625
 10
13.2116740695
 20
-14.8254650286
 10
13.2044542442
 20
-14.805344264
 10
13.1966215585
 20
-14.7855462448
 10
13.1881920811
 20
-14.7661156754
 10
13.1791816069
 20
-14.7470953317
 10
13.1696205089
 20
-14.7285265795
 10
13.1595293394
 20
-14.7104507403
 10
13.1489279013
 20
-14.6929066764
 10
13.1378472789
 20
-14.6759302249
 10
13.1263116955
 20
-14.6595584939
 10
13.114344432
 20
-14.6438261645
 10
13.1019764476
 20
-14.6287636296
 10
13.0892348556
 20
-14.6144032664
 10
13.0761459535
 20
-14.6007753943
 10
13.0627403804
 20
-14.5879056156
 10
13.049047835
 20
-14.5758215383
 10
13.0350969277
 20
-14.5645485571
 10
13.0209173003
 20
-14.554107388
 10
13.0065405159
 20
-14.5445205314
 10
12.9919972274
 20
-14.5358084977
 10
12.977316164
 20
-14.5279875837
 10
12.9625304267
 20
-14.5210750935
 10
12.9476722147
 20
-14.5150863707
 10
12.9327692671
 20
-14.5100333517
 10
12.9178558238
 20
-14.5059279727
 10
12.9029652426
 20
-14.5027801931
 10
12.888124237
 20
-14.5005974745
 10
12.8733677163
 20
-14.4993861817
  0
LWPOLYLINE
  5
2DD
100
AcDbEntity
  8
RACCORDO
100
AcDbPolyline
 62
7
  6
CONTINUOUS
 90
13
 70
0
 10
8.6075714373
 20
17.1591591585
 10
8.604546223
 20
17.1586249241
 10
8.6010396914
 20
17.1583025259
 10
8.5970650477
 20
17.1581647989
 10
8.5926374515
 20
17.1582207417
 10
8.5877729673
 20
17.1584799344
 10
8.5824858936
 20
17.1589155797
 10
8.5767926794
 20
17.1595352436
 10
8.5707105852
 20
17.1603471877
 10
8.5642549409
 20
17.1613251784
 10
8.5574425708
 20
17.1624649046
 10
8.5502922028
 20
17.1637838222
 10
8.5428221877
 20
17.1652877468
  0
LWPOLYLINE
  5
2DE
100
AcDbEntity
  8
RACCORDO
100
AcDbPolyline
 62
253
  6
CONTINUOUS
 90
31
 70
0
 10
8.5428221877
 20
-24.1343163926
 10
8.547165329
 20
-24.1220928117
 10
8.5510131379
 20
-24.1096596213
 10
8.5543547066
 20
-24.0970505622
 10
8.557180731
 20
-24.0842987183
 10
8.5594827309
 20
-24.0714399594
 10
8.5612535633
 20
-24.0585129257
 10
8.5624882943
 20
-24.0455542323
 10
8.5631837572
 20
-24.0325979695
 10
8.56333805
 20
-24.0196791986
 10
8.5629507002
 20
-24.0068329933
 10
8.5620227184
 20
-23.9940946613
 10
8.5605566421
 20
-23.9814993159
 10
8.5585564964
 20
-23.9690814715
 10
8.5560277335
 20
-23.956874931
 10
8.5529772523
 20
-23.9449130064
 10
8.549413375
 20
-23.9332283534
 10
8.5453458366
 20
-23.921852909
 10
8.5407857554
 20
-23.9108177727
 10
8.5357455908
 20
-23.9001530943
 10
8.5302391061
 20
-23.8898879944
 10
8.524281342
 20
-23.8800505113
 10
8.5178885616
 20
-23.8706675014
 10
8.5110782348
 20
-23.8617646086
 10
8.5038689969
 20
-23.8533661872
 10
8.4962805675
 20
-23.8454951919
 10
8.4883336574
 20
-23.8381730882
 10
8.4800499405
 20
-23.8314198397
 10
8.4714520299
 20
-23.8252538826
 10
8.4625634212
 20
-23.8196920681
 10
8.4534083923
 20
-23.8147495866
  0
LWPOLYLINE
  5
2DF
100
AcDbEntity
  8
RACCORDO
100
AcDbPolyline
 62
7
  6
CONTINUOUS
 90
31
 70
0
 10
6.810680259
 20
15.8205185085
 10
6.8120988236
 20
15.8202294589
 10
6.822994058
 20
15.8183878118
 10
6.8341348505
 20
15.8171403295
 10
6.8454730497
 20
15.8164923377
 10
6.8569854235
 20
15.8164400033
 10
6.8686434224
 20
15.8169463043
 10
6.8804135706
 20
15.8180107552
 10
6.8922635485
 20
15.8196311046
 10
6.9041683097
 20
15.8217672696
 10
6.9160971865
 20
15.8244163592
 10
6.9280206273
 20
15.8275746414
 10
6.9399169615
 20
15.8312006391
 10
6.9517585728
 20
15.8352896374
 10
6.9635187146
 20
15.8398366566
 10
6.9751785453
 20
15.8447998785
 10
6.9867134911
 20
15.8501732183
 10
6.9980996214
 20
15.8559506387
 10
7.0093203696
 20
15.8620905381
 10
7.0203541071
 20
15.8685857797
 10
7.031179699
 20
15.8754294432
 10
7.0417824478
 20
15.8825804125
 10
7.0521435537
 20
15.8900307062
 10
7.0622446589
 20
15.8977726937
 10
7.07207274
 20
15.9057659164
 10
7.0816117199
 20
15.9140016773
 10
7.0908460203
 20
15.9224718187
 10
7.0997643235
 20
15.9311367832
 10
7.1083539905
 20
15.9399775279
 10
7.1166013708
 20
15.9489953196
 10
7.1244948332
 20
15.958180983
  0
LINE
  5
2E0
100
AcDbEntity
  8
RACCORDO
100
AcDbLine
 62
7
  6
CONTINUOUS
 10
6.1864307316
 20
15.9508633451
 11
6.810835981
 21
15.8204869496
  0
LINE
  5
2E1
100
AcDbEntity
  8
RACCORDO
100
AcDbLine
 62
253
  6
CONTINUOUS
 10
6.4132742251
 20
16.1066845058
 11
7.1244948332
 21
15.958180983
  0
LWPOLYLINE
  5
2E2
100
AcDbEntity
  8
RACCORDO
100
AcDbPolyline
 62
253
  6
CONTINUOUS
 90
31
 70
0
 10
6.0607522654
 20
16.1071972297
 10
6.0702102836
 20
16.1027086961
 10
6.0801235206
 20
16.0984728498
 10
6.0904650058
 20
16.0945012151
 10
6.1012066034
 20
16.0908045976
 10
6.112319089
 20
16.0873930545
 10
6.1237722294
 20
16.0842758674
 10
6.1355348642
 20
16.0814615174
 10
6.1475749913
 20
16.0789576611
 10
6.1598598533
 20
16.0767711109
 10
6.1723560274
 20
16.0749078156
 10
6.1850295154
 20
16.0733728445
 10
6.1978458371
 20
16.072170374
 10
6.2107701234
 20
16.0713036754
 10
6.2237672118
 20
16.0707751068
 10
6.2368017412
 20
16.0705861062
 10
6.2498382492
 20
16.0707371879
 10
6.2628412677
 20
16.0712279408
 10
6.2757754198
 20
16.0720570297
 10
6.2886055159
 20
16.0732221989
 10
6.3012966496
 20
16.0747202785
 10
6.3138142924
 20
16.0765471926
 10
6.3261243881
 20
16.0786979708
 10
6.3381934449
 20
16.0811667616
 10
6.349988627
 20
16.0839468481
 10
6.3614778434
 20
16.0870306667
 10
6.3726298359
 20
16.0904098274
 10
6.3834142636
 20
16.0940751365
 10
6.3938017855
 20
16.098016622
 10
6.4037641408
 20
16.1022235603
 10
6.4132742251
 20
16.1066845058
  0
LWPOLYLINE
  5
2E3
100
AcDbEntity
  8
RACCORDO
100
AcDbPolyline
 62
253
  6
CONTINUOUS
 90
31
 70
0
 10
-7.303565899
 20
22.7893563119
 10
-7.2941078808
 20
22.7848677783
 10
-7.2841946438
 20
22.780631932
 10
-7.2738531587
 20
22.7766602973
 10
-7.2631115611
 20
22.7729636798
 10
-7.2519990754
 20
22.7695521367
 10
-7.240545935
 20
22.7664349497
 10
-7.2287833002
 20
22.7636205996
 10
-7.2167431732
 20
22.7611167433
 10
-7.2044583111
 20
22.7589301931
 10
-7.1919621371
 20
22.7570668978
 10
-7.179288649
 20
22.7555319267
 10
-7.1664723273
 20
22.7543294562
 10
-7.153548041
 20
22.7534627576
 10
-7.1405509527
 20
22.752934189
 10
-7.1275164232
 20
22.7527451884
 10
-7.1144799152
 20
22.7528962701
 10
-7.1014768967
 20
22.753387023
 10
-7.0885427446
 20
22.7542161119
 10
-7.0757126485
 20
22.7553812811
 10
-7.0630215149
 20
22.7568793607
 10
-7.050503872
 20
22.7587062748
 10
-7.0381937763
 20
22.760857053
 10
-7.0261247195
 20
22.7633258438
 10
-7.0143295375
 20
22.7661059303
 10
-7.002840321
 20
22.7691897489
 10
-6.9916883285
 20
22.7725689096
 10
-6.9809039009
 20
22.7762342187
 10
-6.9705163789
 20
22.7801757042
 10
-6.9605540236
 20
22.7843826425
 10
-6.9510439393
 20
22.7888435881
  0
LWPOLYLINE
  5
2E4
100
AcDbEntity
  8
RACCORDO
100
AcDbPolyline
 62
253
  6
CONTINUOUS
 90
31
 70
0
 10
6.0607522654
 20
16.4471711638
 10
6.0702124148
 20
16.4426816704
 10
6.0801280014
 20
16.4384449683
 10
6.0904720392
 20
16.4344725911
 10
6.1012163874
 20
16.4307753495
 10
6.112331793
 20
16.4273633133
 10
6.1237879665
 20
16.4242457811
 10
6.1355537158
 20
16.42143124
 10
6.1475970231
 20
16.4189273476
 10
6.1598850957
 20
16.4167409205
 10
6.1723844833
 20
16.4148779086
 10
6.1850611651
 20
16.4133433808
 10
6.197880631
 20
16.4121415124
 10
6.2108080025
 20
16.411275572
 10
6.2238080777
 20
16.4107479161
 10
6.236845421
 20
16.4105599787
 10
6.2498844924
 20
16.410712264
 10
6.2628898573
 20
16.4112043498
 10
6.2758262317
 20
16.4120348995
 10
6.2886585708
 20
16.4132016726
 10
6.3013517779
 20
16.4147014873
 10
6.3138709272
 20
16.416530204
 10
6.3261817238
 20
16.4186827734
 10
6.3382509286
 20
16.4211533434
 10
6.3500460464
 20
16.4239352473
 10
6.3615374689
 20
16.4270216265
 10
6.3726912854
 20
16.4304035012
 10
6.383470441
 20
16.4340692603
 10
6.393844207
 20
16.4380075461
 10
6.403787511
 20
16.4422078987
 10
6.4132742251
 20
16.44665844
  0
LWPOLYLINE
  5
2E5
100
AcDbEntity
  8
RACCORDO
100
AcDbPolyline
 62
7
  6
CONTINUOUS
 90
7
 70
0
 10
6.1257256344
 20
15.9719787433
 10
6.1343761019
 20
15.9678587943
 10
6.1462124081
 20
15.9628598005
 10
6.1583109078
 20
15.9584685175
 10
6.1706424442
 20
15.9546993098
 10
6.1831735237
 20
15.9515661386
 10
6.186430812
 20
15.9508633283
  0
LWPOLYLINE
  5
2E6
100
AcDbEntity
  8
RACCORDO
100
AcDbPolyline
 62
7
  6
CONTINUOUS
 90
7
 70
0
 10
-7.23859253
 20
22.6541378255
 10
-7.2299420625
 20
22.6500178765
 10
-7.2181057563
 20
22.6450188827
 10
-7.2060072566
 20
22.6406275997
 10
-7.1936757202
 20
22.636858392
 10
-7.1811446407
 20
22.6337252208
 10
-7.1778873524
 20
22.6330224105
  0
LINE
  5
2E7
100
AcDbEntity
  8
RACCORDO
100
AcDbLine
 62
7
  6
CONTINUOUS
 10
6.7719728735
 20
15.1397809796
 11
5.4387605399
 21
15.8063871464
  0
LINE
  5
2E8
100
AcDbEntity
  8
RACCORDO
100
AcDbLine
 62
7
  6
CONTINUOUS
 10
-6.5923452909
 20
21.8219400618
 11
-7.9255576245
 21
22.4885462286
  0
LINE
  5
2E9
100
AcDbEntity
  8
RACCORDO
100
AcDbLine
 62
7
  6
CONTINUOUS
 10
-2.9788925347
 20
20.3914603084
 11
2.5324145649
 21
17.6358067586
  0
LINE
  5
2EA
100
AcDbEntity
  8
RACCORDO
100
AcDbLine
 62
7
  6
CONTINUOUS
 10
-8.5635772824
 20
23.3166302017
 11
-7.2385926026
 21
22.6541378618
  0
LINE
  5
2EB
100
AcDbEntity
  8
RACCORDO
100
AcDbLine
 62
7
  6
CONTINUOUS
 10
4.800740882
 20
16.6344711195
 11
6.1257255619
 21
15.9719787796
  0
LINE
  5
2EC
100
AcDbEntity
  8
RACCORDO
100
AcDbLine
 62
253
  6
CONTINUOUS
 10
-8.6285505788
 20
23.4518486518
 11
-7.303565899
 21
22.7893563119
  0
LINE
  5
2ED
100
AcDbEntity
  8
RACCORDO
100
AcDbLine
 62
253
  6
CONTINUOUS
 10
4.7357675856
 20
16.7696895696
 11
6.0607522654
 21
16.1071972297
  0
LINE
  5
2EE
100
AcDbEntity
  8
RACCORDO
100
AcDbLine
 62
253
  6
CONTINUOUS
 10
6.0607522654
 20
16.4471711638
 11
4.7357675856
 21
17.1096635037
  0
LINE
  5
2EF
100
AcDbEntity
  8
RACCORDO
100
AcDbLine
 62
253
  6
CONTINUOUS
 10
-7.303565899
 20
23.129330246
 11
-8.6285505788
 21
23.7918225859
  0
LINE
  5
2F0
100
AcDbEntity
  8
DRAFT
100
AcDbLine
 62
7
  6
CONTINUOUS
 10
-5.3497631485
 20
22.3293888647
 11
-3.1253391442
 21
21.2171768625
  0
LINE
  5
2F1
100
AcDbEntity
  8
DRAFT
100
AcDbLine
 62
7
  6
CONTINUOUS
 10
3.5951376335
 20
17.8569384737
 11
4.6890782348
 21
17.309968173
  0
LWPOLYLINE
  5
2F2
100
AcDbEntity
  8
RACCORDO
100
AcDbPolyline
 62
253
  6
CONTINUOUS
 90
16
 70
0
 10
-8.6285505788
 20
23.4518486518
 10
-8.637527646
 20
23.4565776609
 10
-8.6459993386
 20
23.4615342794
 10
-8.653942608
 20
23.466705022
 10
-8.6613358431
 20
23.4720758208
 10
-8.6681589293
 20
23.4776320636
 10
-8.6743933033
 20
23.4833586338
 10
-8.6800220035
 20
23.4892399512
 10
-8.685029716
 20
23.4952600147
 10
-8.6894028164
 20
23.5014024458
 10
-8.6931294071
 20
23.5076505328
 10
-8.6961993491
 20
23.5139872768
 10
-8.6986042903
 20
23.5203954377
 10
-8.7003376875
 20
23.5268575808
 10
-8.7013948247
 20
23.533356125
 10
-8.7017738835
 20
23.5402369995
  0
LWPOLYLINE
  5
2F3
100
AcDbEntity
  8
RACCORDO
100
AcDbPolyline
 62
253
  6
CONTINUOUS
 90
16
 70
0
 10
-8.6285505788
 20
23.7918225859
 10
-8.637527646
 20
23.796551595
 10
-8.6459993386
 20
23.8015082135
 10
-8.653942608
 20
23.8066789561
 10
-8.6613358431
 20
23.8120497549
 10
-8.6681589293
 20
23.8176059977
 10
-8.6743933033
 20
23.8233325679
 10
-8.6800220035
 20
23.8292138853
 10
-8.685029716
 20
23.8352339489
 10
-8.6894028164
 20
23.8413763799
 10
-8.6931294071
 20
23.8476244669
 10
-8.6961993491
 20
23.8539612109
 10
-8.6986042903
 20
23.8603693718
 10
-8.7003376875
 20
23.866831515
 10
-8.7013948247
 20
23.8733300591
 10
-8.7017738835
 20
23.8802109336
  0
LWPOLYLINE
  5
2F4
100
AcDbEntity
  8
RACCORDO
100
AcDbPolyline
 62
253
  6
CONTINUOUS
 90
16
 70
0
 10
4.7357675856
 20
16.7696895696
 10
4.7267905184
 20
16.7744185787
 10
4.7183188258
 20
16.7793751972
 10
4.7103755564
 20
16.7845459398
 10
4.7029823214
 20
16.7899167386
 10
4.6961592351
 20
16.7954729814
 10
4.6899248611
 20
16.8011995516
 10
4.6842961609
 20
16.807080869
 10
4.6792884484
 20
16.8131009325
 10
4.674915348
 20
16.8192433635
 10
4.6711887573
 20
16.8254914506
 10
4.6681188153
 20
16.8318281946
 10
4.6657138742
 20
16.8382363554
 10
4.663980477
 20
16.8446984986
 10
4.6629233397
 20
16.8511970428
 10
4.6625442809
 20
16.8580779173
  0
LWPOLYLINE
  5
2F5
100
AcDbEntity
  8
RACCORDO
100
AcDbPolyline
 62
253
  6
CONTINUOUS
 90
16
 70
0
 10
4.7357675856
 20
17.1096635037
 10
4.7268108843
 20
17.1143812093
 10
4.7183521023
 20
17.1193286055
 10
4.7104151244
 20
17.1244926846
 10
4.7030210308
 20
17.1298609288
 10
4.6961926414
 20
17.1354180585
 10
4.6899532634
 20
17.1411457029
 10
4.6843210201
 20
17.1470269966
 10
4.679309841
 20
17.1530471404
 10
4.6749332554
 20
17.1591899144
 10
4.6712031613
 20
17.1654387253
 10
4.6681298466
 20
17.1717764623
 10
4.6657217864
 20
17.1781856978
 10
4.6639855468
 20
17.1846489066
 10
4.6629258137
 20
17.1911485761
 10
4.6625442809
 20
17.1980515152
  0
LWPOLYLINE
  5
2F6
100
AcDbEntity
  8
RACCORDO
100
AcDbPolyline
 62
7
  6
CONTINUOUS
 90
37
 70
0
 10
8.0144497746
 20
15.6469103407
 10
8.0293520588
 20
15.6381119324
 10
8.0442565075
 20
15.6285342783
 10
8.0591350477
 20
15.618191158
 10
8.0739794621
 20
15.6070876458
 10
8.0887411417
 20
15.5952495086
 10
8.1033327915
 20
15.582730885
 10
8.1177130644
 20
15.5695674334
 10
8.1318715572
 20
15.5557789592
 10
8.1457703646
 20
15.541405945
 10
8.1593663579
 20
15.5265014924
 10
8.1726570852
 20
15.5110769874
 10
8.1856643113
 20
15.4951072481
 10
8.1983716085
 20
15.4786089191
 10
8.2107461419
 20
15.4616213368
 10
8.222780851
 20
15.4441471911
 10
8.2344690483
 20
15.4261869902
 10
8.2457663378
 20
15.4077988732
 10
8.2566123799
 20
15.3890754353
 10
8.266986451
 20
15.3700567464
 10
8.2768725497
 20
15.3507755811
 10
8.2862272553
 20
15.3313199882
 10
8.295035527
 20
15.3117368858
 10
8.3032907819
 20
15.2920567388
 10
8.3109705731
 20
15.272345136
 10
8.3180637324
 20
15.2526566631
 10
8.3245729354
 20
15.2330115989
 10
8.3304990118
 20
15.2134232948
 10
8.3358378656
 20
15.1939294251
 10
8.3405882089
 20
15.1745616299
 10
8.3447524188
 20
15.1553231796
 10
8.3483290932
 20
15.1362404934
 10
8.3513152656
 20
15.1173527879
 10
8.3537091615
 20
15.0986820796
 10
8.3555100841
 20
15.0802564824
 10
8.3567193109
 20
15.0621099033
 10
8.3573387648
 20
15.0442722123
  0
LWPOLYLINE
  5
2F7
100
AcDbEntity
  8
RACCORDO
100
AcDbPolyline
 62
253
  6
CONTINUOUS
 90
15
 70
0
 10
13.2430029969
 20
-15.0946282564
 10
13.2509088293
 20
-15.0903901878
 10
13.2583103645
 20
-15.085930245
 10
13.2651827431
 20
-15.0812634075
 10
13.2715028831
 20
-15.0764053496
 10
13.2772495572
 20
-15.0713723881
 10
13.2824034641
 20
-15.0661814272
 10
13.2869472935
 20
-15.0608499016
 10
13.2908657843
 20
-15.0553957183
 10
13.2941457756
 20
-15.049837196
 10
13.296776251
 20
-15.0441930043
 10
13.2987483757
 20
-15.0384820999
 10
13.3000555262
 20
-15.0327236642
 10
13.3006933122
 20
-15.0269370378
 10
13.3007612792
 20
-15.0243481252
  0
LWPOLYLINE
  5
2F8
100
AcDbEntity
  8
RACCORDO
100
AcDbPolyline
 62
7
  6
CONTINUOUS
 90
19
 70
0
 10
2.9552369447
 20
18.8187796338
 10
2.9379422768
 20
18.8172872982
 10
2.9207478786
 20
18.8152937203
 10
2.9036895408
 20
18.8128865374
 10
2.8867987074
 20
18.8101755838
 10
2.8700944446
 20
18.8072185713
 10
2.8535876246
 20
18.8040077232
 10
2.8372942178
 20
18.8005974953
 10
2.8212244248
 20
18.7970529656
 10
2.805381271
 20
18.7933590096
 10
2.7897724593
 20
18.7895557273
 10
2.7744033766
 20
18.7856921391
 10
2.7592766486
 20
18.7817518654
 10
2.744395631
 20
18.7777658181
 10
2.729763105
 20
18.7737717321
 10
2.7153844801
 20
18.7697546027
 10
2.7012609271
 20
18.7657394421
 10
2.6873935635
 20
18.761756142
 10
2.6473809973
 20
18.7500078634
  0
LWPOLYLINE
  5
2F9
100
AcDbEntity
  8
RACCORDO
100
AcDbPolyline
 62
253
  6
CONTINUOUS
 90
15
 70
0
 10
4.9115158416
 20
17.4140403187
 10
4.9022341529
 20
17.4183332051
 10
4.8929747891
 20
17.422027343
 10
4.8837631163
 20
17.4251115007
 10
4.8746225475
 20
17.4275765341
 10
4.8655802271
 20
17.4294138055
 10
4.856666717
 20
17.4306165343
 10
4.8479083573
 20
17.4311813693
 10
4.8393271976
 20
17.4311070952
 10
4.8309465314
 20
17.4303938878
 10
4.8227891972
 20
17.4290436179
 10
4.8148777441
 20
17.4270599434
 10
4.8072341117
 20
17.4244483394
 10
4.7998793492
 20
17.4212160177
 10
4.7984301814
 20
17.4204882969
  0
LWPOLYLINE
  5
2FA
100
AcDbEntity
  8
RACCORDO
100
AcDbPolyline
 62
253
  6
CONTINUOUS
 90
15
 70
0
 10
-8.4528023228
 20
24.0961994009
 10
-8.4621081958
 20
24.1005027038
 10
-8.4713857512
 20
24.1042019704
 10
-8.4806095495
 20
24.1072870535
 10
-8.4897543071
 20
24.1097494918
 10
-8.498794939
 20
24.111582526
 10
-8.5077066292
 20
24.1127811233
 10
-8.5164649361
 20
24.1133419984
 10
-8.52504585
 20
24.1132636159
 10
-8.5334258344
 20
24.112546193
 10
-8.5415819106
 20
24.1111917007
 10
-8.5494917172
 20
24.1092038561
 10
-8.5571335639
 20
24.1065881143
 10
-8.5644865069
 20
24.1033516473
 10
-8.565880831
 20
24.1026510479
  0
LWPOLYLINE
  5
2FB
100
AcDbEntity
  8
RACCORDO
100
AcDbPolyline
 62
7
  6
CONTINUOUS
 90
16
 70
0
 10
6.4942724447
 20
18.226024416
 10
6.4858613693
 20
18.2299848999
 10
6.4774691517
 20
18.2334458786
 10
6.469114904
 20
18.2363995624
 10
6.46081773
 20
18.2388393505
 10
6.4525964316
 20
18.2407597167
 10
6.4444694658
 20
18.242156222
 10
6.4364553005
 20
18.2430257306
 10
6.4285721811
 20
18.2433663172
 10
6.4208378389
 20
18.2431771418
 10
6.4132698314
 20
18.2424586499
 10
6.4058853744
 20
18.2412125043
 10
6.3987011119
 20
18.2394414817
 10
6.3917333332
 20
18.2371496004
 10
6.384997874
 20
18.2343420773
 10
6.3833402559
 20
18.2335545739
  0
LWPOLYLINE
  5
2FC
100
AcDbEntity
  8
RACCORDO
100
AcDbPolyline
 62
7
  6
CONTINUOUS
 90
16
 70
0
 10
-6.8700457197
 20
24.9081834982
 10
-6.8784567951
 20
24.9121439821
 10
-6.8868490127
 20
24.9156049608
 10
-6.8952032605
 20
24.9185586446
 10
-6.9035004344
 20
24.9209984327
 10
-6.9117217328
 20
24.9229187989
 10
-6.9198486986
 20
24.9243153042
 10
-6.927862864
 20
24.9251848128
 10
-6.9357459833
 20
24.9255253994
 10
-6.9434803255
 20
24.925336224
 10
-6.9510483331
 20
24.9246177322
 10
-6.95843279
 20
24.9233715865
 10
-6.9656170526
 20
24.9216005639
 10
-6.9725848312
 20
24.9193086826
 10
-6.9793202904
 20
24.9165011595
 10
-6.9809779085
 20
24.9157136561
  0
LWPOLYLINE
  5
2FD
100
AcDbEntity
  8
RACCORDO
100
AcDbPolyline
 62
253
  6
CONTINUOUS
 90
31
 70
0
 10
-7.303565899
 20
23.129330246
 10
-7.2941078808
 20
23.1248417124
 10
-7.2841946438
 20
23.1206058661
 10
-7.2738531587
 20
23.1166342314
 10
-7.2631115611
 20
23.1129376139
 10
-7.2519990754
 20
23.1095260708
 10
-7.240545935
 20
23.1064088838
 10
-7.2287833002
 20
23.1035945337
 10
-7.2167431732
 20
23.1010906775
 10
-7.2044583111
 20
23.0989041272
 10
-7.1919621371
 20
23.0970408319
 10
-7.179288649
 20
23.0955058609
 10
-7.1664723273
 20
23.0943033903
 10
-7.153548041
 20
23.0934366917
 10
-7.1405509527
 20
23.0929081231
 10
-7.1275164232
 20
23.0927191225
 10
-7.1144799152
 20
23.0928702042
 10
-7.1014768967
 20
23.0933609571
 10
-7.0885427446
 20
23.094190046
 10
-7.0757126485
 20
23.0953552153
 10
-7.0630215149
 20
23.0968532948
 10
-7.050503872
 20
23.0986802089
 10
-7.0381937763
 20
23.1008309872
 10
-7.0261247195
 20
23.1032997779
 10
-7.0143295375
 20
23.1060798644
 10
-7.002840321
 20
23.1091636831
 10
-6.9916883285
 20
23.1125428437
 10
-6.9809039009
 20
23.1162081528
 10
-6.9705163789
 20
23.1201496383
 10
-6.9605540236
 20
23.1243565766
 10
-6.9510439393
 20
23.1288175222
  0
LINE
  5
2FE
100
AcDbEntity
  8
RACCORDO
100
AcDbLine
 62
253
  6
CONTINUOUS
 10
6.2365005214
 20
16.7515479788
 11
4.9115158416
 21
17.4140403187
  0
LINE
  5
2FF
100
AcDbEntity
  8
RACCORDO
100
AcDbLine
 62
253
  6
CONTINUOUS
 10
-7.127817643
 20
23.433707061
 11
-8.4528023228
 21
24.0961994009
  0
LINE
  5
300
100
AcDbEntity
  8
RACCORDO
100
AcDbLine
 62
253
  6
CONTINUOUS
 10
2.5324145649
 20
18.7163900694
 11
-2.9788925347
 21
21.4720436192
  0
LINE
  5
301
100
AcDbEntity
  8
RACCORDO
100
AcDbLine
 62
253
  6
CONTINUOUS
 10
2.9552369447
 20
18.8187796338
 11
-3.120517705
 21
21.8566569587
  0
LINE
  5
302
100
AcDbEntity
  8
RACCORDO
100
AcDbLine
 62
7
  6
CONTINUOUS
 10
-5.3497631485
 20
23.0289379567
 11
-3.9417204135
 21
22.3249165892
  0
LINE
  5
303
100
AcDbEntity
  8
RACCORDO
100
AcDbLine
 62
7
  6
CONTINUOUS
 10
8.0145550159
 20
16.3467788745
 11
8.721554087
 21
15.993279339
  0
LINE
  5
304
100
AcDbEntity
  8
DRAFT
100
AcDbLine
 62
7
  6
CONTINUOUS
 10
-2.6274020409
 20
22.1806438762
 11
3.5951376335
 21
19.069374039
  0
LINE
  5
305
100
AcDbEntity
  8
RACCORDO
100
AcDbLine
 62
7
  6
CONTINUOUS
 10
-6.8700457197
 20
24.9081834982
 11
-5.5265368522
 21
24.2364290645
  0
LINE
  5
306
100
AcDbEntity
  8
RACCORDO
100
AcDbLine
 62
7
  6
CONTINUOUS
 10
6.4942724447
 20
18.226024416
 11
7.8377813122
 21
17.5542699823
  0
LINE
  5
307
100
AcDbEntity
  8
DRAFT
100
AcDbLine
 62
7
  6
CONTINUOUS
 10
-1.2838991567
 20
22.2109608269
 11
3.6658483116
 21
19.7360870927
  0
LWPOLYLINE
  5
308
100
AcDbEntity
  8
RACCORDO
100
AcDbPolyline
 62
7
  6
CONTINUOUS
 90
22
 70
0
 10
-4.8874947209
 20
24.5064577756
 10
-4.875838155
 20
24.5002391913
 10
-4.8644827723
 20
24.4933855854
 10
-4.8534719268
 20
24.4859143213
 10
-4.8428433647
 20
24.4778430535
 10
-4.8326418761
 20
24.4691992979
 10
-4.8229169523
 20
24.4600223181
 10
-4.8137424338
 20
24.450389294
 10
-4.8051041647
 20
24.440295278
 10
-4.7969336701
 20
24.4296454924
 10
-4.7892328741
 20
24.4183965143
 10
-4.7820993502
 20
24.4066439276
 10
-4.7756123461
 20
24.3944962853
 10
-4.7698087142
 20
24.3820205933
 10
-4.7646980706
 20
24.3692385744
 10
-4.7602990324
 20
24.3561956179
 10
-4.756627441
 20
24.3429420886
 10
-4.7536924556
 20
24.3295184998
 10
-4.7514988056
 20
24.315949315
 10
-4.7500530337
 20
24.3022645541
 10
-4.7493623492
 20
24.2885175921
 10
-4.7492981201
 20
24.2828577639
  0
LINE
  5
309
100
AcDbEntity
  8
RACCORDO
100
AcDbLine
 62
253
  6
CONTINUOUS
 10
6.7714586452
 20
-24.2156533184
 11
6.0602380371
 21
-25.0671497955
  0
LINE
  5
30A
100
AcDbEntity
  8
RACCORDO
100
AcDbLine
 62
253
  6
CONTINUOUS
 10
7.1244948332
 20
-24.3414231564
 11
6.4132742251
 21
-25.1929196335
  0
LINE
  5
30B
100
AcDbEntity
  8
RACCORDO
100
AcDbLine
 62
7
  6
CONTINUOUS
 10
13.6309279466
 20
-17.2290651068
 11
9.0752151877
 21
-19.5878544382
  0
LINE
  5
30C
100
AcDbEntity
  8
RACCORDO
100
AcDbLine
 62
7
  6
CONTINUOUS
 10
13.2430029969
 20
-16.8283182036
 11
9.0752151877
 21
-18.9366014815
  0
LINE
  5
30D
100
AcDbEntity
  8
RACCORDO
100
AcDbLine
 62
7
  6
CONTINUOUS
 10
-7.1778874329
 20
22.6330224273
 11
-6.5522807392
 21
22.5024010309
  0
LINE
  5
30E
100
AcDbEntity
  8
RACCORDO
100
AcDbLine
 62
253
  6
CONTINUOUS
 10
-6.9510439393
 20
22.7888435881
 11
-6.2398233312
 21
22.6403400652
  0
LWPOLYLINE
  5
30F
100
AcDbEntity
  8
RACCORDO
100
AcDbPolyline
 62
253
  6
CONTINUOUS
 90
14
 70
0
 10
7.1394972812
 20
18.4929617746
 10
7.1320698606
 20
18.4962812923
 10
7.124486918
 20
18.4989189924
 10
7.1166404997
 20
18.500931863
 10
7.1085522084
 20
18.5023143879
 10
7.1002442406
 20
18.5030628482
 10
7.0917390682
 20
18.5031752925
 10
7.0830596055
 20
18.5026514436
 10
7.074227515
 20
18.5014924016
 10
7.065268732
 20
18.4997013662
 10
7.0562133951
 20
18.4972849358
 10
7.0470882263
 20
18.4942515644
 10
7.0379162218
 20
18.4906102072
 10
7.0287223234
 20
18.4863718826
  0
LWPOLYLINE
  5
310
100
AcDbEntity
  8
RACCORDO
100
AcDbPolyline
 62
253
  6
CONTINUOUS
 90
14
 70
0
 10
-4.8874947209
 20
24.5064577756
 10
-4.8948928016
 20
24.5097656695
 10
-4.9024730189
 20
24.512405323
 10
-4.9103166653
 20
24.5144204349
 10
-4.9184024009
 20
24.5158055229
 10
-4.9267082269
 20
24.5165568186
 10
-4.9352115461
 20
24.5166722779
 10
-4.9438892236
 20
24.5161515868
 10
-4.9527176505
 20
24.5149961618
 10
-4.9616728074
 20
24.5132091465
 10
-4.9707303303
 20
24.5107954027
 10
-4.9798655768
 20
24.5077614975
 10
-4.9890536928
 20
24.5041156851
 10
-4.9982696805
 20
24.4998678845
  0
LWPOLYLINE
  5
311
100
AcDbEntity
  8
RACCORDO
100
AcDbPolyline
 62
253
  6
CONTINUOUS
 90
14
 70
0
 10
-6.2248208815
 20
25.1751208559
 10
-6.2322189622
 20
25.1784287498
 10
-6.2397991795
 20
25.1810684032
 10
-6.2476428259
 20
25.1830835152
 10
-6.2557285614
 20
25.1844686032
 10
-6.2640343875
 20
25.1852198989
 10
-6.2725377067
 20
25.1853353582
 10
-6.2812153842
 20
25.1848146671
 10
-6.290043811
 20
25.1836592421
 10
-6.2989989679
 20
25.1818722267
 10
-6.3080564909
 20
25.179458483
 10
-6.3171917373
 20
25.1764245778
 10
-6.3263798533
 20
25.1727787654
 10
-6.335595841
 20
25.1685309648
  0
LWPOLYLINE
  5
312
100
AcDbEntity
  8
RACCORDO
100
AcDbPolyline
 62
253
  6
CONTINUOUS
 90
14
 70
0
 10
8.4768163414
 20
17.8243022441
 10
8.4694448643
 20
17.8275988548
 10
8.4618637218
 20
17.8302406326
 10
8.4540189706
 20
17.8322576217
 10
8.4459319644
 20
17.8336443279
 10
8.4376247122
 20
17.8343969736
 10
8.4291198254
 20
17.8345135065
 10
8.4204404603
 20
17.833993607
 10
8.4116102344
 20
17.8328386875
 10
8.402653188
 20
17.8310518903
 10
8.3935937288
 20
17.8286380855
 10
8.3844565253
 20
17.8256038507
 10
8.3752664389
 20
17.8219574466
 10
8.366048484
 20
17.8177088023
  0
LWPOLYLINE
  5
313
100
AcDbEntity
  8
RACCORDO
100
AcDbPolyline
 62
7
  6
CONTINUOUS
 90
18
 70
0
 10
-6.2248208815
 20
25.1751208559
 10
-6.2370266937
 20
25.1808180435
 10
-6.2496489724
 20
25.1858968515
 10
-6.2626491622
 20
25.1903187522
 10
-6.2760037435
 20
25.1940530249
 10
-6.2896467313
 20
25.1970606113
 10
-6.3034710208
 20
25.1993060302
 10
-6.3174021548
 20
25.2007739823
 10
-6.3314108435
 20
25.2014596921
 10
-6.34546034
 20
25.2013578575
 10
-6.3594926523
 20
25.200465936
 10
-6.3734651984
 20
25.1987846519
 10
-6.3873710576
 20
25.1963094106
 10
-6.4012159636
 20
25.1930257847
 10
-6.4148982223
 20
25.188944448
 10
-6.428269152
 20
25.1841107424
 10
-6.4412918731
 20
25.1785486257
 10
-6.4461145915
 20
25.1762625213
  0
LWPOLYLINE
  5
314
100
AcDbEntity
  8
RACCORDO
100
AcDbPolyline
 62
253
  6
CONTINUOUS
 90
14
 70
0
 10
7.0287223234
 20
18.4863718826
 10
7.0195233138
 20
18.4907267193
 10
7.0103466981
 20
18.4944748176
 10
7.0012176278
 20
18.4976059046
 10
6.992161124
 20
18.5001113987
 10
6.9832020088
 20
18.5019844327
 10
6.9743648374
 20
18.503219873
 10
6.965673831
 20
18.5038143335
 10
6.95715281
 20
18.5037661848
 10
6.9488251287
 20
18.5030755591
 10
6.940713612
 20
18.501744349
 10
6.9328404918
 20
18.4997762033
 10
6.925227347
 20
18.4971765162
 10
6.9182102123
 20
18.4941066736
  0
LWPOLYLINE
  5
315
100
AcDbEntity
  8
RACCORDO
100
AcDbPolyline
 62
253
  6
CONTINUOUS
 90
14
 70
0
 10
-6.335595841
 20
25.1685309648
 10
-6.3447729485
 20
25.1728761418
 10
-6.353933567
 20
25.1766196523
 10
-6.3630526116
 20
25.1797501242
 10
-6.3721069168
 20
25.1822582894
 10
-6.3810696071
 20
25.1841353758
 10
-6.389910395
 20
25.1853744657
 10
-6.3986031535
 20
25.1859721013
 10
-6.4071259962
 20
25.1859269857
 10
-6.4154557881
 20
25.1852392154
 10
-6.4235698301
 20
25.1839105917
 10
-6.4314456933
 20
25.1819447121
 10
-6.4390615372
 20
25.1793470024
 10
-6.4461079516
 20
25.1762657561
  0
LINE
  5
316
100
AcDbEntity
  8
RACCORDO
100
AcDbLine
 62
253
  6
CONTINUOUS
 10
-6.335595841
 20
25.1685309648
 11
-4.9982696805
 21
24.4998678845
  0
LINE
  5
317
100
AcDbEntity
  8
RACCORDO
100
AcDbLine
 62
253
  6
CONTINUOUS
 10
7.0287223234
 20
18.4863718826
 11
8.366048484
 21
17.8177088023
  0
LINE
  5
318
100
AcDbEntity
  8
RACCORDO
100
AcDbLine
 62
7
  6
CONTINUOUS
 10
-6.2248208815
 20
25.1751208559
 11
-4.8874947209
 21
24.5064577756
  0
LINE
  5
319
100
AcDbEntity
  8
RACCORDO
100
AcDbLine
 62
7
  6
CONTINUOUS
 10
7.139497283
 20
18.4929617737
 11
8.4768234435
 21
17.8242986934
  0
LWPOLYLINE
  5
31A
100
AcDbEntity
  8
RACCORDO
100
AcDbPolyline
 62
7
  6
CONTINUOUS
 90
18
 70
0
 10
13.6309279466
 20
-17.2290651068
 10
13.6469183572
 20
-17.2203816028
 10
13.662016992
 20
-17.2113704327
 10
13.6762238509
 20
-17.2020315965
 10
13.6895699851
 20
-17.1923396176
 10
13.7020243435
 20
-17.1823199726
 10
13.7134937725
 20
-17.1720490917
 10
13.7239637805
 20
-17.1615340669
 10
13.7334488591
 20
-17.1507678062
 10
13.7418993302
 20
-17.1398054637
 10
13.7493163585
 20
-17.1286333702
 10
13.7556987793
 20
-17.1172651949
 10
13.7609934205
 20
-17.1057970998
 10
13.7651873989
 20
-17.0942434844
 10
13.7682935976
 20
-17.0825899492
 10
13.7702974943
 20
-17.0708894578
 10
13.7711936458
 20
-17.0591251567
 10
13.7712475477
 20
-17.055405846
  0
LWPOLYLINE
  5
31B
100
AcDbEntity
  8
RACCORDO
100
AcDbPolyline
 62
253
  6
CONTINUOUS
 90
34
 70
0
 10
2.178461833
 20
-24.6948335295
 10
2.1611675013
 20
-24.7036370856
 10
2.1431420401
 20
-24.7120227487
 10
2.1244253815
 20
-24.7199719417
 10
2.1050589886
 20
-24.7274670548
 10
2.0850857641
 20
-24.734491484
 10
2.0645499548
 20
-24.741029668
 10
2.0434970539
 20
-24.7470671227
 10
2.0219737003
 20
-24.7525904731
 10
2.0000275747
 20
-24.7575874835
 10
1.9777072947
 20
-24.7620470838
 10
1.9550623066
 20
-24.7659593947
 10
1.9321427762
 20
-24.7693157492
 10
1.9089994773
 20
-24.7721087118
 10
1.8856836795
 20
-24.7743320954
 10
1.8622470346
 20
-24.7759809744
 10
1.838741462
 20
-24.7770516961
 10
1.8152190338
 20
-24.7775418884
 10
1.7917318596
 20
-24.7774504655
 10
1.7683319708
 20
-24.7767776299
 10
1.7450712053
 20
-24.7755248721
 10
1.7220010931
 20
-24.7736949673
 10
1.6991727415
 20
-24.7712919695
 10
1.6766367225
 20
-24.7683212019
 10
1.6544429604
 20
-24.7647892457
 10
1.6326406213
 20
-24.7607039253
 10
1.611278004
 20
-24.756074291
 10
1.5904024335
 20
-24.7509105989
 10
1.5700601557
 20
-24.7452242881
 10
1.5502962349
 20
-24.7390279556
 10
1.5311544545
 20
-24.7323353281
 10
1.5126772193
 20
-24.725161232
 10
1.4949054624
 20
-24.7175215601
 10
1.4778785535
 20
-24.7094332366
  0
LINE
  5
31C
100
AcDbEntity
  8
RACCORDO
100
AcDbLine
 62
7
  6
CONTINUOUS
 10
13.0322137545
 20
-18.2232852574
 11
9.0752151877
 21
-20.2094783337
  0
LINE
  5
31D
100
AcDbEntity
  8
RACCORDO
100
AcDbLine
 62
7
  6
CONTINUOUS
 10
13.6309279466
 20
-17.8058167503
 11
9.0752151877
 21
-20.0654838639
  0
LWPOLYLINE
  5
31E
100
AcDbEntity
  8
ASSI
100
AcDbPolyline
 62
7
  6
CONTINUOUS
 90
16
 70
0
 10
2.7597525563
 20
24.8004294466
 10
2.7719215941
 20
24.8037942049
 10
2.7846553818
 20
24.8063967617
 10
2.7979463063
 20
24.8082213161
 10
2.8117903167
 20
24.8092647805
 10
2.8261713108
 20
24.8094980468
 10
2.841059589
 20
24.808867122
 10
2.8564348026
 20
24.8073519381
 10
2.8722832319
 20
24.8049427442
 10
2.888580849
 20
24.8016024416
 10
2.9052704757
 20
24.7973274814
 10
2.9223630631
 20
24.7920946436
 10
2.9399386128
 20
24.7858314382
 10
2.9579898387
 20
24.7785159931
 10
2.9764751168
 20
24.7701293496
 10
2.9845327498
 20
24.7661904762
  0
LINE
  5
31F
100
AcDbEntity
  8
0
100
AcDbLine
 62
7
  6
CONTINUOUS
 10
4.7807901056
 20
23.0761371079
 11
6.1407220458
 21
23.1498852953
  0
LWPOLYLINE
  5
320
100
AcDbEntity
  8
ASSI
100
AcDbPolyline
 62
7
  6
CONTINUOUS
 90
16
 70
0
 10
9.0367499049
 20
21.7400819611
 10
9.0352334194
 20
21.7407523256
 10
9.0311050831
 20
21.7419654443
 10
9.0262310954
 20
21.742697075
 10
9.0206560689
 20
21.7429644967
 10
9.0144163412
 20
21.7427749893
 10
9.0075084476
 20
21.7421623871
 10
8.9999436423
 20
21.7411389146
 10
8.9917639653
 20
21.7397155438
 10
8.9830004218
 20
21.7379251512
 10
8.9736795694
 20
21.7357706718
 10
8.9638340625
 20
21.733266392
 10
8.9535070114
 20
21.7304600482
 10
8.9427351012
 20
21.7273706481
 10
8.9315461223
 20
21.7239893107
 10
8.9199717037
 20
21.7203198729
  0
LINE
  5
321
100
AcDbEntity
  8
0
100
AcDbLine
 62
7
  6
CONTINUOUS
 10
7.5913397526
 20
21.6708622844
 11
4.7807901056
 21
23.0761371079
  0
LINE
  5
322
100
AcDbEntity
  8
ASSI
100
AcDbLine
 62
253
  6
CONTINUOUS
 10
2.708821365
 20
24.7800873417
 11
3.3143517997
 21
24.4773221244
  0
LINE
  5
323
100
AcDbEntity
  8
ASSI
100
AcDbLine
 62
253
  6
CONTINUOUS
 10
8.264099268
 20
22.0024483902
 11
8.8696297026
 21
21.6996831729
  0
LINE
  5
324
100
AcDbEntity
  8
0
100
AcDbLine
 62
7
  6
CONTINUOUS
 10
6.1407220458
 20
23.1498852953
 11
8.3765829174
 21
22.0319548595
  0
LINE
  5
325
100
AcDbEntity
  8
0
100
AcDbLine
 62
7
  6
CONTINUOUS
 10
9.0435657676
 20
21.6984634344
 11
9.2418611671
 21
21.5993157347
  0
LINE
  5
326
100
AcDbEntity
  8
ASSI
100
AcDbLine
 62
7
  6
CONTINUOUS
 10
2.9850933861
 20
24.765906073
 11
3.4814998707
 21
24.5177028307
  0
LINE
  5
327
100
AcDbEntity
  8
ASSI
100
AcDbLine
 62
7
  6
CONTINUOUS
 10
8.5400487781
 20
21.9884283769
 11
9.0364555481
 21
21.7402249919
  0
LWPOLYLINE
  5
328
100
AcDbEntity
  8
RACCORDO
100
AcDbPolyline
 62
7
  6
CONTINUOUS
 90
19
 70
0
 10
7.9535438057
 20
-24.8859756371
 10
7.9597694775
 20
-24.8821570273
 10
7.9657188154
 20
-24.8778452751
 10
7.9713783397
 20
-24.8730501501
 10
7.9767352003
 20
-24.8677825292
 10
7.9817772703
 20
-24.8620543417
 10
7.9864931709
 20
-24.8558785453
 10
7.9908721682
 20
-24.8492691558
 10
7.9949043284
 20
-24.8422411536
 10
7.9985806055
 20
-24.8348104197
 10
8.0018926005
 20
-24.8269938236
 10
8.0048327748
 20
-24.818809091
 10
8.0073945993
 20
-24.8102747027
 10
8.0095721806
 20
-24.8014100377
 10
8.0113605289
 20
-24.7922352061
 10
8.0127557644
 20
-24.7827709113
 10
8.0137547224
 20
-24.7730385968
 10
8.0143549599
 20
-24.7630603978
 10
8.0145550159
 20
-24.752858968
  0
LINE
  5
329
100
AcDbEntity
  8
RACCORDO
100
AcDbLine
 62
253
  6
CONTINUOUS
 10
8.3573387648
 20
-22.8874425496
 11
9.0752151877
 21
-22.5332787823
  0
LINE
  5
32A
100
AcDbEntity
  8
RACCORDO
100
AcDbLine
 62
7
  6
CONTINUOUS
 10
8.2226943456
 20
-23.1602175044
 11
8.9443405305
 21
-22.804193928
  0
LINE
  5
32B
100
AcDbEntity
  8
RACCORDO
100
AcDbLine
 62
7
  6
CONTINUOUS
 10
8.2226938239
 20
-23.1602177617
 11
8.2122800271
 21
-23.1649659653
  0
LINE
  5
32C
100
AcDbEntity
  8
RACCORDO
100
AcDbLine
 62
253
  6
CONTINUOUS
 10
2.8596494923
 20
-25.1951491976
 11
8.3573387648
 21
-22.8874425496
  0
LINE
  5
32D
100
AcDbEntity
  8
RACCORDO
100
AcDbLine
 62
7
  6
CONTINUOUS
 10
2.7058422469
 20
-25.476344896
 11
8.2122898592
 21
-23.1649618526
  0
LWPOLYLINE
  5
32E
100
AcDbEntity
  8
ASSI
100
AcDbPolyline
 62
7
  6
CONTINUOUS
 90
16
 70
0
 10
3.4817655412
 20
24.5175741519
 10
3.4799569479
 20
24.5183578107
 10
3.4757534395
 20
24.5195361638
 10
3.4708001185
 20
24.5202309006
 10
3.4651407294
 20
24.5204598996
 10
3.4588117218
 20
24.5202301796
 10
3.4518089487
 20
24.5195745192
 10
3.4441426638
 20
24.5185049634
 10
3.435855336
 20
24.5170331579
 10
3.4269799023
 20
24.5151921366
 10
3.4175435375
 20
24.5129845442
 10
3.4075789119
 20
24.5104251724
 10
3.39713085
 20
24.507562893
 10
3.3862370423
 20
24.5044170472
 10
3.3749253318
 20
24.5009783794
 10
3.3632278312
 20
24.4972506915
  0
LWPOLYLINE
  5
32F
100
AcDbEntity
  8
RACCORDO
100
AcDbPolyline
 62
7
  6
CONTINUOUS
 90
17
 70
0
 10
5.9847677851
 20
24.0886158414
 10
5.9764151079
 20
24.092582411
 10
5.961654754
 20
24.0986022851
 10
5.9464157031
 20
24.1036020765
 10
5.9307578297
 20
24.1075603985
 10
5.9146582995
 20
24.1104747217
 10
5.8981399466
 20
24.1123475755
 10
5.8813311484
 20
24.1131651604
 10
5.8642546677
 20
24.1129211991
 10
5.8468877416
 20
24.111621969
 10
5.8292904584
 20
24.1092725032
 10
5.8114394808
 20
24.1058644928
 10
5.7933581461
 20
24.1014062468
 10
5.7751765539
 20
24.095927725
 10
5.7569380709
 20
24.0894389141
 10
5.7385993304
 20
24.0819298273
 10
5.7201603325
 20
24.0734004648
  0
LINE
  5
330
100
AcDbEntity
  8
RACCORDO
100
AcDbLine
 62
253
  6
CONTINUOUS
 10
2.6507475976
 20
25.6081068323
 11
5.7201603325
 21
24.0734004648
  0
LINE
  5
331
100
AcDbEntity
  8
RACCORDO
100
AcDbLine
 62
253
  6
CONTINUOUS
 10
9.9628010196
 20
21.9520801213
 11
13.0322137545
 21
20.4173737538
  0
LINE
  5
332
100
AcDbEntity
  8
RACCORDO
100
AcDbLine
 62
7
  6
CONTINUOUS
 10
2.819718056
 20
25.6711441839
 11
5.9847861344
 21
24.0886101448
  0
LINE
  5
333
100
AcDbEntity
  8
RACCORDO
100
AcDbLine
 62
7
  6
CONTINUOUS
 10
10.2274268215
 20
21.9672898012
 11
13.3924948998
 21
20.3847557621
  0
LWPOLYLINE
  5
334
100
AcDbEntity
  8
RACCORDO
100
AcDbPolyline
 62
253
  6
CONTINUOUS
 90
18
 70
0
 10
8.4791396979
 20
-24.6164088733
 10
8.4847308058
 20
-24.6132952421
 10
8.4914484426
 20
-24.6088496652
 10
8.4978194874
 20
-24.6038148692
 10
8.503826436
 20
-24.5982046663
 10
8.5094527898
 20
-24.5920344546
 10
8.5146831129
 20
-24.5853211573
 10
8.5195030681
 20
-24.5780831724
 10
8.5238994348
 20
-24.5703403461
 10
8.5278601564
 20
-24.5621139055
 10
8.5313743696
 20
-24.5534264067
 10
8.5344324331
 20
-24.5443016778
 10
8.537025962
 20
-24.5347647319
 10
8.5391478415
 20
-24.5248417248
 10
8.5407922482
 20
-24.5145598951
 10
8.5419546751
 20
-24.5039474486
 10
8.5426319396
 20
-24.4930334773
 10
8.5428221877
 20
-24.4818479094
  0
LWPOLYLINE
  5
335
100
AcDbEntity
  8
RACCORDO
100
AcDbPolyline
 62
253
  6
CONTINUOUS
 90
18
 70
0
 10
6.3470126325
 20
-25.6687441939
 10
6.3543591663
 20
-25.6647502506
 10
6.3610703218
 20
-25.6603055124
 10
6.3674428737
 20
-25.6552679007
 10
6.3734593559
 20
-25.6496512229
 10
6.3791032783
 20
-25.643470873
 10
6.3843591722
 20
-25.6367437904
 10
6.3892126319
 20
-25.6294884126
 10
6.3936503552
 20
-25.6217246253
 10
6.397660179
 20
-25.6134737075
 10
6.4012311132
 20
-25.6047582736
 10
6.4043533705
 20
-25.5956022108
 10
6.4070183934
 20
-25.5860306143
 10
6.4092188776
 20
-25.5760697179
 10
6.4109487919
 20
-25.5657468226
 10
6.412203395
 20
-25.5550902215
 10
6.4129792482
 20
-25.5441291224
 10
6.4132742251
 20
-25.5328935677
  0
LWPOLYLINE
  5
336
100
AcDbEntity
  8
RACCORDO
100
AcDbPolyline
 62
7
  6
CONTINUOUS
 90
22
 70
0
 10
8.4791396979
 20
-24.6164088733
 10
8.4889464302
 20
-24.6110979406
 10
8.4999580548
 20
-24.6044312902
 10
8.5106217184
 20
-24.5971996669
 10
8.5209084166
 20
-24.5894204498
 10
8.5307971031
 20
-24.5811061589
 10
8.5402602954
 20
-24.5722751777
 10
8.5492685565
 20
-24.5629500856
 10
8.5577979139
 20
-24.5531503165
 10
8.5658227388
 20
-24.5428990095
 10
8.5733172521
 20
-24.5322224232
 10
8.5802583486
 20
-24.5211463137
 10
8.5866233653
 20
-24.5096989492
 10
8.5923911052
 20
-24.497909876
 10
8.5975424047
 20
-24.4858085612
 10
8.6020595457
 20
-24.4734251039
 10
8.605924986
 20
-24.4607945051
 10
8.6091227754
 20
-24.4479554294
 10
8.6116403632
 20
-24.434943783
 10
8.6134673142
 20
-24.42179531
 10
8.6145948401
 20
-24.4085499625
 10
8.6150200447
 20
-24.393974941
  0
LINE
  5
337
100
AcDbEntity
  8
RACCORDO
100
AcDbLine
 62
7
  6
CONTINUOUS
 10
7.9504499168
 20
-24.8876367388
 11
7.9535438057
 21
-24.8859756371
  0
LINE
  5
338
100
AcDbEntity
  8
RACCORDO
100
AcDbLine
 62
253
  6
CONTINUOUS
 10
8.5428221877
 20
-24.4818479094
 11
8.0145550159
 21
-24.752858968
  0
LINE
  5
339
100
AcDbEntity
  8
RACCORDO
100
AcDbLine
 62
7
  6
CONTINUOUS
 10
8.4791341501
 20
-24.6164117196
 11
7.9504518866
 21
-24.8876357282
  0
LINE
  5
33A
100
AcDbEntity
  8
RACCORDO
100
AcDbLine
 62
7
  6
CONTINUOUS
 10
7.9487134994
 20
-24.8885049618
 11
7.9504499168
 21
-24.8876367388
  0
LINE
  5
33B
100
AcDbEntity
  8
RACCORDO
100
AcDbLine
 62
253
  6
CONTINUOUS
 10
8.0145550159
 20
-24.752858968
 11
6.4132742251
 21
-25.5328935677
  0
LINE
  5
33C
100
AcDbEntity
  8
RACCORDO
100
AcDbLine
 62
7
  6
CONTINUOUS
 10
7.9487107355
 20
-24.8885063082
 11
6.3470126325
 21
-25.6687441939
  0
LWPOLYLINE
  5
33D
100
AcDbEntity
  8
RACCORDO
100
AcDbPolyline
 62
7
  6
CONTINUOUS
 90
18
 70
0
 10
6.3470126325
 20
-25.6687441939
 10
6.3347916728
 20
-25.67429656
 10
6.3221625491
 20
-25.6792310001
 10
6.3091637499
 20
-25.6835096291
 10
6.2958184994
 20
-25.687102203
 10
6.2821927701
 20
-25.6899704302
 10
6.2683938113
 20
-25.6920799021
 10
6.2544948292
 20
-25.6934161502
 10
6.240525408
 20
-25.6939745378
 10
6.2265245564
 20
-25.6937501849
 10
6.2125510921
 20
-25.6927415786
 10
6.1986453368
 20
-25.6909501111
 10
6.184811897
 20
-25.6883711188
 10
6.1710438355
 20
-25.6849898566
 10
6.1574427866
 20
-25.6808177581
 10
6.144156956
 20
-25.675901247
 10
6.1312228007
 20
-25.6702644568
 10
6.1257195569
 20
-25.6675962912
  0
ELLIPSE
  5
33E
100
AcDbEntity
  8
RACCORDO
100
AcDbEllipse
 62
7
  6
CONTINUOUS
 10
-2.6253391442
 20
21.823539843
 30
0.0
 11
0.4999985559
 21
0.0023864752
 31
0.0
 40
0.5035541159
 41
2.3596088132
 42
3.0002042076
  0
ELLIPSE
  5
33F
100
AcDbEntity
  8
RACCORDO
100
AcDbEllipse
 62
7
  6
CONTINUOUS
 10
2.2227973281
 20
25.2987841547
 30
0.0
 11
0.5992399415
 21
0.3703506513
 31
0.0
 40
0.0815198604
 41
0.0503900255
 42
0.7263320369
  0
ELLIPSE
  5
340
100
AcDbEntity
  8
RACCORDO
100
AcDbEllipse
 62
7
  6
CONTINUOUS
 10
13.4527593131
 20
-17.9176649352
 30
0.0
 11
0.5992399415
 21
0.3703506513
 31
0.0
 40
0.0815198604
 41
-2.3978073241
 42
-1.1521423285
  0
ELLIPSE
  5
341
100
AcDbEntity
  8
RACCORDO
100
AcDbEllipse
 62
7
  6
CONTINUOUS
 10
8.721607941
 20
15.5602232216
 30
0.0
 11
-0.2237046003
 21
0.4472532382
 31
0.0
 40
0.6122950388
 41
-2.2557482655
 42
-0.6847996396
  0
ELLIPSE
  5
342
100
AcDbEntity
  8
RACCORDO
100
AcDbEllipse
 62
7
  6
CONTINUOUS
 10
8.721607941
 20
-22.3565411089
 30
0.0
 11
-0.2236445579
 21
0.4471998343
 31
0.0
 40
0.6124778111
 41
-3.1448859382
 42
-2.255529033
  0
ELLIPSE
  5
343
100
AcDbEntity
  8
ASSI
100
AcDbEllipse
 62
7
  6
CONTINUOUS
 10
2.7067525198
 20
24.3460595117
 30
0.0
 11
0.2257019663
 21
0.4461636818
 31
0.0
 40
0.6159267166
 41
0.5380090616
 42
0.6817883054
  0
ELLIPSE
  5
344
100
AcDbEntity
  8
RACCORDO
100
AcDbEllipse
 62
7
  6
CONTINUOUS
 10
5.6155372352
 20
15.9061221111
 30
0.0
 11
0.249929385
 21
0.0111824824
 31
0.0
 40
0.5313301283
 41
3.1178369227
 42
3.9032222197
  0
ELLIPSE
  5
345
100
AcDbEntity
  8
RACCORDO
100
AcDbEllipse
 62
7
  6
CONTINUOUS
 10
6.9487495688
 20
15.2395159443
 30
0.0
 11
0.249929385
 21
0.0111824824
 31
0.0
 40
0.5313301283
 41
-2.3799630874
 42
-1.3352760237
  0
ELLIPSE
  5
346
100
AcDbEntity
  8
RACCORDO
100
AcDbEllipse
 62
7
  6
CONTINUOUS
 10
13.4527593131
 20
19.6838031622
 30
0.0
 11
-0.44507484
 21
0.7201462186
 31
0.0
 40
0.5587454355
 41
4.9784541851
 42
6.2241191807
  0
ELLIPSE
  5
347
100
AcDbEntity
  8
RACCORDO
100
AcDbEllipse
 62
7
  6
CONTINUOUS
 10
13.2712580465
 20
-18.0650989096
 30
0.0
 11
0.499366618
 21
0.3086255427
 31
0.0
 40
0.0815198604
 41
5.7943443836
 42
7.0007906979
  0
ELLIPSE
  5
348
100
AcDbEntity
  8
RACCORDO
100
AcDbEllipse
 62
7
  6
CONTINUOUS
 10
13.2712580465
 20
20.1541597595
 30
0.0
 11
-0.3708957
 21
0.6001218488
 31
0.0
 40
0.5587454355
 41
-3.1744788413
 42
-1.968032527
  0
ELLIPSE
  5
349
100
AcDbEntity
  8
ASSI
100
AcDbEllipse
 62
7
  6
CONTINUOUS
 10
8.8675847906
 20
21.2656433763
 30
0.0
 11
0.221538876
 21
0.4482453432
 31
0.0
 40
0.6088015717
 41
0.5323082896
 42
0.6760875334
  0
ELLIPSE
  5
34A
100
AcDbEntity
  8
RACCORDO
100
AcDbEllipse
 62
7
  6
CONTINUOUS
 10
-6.4155685956
 20
21.9216750265
 30
0.0
 11
0.249929385
 21
0.0111824824
 31
0.0
 40
0.5313301283
 41
-2.3799630874
 42
-0.8149845248
  0
ELLIPSE
  5
34B
100
AcDbEntity
  8
DRAFT
100
AcDbEllipse
 62
7
  6
CONTINUOUS
 10
3.0606073508
 20
23.4212103347
 30
0.0
 11
0.4279673669
 21
-0.0030279657
 31
0.0
 40
0.4946372042
 41
-0.7818985079
 42
0.0034334511
  0
ELLIPSE
  5
34C
100
AcDbEntity
  8
DRAFT
100
AcDbEllipse
 62
7
  6
CONTINUOUS
 10
8.6155957799
 20
20.6437161201
 30
0.0
 11
0.4279673669
 21
-0.0030279657
 31
0.0
 40
0.4946372042
 41
-0.7760807437
 42
0.0034305001
  0
ELLIPSE
  5
34D
100
AcDbEntity
  8
RACCORDO
100
AcDbEllipse
 62
7
  6
CONTINUOUS
 10
-2.6253391442
 20
20.5909302378
 30
0.0
 11
0.4998587701
 21
0.0223649649
 31
0.0
 40
0.5313301283
 41
3.1178197826
 42
3.9032222197
  0
ELLIPSE
  5
34E
100
AcDbEntity
  8
RACCORDO
100
AcDbEllipse
 62
7
  6
CONTINUOUS
 10
2.8859679555
 20
17.835276688
 30
0.0
 11
0.4998587701
 21
0.0223649649
 31
0.0
 40
0.5313301283
 41
-2.3799630874
 42
-0.8149845248
  0
ELLIPSE
  5
34F
100
AcDbEntity
  8
RACCORDO
100
AcDbEllipse
 62
7
  6
CONTINUOUS
 10
2.8859679555
 20
19.0678862932
 30
0.0
 11
0.4999985559
 21
0.0023864752
 31
0.0
 40
0.5035541159
 41
-1.4342147631
 42
-0.7936193687
  0
ELLIPSE
  5
350
100
AcDbEntity
  8
RACCORDO
100
AcDbEllipse
 62
7
  6
CONTINUOUS
 10
-7.7487809292
 20
22.5882811933
 30
0.0
 11
0.249929385
 21
0.0111824824
 31
0.0
 40
0.5313301283
 41
3.1179086008
 42
3.9032222197
  0
ENDSEC
  0
SECTION
  2
OBJECTS
  0
DICTIONARY
  5
C
100
AcDbDictionary
280
0
281
1
  3
ACAD_GROUP
350
D
  3
ACAD_MLINESTYLE
350
17
  3
ACAD_LAYOUT
350
1A
  3
ACAD_PLOTSETTINGS
350
19
  3
ACAD_PLOTSTYLENAME
350
E
  0
DICTIONARY
  5
D
102
{ACAD_REACTORS
330
C
102
}
100
AcDbDictionary
280
0
281
1
  0
ACDBDICTIONARYWDFLT
  5
E
102
{ACAD_REACTORS
330
C
102
}
100
AcDbDictionary
281
1
  3
Normal
350
F
100
AcDbDictionaryWithDefault
340
F
  0
DICTIONARY
  5
17
102
{ACAD_REACTORS
330
C
102
}
100
AcDbDictionary
280
0
281
1
  3
Standard
350
18
  0
DICTIONARY
  5
19
102
{ACAD_REACTORS
330
C
102
}
100
AcDbDictionary
281
1
  0
DICTIONARY
  5
1A
102
{ACAD_REACTORS
330
C
102
}
100
AcDbDictionary
281
1
  3
Model
350
351
  3
Layout1
350
352
  0
ACDBPLACEHOLDER
  5
F
102
{ACAD_REACTORS
330
E
102
}
  0
MLINESTYLE
  5
18
102
{ACAD_REACTORS
330
17
102
}
100
AcDbMlineStyle
  2
STANDARD
 70
0
  3

 62
256
 51
90.0
 52
90.0
 71
2
 49
0.5
 62
256
  6
BYLAYER
 49
-0.5
 62
256
  6
BYLAYER
  0
LAYOUT
  5
351
102
{ACAD_REACTORS
330
1A
102
}
100
AcDbPlotSettings
  1

  2
none_device
  4
ISO_A4_(297.00_x_210.00_MM)
  6

 40
0.0
 41
0.0
 42
0.0
 43
0.0
 44
297.0
 45
210.0
 46
0.0
 47
0.0
 48
0.0
 49
0.0
140
0.0
141
0.0
142
1.0
143
1.0
 70
1024
 72
1
 73
0
 74
0
  7

 75
0
147
1.0
148
0.0
149
0.0
100
AcDbLayout
  1
Model
 70
0
 71
0
 10
0.0
 20
0.0
 11
297.0
 21
210.0
 12
0.0
 22
0.0
 32
0.0
 14
0.0
 24
0.0
 34
0.0
 15
0.0
 25
0.0
 35
0.0
146
0.0
 13
0.0
 23
0.0
 33
0.0
 16
1.0
 26
0.0
 36
0.0
 17
0.0
 27
1.0
 37
0.0
 76
0
330
212
345
0
346
0
  0
LAYOUT
  5
352
102
{ACAD_REACTORS
330
1A
102
}
100
AcDbPlotSettings
  1

  2
none_device
  4
ISO_A4_(297.00_x_210.00_MM)
  6

 40
0.0
 41
0.0
 42
0.0
 43
0.0
 44
297.0
 45
210.0
 46
0.0
 47
0.0
 48
0.0
 49
0.0
140
0.0
141
0.0
142
1.0
143
1.0
 70
0
 72
1
 73
0
 74
0
  7

 75
0
147
1.0
148
0.0
149
0.0
100
AcDbLayout
  1
Layout1
 70
0
 71
1
 10
0.0
 20
0.0
 11
297.0
 21
210.0
 12
0.0
 22
0.0
 32
0.0
 14
0.0
 24
0.0
 34
0.0
 15
0.0
 25
0.0
 35
0.0
146
0.0
 13
0.0
 23
0.0
 33
0.0
 16
1.0
 26
0.0
 36
0.0
 17
0.0
 27
1.0
 37
0.0
 76
0
330
213
345
0
346
0
  0
ENDSEC
  0
EOF
