  0
SECTION
  2
HEADER
  9
$ACADVER
  1
AC1015
  9
$DWGCODEPAGE
  3
ANSI_1252
  9
$EXTMAX
 10
297.0
 20
210.0
 30
0.0
  9
$EXTMIN
 10
0.0
 20
0.0
 30
0.0
  9
$LIMMIN
 10
0.0
 20
0.0
  9
$LIMMAX
 10
297.0
 20
210.0
  9
$VIEWCTR
 10
148.5
 20
105.0
  9
$VIEWSIZE
 40
210.0
  9
$CLAYER
  8
0
  9
$LTSCALE
 40
16.335
  9
$CELTYPE
  6
BYLAYER
  9
$DIMSCALE
 40
1.0
  9
$DIMASZ
 40
3.0
  9
$DIMEXO
 40
0.5
  9
$DIMDLI
 40
11.286
  9
$DIMEXE
 40
1.5
  9
$DIMCEN
 40
2.673
  9
$DIMLFAC
 40
1.0
  9
$DIMBLK
  1
_FILLED
  9
$DIMTXT
 40
3.0
  9
$DIMTOL
 70
1
  9
$DIMLIM
 70
0
  9
$DIMTFAC
 40
1.0
  9
$DIMTP
 40
0.01
  9
$DIMTM
 40
0.01
  9
$DIMGAP
 40
0.625
  9
$DIMDSEP
 70
44
  9
$PDMODE
 70
3
  9
$PDSIZE
 40
3.0
  9
$HANDSEED
  5
4EE
  9
$TILEMODE
 70
1
  9
$MEASUREMENT
 70
1
  9
$INSUNITS
 70
4
  0
ENDSEC
  0
SECTION
  2
CLASSES
  0
CLASS
  1
ACDBDICTIONARYWDFLT
  2
AcDbDictionaryWithDefault
  3
AutoCAD 2000
 90
0
280
0
281
0
  0
CLASS
  1
ACDBPLACEHOLDER
  2
AcDbPlaceHolder
  3
AutoCAD 2000
 90
0
280
0
281
0
  0
CLASS
  1
LAYOUT
  2
AcDbLayout
  3
AutoCAD 2000
 90
0
280
0
281
0
  0
ENDSEC
  0
SECTION
  2
TABLES
  0
TABLE
  2
VPORT
  5
8
100
AcDbSymbolTable
 70
2
  0
VPORT
  5
1F4
100
AcDbSymbolTableRecord
100
AcDbViewportTableRecord
  2
*ACTIVE
 70
0
 10
0.0
 20
0.0
 11
1.0
 21
1.0
 12
148.5
 22
105.0
 13
0.0
 23
0.0
 14
1.0
 24
1.0
 15
0.0
 25
0.0
 16
0.0
 26
0.0
 36
1.0
 17
0.0
 27
0.0
 37
0.0
 40
210.0
 41
1.4142857143
 42
50.0
 43
0.0
 44
0.0
 50
0.0
 51
0.0
 71
0
 72
100
 73
1
 74
1
 75
0
 76
0
 77
0
 78
0
  0
ENDTAB
  0
TABLE
  2
LTYPE
  5
5
100
AcDbSymbolTable
 70
6
  0
LTYPE
  5
14
100
AcDbSymbolTableRecord
100
AcDbLinetypeTableRecord
  2
BYBLOCK
 70
0
  3

 72
65
 73
0
 40
0.0
  0
LTYPE
  5
15
100
AcDbSymbolTableRecord
100
AcDbLinetypeTableRecord
  2
BYLAYER
 70
0
  3

 72
65
 73
0
 40
0.0
  0
LTYPE
  5
16
100
AcDbSymbolTableRecord
100
AcDbLinetypeTableRecord
  2
CONTINUOUS
 70
64
  3
Solid line
 72
65
 73
0
 40
0.0
  0
LTYPE
  5
1F5
100
AcDbSymbolTableRecord
100
AcDbLinetypeTableRecord
  2
CENTER
 70
64
  3
____ _ ____ _ ____ _ ____ _ ____ _ ____ _ ____
 72
65
 73
4
 40
0.6
 49
0.375
 74
0
 49
-0.075
 74
0
 49
0.075
 74
0
 49
-0.075
 74
0
  0
LTYPE
  5
1F6
100
AcDbSymbolTableRecord
100
AcDbLinetypeTableRecord
  2
HIDDEN
 70
64
  3
- - - - - - - - - - - - - - - - - - - -
 72
65
 73
2
 40
0.2
 49
0.1
 74
0
 49
-0.1
 74
0
  0
LTYPE
  5
1F7
100
AcDbSymbolTableRecord
100
AcDbLinetypeTableRecord
  2
PHANTOM
 70
64
  3
_____ _ _ _____ _ _ _____ _ _ _____
 72
65
 73
6
 40
0.8
 49
0.45
 74
0
 49
-0.05
 74
0
 49
0.1
 74
0
 49
-0.05
 74
0
 49
0.1
 74
0
 49
-0.05
 74
0
  0
LTYPE
  5
1F8
100
AcDbSymbolTableRecord
100
AcDbLinetypeTableRecord
  2
DOT
 70
64
  3
. . . . . . . . . . . . . . . . . . . .
 72
65
 73
2
 40
0.2
 49
0.1
 74
0
 49
-0.1
 74
0
  0
LTYPE
  5
1F9
100
AcDbSymbolTableRecord
100
AcDbLinetypeTableRecord
  2
DASHED
 70
64
  3
- - - - - - - - - - - - - - - - - - - -
 72
65
 73
2
 40
0.2
 49
0.1
 74
0
 49
-0.1
 74
0
  0
ENDTAB
  0
TABLE
  2
LAYER
  5
2
100
AcDbSymbolTable
 70
36
  0
LAYER
  5
10
100
AcDbSymbolTableRecord
100
AcDbLayerTableRecord
  2
0
 70
0
 62
7
  6
CONTINUOUS
370
-3
390
F
  0
LAYER
  5
1FA
100
AcDbSymbolTableRecord
100
AcDbLayerTableRecord
  2
DEFAULT_1
 70
0
 62
7
  6
CENTER
370
-3
390
F
  0
LAYER
  5
1FB
100
AcDbSymbolTableRecord
100
AcDbLayerTableRecord
  2
DEFAULT_2
 70
0
 62
7
  6
HIDDEN
370
-3
390
F
  0
LAYER
  5
1FC
100
AcDbSymbolTableRecord
100
AcDbLayerTableRecord
  2
DEFAULT_3
 70
0
 62
7
  6
PHANTOM
370
-3
390
F
  0
LAYER
  5
1FD
100
AcDbSymbolTableRecord
100
AcDbLayerTableRecord
  2
217
 70
0
 62
7
  6
CONTINUOUS
370
-3
390
F
  0
LAYER
  5
1FE
100
AcDbSymbolTableRecord
100
AcDbLayerTableRecord
  2
218
 70
0
 62
7
  6
CONTINUOUS
370
-3
390
F
  0
LAYER
  5
1FF
100
AcDbSymbolTableRecord
100
AcDbLayerTableRecord
  2
284
 70
0
 62
7
  6
CONTINUOUS
370
-3
390
F
  0
LAYER
  5
200
100
AcDbSymbolTableRecord
100
AcDbLayerTableRecord
  2
290
 70
0
 62
7
  6
CONTINUOUS
370
-3
390
F
  0
LAYER
  5
201
100
AcDbSymbolTableRecord
100
AcDbLayerTableRecord
  2
ASSI
 70
0
 62
7
  6
CONTINUOUS
370
-3
390
F
  0
LAYER
  5
202
100
AcDbSymbolTableRecord
100
AcDbLayerTableRecord
  2
COLORE_TOP
 70
0
 62
7
  6
CONTINUOUS
370
-3
390
F
  0
LAYER
  5
203
100
AcDbSymbolTableRecord
100
AcDbLayerTableRecord
  2
COORDINATE
 70
0
 62
7
  6
CONTINUOUS
370
-3
390
F
  0
LAYER
  5
204
100
AcDbSymbolTableRecord
100
AcDbLayerTableRecord
  2
COORD_ORIGINE
 70
0
 62
7
  6
CONTINUOUS
370
-3
390
F
  0
LAYER
  5
205
100
AcDbSymbolTableRecord
100
AcDbLayerTableRecord
  2
COPY_PUBLISH
 70
0
 62
7
  6
CONTINUOUS
370
-3
390
F
  0
LAYER
  5
206
100
AcDbSymbolTableRecord
100
AcDbLayerTableRecord
  2
COSMETICHE
 70
0
 62
7
  6
CONTINUOUS
370
-3
390
F
  0
LAYER
  5
207
100
AcDbSymbolTableRecord
100
AcDbLayerTableRecord
  2
COSMETICI
 70
0
 62
7
  6
CONTINUOUS
370
-3
390
F
  0
LAYER
  5
208
100
AcDbSymbolTableRecord
100
AcDbLayerTableRecord
  2
CURVE
 70
0
 62
7
  6
CONTINUOUS
370
-3
390
F
  0
LAYER
  5
209
100
AcDbSymbolTableRecord
100
AcDbLayerTableRecord
  2
DRAFT
 70
0
 62
7
  6
CONTINUOUS
370
-3
390
F
  0
LAYER
  5
20A
100
AcDbSymbolTableRecord
100
AcDbLayerTableRecord
  2
IMPORTED
 70
0
 62
7
  6
CONTINUOUS
370
-3
390
F
  0
LAYER
  5
20B
100
AcDbSymbolTableRecord
100
AcDbLayerTableRecord
  2
IMPORT_IGES
 70
0
 62
7
  6
CONTINUOUS
370
-3
390
F
  0
LAYER
  5
20C
100
AcDbSymbolTableRecord
100
AcDbLayerTableRecord
  2
INCISIONI_LASER
 70
0
 62
7
  6
CONTINUOUS
370
-3
390
F
  0
LAYER
  5
20D
100
AcDbSymbolTableRecord
100
AcDbLayerTableRecord
  2
NOTE
 70
0
 62
7
  6
CONTINUOUS
370
-3
390
F
  0
LAYER
  5
20E
100
AcDbSymbolTableRecord
100
AcDbLayerTableRecord
  2
PIANI
 70
0
 62
7
  6
CONTINUOUS
370
-3
390
F
  0
LAYER
  5
20F
100
AcDbSymbolTableRecord
100
AcDbLayerTableRecord
  2
PIANI_ORIGINE
 70
0
 62
7
  6
CONTINUOUS
370
-3
390
F
  0
LAYER
  5
210
100
AcDbSymbolTableRecord
100
AcDbLayerTableRecord
  2
PIANI_RIFERIMENTO
 70
0
 62
7
  6
CONTINUOUS
370
-3
390
F
  0
LAYER
  5
211
100
AcDbSymbolTableRecord
100
AcDbLayerTableRecord
  2
PIANI_SFORMO
 70
0
 62
7
  6
CONTINUOUS
370
-3
390
F
  0
LAYER
  5
212
100
AcDbSymbolTableRecord
100
AcDbLayerTableRecord
  2
PUNTI
 70
0
 62
7
  6
CONTINUOUS
370
-3
390
F
  0
LAYER
  5
213
100
AcDbSymbolTableRecord
100
AcDbLayerTableRecord
  2
RACCORDO
 70
0
 62
7
  6
CONTINUOUS
370
-3
390
F
  0
LAYER
  5
214
100
AcDbSymbolTableRecord
100
AcDbLayerTableRecord
  2
SIMBOLI
 70
0
 62
7
  6
CONTINUOUS
370
-3
390
F
  0
LAYER
  5
215
100
AcDbSymbolTableRecord
100
AcDbLayerTableRecord
  2
SMUSSO
 70
0
 62
7
  6
CONTINUOUS
370
-3
390
F
  0
LAYER
  5
216
100
AcDbSymbolTableRecord
100
AcDbLayerTableRecord
  2
SNAPLINE
 70
0
 62
7
  6
CONTINUOUS
370
-3
390
F
  0
LAYER
  5
217
100
AcDbSymbolTableRecord
100
AcDbLayerTableRecord
  2
SUPERFICI
 70
0
 62
7
  6
CONTINUOUS
370
-3
390
F
  0
LAYER
  5
218
100
AcDbSymbolTableRecord
100
AcDbLayerTableRecord
  2
TRACCIABILITA
 70
0
 62
7
  6
CONTINUOUS
370
-3
390
F
  0
LAYER
  5
219
100
AcDbSymbolTableRecord
100
AcDbLayerTableRecord
  2
TRASH
 70
0
 62
7
  6
CONTINUOUS
370
-3
390
F
  0
LAYER
  5
21A
100
AcDbSymbolTableRecord
100
AcDbLayerTableRecord
  2
XSEC_DATUMS
 70
0
 62
7
  6
CONTINUOUS
370
-3
390
F
  0
ENDTAB
  0
TABLE
  2
STYLE
  5
3
100
AcDbSymbolTable
 70
1
  0
STYLE
  5
11
100
AcDbSymbolTableRecord
100
AcDbTextStyleTableRecord
  2
STANDARD
 70
0
 40
0.0
 41
0.8
 50
0.0
 71
0
 42
0.2
  3
txt
  4

  0
STYLE
  5
21B
100
AcDbSymbolTableRecord
100
AcDbTextStyleTableRecord
  2
TEXTSTYLE_1
 70
0
 40
0.0
 41
0.8
 50
0.0
 71
0
 42
0.2
  3
gdt
  4

  0
ENDTAB
  0
TABLE
  2
VIEW
  5
6
100
AcDbSymbolTable
 70
0
  0
ENDTAB
  0
TABLE
  2
UCS
  5
7
100
AcDbSymbolTable
 70
0
  0
ENDTAB
  0
TABLE
  2
APPID
  5
9
100
AcDbSymbolTable
 70
1
  0
APPID
  5
21C
100
AcDbSymbolTableRecord
100
AcDbRegAppTableRecord
  2
ACAD
 70
0
  0
ENDTAB
  0
TABLE
  2
BLOCK_RECORD
  5
1
100
AcDbSymbolTable
 70
0
  0
BLOCK_RECORD
  5
21D
100
AcDbSymbolTableRecord
100
AcDbBlockTableRecord
  2
*Model_Space
  0
BLOCK_RECORD
  5
21E
100
AcDbSymbolTableRecord
100
AcDbBlockTableRecord
  2
*Paper_Space
  0
ENDTAB
  0
TABLE
  2
DIMSTYLE
  5
A
100
AcDbSymbolTable
 70
1
100
AcDbDimStyleTable
 71
0
  0
DIMSTYLE
105
21F
100
AcDbSymbolTableRecord
100
AcDbDimStyleTableRecord
  2
STANDARD
 70
0
  3

  4

 40
1.0
 41
3.0
 42
0.5
 43
0.38
 44
1.5
 45
0.0
 46
0.0
 47
0.01
 48
0.01
140
3.0
141
0.09
142
0.0
143
25.4
144
1.0
145
0.0
146
1.0
147
0.625
 71
1.0
 72
0.0
 73
0
 74
0
 75
0
 76
0
 77
1
 78
8
170
0
171
2
172
0
173
0
174
0
175
0
176
0
177
0
178
0
270
2
271
2
272
2
273
2
274
2
275
0
280
0
281
0
282
0
283
1
284
8
285
0
286
0
287
3
288
0
340
11
278
44
  0
ENDTAB
  0
ENDSEC
  0
SECTION
  2
BLOCKS
  0
BLOCK
  5
20
100
AcDbEntity
  8
0
100
AcDbBlockBegin
  2
*Model_Space
 70
0
 10
0.0
 20
0.0
 30
0.0
  3
*Model_Space
  1

  0
ENDBLK
  5
21
100
AcDbEntity
  8
0
100
AcDbBlockEnd
  0
BLOCK
  5
1C
100
AcDbEntity
  8
0
100
AcDbBlockBegin
  2
*Paper_Space
 70
0
 10
0.0
 20
0.0
 30
0.0
  3
*Paper_Space
  1

  0
ENDBLK
  5
1D
100
AcDbEntity
  8
0
100
AcDbBlockEnd
  0
ENDSEC
  0
SECTION
  2
ENTITIES
  0
LWPOLYLINE
  5
220
100
AcDbEntity
  8
RACCORDO
100
AcDbPolyline
 62
7
  6
CONTINUOUS
 90
49
 70
0
 10
127.0492639062
 20
64.7588168161
 10
127.406431675
 20
64.600913447
 10
127.7764629625
 20
64.468463436
 10
128.1585783886
 20
64.3620093574
 10
128.5520601553
 20
64.2820105635
 10
128.9559832874
 20
64.2289011211
 10
129.3692260003
 20
64.2030259927
 10
129.7908787289
 20
64.204601021
 10
130.2201246961
 20
64.2337795347
 10
130.6559877627
 20
64.2906455187
 10
131.0978213206
 20
64.3752769414
 10
131.544536835
 20
64.4876317842
 10
131.9944786723
 20
64.6273774677
 10
132.4466443225
 20
64.794216626
 10
132.9002367652
 20
64.9878777547
 10
133.3538729808
 20
65.2077697322
 10
133.8066575865
 20
65.4534271843
 10
134.2576612521
 20
65.7243236465
 10
134.7054302577
 20
66.0195238252
 10
135.1489130176
 20
66.3382199232
 10
135.5873639727
 20
66.6797694808
 10
136.0197858367
 20
67.0432997377
 10
136.4452453169
 20
67.4279214479
 10
136.862937902
 20
67.8328089557
 10
137.2720594497
 20
68.2571006744
 10
137.6718111676
 20
68.6999008062
 10
138.0613301423
 20
69.160191694
 10
138.4397325657
 20
69.6368585051
 10
138.806188951
 20
70.1287740275
 10
139.1600064395
 20
70.6349301251
 10
139.5005320059
 20
71.1543366124
 10
139.8270769436
 20
71.6859059102
 10
140.1389372377
 20
72.2284602843
 10
140.4354649526
 20
72.7808440111
 10
140.7160237152
 20
73.3418475784
 10
140.9800345809
 20
73.9102957234
 10
141.2269736996
 20
74.4850628624
 10
141.456317917
 20
75.0649568666
 10
141.6675532466
 20
75.6487153551
 10
141.8602145983
 20
76.2351001337
 10
142.033872199
 20
76.8228669865
 10
142.1881331479
 20
77.4107707097
 10
142.3226441078
 20
77.9975783481
 10
142.437078945
 20
78.5820110437
 10
142.5311653886
 20
79.16287094
 10
142.6046750284
 20
79.7390677775
 10
142.6573912504
 20
80.309431345
 10
142.6891238936
 20
80.8727026498
 10
142.6997273815
 20
81.4276769912
  0
LWPOLYLINE
  5
221
100
AcDbEntity
  8
DRAFT
100
AcDbPolyline
 62
7
  6
CONTINUOUS
 90
3
 70
0
 10
124.5345293042
 20
65.9909202914
 10
124.7679906399
 20
65.8783892969
 10
124.8751159114
 20
65.8347696534
  0
LINE
  5
222
100
AcDbEntity
  8
DRAFT
100
AcDbLine
 62
7
  6
CONTINUOUS
 10
125.2001832082
 20
65.6579823024
 11
127.0492639147
 21
64.7588168119
  0
LINE
  5
223
100
AcDbEntity
  8
RACCORDO
100
AcDbLine
 62
253
  6
CONTINUOUS
 10
127.0492639073
 20
64.7588168155
 11
127.0490174517
 21
64.7589366695
  0
LINE
  5
224
100
AcDbEntity
  8
DRAFT
100
AcDbLine
 62
7
  6
CONTINUOUS
 10
124.5345303795
 20
65.9908087168
 11
122.7057495637
 21
66.9305739874
  0
LWPOLYLINE
  5
225
100
AcDbEntity
  8
DRAFT
100
AcDbPolyline
 62
7
  6
CONTINUOUS
 90
21
 70
0
 10
125.2003348168
 20
65.6580235387
 10
124.9961249923
 20
65.7630829132
 10
124.6720079101
 20
65.9550924457
 10
124.3613601843
 20
66.1717824967
 10
124.0641464488
 20
66.4129457514
 10
123.7823371362
 20
66.6769669405
 10
123.5161097962
 20
66.9639080053
 10
123.265286879
 20
67.2737070044
 10
123.0313061671
 20
67.6045628441
 10
122.8142236914
 20
67.9566443916
 10
122.613983421
 20
68.3297827797
 10
122.4318550461
 20
68.7216703131
 10
122.2679478904
 20
69.132479347
 10
122.1221526304
 20
69.5620375263
 10
121.9954109847
 20
70.0075200902
 10
121.8878689668
 20
70.4688996536
 10
121.7993805634
 20
70.9462036017
 10
121.730449453
 20
71.4366893287
 10
121.6812435286
 20
71.9394426328
 10
121.6515948973
 20
72.4553777158
 10
121.6415035591
 20
72.9844945779
  0
LWPOLYLINE
  5
226
100
AcDbEntity
  8
RACCORDO
100
AcDbPolyline
 62
253
  6
CONTINUOUS
 90
21
 70
0
 10
127.0490174517
 20
64.7589366695
 10
126.8353978694
 20
64.8691857653
 10
126.5123404835
 20
65.0616462327
 10
126.2028910327
 20
65.278373548
 10
125.9076639722
 20
65.5188950922
 10
125.6271053486
 20
65.7828329793
 10
125.3617415332
 20
66.0697195151
 10
125.1121935476
 20
66.3789123936
 10
124.8790184378
 20
66.7097282485
 10
124.6626944862
 20
67.0614863734
 10
124.4636711473
 20
67.4334536125
 10
124.2823922975
 20
67.8247814915
 10
124.1192382125
 20
68.2346019164
 10
123.974512781
 20
68.6620991454
 10
123.8484863142
 20
69.1064429554
 10
123.7414122835
 20
69.5667237063
 10
123.6535106639
 20
70.0419770625
 10
123.5849545022
 20
70.5312523027
 10
123.5358838911
 20
71.0335507075
 10
123.5064013458
 20
71.5478243771
 10
123.496567192
 20
72.0730116004
  0
LWPOLYLINE
  5
227
100
AcDbEntity
  8
RACCORDO
100
AcDbPolyline
 62
7
  6
CONTINUOUS
 90
22
 70
0
 10
122.7057495704
 20
66.930573984
 10
122.3966428322
 20
67.1025069447
 10
122.0979979278
 20
67.295333471
 10
121.8104704657
 20
67.5088066923
 10
121.5347619626
 20
67.7425717658
 10
121.2713972653
 20
67.9963507536
 10
121.0207463042
 20
68.270008942
 10
120.7832587361
 20
68.5633533526
 10
120.5596044407
 20
68.8758714032
 10
120.3504262544
 20
69.2069333644
 10
120.1561214348
 20
69.5561780983
 10
119.9771749133
 20
69.9230292485
 10
119.8142141582
 20
70.3064013018
 10
119.6675536431
 20
70.7056607244
 10
119.5374593644
 20
71.1202164308
 10
119.4243180059
 20
71.548886387
 10
119.3283095908
 20
71.9909116006
 10
119.2495710461
 20
72.4455974945
 10
119.1882796325
 20
72.9117257937
 10
119.1444982073
 20
73.3883252765
 10
119.1182300386
 20
73.8747261076
 10
119.1094774037
 20
74.3700964227
  0
LWPOLYLINE
  5
228
100
AcDbEntity
  8
217
100
AcDbPolyline
 62
7
  6
CONTINUOUS
 90
37
 70
0
 10
129.429539768
 20
136.1358227542
 10
129.3978584901
 20
136.1167734914
 10
129.3549661059
 20
136.0891169295
 10
129.3128915524
 20
136.0598381617
 10
129.2716515144
 20
136.0289974379
 10
129.2312548075
 20
135.9966482943
 10
129.1917153342
 20
135.9628429632
 10
129.1530474026
 20
135.9276330768
 10
129.1152661725
 20
135.8910670939
 10
129.0783967498
 20
135.853200076
 10
129.0424560141
 20
135.814079879
 10
129.0074630283
 20
135.773751822
 10
128.9734512281
 20
135.7322782679
 10
128.940441441
 20
135.6897066151
 10
128.9084555939
 20
135.6460815738
 10
128.8775312064
 20
135.6014718725
 10
128.8476918861
 20
135.5559249666
 10
128.818961089
 20
135.5094870849
 10
128.7913777434
 20
135.4622309748
 10
128.7649666552
 20
135.4142041597
 10
128.7397521958
 20
135.365455126
 10
128.715773923
 20
135.3160601322
 10
128.693056541
 20
135.2660676351
 10
128.6716247985
 20
135.2155266015
 10
128.6515167579
 20
135.1645142289
 10
128.6327561708
 20
135.1130788625
 10
128.6153687501
 20
135.0612691742
 10
128.5993893421
 20
135.0091607106
 10
128.5848418253
 20
134.9568005377
 10
128.5717529851
 20
134.9042356882
 10
128.5601539197
 20
134.8515362075
 10
128.5500705956
 20
134.7987483875
 10
128.5415311699
 20
134.7459173658
 10
128.5345653894
 20
134.6931006012
 10
128.5292034725
 20
134.6403422987
 10
128.5254758257
 20
134.5876875806
 10
128.523835481
 20
134.5502802858
  0
LINE
  5
229
100
AcDbEntity
  8
217
100
AcDbLine
 62
7
  6
CONTINUOUS
 10
129.4295300517
 20
136.1358173164
 11
134.0185048786
 21
138.8116099583
  0
LINE
  5
22A
100
AcDbEntity
  8
217
100
AcDbLine
 62
253
  6
CONTINUOUS
 10
134.0185048786
 20
138.6667757818
 11
129.6628840993
 21
136.1270499233
  0
LWPOLYLINE
  5
22B
100
AcDbEntity
  8
217
100
AcDbPolyline
 62
253
  6
CONTINUOUS
 90
17
 70
0
 10
129.4295396691
 20
136.1358229238
 10
129.4319887141
 20
136.1372247831
 10
129.4446251852
 20
136.1436765429
 10
129.4577973761
 20
136.1491331857
 10
129.4714754821
 20
136.1535823647
 10
129.4856285539
 20
136.1570140129
 10
129.5002245675
 20
136.1594203655
 10
129.5152304968
 20
136.1607959777
 10
129.530612388
 20
136.1611377369
 10
129.5463354366
 20
136.1604448698
 10
129.5623640663
 20
136.1587189441
 10
129.5786620093
 20
136.1559638651
 10
129.5951923884
 20
136.1521858668
 10
129.6119178006
 20
136.1473934974
 10
129.6288004013
 20
136.1415976006
 10
129.6458019907
 20
136.1348112908
 10
129.6628840993
 20
136.1270499233
  0
LINE
  5
22C
100
AcDbEntity
  8
217
100
AcDbLine
 62
7
  6
CONTINUOUS
 10
135.0345695138
 20
140.9718606279
 11
133.4513978188
 21
140.1596635806
  0
LINE
  5
22D
100
AcDbEntity
  8
217
100
AcDbLine
 62
253
  6
CONTINUOUS
 10
135.1472400881
 20
140.9651997028
 11
133.564483485
 21
140.1532156055
  0
LINE
  5
22E
100
AcDbEntity
  8
217
100
AcDbLine
 62
253
  6
CONTINUOUS
 10
136.4907489556
 20
140.2934452691
 11
134.8894681648
 21
139.4907232656
  0
LINE
  5
22F
100
AcDbEntity
  8
217
100
AcDbLine
 62
253
  6
CONTINUOUS
 10
136.6675226593
 20
139.9885557303
 11
135.0662418685
 21
139.1858337268
  0
LINE
  5
230
100
AcDbEntity
  8
217
100
AcDbLine
 62
7
  6
CONTINUOUS
 10
135.0363078993
 20
140.9727298607
 11
135.0345714875
 21
140.9718616405
  0
LINE
  5
231
100
AcDbEntity
  8
217
100
AcDbLine
 62
253
  6
CONTINUOUS
 10
137.0190161274
 20
140.5568840891
 11
136.4907489556
 21
140.2934452691
  0
LINE
  5
232
100
AcDbEntity
  8
217
100
AcDbLine
 62
253
  6
CONTINUOUS
 10
137.195789831
 20
140.2519945503
 11
136.6675226593
 21
139.9885557303
  0
LINE
  5
233
100
AcDbEntity
  8
217
100
AcDbLine
 62
7
  6
CONTINUOUS
 10
135.5711778557
 20
141.2332819605
 11
135.0363106649
 21
140.9727312079
  0
LINE
  5
234
100
AcDbEntity
  8
217
100
AcDbLine
 62
253
  6
CONTINUOUS
 10
135.6816899668
 20
141.2255471694
 11
135.1472400881
 21
140.9651997028
  0
LWPOLYLINE
  5
235
100
AcDbEntity
  8
218
100
AcDbPolyline
 62
7
  6
CONTINUOUS
 90
9
 70
0
 10
151.0583740006
 20
144.0381550225
 10
151.1175812861
 20
144.061762576
 10
151.1781045737
 20
144.077590498
 10
151.2393722624
 20
144.0856255579
 10
151.3007294172
 20
144.0858560002
 10
151.3616931483
 20
144.0784394052
 10
151.4219583752
 20
144.0636939732
 10
151.4809625803
 20
144.0418025927
 10
151.5095414034
 20
144.0283806806
  0
LWPOLYLINE
  5
236
100
AcDbEntity
  8
217
100
AcDbPolyline
 62
7
  6
CONTINUOUS
 90
7
 70
0
 10
145.380513639
 20
140.5542668961
 10
145.3724308879
 20
140.5515515255
 10
145.3643228351
 20
140.548593732
 10
145.3561894807
 20
140.5453935156
 10
145.3480308246
 20
140.5419508763
 10
145.3398468668
 20
140.5382658141
 10
145.3316376075
 20
140.534338329
  0
LINE
  5
237
100
AcDbEntity
  8
217
100
AcDbLine
 62
7
  6
CONTINUOUS
 10
136.6675226593
 20
138.3864050693
 11
135.7774624766
 21
137.889724148
  0
LINE
  5
238
100
AcDbEntity
  8
217
100
AcDbLine
 62
7
  6
CONTINUOUS
 10
139.0363423776
 20
138.056286656
 11
139.3898837669
 21
138.2376600808
  0
LINE
  5
239
100
AcDbEntity
  8
217
100
AcDbLine
 62
7
  6
CONTINUOUS
 10
144.3901057209
 20
141.5267090983
 11
138.0755653943
 21
138.3819327938
  0
LINE
  5
23A
100
AcDbEntity
  8
217
100
AcDbLine
 62
7
  6
CONTINUOUS
 10
145.3316376075
 20
140.534338329
 11
140.7333866511
 21
138.2679770315
  0
LINE
  5
23B
100
AcDbEntity
  8
217
100
AcDbLine
 62
7
  6
CONTINUOUS
 10
139.3898837669
 20
138.2376600808
 11
144.7261071728
 21
140.8371035463
  0
LINE
  5
23C
100
AcDbEntity
  8
218
100
AcDbLine
 62
7
  6
CONTINUOUS
 10
151.0583740006
 20
144.0381550225
 11
145.294968214
 21
141.3201488199
  0
LINE
  5
23D
100
AcDbEntity
  8
218
100
AcDbLine
 62
7
  6
CONTINUOUS
 10
144.5361863421
 20
137.8347073206
 11
144.466345391
 21
137.8086060131
  0
LINE
  5
23E
100
AcDbEntity
  8
218
100
AcDbLine
 62
7
  6
CONTINUOUS
 10
144.6112254522
 20
137.8576348857
 11
144.5361863421
 21
137.8347073206
  0
LWPOLYLINE
  5
23F
100
AcDbEntity
  8
218
100
AcDbPolyline
 62
7
  6
CONTINUOUS
 90
6
 70
0
 10
144.4663457523
 20
137.8086061834
 10
144.4795740269
 20
137.8125482083
 10
144.495357647
 20
137.8138868437
 10
144.5119949796
 20
137.8119930186
 10
144.5291835806
 20
137.8068918097
 10
144.5466182031
 20
137.7986661896
  0
LWPOLYLINE
  5
240
100
AcDbEntity
  8
217
100
AcDbPolyline
 62
7
  6
CONTINUOUS
 90
30
 70
0
 10
135.7774624766
 20
138.6973562698
 10
135.7695833536
 20
138.6882218666
 10
135.7613631045
 20
138.6792244256
 10
135.7528052433
 20
138.670385439
 10
135.7439068128
 20
138.6617289091
 10
135.7346803777
 20
138.6532742299
 10
135.7251538034
 20
138.6450363372
 10
135.7153336152
 20
138.6370375836
 10
135.7052277169
 20
138.6292997068
 10
135.6948669339
 20
138.621837167
 10
135.6842604127
 20
138.6146723891
 10
135.6734185013
 20
138.6078270838
 10
135.6623747242
 20
138.6013151122
 10
135.6511408758
 20
138.5951585931
 10
135.6397299249
 20
138.5893789292
 10
135.6281781045
 20
138.5839894057
 10
135.6164999726
 20
138.579011448
 10
135.6047112411
 20
138.5744657507
 10
135.5928509271
 20
138.5703649656
 10
135.5809364794
 20
138.5667293401
 10
135.5689864661
 20
138.563578355
 10
135.5570427885
 20
138.5609238188
 10
135.5451259389
 20
138.5587841864
 10
135.5332573717
 20
138.5571770489
 10
135.5214817931
 20
138.5561128881
 10
135.5098229726
 20
138.5556075828
 10
135.4983050354
 20
138.5556759489
 10
135.4869746827
 20
138.5563263473
 10
135.4758694204
 20
138.5575697401
 10
135.4650050686
 20
138.5594172355
  0
LINE
  5
241
100
AcDbEntity
  8
217
100
AcDbLine
 62
7
  6
CONTINUOUS
 10
144.3396312352
 20
138.257484364
 11
145.0467380164
 21
138.6110377546
  0
LINE
  5
242
100
AcDbEntity
  8
217
100
AcDbLine
 62
7
  6
CONTINUOUS
 10
146.7980759135
 20
139.1331533125
 11
145.4002914069
 21
138.4342610593
  0
LWPOLYLINE
  5
243
100
AcDbEntity
  8
218
100
AcDbPolyline
 62
7
  6
CONTINUOUS
 90
5
 70
0
 10
144.3248509259
 20
137.7418712887
 10
144.3229245851
 20
137.7409180668
 10
144.3167701251
 20
137.7372804182
 10
144.3112217604
 20
137.7330976818
 10
144.3101409571
 20
137.7321661613
  0
LINE
  5
244
100
AcDbEntity
  8
217
100
AcDbLine
 62
7
  6
CONTINUOUS
 10
145.0467380164
 20
139.1635959439
 11
145.380513639
 21
139.3269162991
  0
LINE
  5
245
100
AcDbEntity
  8
217
100
AcDbLine
 62
7
  6
CONTINUOUS
 10
147.4570716648
 20
139.9932261264
 11
145.4002914069
 21
138.9868192486
  0
LINE
  5
246
100
AcDbEntity
  8
218
100
AcDbLine
 62
7
  6
CONTINUOUS
 10
144.4630841967
 20
137.8071652763
 11
144.3249693945
 21
137.741928191
  0
LINE
  5
247
100
AcDbEntity
  8
218
100
AcDbLine
 62
253
  6
CONTINUOUS
 10
144.5466182031
 20
137.7986661896
 11
144.4103419141
 21
137.7342975067
  0
LWPOLYLINE
  5
248
100
AcDbEntity
  8
218
100
AcDbPolyline
 62
253
  6
CONTINUOUS
 90
11
 70
0
 10
145.3800843261
 20
137.8524861627
 10
145.3891767866
 20
137.8565766138
 10
145.3982354609
 20
137.859933399
 10
145.4072225825
 20
137.8625403711
 10
145.4161037702
 20
137.8643849753
 10
145.4248382345
 20
137.8654561209
 10
145.4333795829
 20
137.865747135
 10
145.4416964083
 20
137.8652566409
 10
145.4497496323
 20
137.8639866285
 10
145.4574856126
 20
137.8619491123
 10
145.4648592554
 20
137.8591657435
  0
LINE
  5
249
100
AcDbEntity
  8
218
100
AcDbLine
 62
7
  6
CONTINUOUS
 10
144.4631377121
 20
137.8071905537
 11
144.4663457523
 21
137.8086061834
  0
LWPOLYLINE
  5
24A
100
AcDbEntity
  8
217
100
AcDbPolyline
 62
7
  6
CONTINUOUS
 90
7
 70
0
 10
150.3302611073
 20
138.0793931619
 10
150.3221783562
 20
138.0766777913
 10
150.3140703034
 20
138.0737199978
 10
150.305936949
 20
138.0705197814
 10
150.2977782929
 20
138.0670771421
 10
150.2895943352
 20
138.0633920799
 10
150.2813850758
 20
138.0594645948
  0
LWPOLYLINE
  5
24B
100
AcDbEntity
  8
218
100
AcDbPolyline
 62
253
  6
CONTINUOUS
 90
7
 70
0
 10
158.9199136334
 20
138.256592734
 10
159.0392262876
 20
138.2952101619
 10
159.1570097815
 20
138.322818488
 10
159.2726918548
 20
138.3392869093
 10
159.3857091531
 20
138.3445417738
 10
159.495512655
 20
138.3385534068
 10
159.6015725579
 20
138.3213433943
  0
LWPOLYLINE
  5
24C
100
AcDbEntity
  8
218
100
AcDbPolyline
 62
253
  6
CONTINUOUS
 90
21
 70
0
 10
158.9199127083
 20
138.2565931965
 10
158.9179135319
 20
138.2559584995
 10
158.9157111839
 20
138.2555063637
 10
158.9133070454
 20
138.2552363471
 10
158.9106974146
 20
138.2551489482
 10
158.9078886507
 20
138.255242761
 10
158.9048970298
 20
138.2555136934
 10
158.9017313216
 20
138.2559625981
 10
158.8983846053
 20
138.2565850832
 10
158.894850025
 20
138.2573710678
 10
158.8911413114
 20
138.2583126459
 10
158.8872480212
 20
138.2594204507
 10
158.8831279027
 20
138.260715403
 10
158.8787743065
 20
138.2622055655
 10
158.8741974917
 20
138.2638856108
 10
158.8693818146
 20
138.2657596852
 10
158.8643354849
 20
138.2678283173
 10
158.8590569197
 20
138.2701000676
 10
158.8535173745
 20
138.2725946608
 10
158.8477304086
 20
138.275311672
 10
158.8410975079
 20
138.2785588992
  0
LINE
  5
24D
100
AcDbEntity
  8
217
100
AcDbLine
 62
7
  6
CONTINUOUS
 10
144.6910769893
 20
134.8148080345
 11
144.6034934084
 21
134.7888328291
  0
LWPOLYLINE
  5
24E
100
AcDbEntity
  8
217
100
AcDbPolyline
 62
7
  6
CONTINUOUS
 90
5
 70
0
 10
144.6034934084
 20
134.7888328291
 10
144.5810520235
 20
134.7822723691
 10
144.5702990691
 20
134.7791690252
 10
144.5598496366
 20
134.7762088899
 10
144.5497003727
 20
134.773406274
  0
LWPOLYLINE
  5
24F
100
AcDbEntity
  8
217
100
AcDbPolyline
 62
7
  6
CONTINUOUS
 90
16
 70
0
 10
150.3302611073
 20
138.0793931619
 10
150.3424189452
 20
138.0828829311
 10
150.3551489243
 20
138.085605757
 10
150.368443505
 20
138.0875455973
 10
150.3822992183
 20
138.0886994177
 10
150.3966994694
 20
138.0890375286
 10
150.4116128112
 20
138.0885048398
 10
150.4270192904
 20
138.0870805936
 10
150.4429043834
 20
138.0847554016
 10
150.4592400856
 20
138.0814929862
 10
150.4759675107
 20
138.077289753
 10
150.4930983368
 20
138.0721228089
 10
150.5107121034
 20
138.0659212792
 10
150.5287994305
 20
138.0586645452
 10
150.5473201203
 20
138.0503327627
 10
150.5568297551
 20
138.0457010911
  0
LWPOLYLINE
  5
250
100
AcDbEntity
  8
RACCORDO
100
AcDbPolyline
 62
253
  6
CONTINUOUS
 90
21
 70
0
 10
119.2528521791
 20
74.1948691068
 10
119.262686126
 20
73.669687974
 10
119.2921684163
 20
73.1554146451
 10
119.3412393599
 20
72.6531111993
 10
119.4097769561
 20
72.163949939
 10
119.497651949
 20
71.6887986538
 10
119.6047819338
 20
71.2282591099
 10
119.7310546995
 20
70.7831293867
 10
119.8762138434
 20
70.3545817608
 10
120.0399209429
 20
69.9437477714
 10
120.2218783063
 20
69.5514559236
 10
120.4217091917
 20
69.178591792
 10
120.6388269777
 20
68.8262408642
 10
120.872601671
 20
68.4953096217
 10
121.1226571252
 20
68.1862230802
 10
121.3887441235
 20
67.8992961104
 10
121.6705619495
 20
67.6349684077
 10
121.9673510176
 20
67.3940616411
 10
122.278120153
 20
67.177376006
 10
122.6019014085
 20
66.9854732261
 10
122.7057495698
 20
66.9305739843
  0
LWPOLYLINE
  5
251
100
AcDbEntity
  8
217
100
AcDbPolyline
 62
7
  6
CONTINUOUS
 90
14
 70
0
 10
137.2111504034
 20
139.833627867
 10
137.2196357711
 20
139.8445586373
 10
137.2275190897
 20
139.8559663457
 10
137.2347712311
 20
139.8678170106
 10
137.2413684067
 20
139.8800812471
 10
137.2472818564
 20
139.8927154652
 10
137.2524819668
 20
139.9056613719
 10
137.2569509253
 20
139.918874307
 10
137.2606764664
 20
139.9323176946
 10
137.2636457198
 20
139.9459445953
 10
137.2658505921
 20
139.9597169473
 10
137.2672840053
 20
139.9735914352
 10
137.2679412014
 20
139.9875147599
 10
137.267987688
 20
139.9923373225
  0
LINE
  5
252
100
AcDbEntity
  8
217
100
AcDbLine
 62
253
  6
CONTINUOUS
 10
136.6675226593
 20
139.2615108778
 11
137.195789831
 21
139.9044630336
  0
LINE
  5
253
100
AcDbEntity
  8
217
100
AcDbLine
 62
7
  6
CONTINUOUS
 10
136.6675226593
 20
139.1719804115
 11
137.2111504034
 21
139.833627867
  0
LINE
  5
254
100
AcDbEntity
  8
218
100
AcDbLine
 62
7
  6
CONTINUOUS
 10
144.310238196
 20
137.7322517598
 11
143.3993118375
 21
136.9350144383
  0
LINE
  5
255
100
AcDbEntity
  8
218
100
AcDbLine
 62
253
  6
CONTINUOUS
 10
144.4096830397
 20
137.734626944
 11
143.4608728594
 21
136.9042339273
  0
LINE
  5
256
100
AcDbEntity
  8
218
100
AcDbLine
 62
253
  6
CONTINUOUS
 10
143.9616018178
 20
136.6538694481
 11
144.4354102614
 21
137.0252895046
  0
LINE
  5
257
100
AcDbEntity
  8
218
100
AcDbLine
 62
253
  6
CONTINUOUS
 10
144.2394914808
 20
136.5149246166
 11
144.6082173914
 21
136.8039701167
  0
LWPOLYLINE
  5
258
100
AcDbEntity
  8
218
100
AcDbPolyline
 62
253
  6
CONTINUOUS
 90
16
 70
0
 10
144.4354102614
 20
137.0252895046
 10
144.4765891807
 20
137.0548356345
 10
144.519784553
 20
137.0814457707
 10
144.5649963784
 20
137.105119913
 10
144.6127733464
 20
137.1260148811
 10
144.6625667675
 20
137.1439738553
 10
144.7127305727
 20
137.1585263775
 10
144.7632363637
 20
137.1695448756
 10
144.8141125388
 20
137.1771569216
 10
144.8637982241
 20
137.1812747735
 10
144.9121531785
 20
137.181812969
 10
144.9593176431
 20
137.1788569703
 10
145.0041514681
 20
137.1725754221
 10
145.0462746034
 20
137.1630245394
 10
145.0860670991
 20
137.1501481072
 10
145.1235289552
 20
137.1339461255
  0
LINE
  5
259
100
AcDbEntity
  8
217
100
AcDbLine
 62
7
  6
CONTINUOUS
 10
145.6124234413
 20
133.9139546783
 11
145.254744292
 21
133.7143587265
  0
LINE
  5
25A
100
AcDbEntity
  8
217
100
AcDbLine
 62
7
  6
CONTINUOUS
 10
148.3988876782
 20
134.2897015457
 11
146.8157159832
 21
133.4775044984
  0
LINE
  5
25B
100
AcDbEntity
  8
217
100
AcDbLine
 62
7
  6
CONTINUOUS
 10
145.254744292
 20
134.9470856988
 11
145.6124234413
 21
135.1263902436
  0
LINE
  5
25C
100
AcDbEntity
  8
217
100
AcDbLine
 62
7
  6
CONTINUOUS
 10
148.4006260637
 20
134.2905707785
 11
148.3988896519
 21
134.2897025583
  0
LINE
  5
25D
100
AcDbEntity
  8
217
100
AcDbLine
 62
7
  6
CONTINUOUS
 10
145.6124234413
 20
135.1263902436
 11
150.8869155104
 21
137.7566993775
  0
LINE
  5
25E
100
AcDbEntity
  8
218
100
AcDbLine
 62
253
  6
CONTINUOUS
 10
152.197554288
 20
137.8688557829
 11
157.8197105619
 21
140.6574867418
  0
LINE
  5
25F
100
AcDbEntity
  8
218
100
AcDbLine
 62
253
  6
CONTINUOUS
 10
153.6162815627
 20
137.1594921456
 11
158.6608014026
 21
139.6616111749
  0
LINE
  5
260
100
AcDbEntity
  8
217
100
AcDbLine
 62
7
  6
CONTINUOUS
 10
145.6124234413
 20
133.9139546783
 11
150.9372575115
 21
136.5502861102
  0
LINE
  5
261
100
AcDbEntity
  8
217
100
AcDbLine
 62
7
  6
CONTINUOUS
 10
150.2813850758
 20
138.0594645948
 11
145.6831341194
 21
135.7931032973
  0
LINE
  5
262
100
AcDbEntity
  8
217
100
AcDbLine
 62
7
  6
CONTINUOUS
 10
151.6997123519
 20
137.8719057828
 11
151.0608515754
 21
137.5593036577
  0
LINE
  5
263
100
AcDbEntity
  8
217
100
AcDbLine
 62
7
  6
CONTINUOUS
 10
148.9354960201
 20
134.5511228782
 11
148.4006288293
 21
134.2905721257
  0
LINE
  5
264
100
AcDbEntity
  8
217
100
AcDbLine
 62
253
  6
CONTINUOUS
 10
149.0460081312
 20
134.5433880872
 11
148.5115582525
 21
134.2830406206
  0
LWPOLYLINE
  5
265
100
AcDbEntity
  8
217
100
AcDbPolyline
 62
7
  6
CONTINUOUS
 90
18
 70
0
 10
151.6997123519
 20
137.8719057828
 10
151.7280868727
 20
137.8850877396
 10
151.7563213247
 20
137.8968221314
 10
151.7844157079
 20
137.9071089581
 10
151.812420021
 20
137.9159610926
 10
151.8402842653
 20
137.9233656622
 10
151.8678584449
 20
137.9292840478
 10
151.8951275736
 20
137.9337074691
 10
151.9221066376
 20
137.9366447064
 10
151.9486906002
 20
137.9380834824
 10
151.974895559
 20
137.9380163458
 10
152.0007054165
 20
137.9364507478
 10
152.0259668428
 20
137.9333967644
 10
152.0506565961
 20
137.92885098
 10
152.0747979182
 20
137.9228168102
 10
152.0983072045
 20
137.9153145774
 10
152.1212029847
 20
137.9063291628
 10
152.140765069
 20
137.8972394297
  0
LWPOLYLINE
  5
266
100
AcDbEntity
  8
217
100
AcDbPolyline
 62
7
  6
CONTINUOUS
 90
18
 70
0
 10
148.9354960201
 20
134.5511228782
 10
148.9477169799
 20
134.5566752444
 10
148.9603461035
 20
134.5616096845
 10
148.9733449027
 20
134.5658883135
 10
148.9866901532
 20
134.5694808874
 10
149.0003158825
 20
134.5723491146
 10
149.0141148413
 20
134.5744585865
 10
149.0280138234
 20
134.5757948346
 10
149.0419832447
 20
134.5763532222
 10
149.0559840963
 20
134.5761288693
 10
149.0699575605
 20
134.5751202629
 10
149.0838633158
 20
134.5733287955
 10
149.0976967557
 20
134.5707498032
 10
149.1114648171
 20
134.567368541
 10
149.1250658661
 20
134.5631964425
 10
149.1383516966
 20
134.5582799314
 10
149.151285852
 20
134.5526431412
 10
149.1567890957
 20
134.5499749756
  0
LINE
  5
267
100
AcDbEntity
  8
218
100
AcDbLine
 62
253
  6
CONTINUOUS
 10
159.0875553422
 20
137.8730997614
 11
159.0646539086
 21
137.8642050784
  0
LWPOLYLINE
  5
268
100
AcDbEntity
  8
218
100
AcDbPolyline
 62
253
  6
CONTINUOUS
 90
54
 70
0
 10
159.0646539086
 20
137.8642050784
 10
159.049258522
 20
137.8583356381
 10
159.0414150335
 20
137.8554260521
 10
159.033448714
 20
137.852537973
 10
159.0253553459
 20
137.8496686028
 10
159.0170327227
 20
137.8468154051
 10
159.0084514496
 20
137.8439628623
 10
158.9996409213
 20
137.8411264919
 10
158.9905871152
 20
137.8383503101
 10
158.9812936325
 20
137.8356181537
 10
158.9717568721
 20
137.8329461858
 10
158.9619520086
 20
137.830426912
 10
158.9519024474
 20
137.8280657975
 10
158.9415847831
 20
137.8258573772
 10
158.9309039741
 20
137.8238777616
 10
158.919818961
 20
137.8221261455
 10
158.9083708032
 20
137.8206033342
 10
158.8965876374
 20
137.8193878536
 10
158.884378733
 20
137.8184683916
 10
158.8718348205
 20
137.8178562604
 10
158.859256228
 20
137.8176639227
 10
158.8466164261
 20
137.8179030415
 10
158.8339419441
 20
137.8185619537
 10
158.8216126982
 20
137.8197181335
 10
158.8096686039
 20
137.8214417536
 10
158.7980697457
 20
137.8236626412
 10
158.7870762937
 20
137.826247752
 10
158.7767912024
 20
137.82918895
 10
158.7671115172
 20
137.8324943711
 10
158.7579885442
 20
137.8360553788
 10
158.7494342069
 20
137.8398428066
 10
158.7414365818
 20
137.8438858209
 10
158.7339112038
 20
137.8481632845
 10
158.7268444878
 20
137.8526823281
 10
158.7202500189
 20
137.8574358211
 10
158.7140840869
 20
137.8623812342
 10
158.7083629079
 20
137.8675050518
 10
158.7030702658
 20
137.8728207896
 10
158.6981138016
 20
137.8783264641
 10
158.6934753757
 20
137.8839968801
 10
158.6891731277
 20
137.8898572329
 10
158.6851691179
 20
137.8959811257
 10
158.6814510697
 20
137.902376735
 10
158.6780312596
 20
137.9090358843
 10
158.6749085783
 20
137.9160076481
 10
158.6720795624
 20
137.92330243
 10
158.6695476751
 20
137.9309098264
 10
158.6673221966
 20
137.938847701
 10
158.6653921855
 20
137.947140923
 10
158.6637685832
 20
137.9557646234
 10
158.6624934934
 20
137.9646620582
 10
158.6615809506
 20
137.9738143131
 10
158.6610169203
 20
137.9832403025
 10
158.6608014026
 20
137.9929400265
  0
LWPOLYLINE
  5
269
100
AcDbEntity
  8
218
100
AcDbPolyline
 62
253
  6
CONTINUOUS
 90
3
 70
0
 10
159.1105579739
 20
137.8818385854
 10
159.1028791858
 20
137.8789429617
 10
159.0875553422
 20
137.8730997614
  0
LWPOLYLINE
  5
26A
100
AcDbEntity
  8
218
100
AcDbPolyline
 62
253
  6
CONTINUOUS
 90
25
 70
0
 10
159.1105579739
 20
137.8818385854
 10
159.2029475117
 20
137.9123125449
 10
159.2936654393
 20
137.9352564641
 10
159.3827117567
 20
137.9506703429
 10
159.4703952226
 20
137.9585533309
 10
159.5564070784
 20
137.9589062786
 10
159.639821048
 20
137.9517317376
 10
159.7206111136
 20
137.9369488391
 10
159.7988032931
 20
137.9146384518
 10
159.8735493645
 20
137.8850457341
 10
159.9448115108
 20
137.8480932521
 10
160.0126275491
 20
137.8038584397
 10
160.0762627084
 20
137.7528187562
 10
160.1356735772
 20
137.6948998967
 10
160.1909035669
 20
137.6301761661
 10
160.2413481416
 20
137.5593479385
 10
160.2869558167
 20
137.4823467431
 10
160.3277780767
 20
137.3992410506
 10
160.3633648389
 20
137.3109366481
 10
160.3936582647
 20
137.2173921908
 10
160.4187161927
 20
137.1186490235
 10
160.4382620559
 20
137.0157369667
 10
160.4522036653
 20
136.9089992942
 10
160.46063321
 20
136.7980927323
 10
160.4635506898
 20
136.6830172811
  0
LWPOLYLINE
  5
26B
100
AcDbEntity
  8
RACCORDO
100
AcDbPolyline
 62
7
  6
CONTINUOUS
 90
38
 70
0
 10
119.1094774037
 20
74.3700964227
 10
119.1201155089
 20
74.9259838137
 10
119.1519602122
 20
75.4903088246
 10
119.2048779613
 20
76.0618651298
 10
119.2786959338
 20
76.6394303422
 10
119.3732056081
 20
77.2217902091
 10
119.4881632081
 20
77.807726706
 10
119.6232921721
 20
78.3960260563
 10
119.7782644278
 20
78.9854064194
 10
119.9526912642
 20
79.5745233064
 10
120.146155057
 20
80.1620911594
 10
120.3582215612
 20
80.7468911841
 10
120.5884100159
 20
81.3276740342
 10
120.8361887098
 20
81.9031642762
 10
121.1010250365
 20
82.4721771917
 10
121.3823938098
 20
83.0336081596
 10
121.6797113248
 20
83.5862915703
 10
121.9923264107
 20
84.1290086969
 10
122.3195766426
 20
84.6605978741
 10
122.6607481956
 20
85.1798847876
 10
123.0151439864
 20
85.6857875766
 10
123.3820984495
 20
86.1773163449
 10
123.7609095718
 20
86.6534691342
 10
124.1507424533
 20
87.1131301486
 10
124.5507071273
 20
87.5551949449
 10
124.9599391175
 20
87.9786609176
 10
125.3776324671
 20
88.3826410809
 10
125.8029692311
 20
88.7662778004
 10
126.2351362172
 20
89.1287562272
 10
126.6732049886
 20
89.4692098005
 10
127.116186001
 20
89.7867889648
 10
127.56333519
 20
90.080868203
 10
128.0136031881
 20
90.3506574282
 10
128.4655468773
 20
90.5952437186
 10
128.9182259644
 20
90.8141104921
 10
129.3707661571
 20
91.0068183156
 10
129.8218442083
 20
91.1728117579
 10
129.9838917145
 20
91.22300287
  0
LWPOLYLINE
  5
26C
100
AcDbEntity
  8
218
100
AcDbPolyline
 62
253
  6
CONTINUOUS
 90
10
 70
0
 10
145.3800843261
 20
137.8524861627
 10
145.3853414536
 20
137.8580136682
 10
145.3905759216
 20
137.8627766259
 10
145.395765128
 20
137.8667522543
 10
145.400888566
 20
137.8699221554
 10
145.4059218026
 20
137.8722684836
 10
145.4108369977
 20
137.8737773347
 10
145.4156151192
 20
137.8744427969
 10
145.4202333229
 20
137.8742616171
 10
145.4222726378
 20
137.8738999502
  0
LWPOLYLINE
  5
26D
100
AcDbEntity
  8
218
100
AcDbPolyline
 62
253
  6
CONTINUOUS
 90
10
 70
0
 10
145.1235289552
 20
137.1339461255
 10
145.1044880667
 20
137.1158865603
 10
145.0866400111
 20
137.095176095
 10
145.0703517148
 20
137.072240502
 10
145.0559580376
 20
137.0475512987
 10
145.0437548895
 20
137.0216160537
 10
145.0339931467
 20
136.9949679523
 10
145.0268734944
 20
136.9681548346
 10
145.0225423007
 20
136.9417279336
 10
145.0210886076
 20
136.916230542
  0
LWPOLYLINE
  5
26E
100
AcDbEntity
  8
218
100
AcDbPolyline
 62
253
  6
CONTINUOUS
 90
10
 70
0
 10
145.8819345538
 20
136.7547433261
 10
145.8628931013
 20
136.7366831318
 10
145.8450447095
 20
136.7159720714
 10
145.8287562937
 20
136.6930360114
 10
145.8143626929
 20
136.6683465628
 10
145.8021597535
 20
136.642411326
 10
145.7923982673
 20
136.615763445
 10
145.7852788591
 20
136.5889507328
 10
145.7809478455
 20
136.5625244163
 10
145.7794942084
 20
136.5370277417
  0
LWPOLYLINE
  5
26F
100
AcDbEntity
  8
218
100
AcDbPolyline
 62
253
  6
CONTINUOUS
 90
16
 70
0
 10
144.6082173914
 20
136.8039701167
 10
144.6324467268
 20
136.8268331192
 10
144.658488055
 20
136.8478524311
 10
144.6860432924
 20
136.8669513837
 10
144.7148122197
 20
136.8841821676
 10
144.744469902
 20
136.8993882383
 10
144.7746677387
 20
136.9122090074
 10
144.8050824718
 20
136.9226030171
 10
144.835399247
 20
136.9306174277
 10
144.8652871492
 20
136.9360566442
 10
144.8943988931
 20
136.9389335371
 10
144.9225090506
 20
136.9393444014
 10
144.9494785201
 20
136.9372234612
 10
144.9750828932
 20
136.9325882735
 10
144.9990302328
 20
136.9255606581
 10
145.0210886076
 20
136.916230542
  0
LINE
  5
270
100
AcDbEntity
  8
218
100
AcDbLine
 62
253
  6
CONTINUOUS
 10
145.899953576
 20
136.2930178473
 11
145.4733345371
 21
135.8980030885
  0
LINE
  5
271
100
AcDbEntity
  8
218
100
AcDbLine
 62
7
  6
CONTINUOUS
 10
145.8031532049
 20
136.2928576075
 11
145.4105894999
 21
135.9293756071
  0
LWPOLYLINE
  5
272
100
AcDbEntity
  8
217
100
AcDbPolyline
 62
7
  6
CONTINUOUS
 90
22
 70
0
 10
146.8157104354
 20
133.477501652
 10
146.8059036609
 20
133.4721906952
 10
146.7948920407
 20
133.4655240447
 10
146.78422838
 20
133.4582924207
 10
146.7739416848
 20
133.4505132031
 10
146.7640530012
 20
133.4421989119
 10
146.7545898116
 20
133.4333679305
 10
146.7455815529
 20
133.4240428383
 10
146.7370521981
 20
133.4142430693
 10
146.7290273756
 20
133.4039917627
 10
146.7215328647
 20
133.3933151769
 10
146.7145917704
 20
133.3822390681
 10
146.7082267558
 20
133.3707917046
 10
146.7024590179
 20
133.3590026323
 10
146.6973077202
 20
133.3469013188
 10
146.692790581
 20
133.3345178628
 10
146.6889251422
 20
133.3218872654
 10
146.6857273542
 20
133.3090481914
 10
146.6832097676
 20
133.2960365467
 10
146.6813828177
 20
133.2828880756
 10
146.6802552926
 20
133.26964273
 10
146.6798300887
 20
133.2550677198
  0
LINE
  5
273
100
AcDbEntity
  8
217
100
AcDbLine
 62
7
  6
CONTINUOUS
 10
155.6482137544
 20
135.6045646195
 11
150.1566704262
 21
132.6417510086
  0
LINE
  5
274
100
AcDbEntity
  8
217
100
AcDbLine
 62
7
  6
CONTINUOUS
 10
155.6482137544
 20
135.1072346625
 11
150.2900624173
 21
132.2746842823
  0
LINE
  5
275
100
AcDbEntity
  8
217
100
AcDbLine
 62
253
  6
CONTINUOUS
 10
148.5115582525
 20
134.2830406206
 11
146.9288016494
 21
133.4710565233
  0
LINE
  5
276
100
AcDbEntity
  8
217
100
AcDbLine
 62
253
  6
CONTINUOUS
 10
149.85506712
 20
133.6112861869
 11
148.2537863292
 21
132.8085641834
  0
LINE
  5
277
100
AcDbEntity
  8
217
100
AcDbLine
 62
253
  6
CONTINUOUS
 10
150.0318408237
 20
133.3063966481
 11
148.4305600329
 21
132.5036746446
  0
LINE
  5
278
100
AcDbEntity
  8
0
100
AcDbLine
 62
7
  6
CONTINUOUS
 10
131.8679737207
 20
122.702882129
 11
135.6769896815
 21
124.6073901093
  0
LINE
  5
279
100
AcDbEntity
  8
217
100
AcDbLine
 62
253
  6
CONTINUOUS
 10
150.3833342918
 20
133.8747250069
 11
149.85506712
 21
133.6112861869
  0
LINE
  5
27A
100
AcDbEntity
  8
217
100
AcDbLine
 62
253
  6
CONTINUOUS
 10
150.5601079955
 20
133.5698354681
 11
150.0318408237
 21
133.3063966481
  0
LINE
  5
27B
100
AcDbEntity
  8
218
100
AcDbLine
 62
7
  6
CONTINUOUS
 10
156.4507431701
 20
134.7794647346
 11
150.7815399368
 21
132.0256544372
  0
LINE
  5
27C
100
AcDbEntity
  8
217
100
AcDbLine
 62
7
  6
CONTINUOUS
 10
154.7666782959
 20
136.3384228109
 11
150.0831414163
 21
134.0867988155
  0
LINE
  5
27D
100
AcDbEntity
  8
217
100
AcDbLine
 62
253
  6
CONTINUOUS
 10
150.7388398948
 20
132.0502955436
 11
150.0318408237
 21
131.7163519111
  0
LWPOLYLINE
  5
27E
100
AcDbEntity
  8
0
100
AcDbPolyline
 62
253
  6
CONTINUOUS
 90
8
 70
0
 10
131.8679737207
 20
122.702882129
 10
131.8948223798
 20
122.714795344
 10
131.9475848949
 20
122.7303792076
 10
132.0036399742
 20
122.7373322057
 10
132.0623734665
 20
122.7355781598
 10
132.1231418754
 20
122.7251362876
 10
132.1852794095
 20
122.7061209924
 10
132.2481052769
 20
122.6787406098
  0
LWPOLYLINE
  5
27F
100
AcDbEntity
  8
RACCORDO
100
AcDbPolyline
 62
253
  6
CONTINUOUS
 90
51
 70
0
 10
123.496567192
 20
72.0730116004
 10
123.5064011159
 20
72.6080266686
 10
123.5358833941
 20
73.1517822817
 10
123.5849543364
 20
73.7031566704
 10
123.6534919492
 20
74.2608555353
 10
123.7413669694
 20
74.8238818271
 10
123.8484969716
 20
75.3915513644
 10
123.9747697334
 20
75.9629538514
 10
124.1199288634
 20
76.5366606142
 10
124.2836359529
 20
77.1112016982
 10
124.4655933165
 20
77.6854509094
 10
124.665424206
 20
78.2581459285
 10
124.8825419952
 20
78.8276146439
 10
125.1163166883
 20
79.3923205796
 10
125.3663721414
 20
79.9514625748
 10
125.6324591386
 20
80.5044765423
 10
125.9142769641
 20
81.0506220708
 10
126.2110660318
 20
81.5883179052
 10
126.521835167
 20
82.1157726757
 10
126.8456164226
 20
82.6314567111
 10
127.1819820534
 20
83.1347971061
 10
127.530711402
 20
83.6254602145
 10
127.8914674323
 20
84.1028602601
 10
128.2631867601
 20
84.5654818841
 10
128.6445240896
 20
85.0116531094
 10
129.0342452441
 20
85.4400398931
 10
129.4319205411
 20
85.8502771992
 10
129.8373800689
 20
86.2421878454
 10
130.2502661352
 20
86.615316942
 10
130.6692850853
 20
86.968387872
 10
131.0928473018
 20
87.3000621895
 10
131.519562282
 20
87.609359334
 10
131.9490244717
 20
87.8960924796
 10
132.3811027874
 20
88.1601732924
 10
132.8154200741
 20
88.4012629951
 10
133.2505643969
 20
88.6184697529
 10
133.6848553898
 20
88.8109547175
 10
134.1168792541
 20
88.9781993673
 10
134.5462610683
 20
89.1201668629
 10
134.9728758487
 20
89.236816017
 10
135.3963238377
 20
89.3279286175
 10
135.8152083476
 20
89.3930940537
 10
136.2279281857
 20
89.4320620864
 10
136.6331809214
 20
89.4448191805
 10
137.0306192902
 20
89.4314654977
 10
137.4200902461
 20
89.3920073659
 10
137.801187349
 20
89.3263735636
 10
138.1726509349
 20
89.2346658035
 10
138.5330829186
 20
89.1172306692
 10
138.881516914
 20
88.9744898569
 10
139.1034552159
 20
88.8671994297
  0
LWPOLYLINE
  5
280
100
AcDbEntity
  8
RACCORDO
100
AcDbPolyline
 62
253
  6
CONTINUOUS
 90
70
 70
0
 10
124.0955182672
 20
72.034385559
 10
124.1050824563
 20
72.554756203
 10
124.1337574544
 20
73.0836282552
 10
124.1814852048
 20
73.6199106156
 10
124.2481472117
 20
74.162344395
 10
124.3336175804
 20
74.7099597627
 10
124.4378156556
 20
75.2620912152
 10
124.5606320325
 20
75.8178534124
 10
124.701817609
 20
76.375856838
 10
124.8610435439
 20
76.9346717674
 10
125.0380204276
 20
77.4932027961
 10
125.232381686
 20
78.0502221542
 10
125.443556648
 20
78.6041035158
 10
125.6709325237
 20
79.1533524782
 10
125.9141435072
 20
79.6971898035
 10
126.1729472274
 20
80.2350668369
 10
126.4470512062
 20
80.7662634292
 10
126.7357166413
 20
81.2892416096
 10
127.0379794887
 20
81.8022590403
 10
127.3528982973
 20
82.3038279177
 10
127.6800570277
 20
82.7933910188
 10
128.0192410566
 20
83.2706238347
 10
128.3701225699
 20
83.7349566274
 10
128.7316672945
 20
84.1849155131
 10
129.1025667628
 20
84.6188742733
 10
129.4816205821
 20
85.0355353755
 10
129.8684108272
 20
85.4345437786
 10
130.2627722338
 20
85.8157271559
 10
130.664356899
 20
86.1786430724
 10
131.0719065796
 20
86.5220498515
 10
131.4838751707
 20
86.8446456786
 10
131.8989102304
 20
87.1454768309
 10
132.3166173044
 20
87.4243615976
 10
132.7368688965
 20
87.6812140644
 10
133.1592981751
 20
87.9157047268
 10
133.5825318524
 20
88.1269661611
 10
134.0049355565
 20
88.3141824813
 10
134.4251341867
 20
88.4768493611
 10
134.8427630845
 20
88.6149309672
 10
135.2577006872
 20
88.7283872345
 10
135.669558179
 20
88.8170059193
 10
136.0769771014
 20
88.8803876543
 10
136.4784000892
 20
88.918289058
 10
136.8725603626
 20
88.9306969722
 10
137.2591201625
 20
88.9177088108
 10
137.637930631
 20
88.8793307182
 10
138.008596451
 20
88.8154934161
 10
138.3698924382
 20
88.7262958397
 10
138.7204587771
 20
88.612075095
 10
139.0593555345
 20
88.4732413394
 10
139.3861635167
 20
88.3100734942
 10
139.7003782669
 20
88.1228810001
 10
140.0013575558
 20
87.9120858871
 10
140.288503746
 20
87.6781478348
 10
140.5613829961
 20
87.4214343749
 10
140.8194833351
 20
87.1424003832
 10
141.0622007453
 20
86.841670604
 10
141.2889934457
 20
86.5199097391
 10
141.4993962736
 20
86.1777799138
 10
141.692972054
 20
85.8159941564
 10
141.8692889976
 20
85.4353776005
 10
142.027977152
 20
85.0367744543
 10
142.16874102
 20
84.6209782876
 10
142.2913178729
 20
84.1887968786
 10
142.3954613455
 20
83.7411151569
 10
142.4809573345
 20
83.2788707936
 10
142.5476372343
 20
82.8029881067
 10
142.5953646796
 20
82.3144384042
 10
142.6240400561
 20
81.8142410624
 10
142.6336046888
 20
81.3034287698
  0
LWPOLYLINE
  5
281
100
AcDbEntity
  8
217
100
AcDbPolyline
 62
253
  6
CONTINUOUS
 90
27
 70
0
 10
135.0662418685
 20
138.8458597927
 10
135.0613633687
 20
138.833903891
 10
135.0560177271
 20
138.8222196169
 10
135.0502191369
 20
138.8108390685
 10
135.0439824518
 20
138.7997925551
 10
135.0373248576
 20
138.7891115932
 10
135.0302662085
 20
138.7788284679
 10
135.0228265528
 20
138.7689722369
 10
135.0150255167
 20
138.7595687607
 10
135.0068841973
 20
138.750643503
 10
134.9984246619
 20
138.7422207403
 10
134.9896701251
 20
138.7343236677
 10
134.9806447049
 20
138.7269740705
 10
134.9713731385
 20
138.7201920822
 10
134.9618806692
 20
138.7139961578
 10
134.9521932009
 20
138.7084032079
 10
134.9423371763
 20
138.7034285059
 10
134.9323395305
 20
138.6990856536
 10
134.9222275945
 20
138.6953865259
 10
134.9120289965
 20
138.6923412288
 10
134.9017715847
 20
138.6899580771
 10
134.8914833767
 20
138.6882435801
 10
134.8811924582
 20
138.6872024196
 10
134.8709269532
 20
138.6868374427
 10
134.8607149473
 20
138.6871496432
 10
134.8505843622
 20
138.6881381552
 10
134.8405628364
 20
138.6898002695
  0
LINE
  5
282
100
AcDbEntity
  8
218
100
AcDbLine
 62
253
  6
CONTINUOUS
 10
145.9330535008
 20
136.326744229
 11
145.899953576
 21
136.2930178473
  0
LWPOLYLINE
  5
283
100
AcDbEntity
  8
217
100
AcDbPolyline
 62
253
  6
CONTINUOUS
 90
43
 70
0
 10
144.5111025601
 20
128.7029406929
 10
144.4734507141
 20
128.6813551241
 10
144.435916916
 20
128.6582251503
 10
144.3985470603
 20
128.6335797678
 10
144.361386811
 20
128.607450464
 10
144.3244816129
 20
128.579869353
 10
144.2878766719
 20
128.550868942
 10
144.2516159885
 20
128.5204846173
 10
144.2157447166
 20
128.4887547849
 10
144.1803091678
 20
128.4557189739
 10
144.1453530778
 20
128.4214187227
 10
144.110918758
 20
128.3858963974
 10
144.0770494856
 20
128.349195176
 10
144.0437866419
 20
128.3113606237
 10
144.0111709391
 20
128.2724398633
 10
143.979243559
 20
128.2324804646
 10
143.9480434755
 20
128.1915319253
 10
143.9176089264
 20
128.1496452704
 10
143.8879786459
 20
128.1068721981
 10
143.8591889838
 20
128.0632659735
 10
143.8312749991
 20
128.018880639
 10
143.8042719369
 20
127.9737706072
 10
143.7782128501
 20
127.9279918602
 10
143.7531295567
 20
127.8816012405
 10
143.729053733
 20
127.8346556703
 10
143.7060147925
 20
127.7872132256
 10
143.6840409392
 20
127.7393329275
 10
143.6631601186
 20
127.6910740306
 10
143.6433979576
 20
127.6424965424
 10
143.6247784712
 20
127.5936605502
 10
143.6073251282
 20
127.5446260097
 10
143.5910593335
 20
127.495453754
 10
143.5760008852
 20
127.4462046733
 10
143.5621687102
 20
127.3969390464
 10
143.5495796616
 20
127.3477173426
 10
143.5382492601
 20
127.2986011127
 10
143.5281920949
 20
127.2496521538
 10
143.5194206286
 20
127.2009321388
 10
143.5119452176
 20
127.1525003018
 10
143.5057750079
 20
127.1044143676
 10
143.5009176811
 20
127.0567331538
 10
143.4973792609
 20
127.0095164506
 10
143.4951641669
 20
126.9628227286
  0
LWPOLYLINE
  5
284
100
AcDbEntity
  8
217
100
AcDbPolyline
 62
253
  6
CONTINUOUS
 90
43
 70
0
 10
144.8769353001
 20
128.0999382471
 10
144.8516568564
 20
128.0855977322
 10
144.8265138296
 20
128.0702650217
 10
144.8015062196
 20
128.0539401156
 10
144.7766021212
 20
128.0365996928
 10
144.7518334397
 20
128.0182670745
 10
144.7272958906
 20
127.999012224
 10
144.7029914487
 20
127.9788322522
 10
144.6789181392
 20
127.9577300482
 10
144.6551657539
 20
127.935784243
 10
144.6317357593
 20
127.9129919143
 10
144.6086266889
 20
127.8893559843
 10
144.5859239353
 20
127.8649638501
 10
144.5636289548
 20
127.8398126844
 10
144.5417402912
 20
127.8139053144
 10
144.5203389683
 20
127.787337619
 10
144.4994267262
 20
127.7601070507
 10
144.4790018248
 20
127.732216157
 10
144.4591400674
 20
127.7037684587
 10
144.4398436116
 20
127.6747619797
 10
144.4211102997
 20
127.6451986961
 10
144.4030094615
 20
127.6151880578
 10
144.3855434341
 20
127.584728404
 10
144.3687098804
 20
127.5538213956
 10
144.3525711191
 20
127.5225814651
 10
144.3371296837
 20
127.4910072702
 10
144.3223830406
 20
127.4591001532
 10
144.3083859075
 20
127.4269785743
 10
144.2951411275
 20
127.3946418698
 10
144.2826458576
 20
127.3620907034
 10
144.2709462857
 20
127.3294455255
 10
144.2600453589
 20
127.2967060432
 10
144.2499401302
 20
127.2638725494
 10
144.2406679472
 20
127.231066374
 10
144.2322318366
 20
127.1982872631
 10
144.2246287717
 20
127.1655354706
 10
144.217887019
 20
127.132933088
 10
144.2120098138
 20
127.1004798231
 10
144.2069939208
 20
127.0681759682
 10
144.202857901
 20
127.0361444918
 10
144.1996079411
 20
127.0044263836
 10
144.1972378544
 20
126.9729806539
 10
144.1957476408
 20
126.9418073029
  0
LWPOLYLINE
  5
285
100
AcDbEntity
  8
217
100
AcDbPolyline
 62
7
  6
CONTINUOUS
 90
3
 70
0
 10
149.141780641
 20
131.2066963636
 10
149.9327953409
 20
131.6486724483
 10
150.0318408237
 20
131.7039931745
  0
LINE
  5
286
100
AcDbEntity
  8
217
100
AcDbLine
 62
253
  6
CONTINUOUS
 10
144.5111025601
 20
128.7029406929
 11
149.0301336985
 21
131.1700126211
  0
LINE
  5
287
100
AcDbEntity
  8
217
100
AcDbLine
 62
253
  6
CONTINUOUS
 10
150.3746245726
 20
131.1012884169
 11
144.8769353001
 21
128.0999382471
  0
LWPOLYLINE
  5
288
100
AcDbEntity
  8
217
100
AcDbPolyline
 62
7
  6
CONTINUOUS
 90
13
 70
0
 10
149.141780641
 20
131.2066963636
 10
149.1339103494
 20
131.2024890554
 10
149.1257234803
 20
131.1984786461
 10
149.1172352914
 20
131.1946718836
 10
149.1084610682
 20
131.1910789589
 10
149.0994177113
 20
131.1877021854
 10
149.0901238657
 20
131.1845358655
 10
149.0805969609
 20
131.1815882464
 10
149.0708550283
 20
131.1788611492
 10
149.0609185416
 20
131.1763384166
 10
149.0508070435
 20
131.1740170693
 10
149.0405389643
 20
131.171907448
 10
149.0301336985
 20
131.1700126211
  0
LWPOLYLINE
  5
289
100
AcDbEntity
  8
218
100
AcDbPolyline
 62
7
  6
CONTINUOUS
 90
7
 70
0
 10
159.0261552247
 20
133.9174400584
 10
159.0325190711
 20
133.9207404546
 10
159.0395224962
 20
133.9245200236
 10
159.0463528435
 20
133.9284188767
 10
159.0528790383
 20
133.9323725565
 10
159.0595512181
 20
133.9366481534
 10
159.0611164317
 20
133.9376906282
  0
LINE
  5
28A
100
AcDbEntity
  8
0
100
AcDbLine
 62
7
  6
CONTINUOUS
 10
132.6282368331
 20
121.1823559043
 11
136.5621269707
 21
123.1493009731
  0
LINE
  5
28B
100
AcDbEntity
  8
218
100
AcDbLine
 62
253
  6
CONTINUOUS
 10
158.5111045775
 20
133.1123456447
 11
151.0925009955
 21
129.4238797459
  0
LWPOLYLINE
  5
28C
100
AcDbEntity
  8
218
100
AcDbPolyline
 62
253
  6
CONTINUOUS
 90
12
 70
0
 10
158.5111045775
 20
133.1123456447
 10
158.5635545117
 20
133.1380421891
 10
158.6121827992
 20
133.1610792566
 10
158.6566275228
 20
133.1812853933
 10
158.6965579018
 20
133.1985102146
 10
158.7316767532
 20
133.2126255242
 10
158.7617227043
 20
133.2235262686
 10
158.7864721373
 20
133.231131319
 10
158.805740854
 20
133.2353840743
 10
158.8193854465
 20
133.2362528835
 10
158.8273043646
 20
133.2337312804
 10
158.8286635014
 20
133.2321341664
  0
LINE
  5
28D
100
AcDbEntity
  8
218
100
AcDbLine
 62
7
  6
CONTINUOUS
 10
158.0568567683
 20
133.8958072239
 11
157.203437254
 21
133.4812594736
  0
LINE
  5
28E
100
AcDbEntity
  8
217
100
AcDbLine
 62
253
  6
CONTINUOUS
 10
151.0925009955
 20
131.4403698529
 11
150.3746245726
 21
131.1012884169
  0
LWPOLYLINE
  5
28F
100
AcDbEntity
  8
218
100
AcDbPolyline
 62
7
  6
CONTINUOUS
 90
9
 70
0
 10
158.0568567683
 20
133.8958072239
 10
158.113002646
 20
133.9210702622
 10
158.1662353569
 20
133.9405227546
 10
158.2161058174
 20
133.9541523656
 10
158.2620765871
 20
133.9620600531
 10
158.3038685487
 20
133.964293031
 10
158.3414614588
 20
133.9608360167
 10
158.3744957473
 20
133.9518994126
 10
158.3890576978
 20
133.9455263547
  0
LWPOLYLINE
  5
290
100
AcDbEntity
  8
217
100
AcDbPolyline
 62
253
  6
CONTINUOUS
 90
34
 70
0
 10
144.1957476408
 20
126.9418073029
 10
144.1784533095
 20
126.9346798362
 10
144.160427848
 20
126.9279665497
 10
144.1417111883
 20
126.9216823154
 10
144.1223447936
 20
126.9158410547
 10
144.1023715666
 20
126.9104557079
 10
144.0818357541
 20
126.9055382053
 10
144.0607828495
 20
126.9010994406
 10
144.0392594915
 20
126.897149247
 10
144.0173133609
 20
126.8936963756
 10
143.9949930755
 20
126.8907484754
 10
143.9723480815
 20
126.888312077
 10
143.9494285447
 20
126.8863925778
 10
143.926285239
 20
126.8849942301
 10
143.902969434
 20
126.8841201316
 10
143.8795327817
 20
126.8837722188
 10
143.8560272013
 20
126.8839512623
 10
143.8325047653
 20
126.8846568656
 10
143.809017583
 20
126.8858874656
 10
143.785617686
 20
126.8876403359
 10
143.7623569122
 20
126.8899115936
 10
143.7392867917
 20
126.892696207
 10
143.7164584318
 20
126.8959880074
 10
143.6939224046
 20
126.8997797023
 10
143.6717286344
 20
126.9040628921
 10
143.6499262873
 20
126.9088280881
 10
143.6285636624
 20
126.9140647339
 10
143.6076880844
 20
126.9197612287
 10
143.5873457993
 20
126.925904953
 10
143.5675818717
 20
126.9324822965
 10
143.5484400848
 20
126.9394786884
 10
143.5299628436
 20
126.9468786294
 10
143.512191081
 20
126.9546657264
 10
143.495164167
 20
126.9628227286
  0
LINE
  5
291
100
AcDbEntity
  8
0
100
AcDbLine
 62
7
  6
CONTINUOUS
 10
130.0560742552
 20
88.9076895639
 11
130.1524679
 21
88.8594927415
  0
LWPOLYLINE
  5
292
100
AcDbEntity
  8
217
100
AcDbPolyline
 62
253
  6
CONTINUOUS
 90
17
 70
0
 10
128.5240435831
 20
98.9337048088
 10
128.5253656027
 20
98.9213916275
 10
128.5277913058
 20
98.9091516602
 10
128.5313153187
 20
98.8970120221
 10
128.5359298347
 20
98.8849996064
 10
128.5416246312
 20
98.8731410243
 10
128.5483870923
 20
98.8614625464
 10
128.5562022372
 20
98.8499900439
 10
128.5650527529
 20
98.8387489322
 10
128.5749190327
 20
98.8277641138
 10
128.5857792197
 20
98.8170599236
 10
128.5976092552
 20
98.8066600745
 10
128.6103829321
 20
98.7965876056
 10
128.6240719525
 20
98.7868648304
 10
128.6386459911
 20
98.7775132881
 10
128.6540727618
 20
98.7685536951
 10
128.6703180895
 20
98.7600058998
  0
LWPOLYLINE
  5
293
100
AcDbEntity
  8
217
100
AcDbPolyline
 62
7
  6
CONTINUOUS
 90
22
 70
0
 10
128.5238356663
 20
134.5502893165
 10
128.470880448
 20
132.8394455262
 10
128.4228379191
 20
131.11809205
 10
128.3801316345
 20
129.3992734836
 10
128.34276242
 20
127.6830194385
 10
128.3107308157
 20
125.9693556346
 10
128.284037289
 20
124.2583062237
 10
128.2626823003
 20
122.549896628
 10
128.2466661767
 20
120.8441532405
 10
128.2359892052
 20
119.141101677
 10
128.2306516422
 20
117.4407677382
 10
128.2306535802
 20
115.7431780263
 10
128.2359950608
 20
114.0483593582
 10
128.2466760753
 20
112.3563382824
 10
128.262696451
 20
110.6671403774
 10
128.2840559842
 20
108.9807910036
 10
128.3107544316
 20
107.29731626
 10
128.3427914164
 20
105.6167411362
 10
128.3801665549
 20
103.9390893378
 10
128.4228793909
 20
102.2643860603
 10
128.4709291829
 20
100.5926600986
 10
128.5238542879
 20
98.9376528613
  0
LWPOLYLINE
  5
294
100
AcDbEntity
  8
217
100
AcDbPolyline
 62
253
  6
CONTINUOUS
 90
43
 70
0
 10
128.6703180893
 20
134.3752457674
 10
128.6724819919
 20
134.4219650852
 10
128.6759390424
 20
134.4692224732
 10
128.6806848211
 20
134.516959461
 10
128.6867130949
 20
134.5651163632
 10
128.6940163917
 20
134.6136342573
 10
128.7025861941
 20
134.6624551042
 10
128.7124120311
 20
134.7115197272
 10
128.7234815548
 20
134.760766396
 10
128.7357811487
 20
134.8101328272
 10
128.7492951898
 20
134.859557521
 10
128.7640069273
 20
134.9089799571
 10
128.7798987142
 20
134.9583392168
 10
128.7969506501
 20
135.0075744608
 10
128.8151414322
 20
135.0566248051
 10
128.8344491773
 20
135.1054295013
 10
128.8548497734
 20
135.1539285104
 10
128.8763176906
 20
135.2020617765
 10
128.8988268593
 20
135.2497691072
 10
128.9223489885
 20
135.2969915246
 10
128.9468547518
 20
135.3436709094
 10
128.9723146102
 20
135.3897492706
 10
128.9986966654
 20
135.4351698058
 10
129.0259679448
 20
135.479876493
 10
129.0540955816
 20
135.5238137303
 10
129.0830444428
 20
135.5669275122
 10
129.1127782526
 20
135.6091645367
 10
129.1432608763
 20
135.650471806
 10
129.1744540155
 20
135.6907983251
 10
129.206318757
 20
135.7300945661
 10
129.2388167
 20
135.7683115688
 10
129.2719070843
 20
135.8054022342
 10
129.3055485768
 20
135.8413209732
 10
129.3397008242
 20
135.8760231457
 10
129.3743214592
 20
135.9094664136
 10
129.4093668021
 20
135.9416092105
 10
129.4447936336
 20
135.9724104612
 10
129.4805567976
 20
136.0018317606
 10
129.5166122957
 20
136.0298377216
 10
129.5529180206
 20
136.0563942876
 10
129.5894295605
 20
136.0814688281
 10
129.6261002182
 20
136.1050303721
 10
129.6628840993
 20
136.1270499233
  0
LINE
  5
295
100
AcDbEntity
  8
218
100
AcDbLine
 62
7
  6
CONTINUOUS
 10
159.0611164317
 20
133.9376906282
 11
159.1329964643
 21
133.9874756032
  0
LINE
  5
296
100
AcDbEntity
  8
218
100
AcDbLine
 62
253
  6
CONTINUOUS
 10
159.0492470694
 20
134.0431493055
 11
159.0646436088
 21
134.0532243815
  0
LINE
  5
297
100
AcDbEntity
  8
218
100
AcDbLine
 62
253
  6
CONTINUOUS
 10
159.0875487855
 20
134.068047092
 11
159.1105474149
 21
134.0831244706
  0
LINE
  5
298
100
AcDbEntity
  8
218
100
AcDbLine
 62
253
  6
CONTINUOUS
 10
159.0646436088
 20
134.0532243815
 11
159.0875487855
 21
134.068047092
  0
LWPOLYLINE
  5
299
100
AcDbEntity
  8
218
100
AcDbPolyline
 62
253
  6
CONTINUOUS
 90
10
 70
0
 10
158.8847726596
 20
131.8206514331
 10
158.9362486902
 20
131.8497145632
 10
158.9825232765
 20
131.8808878952
 10
159.0232520186
 20
131.9139394209
 10
159.058131792
 20
131.9486231536
 10
159.0869030032
 20
131.9846809588
 10
159.1093515216
 20
132.0218444754
 10
159.1253102738
 20
132.0598371131
 10
159.1346604863
 20
132.0983761107
 10
159.1373668392
 20
132.1332476998
  0
LINE
  5
29A
100
AcDbEntity
  8
218
100
AcDbLine
 62
253
  6
CONTINUOUS
 10
158.8847726596
 20
131.8206514331
 11
151.0925009955
 21
127.7860846724
  0
LINE
  5
29B
100
AcDbEntity
  8
218
100
AcDbLine
 62
253
  6
CONTINUOUS
 10
154.9022351927
 20
128.3110077225
 11
153.5825853086
 21
127.6277389932
  0
LWPOLYLINE
  5
29C
100
AcDbEntity
  8
RACCORDO
100
AcDbPolyline
 62
253
  6
CONTINUOUS
 90
10
 70
0
 10
134.7599408784
 20
91.0389565985
 10
134.6272227318
 20
91.1011324596
 10
134.2784933832
 20
91.2430662195
 10
133.917737353
 20
91.3597102344
 10
133.5460180252
 20
91.45061253
 10
133.1646806957
 20
91.5154464254
 10
132.7749595411
 20
91.5541120547
 10
132.3772842441
 20
91.566674064
 10
131.9718247163
 20
91.5531251826
 10
131.6838917145
 20
91.5253999948
  0
LWPOLYLINE
  5
29D
100
AcDbEntity
  8
DRAFT
100
AcDbPolyline
 62
7
  6
CONTINUOUS
 90
15
 70
0
 10
137.2748076204
 20
89.8068205881
 10
136.943555539
 20
89.9621948345
 10
136.5863503581
 20
90.0987659903
 10
136.2175386914
 20
90.2089584256
 10
135.8372129153
 20
90.2929017397
 10
135.4477327065
 20
90.3500383308
 10
135.0489452687
 20
90.3801855139
 10
134.6410033983
 20
90.3835259739
 10
134.2267251603
 20
90.360050164
 10
133.80621932
 20
90.309600794
 10
133.3793771122
 20
90.232335154
 10
132.948690306
 20
90.1287155675
 10
132.5149894912
 20
89.9988961425
 10
132.0774440779
 20
89.842722771
 10
131.6838917145
 20
89.6799776806
  0
LINE
  5
29E
100
AcDbEntity
  8
DRAFT
100
AcDbLine
 62
7
  6
CONTINUOUS
 10
136.609021577
 20
90.1397911118
 11
134.759940871
 21
91.0389566021
  0
LWPOLYLINE
  5
29F
100
AcDbEntity
  8
DRAFT
100
AcDbPolyline
 62
7
  6
CONTINUOUS
 90
3
 70
0
 10
136.6090200499
 20
90.1396983145
 10
136.7235611855
 20
90.0822172702
 10
136.9185816344
 20
89.9717431703
  0
LINE
  5
2A0
100
AcDbEntity
  8
DRAFT
100
AcDbLine
 62
7
  6
CONTINUOUS
 10
137.2746744057
 20
89.8069646975
 11
139.103455222
 21
88.8671994266
  0
LWPOLYLINE
  5
2A1
100
AcDbEntity
  8
0
100
AcDbPolyline
 62
253
  6
CONTINUOUS
 90
9
 70
0
 10
129.9838917145
 20
119.5034614278
 10
129.98505661
 20
119.4812186464
 10
129.994356625
 20
119.4369767802
 10
130.0128547622
 20
119.3934633337
 10
130.040348352
 20
119.3511550493
 10
130.0765361689
 20
119.3105154655
 10
130.1210217317
 20
119.271989838
 10
130.1733176473
 20
119.2360002617
 10
130.2328509505
 20
119.2029410458
  0
LWPOLYLINE
  5
2A2
100
AcDbEntity
  8
217
100
AcDbPolyline
 62
7
  6
CONTINUOUS
 90
27
 70
0
 10
128.523854455
 20
98.9376533649
 10
128.5256178085
 20
98.8995335378
 10
128.5295280694
 20
98.8484656943
 10
128.5351666323
 20
98.7983145868
 10
128.5425224605
 20
98.7490863272
 10
128.5515774805
 20
98.7008360175
 10
128.5622987354
 20
98.6536733504
 10
128.5746645394
 20
98.6076213672
 10
128.5886511907
 20
98.562713264
 10
128.6042021567
 20
98.5190716269
 10
128.6212819799
 20
98.4767234658
 10
128.6398542524
 20
98.4356960796
 10
128.659834239
 20
98.3961084658
 10
128.6811525257
 20
98.3580135888
 10
128.7037692427
 20
98.3214037819
 10
128.7276243953
 20
98.2863080001
 10
128.7526349841
 20
98.2527775739
 10
128.7787562157
 20
98.2208027623
 10
128.8059854858
 20
98.190334563
 10
128.8342591785
 20
98.161403016
 10
128.8635153692
 20
98.1340285817
 10
128.8937640143
 20
98.108168851
 10
128.9249415181
 20
98.0838545505
 10
128.9569856921
 20
98.0611099423
 10
128.9899179297
 20
98.0399018843
 10
129.0237060562
 20
98.0202436101
 10
129.0548566469
 20
98.003871384
  0
LWPOLYLINE
  5
2A3
100
AcDbEntity
  8
217
100
AcDbPolyline
 62
253
  6
CONTINUOUS
 90
22
 70
0
 10
128.6703180893
 20
98.7600058998
 10
128.6170115488
 20
100.4275460446
 10
128.5690333094
 20
102.0980922107
 10
128.5263841204
 20
103.7716187506
 10
128.4890646564
 20
105.4480999633
 10
128.4570754916
 20
107.1275101198
 10
128.4304170989
 20
108.8098234627
 10
128.4090898905
 20
110.4950141711
 10
128.3930942037
 20
112.1830563719
 10
128.3824302753
 20
113.873924165
 10
128.3770982672
 20
115.5675915949
 10
128.3770982672
 20
117.264032666
 10
128.3824302753
 20
118.9632213542
 10
128.3930942037
 20
120.6651315848
 10
128.4090898905
 20
122.3697372317
 10
128.4304170989
 20
124.0770121318
 10
128.4570754916
 20
125.7869300834
 10
128.4890646564
 20
127.4994648449
 10
128.5263841204
 20
129.2145901334
 10
128.5690333094
 20
130.9322796286
 10
128.6170115488
 20
132.6525069722
 10
128.6703180893
 20
134.3752457674
  0
LWPOLYLINE
  5
2A4
100
AcDbEntity
  8
217
100
AcDbPolyline
 62
253
  6
CONTINUOUS
 90
18
 70
0
 10
128.523835481
 20
134.5502802858
 10
128.524043695
 20
134.538887475
 10
128.525365718
 20
134.5277134763
 10
128.5277914242
 20
134.5165535489
 10
128.5313154397
 20
134.5054324155
 10
128.5359299579
 20
134.494374713
 10
128.541624756
 20
134.4834049376
 10
128.5483872185
 20
134.4725473907
 10
128.5562023643
 20
134.4618261252
 10
128.5650528804
 20
134.4512648921
 10
128.5749191601
 20
134.4408870878
 10
128.5857793467
 20
134.4307157023
 10
128.5976093814
 20
134.4207732684
 10
128.610383057
 20
134.4110818117
 10
128.6240720758
 20
134.4016628018
 10
128.6386461124
 20
134.3925371048
 10
128.6540728807
 20
134.3837249368
 10
128.6703182057
 20
134.3752458197
  0
LINE
  5
2A5
100
AcDbEntity
  8
0
100
AcDbLine
 62
7
  6
CONTINUOUS
 10
129.9838917145
 20
88.7510865645
 11
129.9838917145
 21
119.5034614278
  0
LWPOLYLINE
  5
2A6
100
AcDbEntity
  8
RACCORDO
100
AcDbPolyline
 62
253
  6
CONTINUOUS
 90
26
 70
0
 10
128.0550933784
 20
73.2952575274
 10
128.0572306844
 20
73.4929171432
 10
128.0639780939
 20
73.7004054031
 10
128.075849971
 20
73.9177971356
 10
128.0933161209
 20
74.1444728397
 10
128.1169441525
 20
74.3810951175
 10
128.147556527
 20
74.6296589652
 10
128.185907096
 20
74.8904072624
 10
128.2326915074
 20
75.1629815389
 10
128.2889037342
 20
75.4484563658
 10
128.3553443924
 20
75.7464384655
 10
128.4328947922
 20
76.0568011589
 10
128.5229212895
 20
76.3809148262
 10
128.6265514213
 20
76.7186692628
 10
128.7446643852
 20
77.0689970239
 10
128.8784344004
 20
77.4316296542
 10
129.0305009369
 20
77.8095300856
 10
129.2003903056
 20
78.1974910349
 10
129.3835172333
 20
78.5830697724
 10
129.5781742448
 20
78.9624562884
 10
129.7853741606
 20
79.3374222034
 10
130.0032481636
 20
79.7043796355
 10
130.2305748806
 20
80.0614514269
 10
130.4673401126
 20
80.4087867222
 10
130.7132585575
 20
80.7459864975
 10
130.9679155485
 20
81.0724303174
  0
LWPOLYLINE
  5
2A7
100
AcDbEntity
  8
RACCORDO
100
AcDbPolyline
 62
253
  6
CONTINUOUS
 90
26
 70
0
 10
128.0927537046
 20
73.3125254702
 10
128.0948782278
 20
73.5090014868
 10
128.1015852398
 20
73.7152472987
 10
128.1133860244
 20
73.9313372861
 10
128.1307475675
 20
74.156655661
 10
128.1542340854
 20
74.3918610545
 10
128.1846631331
 20
74.6389365063
 10
128.2227840584
 20
74.8981234361
 10
128.2692883333
 20
75.1690655259
 10
128.3251639665
 20
75.4528309191
 10
128.3912067761
 20
75.749028695
 10
128.4682927988
 20
76.0575329309
 10
128.5577802068
 20
76.3797058021
 10
128.660789778
 20
76.7154377677
 10
128.7781954528
 20
77.0636677709
 10
128.9111644399
 20
77.4241289532
 10
129.0623204199
 20
77.7997664964
 10
129.2311925246
 20
78.1854043071
 10
129.4132229112
 20
78.568674176
 10
129.6067143158
 20
78.9457889145
 10
129.8126735071
 20
79.3185095278
 10
130.0292428706
 20
79.6832696123
 10
130.2552083511
 20
80.0382032485
 10
130.4905558303
 20
80.3834586901
 10
130.7350017129
 20
80.7186393035
 10
130.988133815
 20
81.0431283684
  0
LWPOLYLINE
  5
2A8
100
AcDbEntity
  8
0
100
AcDbPolyline
 62
7
  6
CONTINUOUS
 90
25
 70
0
 10
131.6838917145
 20
119.5034614278
 10
131.6856606067
 20
119.5719359625
 10
131.6912058555
 20
119.6453952537
 10
131.7008431728
 20
119.7233630782
 10
131.7148396358
 20
119.8053566359
 10
131.7333770025
 20
119.8907013
 10
131.7565284209
 20
119.9785760946
 10
131.7843574193
 20
120.0683924506
 10
131.8168192666
 20
120.159379373
 10
131.8536627449
 20
120.2504475565
 10
131.8946865136
 20
120.3408888331
 10
131.9396337175
 20
120.4300054925
 10
131.9879926599
 20
120.5167711404
 10
132.0393668646
 20
120.6005632837
 10
132.0933068999
 20
120.6807796564
 10
132.1490680551
 20
120.7565318544
 10
132.2060881837
 20
120.8273563562
 10
132.2638142495
 20
120.8928935929
 10
132.3213963813
 20
120.9525693071
 10
132.3781628954
 20
121.0061485476
 10
132.4335725408
 20
121.0536035263
 10
132.4868880812
 20
121.0948183377
 10
132.5374465328
 20
121.1298466499
 10
132.5847328106
 20
121.1589260123
 10
132.6282368331
 20
121.1823559043
  0
LWPOLYLINE
  5
2A9
100
AcDbEntity
  8
0
100
AcDbPolyline
 62
7
  6
CONTINUOUS
 90
22
 70
0
 10
129.9838917145
 20
119.5034614278
 10
129.9893578898
 20
119.6855463343
 10
130.0054992167
 20
119.8687437866
 10
130.0319457746
 20
120.0524251583
 10
130.0683999014
 20
120.236210844
 10
130.114528732
 20
120.4193609319
 10
130.1698305931
 20
120.6006697319
 10
130.2338231437
 20
120.7792820576
 10
130.3062213654
 20
120.954895653
 10
130.3867306674
 20
121.1270456801
 10
130.4750285259
 20
121.2951528545
 10
130.5707964007
 20
121.4586288535
 10
130.6737842117
 20
121.6169741701
 10
130.7838040053
 20
121.7697253395
 10
130.9004937649
 20
121.9161446406
 10
131.023386336
 20
122.0554078344
 10
131.1524506167
 20
122.1871764308
 10
131.2872087615
 20
122.3105986189
 10
131.4265207251
 20
122.4243739324
 10
131.569811119
 20
122.5278790591
 10
131.7170695547
 20
122.6208875253
 10
131.8679737207
 20
122.702882129
  0
LINE
  5
2AA
100
AcDbEntity
  8
217
100
AcDbLine
 62
253
  6
CONTINUOUS
 10
150.0318408237
 20
132.5793517956
 11
150.5601079955
 21
133.2223039514
  0
LINE
  5
2AB
100
AcDbEntity
  8
217
100
AcDbLine
 62
7
  6
CONTINUOUS
 10
150.0318408237
 20
132.4898213293
 11
150.6312010255
 21
133.2193005671
  0
LWPOLYLINE
  5
2AC
100
AcDbEntity
  8
217
100
AcDbPolyline
 62
7
  6
CONTINUOUS
 90
5
 70
0
 10
150.6312507784
 20
133.2193652797
 10
150.6309049458
 20
133.218979466
 10
150.6294065214
 20
133.2178361207
 10
150.627386599
 20
133.2169105147
 10
150.6248572451
 20
133.2161753631
  0
LWPOLYLINE
  5
2AD
100
AcDbEntity
  8
218
100
AcDbPolyline
 62
253
  6
CONTINUOUS
 90
11
 70
0
 10
158.9619496732
 20
133.9806515361
 10
158.9717544874
 20
133.9882855008
 10
158.9812918349
 20
133.9954896241
 10
158.990585683
 20
134.0023815595
 10
158.9996395415
 20
134.0089811253
 10
159.0084499008
 20
134.015268503
 10
159.0170301994
 20
134.0213018914
 10
159.0253502499
 20
134.0270658921
 10
159.0334402397
 20
134.0325759034
 10
159.0414041704
 20
134.0379363186
 10
159.0492470694
 20
134.0431493055
  0
LWPOLYLINE
  5
2AE
100
AcDbEntity
  8
218
100
AcDbPolyline
 62
253
  6
CONTINUOUS
 90
9
 70
0
 10
159.0611164317
 20
133.9376906282
 10
159.0718048501
 20
133.9459677448
 10
159.0839814514
 20
133.9590548535
 10
159.0940907374
 20
133.9746366189
 10
159.102022364
 20
133.9925429301
 10
159.1076897748
 20
134.012578811
 10
159.1110308154
 20
134.0345257665
 10
159.1120086541
 20
134.0581439308
 10
159.1106123496
 20
134.0831753271
  0
LWPOLYLINE
  5
2AF
100
AcDbEntity
  8
218
100
AcDbPolyline
 62
7
  6
CONTINUOUS
 90
21
 70
0
 10
159.1329964643
 20
133.9874756032
 10
159.2555653106
 20
134.0812783714
 10
159.3749755911
 20
134.184017456
 10
159.4907830676
 20
134.2951224521
 10
159.6025994052
 20
134.4140249969
 10
159.7100306327
 20
134.5401935469
 10
159.8126592797
 20
134.6730271943
 10
159.9100889879
 20
134.8118859744
 10
160.001916412
 20
134.9561471472
 10
160.0877571175
 20
135.1051558929
 10
160.1672593149
 20
135.2582255446
 10
160.2400568637
 20
135.4146669108
 10
160.3058193621
 20
135.5737864896
 10
160.3642584712
 20
135.7348724735
 10
160.4150737869
 20
135.8972152983
 10
160.4579991356
 20
136.0601101396
 10
160.4928154103
 20
136.2228463466
 10
160.51929283
 20
136.3847429074
 10
160.5372257651
 20
136.5451295571
 10
160.5464508833
 20
136.7033104787
 10
160.5477485081
 20
136.7872718181
  0
LINE
  5
2B0
100
AcDbEntity
  8
218
100
AcDbLine
 62
253
  6
CONTINUOUS
 10
154.9022351927
 20
124.8469061074
 11
156.291340334
 21
125.5661363488
  0
LINE
  5
2B1
100
AcDbEntity
  8
218
100
AcDbLine
 62
253
  6
CONTINUOUS
 10
152.8533051094
 20
123.4789904624
 11
152.1934801673
 21
123.1373560977
  0
LWPOLYLINE
  5
2B2
100
AcDbEntity
  8
218
100
AcDbPolyline
 62
253
  6
CONTINUOUS
 90
4
 70
0
 10
159.2041679139
 20
125.2896026238
 10
159.1793809208
 20
125.2776618155
 10
159.1547323256
 20
125.2681670176
 10
159.1373668392
 20
125.2631815963
  0
LWPOLYLINE
  5
2B3
100
AcDbEntity
  8
217
100
AcDbPolyline
 62
253
  6
CONTINUOUS
 90
25
 70
0
 10
129.0547345604
 20
98.0039324068
 10
129.0259677161
 20
98.0194001233
 10
128.998696439
 20
98.0361928429
 10
128.9723143891
 20
98.0546103318
 10
128.9468545415
 20
98.0746296178
 10
128.9223487913
 20
98.0962257183
 10
128.8988266731
 20
98.1193723219
 10
128.8763175127
 20
98.1440407246
 10
128.8548496025
 20
98.1702001516
 10
128.8344490116
 20
98.1978183573
 10
128.8151412679
 20
98.2268609164
 10
128.7969504866
 20
98.2572918025
 10
128.7798985565
 20
98.2890737253
 10
128.7640067835
 20
98.322167197
 10
128.7492950629
 20
98.3565311828
 10
128.7357810359
 20
98.3921237032
 10
128.7234814523
 20
98.4289010961
 10
128.7124119374
 20
98.4668173786
 10
128.7025861086
 20
98.5058248572
 10
128.6940163106
 20
98.5458742856
 10
128.6867130201
 20
98.5869168238
 10
128.6806847629
 20
98.6289035129
 10
128.6759390076
 20
98.6717830861
 10
128.6724819783
 20
98.7155018995
 10
128.6703180893
 20
98.7600058998
  0
LWPOLYLINE
  5
2B4
100
AcDbEntity
  8
217
100
AcDbPolyline
 62
7
  6
CONTINUOUS
 90
23
 70
0
 10
133.3155119243
 20
139.5972532041
 10
133.3158303323
 20
139.5846396518
 10
133.3167889489
 20
139.5720167036
 10
133.3183907232
 20
139.5594231634
 10
133.3206348831
 20
139.54690209
 10
133.3235189232
 20
139.5344886649
 10
133.3270407474
 20
139.522209898
 10
133.3311941126
 20
139.5101029712
 10
133.3359689674
 20
139.4982076039
 10
133.3413567623
 20
139.4865533245
 10
133.3473451228
 20
139.4751743496
 10
133.353917164
 20
139.4641079548
 10
133.3610565978
 20
139.4533851413
 10
133.3687463908
 20
139.443034772
 10
133.3769637106
 20
139.4330899588
 10
133.3856827444
 20
139.4235826364
 10
133.3948839604
 20
139.4145345737
 10
133.4045404099
 20
139.405972856
 10
133.4146148117
 20
139.3979291929
 10
133.4250873615
 20
139.3904176604
 10
133.4359300516
 20
139.3834576516
 10
133.4470938013
 20
139.3770779372
 10
133.4537148513
 20
139.3736432437
  0
LWPOLYLINE
  5
2B5
100
AcDbEntity
  8
217
100
AcDbPolyline
 62
253
  6
CONTINUOUS
 90
19
 70
0
 10
133.388735229
 20
139.5088648564
 10
133.3889541002
 20
139.4982038642
 10
133.3896106559
 20
139.4877824477
 10
133.3907039935
 20
139.4776268703
 10
133.3922324434
 20
139.4677610162
 10
133.394192762
 20
139.4582118195
 10
133.396579345
 20
139.4490085834
 10
133.3993856778
 20
139.4401758568
 10
133.4026051949
 20
139.431733816
 10
133.4062299641
 20
139.4237033015
 10
133.4102510472
 20
139.4161042162
 10
133.4146584203
 20
139.4089555944
 10
133.4194410482
 20
139.4022753668
 10
133.4245870211
 20
139.3960801657
 10
133.4300835499
 20
139.3903853855
 10
133.4359168932
 20
139.3852052492
 10
133.4420724821
 20
139.3805526578
 10
133.4485350373
 20
139.3764391253
 10
133.4537085275
 20
139.3736464053
  0
LINE
  5
2B6
100
AcDbEntity
  8
0
100
AcDbLine
 62
7
  6
CONTINUOUS
 10
131.6838917145
 20
89.5803730545
 11
131.6838917145
 21
119.5034614278
  0
LINE
  5
2B7
100
AcDbEntity
  8
217
100
AcDbLine
 62
7
  6
CONTINUOUS
 10
133.3155119243
 20
139.9372271382
 11
133.3155119243
 21
139.5972532041
  0
LINE
  5
2B8
100
AcDbEntity
  8
217
100
AcDbLine
 62
253
  6
CONTINUOUS
 10
133.388735229
 20
139.8488387905
 11
133.388735229
 21
139.5088648564
  0
LINE
  5
2B9
100
AcDbEntity
  8
217
100
AcDbLine
 62
7
  6
CONTINUOUS
 10
134.0185048786
 20
139.0912482297
 11
134.0185048786
 21
138.6372911352
  0
LINE
  5
2BA
100
AcDbEntity
  8
217
100
AcDbLine
 62
253
  6
CONTINUOUS
 10
134.0917281833
 20
139.0546365774
 11
134.0917281833
 21
138.5455624332
  0
LWPOLYLINE
  5
2BB
100
AcDbEntity
  8
DRAFT
100
AcDbPolyline
 62
7
  6
CONTINUOUS
 90
34
 70
0
 10
131.6546023209
 20
89.5803730545
 10
131.6545893021
 20
89.5780832964
 10
131.6530208892
 20
89.5568018986
 10
131.6488461194
 20
89.5355982708
 10
131.642080101
 20
89.5145410849
 10
131.632750095
 20
89.493714276
 10
131.6210566975
 20
89.4734154034
 10
131.607181127
 20
89.4537545843
 10
131.5912314994
 20
89.4347282066
 10
131.5734271939
 20
89.4164376344
 10
131.5540330066
 20
89.3989926035
 10
131.5331345902
 20
89.3823337447
 10
131.5106507226
 20
89.3663098895
 10
131.4866708969
 20
89.3509404266
 10
131.4613175824
 20
89.3362638833
 10
131.4344653095
 20
89.3221860333
 10
131.4061873283
 20
89.3087443111
 10
131.3765604709
 20
89.2959748914
 10
131.3453977284
 20
89.2838150745
 10
131.3127763592
 20
89.2723247841
 10
131.278736976
 20
89.2615483292
 10
131.242980997
 20
89.2514464405
 10
131.2053791843
 20
89.2420553304
 10
131.1661627189
 20
89.2335118848
 10
131.1255708378
 20
89.2259440858
 10
131.0835806735
 20
89.2193974624
 10
131.0404274295
 20
89.2139694868
 10
130.9967876973
 20
89.2098027842
 10
130.9528249495
 20
89.2069092089
 10
130.9086788309
 20
89.2052978058
 10
130.865015908
 20
89.2050075468
 10
130.8221525956
 20
89.2059999796
 10
130.7800514767
 20
89.2082100676
 10
130.738836144
 20
89.211586492
  0
LWPOLYLINE
  5
2BC
100
AcDbEntity
  8
217
100
AcDbPolyline
 62
7
  6
CONTINUOUS
 90
29
 70
0
 10
131.8282778947
 20
125.6253642376
 10
131.8271481961
 20
125.53387797
 10
131.8273156276
 20
125.4423996627
 10
131.8287798705
 20
125.35092917
 10
131.8315390328
 20
125.2596911327
 10
131.835594303
 20
125.1684605865
 10
131.8409503128
 20
125.0765631327
 10
131.8475675958
 20
124.9839899887
 10
131.8554856575
 20
124.8907499626
 10
131.8648281995
 20
124.7961953302
 10
131.8755814182
 20
124.7001941491
 10
131.8877597694
 20
124.6028786768
 10
131.9015297163
 20
124.5039976646
 10
131.9169318834
 20
124.4033060717
 10
131.9339265138
 20
124.3010493569
 10
131.9525593279
 20
124.1977119402
 10
131.9728548941
 20
124.0932757361
 10
131.9947889313
 20
123.9877589745
 10
132.0183333567
 20
123.8817002988
 10
132.0435060259
 20
123.7751266389
 10
132.0702888163
 20
123.668010947
 10
132.0985991947
 20
123.5608106706
 10
132.1284692309
 20
123.4534913664
 10
132.1598661879
 20
123.3460871691
 10
132.192609876
 20
123.2391581819
 10
132.2267356786
 20
123.1326756658
 10
132.2622070982
 20
123.0266678375
 10
132.298735656
 20
122.9217800113
 10
132.2998148467
 20
122.918802692
  0
LWPOLYLINE
  5
2BD
100
AcDbEntity
  8
217
100
AcDbPolyline
 62
253
  6
CONTINUOUS
 90
31
 70
0
 10
133.388735229
 20
139.8488387905
 10
133.3889745839
 20
139.8602212907
 10
133.3896925891
 20
139.8718195164
 10
133.3908881792
 20
139.8836023773
 10
133.3925593767
 20
139.8955406447
 10
133.3947023116
 20
139.9075996957
 10
133.3973102671
 20
139.9197393996
 10
133.4003754391
 20
139.9319241004
 10
133.4038899934
 20
139.9441232258
 10
133.4078444746
 20
139.9563038978
 10
133.4122282384
 20
139.9684331857
 10
133.417029318
 20
139.9804778495
 10
133.4222345235
 20
139.9924047603
 10
133.4278296125
 20
140.0041813118
 10
133.4337994154
 20
140.0157756015
 10
133.4401277373
 20
140.027156172
 10
133.4467973884
 20
140.0382920896
 10
133.4537901959
 20
140.0491529931
 10
133.4610871046
 20
140.0597092777
 10
133.4686682471
 20
140.0699321979
 10
133.4765129984
 20
140.0797939383
 10
133.4846000046
 20
140.0892676507
 10
133.4929072568
 20
140.0983275486
 10
133.5014121435
 20
140.1069489682
 10
133.5100915086
 20
140.1151084338
 10
133.5189217346
 20
140.1227837403
 10
133.5278787809
 20
140.1299539894
 10
133.5369382401
 20
140.1365996438
 10
133.5460754436
 20
140.1427026125
 10
133.55526553
 20
140.1482462948
 10
133.564483485
 20
140.1532156055
  0
LWPOLYLINE
  5
2BE
100
AcDbEntity
  8
217
100
AcDbPolyline
 62
253
  6
CONTINUOUS
 90
31
 70
0
 10
134.7137199088
 20
139.1863464506
 10
134.7139592637
 20
139.1977289508
 10
134.7146772689
 20
139.2093271765
 10
134.715872859
 20
139.2211100374
 10
134.7175440565
 20
139.2330483048
 10
134.7196869914
 20
139.2451073558
 10
134.7222949469
 20
139.2572470597
 10
134.7253601189
 20
139.2694317605
 10
134.7288746732
 20
139.2816308859
 10
134.7328291544
 20
139.2938115579
 10
134.7372129182
 20
139.3059408457
 10
134.7420139979
 20
139.3179855096
 10
134.7472192033
 20
139.3299124204
 10
134.7528142923
 20
139.3416889719
 10
134.7587840952
 20
139.3532832616
 10
134.7651124171
 20
139.3646638321
 10
134.7717820682
 20
139.3757997497
 10
134.7787748757
 20
139.3866606532
 10
134.7860717845
 20
139.3972169378
 10
134.7936529269
 20
139.407439858
 10
134.8014976782
 20
139.4173015984
 10
134.8095846844
 20
139.4267753108
 10
134.8178919366
 20
139.4358352086
 10
134.8263968233
 20
139.4444566283
 10
134.8350761884
 20
139.4526160939
 10
134.8439064144
 20
139.4602914004
 10
134.8528634607
 20
139.4674616495
 10
134.8619229199
 20
139.4741073039
 10
134.8710601235
 20
139.4802102726
 10
134.8802502098
 20
139.4857539549
 10
134.8894681648
 20
139.4907232656
  0
LWPOLYLINE
  5
2BF
100
AcDbEntity
  8
217
100
AcDbPolyline
 62
7
  6
CONTINUOUS
 90
20
 70
0
 10
133.3155119243
 20
139.9372271382
 10
133.3159157964
 20
139.9514317501
 10
133.317134408
 20
139.9656631741
 10
133.3191747955
 20
139.9798653718
 10
133.3220395469
 20
139.9939827668
 10
133.3257258692
 20
140.007956536
 10
133.3302251616
 20
140.0217264832
 10
133.335523755
 20
140.0352344946
 10
133.3416054966
 20
140.0484292584
 10
133.348452978
 20
140.0612650913
 10
133.3560436485
 20
140.0736934026
 10
133.364350035
 20
140.0856653214
 10
133.3733464429
 20
140.0971409518
 10
133.3830077512
 20
140.1080844667
 10
133.3932970237
 20
140.1184508341
 10
133.4041712946
 20
140.1281962488
 10
133.4156054582
 20
140.1372972542
 10
133.4275576143
 20
140.145718405
 10
133.4399602458
 20
140.1534140389
 10
133.4514049768
 20
140.1596672524
  0
LWPOLYLINE
  5
2C0
100
AcDbEntity
  8
217
100
AcDbPolyline
 62
7
  6
CONTINUOUS
 90
46
 70
0
 10
133.9359328751
 20
124.0011069356
 10
133.9399002564
 20
124.0574470029
 10
133.9454465623
 20
124.1128522186
 10
133.9525701182
 20
124.1672580225
 10
133.9612735725
 20
124.2206125734
 10
133.9715462244
 20
124.2728401025
 10
133.9833601996
 20
124.3238451577
 10
133.9966952723
 20
124.3735427878
 10
134.0115435354
 20
124.4219065862
 10
134.0278940903
 20
124.4689313844
 10
134.0457459033
 20
124.5145910323
 10
134.0650742101
 20
124.558797652
 10
134.085829913
 20
124.6014577732
 10
134.1079746377
 20
124.642496889
 10
134.1314980751
 20
124.6818996231
 10
134.156390896
 20
124.7196648348
 10
134.1826493236
 20
124.7557708178
 10
134.210231714
 20
124.7901447156
 10
134.2390698294
 20
124.8227131777
 10
134.2691046376
 20
124.8534150593
 10
134.3003285222
 20
124.8822465978
 10
134.3327501536
 20
124.9092216024
 10
134.3663697289
 20
124.9343231873
 10
134.4011277844
 20
124.9574898159
 10
134.4369436506
 20
124.9786695971
 10
134.4737848092
 20
124.997840115
 10
134.5116076065
 20
125.0149736831
 10
134.5503051699
 20
125.0300310299
 10
134.5898000813
 20
125.042993669
 10
134.6300776791
 20
125.0538669393
 10
134.6711222809
 20
125.06265559
 10
134.7128734547
 20
125.0693491225
 10
134.755301171
 20
125.0739451408
 10
134.7984409775
 20
125.0764457465
 10
134.842284269
 20
125.076835544
 10
134.8867536538
 20
125.0750987607
 10
134.9317837017
 20
125.0712298942
 10
134.977354066
 20
125.0652193512
 10
135.0233911069
 20
125.0570640751
 10
135.0697451094
 20
125.0467883527
 10
135.1163573052
 20
125.0344094927
 10
135.1631832491
 20
125.0199417774
 10
135.2100906459
 20
125.0034333411
 10
135.2569999616
 20
124.9849266924
 10
135.3038859469
 20
124.9644462576
 10
135.3506972222
 20
124.9420267429
  0
LWPOLYLINE
  5
2C1
100
AcDbEntity
  8
217
100
AcDbPolyline
 62
253
  6
CONTINUOUS
 90
16
 70
0
 10
135.3506972222
 20
124.9420267429
 10
135.3761455493
 20
125.1835117608
 10
135.4043539987
 20
125.4258760449
 10
135.435317763
 20
125.6690613572
 10
135.4690261118
 20
125.912968263
 10
135.5054775222
 20
126.1575791874
 10
135.5446796769
 20
126.4029582531
 10
135.5866302183
 20
126.6490902085
 10
135.6313120753
 20
126.8958707159
 10
135.6787132384
 20
127.1432307207
 10
135.7288343107
 20
127.3911637956
 10
135.7816547205
 20
127.6395559721
 10
135.8371248524
 20
127.8881759332
 10
135.895215007
 20
128.1369056186
 10
135.955921535
 20
128.3857410648
 10
136.0192284272
 20
128.6346215828
  0
LWPOLYLINE
  5
2C2
100
AcDbEntity
  8
217
100
AcDbPolyline
 62
7
  6
CONTINUOUS
 90
5
 70
0
 10
138.8967681028
 20
137.9136731633
 10
138.8947315595
 20
137.9045517653
 10
138.8932172006
 20
137.8947181678
 10
138.8922608169
 20
137.8842600079
 10
138.8919290701
 20
137.8725862516
  0
LWPOLYLINE
  5
2C3
100
AcDbEntity
  8
218
100
AcDbPolyline
 62
253
  6
CONTINUOUS
 90
5
 70
0
 10
158.7920092689
 20
139.778744793
 10
158.7675251798
 20
139.7505560264
 10
158.7372751497
 20
139.7236945137
 10
158.7015831629
 20
139.6984479476
 10
158.6608314886
 20
139.6750867242
  0
LWPOLYLINE
  5
2C4
100
AcDbEntity
  8
218
100
AcDbPolyline
 62
253
  6
CONTINUOUS
 90
10
 70
0
 10
165.5545088491
 20
127.0263557184
 10
165.6052723835
 20
127.0549803527
 10
165.651139066
 20
127.0857670846
 10
165.6917207651
 20
127.1185120795
 10
165.7266835155
 20
127.1530166296
 10
165.7556792547
 20
127.1890200098
 10
165.7783902072
 20
127.2261926698
 10
165.7946190813
 20
127.2642605255
 10
165.8042169146
 20
127.3029426951
 10
165.8071030288
 20
127.338953795
  0
LINE
  5
2C5
100
AcDbEntity
  8
218
100
AcDbLine
 62
253
  6
CONTINUOUS
 10
155.5620601348
 20
124.0154640293
 11
155.2147838495
 21
123.835656469
  0
LINE
  5
2C6
100
AcDbEntity
  8
218
100
AcDbLine
 62
253
  6
CONTINUOUS
 10
154.6244141645
 20
123.5299836164
 11
153.5825853086
 21
122.9905609353
  0
LINE
  5
2C7
100
AcDbEntity
  8
218
100
AcDbLine
 62
253
  6
CONTINUOUS
 10
153.2005813947
 20
122.7927726189
 11
152.8533051094
 21
122.6129650586
  0
LINE
  5
2C8
100
AcDbEntity
  8
218
100
AcDbLine
 62
253
  6
CONTINUOUS
 10
152.1934801673
 20
121.4053052901
 11
152.8533051094
 21
121.7469396548
  0
LINE
  5
2C9
100
AcDbEntity
  8
218
100
AcDbLine
 62
253
  6
CONTINUOUS
 10
159.2600723469
 20
123.0113346662
 11
159.0471194813
 21
122.9010750923
  0
LINE
  5
2CA
100
AcDbEntity
  8
218
100
AcDbLine
 62
253
  6
CONTINUOUS
 10
159.6341590911
 20
122.9680817956
 11
159.2600723469
 21
122.7743927138
  0
LINE
  5
2CB
100
AcDbEntity
  8
218
100
AcDbLine
 62
253
  6
CONTINUOUS
 10
160.1764725616
 20
122.9609254302
 11
159.7147503472
 21
122.7218617554
  0
LINE
  5
2CC
100
AcDbEntity
  8
218
100
AcDbLine
 62
253
  6
CONTINUOUS
 10
158.8666683792
 20
122.2827544622
 11
158.4049447752
 21
122.0436900679
  0
LINE
  5
2CD
100
AcDbEntity
  8
218
100
AcDbLine
 62
253
  6
CONTINUOUS
 10
164.9182096722
 20
128.1238094604
 11
159.2041679139
 21
125.2896026238
  0
LINE
  5
2CE
100
AcDbEntity
  8
218
100
AcDbLine
 62
253
  6
CONTINUOUS
 10
165.5545088491
 20
127.0263557184
 11
159.8404670908
 21
124.1921488818
  0
LWPOLYLINE
  5
2CF
100
AcDbEntity
  8
218
100
AcDbPolyline
 62
253
  6
CONTINUOUS
 90
22
 70
0
 10
159.8404670908
 20
124.1921488818
 10
159.7682716074
 20
124.1597343536
 10
159.6972347736
 20
124.1343632956
 10
159.6273565893
 20
124.1160357078
 10
159.5582247221
 20
124.1047176117
 10
159.4902515044
 20
124.1004429858
 10
159.4246739341
 20
124.1033137664
 10
159.3615904499
 20
124.1134566842
 10
159.3009026131
 20
124.1307450086
 10
159.2435521063
 20
124.1549004839
 10
159.1895719745
 20
124.1860410952
 10
159.1389291727
 20
124.2240488575
 10
159.0924662486
 20
124.2682915597
 10
159.0502637549
 20
124.318855091
 10
159.0122411389
 20
124.3756535621
 10
158.9789992896
 20
124.4377970949
 10
158.9506041851
 20
124.5054168529
 10
158.9269898472
 20
124.5783816725
 10
158.9085592302
 20
124.655408185
 10
158.8954466524
 20
124.7360686006
 10
158.8875177955
 20
124.820790709
 10
158.8847726596
 20
124.9095745102
  0
LWPOLYLINE
  5
2D0
100
AcDbEntity
  8
RACCORDO
100
AcDbPolyline
 62
7
  6
CONTINUOUS
 90
9
 70
0
 10
131.6838917145
 20
91.5704936537
 10
132.0201038239
 20
91.5932362961
 10
132.4409526407
 20
91.5947189424
 10
132.8535427633
 20
91.5688412104
 10
133.2569629785
 20
91.5157931878
 10
133.6501682765
 20
91.4358742198
 10
134.0322470385
 20
91.3294671675
 10
134.4024373498
 20
91.1969940585
 10
134.7599408791
 20
91.0389565982
  0
LINE
  5
2D1
100
AcDbEntity
  8
217
100
AcDbLine
 62
253
  6
CONTINUOUS
 10
150.5601079955
 20
91.922699812
 11
150.0318408237
 21
92.0312020891
  0
LINE
  5
2D2
100
AcDbEntity
  8
217
100
AcDbLine
 62
253
  6
CONTINUOUS
 10
150.4706942001
 20
92.242266618
 11
150.0318408237
 21
92.3324039447
  0
LWPOLYLINE
  5
2D3
100
AcDbEntity
  8
217
100
AcDbPolyline
 62
7
  6
CONTINUOUS
 90
34
 70
0
 10
149.141780641
 20
91.7155930482
 10
149.133901518
 20
91.7172693771
 10
149.1256812689
 20
91.7191372832
 10
149.1171234077
 20
91.7211866885
 10
149.1082249772
 20
91.723397101
 10
149.0989985422
 20
91.7257669397
 10
149.0894719679
 20
91.7283136336
 10
149.0796517796
 20
91.7310240418
 10
149.0695458813
 20
91.7338856754
 10
149.0591850984
 20
91.7369161704
 10
149.0485785771
 20
91.7401007023
 10
149.0377366657
 20
91.7434249734
 10
149.0266928886
 20
91.7469066264
 10
149.0154590402
 20
91.7505292332
 10
149.0040480894
 20
91.7542767029
 10
148.9924962689
 20
91.758166357
 10
148.980818137
 20
91.7621802586
 10
148.9690294055
 20
91.7663005463
 10
148.9571690915
 20
91.7705437669
 10
148.9452546439
 20
91.7748906326
 10
148.9333046305
 20
91.7793215421
 10
148.921360953
 20
91.7838516355
 10
148.9094441033
 20
91.7884605216
 10
148.8975755361
 20
91.7931269463
 10
148.8857999575
 20
91.7978638328
 10
148.874141137
 20
91.8026500001
 10
148.8626231999
 20
91.8074628106
 10
148.8512928472
 20
91.8123121876
 10
148.8401875848
 20
91.8171700252
 10
148.829323233
 20
91.8220199596
 10
148.8187165474
 20
91.8268859711
 10
148.8083944891
 20
91.8317571785
 10
148.7983927926
 20
91.8365915481
 10
148.788744453
 20
91.8413628862
  0
LWPOLYLINE
  5
2D4
100
AcDbEntity
  8
217
100
AcDbPolyline
 62
253
  6
CONTINUOUS
 90
31
 70
0
 10
148.0780380732
 20
90.5246353608
 10
148.0874982226
 20
90.5201458673
 10
148.0974138092
 20
90.5159091652
 10
148.107757847
 20
90.5119367881
 10
148.1185021953
 20
90.5082395465
 10
148.1296176008
 20
90.5048275103
 10
148.1410737743
 20
90.5017099781
 10
148.1528395236
 20
90.4988954369
 10
148.164882831
 20
90.4963915446
 10
148.1771709035
 20
90.4942051175
 10
148.1896702911
 20
90.4923421056
 10
148.2023469729
 20
90.4908075777
 10
148.2151664388
 20
90.4896057094
 10
148.2280938103
 20
90.488739769
 10
148.2410938855
 20
90.488212113
 10
148.2541312288
 20
90.4880241757
 10
148.2671703002
 20
90.4881764609
 10
148.2801756651
 20
90.4886685468
 10
148.2931120395
 20
90.4894990965
 10
148.3059443786
 20
90.4906658695
 10
148.3186375857
 20
90.4921656843
 10
148.331156735
 20
90.4939944009
 10
148.3434675316
 20
90.4961469704
 10
148.3555367364
 20
90.4986175403
 10
148.3673318542
 20
90.5013994442
 10
148.3788232767
 20
90.5044858235
 10
148.3899770932
 20
90.5078676982
 10
148.4007562488
 20
90.5115334573
 10
148.4111300148
 20
90.5154717431
 10
148.4210733188
 20
90.5196720956
 10
148.4305600329
 20
90.5241226369
  0
LWPOLYLINE
  5
2D5
100
AcDbEntity
  8
217
100
AcDbPolyline
 62
253
  6
CONTINUOUS
 90
31
 70
0
 10
148.0780380732
 20
90.8646092949
 10
148.0874970436
 20
90.8601203325
 10
148.0974113199
 20
90.855884108
 10
148.1077539237
 20
90.8519121491
 10
148.1184966942
 20
90.8482152698
 10
148.1296104133
 20
90.8448035237
 10
148.1410648907
 20
90.8416861817
 10
148.1528289961
 20
90.8388717228
 10
148.1648706865
 20
90.8363678199
 10
148.1771571407
 20
90.8341813002
 10
148.1896549051
 20
90.8323181163
 10
148.2023299879
 20
90.8307833351
 10
148.2151478963
 20
90.8295811331
 10
148.2280737597
 20
90.8287147813
 10
148.2410723928
 20
90.8281866383
 10
148.2541083912
 20
90.8279981415
 10
148.267146259
 20
90.8281498008
 10
148.2801505383
 20
90.8286412005
 10
148.2930858727
 20
90.8294710031
 10
148.3059171783
 20
90.8306369629
 10
148.3186094196
 20
90.8321359008
 10
148.3311277486
 20
90.8339636883
 10
148.343437913
 20
90.836115289
 10
148.3555066438
 20
90.8385848523
 10
148.3673014146
 20
90.8413657089
 10
148.3787912771
 20
90.844450619
 10
148.3899437589
 20
90.8478309226
 10
148.4007255688
 20
90.8514963638
 10
148.4111067579
 20
90.8554363617
 10
148.42106047
 20
90.8596403092
 10
148.4305600329
 20
90.8640965711
  0
LWPOLYLINE
  5
2D6
100
AcDbEntity
  8
217
100
AcDbPolyline
 62
7
  6
CONTINUOUS
 90
24
 70
0
 10
143.8885406565
 20
90.5870293696
 10
143.9113940337
 20
90.5760047266
 10
143.943777476
 20
90.5617255805
 10
143.9768418322
 20
90.5486921923
 10
144.0105575027
 20
90.5369315867
 10
144.0449160785
 20
90.5264643044
 10
144.079877506
 20
90.5173205682
 10
144.115398788
 20
90.5095278382
 10
144.1514698501
 20
90.5031060588
 10
144.188052453
 20
90.4980817069
 10
144.2251002636
 20
90.494479567
 10
144.2625950789
 20
90.4923192893
 10
144.3004939839
 20
90.4916224534
 10
144.3387568317
 20
90.4924090242
 10
144.3773749375
 20
90.4946988794
 10
144.4163077716
 20
90.4985101095
 10
144.4555168271
 20
90.5038599089
 10
144.4950024691
 20
90.5107721694
 10
144.5347319003
 20
90.5192664377
 10
144.5746663405
 20
90.5293597025
 10
144.6148037303
 20
90.5410798041
 10
144.6551208238
 20
90.5544510087
 10
144.6955673519
 20
90.5694866385
 10
144.7231180515
 20
90.5806672486
  0
LINE
  5
2D7
100
AcDbEntity
  8
217
100
AcDbLine
 62
7
  6
CONTINUOUS
 10
143.8886329578
 20
90.5869832081
 11
131.6838917145
 21
96.6893538298
  0
LINE
  5
2D8
100
AcDbEntity
  8
217
100
AcDbLine
 62
7
  6
CONTINUOUS
 10
129.9838917145
 20
97.5393538298
 11
129.0547342437
 21
98.0039325652
  0
LINE
  5
2D9
100
AcDbEntity
  8
217
100
AcDbLine
 62
7
  6
CONTINUOUS
 10
143.8885414004
 20
90.5870289969
 11
143.8886326312
 21
90.5869833714
  0
LINE
  5
2DA
100
AcDbEntity
  8
217
100
AcDbLine
 62
253
  6
CONTINUOUS
 10
143.4951641669
 20
91.3475828609
 11
131.6838917145
 21
97.2532190871
  0
LINE
  5
2DB
100
AcDbEntity
  8
217
100
AcDbLine
 62
253
  6
CONTINUOUS
 10
129.9838917145
 20
98.1032190871
 11
128.6703180893
 21
98.7600058998
  0
LINE
  5
2DC
100
AcDbEntity
  8
217
100
AcDbLine
 62
7
  6
CONTINUOUS
 10
146.8180266898
 20
91.0519092506
 11
148.1430113697
 21
90.3894169107
  0
LINE
  5
2DD
100
AcDbEntity
  8
217
100
AcDbLine
 62
253
  6
CONTINUOUS
 10
146.7530533934
 20
91.1871277007
 11
148.0780380732
 21
90.5246353608
  0
LINE
  5
2DE
100
AcDbEntity
  8
217
100
AcDbLine
 62
253
  6
CONTINUOUS
 10
148.0780380732
 20
90.8646092949
 11
146.8556347029
 21
91.4758109801
  0
LINE
  5
2DF
100
AcDbEntity
  8
217
100
AcDbLine
 62
253
  6
CONTINUOUS
 10
148.1664264209
 20
91.0963034687
 11
147.155591793
 21
91.6017207827
  0
LWPOLYLINE
  5
2E0
100
AcDbEntity
  8
217
100
AcDbPolyline
 62
253
  6
CONTINUOUS
 90
16
 70
0
 10
146.7530533934
 20
91.1871277007
 10
146.7440966921
 20
91.1918454063
 10
146.7356379101
 20
91.1967928025
 10
146.7277009322
 20
91.2019568815
 10
146.7203068386
 20
91.2073251258
 10
146.7134784492
 20
91.2128822554
 10
146.7072390713
 20
91.2186098998
 10
146.7016068279
 20
91.2244911935
 10
146.6965956488
 20
91.2305113374
 10
146.6922190632
 20
91.2366541114
 10
146.6884889691
 20
91.2429029223
 10
146.6854156544
 20
91.2492406593
 10
146.6830075942
 20
91.2556498948
 10
146.6812713546
 20
91.2621131036
 10
146.6802116215
 20
91.2686127731
 10
146.6798300891
 20
91.2755092623
  0
LWPOLYLINE
  5
2E1
100
AcDbEntity
  8
217
100
AcDbPolyline
 62
7
  6
CONTINUOUS
 90
22
 70
0
 10
146.8180266898
 20
91.0519092506
 10
146.8063701239
 20
91.0581278349
 10
146.7950147412
 20
91.0649814409
 10
146.7840038957
 20
91.0724527049
 10
146.7733753336
 20
91.0805239728
 10
146.7631738451
 20
91.0891677283
 10
146.7534489213
 20
91.0983447082
 10
146.7442744027
 20
91.1079777322
 10
146.7356361337
 20
91.1180717483
 10
146.727465639
 20
91.1287215338
 10
146.7197648431
 20
91.1399705119
 10
146.7126313191
 20
91.1517230987
 10
146.7061443151
 20
91.1638707409
 10
146.7003406831
 20
91.1763464329
 10
146.6952300396
 20
91.1891284518
 10
146.6908310013
 20
91.2021714083
 10
146.68715941
 20
91.2154249377
 10
146.6842244245
 20
91.2288485264
 10
146.6820307746
 20
91.2424177113
 10
146.6805850026
 20
91.2561024721
 10
146.6798943181
 20
91.2698494342
 10
146.6798300891
 20
91.2755092623
  0
LWPOLYLINE
  5
2E2
100
AcDbEntity
  8
217
100
AcDbPolyline
 62
7
  6
CONTINUOUS
 90
6
 70
0
 10
133.9379676503
 20
123.7378790938
 10
133.9359911977
 20
123.7676663199
 10
133.9335890732
 20
123.8271426566
 10
133.932774892
 20
123.8859141966
 10
133.9335554686
 20
123.9439246997
 10
133.9359328751
 20
124.0011069356
  0
LWPOLYLINE
  5
2E3
100
AcDbEntity
  8
217
100
AcDbPolyline
 62
253
  6
CONTINUOUS
 90
31
 70
0
 10
135.0662418685
 20
139.1858337268
 10
135.0659481665
 20
139.1972319452
 10
135.065175238
 20
139.2088489262
 10
135.0639242937
 20
139.2206533103
 10
135.0621974486
 20
139.2326156403
 10
135.0599987564
 20
139.2447009436
 10
135.0573351827
 20
139.2568686122
 10
135.0542147642
 20
139.2690826045
 10
135.0506455252
 20
139.2813120852
 10
135.0466371333
 20
139.2935238679
 10
135.0422004527
 20
139.3056847043
 10
135.0373476866
 20
139.3177610098
 10
135.0320922714
 20
139.3297193058
 10
135.0264486957
 20
139.3415266532
 10
135.0204323715
 20
139.3531508337
 10
135.014059741
 20
139.3645600746
 10
135.0073482426
 20
139.3757231348
 10
135.0003162989
 20
139.3866093529
 10
134.9929832149
 20
139.3971888333
 10
134.9853691051
 20
139.4074325535
 10
134.9774948374
 20
139.4173124352
 10
134.9693820048
 20
139.426801382
 10
134.96105285
 20
139.4358733744
 10
134.9525302124
 20
139.4445035327
 10
134.9438374688
 20
139.4526681828
 10
134.934998449
 20
139.4603449405
 10
134.9260373953
 20
139.4675127491
 10
134.9169789055
 20
139.4741519345
 10
134.9078478277
 20
139.4802442895
 10
134.8986691913
 20
139.4857731187
 10
134.8894681648
 20
139.4907232656
  0
LWPOLYLINE
  5
2E4
100
AcDbEntity
  8
217
100
AcDbPolyline
 62
253
  6
CONTINUOUS
 90
19
 70
0
 10
134.7137199088
 20
138.8463725165
 10
134.71393878
 20
138.8357115243
 10
134.7145953357
 20
138.8252901077
 10
134.7156886734
 20
138.8151345304
 10
134.7172171232
 20
138.8052686763
 10
134.7191774418
 20
138.7957194796
 10
134.7215640249
 20
138.7865162435
 10
134.7243703576
 20
138.7776835169
 10
134.7275898747
 20
138.7692414761
 10
134.7312146439
 20
138.7612109616
 10
134.735235727
 20
138.7536118763
 10
134.7396431001
 20
138.7464632545
 10
134.744425728
 20
138.7397830269
 10
134.7495717009
 20
138.7335878258
 10
134.7550682298
 20
138.7278930456
 10
134.7609015731
 20
138.7227129093
 10
134.7670571619
 20
138.7180603179
 10
134.7735197171
 20
138.7139467854
 10
134.7786932073
 20
138.7111540653
  0
LWPOLYLINE
  5
2E5
100
AcDbEntity
  8
217
100
AcDbPolyline
 62
7
  6
CONTINUOUS
 90
34
 70
0
 10
136.6675226593
 20
139.9885557303
 10
136.6673226033
 20
139.9989575389
 10
136.6667223658
 20
140.009535907
 10
136.6657234078
 20
140.0202669251
 10
136.6643281723
 20
140.0311263782
 10
136.662539824
 20
140.0420896706
 10
136.6603622427
 20
140.0531318816
 10
136.6578004182
 20
140.0642280285
 10
136.6548602439
 20
140.0753530219
 10
136.6515482489
 20
140.0864815923
 10
136.6478719718
 20
140.0975885502
 10
136.6438398116
 20
140.1086487714
 10
136.6394608142
 20
140.1196371526
 10
136.6347449137
 20
140.1305288102
 10
136.6297028437
 20
140.1412990973
 10
136.624345983
 20
140.1519235886
 10
136.6186864588
 20
140.1623782131
 10
136.6127371209
 20
140.1726393032
 10
136.6065114491
 20
140.1826836096
 10
136.6000235166
 20
140.1924883645
 10
136.5932880277
 20
140.2020313616
 10
136.5863202885
 20
140.2112910018
 10
136.5791360314
 20
140.2202462843
 10
136.5717515158
 20
140.2288769162
 10
136.5641835614
 20
140.237163389
 10
136.5564492399
 20
140.2450868963
 10
136.548566034
 20
140.2526294724
 10
136.5405519345
 20
140.2597740961
 10
136.5324250042
 20
140.2665045389
 10
136.5242035931
 20
140.2728055274
 10
136.5159064964
 20
140.2786628747
 10
136.507552503
 20
140.2840633115
 10
136.4991603539
 20
140.2889945161
 10
136.4907489556
 20
140.2934452691
  0
LWPOLYLINE
  5
2E6
100
AcDbEntity
  8
217
100
AcDbPolyline
 62
7
  6
CONTINUOUS
 90
49
 70
0
 10
136.7114912765
 20
122.6133277349
 10
136.712114747
 20
122.5546428609
 10
136.7111563191
 20
122.4967162765
 10
136.7086177637
 20
122.4396132953
 10
136.7045030966
 20
122.3833821354
 10
136.6988165829
 20
122.32810174
 10
136.6915666361
 20
122.2738804782
 10
136.68277182
 20
122.2208108023
 10
136.6724425371
 20
122.168914476
 10
136.6605758247
 20
122.1181945944
 10
136.647173644
 20
122.0686716227
 10
136.632258724
 20
122.0204413663
 10
136.6158618264
 20
121.9736187084
 10
136.5980207401
 20
121.9282890074
 10
136.5787478652
 20
121.8844612969
 10
136.5580382278
 20
121.8421353601
 10
136.5358974589
 20
121.80133079
 10
136.5123650041
 20
121.7621264498
 10
136.4874880126
 20
121.7246102317
 10
136.4613151161
 20
121.6888429955
 10
136.4338644559
 20
121.6548373549
 10
136.4051405349
 20
121.6226064676
 10
136.3751640103
 20
121.5921757063
 10
136.3439806213
 20
121.5635926987
 10
136.3116327333
 20
121.5369045407
 10
136.2781591692
 20
121.5121407062
 10
136.2435995997
 20
121.4893267942
 10
136.2080020003
 20
121.4684981978
 10
136.1714237211
 20
121.4496820057
 10
136.1338960204
 20
121.4328872749
 10
136.095428171
 20
121.4181227034
 10
136.0560405486
 20
121.4053990135
 10
136.0158016526
 20
121.3947405656
 10
135.974794936
 20
121.3861727218
 10
135.933101415
 20
121.379704192
 10
135.8907418659
 20
121.3753296755
 10
135.847710629
 20
121.3730520478
 10
135.8040219303
 20
121.37287653
 10
135.7597611209
 20
121.3748071528
 10
135.7150302462
 20
121.3788421127
 10
135.669918819
 20
121.3849657385
 10
135.6244465061
 20
121.3931672098
 10
135.5786120142
 20
121.4034484923
 10
135.5324402541
 20
121.4158069793
 10
135.4860143425
 20
121.4302229389
 10
135.4394204994
 20
121.446671957
 10
135.3927249326
 20
121.4651280986
 10
135.3459729858
 20
121.485568297
 10
135.2992203505
 20
121.507964764
  0
LINE
  5
2E7
100
AcDbEntity
  8
217
100
AcDbLine
 62
253
  6
CONTINUOUS
 10
134.7137199088
 20
138.8463725165
 11
134.7137199088
 21
139.1863464506
  0
LINE
  5
2E8
100
AcDbEntity
  8
217
100
AcDbLine
 62
253
  6
CONTINUOUS
 10
135.0662418685
 20
138.8458597927
 11
135.0662418685
 21
139.1858337268
  0
LINE
  5
2E9
100
AcDbEntity
  8
217
100
AcDbLine
 62
253
  6
CONTINUOUS
 10
135.4249405169
 20
138.5677768893
 11
135.4249405169
 21
137.8789562664
  0
LINE
  5
2EA
100
AcDbEntity
  8
217
100
AcDbLine
 62
253
  6
CONTINUOUS
 10
135.7774624766
 20
138.6973562698
 11
135.7774624766
 21
137.889724148
  0
LINE
  5
2EB
100
AcDbEntity
  8
217
100
AcDbLine
 62
7
  6
CONTINUOUS
 10
136.6675226593
 20
138.3864050693
 11
136.6675226593
 21
139.9885557303
  0
LINE
  5
2EC
100
AcDbEntity
  8
217
100
AcDbLine
 62
253
  6
CONTINUOUS
 10
137.195789831
 20
140.2519945503
 11
137.195789831
 21
139.9044630336
  0
LINE
  5
2ED
100
AcDbEntity
  8
217
100
AcDbLine
 62
7
  6
CONTINUOUS
 10
137.267987688
 20
140.3398671825
 11
137.267987688
 21
139.9923356657
  0
LWPOLYLINE
  5
2EE
100
AcDbEntity
  8
217
100
AcDbPolyline
 62
253
  6
CONTINUOUS
 90
16
 70
0
 10
137.267987688
 20
140.3398671857
 10
137.2676864175
 20
140.3337323536
 10
137.2667066989
 20
140.3272294054
 10
137.2650500099
 20
140.3207608412
 10
137.2627208584
 20
140.3143442745
 10
137.2597255782
 20
140.3079971634
 10
137.2560723193
 20
140.3017367866
 10
137.2517710212
 20
140.2955801834
 10
137.2468333886
 20
140.2895441129
 10
137.2412728633
 20
140.2836450105
 10
137.2351045742
 20
140.2778989291
 10
137.2283453129
 20
140.2723215134
 10
137.2210134991
 20
140.2669279611
 10
137.2131291009
 20
140.2617329567
 10
137.2047135752
 20
140.2567506332
 10
137.195789831
 20
140.2519945503
  0
LWPOLYLINE
  5
2EF
100
AcDbEntity
  8
217
100
AcDbPolyline
 62
253
  6
CONTINUOUS
 90
16
 70
0
 10
137.267987688
 20
139.9923356645
 10
137.2676833715
 20
139.9861699205
 10
137.2667005722
 20
139.9796677809
 10
137.2650409669
 20
139.9732001137
 10
137.2627090474
 20
139.9667844609
 10
137.2597111716
 20
139.9604383402
 10
137.2560555966
 20
139.9541791757
 10
137.2517523951
 20
139.9480240935
 10
137.2468132685
 20
139.9419897281
 10
137.2412515554
 20
139.9360923427
 10
137.2350817352
 20
139.9303474114
 10
137.228321128
 20
139.9247711706
 10
137.2209902456
 20
139.9193802656
 10
137.2131102497
 20
139.9141896711
 10
137.2047023547
 20
139.909212815
 10
137.195789831
 20
139.9044630336
  0
LWPOLYLINE
  5
2F0
100
AcDbEntity
  8
217
100
AcDbPolyline
 62
253
  6
CONTINUOUS
 90
27
 70
0
 10
148.4305600329
 20
132.1637007104
 10
148.4256815331
 20
132.1517448088
 10
148.4203358915
 20
132.1400605347
 10
148.4145373014
 20
132.1286799863
 10
148.4083006162
 20
132.1176334728
 10
148.401643022
 20
132.106952511
 10
148.394584373
 20
132.0966693857
 10
148.3871447172
 20
132.0868131546
 10
148.3793436811
 20
132.0774096785
 10
148.3712023617
 20
132.0684844208
 10
148.3627428263
 20
132.0600616581
 10
148.3539882895
 20
132.0521645855
 10
148.3449628693
 20
132.0448149882
 10
148.3356913029
 20
132.038033
 10
148.3261988336
 20
132.0318370756
 10
148.3165113653
 20
132.0262441257
 10
148.3066553407
 20
132.0212694236
 10
148.2966576949
 20
132.0169265714
 10
148.2865457589
 20
132.0132274437
 10
148.2763471609
 20
132.0101821466
 10
148.2660897492
 20
132.0077989949
 10
148.2558015411
 20
132.0060844978
 10
148.2455106226
 20
132.0050433374
 10
148.2352451176
 20
132.0046783605
 10
148.2250331117
 20
132.004990561
 10
148.2149025266
 20
132.005979073
 10
148.2048810008
 20
132.0076411872
  0
LWPOLYLINE
  5
2F1
100
AcDbEntity
  8
218
100
AcDbPolyline
 62
253
  6
CONTINUOUS
 90
16
 70
0
 10
158.7870740069
 20
133.8037388855
 10
158.7980688263
 20
133.8177095918
 10
158.8096707338
 20
133.8319451072
 10
158.8216173042
 20
133.8460400721
 10
158.8339472835
 20
133.8599641824
 10
158.8466219256
 20
133.8737477423
 10
158.8592625674
 20
133.8870763047
 10
158.871844048
 20
133.8999121244
 10
158.8843915282
 20
133.9122929466
 10
158.8966018277
 20
133.9240175604
 10
158.9083822863
 20
133.935001522
 10
158.9198255642
 20
133.9453292751
 10
158.9309064618
 20
133.955052941
 10
158.9415849414
 20
133.9641318113
 10
158.9519010407
 20
133.9726065944
 10
158.9619496732
 20
133.9806515361
  0
LINE
  5
2F2
100
AcDbEntity
  8
218
100
AcDbLine
 62
253
  6
CONTINUOUS
 10
159.2600723469
 20
122.2507946207
 11
159.6341590911
 21
122.4444837025
  0
LINE
  5
2F3
100
AcDbEntity
  8
218
100
AcDbLine
 62
253
  6
CONTINUOUS
 10
159.0471194813
 20
121.8822880035
 11
159.2600723469
 21
121.9925475773
  0
LINE
  5
2F4
100
AcDbEntity
  8
218
100
AcDbLine
 62
253
  6
CONTINUOUS
 10
153.5825853086
 20
117.2354341478
 11
154.9022351927
 21
117.9187028771
  0
LINE
  5
2F5
100
AcDbEntity
  8
218
100
AcDbLine
 62
253
  6
CONTINUOUS
 10
159.9561260156
 20
119.9580124781
 11
159.0798880342
 21
119.5043269822
  0
LINE
  5
2F6
100
AcDbEntity
  8
218
100
AcDbLine
 62
253
  6
CONTINUOUS
 10
164.6900739905
 20
121.8730436525
 11
164.8885478092
 21
121.9758064803
  0
LINE
  5
2F7
100
AcDbEntity
  8
218
100
AcDbLine
 62
253
  6
CONTINUOUS
 10
164.3923632574
 20
121.6776598474
 11
164.5412186343
 21
121.754731975
  0
LWPOLYLINE
  5
2F8
100
AcDbEntity
  8
218
100
AcDbPolyline
 62
253
  6
CONTINUOUS
 90
70
 70
0
 10
159.2907090445
 20
120.6848886459
 10
159.2601666708
 20
120.6717101523
 10
159.2301973052
 20
120.6600192189
 10
159.2103987501
 20
120.653147799
 10
159.1907616454
 20
120.6471335615
 10
159.1713389066
 20
120.6420964237
 10
159.1569429642
 20
120.6390321966
 10
159.1427113039
 20
120.6366372322
 10
159.128656741
 20
120.6349547908
 10
159.1147876067
 20
120.6339924109
 10
159.1011075298
 20
120.6337392901
 10
159.0876058146
 20
120.6341469842
 10
159.0742687721
 20
120.6351592231
 10
159.061085065
 20
120.6367260744
 10
159.0437285384
 20
120.6396030218
 10
159.026610859
 20
120.6433172706
 10
159.0097173878
 20
120.6478060967
 10
158.9930413704
 20
120.6530292296
 10
158.9766075924
 20
120.6590362131
 10
158.9604487244
 20
120.6658990447
 10
158.9445988498
 20
120.6736832054
 10
158.9290977048
 20
120.68242811
 10
158.9139864385
 20
120.692166657
 10
158.899296287
 20
120.7029246381
 10
158.8850188326
 20
120.7146994182
 10
158.8711357448
 20
120.7274812558
 10
158.8576353612
 20
120.7412529907
 10
158.8445326928
 20
120.7559677876
 10
158.8318494189
 20
120.7715713931
 10
158.819603845
 20
120.7880187172
 10
158.8078007799
 20
120.8053013253
 10
158.7964416585
 20
120.8234199468
 10
158.7855349036
 20
120.8423707374
 10
158.7751168893
 20
120.8621315586
 10
158.7652309776
 20
120.8826756987
 10
158.7559185881
 20
120.9039767289
 10
158.74721337
 20
120.9260093534
 10
158.7391470304
 20
120.9487485599
 10
158.7303394951
 20
120.9769241374
 10
158.7224570492
 20
121.0059843089
 10
158.7154591392
 20
121.0358322083
 10
158.7093052119
 20
121.0663709695
 10
158.7039547137
 20
121.0975037267
 10
158.6983479455
 20
121.137136644
 10
158.6939338423
 20
121.1775325364
 10
158.6916558782
 20
121.2048814337
 10
158.6899195724
 20
121.2325666393
 10
158.6887362118
 20
121.2605914905
 10
158.6881145017
 20
121.2889513653
 10
158.6880528231
 20
121.3176098046
 10
158.6885469757
 20
121.3465223901
 10
158.6902975077
 20
121.3902690349
 10
158.6931328792
 20
121.4343281011
 10
158.6968974029
 20
121.47854994
 10
158.7014379639
 20
121.5228241721
 10
158.7066162619
 20
121.5670344163
 10
158.7123506825
 20
121.6110010135
 10
158.7185877937
 20
121.6545786091
 10
158.7253302062
 20
121.697822344
 10
158.7325853664
 20
121.7408029914
 10
158.7403240177
 20
121.7834533599
 10
158.7513343555
 20
121.8397019039
 10
158.7630835967
 20
121.8953668962
 10
158.7755194283
 20
121.9506327165
 10
158.7886135497
 20
122.0056822095
 10
158.8024337099
 20
122.0606920791
 10
158.81707167
 20
122.1158374938
 10
158.832613915
 20
122.1712534623
 10
158.8491258245
 20
122.2269143532
 10
158.8666675018
 20
122.282754375
  0
LWPOLYLINE
  5
2F9
100
AcDbEntity
  8
218
100
AcDbPolyline
 62
253
  6
CONTINUOUS
 90
32
 70
0
 10
165.6621681393
 20
117.7765607436
 10
165.6822592442
 20
117.782507429
 10
165.7015790439
 20
117.7863585352
 10
165.7201046631
 20
117.7881410753
 10
165.737799663
 20
117.7877571718
 10
165.7546383954
 20
117.7853743194
 10
165.7706155876
 20
117.7814149338
 10
165.7856553319
 20
117.7759537398
 10
165.7997689749
 20
117.7689863131
 10
165.8130915052
 20
117.7608066096
 10
165.8256066226
 20
117.7515117201
 10
165.8372624008
 20
117.7410823693
 10
165.8481425462
 20
117.7296376143
 10
165.8582462051
 20
117.7172535324
 10
165.8674949914
 20
117.7039506239
 10
165.875853226
 20
117.6897704084
 10
165.883301744
 20
117.6747903805
 10
165.8897698737
 20
117.6590505619
 10
165.8951400371
 20
117.6425440636
 10
165.8993875492
 20
117.6253878474
 10
165.9024372907
 20
117.6076060874
 10
165.9040835847
 20
117.5890709805
 10
165.9043170358
 20
117.5699435688
 10
165.9030227872
 20
117.5502517865
 10
165.8998065562
 20
117.5297117695
 10
165.8946650279
 20
117.5085188965
 10
165.8874276717
 20
117.4867602862
 10
165.8774028941
 20
117.4640588171
 10
165.8645961502
 20
117.4406919045
 10
165.8487688418
 20
117.4167929554
 10
165.828807518
 20
117.3918563736
 10
165.8071030288
 20
117.3688166429
  0
LWPOLYLINE
  5
2FA
100
AcDbEntity
  8
217
100
AcDbPolyline
 62
253
  6
CONTINUOUS
 90
5
 70
0
 10
150.4941029254
 20
92.2341824046
 10
150.492529226
 20
92.2349508196
 10
150.4855015261
 20
92.2379570251
 10
150.4782171445
 20
92.2403976481
 10
150.4706942001
 20
92.242266618
  0
LINE
  5
2FB
100
AcDbEntity
  8
217
100
AcDbLine
 62
7
  6
CONTINUOUS
 10
148.7892586813
 20
91.841105772
 11
148.3039556531
 21
92.0837572862
  0
LINE
  5
2FC
100
AcDbEntity
  8
217
100
AcDbLine
 62
253
  6
CONTINUOUS
 10
150.0318408237
 20
92.4616933062
 11
150.4706942001
 21
92.242266618
  0
LINE
  5
2FD
100
AcDbEntity
  8
217
100
AcDbLine
 62
7
  6
CONTINUOUS
 10
150.0318408237
 20
92.4653134557
 11
150.4941092513
 21
92.2341792419
  0
LWPOLYLINE
  5
2FE
100
AcDbEntity
  8
217
100
AcDbPolyline
 62
7
  6
CONTINUOUS
 90
27
 70
0
 10
138.8919290701
 20
137.8725862516
 10
138.892205067
 20
137.8618223685
 10
138.8929962511
 20
137.8499625185
 10
138.8943080215
 20
137.8377497019
 10
138.8961607793
 20
137.8252438968
 10
138.898483609
 20
137.8124669491
 10
138.9012781453
 20
137.7994619928
 10
138.9045558434
 20
137.7862750142
 10
138.9082635931
 20
137.7729175016
 10
138.9124016082
 20
137.759421938
 10
138.916975812
 20
137.7458244871
 10
138.9219453042
 20
137.7321332992
 10
138.9273097721
 20
137.7183741281
 10
138.9330718168
 20
137.7045761238
 10
138.9391983709
 20
137.6907473437
 10
138.945688916
 20
137.6769090237
 10
138.9525439617
 20
137.6630854897
 10
138.9597349733
 20
137.6492865296
 10
138.9672612715
 20
137.6355302434
 10
138.9751219109
 20
137.6218376161
 10
138.9832903504
 20
137.6082212514
 10
138.9917658786
 20
137.5946965939
 10
139.0005461498
 20
137.5812826145
 10
139.0096038347
 20
137.5679964635
 10
139.0189286764
 20
137.5548542215
 10
139.0285262737
 20
137.5418705714
 10
139.0383932731
 20
137.5290598238
  0
LWPOLYLINE
  5
2FF
100
AcDbEntity
  8
217
100
AcDbPolyline
 62
253
  6
CONTINUOUS
 90
31
 70
0
 10
137.195789831
 20
140.2519945503
 10
137.1955995829
 20
140.2634752126
 10
137.1949223184
 20
140.2751653675
 10
137.1937598916
 20
140.2870329615
 10
137.1921154849
 20
140.2990454656
 10
137.1899936054
 20
140.3111699305
 10
137.1874000765
 20
140.3233730757
 10
137.184342013
 20
140.3356214314
 10
137.1808277998
 20
140.3478814196
 10
137.1768670781
 20
140.3601194115
 10
137.1724707115
 20
140.3723018479
 10
137.1676507563
 20
140.384395327
 10
137.1624204332
 20
140.3963666843
 10
137.1567940794
 20
140.4081831088
 10
137.1507871308
 20
140.4198121867
 10
137.144416086
 20
140.4312219889
 10
137.1376984492
 20
140.4423811883
 10
137.1306526198
 20
140.4532592402
 10
137.1232978572
 20
140.4638264136
 10
137.1156542248
 20
140.4740538615
 10
137.1077427718
 20
140.4839133993
 10
137.0995854375
 20
140.4933777111
 10
137.0912047713
 20
140.5024207104
 10
137.0826236116
 20
140.5110178273
 10
137.073865252
 20
140.5191457507
 10
137.0649517419
 20
140.5267838099
 10
137.0559094214
 20
140.5339092288
 10
137.0467688527
 20
140.5404985006
 10
137.0375571798
 20
140.5465333874
 10
137.028297816
 20
140.551999868
 10
137.0190161274
 20
140.5568840891
  0
LINE
  5
300
100
AcDbEntity
  8
217
100
AcDbLine
 62
7
  6
CONTINUOUS
 10
138.8919466637
 20
137.8721296548
 11
138.8919466637
 21
136.6319406222
  0
LINE
  5
301
100
AcDbEntity
  8
217
100
AcDbLine
 62
253
  6
CONTINUOUS
 10
139.0383932731
 20
137.5290598238
 11
139.0383932731
 21
136.448476513
  0
LWPOLYLINE
  5
302
100
AcDbEntity
  8
RACCORDO
100
AcDbPolyline
 62
253
  6
CONTINUOUS
 90
73
 70
0
 10
140.0773248665
 20
79.3048110512
 10
140.0752003542
 20
79.1083350292
 10
140.0684933466
 20
78.9020892153
 10
140.0566925597
 20
78.6859992292
 10
140.0393310033
 20
78.4606808611
 10
140.0158444655
 20
78.2254754778
 10
139.9854154044
 20
77.9784000329
 10
139.9472944795
 20
77.7192131031
 10
139.9007902114
 20
77.4482710101
 10
139.8449145829
 20
77.1645056148
 10
139.7788717732
 20
76.8683078393
 10
139.7017857482
 20
76.5598036048
 10
139.6122983345
 20
76.2376307369
 10
139.5092887491
 20
75.9018987787
 10
139.3918830567
 20
75.5536687847
 10
139.2589140629
 20
75.193207606
 10
139.107758098
 20
74.8175700554
 10
138.9388860193
 20
74.4319322318
 10
138.7568556516
 20
74.0486623535
 10
138.5633642497
 20
73.6715476135
 10
138.357405054
 20
73.2988270022
 10
138.1408356873
 20
72.9340669191
 10
137.9148702077
 20
72.5791332822
 10
137.6795227307
 20
72.2338778394
 10
137.4350768503
 20
71.8986972247
 10
137.1819447503
 20
71.5742081585
 10
136.9209305283
 20
71.2614912669
 10
136.6529219658
 20
70.9616068745
 10
136.3787519071
 20
70.6754395384
 10
136.0989737162
 20
70.4035206303
 10
135.8140850568
 20
70.1463262267
 10
135.524682122
 20
69.9044197503
 10
135.2315985191
 20
69.6785228201
 10
134.9356982417
 20
69.4693023746
 10
134.6377936363
 20
69.2773150307
 10
134.3385646051
 20
69.1029813235
 10
134.0386866655
 20
68.9466904923
 10
133.7388913517
 20
68.8088281542
 10
133.4399496173
 20
68.6897531938
 10
133.1425954221
 20
68.5897619502
 10
132.8475460641
 20
68.509103788
 10
132.5555712016
 20
68.4479973329
 10
132.2674728094
 20
68.4066091642
 10
131.9840434517
 20
68.3850375969
 10
131.7059167027
 20
68.3833150679
 10
131.4336444465
 20
68.401452255
 10
131.1678226774
 20
68.4394438118
 10
130.9092252334
 20
68.4972143585
 10
130.6586445469
 20
68.5745941777
 10
130.4168326643
 20
68.6713229284
 10
130.1842559339
 20
68.7871849881
 10
129.9612626811
 20
68.9220332584
 10
129.7475283756
 20
69.076294908
 10
129.5446274308
 20
69.2490763962
 10
129.3553441877
 20
69.4375802491
 10
129.1789453868
 20
69.6417645515
 10
129.0163852824
 20
69.8597094315
 10
128.8715293284
 20
70.0838762196
 10
128.7447676497
 20
70.3093477504
 10
128.6333376722
 20
70.5365658227
 10
128.5355406533
 20
70.7651965153
 10
128.4504034133
 20
70.9938425718
 10
128.3770379053
 20
71.220991775
 10
128.3141770744
 20
71.4466362494
 10
128.2609939399
 20
71.6698073006
 10
128.2167206645
 20
71.8894227377
 10
128.1804131941
 20
72.1056304781
 10
128.151416785
 20
72.3174480764
 10
128.1290238632
 20
72.5244037624
 10
128.1124599749
 20
72.727672427
 10
128.1011933089
 20
72.9273712724
 10
128.0947850737
 20
73.1224588332
 10
128.0927537046
 20
73.3125254702
  0
LWPOLYLINE
  5
303
100
AcDbEntity
  8
RACCORDO
100
AcDbPolyline
 62
253
  6
CONTINUOUS
 90
73
 70
0
 10
140.1118607522
 20
79.3236412143
 10
140.1097234241
 20
79.1259816096
 10
140.1029760059
 20
78.9184933542
 10
140.0911041335
 20
78.7011016195
 10
140.0736380106
 20
78.4744259022
 10
140.0500100193
 20
78.2378036044
 10
140.0193976719
 20
77.9892397433
 10
139.9810471023
 20
77.7284914466
 10
139.9342626772
 20
77.4559171772
 10
139.8780504413
 20
77.1704423552
 10
139.8116097836
 20
76.8724602555
 10
139.7340593888
 20
76.5620975599
 10
139.6440329035
 20
76.237983887
 10
139.5404028009
 20
75.9002294361
 10
139.4222898732
 20
75.5499016572
 10
139.288519872
 20
75.1872690202
 10
139.1364533054
 20
74.8093686041
 10
138.9665638845
 20
74.421407681
 10
138.7834369189
 20
74.0358289625
 10
138.5887799019
 20
73.6564424491
 10
138.381579995
 20
73.2814765294
 10
138.1637059986
 20
72.9145190937
 10
137.9363792796
 20
72.5574473031
 10
137.6996140433
 20
72.2101120099
 10
137.4536955939
 20
71.8729122366
 10
137.1990385984
 20
71.5464684187
 10
136.936451998
 20
71.2318676923
 10
136.6668289233
 20
70.9301767688
 10
136.3910072365
 20
70.6422855337
 10
136.1095436344
 20
70.3687285602
 10
135.8229387777
 20
70.109984793
 10
135.5317924507
 20
69.8666210492
 10
135.2369432829
 20
69.6393632947
 10
134.939260473
 20
69.4288824854
 10
134.6395612614
 20
69.2357385913
 10
134.3385296458
 20
69.060354681
 10
134.036845213
 20
68.9031223385
 10
133.7352439039
 20
68.7644295041
 10
133.4345013165
 20
68.6446372242
 10
133.1353558322
 20
68.5440436231
 10
132.8385290701
 20
68.4628995674
 10
132.5447953251
 20
68.4014249999
 10
132.2549614024
 20
68.3597875037
 10
131.96982464
 20
68.3380859866
 10
131.6900224295
 20
68.3363530804
 10
131.4161099811
 20
68.3545995265
 10
131.1486868805
 20
68.3928199455
 10
130.8885316262
 20
68.4509385044
 10
130.6364414218
 20
68.5287844646
 10
130.3931728422
 20
68.626095918
 10
130.1591950469
 20
68.7426559421
 10
129.9348584624
 20
68.8783165507
 10
129.7198366021
 20
69.0335074866
 10
129.5157133652
 20
69.2073298257
 10
129.3252898715
 20
69.3969692383
 10
129.1478284542
 20
69.6023835514
 10
128.9842891062
 20
69.8216413332
 10
128.838560543
 20
70.0471585142
 10
128.7110352238
 20
70.2739883163
 10
128.5989339485
 20
70.5025751907
 10
128.5005477654
 20
70.732583191
 10
128.4148976419
 20
70.9626066383
 10
128.3410901717
 20
71.191124211
 10
128.2778506622
 20
71.4181279889
 10
128.2243471529
 20
71.6426434409
 10
128.179807179
 20
71.8635818581
 10
128.1432809879
 20
72.0810920553
 10
128.114109882
 20
72.2941856744
 10
128.0915820346
 20
72.5023880974
 10
128.0749183446
 20
72.7068812827
 10
128.0635838034
 20
72.9077831351
 10
128.0571369699
 20
73.104045919
 10
128.0550933784
 20
73.2952575274
  0
LWPOLYLINE
  5
304
100
AcDbEntity
  8
217
100
AcDbPolyline
 62
7
  6
CONTINUOUS
 90
85
 70
0
 10
139.9600058777
 20
121.5595002484
 10
139.9611508714
 20
121.6513113105
 10
139.9610224619
 20
121.743107688
 10
139.9596203172
 20
121.8348892213
 10
139.956944256
 20
121.9264323182
 10
139.9529937302
 20
122.0179602215
 10
139.947768187
 20
122.1101431793
 10
139.9413079329
 20
122.2029840337
 10
139.9335726722
 20
122.2964799403
 10
139.9244415673
 20
122.3912929067
 10
139.9139307531
 20
122.4875524528
 10
139.9020247339
 20
122.5851293497
 10
139.8885556163
 20
122.684297664
 10
139.8734841285
 20
122.7853101683
 10
139.8568504206
 20
122.8879144913
 10
139.8386055723
 20
122.9916269087
 10
139.81872426
 20
123.0964699847
 10
139.7972321046
 20
123.2024212848
 10
139.7741560676
 20
123.3089293371
 10
139.7494775085
 20
123.4159659257
 10
139.7232147975
 20
123.5235591324
 10
139.6954499186
 20
123.6312417024
 10
139.6661509356
 20
123.7390445412
 10
139.6353491063
 20
123.8469364204
 10
139.6032207566
 20
123.9543566765
 10
139.5697294055
 20
124.0613338979
 10
139.5349104116
 20
124.1678389689
 10
139.499047393
 20
124.2732244547
 10
139.4621299796
 20
124.3774366507
 10
139.4241669787
 20
124.4805285321
 10
139.3854704048
 20
124.5820125132
 10
139.3461565154
 20
124.6815936168
 10
139.3061072512
 20
124.7795659827
 10
139.2652831919
 20
124.8763257192
 10
139.2237714127
 20
124.9717473727
 10
139.1814835085
 20
125.0659557794
 10
139.1381172615
 20
125.1597226779
 10
139.0935816423
 20
125.2532931567
 10
139.0479669689
 20
125.3464217961
 10
139.0012433055
 20
125.4391446931
 10
138.9533547331
 20
125.5315715627
 10
138.9043564738
 20
125.6235923661
 10
138.8543852372
 20
125.7149135391
 10
138.8034271759
 20
125.8055279123
 10
138.7514952919
 20
125.8954422638
 10
138.6987664357
 20
125.9843838908
 10
138.6453049508
 20
126.0722451817
 10
138.5910455628
 20
126.1591333185
 10
138.5359706609
 20
126.2450977728
 10
138.4802494862
 20
126.3299218588
 10
138.4237119433
 20
126.4138218688
 10
138.3658315746
 20
126.4974968138
 10
138.3065408283
 20
126.5811031494
 10
138.245906755
 20
126.6644841889
 10
138.1836049564
 20
126.7478693013
 10
138.119433997
 20
126.8315283975
 10
138.0535948799
 20
126.9151913674
 10
137.9863667706
 20
126.9982775048
 10
137.9177033799
 20
127.080795007
 10
137.8476503279
 20
127.1627353697
 10
137.7766244372
 20
127.2434927398
 10
137.7046318594
 20
127.3230148019
 10
137.6316656409
 20
127.4013535043
 10
137.5581228139
 20
127.4780593293
 10
137.4840157045
 20
127.5530817491
 10
137.4093311791
 20
127.6264709224
 10
137.3344280315
 20
127.697928339
 10
137.2592748716
 20
127.7674450036
 10
137.1839023665
 20
127.8350295814
 10
137.1087623995
 20
127.9004100547
 10
137.0338676298
 20
127.9635440943
 10
136.9592047977
 20
128.0244737556
 10
136.8851869423
 20
128.0830536137
 10
136.8120132292
 20
128.1391254775
 10
136.7394840439
 20
128.1928473336
 10
136.6674143188
 20
128.2445480514
 10
136.595917752
 20
128.2941903473
 10
136.5248803636
 20
128.3418113766
 10
136.4537756278
 20
128.3878516947
 10
136.3826297317
 20
128.432352374
 10
136.3114163227
 20
128.4752722668
 10
136.2395300981
 20
128.5169286129
 10
136.1667692627
 20
128.5574271464
 10
136.0933355279
 20
128.5966620951
 10
136.0192288722
 20
128.6346334492
  0
LWPOLYLINE
  5
305
100
AcDbEntity
  8
218
100
AcDbPolyline
 62
7
  6
CONTINUOUS
 90
9
 70
0
 10
145.8670146208
 20
136.3897393408
 10
145.8654316268
 20
136.3819222632
 10
145.8620092664
 20
136.371650656
 10
145.8562455278
 20
136.3590943069
 10
145.8479267723
 20
136.3448528875
 10
145.8372481581
 20
136.3297936339
 10
145.8244336038
 20
136.3144242608
 10
145.80959032
 20
136.2989737577
 10
145.803153383
 20
136.2928574143
  0
LWPOLYLINE
  5
306
100
AcDbEntity
  8
218
100
AcDbPolyline
 62
253
  6
CONTINUOUS
 90
87
 70
0
 10
162.5561100713
 20
120.6661578023
 10
162.5033365896
 20
120.637188748
 10
162.4512416277
 20
120.6053490833
 10
162.3997949238
 20
120.5707246064
 10
162.3489662161
 20
120.5334011153
 10
162.2987252428
 20
120.493464408
 10
162.249061604
 20
120.4510071897
 10
162.2000443472
 20
120.4061497943
 10
162.1517623818
 20
120.3590194626
 10
162.1043046173
 20
120.3097434357
 10
162.0577599631
 20
120.2584489544
 10
162.0122045604
 20
120.20525335
 10
161.9676634779
 20
120.1502343143
 10
161.924149016
 20
120.0934596292
 10
161.881673475
 20
120.0349970768
 10
161.8402491553
 20
119.9749144392
 10
161.7998886752
 20
119.913280394
 10
161.7606059239
 20
119.8501672022
 10
161.7224151084
 20
119.7856480204
 10
161.6853304357
 20
119.7197960051
 10
161.6493661129
 20
119.6526843131
 10
161.6060164397
 20
119.5671551732
 10
161.5645188276
 20
119.4800376569
 10
161.524952593
 20
119.3915973254
 10
161.4873970518
 20
119.3020997399
 10
161.4519208049
 20
119.2117941982
 10
161.4185495925
 20
119.1208649436
 10
161.3872984393
 20
119.0294799554
 10
161.3581823704
 20
118.9378072135
 10
161.3312107118
 20
118.8460102453
 10
161.3063699951
 20
118.7542347707
 10
161.283641053
 20
118.6626220574
 10
161.2630047183
 20
118.5713133732
 10
161.2444395191
 20
118.4804326087
 10
161.2279147641
 20
118.3900341452
 10
161.2133974574
 20
118.3001549869
 10
161.2008546031
 20
118.2108321378
 10
161.1902596578
 20
118.1221114193
 10
161.1816118887
 20
118.0340739212
 10
161.1749170155
 20
117.9468095507
 10
161.1701807581
 20
117.8604082148
 10
161.1674081436
 20
117.7749496965
 10
161.1666014299
 20
117.6904732833
 10
161.167762182
 20
117.6070081383
 10
161.1708919652
 20
117.5245834248
 10
161.1759902097
 20
117.4432425025
 10
161.183047806
 20
117.3630855155
 10
161.1920535095
 20
117.2842268044
 10
161.2029960756
 20
117.2067807098
 10
161.2158702498
 20
117.13085347
 10
161.2306947367
 20
117.0565189146
 10
161.2474942313
 20
116.983842771
 10
161.2662934282
 20
116.9128907664
 10
161.2871168786
 20
116.8437392009
 10
161.3099885595
 20
116.7765066656
 10
161.3349323041
 20
116.7113223243
 10
161.3619719459
 20
116.6483153406
 10
161.3911253194
 20
116.5876183718
 10
161.4223862637
 20
116.5293780478
 10
161.4557426189
 20
116.4737444922
 10
161.4911822253
 20
116.4208678283
 10
161.528683895
 20
116.3709030944
 10
161.5681903275
 20
116.3240249874
 10
161.609635194
 20
116.2804131188
 10
161.6529521659
 20
116.2402471005
 10
161.6889116052
 20
116.2107122073
 10
161.7260078934
 20
116.1835668324
 10
161.7642221825
 20
116.1588801988
 10
161.8035356243
 20
116.1367215292
 10
161.8439293707
 20
116.1171600464
 10
161.8853835495
 20
116.100260447
 10
161.9278741926
 20
116.0860693223
 10
161.971376308
 20
116.0746287374
 10
162.0158649035
 20
116.0659807572
 10
162.061314987
 20
116.0601674467
 10
162.0999034315
 20
116.0575217433
 10
162.1391093698
 20
116.0569161231
 10
162.1788999516
 20
116.0583929371
 10
162.2192392333
 20
116.0619890413
 10
162.2600788992
 20
116.0677193139
 10
162.3013675407
 20
116.0755931382
 10
162.3430512801
 20
116.0856190211
 10
162.3850663639
 20
116.0978019638
 10
162.4273465695
 20
116.112146091
 10
162.4698625034
 20
116.1286806144
 10
162.5127320871
 20
116.1475350939
 10
162.5561100713
 20
116.1688641763
  0
LWPOLYLINE
  5
307
100
AcDbEntity
  8
218
100
AcDbPolyline
 62
253
  6
CONTINUOUS
 90
76
 70
0
 10
159.2907090445
 20
119.0866568942
 10
159.3346918954
 20
119.1104815268
 10
159.3781326046
 20
119.1365553542
 10
159.421048117
 20
119.164811275
 10
159.4634553776
 20
119.1951821878
 10
159.5053713311
 20
119.2276009911
 10
159.5468016762
 20
119.2619959952
 10
159.5877071259
 20
119.2982771562
 10
159.6280371471
 20
119.3363498421
 10
159.6677412067
 20
119.3761194207
 10
159.7067687715
 20
119.4174912599
 10
159.7387428761
 20
119.4531349594
 10
159.7702090046
 20
119.4898398013
 10
159.8011640612
 20
119.5276199637
 10
159.8315930084
 20
119.5664906909
 10
159.8614330414
 20
119.6064714917
 10
159.8906094134
 20
119.6475829414
 10
159.9190791151
 20
119.6898182678
 10
159.9469260859
 20
119.7330613108
 10
159.9742660029
 20
119.7771685629
 10
160.014495185
 20
119.8447310466
 10
160.0342431729
 20
119.8791508751
 10
160.0537142173
 20
119.914029351
 10
160.0728809314
 20
119.9493903992
 10
160.0917259041
 20
119.9852271115
 10
160.110245092
 20
120.0215179657
 10
160.1284779468
 20
120.0582138187
 10
160.1641886831
 20
120.1326301681
 10
160.1816164819
 20
120.1703095424
 10
160.1986385014
 20
120.2083925335
 10
160.2151281517
 20
120.2469759113
 10
160.2309505202
 20
120.2860795105
 10
160.2460161093
 20
120.3256795729
 10
160.2604254051
 20
120.365654904
 10
160.2743233155
 20
120.4058672597
 10
160.2878424538
 20
120.4462076354
 10
160.3140148481
 20
120.5270610915
 10
160.3387439316
 20
120.6083799453
 10
160.3504268864
 20
120.6493041038
 10
160.3615564476
 20
120.6903396073
 10
160.3720656332
 20
120.7313923857
 10
160.3819580081
 20
120.7723766436
 10
160.391259698
 20
120.8132260659
 10
160.4000165239
 20
120.8539439855
 10
160.4160270602
 20
120.9350408499
 10
160.4300380602
 20
121.0156959694
 10
160.4420245793
 20
121.0959042556
 10
160.4519541355
 20
121.1756351137
 10
160.4598086282
 20
121.2548340372
 10
160.4656350194
 20
121.3333763755
 10
160.4694965366
 20
121.4111199425
 10
160.4714564077
 20
121.487922552
 10
160.4715707064
 20
121.5636441518
 10
160.4698668926
 20
121.6381532263
 10
160.4663963079
 20
121.7113189504
 10
160.4613344372
 20
121.7830047248
 10
160.4548827492
 20
121.8531227501
 10
160.4472225042
 20
121.9217862022
 10
160.4385107914
 20
121.9890795278
 10
160.4288282224
 20
122.0547712841
 10
160.418239101
 20
122.1186632734
 10
160.4068189753
 20
122.1810061675
 10
160.3946627513
 20
122.2421167395
 10
160.3819315209
 20
122.3021272972
 10
160.3687453419
 20
122.3611148799
 10
160.3549939493
 20
122.4191199179
 10
160.3405276771
 20
122.4761719049
 10
160.3252695792
 20
122.5322931982
 10
160.3091968419
 20
122.5875377184
 10
160.2924304615
 20
122.6420927762
 10
160.2750804915
 20
122.6961685002
 10
160.2570694029
 20
122.7499329003
 10
160.2382824389
 20
122.803475313
 10
160.2186435127
 20
122.8566124992
 10
160.1980772713
 20
122.9091255973
 10
160.1764726262
 20
122.9609258307
  0
LINE
  5
308
100
AcDbEntity
  8
218
100
AcDbLine
 62
253
  6
CONTINUOUS
 10
164.5412186343
 20
121.4041979813
 11
164.3923632574
 21
121.3271258538
  0
LINE
  5
309
100
AcDbEntity
  8
218
100
AcDbLine
 62
253
  6
CONTINUOUS
 10
164.8885478092
 20
121.5427937784
 11
164.6900739905
 21
121.4400309506
  0
LINE
  5
30A
100
AcDbEntity
  8
218
100
AcDbLine
 62
253
  6
CONTINUOUS
 10
164.9877847237
 20
121.2024016408
 11
164.6404555385
 21
121.0225666907
  0
LINE
  5
30B
100
AcDbEntity
  8
218
100
AcDbLine
 62
253
  6
CONTINUOUS
 10
164.4916001615
 20
120.4093835792
 11
164.3923632574
 21
120.358002168
  0
LINE
  5
30C
100
AcDbEntity
  8
218
100
AcDbLine
 62
253
  6
CONTINUOUS
 10
164.8885478092
 20
119.9344608267
 11
164.6900739905
 21
119.8316979989
  0
LINE
  5
30D
100
AcDbEntity
  8
218
100
AcDbLine
 62
253
  6
CONTINUOUS
 10
164.5908370657
 20
119.4091628029
 11
164.2931263532
 21
119.2550185692
  0
LINE
  5
30E
100
AcDbEntity
  8
218
100
AcDbLine
 62
253
  6
CONTINUOUS
 10
164.4916001615
 20
119.1103454735
 11
164.7893108947
 21
119.264489718
  0
LINE
  5
30F
100
AcDbEntity
  8
218
100
AcDbLine
 62
253
  6
CONTINUOUS
 10
164.7893108947
 20
118.8314771193
 11
164.4916001615
 21
118.6773328749
  0
LINE
  5
310
100
AcDbEntity
  8
218
100
AcDbLine
 62
253
  6
CONTINUOUS
 10
164.4916001615
 20
118.4298969567
 11
164.7893108947
 21
118.5840412012
  0
LWPOLYLINE
  5
311
100
AcDbEntity
  8
217
100
AcDbPolyline
 62
253
  6
CONTINUOUS
 90
31
 70
0
 10
148.4305600329
 20
90.8640965711
 10
148.4256760157
 20
90.8717176682
 10
148.4203254123
 20
90.8795607239
 10
148.414522834
 20
90.8876043205
 10
148.4082841263
 20
90.8958264925
 10
148.401626326
 20
90.904204787
 10
148.394567614
 20
90.9127163246
 10
148.3871272663
 20
90.921337862
 10
148.3793256008
 20
90.9300458556
 10
148.3711839224
 20
90.9388165258
 10
148.3627244641
 20
90.9476259216
 10
148.353970327
 20
90.9564499865
 10
148.3449454169
 20
90.9652646238
 10
148.3356743788
 20
90.9740457624
 10
148.3261825301
 20
90.9827694231
 10
148.316495791
 20
90.9914117833
 10
148.3066406139
 20
90.9999492425
 10
148.2966439112
 20
91.0083584867
 10
148.286532982
 20
91.0166165521
 10
148.2763354369
 20
91.0247008875
 10
148.2660791234
 20
91.0325894163
 10
148.2557920493
 20
91.0402605967
 10
148.2455023064
 20
91.0476934803
 10
148.2352379939
 20
91.0548677693
 10
148.2250271415
 20
91.0617638723
 10
148.2148976329
 20
91.0683629575
 10
148.2048771296
 20
91.0746470043
 10
148.1949929956
 20
91.080598852
 10
148.1852722223
 20
91.0862022476
 10
148.1757413551
 20
91.0914418893
 10
148.1664264209
 20
91.0963034687
  0
LWPOLYLINE
  5
312
100
AcDbEntity
  8
217
100
AcDbPolyline
 62
253
  6
CONTINUOUS
 90
13
 70
0
 10
135.8158582036
 20
118.5736443274
 10
135.7521127189
 20
118.801948729
 10
135.6920726853
 20
119.0334626116
 10
135.635754001
 20
119.2681235177
 10
135.5831641516
 20
119.5059086772
 10
135.5343287773
 20
119.7467165505
 10
135.4892853894
 20
119.9903619779
 10
135.4480518025
 20
120.2367305382
 10
135.4106293532
 20
120.4858013977
 10
135.3770259971
 20
120.7375261204
 10
135.3472518009
 20
120.9918443559
 10
135.3213148493
 20
121.2486807924
 10
135.2992203492
 20
121.5079647647
  0
LWPOLYLINE
  5
313
100
AcDbEntity
  8
217
100
AcDbPolyline
 62
253
  6
CONTINUOUS
 90
43
 70
0
 10
144.1957476408
 20
91.3621826751
 10
144.197237269
 20
91.3324539357
 10
144.199606816
 20
91.3033010906
 10
144.2028562817
 20
91.2747241398
 10
144.2069918735
 20
91.2466876056
 10
144.212007384
 20
91.2192269658
 10
144.2178841912
 20
91.1924486531
 10
144.2246255066
 20
91.1663565452
 10
144.2322281188
 20
91.1409467646
 10
144.2406637714
 20
91.1163141114
 10
144.2499354944
 20
91.0924617686
 10
144.2600402579
 20
91.0693865532
 10
144.270940716
 20
91.0471737167
 10
144.2826398158
 20
91.0258263911
 10
144.2951346102
 20
91.0053414444
 10
144.3083789114
 20
90.9857947308
 10
144.3223755537
 20
90.9671896688
 10
144.3371217027
 20
90.9495228399
 10
144.3525626678
 20
90.932859844
 10
144.368700983
 20
90.9172044616
 10
144.3855341141
 20
90.9025529121
 10
144.4029997685
 20
90.8889594536
 10
144.4211002936
 20
90.8764279962
 10
144.4398333418
 20
90.8649546299
 10
144.4591295783
 20
90.854581882
 10
144.478991168
 20
90.8453138157
 10
144.499415946
 20
90.8371463677
 10
144.5203280816
 20
90.8301098765
 10
144.5417293042
 20
90.8242085753
 10
144.5636178846
 20
90.8194382308
 10
144.5859128048
 20
90.8158164813
 10
144.6086155267
 20
90.8133475623
 10
144.6317245884
 20
90.8120272383
 10
144.6551545867
 20
90.8118604402
 10
144.6789069843
 20
90.812851501
 10
144.7029803184
 20
90.8149960879
 10
144.7272847977
 20
90.8182861335
 10
144.7518220047
 20
90.8227262784
 10
144.7765903569
 20
90.8283118822
 10
144.8014953163
 20
90.8350209558
 10
144.8265053703
 20
90.8428461697
 10
144.8516520316
 20
90.8517948534
 10
144.8769353001
 20
90.861867007
  0
LWPOLYLINE
  5
314
100
AcDbEntity
  8
217
100
AcDbPolyline
 62
253
  6
CONTINUOUS
 90
25
 70
0
 10
143.4951641669
 20
91.3475828609
 10
143.4973792456
 20
91.3030532659
 10
143.5009176434
 20
91.2592937681
 10
143.5057749463
 20
91.2163584212
 10
143.5119451399
 20
91.1743007639
 10
143.5194205457
 20
91.1331721681
 10
143.5281920079
 20
91.0930219076
 10
143.5382491638
 20
91.0538987654
 10
143.5495795547
 20
91.0158520449
 10
143.5621685914
 20
90.9789299254
 10
143.5760007514
 20
90.9431783386
 10
143.5910591822
 20
90.9086409977
 10
143.6073249624
 20
90.8753605224
 10
143.6247782987
 20
90.8433778965
 10
143.6433977833
 20
90.8127326587
 10
143.6631599419
 20
90.7834628921
 10
143.6840407564
 20
90.7556045746
 10
143.7060146018
 20
90.72919218
 10
143.7290535329
 20
90.704258892
 10
143.7531293446
 20
90.6808354416
 10
143.778212624
 20
90.6589505766
 10
143.8042716992
 20
90.6386316767
 10
143.8312747555
 20
90.6199036846
 10
143.8591887376
 20
90.6027896126
 10
143.8885414004
 20
90.5870289969
  0
LWPOLYLINE
  5
315
100
AcDbEntity
  8
RACCORDO
100
AcDbPolyline
 62
7
  6
CONTINUOUS
 90
22
 70
0
 10
142.6997273815
 20
81.4276769912
 10
142.6909647624
 20
81.9233272309
 10
142.664673401
 20
82.4099042241
 10
142.6208657485
 20
82.8865806163
 10
142.5595586086
 20
83.3526699626
 10
142.4808232557
 20
83.8072309379
 10
142.3848318449
 20
84.2491157163
 10
142.2717191258
 20
84.6776481416
 10
142.1416707604
 20
85.0920550043
 10
141.9950708409
 20
85.4911693575
 10
141.8321878309
 20
85.8743975612
 10
141.6533352325
 20
86.2411120941
 10
141.4591279592
 20
86.5902509053
 10
141.2500494652
 20
86.9212342084
 10
141.0264934851
 20
87.2337008354
 10
140.7890805956
 20
87.527041876
 10
140.5384746661
 20
87.8007380985
 10
140.2751201348
 20
88.0545890565
 10
139.9993596132
 20
88.2884701908
 10
139.7117027013
 20
88.5020962631
 10
139.4128513216
 20
88.6950928125
 10
139.1034552148
 20
88.8671994303
  0
LWPOLYLINE
  5
316
100
AcDbEntity
  8
RACCORDO
100
AcDbPolyline
 62
253
  6
CONTINUOUS
 90
70
 70
0
 10
142.6336046888
 20
81.3034287698
 10
142.624040254
 20
80.7830582487
 10
142.5953651243
 20
80.2541862624
 10
142.5476373566
 20
79.7179039106
 10
142.480975518
 20
79.1754700471
 10
142.3955054319
 20
78.6278545381
 10
142.2913075391
 20
78.0757229943
 10
142.168491127
 20
77.5199608147
 10
142.0273054152
 20
76.9619574568
 10
141.8680793826
 20
76.4031425763
 10
141.6911025008
 20
75.8446115466
 10
141.496741282
 20
75.2875921687
 10
141.2855663493
 20
74.7337107925
 10
141.0581904728
 20
74.1844618304
 10
140.8149794783
 20
73.6406245107
 10
140.5561757483
 20
73.1027474821
 10
140.2820717647
 20
72.5715508923
 10
139.993406326
 20
72.0485727136
 10
139.6911434767
 20
71.5355552839
 10
139.376224669
 20
71.0339864061
 10
139.0490659411
 20
70.5444233037
 10
138.709881913
 20
70.0671904874
 10
138.3590003961
 20
69.6028576965
 10
137.997455666
 20
69.1528988135
 10
137.6265561942
 20
68.7189400551
 10
137.2475023755
 20
68.3022789526
 10
136.8607121327
 20
67.9032705483
 10
136.4663507273
 20
67.5220871704
 10
136.0647660606
 20
67.1591712546
 10
135.6572163774
 20
66.8157644769
 10
135.2452477844
 20
66.4931686507
 10
134.8302127244
 20
66.1923374986
 10
134.412505651
 20
65.9134527316
 10
133.9922540595
 20
65.6566002645
 10
133.5698247818
 20
65.4221096017
 10
133.1465911054
 20
65.2108481669
 10
132.7241874017
 20
65.0236318465
 10
132.3039887703
 20
64.8609649672
 10
131.886359871
 20
64.722883362
 10
131.471422268
 20
64.6094270947
 10
131.0595647792
 20
64.5208084085
 10
130.6521458612
 20
64.4574266713
 10
130.250722876
 20
64.4195252662
 10
129.8565626012
 20
64.4071173528
 10
129.4700027982
 20
64.4201055157
 10
129.0911923289
 20
64.4584836087
 10
128.7205265124
 20
64.5223209091
 10
128.359230531
 20
64.6115184826
 10
128.0086641965
 20
64.725739225
 10
127.6697674409
 20
64.8645729798
 10
127.3429594592
 20
65.0277408247
 10
127.0287447091
 20
65.2149333188
 10
126.7277654188
 20
65.4257284325
 10
126.440619227
 20
65.6596664856
 10
126.1677399793
 20
65.9163799443
 10
125.9096396543
 20
66.1954139289
 10
125.6669222624
 20
66.4961436991
 10
125.4401295665
 20
66.8179045617
 10
125.2297267048
 20
67.1600344039
 10
125.036150877
 20
67.521820185
 10
124.8598339283
 20
67.9024367434
 10
124.7011458804
 20
68.3010398364
 10
124.5603821613
 20
68.7168359287
 10
124.4378053479
 20
69.1490173179
 10
124.333661677
 20
69.5966991388
 10
124.2481653802
 20
70.0589436559
 10
124.1814852966
 20
70.5348264348
 10
124.1337578692
 20
71.0233761284
 10
124.1050826344
 20
71.5235733992
 10
124.0955182672
 20
72.034385559
  0
LWPOLYLINE
  5
317
100
AcDbEntity
  8
217
100
AcDbPolyline
 62
253
  6
CONTINUOUS
 90
19
 70
0
 10
144.0468513605
 20
121.7888660611
 10
144.0082455694
 20
120.0761266508
 10
143.975153184
 20
118.3658542161
 10
143.9475757307
 20
116.6581275987
 10
143.9255134644
 20
114.9529469482
 10
143.9089661301
 20
113.250312115
 10
143.8979344895
 20
111.5503014928
 10
143.8924187964
 20
109.8529152053
 10
143.892418797
 20
108.1581531287
 10
143.8979344913
 20
106.4660932848
 10
143.9089661332
 20
104.7767357948
 10
143.9255134688
 20
103.0900805376
 10
143.9475757364
 20
101.4062051709
 10
143.9751531914
 20
99.7251097776
 10
144.0082455785
 20
98.0467942748
 10
144.0468513697
 20
96.3713360723
 10
144.0909700559
 20
94.698760973
 10
144.1406021462
 20
93.029043174
 10
144.1957476408
 20
91.3621826751
  0
LWPOLYLINE
  5
318
100
AcDbEntity
  8
217
100
AcDbPolyline
 62
253
  6
CONTINUOUS
 90
22
 70
0
 10
143.4951641669
 20
126.9628227286
 10
143.4399655165
 20
125.2410299884
 10
143.3902843391
 20
123.5216541138
 10
143.3461213837
 20
121.8047215018
 10
143.3074773078
 20
120.0902585192
 10
143.2743527028
 20
118.3782914778
 10
143.2467480941
 20
116.6688466342
 10
143.2246639024
 20
114.9619502258
 10
143.2081004563
 20
113.2576284585
 10
143.1970580188
 20
111.5559074824
 10
143.1915367606
 20
109.8568134194
 10
143.1915367606
 20
108.1603723483
 10
143.1970580188
 20
106.4666102932
 10
143.2081004563
 20
104.7755532456
 10
143.2246639024
 20
103.0872271652
 10
143.2467480941
 20
101.4016579651
 10
143.2743527028
 20
99.7188715141
 10
143.3074773078
 20
98.0388936376
 10
143.3461213837
 20
96.3617501189
 10
143.390284339
 20
94.6874666959
 10
143.4399655165
 20
93.0160690607
 10
143.4951641669
 20
91.3475828609
  0
LWPOLYLINE
  5
319
100
AcDbEntity
  8
217
100
AcDbPolyline
 62
253
  6
CONTINUOUS
 90
4
 70
0
 10
144.1957476408
 20
126.9418073029
 10
144.1406021417
 20
125.2216932468
 10
144.0909700483
 20
123.5040461662
 10
144.0468513605
 20
121.7888660611
  0
LINE
  5
31A
100
AcDbEntity
  8
218
100
AcDbLine
 62
7
  6
CONTINUOUS
 10
145.8673572069
 20
136.3946096935
 11
145.8670146208
 21
136.3897393408
  0
LWPOLYLINE
  5
31B
100
AcDbEntity
  8
218
100
AcDbPolyline
 62
253
  6
CONTINUOUS
 90
24
 70
0
 10
162.7344643234
 20
120.2843354412
 10
162.7265007469
 20
120.2785271111
 10
162.7187142288
 20
120.2722464786
 10
162.7111568978
 20
120.2655147362
 10
162.7038464282
 20
120.2583717207
 10
162.6967872791
 20
120.2508544635
 10
162.6899655019
 20
120.242970131
 10
162.6833648593
 20
120.23472877
 10
162.6769783656
 20
120.2261818131
 10
162.67080077
 20
120.217390801
 10
162.6648245092
 20
120.2084163214
 10
162.6590427222
 20
120.1993039797
 10
162.6534536719
 20
120.1900404066
 10
162.6480582956
 20
120.1805985781
 10
162.6428631076
 20
120.1709558262
 10
162.6378834037
 20
120.1611025861
 10
162.6331640293
 20
120.1510773483
 10
162.6287557859
 20
120.1409306724
 10
162.6247037475
 20
120.1307133388
 10
162.6210539324
 20
120.1204831191
 10
162.6178372639
 20
120.1103091647
 10
162.6149841966
 20
120.1001896803
 10
162.6123881003
 20
120.0900714209
 10
162.6099591666
 20
120.0799446414
  0
LWPOLYLINE
  5
31C
100
AcDbEntity
  8
218
100
AcDbPolyline
 62
253
  6
CONTINUOUS
 90
85
 70
0
 10
162.7279350818
 20
119.6148958596
 10
162.7380527453
 20
119.6221000537
 10
162.7480572405
 20
119.6296203274
 10
162.7579600409
 20
119.6374724613
 10
162.7677726201
 20
119.6456722362
 10
162.7775064515
 20
119.6542354326
 10
162.7871730086
 20
119.6631778312
 10
162.7967749946
 20
119.6725096937
 10
162.8062800309
 20
119.6822192066
 10
162.8156469688
 20
119.6922890373
 10
162.8248386848
 20
119.7027045114
 10
162.8338341569
 20
119.7134615864
 10
162.8426163885
 20
119.7245588777
 10
162.8490523283
 20
119.7331046257
 10
162.8553481676
 20
119.741842455
 10
162.8614933145
 20
119.7507738543
 10
162.8674771767
 20
119.7599003119
 10
162.8732904372
 20
119.7692219107
 10
162.8789288781
 20
119.7787331109
 10
162.8843895565
 20
119.7884269669
 10
162.8896695295
 20
119.7982965332
 10
162.8947660893
 20
119.8083342265
 10
162.8996774686
 20
119.8185299125
 10
162.9044021349
 20
119.8288728189
 10
162.9089385562
 20
119.8393521735
 10
162.9146918764
 20
119.8535215117
 10
162.9201055787
 20
119.8679081277
 10
162.9251774273
 20
119.8825058753
 10
162.9299041522
 20
119.897304028
 10
162.9342783467
 20
119.9122735388
 10
162.93829157
 20
119.9273807804
 10
162.9419365576
 20
119.9425909467
 10
162.9452107503
 20
119.9578645155
 10
162.9481127656
 20
119.9731607858
 10
162.9506420355
 20
119.9884467294
 10
162.9528012507
 20
120.00372001
 10
162.954593917
 20
120.0189859642
 10
162.9560226178
 20
120.0342493595
 10
162.957086248
 20
120.0495126867
 10
162.9577827808
 20
120.0647778672
 10
162.9581096108
 20
120.080038599
 10
162.95806182
 20
120.0952556854
 10
162.957633912
 20
120.1103817061
 10
162.9570577707
 20
120.1216431968
 10
162.95624769
 20
120.1328383636
 10
162.9551866385
 20
120.1439787808
 10
162.9538575842
 20
120.1550760229
 10
162.9522454015
 20
120.1661297839
 10
162.950342588
 20
120.1770922361
 10
162.9481435471
 20
120.1879036716
 10
162.9456426824
 20
120.1985043822
 10
162.9428345627
 20
120.2088390708
 10
162.9397144188
 20
120.2188700834
 10
162.9362776469
 20
120.2285641771
 10
162.9325196432
 20
120.2378881087
 10
162.9284364322
 20
120.2468099746
 10
162.9240265519
 20
120.2553032284
 10
162.9192891687
 20
120.2633426632
 10
162.9142234489
 20
120.270903072
 10
162.9088313026
 20
120.2779590288
 10
162.9031256137
 20
120.284484231
 10
162.8971220099
 20
120.2904521571
 10
162.8908361189
 20
120.2958362857
 10
162.8856141603
 20
120.2997068825
 10
162.8802265359
 20
120.3031820006
 10
162.8746782421
 20
120.3062567655
 10
162.8689742752
 20
120.3089263027
 10
162.8631196316
 20
120.3111857377
 10
162.857122033
 20
120.3130335572
 10
162.8510001022
 20
120.3144816921
 10
162.8447751873
 20
120.3155454344
 10
162.8384686365
 20
120.3162400763
 10
162.8321017978
 20
120.3165809097
 10
162.8240852246
 20
120.3165306702
 10
162.8160148986
 20
120.3159691588
 10
162.8078979101
 20
120.3149140353
 10
162.7997413497
 20
120.3133829597
 10
162.7915539839
 20
120.3113904232
 10
162.783351283
 20
120.3089382433
 10
162.7751503937
 20
120.3060250687
 10
162.7669684623
 20
120.3026495484
 10
162.7588160382
 20
120.2988072396
 10
162.7506772807
 20
120.2944813341
 10
162.7425439158
 20
120.2896564704
 10
162.7344643234
 20
120.2843354412
  0
LWPOLYLINE
  5
31D
100
AcDbEntity
  8
218
100
AcDbPolyline
 62
253
  6
CONTINUOUS
 90
87
 70
0
 10
162.5561100713
 20
116.1688641763
 10
162.608883553
 20
116.1978332307
 10
162.6609785148
 20
116.2296728953
 10
162.7124252187
 20
116.2642973722
 10
162.7632539264
 20
116.3016208633
 10
162.8134948997
 20
116.3415575706
 10
162.8631585385
 20
116.3840147889
 10
162.9121757953
 20
116.4288721844
 10
162.9604577607
 20
116.476002516
 10
163.0079155252
 20
116.525278543
 10
163.0544601794
 20
116.5765730242
 10
163.1000155821
 20
116.6297686286
 10
163.1445566646
 20
116.6847876644
 10
163.1880711265
 20
116.7415623495
 10
163.2305466675
 20
116.8000249018
 10
163.2719709872
 20
116.8601075395
 10
163.3123314673
 20
116.9217415846
 10
163.3516142186
 20
116.9848547764
 10
163.3898050341
 20
117.0493739583
 10
163.4268897068
 20
117.1152259735
 10
163.4628540296
 20
117.1823376656
 10
163.5062037029
 20
117.2678668054
 10
163.5477013149
 20
117.3549843217
 10
163.5872675495
 20
117.4434246533
 10
163.6248230907
 20
117.5329222387
 10
163.6602993376
 20
117.6232277804
 10
163.69367055
 20
117.7141570351
 10
163.7249217032
 20
117.8055420232
 10
163.7540377721
 20
117.8972147651
 10
163.7810094307
 20
117.9890117333
 10
163.8058501474
 20
118.0807872079
 10
163.8285790895
 20
118.1723999212
 10
163.8492154242
 20
118.2637086054
 10
163.8677806234
 20
118.3545893699
 10
163.8843053784
 20
118.4449878334
 10
163.8988226851
 20
118.5348669918
 10
163.9113655394
 20
118.6241898408
 10
163.9219604847
 20
118.7129105594
 10
163.9306082538
 20
118.8009480574
 10
163.937303127
 20
118.888212428
 10
163.9420393844
 20
118.9746137639
 10
163.9448119989
 20
119.0600722821
 10
163.9456187127
 20
119.1445486954
 10
163.9444579606
 20
119.2280138404
 10
163.9413281774
 20
119.3104385538
 10
163.9362299328
 20
119.3917794762
 10
163.9291723365
 20
119.4719364632
 10
163.920166633
 20
119.5507951742
 10
163.9092240669
 20
119.6282412688
 10
163.8963498928
 20
119.7041685086
 10
163.8815254058
 20
119.778503064
 10
163.8647259112
 20
119.8511792077
 10
163.8459267143
 20
119.9221312123
 10
163.8251032639
 20
119.9912827778
 10
163.8022315831
 20
120.058515313
 10
163.7772878384
 20
120.1236996544
 10
163.7502481966
 20
120.186706638
 10
163.7210948231
 20
120.2474036069
 10
163.6898338788
 20
120.3056439308
 10
163.6564775236
 20
120.3612774865
 10
163.6210379172
 20
120.4141541503
 10
163.5835362475
 20
120.4641188842
 10
163.5440298151
 20
120.5109969913
 10
163.5025849485
 20
120.5546088598
 10
163.4592679766
 20
120.5947748781
 10
163.4233085373
 20
120.6243097714
 10
163.3862122491
 20
120.6514551462
 10
163.34799796
 20
120.6761417798
 10
163.3086845182
 20
120.6983004494
 10
163.2682907719
 20
120.7178619322
 10
163.226836593
 20
120.7347615316
 10
163.1843459499
 20
120.7489526563
 10
163.1408438345
 20
120.7603932413
 10
163.096355239
 20
120.7690412215
 10
163.0509051555
 20
120.7748545319
 10
163.012316711
 20
120.7775002354
 10
162.9731107727
 20
120.7781058555
 10
162.9333201909
 20
120.7766290416
 10
162.8929809093
 20
120.7730329373
 10
162.8521412433
 20
120.7673026647
 10
162.8108526018
 20
120.7594288404
 10
162.7691688624
 20
120.7494029575
 10
162.7271537786
 20
120.7372200148
 10
162.684873573
 20
120.7228758876
 10
162.6423576391
 20
120.7063413642
 10
162.5994880554
 20
120.6874868847
 10
162.5561100713
 20
120.6661578023
  0
LINE
  5
31E
100
AcDbEntity
  8
218
100
AcDbLine
 62
253
  6
CONTINUOUS
 10
164.7893108947
 20
118.1510285509
 11
164.4916001615
 21
117.9968843065
  0
LINE
  5
31F
100
AcDbEntity
  8
218
100
AcDbLine
 62
253
  6
CONTINUOUS
 10
159.9764492576
 20
114.8355029835
 11
159.495506392
 21
114.5864875252
  0
LINE
  5
320
100
AcDbEntity
  8
218
100
AcDbLine
 62
253
  6
CONTINUOUS
 10
159.9764492576
 20
114.6560962948
 11
159.7929571726
 21
114.5610904867
  0
LINE
  5
321
100
AcDbEntity
  8
218
100
AcDbLine
 62
253
  6
CONTINUOUS
 10
159.6586245172
 20
113.3792172877
 11
159.495506392
 21
113.294760406
  0
LINE
  5
322
100
AcDbEntity
  8
218
100
AcDbLine
 62
253
  6
CONTINUOUS
 10
153.9703713649
 20
109.3302184767
 11
154.5360217579
 21
109.6230925412
  0
LINE
  5
323
100
AcDbEntity
  8
218
100
AcDbLine
 62
253
  6
CONTINUOUS
 10
154.913122033
 20
103.1049129
 11
153.5932711291
 21
102.9480837235
  0
LINE
  5
324
100
AcDbEntity
  8
218
100
AcDbLine
 62
253
  6
CONTINUOUS
 10
153.9703713649
 20
101.1687951185
 11
153.781821247
 21
101.2028062357
  0
LINE
  5
325
100
AcDbEntity
  8
218
100
AcDbLine
 62
253
  6
CONTINUOUS
 10
154.5360217579
 20
102.3831201028
 11
154.7245718955
 21
102.3491089957
  0
LWPOLYLINE
  5
326
100
AcDbEntity
  8
217
100
AcDbPolyline
 62
7
  6
CONTINUOUS
 90
42
 70
0
 10
133.0176007053
 20
121.3770378404
 10
133.0593345814
 20
121.3061897917
 10
133.112898393
 20
121.2175792716
 10
133.1671934646
 20
121.1300408863
 10
133.2222861444
 20
121.04346665
 10
133.2782005584
 20
120.957798521
 10
133.3347673414
 20
120.8732477284
 10
133.3921550085
 20
120.7896026366
 10
133.4508946641
 20
120.7061709831
 10
133.5110573471
 20
120.6227944209
 10
133.5725715194
 20
120.5396310584
 10
133.6357545733
 20
120.4564633897
 10
133.7008093993
 20
120.37302418
 10
133.7675326714
 20
120.289580456
 10
133.8356323584
 20
120.2067160566
 10
133.9051524303
 20
120.1244244815
 10
133.9760482423
 20
120.0427119072
 10
134.0478946342
 20
119.962181088
 10
134.1206835113
 20
119.8828840229
 10
134.1944221613
 20
119.8047683246
 10
134.2687083644
 20
119.7282801039
 10
134.3435277753
 20
119.6534694925
 10
134.4188939281
 20
119.5802859679
 10
134.4944463731
 20
119.5090246359
 10
134.5702153322
 20
119.4396938132
 10
134.6461698578
 20
119.3722848332
 10
134.7218577503
 20
119.307067328
 10
134.7972647575
 20
119.2440831205
 10
134.8724045291
 20
119.1832900971
 10
134.9468667541
 20
119.124832002
 10
135.0204509732
 20
119.0688659542
 10
135.0933571955
 20
119.0152346172
 10
135.165775876
 20
118.9636100828
 10
135.2375942596
 20
118.9140290296
 10
135.3089248189
 20
118.8664546424
 10
135.3802959093
 20
118.8204488014
 10
135.4516824329
 20
118.7759707213
 10
135.5231093217
 20
118.7330611071
 10
135.5951800092
 20
118.69140409
 10
135.6680956121
 20
118.6508943669
 10
135.7416549296
 20
118.6116372001
 10
135.81585794
 20
118.5736325793
  0
LWPOLYLINE
  5
327
100
AcDbEntity
  8
217
100
AcDbPolyline
 62
253
  6
CONTINUOUS
 90
34
 70
0
 10
144.8769353001
 20
128.0999382471
 10
144.875647342
 20
128.120272935
 10
144.873576401
 20
128.1409685225
 10
144.8707271629
 20
128.1619781821
 10
144.8671060746
 20
128.1832543753
 10
144.8627213293
 20
128.204748961
 10
144.8575828484
 20
128.2264133036
 10
144.8517022586
 20
128.2481983835
 10
144.8450928657
 20
128.2700549079
 10
144.8377696247
 20
128.2919334224
 10
144.8297491058
 20
128.3137844226
 10
144.8210494567
 20
128.3355584666
 10
144.811690362
 20
128.3572062866
 10
144.8016929985
 20
128.3786789002
 10
144.7910799869
 20
128.3999277216
 10
144.7798753412
 20
128.4209046713
 10
144.7681044139
 20
128.4415622851
 10
144.7557938389
 20
128.461853821
 10
144.7429714713
 20
128.4817333657
 10
144.729666324
 20
128.5011559378
 10
144.7159085023
 20
128.5200775901
 10
144.701729136
 20
128.5384555087
 10
144.6871603086
 20
128.5562481101
 10
144.6722349847
 20
128.573415135
 10
144.6569869358
 20
128.5899177398
 10
144.6414506634
 20
128.6057185841
 10
144.6256613213
 20
128.6207819155
 10
144.6096546359
 20
128.6350736503
 10
144.5934668254
 20
128.6485614506
 10
144.5771345177
 20
128.6612147978
 10
144.5606946679
 20
128.6730050611
 10
144.5441844744
 20
128.6839055629
 10
144.5276412944
 20
128.6938916386
 10
144.5111025601
 20
128.7029406929
  0
LWPOLYLINE
  5
328
100
AcDbEntity
  8
217
100
AcDbPolyline
 62
253
  6
CONTINUOUS
 90
18
 70
0
 10
146.7530533934
 20
91.1871277007
 10
146.7532938689
 20
91.1759588003
 10
146.7540146411
 20
91.1650607623
 10
146.755213749
 20
91.1544632366
 10
146.7568879303
 20
91.1441950555
 10
146.75903263
 20
91.1342841555
 10
146.7616420131
 20
91.1247575009
 10
146.7647089805
 20
91.1156410104
 10
146.7682251877
 20
91.106959487
 10
146.7721810686
 20
91.0987365503
 10
146.7765658602
 20
91.0909945722
 10
146.7813676332
 20
91.0837546161
 10
146.7865733235
 20
91.0770363794
 10
146.7921687681
 20
91.0708581404
 10
146.7981387436
 20
91.0652367078
 10
146.8044670078
 20
91.0601873758
 10
146.8111363435
 20
91.055723882
 10
146.8180266898
 20
91.0519092506
  0
LINE
  5
329
100
AcDbEntity
  8
218
100
AcDbLine
 62
7
  6
CONTINUOUS
 10
145.8673621355
 20
136.3946668208
 11
145.867362171
 21
136.3945678445
  0
LINE
  5
32A
100
AcDbEntity
  8
217
100
AcDbLine
 62
253
  6
CONTINUOUS
 10
144.3396312352
 20
138.257484364
 11
144.3396312352
 21
137.7488535584
  0
LINE
  5
32B
100
AcDbEntity
  8
217
100
AcDbLine
 62
253
  6
CONTINUOUS
 10
144.5497003727
 20
133.6928229632
 11
144.5497003727
 21
134.773406274
  0
LINE
  5
32C
100
AcDbEntity
  8
218
100
AcDbLine
 62
253
  6
CONTINUOUS
 10
144.6082173914
 20
136.8039701167
 11
144.6082173914
 21
136.3305616614
  0
LINE
  5
32D
100
AcDbEntity
  8
218
100
AcDbLine
 62
253
  6
CONTINUOUS
 10
145.0210886076
 20
136.916230542
 11
145.0210886076
 21
136.1241260532
  0
LINE
  5
32E
100
AcDbEntity
  8
217
100
AcDbLine
 62
7
  6
CONTINUOUS
 10
145.0467380164
 20
138.6110377546
 11
145.0467380164
 21
139.1635959439
  0
LINE
  5
32F
100
AcDbEntity
  8
217
100
AcDbLine
 62
253
  6
CONTINUOUS
 10
145.254744292
 20
133.7143587265
 11
145.254744292
 21
134.9470856988
  0
LINE
  5
330
100
AcDbEntity
  8
217
100
AcDbLine
 62
253
  6
CONTINUOUS
 10
145.380513639
 20
139.3269162991
 11
145.380513639
 21
140.5542668961
  0
LINE
  5
331
100
AcDbEntity
  8
217
100
AcDbLine
 62
7
  6
CONTINUOUS
 10
145.4002914069
 20
138.4342610593
 11
145.4002914069
 21
138.9868192486
  0
LINE
  5
332
100
AcDbEntity
  8
217
100
AcDbLine
 62
7
  6
CONTINUOUS
 10
145.5058631462
 20
139.4759444575
 11
145.5058631462
 21
140.5635785151
  0
LINE
  5
333
100
AcDbEntity
  8
217
100
AcDbLine
 62
7
  6
CONTINUOUS
 10
145.6124234413
 20
135.1263902436
 11
145.6124234413
 21
133.9139546783
  0
LINE
  5
334
100
AcDbEntity
  8
217
100
AcDbLine
 62
253
  6
CONTINUOUS
 10
145.7538447975
 20
138.257484364
 11
145.7538447975
 21
137.7147801207
  0
LINE
  5
335
100
AcDbEntity
  8
218
100
AcDbLine
 62
253
  6
CONTINUOUS
 10
145.7794942063
 20
136.5370277427
 11
145.7794942063
 21
136.2709515574
  0
LINE
  5
336
100
AcDbEntity
  8
217
100
AcDbLine
 62
7
  6
CONTINUOUS
 10
146.6798300887
 20
133.255068056
 11
146.6798300887
 21
132.9150941218
  0
LINE
  5
337
100
AcDbEntity
  8
217
100
AcDbLine
 62
7
  6
CONTINUOUS
 10
146.6798300887
 20
91.402015344
 11
146.6798300887
 21
91.2755160483
  0
LINE
  5
338
100
AcDbEntity
  8
217
100
AcDbLine
 62
253
  6
CONTINUOUS
 10
146.7530533934
 20
133.1666797083
 11
146.7530533934
 21
132.8267057742
  0
LINE
  5
339
100
AcDbEntity
  8
217
100
AcDbLine
 62
253
  6
CONTINUOUS
 10
146.7530533934
 20
91.4327515131
 11
146.7530533934
 21
91.1871277007
  0
LWPOLYLINE
  5
33A
100
AcDbEntity
  8
217
100
AcDbPolyline
 62
253
  6
CONTINUOUS
 90
31
 70
0
 10
146.7530533934
 20
133.1666797083
 10
146.7532938689
 20
133.1780890842
 10
146.7540146411
 20
133.1897078944
 10
146.755213749
 20
133.201504528
 10
146.7568879303
 20
133.2134468903
 10
146.75903263
 20
133.22550249
 10
146.7616420131
 20
133.2376385279
 10
146.7647089805
 20
133.2498219857
 10
146.7682251877
 20
133.2620197164
 10
146.7721810686
 20
133.2741985339
 10
146.7765658602
 20
133.2863253036
 10
146.7813676332
 20
133.2983670328
 10
146.7865733235
 20
133.3102909597
 10
146.7921687681
 20
133.3220646434
 10
146.7981387436
 20
133.3336560514
 10
146.8044670078
 20
133.3450336476
 10
146.8111363435
 20
133.3561664771
 10
146.8181286056
 20
133.3670242512
 10
146.8254247706
 20
133.3775774294
 10
146.8330049879
 20
133.3877973002
 10
146.8408486343
 20
133.3976560586
 10
146.8489343698
 20
133.4071268821
 10
146.8572401959
 20
133.4161840039
 10
146.865743515
 20
133.4248027823
 10
146.8744211926
 20
133.4329597687
 10
146.8832496194
 20
133.4406327706
 10
146.8922047763
 20
133.4478009121
 10
146.9012622993
 20
133.4544446913
 10
146.9103975457
 20
133.4605460326
 10
146.9195856617
 20
133.4660883361
 10
146.9288016494
 20
133.4710565233
  0
LWPOLYLINE
  5
33B
100
AcDbEntity
  8
217
100
AcDbPolyline
 62
253
  6
CONTINUOUS
 90
21
 70
0
 10
144.8769353001
 20
90.861867007
 10
144.8756473414
 20
90.8410749209
 10
144.8735763993
 20
90.8207367912
 10
144.8707271596
 20
90.8008986369
 10
144.8671060692
 20
90.7816053454
 10
144.8627213216
 20
90.7629005716
 10
144.8575828381
 20
90.7448266384
 10
144.8517022454
 20
90.7274244415
 10
144.8450928496
 20
90.7107333568
 10
144.8377696056
 20
90.6947911508
 10
144.8297490836
 20
90.679633896
 10
144.8210494317
 20
90.6652958883
 10
144.8116903343
 20
90.6518095703
 10
144.8016929682
 20
90.6392054572
 10
144.7910799543
 20
90.6275120684
 10
144.7798753066
 20
90.6167558622
 10
144.7681043777
 20
90.6069611765
 10
144.7557938016
 20
90.5981501739
 10
144.7429714332
 20
90.5903427907
 10
144.7296662855
 20
90.5835566926
 10
144.7231280547
 20
90.5806713086
  0
LWPOLYLINE
  5
33C
100
AcDbEntity
  8
218
100
AcDbPolyline
 62
253
  6
CONTINUOUS
 90
7
 70
0
 10
158.8227609221
 20
139.8261837774
 10
158.8105206439
 20
139.7957398696
 10
158.7920518913
 20
139.7660917006
 10
158.7675525442
 20
139.7375569302
 10
158.7372850961
 20
139.7104412885
 10
158.7015738418
 20
139.6850353008
 10
158.6608014026
 20
139.6616111749
  0
LWPOLYLINE
  5
33D
100
AcDbEntity
  8
218
100
AcDbPolyline
 62
253
  6
CONTINUOUS
 90
3
 70
0
 10
158.8226952672
 20
139.8378854746
 10
158.810465187
 20
139.8079589055
 10
158.7920092689
 20
139.778744793
  0
LWPOLYLINE
  5
33E
100
AcDbEntity
  8
218
100
AcDbPolyline
 62
253
  6
CONTINUOUS
 90
7
 70
0
 10
159.1093530356
 20
125.1107705129
 10
159.0869047143
 20
125.0736064791
 10
159.0581334827
 20
125.0375481058
 10
159.0232535091
 20
125.0028638288
 10
158.9825244199
 20
124.9698118118
 10
158.9362493326
 20
124.9386380319
 10
158.8847726596
 20
124.9095745067
  0
LINE
  5
33F
100
AcDbEntity
  8
218
100
AcDbLine
 62
253
  6
CONTINUOUS
 10
153.5932711291
 20
109.6615123084
 11
154.913122033
 21
110.8714291919
  0
LINE
  5
340
100
AcDbEntity
  8
218
100
AcDbLine
 62
7
  6
CONTINUOUS
 10
165.8071030288
 20
117.3538964253
 11
166.8778261227
 21
118.0464310824
  0
LINE
  5
341
100
AcDbEntity
  8
218
100
AcDbLine
 62
253
  6
CONTINUOUS
 10
159.8404670908
 20
109.7008386585
 11
165.5545088491
 21
112.7836952769
  0
LINE
  5
342
100
AcDbEntity
  8
218
100
AcDbLine
 62
7
  6
CONTINUOUS
 10
159.6204027088
 20
109.2213621413
 11
165.3344444672
 21
112.3042187597
  0
LINE
  5
343
100
AcDbEntity
  8
218
100
AcDbLine
 62
7
  6
CONTINUOUS
 10
159.6204977207
 20
109.2214134219
 11
159.6204027089
 21
109.2213621413
  0
LINE
  5
344
100
AcDbEntity
  8
218
100
AcDbLine
 62
253
  6
CONTINUOUS
 10
154.5360217579
 20
108.7016415115
 11
153.9703713649
 21
108.4087674471
  0
LINE
  5
345
100
AcDbEntity
  8
218
100
AcDbLine
 62
253
  6
CONTINUOUS
 10
154.7245718955
 20
108.2727230087
 11
154.34747164
 21
108.0774736357
  0
LINE
  5
346
100
AcDbEntity
  8
218
100
AcDbLine
 62
253
  6
CONTINUOUS
 10
154.1589214828
 20
107.190033703
 11
153.5932711291
 21
106.8971596589
  0
LINE
  5
347
100
AcDbEntity
  8
218
100
AcDbLine
 62
253
  6
CONTINUOUS
 10
153.9703713649
 20
106.5658653878
 11
153.781821247
 21
106.4682407064
  0
LWPOLYLINE
  5
348
100
AcDbEntity
  8
217
100
AcDbPolyline
 62
7
  6
CONTINUOUS
 90
6
 70
0
 10
145.505863115
 20
140.5638640044
 10
145.5058063053
 20
140.5651472986
 10
145.5049960789
 20
140.5685849725
 10
145.5032683992
 20
140.5714069339
 10
145.5006682324
 20
140.5736642221
 10
145.499051349
 20
140.5745903565
  0
LWPOLYLINE
  5
349
100
AcDbEntity
  8
217
100
AcDbPolyline
 62
253
  6
CONTINUOUS
 90
31
 70
0
 10
148.4305600329
 20
132.5036746446
 10
148.430265056
 20
132.5151003523
 10
148.4294892028
 20
132.5267384054
 10
148.4282345997
 20
132.5385569062
 10
148.4265046854
 20
132.5505234625
 10
148.4243042012
 20
132.5626052761
 10
148.4216391783
 20
132.5747692331
 10
148.418516921
 20
132.5869819942
 10
148.4149459868
 20
132.5992100868
 10
148.410936163
 20
132.6114199957
 10
148.4064984397
 20
132.6235782561
 10
148.40164498
 20
132.6356515443
 10
148.3963890861
 20
132.6476067697
 10
148.3907451637
 20
132.6594111653
 10
148.3847286815
 20
132.6710323775
 10
148.3783561296
 20
132.6824385547
 10
148.3716449741
 20
132.6935984347
 10
148.3646136089
 20
132.7044814304
 10
148.3572813056
 20
132.7150577136
 10
148.3496681608
 20
132.7252982965
 10
148.3417950407
 20
132.7351751118
 10
148.3336835239
 20
132.7446610889
 10
148.3253558427
 20
132.7537302285
 10
148.3168348216
 20
132.7623576738
 10
148.3081438152
 20
132.7705197786
 10
148.2993066439
 20
132.7781941721
 10
148.2903475287
 20
132.7853598203
 10
148.2812910248
 20
132.7919970834
 10
148.2721619545
 20
132.7980877699
 10
148.2629853389
 20
132.8036151864
 10
148.2537863292
 20
132.8085641834
  0
LWPOLYLINE
  5
34A
100
AcDbEntity
  8
217
100
AcDbPolyline
 62
7
  6
CONTINUOUS
 90
23
 70
0
 10
146.6798300887
 20
132.9150941218
 10
146.6801484967
 20
132.9024805695
 10
146.6811071134
 20
132.8898576214
 10
146.6827088876
 20
132.8772640812
 10
146.6849530476
 20
132.8647430078
 10
146.6878370876
 20
132.8523295827
 10
146.6913589118
 20
132.8400508158
 10
146.695512277
 20
132.827943889
 10
146.7002871318
 20
132.8160485217
 10
146.7056749267
 20
132.8043942422
 10
146.7116632873
 20
132.7930152674
 10
146.7182353284
 20
132.7819488726
 10
146.7253747622
 20
132.7712260591
 10
146.7330645553
 20
132.7608756898
 10
146.7412818751
 20
132.7509308766
 10
146.7500009088
 20
132.7414235542
 10
146.7592021248
 20
132.7323754915
 10
146.7688585743
 20
132.7238137738
 10
146.7789329762
 20
132.7157701107
 10
146.789405526
 20
132.7082585782
 10
146.800248216
 20
132.7012985694
 10
146.8114119658
 20
132.6949188549
 10
146.8180330157
 20
132.6914841614
  0
LWPOLYLINE
  5
34B
100
AcDbEntity
  8
217
100
AcDbPolyline
 62
253
  6
CONTINUOUS
 90
18
 70
0
 10
148.0780380732
 20
90.5246353608
 10
148.0782786545
 20
90.5134640326
 10
148.0789997457
 20
90.5025636672
 10
148.0801993875
 20
90.4919639359
 10
148.08187432
 20
90.4816936817
 10
148.0840199865
 20
90.4717808732
 10
148.0866305411
 20
90.462252524
 10
148.0896988746
 20
90.4531345754
 10
148.0932166359
 20
90.4444518372
 10
148.0971742451
 20
90.4362279495
 10
148.101560927
 20
90.4284852958
 10
148.10636474
 20
90.4212449467
 10
148.1115726046
 20
90.4145266094
 10
148.11717035
 20
90.40834856
 10
148.1231427316
 20
90.4027276192
 10
148.1294734659
 20
90.3976791013
 10
148.1361452869
 20
90.3932167545
 10
148.1430053647
 20
90.3894199134
  0
LWPOLYLINE
  5
34C
100
AcDbEntity
  8
217
100
AcDbPolyline
 62
253
  6
CONTINUOUS
 90
19
 70
0
 10
146.7530533934
 20
132.8267057742
 10
146.7532722646
 20
132.816044782
 10
146.7539288203
 20
132.8056233654
 10
146.755022158
 20
132.7954677881
 10
146.7565506078
 20
132.785601934
 10
146.7585109264
 20
132.7760527373
 10
146.7608975095
 20
132.7668495012
 10
146.7637038423
 20
132.7580167746
 10
146.7669233593
 20
132.7495747338
 10
146.7705481285
 20
132.7415442193
 10
146.7745692116
 20
132.733945134
 10
146.7789765847
 20
132.7267965122
 10
146.7837592126
 20
132.7201162846
 10
146.7889051855
 20
132.7139210835
 10
146.7944017144
 20
132.7082263033
 10
146.8002350577
 20
132.703046167
 10
146.8063906465
 20
132.6983935756
 10
146.8128532017
 20
132.6942800431
 10
146.8180266919
 20
132.691487323
  0
LWPOLYLINE
  5
34D
100
AcDbEntity
  8
217
100
AcDbPolyline
 62
253
  6
CONTINUOUS
 90
19
 70
0
 10
148.0780380732
 20
132.1642134343
 10
148.0782569444
 20
132.1535524421
 10
148.0789135001
 20
132.1431310255
 10
148.0800068378
 20
132.1329754482
 10
148.0815352876
 20
132.1231095941
 10
148.0834956062
 20
132.1135603974
 10
148.0858821893
 20
132.1043571613
 10
148.0886885221
 20
132.0955244347
 10
148.0919080391
 20
132.0870823939
 10
148.0955328083
 20
132.0790518794
 10
148.0995538914
 20
132.0714527941
 10
148.1039612646
 20
132.0643041723
 10
148.1087438924
 20
132.0576239447
 10
148.1138898653
 20
132.0514287436
 10
148.1193863942
 20
132.0457339634
 10
148.1252197375
 20
132.0405538271
 10
148.1313753263
 20
132.0359012357
 10
148.1378378816
 20
132.0317877032
 10
148.1430113718
 20
132.0289949831
  0
LWPOLYLINE
  5
34E
100
AcDbEntity
  8
217
100
AcDbPolyline
 62
7
  6
CONTINUOUS
 90
24
 70
0
 10
148.1580078536
 20
139.4777017926
 10
148.1574346691
 20
139.5121741987
 10
148.1557355562
 20
139.5459241197
 10
148.1529105146
 20
139.5789515555
 10
148.14895008
 20
139.6113131129
 10
148.1438637169
 20
139.6429521851
 10
148.1376798186
 20
139.6736989516
 10
148.1303972031
 20
139.703534479
 10
148.1220170524
 20
139.7324777008
 10
148.1125713052
 20
139.7604155967
 10
148.1020474467
 20
139.7873617595
 10
148.0904579916
 20
139.8133025965
 10
148.0778724229
 20
139.8380843094
 10
148.064297237
 20
139.8616816108
 10
148.0497259375
 20
139.8841197881
 10
148.0342085175
 20
139.9053209053
 10
148.0177252301
 20
139.9252979953
 10
148.0002958222
 20
139.9440380251
 10
147.9820295276
 20
139.9614239607
 10
147.9629408717
 20
139.977432887
 10
147.943015329
 20
139.9920877191
 10
147.9223185565
 20
140.0053401674
 10
147.9008260419
 20
140.0171960287
 10
144.6709359776
 20
141.6321649381
  0
LINE
  5
34F
100
AcDbEntity
  8
217
100
AcDbLine
 62
7
  6
CONTINUOUS
 10
147.382823043
 20
131.9551169546
 11
147.382823043
 21
132.4090891475
  0
LINE
  5
350
100
AcDbEntity
  8
217
100
AcDbLine
 62
253
  6
CONTINUOUS
 10
147.4560463477
 20
131.863403351
 11
147.4560463477
 21
132.3724774952
  0
LINE
  5
351
100
AcDbEntity
  8
217
100
AcDbLine
 62
253
  6
CONTINUOUS
 10
148.0780380732
 20
90.5246353608
 11
148.0780380732
 21
90.8646092949
  0
LINE
  5
352
100
AcDbEntity
  8
217
100
AcDbLine
 62
253
  6
CONTINUOUS
 10
148.0780380732
 20
132.1642134343
 11
148.0780380732
 21
132.5041873684
  0
LINE
  5
353
100
AcDbEntity
  8
217
100
AcDbLine
 62
7
  6
CONTINUOUS
 10
148.1580078536
 20
139.4777017926
 11
148.1580078536
 21
139.2069014999
  0
LINE
  5
354
100
AcDbEntity
  8
217
100
AcDbLine
 62
253
  6
CONTINUOUS
 10
148.4305600329
 20
90.5241226369
 11
148.4305600329
 21
90.8640965711
  0
LINE
  5
355
100
AcDbEntity
  8
217
100
AcDbLine
 62
253
  6
CONTINUOUS
 10
148.4305600329
 20
132.1637007104
 11
148.4305600329
 21
132.5036746446
  0
LINE
  5
356
100
AcDbEntity
  8
217
100
AcDbLine
 62
253
  6
CONTINUOUS
 10
148.7892586813
 20
91.841105772
 11
148.7892586813
 21
92.2874677851
  0
LINE
  5
357
100
AcDbEntity
  8
217
100
AcDbLine
 62
253
  6
CONTINUOUS
 10
148.7892586813
 20
131.1967971842
 11
148.7892586813
 21
131.8856178071
  0
LINE
  5
358
100
AcDbEntity
  8
217
100
AcDbLine
 62
253
  6
CONTINUOUS
 10
149.141780641
 20
91.7155930482
 11
149.141780641
 21
92.4354421848
  0
LINE
  5
359
100
AcDbEntity
  8
217
100
AcDbLine
 62
253
  6
CONTINUOUS
 10
149.141780641
 20
131.2066963636
 11
149.141780641
 21
132.0151971876
  0
LWPOLYLINE
  5
35A
100
AcDbEntity
  8
217
100
AcDbPolyline
 62
253
  6
CONTINUOUS
 90
22
 70
0
 10
148.0780380732
 20
90.8646092949
 10
148.0782579279
 20
90.8755138061
 10
148.0789169452
 20
90.8866110498
 10
148.0800134859
 20
90.8978734231
 10
148.0815448168
 20
90.9092728725
 10
148.0835071321
 20
90.9207810824
 10
148.0858955779
 20
90.9323695487
 10
148.088704248
 20
90.9440095307
 10
148.0919261535
 20
90.9556719933
 10
148.0955532511
 20
90.9673277992
 10
148.0995765307
 20
90.9789479897
 10
148.1039859733
 20
90.990503623
 10
148.1087705098
 20
91.0019657249
 10
148.1139181433
 20
91.0133056357
 10
148.1194161112
 20
91.0244953161
 10
148.125250845
 20
91.035507176
 10
148.1314090614
 20
91.0463159075
 10
148.1378743356
 20
91.0568924554
 10
148.1446267025
 20
91.0672047765
 10
148.1516475613
 20
91.0772258446
 10
148.1589202823
 20
91.0869332498
 10
148.1664264209
 20
91.0963034687
  0
LWPOLYLINE
  5
35B
100
AcDbEntity
  8
217
100
AcDbPolyline
 62
253
  6
CONTINUOUS
 90
31
 70
0
 10
148.0780380732
 20
132.5041873684
 10
148.0782786545
 20
132.5155992778
 10
148.0789997457
 20
132.5272207345
 10
148.0801993875
 20
132.5390201076
 10
148.08187432
 20
132.5509652942
 10
148.0840199865
 20
132.5630237693
 10
148.0866305411
 20
132.575162673
 10
148.0896988746
 20
132.5873489552
 10
148.0932166359
 20
132.5995494546
 10
148.0971742451
 20
132.6117309515
 10
148.101560927
 20
132.6238602871
 10
148.10636474
 20
132.6359044493
 10
148.1115726046
 20
132.6478306512
 10
148.11717035
 20
132.659606446
 10
148.1231427316
 20
132.6711997684
 10
148.1294734659
 20
132.6825790206
 10
148.1361452869
 20
132.6937131883
 10
148.1431400552
 20
132.7045720199
 10
148.150438792
 20
132.7151260559
 10
148.1580217346
 20
132.7253466987
 10
148.165868153
 20
132.7352059875
 10
148.1739564443
 20
132.7446768038
 10
148.182264412
 20
132.7537332318
 10
148.1907695844
 20
132.7623508484
 10
148.1994490471
 20
132.7705064623
 10
148.2082811376
 20
132.7781795108
 10
148.2172399206
 20
132.7853472584
 10
148.2262952575
 20
132.7919861649
 10
148.2354204263
 20
132.7980779623
 10
148.2445924309
 20
132.8036086096
 10
148.2537863292
 20
132.8085641834
  0
LWPOLYLINE
  5
35C
100
AcDbEntity
  8
217
100
AcDbPolyline
 62
7
  6
CONTINUOUS
 90
4
 70
0
 10
150.6323058448
 20
133.2222886976
 10
150.6322877436
 20
133.22187061
 10
150.6318692158
 20
133.2203282944
 10
150.6312507784
 20
133.2193652797
  0
LWPOLYLINE
  5
35D
100
AcDbEntity
  8
217
100
AcDbPolyline
 62
253
  6
CONTINUOUS
 90
16
 70
0
 10
150.6323058525
 20
133.6577081003
 10
150.6320026314
 20
133.651553456
 10
150.6310211256
 20
133.6450519468
 10
150.6293629478
 20
133.6385848707
 10
150.6270326093
 20
133.6321698227
 10
150.6240364502
 20
133.6258242559
 10
150.6203826219
 20
133.6195654344
 10
150.6160810655
 20
133.6134103866
 10
150.611143484
 20
133.6073758582
 10
150.6055833109
 20
133.6014782672
 10
150.5994156737
 20
133.5957336589
 10
150.5926573524
 20
133.5901576627
 10
150.5853267342
 20
133.5847654489
 10
150.5774437632
 20
133.5795716879
 10
150.5690298865
 20
133.5745905102
 10
150.5601079955
 20
133.5698354681
  0
LINE
  5
35E
100
AcDbEntity
  8
218
100
AcDbLine
 62
253
  6
CONTINUOUS
 10
156.2218850769
 20
125.7820981626
 11
154.9022351927
 21
122.2488298961
  0
LINE
  5
35F
100
AcDbEntity
  8
218
100
AcDbLine
 62
253
  6
CONTINUOUS
 10
164.2931263532
 20
121.5438001409
 11
164.3923632574
 21
121.6776598474
  0
LINE
  5
360
100
AcDbEntity
  8
218
100
AcDbLine
 62
253
  6
CONTINUOUS
 10
153.781821247
 20
109.1009575573
 11
153.9703713649
 21
109.3302184767
  0
LINE
  5
361
100
AcDbEntity
  8
218
100
AcDbLine
 62
253
  6
CONTINUOUS
 10
154.7245718955
 20
108.9309024411
 11
154.5360217579
 21
108.7016415115
  0
LWPOLYLINE
  5
362
100
AcDbEntity
  8
RACCORDO
100
AcDbPolyline
 62
253
  6
CONTINUOUS
 90
48
 70
0
 10
130.9679155485
 20
81.0724303174
 10
131.2305021443
 20
81.387031046
 10
131.5001252153
 20
81.6887219711
 10
131.7759469004
 20
81.9766132069
 10
132.0574105019
 20
82.2501701806
 10
132.3440153578
 20
82.5089139479
 10
132.6351616834
 20
82.7522776922
 10
132.9300108497
 20
82.9795354473
 10
133.2276936586
 20
83.1900162569
 10
133.5273928699
 20
83.383160151
 10
133.8284244857
 20
83.5585440611
 10
134.1301089189
 20
83.7157764032
 10
134.4317102286
 20
83.8544692371
 10
134.732452817
 20
83.9742615164
 10
135.0315983028
 20
84.0748551167
 10
135.3284250672
 20
84.1559991711
 10
135.6221588151
 20
84.2174737371
 10
135.9119927403
 20
84.2591112319
 10
136.1971295041
 20
84.2808127483
 10
136.4769317158
 20
84.2825456539
 10
136.7508441669
 20
84.2642992064
 10
137.0182672736
 20
84.2260787843
 10
137.2784225356
 20
84.1679602216
 10
137.5305127458
 20
84.0901142584
 10
137.7737813269
 20
83.9928028043
 10
138.0077591218
 20
83.8762427805
 10
138.2320957079
 20
83.7405821712
 10
138.44711757
 20
83.5853912344
 10
138.6512408107
 20
83.4115688935
 10
138.8416643181
 20
83.2219294741
 10
139.0191257728
 20
83.0165151424
 10
139.1826651682
 20
82.797257337
 10
139.3283937553
 20
82.5717401441
 10
139.4559190525
 20
82.344910353
 10
139.5680202825
 20
82.1163235014
 10
139.6664064302
 20
81.8863155187
 10
139.7520565419
 20
81.6562920773
 10
139.8258640103
 20
81.4277745054
 10
139.8891035213
 20
81.2007707267
 10
139.9426070386
 20
80.9762552707
 10
139.9871470237
 20
80.7553168479
 10
140.0236732135
 20
80.5378066512
 10
140.0528442918
 20
80.3247130459
 10
140.0753720992
 20
80.1165106429
 10
140.0920357622
 20
79.912017471
 10
140.1033702983
 20
79.7111156211
 10
140.1098171396
 20
79.5148528332
 10
140.1118607522
 20
79.3236412143
  0
LWPOLYLINE
  5
363
100
AcDbEntity
  8
RACCORDO
100
AcDbPolyline
 62
253
  6
CONTINUOUS
 90
48
 70
0
 10
130.988133815
 20
81.0431283684
 10
131.2491480393
 20
81.3558452587
 10
131.5171566035
 20
81.65572965
 10
131.7913266629
 20
81.9418969856
 10
132.0711048541
 20
82.2138158934
 10
132.3559935138
 20
82.4710102967
 10
132.6453964491
 20
82.7129167726
 10
132.9384800526
 20
82.9388137023
 10
133.2343803304
 20
83.1480341474
 10
133.5322849358
 20
83.3400214912
 10
133.8315139669
 20
83.5143551983
 10
134.1313919061
 20
83.6706460296
 10
134.4311872193
 20
83.8085083677
 10
134.7301289531
 20
83.9275833284
 10
135.0274831474
 20
84.0275745722
 10
135.3225325042
 20
84.108232735
 10
135.6145073651
 20
84.1693391908
 10
135.9026057559
 20
84.2107273601
 10
136.1860351127
 20
84.2322989278
 10
136.4641618611
 20
84.2340214571
 10
136.7364341158
 20
84.2158842707
 10
137.0022558818
 20
84.1778927154
 10
137.2608533219
 20
84.1201221707
 10
137.5114340054
 20
84.042742353
 10
137.7532458872
 20
83.9460136028
 10
137.9858226176
 20
83.8301515431
 10
138.2088158696
 20
83.6953032733
 10
138.4225501741
 20
83.5410416242
 10
138.625451117
 20
83.368260137
 10
138.8147343532
 20
83.1797562876
 10
138.9911331357
 20
82.9755719946
 10
139.1536932168
 20
82.7576271263
 10
139.2985491591
 20
82.5334603441
 10
139.4253108487
 20
82.3079888079
 10
139.5367408488
 20
82.0807707243
 10
139.6345378853
 20
81.8521400229
 10
139.7196751312
 20
81.6234939634
 10
139.7930406401
 20
81.3963447597
 10
139.8559014703
 20
81.1707002856
 10
139.909084601
 20
80.9475292363
 10
139.9533578708
 20
80.7279138019
 10
139.9896653419
 20
80.5117060612
 10
140.0186617647
 20
80.299888456
 10
140.0410547063
 20
80.09293276
 10
140.057618608
 20
79.8896640887
 10
140.0688852766
 20
79.6899652419
 10
140.0752935078
 20
79.494877683
 10
140.0773248665
 20
79.3048110512
  0
LINE
  5
364
100
AcDbEntity
  8
218
100
AcDbLine
 62
253
  6
CONTINUOUS
 10
164.3923632574
 20
118.9971051344
 11
164.4916001615
 21
119.1103454735
  0
LINE
  5
365
100
AcDbEntity
  8
218
100
AcDbLine
 62
253
  6
CONTINUOUS
 10
164.8885478092
 20
118.9447174639
 11
164.7893108947
 21
118.8314771193
  0
LINE
  5
366
100
AcDbEntity
  8
218
100
AcDbLine
 62
253
  6
CONTINUOUS
 10
164.3923632574
 20
118.3166566176
 11
164.4916001615
 21
118.4298969567
  0
LWPOLYLINE
  5
367
100
AcDbEntity
  8
218
100
AcDbPolyline
 62
253
  6
CONTINUOUS
 90
28
 70
0
 10
165.5545088491
 20
117.6475028721
 10
165.570787325
 20
117.6619687609
 10
165.5868399516
 20
117.6741231046
 10
165.602633526
 20
117.6839690933
 10
165.6181646298
 20
117.6915566133
 10
165.6333650492
 20
117.6968411316
 10
165.6481130485
 20
117.699679418
 10
165.6624066061
 20
117.6998974751
 10
165.6761926055
 20
117.6976631621
 10
165.6893032854
 20
117.6933348729
 10
165.7016865006
 20
117.68683766
 10
165.7133895767
 20
117.6782235339
 10
165.7244147209
 20
117.6680350937
 10
165.7347313034
 20
117.6563307002
 10
165.7443655615
 20
117.6430305063
 10
165.7533879752
 20
117.6284735659
 10
165.7617773926
 20
117.6127074623
 10
165.7695161966
 20
117.5956696215
 10
165.7766446778
 20
117.5775396388
 10
165.783129777
 20
117.5583215948
 10
165.7889258626
 20
117.53799835
 10
165.7940208905
 20
117.5167207006
 10
165.7983608737
 20
117.4944865712
 10
165.8018911711
 20
117.4712803865
 10
165.8045685605
 20
117.4472328774
 10
165.8063197838
 20
117.4223599858
 10
165.807077057
 20
117.3966186588
 10
165.807102665
 20
117.3915580364
  0
LINE
  5
368
100
AcDbEntity
  8
218
100
AcDbLine
 62
253
  6
CONTINUOUS
 10
164.2931263532
 20
117.3992498283
 11
164.9877847237
 21
118.0063555692
  0
LWPOLYLINE
  5
369
100
AcDbEntity
  8
218
100
AcDbPolyline
 62
7
  6
CONTINUOUS
 90
76
 70
0
 10
165.6621681392
 20
117.7765607436
 10
165.7245370231
 20
117.8284758638
 10
165.7851898258
 20
117.8793983795
 10
165.8441265472
 20
117.9293282907
 10
165.9013054415
 20
117.9782322008
 10
165.9567682545
 20
118.0261435063
 10
166.0106402243
 20
118.0731623976
 10
166.0629286557
 20
118.1192917959
 10
166.1136262439
 20
118.1645287798
 10
166.1628363124
 20
118.2089647757
 10
166.2105694661
 20
118.2526053519
 10
166.2568151002
 20
118.2954449401
 10
166.3016447235
 20
118.3375582613
 10
166.345062478
 20
118.3789438862
 10
166.3870642217
 20
118.4196032442
 10
166.4277090376
 20
118.459615345
 10
166.4670024753
 20
118.4989773487
 10
166.5049389851
 20
118.5376920951
 10
166.5415610012
 20
118.5758471139
 10
166.5768807418
 20
118.6134418971
 10
166.6108859886
 20
118.6504769527
 10
166.6435825205
 20
118.6870413342
 10
166.6749897148
 20
118.7231347287
 10
166.7050881943
 20
118.7587574491
 10
166.7338256061
 20
118.7939994868
 10
166.7612372669
 20
118.828865801
 10
166.78728786
 20
118.8633514325
 10
166.8118190832
 20
118.8975314953
 10
166.834905221
 20
118.9314544777
 10
166.8564719888
 20
118.9650718914
 10
166.876138231
 20
118.998313386
 10
166.8939841269
 20
119.0313124219
 10
166.9099294971
 20
119.0639355387
 10
166.9233526471
 20
119.0957120042
 10
166.9341774419
 20
119.1266919823
 10
166.9424800166
 20
119.1568253091
 10
166.9478670813
 20
119.1854907607
 10
166.9501731352
 20
119.2125547393
 10
166.949563679
 20
119.2381508426
 10
166.9461419254
 20
119.2620586406
 10
166.9397986231
 20
119.2842053125
 10
166.9306430233
 20
119.304663679
 10
166.9191060914
 20
119.323431772
 10
166.9051410158
 20
119.3404478139
 10
166.8887946081
 20
119.3557735824
 10
166.8706382695
 20
119.3695924419
 10
166.8507481267
 20
119.3818661399
 10
166.829048053
 20
119.3926329288
 10
166.8058810691
 20
119.4021909304
 10
166.7813161719
 20
119.4105663588
 10
166.7552843646
 20
119.4177329998
 10
166.7279216775
 20
119.4239103328
 10
166.6992588679
 20
119.4291276219
 10
166.6692651786
 20
119.4333556029
 10
166.6379843679
 20
119.4367259636
 10
166.6054346046
 20
119.4392573165
 10
166.57159772
 20
119.440931049
 10
166.5364629665
 20
119.4418230104
 10
166.500041047
 20
119.4419453671
 10
166.4623212586
 20
119.4412859527
 10
166.423260745
 20
119.4398841176
 10
166.3828669947
 20
119.4377480955
 10
166.3411325193
 20
119.4348696525
 10
166.2979919963
 20
119.4312634375
 10
166.2534511789
 20
119.4269353621
 10
166.207504314
 20
119.4218795145
 10
166.1600688199
 20
119.4160928081
 10
166.1111495606
 20
119.4095797485
 10
166.0607416722
 20
119.4023358301
 10
166.0087479815
 20
119.394344449
 10
165.9551749278
 20
119.3856101469
 10
165.9000160717
 20
119.3761283821
 10
165.8431549217
 20
119.3658689249
 10
165.7845526473
 20
119.354821699
 10
165.7242480789
 20
119.3429967807
 10
165.6622412166
 20
119.3303941702
  0
LWPOLYLINE
  5
36A
100
AcDbEntity
  8
218
100
AcDbPolyline
 62
7
  6
CONTINUOUS
 90
13
 70
0
 10
165.3593085636
 20
112.3181462176
 10
165.4238894733
 20
112.3594525114
 10
165.4848021866
 20
112.4061729429
 10
165.541676195
 20
112.4580777106
 10
165.594071865
 20
112.5148503892
 10
165.6415351167
 20
112.5760901328
 10
165.6836877251
 20
112.6414111093
 10
165.7201631786
 20
112.7103729091
 10
165.7506186209
 20
112.7824740119
 10
165.7747609351
 20
112.8571895619
 10
165.7923495219
 20
112.9339996882
 10
165.8031747189
 20
113.0122944486
 10
165.8071030285
 20
113.0962800537
  0
LWPOLYLINE
  5
36B
100
AcDbEntity
  8
0
100
AcDbPolyline
 62
7
  6
CONTINUOUS
 90
40
 70
0
 10
130.0560742552
 20
88.9076895639
 10
129.6316073224
 20
88.65081511
 10
129.2110920687
 20
88.3722455627
 10
128.794528494
 20
88.0719809219
 10
128.3810328054
 20
87.7492779791
 10
127.9714887958
 20
87.4048799429
 10
127.5685478441
 20
87.0410164385
 10
127.1722527907
 20
86.6575611742
 10
126.7825607952
 20
86.2546404417
 10
126.4019947149
 20
85.8348627408
 10
126.0306137584
 20
85.3981187038
 10
125.6683587171
 20
84.9445176984
 10
125.3175748221
 20
84.4769963274
 10
124.9783364978
 20
83.9954642759
 10
124.6505693198
 20
83.5000118587
 10
124.3363952454
 20
82.9938466239
 10
124.0359024665
 20
82.4768990669
 10
123.7490027912
 20
81.9492386922
 10
123.4775536016
 20
81.4142815614
 10
123.2216551403
 20
80.8719803332
 10
122.9812071647
 20
80.322382349
 10
122.7577663298
 20
79.7690456937
 10
122.5514429774
 20
79.211946111
 10
122.3621267656
 20
78.6511078572
 10
122.1910433234
 20
78.0901617869
 10
122.0383109446
 20
77.5291072004
 10
121.9038113353
 20
76.9679447973
 10
121.788415243
 20
76.4103075304
 10
121.692246611
 20
75.8562182708
 10
121.6151814961
 20
75.3056541476
 10
121.557718816
 20
74.7621795004
 10
121.519985751
 20
74.2258403259
 10
121.5018551208
 20
73.6965906274
 10
121.5034443028
 20
73.177856756
 10
121.5248812387
 20
72.6697069379
 10
121.5660379868
 20
72.1720729467
 10
121.6266480992
 20
71.6881764539
 10
121.7068377888
 20
71.218106588
 10
121.8064808428
 20
70.7617742204
 10
121.9037735743
 20
70.4006652927
  0
LWPOLYLINE
  5
36C
100
AcDbEntity
  8
DRAFT
100
AcDbPolyline
 62
7
  6
CONTINUOUS
 90
34
 70
0
 10
130.738836144
 20
89.211586492
 10
130.2974461323
 20
88.9527237982
 10
129.859900719
 20
88.6713517564
 10
129.4261999042
 20
88.3674703666
 10
128.995513098
 20
88.0404031468
 10
128.5686708902
 20
87.6908265791
 10
128.1481650499
 20
87.3207701089
 10
127.7338868119
 20
86.9299676808
 10
127.3259449415
 20
86.5186853503
 10
126.9271575037
 20
86.0897507294
 10
126.5376772949
 20
85.6431339295
 10
126.1573515188
 20
85.1788648393
 10
125.7885398521
 20
84.6998607373
 10
125.4313346712
 20
84.2060844007
 10
125.0856435997
 20
83.6975730523
 10
124.7535491852
 20
83.1773556399
 10
124.4350341454
 20
82.6451727588
 10
124.1301157625
 20
82.1012838136
 10
123.8409284309
 20
81.5494959656
 10
123.5676758597
 20
80.9899439968
 10
123.3101543398
 20
80.4224931253
 10
123.0698871384
 20
79.8505461666
 10
122.8469466267
 20
79.2740302141
 10
122.6412604335
 20
78.6930181744
 10
122.4541347128
 20
78.1111315833
 10
122.2856633322
 20
77.5282354395
 10
122.1357524242
 20
76.9444647442
 10
122.0054265402
 20
76.3638460372
 10
121.8948532084
 20
75.7866060928
 10
121.8038649007
 20
75.2125181366
 10
121.7329835851
 20
74.6449283853
 10
121.6823832509
 20
74.0849522445
 10
121.6518899089
 20
73.5314743087
 10
121.6415035591
 20
72.9844945779
  0
LWPOLYLINE
  5
36D
100
AcDbEntity
  8
218
100
AcDbPolyline
 62
253
  6
CONTINUOUS
 90
9
 70
0
 10
158.8847726596
 20
107.9937624759
 10
158.9459325811
 20
108.0288994727
 10
158.9995002039
 20
108.0670092442
 10
159.0449016498
 20
108.1076834266
 10
159.0816505448
 20
108.1504861816
 10
159.1093532393
 20
108.1949588813
 10
159.1277130146
 20
108.2406250234
 10
159.1365332474
 20
108.2869953087
 10
159.1373668392
 20
108.3063588966
  0
LINE
  5
36E
100
AcDbEntity
  8
218
100
AcDbLine
 62
7
  6
CONTINUOUS
 10
165.3343713388
 20
112.3041793168
 11
165.3593085636
 21
112.3181462176
  0
LINE
  5
36F
100
AcDbEntity
  8
218
100
AcDbLine
 62
253
  6
CONTINUOUS
 10
154.913122033
 20
110.8714291919
 11
153.5932711291
 21
110.714599576
  0
LINE
  5
370
100
AcDbEntity
  8
218
100
AcDbLine
 62
253
  6
CONTINUOUS
 10
153.9703713649
 20
108.4087674471
 11
153.781821247
 21
108.4427790037
  0
LINE
  5
371
100
AcDbEntity
  8
218
100
AcDbLine
 62
253
  6
CONTINUOUS
 10
153.5932711291
 20
105.7124365927
 11
153.8760963453
 21
105.5956020379
  0
LINE
  5
372
100
AcDbEntity
  8
218
100
AcDbLine
 62
253
  6
CONTINUOUS
 10
154.913122033
 20
106.1325378058
 11
153.9703713649
 21
106.5658653878
  0
LINE
  5
373
100
AcDbEntity
  8
218
100
AcDbLine
 62
253
  6
CONTINUOUS
 10
153.9703713649
 20
100.1157081804
 11
153.5932711291
 21
100.4470022867
  0
LINE
  5
374
100
AcDbEntity
  8
218
100
AcDbLine
 62
253
  6
CONTINUOUS
 10
153.781821247
 20
101.2028062357
 11
153.5932711291
 21
101.3684532614
  0
LINE
  5
375
100
AcDbEntity
  8
218
100
AcDbLine
 62
253
  6
CONTINUOUS
 10
154.7245718955
 20
102.3491089957
 11
154.913122033
 21
102.1834619802
  0
LWPOLYLINE
  5
376
100
AcDbEntity
  8
217
100
AcDbPolyline
 62
7
  6
CONTINUOUS
 90
6
 70
0
 10
151.0608515536
 20
137.7863651287
 10
151.0608130912
 20
137.7874254258
 10
151.0600648539
 20
137.7908881173
 10
151.0584029864
 20
137.7937383187
 10
151.0558722686
 20
137.7960261841
 10
151.0540357127
 20
137.7970981657
  0
LWPOLYLINE
  5
377
100
AcDbEntity
  8
217
100
AcDbPolyline
 62
7
  6
CONTINUOUS
 90
20
 70
0
 10
150.6323058525
 20
133.6577081003
 10
150.6319003851
 20
133.671940716
 10
150.6306772011
 20
133.6861979567
 10
150.6286296138
 20
133.7004234908
 10
150.6257556161
 20
133.7145606509
 10
150.6220583108
 20
133.7285512978
 10
150.6175458705
 20
133.742337492
 10
150.6122318674
 20
133.7558611825
 10
150.6061326927
 20
133.7690703269
 10
150.5992653142
 20
133.7819199836
 10
150.5916522323
 20
133.7943612859
 10
150.5833211794
 20
133.8063446983
 10
150.5742977645
 20
133.817830259
 10
150.5646076013
 20
133.8287813954
 10
150.5542878116
 20
133.8391528734
 10
150.543380743
 20
133.8489014047
 10
150.5319120325
 20
133.8580028601
 10
150.519924003
 20
133.8664214075
 10
150.5074831838
 20
133.8741119721
 10
150.4941021492
 20
133.8813184487
  0
LWPOLYLINE
  5
378
100
AcDbEntity
  8
217
100
AcDbPolyline
 62
7
  6
CONTINUOUS
 90
23
 70
0
 10
150.6323058525
 20
92.0105724442
 10
150.6319874445
 20
92.0231859965
 10
150.6310288278
 20
92.0358089446
 10
150.6294270535
 20
92.0484024848
 10
150.6271828936
 20
92.0609235582
 10
150.6242988536
 20
92.0733369833
 10
150.6207770294
 20
92.0856157502
 10
150.6166236642
 20
92.097722677
 10
150.6118488093
 20
92.1096180443
 10
150.6064610145
 20
92.1212723238
 10
150.6004726539
 20
92.1326512986
 10
150.5939006127
 20
92.1437176934
 10
150.5867611789
 20
92.1544405069
 10
150.5790713859
 20
92.1647908762
 10
150.5708540661
 20
92.1747356894
 10
150.5621350324
 20
92.1842430118
 10
150.5529338163
 20
92.1932910745
 10
150.5432773669
 20
92.2018527922
 10
150.533202965
 20
92.2098964553
 10
150.5227304152
 20
92.2174079878
 10
150.5118877252
 20
92.2243679966
 10
150.5007239754
 20
92.2307477111
 10
150.4941029254
 20
92.2341824046
  0
LWPOLYLINE
  5
379
100
AcDbEntity
  8
217
100
AcDbPolyline
 62
7
  6
CONTINUOUS
 90
34
 70
0
 10
150.0318408237
 20
133.3063966481
 10
150.0316407677
 20
133.3167984567
 10
150.0310405302
 20
133.3273768247
 10
150.0300415722
 20
133.3381078428
 10
150.0286463367
 20
133.348967296
 10
150.0268579884
 20
133.3599305884
 10
150.0246804071
 20
133.3709727994
 10
150.0221185826
 20
133.3820689463
 10
150.0191784083
 20
133.3931939397
 10
150.0158664133
 20
133.4043225101
 10
150.0121901362
 20
133.4154294679
 10
150.008157976
 20
133.4264896891
 10
150.0037789787
 20
133.4374780704
 10
149.9990630781
 20
133.448369728
 10
149.9940210081
 20
133.4591400151
 10
149.9886641475
 20
133.4697645064
 10
149.9830046232
 20
133.4802191309
 10
149.9770552853
 20
133.490480221
 10
149.9708296135
 20
133.5005245273
 10
149.964341681
 20
133.5103292823
 10
149.9576061922
 20
133.5198722794
 10
149.9506384529
 20
133.5291319196
 10
149.9434541959
 20
133.538087202
 10
149.9360696802
 20
133.546717834
 10
149.9285017259
 20
133.5550043068
 10
149.9207674044
 20
133.5629278141
 10
149.9128841984
 20
133.5704703901
 10
149.9048700989
 20
133.5776150139
 10
149.8967431686
 20
133.5843454567
 10
149.8885217575
 20
133.5906464452
 10
149.8802246608
 20
133.5965037925
 10
149.8718706675
 20
133.6019042293
 10
149.8634785183
 20
133.6068354339
 10
149.85506712
 20
133.6112861869
  0
LWPOLYLINE
  5
37A
100
AcDbEntity
  8
217
100
AcDbPolyline
 62
253
  6
CONTINUOUS
 90
31
 70
0
 10
150.5601079955
 20
133.5698354681
 10
150.5599188747
 20
133.5812859771
 10
150.5592446914
 20
133.5929523308
 10
150.5580863755
 20
133.604803029
 10
150.556445794
 20
133.6168084908
 10
150.5543267318
 20
133.6289336092
 10
150.5517358803
 20
133.6411376388
 10
150.548681063
 20
133.6533844317
 10
150.5451701409
 20
133.6656430709
 10
150.5412126234
 20
133.6778802907
 10
150.536819235
 20
133.6900627733
 10
150.5320020587
 20
133.7021568737
 10
150.526774432
 20
133.714129064
 10
150.5211507671
 20
133.7259463667
 10
150.5151464218
 20
133.7375765367
 10
150.5087778058
 20
133.7489877848
 10
150.502062346
 20
133.7601488643
 10
150.4950184758
 20
133.7710291191
 10
150.4876655329
 20
133.7815986701
 10
150.4800236861
 20
133.7918285218
 10
150.4721138795
 20
133.8016906341
 10
150.4639578033
 20
133.8111579591
 10
150.4555778189
 20
133.8202045367
 10
150.446996905
 20
133.8288055568
 10
150.4382385982
 20
133.8369374253
 10
150.4293269079
 20
133.8445778478
 10
150.420286276
 20
133.8517058673
 10
150.4111415185
 20
133.8583019188
 10
150.4019177201
 20
133.8643479135
 10
150.3926401647
 20
133.8698272832
 10
150.3833342918
 20
133.8747250069
  0
LINE
  5
37B
100
AcDbEntity
  8
217
100
AcDbLine
 62
7
  6
CONTINUOUS
 10
150.0318408237
 20
91.3041572366
 11
150.0318408237
 21
92.8090532965
  0
LINE
  5
37C
100
AcDbEntity
  8
217
100
AcDbLine
 62
7
  6
CONTINUOUS
 10
150.0318408237
 20
131.7039774915
 11
150.0318408237
 21
133.3063966481
  0
LINE
  5
37D
100
AcDbEntity
  8
217
100
AcDbLine
 62
253
  6
CONTINUOUS
 10
150.5601079955
 20
133.5698354681
 11
150.5601079955
 21
133.2223039514
  0
LINE
  5
37E
100
AcDbEntity
  8
217
100
AcDbLine
 62
253
  6
CONTINUOUS
 10
150.5601079955
 20
91.922699812
 11
150.5601079955
 21
91.5751682952
  0
LINE
  5
37F
100
AcDbEntity
  8
217
100
AcDbLine
 62
7
  6
CONTINUOUS
 10
150.6323058525
 20
133.6577081003
 11
150.6323058525
 21
133.2224636213
  0
LINE
  5
380
100
AcDbEntity
  8
217
100
AcDbLine
 62
7
  6
CONTINUOUS
 10
150.6323058525
 20
92.0105724442
 11
150.6323058525
 21
91.6630409274
  0
LINE
  5
381
100
AcDbEntity
  8
217
100
AcDbLine
 62
253
  6
CONTINUOUS
 10
150.9372575115
 20
136.5502861102
 11
150.9372575115
 21
137.7773360775
  0
LINE
  5
382
100
AcDbEntity
  8
217
100
AcDbLine
 62
7
  6
CONTINUOUS
 10
151.0608515754
 20
136.698449731
 11
151.0608515754
 21
137.7861262201
  0
LINE
  5
383
100
AcDbEntity
  8
218
100
AcDbLine
 62
7
  6
CONTINUOUS
 10
151.0925009955
 20
97.1780226028
 11
151.0925009955
 21
127.7860846724
  0
LINE
  5
384
100
AcDbEntity
  8
217
100
AcDbLine
 62
7
  6
CONTINUOUS
 10
151.0925009955
 20
93.5237374223
 11
151.0925009955
 21
131.4403698529
  0
LINE
  5
385
100
AcDbEntity
  8
218
100
AcDbLine
 62
253
  6
CONTINUOUS
 10
152.8533051094
 20
121.7469396548
 11
152.8533051094
 21
123.4789904624
  0
LWPOLYLINE
  5
386
100
AcDbEntity
  8
217
100
AcDbPolyline
 62
7
  6
CONTINUOUS
 90
22
 70
0
 10
150.3746245726
 20
93.169573655
 10
150.3740051187
 20
93.1517277838
 10
150.3727958919
 20
93.1341868087
 10
150.3709949693
 20
93.1169821465
 10
150.3686010734
 20
93.1001470911
 10
150.3656149011
 20
93.0837100734
 10
150.3620382266
 20
93.0676952833
 10
150.3578740167
 20
93.0521385706
 10
150.3531236734
 20
93.0370642846
 10
150.3477848197
 20
93.0224816639
 10
150.3418587432
 20
93.0084203567
 10
150.3353495402
 20
92.994913496
 10
150.3282563809
 20
92.9819793008
 10
150.3205765897
 20
92.9696398296
 10
150.3123213348
 20
92.9579380793
 10
150.3035130631
 20
92.946921861
 10
150.2941583575
 20
92.9366143749
 10
150.2842722588
 20
92.9270464589
 10
150.2738981877
 20
92.9182666717
 10
150.2630521456
 20
92.9102912071
 10
150.2517548561
 20
92.903137911
 10
150.2399796318
 20
92.8967984429
  0
LWPOLYLINE
  5
387
100
AcDbEntity
  8
217
100
AcDbPolyline
 62
253
  6
CONTINUOUS
 90
16
 70
0
 10
150.6323058525
 20
91.6630409307
 10
150.6320045819
 20
91.6569060986
 10
150.6310248633
 20
91.6504031504
 10
150.6293681743
 20
91.6439345861
 10
150.6270390228
 20
91.6375180194
 10
150.6240437426
 20
91.6311709083
 10
150.6203904837
 20
91.6249105315
 10
150.6160891856
 20
91.6187539283
 10
150.6111515531
 20
91.6127178579
 10
150.6055910278
 20
91.6068187554
 10
150.5994227387
 20
91.601072674
 10
150.5926634774
 20
91.5954952583
 10
150.5853316635
 20
91.5901017061
 10
150.5774472654
 20
91.5849067016
 10
150.5690317396
 20
91.5799243781
 10
150.5601079955
 20
91.5751682952
  0
LWPOLYLINE
  5
388
100
AcDbEntity
  8
217
100
AcDbPolyline
 62
253
  6
CONTINUOUS
 90
16
 70
0
 10
150.6323058525
 20
92.0105724442
 10
150.6320026314
 20
92.0044177999
 10
150.6310211256
 20
91.9979162907
 10
150.6293629478
 20
91.9914492146
 10
150.6270326093
 20
91.9850341666
 10
150.6240364502
 20
91.9786885997
 10
150.6203826219
 20
91.9724297783
 10
150.6160810655
 20
91.9662747305
 10
150.611143484
 20
91.960240202
 10
150.6055833109
 20
91.954342611
 10
150.5994156737
 20
91.9485980028
 10
150.5926573524
 20
91.9430220066
 10
150.5853267342
 20
91.9376297927
 10
150.5774437632
 20
91.9324360317
 10
150.5690298865
 20
91.9274548541
 10
150.5601079955
 20
91.922699812
  0
LINE
  5
389
100
AcDbEntity
  8
218
100
AcDbLine
 62
253
  6
CONTINUOUS
 10
158.8286415799
 20
139.8570972388
 11
158.8227609221
 21
139.8261837774
  0
LWPOLYLINE
  5
38A
100
AcDbEntity
  8
218
100
AcDbPolyline
 62
253
  6
CONTINUOUS
 90
76
 70
0
 10
158.4049454629
 20
122.0436907911
 10
158.3824913953
 20
121.9665328214
 10
158.3610715654
 20
121.8894542453
 10
158.3405777201
 20
121.8124428805
 10
158.3208916364
 20
121.7355126128
 10
158.3019094901
 20
121.6586779524
 10
158.2835950216
 20
121.5819298376
 10
158.2659658242
 20
121.5052608695
 10
158.2491873368
 20
121.4286938709
 10
158.2334034149
 20
121.3522528733
 10
158.2185237348
 20
121.2759365196
 10
158.2044120225
 20
121.199732033
 10
158.1909823832
 20
121.1236063465
 10
158.178208082
 20
121.047543998
 10
158.1662486449
 20
120.9716202358
 10
158.1552786402
 20
120.8959095478
 10
158.1453465445
 20
120.8203926705
 10
158.136470431
 20
120.7450556454
 10
158.1286728487
 20
120.6699994859
 10
158.1220060454
 20
120.595356109
 10
158.1166365861
 20
120.5212660727
 10
158.1127381441
 20
120.4478618067
 10
158.1103985073
 20
120.3752345838
 10
158.1096746527
 20
120.3034563236
 10
158.1105861981
 20
120.2325626874
 10
158.1131499963
 20
120.1625998666
 10
158.1174091994
 20
120.0936924306
 10
158.1234135336
 20
120.0259845435
 10
158.1312127256
 20
119.9596203693
 10
158.1408413725
 20
119.894721436
 10
158.1522735546
 20
119.8313187275
 10
158.1654696388
 20
119.7694176932
 10
158.1803956576
 20
119.7090121886
 10
158.197067801
 20
119.6501515511
 10
158.2156972246
 20
119.5931186406
 10
158.2364473126
 20
119.5382172327
 10
158.2590773264
 20
119.4854976942
 10
158.2831691491
 20
119.4345339321
 10
158.3083759452
 20
119.3848811171
 10
158.3214582958
 20
119.3606484252
 10
158.335037372
 20
119.3370485865
 10
158.3492747602
 20
119.3142953439
 10
158.3642457117
 20
119.292503309
 10
158.3799707417
 20
119.2717160166
 10
158.3963377548
 20
119.2517918267
 10
158.413207452
 20
119.2325534056
 10
158.4304643306
 20
119.2138658196
 10
158.4539461292
 20
119.1896707311
 10
158.4780199854
 20
119.166417565
 10
158.5027843961
 20
119.1442900187
 10
158.521861886
 20
119.1285267704
 10
158.5413752923
 20
119.113476818
 10
158.5816164162
 20
119.0853971646
 10
158.6232109196
 20
119.0598580648
 10
158.6445077666
 20
119.0481379275
 10
158.6662194999
 20
119.0372652694
 10
158.6884257538
 20
119.0273688541
 10
158.7111608984
 20
119.0185306778
 10
158.7344326665
 20
119.0108033408
 10
158.7581875073
 20
119.0041686275
 10
158.782357036
 20
118.9985909735
 10
158.8068748149
 20
118.9940362334
 10
158.8316924785
 20
118.9904741123
 10
158.8568320024
 20
118.9878882958
 10
158.8908941316
 20
118.9859511832
 10
158.9255348554
 20
118.9857811633
 10
158.9606902423
 20
118.9874324652
 10
158.9962943507
 20
118.9909493774
 10
159.0322732003
 20
118.9963364262
 10
159.0685508012
 20
119.0035881971
 10
159.1050599455
 20
119.0127003625
 10
159.1417685554
 20
119.0236729422
 10
159.1786533352
 20
119.0365070427
 10
159.2157123712
 20
119.0512210801
 10
159.2530292762
 20
119.0679027092
 10
159.2907090445
 20
119.0866568942
  0
LINE
  5
38B
100
AcDbEntity
  8
218
100
AcDbLine
 62
253
  6
CONTINUOUS
 10
154.4103216793
 20
111.971333127
 11
154.5988718169
 21
112.4199872007
  0
LINE
  5
38C
100
AcDbEntity
  8
218
100
AcDbLine
 62
253
  6
CONTINUOUS
 10
160.0057342628
 20
118.5366482586
 11
158.0000556608
 21
114.5186944371
  0
LINE
  5
38D
100
AcDbEntity
  8
218
100
AcDbLine
 62
253
  6
CONTINUOUS
 10
153.5932711291
 20
108.7400612787
 11
153.781821247
 21
109.1009575573
  0
LINE
  5
38E
100
AcDbEntity
  8
218
100
AcDbLine
 62
253
  6
CONTINUOUS
 10
154.913122033
 20
109.2917987298
 11
154.7245718955
 21
108.9309024411
  0
LINE
  5
38F
100
AcDbEntity
  8
218
100
AcDbLine
 62
253
  6
CONTINUOUS
 10
154.34747164
 20
108.0774736357
 11
154.1589214828
 21
107.7165773368
  0
LINE
  5
390
100
AcDbEntity
  8
218
100
AcDbLine
 62
253
  6
CONTINUOUS
 10
153.781821247
 20
106.4682407064
 11
153.5932711291
 21
106.1073444279
  0
LINE
  5
391
100
AcDbEntity
  8
218
100
AcDbLine
 62
253
  6
CONTINUOUS
 10
159.4283400642
 20
115.5384474957
 11
160.0196232937
 21
116.4630394111
  0
LINE
  5
392
100
AcDbEntity
  8
218
100
AcDbLine
 62
253
  6
CONTINUOUS
 10
153.781821247
 20
101.8609855583
 11
153.9703713649
 21
102.0902460383
  0
LINE
  5
393
100
AcDbEntity
  8
218
100
AcDbLine
 62
253
  6
CONTINUOUS
 10
164.8885478092
 20
118.2642688954
 11
164.7893108947
 21
118.1510285509
  0
LINE
  5
394
100
AcDbEntity
  8
218
100
AcDbLine
 62
253
  6
CONTINUOUS
 10
153.5932711291
 20
102.9480837235
 11
154.913122033
 21
104.1579999479
  0
LINE
  5
395
100
AcDbEntity
  8
218
100
AcDbLine
 62
253
  6
CONTINUOUS
 10
153.9703713649
 20
102.0902460383
 11
154.5360217579
 21
102.3831201028
  0
LINE
  5
396
100
AcDbEntity
  8
218
100
AcDbLine
 62
253
  6
CONTINUOUS
 10
154.5360217579
 20
101.461669183
 11
153.9703713649
 21
101.1687951185
  0
LINE
  5
397
100
AcDbEntity
  8
218
100
AcDbLine
 62
253
  6
CONTINUOUS
 10
153.5932711291
 20
100.4470022867
 11
154.913122033
 21
101.130375097
  0
LINE
  5
398
100
AcDbEntity
  8
218
100
AcDbLine
 62
253
  6
CONTINUOUS
 10
158.8847726596
 20
101.2125893635
 11
151.0925009955
 21
97.1780226028
  0
LWPOLYLINE
  5
399
100
AcDbEntity
  8
DRAFT
100
AcDbPolyline
 62
7
  6
CONTINUOUS
 90
14
 70
0
 10
131.6838917145
 20
90.1870050501
 10
131.9493040662
 20
90.281738855
 10
132.3830048811
 20
90.41155828
 10
132.8136916873
 20
90.5151778665
 10
133.2405338951
 20
90.5924435065
 10
133.6610397353
 20
90.6428928765
 10
134.0753179733
 20
90.6663686864
 10
134.4832598438
 20
90.6630282264
 10
134.8820472815
 20
90.6328810433
 10
135.2715274903
 20
90.5757444522
 10
135.6518532664
 20
90.491801138
 10
136.0206649331
 20
90.3816087028
 10
136.377870114
 20
90.245037547
 10
136.6090200499
 20
90.1396983145
  0
LWPOLYLINE
  5
39A
100
AcDbEntity
  8
RACCORDO
100
AcDbPolyline
 62
253
  6
CONTINUOUS
 90
39
 70
0
 10
129.9838917145
 20
91.1365001155
 10
129.8601803136
 20
91.0953854134
 10
129.4281019979
 20
90.9273879105
 10
128.9937847112
 20
90.7341603266
 10
128.5586403883
 20
90.5162227616
 10
128.1243493954
 20
90.2744167334
 10
127.6923255311
 20
90.0096375188
 10
127.2629437169
 20
89.7222232
 10
126.8363289365
 20
89.4122575737
 10
126.4128809476
 20
89.0799221855
 10
125.9939964376
 20
88.7262031124
 10
125.5812765996
 20
88.3524513073
 10
125.1760238639
 20
87.9599556655
 10
124.7785854951
 20
87.5491636136
 10
124.3891145391
 20
87.1202345257
 10
124.0080174362
 20
86.6735036209
 10
123.6365538503
 20
86.2103322756
 10
123.2761218666
 20
85.7324651581
 10
122.9276878713
 20
85.2412903506
 10
122.5916828543
 20
84.7375256182
 10
122.2686254684
 20
84.222007765
 10
121.9591760177
 20
83.6958309988
 10
121.6639489574
 20
83.1600823942
 10
121.3833903335
 20
82.6155858834
 10
121.1180265166
 20
82.0633355314
 10
120.868478529
 20
81.5045946664
 10
120.6353034187
 20
80.9406037014
 10
120.4189794706
 20
80.3725216266
 10
120.2199561367
 20
79.8015310512
 10
120.0386772875
 20
79.2289243227
 10
119.8755231916
 20
78.6559498073
 10
119.7307977448
 20
78.0837271392
 10
119.6047712736
 20
77.5133568601
 10
119.4976972619
 20
76.9460020881
 10
119.4097956721
 20
76.3828471272
 10
119.3412395283
 20
75.8250157342
 10
119.292168916
 20
75.2736467177
 10
119.2626863577
 20
74.7298904963
 10
119.2528521791
 20
74.1948691068
  0
LINE
  5
39B
100
AcDbEntity
  8
218
100
AcDbLine
 62
253
  6
CONTINUOUS
 10
164.9877847237
 20
117.5114838878
 11
164.2931263532
 21
117.3992498283
  0
LINE
  5
39C
100
AcDbEntity
  8
218
100
AcDbLine
 62
253
  6
CONTINUOUS
 10
154.5360217579
 20
109.6230925412
 11
154.7245718955
 21
109.5890809947
  0
LWPOLYLINE
  5
39D
100
AcDbEntity
  8
0
100
AcDbPolyline
 62
253
  6
CONTINUOUS
 90
24
 70
0
 10
130.2328509505
 20
119.2029410458
 10
130.2989693821
 20
119.1731743942
 10
130.3709485347
 20
119.1470264365
 10
130.4479997897
 20
119.1247836551
 10
130.5292789574
 20
119.1066897466
 10
130.6138955262
 20
119.0929429517
 10
130.7009224192
 20
119.0836938831
 10
130.7894061517
 20
119.0790438756
 10
130.8783772773
 20
119.0790438756
 10
130.9668610098
 20
119.0836938831
 10
131.0538879028
 20
119.0929429517
 10
131.1385044716
 20
119.1066897466
 10
131.2197836393
 20
119.1247836551
 10
131.2968348943
 20
119.1470264365
 10
131.3688140469
 20
119.1731743942
 10
131.4349324785
 20
119.2029410458
 10
131.4944657817
 20
119.2360002617
 10
131.5467616973
 20
119.271989838
 10
131.5912472601
 20
119.3105154655
 10
131.627435077
 20
119.3511550493
 10
131.6549286668
 20
119.3934633337
 10
131.673426804
 20
119.4369767802
 10
131.682726819
 20
119.4812186464
 10
131.6838917145
 20
119.5034614278
  0
LWPOLYLINE
  5
39E
100
AcDbEntity
  8
217
100
AcDbPolyline
 62
7
  6
CONTINUOUS
 90
85
 70
0
 10
135.81585794
 20
118.5736325793
 10
135.8899885298
 20
118.5374642351
 10
135.9635462842
 20
118.5031591193
 10
136.0365312251
 20
118.4707172421
 10
136.1087569828
 20
118.4402276756
 10
136.1804100112
 20
118.4116013885
 10
136.2520495883
 20
118.3845712469
 10
136.3236991698
 20
118.3590762225
 10
136.3953354665
 20
118.3351774239
 10
136.4674476713
 20
118.3127909377
 10
136.5401386543
 20
118.2918469839
 10
136.6133058259
 20
118.2724154781
 10
136.6871302471
 20
118.2546220772
 10
136.7618004856
 20
118.2384262775
 10
136.8371284154
 20
118.2238687963
 10
136.9127301166
 20
118.2111971499
 10
136.9886197061
 20
118.2004369715
 10
137.064783655
 20
118.1915629119
 10
137.1407966085
 20
118.184746031
 10
137.2166298277
 20
118.1800225201
 10
137.292312759
 20
118.1773565292
 10
137.3675073296
 20
118.1768110581
 10
137.442226585
 20
118.1784189916
 10
137.5164582726
 20
118.1821478269
 10
137.5898263309
 20
118.1879624622
 10
137.662342112
 20
118.1959033476
 10
137.7339950618
 20
118.205930417
 10
137.8043761404
 20
118.2178877363
 10
137.873447093
 20
118.2318116799
 10
137.9412468587
 20
118.247666202
 10
138.0074819987
 20
118.2651866464
 10
138.071965388
 20
118.2843198564
 10
138.134884619
 20
118.3051192122
 10
138.196508231
 20
118.3274798159
 10
138.2567586774
 20
118.3513211435
 10
138.3157140183
 20
118.3767239641
 10
138.373876336
 20
118.4038253832
 10
138.4313995219
 20
118.4326589749
 10
138.4881305209
 20
118.4631915647
 10
138.5441111461
 20
118.4954602071
 10
138.5994130073
 20
118.5295041881
 10
138.6539654215
 20
118.5652846641
 10
138.7075967383
 20
118.6027214827
 10
138.760301538
 20
118.6418395595
 10
138.8120860944
 20
118.6826143855
 10
138.8627961659
 20
118.7248916082
 10
138.9123761807
 20
118.7686253224
 10
138.960882409
 20
118.8138617643
 10
139.0083282913
 20
118.860584755
 10
139.0546018145
 20
118.9086319276
 10
139.0998156727
 20
118.9581659709
 10
139.1443206278
 20
119.0096584135
 10
139.1882055606
 20
119.0631338634
 10
139.2313829153
 20
119.1185683411
 10
139.2739392639
 20
119.176360716
 10
139.3160164983
 20
119.2366957595
 10
139.3574745946
 20
119.2993895858
 10
139.3979773245
 20
119.3642881127
 10
139.4375220466
 20
119.4314620359
 10
139.4761130416
 20
119.500841434
 10
139.5134240832
 20
119.5720611173
 10
139.5494177602
 20
119.6451329323
 10
139.5841326569
 20
119.720045583
 10
139.6173560398
 20
119.7963989271
 10
139.6490520022
 20
119.8741911457
 10
139.6792571379
 20
119.9534243756
 10
139.7078669818
 20
120.0337041784
 10
139.7348630095
 20
120.1150771839
 10
139.7602639996
 20
120.1974968741
 10
139.7840209213
 20
120.2804288432
 10
139.8061069094
 20
120.3638800321
 10
139.8265484901
 20
120.4478433309
 10
139.8453761534
 20
120.5317629889
 10
139.8625378083
 20
120.6154235344
 10
139.8780845873
 20
120.6990399783
 10
139.8922016358
 20
120.7827022089
 10
139.9048979526
 20
120.8662536539
 10
139.9161638159
 20
120.9498505371
 10
139.9261566955
 20
121.0340521332
 10
139.9349179597
 20
121.1188072045
 10
139.9424061857
 20
121.2041669559
 10
139.9486553215
 20
121.2908446383
 10
139.9536770652
 20
121.3790781793
 10
139.9574604705
 20
121.4686299973
 10
139.9600058777
 20
121.5595002484
  0
LWPOLYLINE
  5
39F
100
AcDbEntity
  8
217
100
AcDbPolyline
 62
253
  6
CONTINUOUS
 90
13
 70
0
 10
131.8282778943
 20
125.6253642364
 10
131.976713149
 20
125.4827632118
 10
132.1302939342
 20
125.3412829641
 10
132.2889838299
 20
125.2009678701
 10
132.4527835918
 20
125.0618313097
 10
132.6216204791
 20
124.9239502991
 10
132.7953374318
 20
124.7874621807
 10
132.9738861604
 20
124.6524099366
 10
133.1572192298
 20
124.5188358778
 10
133.3451615009
 20
124.386870422
 10
133.5376121771
 20
124.2565820868
 10
133.7345551164
 20
124.1279810267
 10
133.9359328751
 20
124.0011069357
  0
LINE
  5
3A0
100
AcDbEntity
  8
218
100
AcDbLine
 62
253
  6
CONTINUOUS
 10
153.5932711291
 20
106.1073444279
 11
153.5932711291
 21
105.7124365927
  0
LINE
  5
3A1
100
AcDbEntity
  8
218
100
AcDbLine
 62
253
  6
CONTINUOUS
 10
153.5932711291
 20
101.3684532614
 11
153.5932711291
 21
101.5000891699
  0
LINE
  5
3A2
100
AcDbEntity
  8
218
100
AcDbLine
 62
253
  6
CONTINUOUS
 10
153.5932711291
 20
106.8971596589
 11
153.5932711291
 21
107.6869748899
  0
LINE
  5
3A3
100
AcDbEntity
  8
218
100
AcDbLine
 62
253
  6
CONTINUOUS
 10
153.5932711291
 20
108.6084259195
 11
153.5932711291
 21
108.7400612787
  0
LINE
  5
3A4
100
AcDbEntity
  8
218
100
AcDbLine
 62
253
  6
CONTINUOUS
 10
154.1589214828
 20
107.7165773368
 11
154.1589214828
 21
107.190033703
  0
LINE
  5
3A5
100
AcDbEntity
  8
218
100
AcDbLine
 62
253
  6
CONTINUOUS
 10
154.5360217579
 20
103.0851779882
 11
154.5360217579
 21
103.7872360934
  0
LINE
  5
3A6
100
AcDbEntity
  8
218
100
AcDbLine
 62
253
  6
CONTINUOUS
 10
154.9022351927
 20
127.4449823188
 11
154.9022351927
 21
124.8469061074
  0
LINE
  5
3A7
100
AcDbEntity
  8
218
100
AcDbLine
 62
253
  6
CONTINUOUS
 10
154.9022351927
 20
122.2488298961
 11
154.9022351927
 21
119.6507536847
  0
LINE
  5
3A8
100
AcDbEntity
  8
218
100
AcDbLine
 62
253
  6
CONTINUOUS
 10
154.9022351927
 20
117.9187028771
 11
154.9022351927
 21
118.7847282809
  0
LINE
  5
3A9
100
AcDbEntity
  8
218
100
AcDbLine
 62
253
  6
CONTINUOUS
 10
154.913122033
 20
109.4234340891
 11
154.913122033
 21
109.2917987298
  0
LINE
  5
3AA
100
AcDbEntity
  8
218
100
AcDbLine
 62
253
  6
CONTINUOUS
 10
154.913122033
 20
107.0539888354
 11
154.913122033
 21
106.1325378058
  0
LINE
  5
3AB
100
AcDbEntity
  8
218
100
AcDbLine
 62
253
  6
CONTINUOUS
 10
154.913122033
 20
102.1834619802
 11
154.913122033
 21
102.0518260717
  0
LINE
  5
3AC
100
AcDbEntity
  8
218
100
AcDbLine
 62
253
  6
CONTINUOUS
 10
154.913122033
 20
107.5805324692
 11
154.913122033
 21
108.107076103
  0
LINE
  5
3AD
100
AcDbEntity
  8
217
100
AcDbLine
 62
253
  6
CONTINUOUS
 10
155.6482137544
 20
135.6045646195
 11
155.6482137544
 21
135.1072346625
  0
LINE
  5
3AE
100
AcDbEntity
  8
217
100
AcDbLine
 62
253
  6
CONTINUOUS
 10
155.6482137544
 20
98.5441452151
 11
155.6482137544
 21
98.2511994543
  0
LINE
  5
3AF
100
AcDbEntity
  8
217
100
AcDbLine
 62
7
  6
CONTINUOUS
 10
155.7885438543
 20
135.9050691282
 11
155.7885438543
 21
135.2834987361
  0
LINE
  5
3B0
100
AcDbEntity
  8
217
100
AcDbLine
 62
7
  6
CONTINUOUS
 10
155.7885438543
 20
98.6183540835
 11
155.7885438543
 21
98.2980241308
  0
LINE
  5
3B1
100
AcDbEntity
  8
218
100
AcDbLine
 62
7
  6
CONTINUOUS
 10
158.8291102707
 20
133.712360257
 11
158.8291975224
 21
133.7129494873
  0
LWPOLYLINE
  5
3B2
100
AcDbEntity
  8
218
100
AcDbPolyline
 62
7
  6
CONTINUOUS
 90
41
 70
0
 10
158.829206842
 20
133.7130121005
 10
158.8294577958
 20
133.7143560137
 10
158.8298708373
 20
133.7161928049
 10
158.8304388148
 20
133.7183695187
 10
158.8312131504
 20
133.7209798123
 10
158.832302154
 20
133.7242309277
 10
158.8337615756
 20
133.7281166986
 10
158.8356750848
 20
133.7327046351
 10
158.8382630335
 20
133.7383360959
 10
158.8418191891
 20
133.7453958667
 10
158.8463529355
 20
133.7536353859
 10
158.8516087036
 20
133.7623682862
 10
158.8575665421
 20
133.7714672497
 10
158.8643162951
 20
133.7810121518
 10
158.8714396117
 20
133.7904233056
 10
158.8785080802
 20
133.7992383469
 10
158.8854753363
 20
133.8075029911
 10
158.892440108
 20
133.8153956047
 10
158.8993310207
 20
133.82287452
 10
158.9060280445
 20
133.8298501796
 10
158.9126911992
 20
133.8365191845
 10
158.9193098075
 20
133.8428863882
 10
158.9257991127
 20
133.8488911619
 10
158.9322337716
 20
133.8546326151
 10
158.9385406249
 20
133.8600705579
 10
158.9446757353
 20
133.8651906576
 10
158.9507656778
 20
133.8701137189
 10
158.9567770833
 20
133.8748206633
 10
158.9626316557
 20
133.8792593367
 10
158.9683758293
 20
133.8834724375
 10
158.9739315822
 20
133.8874085529
 10
158.9792245088
 20
133.8910236586
 10
158.9843132117
 20
133.8943676369
 10
158.9891167253
 20
133.8974005769
 10
158.9936596599
 20
133.9001552255
 10
158.998147301
 20
133.9027669392
 10
159.0024591307
 20
133.9051774203
 10
159.0066385461
 20
133.9074312573
 10
159.0110999454
 20
133.9097687306
 10
159.0158613515
 20
133.9122122927
 10
159.0261552247
 20
133.9174400584
  0
LWPOLYLINE
  5
3B3
100
AcDbEntity
  8
217
100
AcDbPolyline
 62
253
  6
CONTINUOUS
 90
31
 70
0
 10
150.5601079955
 20
91.922699812
 10
150.5644511368
 20
91.9349233929
 10
150.5682989458
 20
91.9473565833
 10
150.5716405145
 20
91.9599656424
 10
150.5744665388
 20
91.9727174863
 10
150.5767685387
 20
91.9855762452
 10
150.5785393711
 20
91.9985032789
 10
150.5797741021
 20
92.0114619723
 10
150.580469565
 20
92.0244182351
 10
150.5806238578
 20
92.037337006
 10
150.580236508
 20
92.0501832113
 10
150.5793085262
 20
92.0629215432
 10
150.5778424499
 20
92.0755168887
 10
150.5758423042
 20
92.0879347331
 10
150.5733135413
 20
92.1001412736
 10
150.5702630601
 20
92.1121031982
 10
150.5666991828
 20
92.1237878512
 10
150.5626316444
 20
92.1351632956
 10
150.5580715632
 20
92.1461984319
 10
150.5530313986
 20
92.1568631102
 10
150.547524914
 20
92.1671282102
 10
150.5415671498
 20
92.1769656932
 10
150.5351743694
 20
92.1863487032
 10
150.5283640426
 20
92.195251596
 10
150.5211548047
 20
92.2036500174
 10
150.5135663753
 20
92.2115210127
 10
150.5056194652
 20
92.2188431164
 10
150.4973357483
 20
92.2255963649
 10
150.4887378377
 20
92.231762322
 10
150.479849229
 20
92.2373241365
 10
150.4706942001
 20
92.242266618
  0
LINE
  5
3B4
100
AcDbEntity
  8
218
100
AcDbLine
 62
253
  6
CONTINUOUS
 10
164.5908370657
 20
121.5123673845
 11
164.5412186343
 21
121.4041979813
  0
LINE
  5
3B5
100
AcDbEntity
  8
218
100
AcDbLine
 62
253
  6
CONTINUOUS
 10
153.5932711291
 20
101.5000891699
 11
153.781821247
 21
101.8609855583
  0
LINE
  5
3B6
100
AcDbEntity
  8
218
100
AcDbLine
 62
253
  6
CONTINUOUS
 10
154.913122033
 20
102.0518260717
 11
154.7245718955
 21
101.6909296731
  0
LINE
  5
3B7
100
AcDbEntity
  8
218
100
AcDbLine
 62
253
  6
CONTINUOUS
 10
164.5908370657
 20
121.6979443747
 11
164.6900739905
 21
121.8730436525
  0
LINE
  5
3B8
100
AcDbEntity
  8
218
100
AcDbLine
 62
253
  6
CONTINUOUS
 10
164.9877847237
 20
121.7178930509
 11
164.8885478092
 21
121.5427937784
  0
LINE
  5
3B9
100
AcDbEntity
  8
218
100
AcDbLine
 62
253
  6
CONTINUOUS
 10
164.3923632574
 20
120.358002168
 11
164.2931263532
 21
120.1829029009
  0
LINE
  5
3BA
100
AcDbEntity
  8
218
100
AcDbLine
 62
253
  6
CONTINUOUS
 10
164.6900739905
 20
119.8316979989
 11
164.5908370657
 21
119.6565985146
  0
LINE
  5
3BB
100
AcDbEntity
  8
218
100
AcDbLine
 62
253
  6
CONTINUOUS
 10
164.2931263532
 20
118.8220058673
 11
164.3923632574
 21
118.9971051344
  0
LINE
  5
3BC
100
AcDbEntity
  8
218
100
AcDbLine
 62
253
  6
CONTINUOUS
 10
164.2931263532
 20
118.1415573505
 11
164.3923632574
 21
118.3166566176
  0
LINE
  5
3BD
100
AcDbEntity
  8
218
100
AcDbLine
 62
253
  6
CONTINUOUS
 10
164.9877847237
 20
119.1198167363
 11
164.8885478092
 21
118.9447174639
  0
LINE
  5
3BE
100
AcDbEntity
  8
218
100
AcDbLine
 62
253
  6
CONTINUOUS
 10
164.9877847237
 20
118.4393682195
 11
164.8885478092
 21
118.2642688954
  0
LWPOLYLINE
  5
3BF
100
AcDbEntity
  8
218
100
AcDbPolyline
 62
7
  6
CONTINUOUS
 90
7
 70
0
 10
165.5545088491
 20
117.6475028721
 10
165.5695058559
 20
117.6717856525
 10
165.585681346
 20
117.6949591788
 10
165.6030353193
 20
117.7170234511
 10
165.621567776
 20
117.7379784693
 10
165.641278716
 20
117.7578242335
 10
165.6621681392
 20
117.7765607436
  0
LINE
  5
3C0
100
AcDbEntity
  8
218
100
AcDbLine
 62
253
  6
CONTINUOUS
 10
154.7245718955
 20
101.6909296731
 11
154.5360217579
 21
101.461669183
  0
LINE
  5
3C1
100
AcDbEntity
  8
217
100
AcDbLine
 62
253
  6
CONTINUOUS
 10
148.788744453
 20
91.8413628862
 11
148.1664264209
 21
91.0963034687
  0
LINE
  5
3C2
100
AcDbEntity
  8
217
100
AcDbLine
 62
253
  6
CONTINUOUS
 10
149.141780641
 20
91.7155930482
 11
148.4305600329
 21
90.8640965711
  0
LINE
  5
3C3
100
AcDbEntity
  8
218
100
AcDbLine
 62
253
  6
CONTINUOUS
 10
158.5111045775
 20
100.2945632341
 11
158.568174194
 21
100.3406553266
  0
LWPOLYLINE
  5
3C4
100
AcDbEntity
  8
218
100
AcDbPolyline
 62
7
  6
CONTINUOUS
 90
13
 70
0
 10
158.5782154121
 20
100.3362891536
 10
158.6575339861
 20
100.3988105793
 10
158.7328824966
 20
100.4687921801
 10
158.8035652102
 20
100.5460644888
 10
158.868841815
 20
100.6302808818
 10
158.9281589159
 20
100.7211894464
 10
158.9811352916
 20
100.8187880088
 10
159.0273023619
 20
100.9230081334
 10
159.0659993183
 20
101.0332536159
 10
159.0967055139
 20
101.1489123187
 10
159.1190595688
 20
101.2696308028
 10
159.1327308971
 20
101.3951698441
 10
159.1373668392
 20
101.5251856302
  0
LINE
  5
3C5
100
AcDbEntity
  8
218
100
AcDbLine
 62
7
  6
CONTINUOUS
 10
157.203437254
 20
99.5140471669
 11
156.4507431701
 21
98.9685359898
  0
LINE
  5
3C6
100
AcDbEntity
  8
218
100
AcDbLine
 62
253
  6
CONTINUOUS
 10
158.0568567683
 20
99.9653494641
 11
158.5111045775
 21
100.2945632341
  0
LINE
  5
3C7
100
AcDbEntity
  8
218
100
AcDbLine
 62
7
  6
CONTINUOUS
 10
158.1271299744
 20
100.0093672961
 11
158.5782154121
 21
100.3362891536
  0
LWPOLYLINE
  5
3C8
100
AcDbEntity
  8
218
100
AcDbPolyline
 62
7
  6
CONTINUOUS
 90
3
 70
0
 10
158.0568567683
 20
99.9653494641
 10
158.1132486137
 20
99.999541476
 10
158.1259829553
 20
100.0085362336
  0
LWPOLYLINE
  5
3C9
100
AcDbEntity
  8
218
100
AcDbPolyline
 62
253
  6
CONTINUOUS
 90
3
 70
0
 10
158.5111045775
 20
100.2945632341
 10
158.5635545117
 20
100.3260190462
 10
158.5782154121
 20
100.3362891536
  0
LWPOLYLINE
  5
3CA
100
AcDbEntity
  8
218
100
AcDbPolyline
 62
253
  6
CONTINUOUS
 90
10
 70
0
 10
158.8847726596
 20
101.2125893635
 10
158.9362486902
 20
101.2416524936
 10
158.9825232764
 20
101.2728258255
 10
159.0232520185
 20
101.3058773512
 10
159.0581317919
 20
101.3405610839
 10
159.0869030031
 20
101.376618889
 10
159.1093515215
 20
101.4137824056
 10
159.1253102738
 20
101.4517750433
 10
159.1346604863
 20
101.4903140409
 10
159.1373668392
 20
101.5251856302
  0
LINE
  5
3CB
100
AcDbEntity
  8
218
100
AcDbLine
 62
7
  6
CONTINUOUS
 10
158.0568567683
 20
99.9653494641
 11
157.203437254
 21
99.5140471669
  0
LINE
  5
3CC
100
AcDbEntity
  8
218
100
AcDbLine
 62
7
  6
CONTINUOUS
 10
156.4507431701
 20
98.9685359898
 11
151.0925009955
 21
96.1350092639
  0
LINE
  5
3CD
100
AcDbEntity
  8
218
100
AcDbLine
 62
253
  6
CONTINUOUS
 10
158.5111045775
 20
100.2945632341
 11
151.0925009955
 21
96.3790073739
  0
LWPOLYLINE
  5
3CE
100
AcDbEntity
  8
217
100
AcDbPolyline
 62
253
  6
CONTINUOUS
 90
34
 70
0
 10
144.1957476408
 20
91.3621826751
 10
144.1784533091
 20
91.353379119
 10
144.1604278479
 20
91.3449934559
 10
144.1417111893
 20
91.3370442629
 10
144.1223447964
 20
91.3295491498
 10
144.1023715719
 20
91.3225247206
 10
144.0818357626
 20
91.3159865366
 10
144.0607828618
 20
91.3099490819
 10
144.0392595081
 20
91.3044257315
 10
144.0173133825
 20
91.2994287211
 10
143.9949931025
 20
91.2949691208
 10
143.9723481144
 20
91.2910568099
 10
143.949428584
 20
91.2877004554
 10
143.9262852851
 20
91.2849074928
 10
143.9029694873
 20
91.2826841092
 10
143.8795328424
 20
91.2810352302
 10
143.8560272698
 20
91.2799645085
 10
143.8325048416
 20
91.2794743162
 10
143.8090176674
 20
91.2795657391
 10
143.7856177786
 20
91.2802385747
 10
143.7623570131
 20
91.2814913325
 10
143.7392869009
 20
91.2833212373
 10
143.7164585493
 20
91.2857242351
 10
143.6939225303
 20
91.2886950027
 10
143.6717287682
 20
91.2922269589
 10
143.6499264291
 20
91.2963122793
 10
143.6285638118
 20
91.3009419136
 10
143.6076882413
 20
91.3061056057
 10
143.5873459635
 20
91.3117919165
 10
143.5675820427
 20
91.317988249
 10
143.5484402623
 20
91.3246808765
 10
143.5299630271
 20
91.3318549726
 10
143.5121912702
 20
91.3394946445
 10
143.4951643613
 20
91.347582968
  0
LINE
  5
3CF
100
AcDbEntity
  8
217
100
AcDbLine
 62
7
  6
CONTINUOUS
 10
154.7666782959
 20
97.6917704102
 11
151.0925009955
 21
95.8475378709
  0
LINE
  5
3D0
100
AcDbEntity
  8
217
100
AcDbLine
 62
7
  6
CONTINUOUS
 10
155.6482137544
 20
98.2511994543
 11
151.0925009955
 21
95.9915323407
  0
LINE
  5
3D1
100
AcDbEntity
  8
217
100
AcDbLine
 62
253
  6
CONTINUOUS
 10
144.8769353001
 20
90.861867007
 11
150.3746245726
 21
93.169573655
  0
LINE
  5
3D2
100
AcDbEntity
  8
218
100
AcDbLine
 62
253
  6
CONTINUOUS
 10
164.8389293571
 20
120.8366544528
 11
164.2931263532
 21
120.7396334586
  0
LWPOLYLINE
  5
3D3
100
AcDbEntity
  8
218
100
AcDbPolyline
 62
7
  6
CONTINUOUS
 90
7
 70
0
 10
165.6622412166
 20
119.3303941702
 10
165.6411424534
 20
119.3275266921
 10
165.6213010376
 20
119.3269776313
 10
165.6027169693
 20
119.3287469878
 10
165.5853902484
 20
119.3328347615
 10
165.569320875
 20
119.3392409526
 10
165.5545088491
 20
119.347965561
  0
LWPOLYLINE
  5
3D4
100
AcDbEntity
  8
217
100
AcDbPolyline
 62
7
  6
CONTINUOUS
 90
18
 70
0
 10
135.2992203505
 20
121.507964764
 10
135.2524917049
 20
121.5323089639
 10
135.2058106157
 20
121.5585854976
 10
135.159232844
 20
121.5867665543
 10
135.1128034092
 20
121.6168303131
 10
135.0665891245
 20
121.6487362316
 10
135.0206776883
 20
121.6824211554
 10
134.9751543222
 20
121.7178198154
 10
134.9300421682
 20
121.7549110279
 10
134.8853356614
 20
121.7936972994
 10
134.8410534941
 20
121.834171197
 10
134.7972869105
 20
121.876257572
 10
134.7541377924
 20
121.919855403
 10
134.7116911556
 20
121.9648756331
 10
134.6699623079
 20
122.0112980048
 10
134.6289473301
 20
122.0591223492
 10
134.5886704957
 20
122.1083290229
 10
134.558193225
 20
122.1473341002
  0
LWPOLYLINE
  5
3D5
100
AcDbEntity
  8
0
100
AcDbPolyline
 62
253
  6
CONTINUOUS
 90
25
 70
0
 10
132.2481052769
 20
122.6787406098
 10
132.3109311443
 20
122.643295125
 10
132.3730686784
 20
122.6001728861
 10
132.4338370873
 20
122.5498463494
 10
132.4925705796
 20
122.492866903
 10
132.5486256589
 20
122.4298588256
 10
132.601388174
 20
122.3615124469
 10
132.6502800477
 20
122.2885765841
 10
132.6947656105
 20
122.2118503378
 10
132.7343574693
 20
122.1321743368
 10
132.7686218472
 20
122.050421528
 10
132.7971833367
 20
121.9674876124
 10
132.819729012
 20
121.8842812312
 10
132.8360118581
 20
121.8017140111
 10
132.8458534767
 20
121.7206905756
 10
132.8491460409
 20
121.6420986346
 10
132.8458534767
 20
121.5667992578
 10
132.8360118581
 20
121.4956174409
 10
132.819729012
 20
121.4293330668
 10
132.7971833367
 20
121.368672361
 10
132.7686218472
 20
121.3142999348
 10
132.7343574693
 20
121.266811504
 10
132.6947656105
 20
121.2267273617
 10
132.6502800477
 20
121.1944866782
 10
132.6282368331
 20
121.1823559043
  0
LWPOLYLINE
  5
3D6
100
AcDbEntity
  8
217
100
AcDbPolyline
 62
253
  6
CONTINUOUS
 90
5
 70
0
 10
136.4786328102
 20
123.1075538928
 10
136.4860297729
 20
123.1027187476
 10
136.5112050514
 20
123.087379685
 10
136.5363581447
 20
123.0731591747
 10
136.5614566421
 20
123.0600642147
  0
LINE
  5
3D7
100
AcDbEntity
  8
218
100
AcDbLine
 62
253
  6
CONTINUOUS
 10
153.781821247
 20
108.4427790037
 11
153.5932711291
 21
108.6084259195
  0
LINE
  5
3D8
100
AcDbEntity
  8
218
100
AcDbLine
 62
253
  6
CONTINUOUS
 10
154.913122033
 20
108.107076103
 11
154.7245718955
 21
108.2727230087
  0
LINE
  5
3D9
100
AcDbEntity
  8
218
100
AcDbLine
 62
253
  6
CONTINUOUS
 10
154.7245718955
 20
109.5890809947
 11
154.913122033
 21
109.4234340891
  0
LINE
  5
3DA
100
AcDbEntity
  8
218
100
AcDbLine
 62
7
  6
CONTINUOUS
 10
158.8291971982
 20
139.8700034403
 11
158.8291083918
 21
139.8828194013
  0
LINE
  5
3DB
100
AcDbEntity
  8
218
100
AcDbLine
 62
7
  6
CONTINUOUS
 10
158.8291975224
 20
139.870008686
 11
158.8291975224
 21
138.201342298
  0
LINE
  5
3DC
100
AcDbEntity
  8
218
100
AcDbLine
 62
7
  6
CONTINUOUS
 10
158.8291975224
 20
133.2321341664
 11
158.8291975224
 21
133.71468585
  0
LINE
  5
3DD
100
AcDbEntity
  8
218
100
AcDbLine
 62
253
  6
CONTINUOUS
 10
158.8847726596
 20
101.2125893635
 11
158.8847726596
 21
107.9937624759
  0
LINE
  5
3DE
100
AcDbEntity
  8
218
100
AcDbLine
 62
253
  6
CONTINUOUS
 10
158.8847726596
 20
124.9095745102
 11
158.8847726596
 21
131.8206514331
  0
LINE
  5
3DF
100
AcDbEntity
  8
218
100
AcDbLine
 62
253
  6
CONTINUOUS
 10
159.0471194813
 20
122.9010750923
 11
159.0471194813
 21
121.8822880035
  0
LINE
  5
3E0
100
AcDbEntity
  8
218
100
AcDbLine
 62
7
  6
CONTINUOUS
 10
159.1373668392
 20
101.5251856302
 11
159.1373668392
 21
108.3063587433
  0
LINE
  5
3E1
100
AcDbEntity
  8
218
100
AcDbLine
 62
7
  6
CONTINUOUS
 10
159.1373668392
 20
108.3063588966
 11
159.1373668368
 21
108.3063919989
  0
LINE
  5
3E2
100
AcDbEntity
  8
218
100
AcDbLine
 62
253
  6
CONTINUOUS
 10
159.2600723469
 20
121.9925475773
 11
159.2600723469
 21
122.2507946207
  0
LINE
  5
3E3
100
AcDbEntity
  8
218
100
AcDbLine
 62
253
  6
CONTINUOUS
 10
159.2600723469
 20
122.7743927138
 11
159.2600723469
 21
123.0113346662
  0
LINE
  5
3E4
100
AcDbEntity
  8
218
100
AcDbLine
 62
7
  6
CONTINUOUS
 10
159.1373668392
 20
132.1332476998
 11
159.1373667152
 21
125.2219344831
  0
LINE
  5
3E5
100
AcDbEntity
  8
218
100
AcDbLine
 62
253
  6
CONTINUOUS
 10
158.6608314617
 20
139.6750867366
 11
158.6608014026
 21
137.9929400265
  0
LWPOLYLINE
  5
3E6
100
AcDbEntity
  8
218
100
AcDbPolyline
 62
7
  6
CONTINUOUS
 90
26
 70
0
 10
159.1373619025
 20
108.3063920105
 10
159.137414951
 20
108.3144346813
 10
159.1386886583
 20
108.3481331812
 10
159.1419746448
 20
108.3865740801
 10
159.1476433174
 20
108.4293040486
 10
159.1559174391
 20
108.4754334995
 10
159.1669778829
 20
108.5244684797
 10
159.1809579779
 20
108.5759234337
 10
159.1977904109
 20
108.6288086234
 10
159.2173944212
 20
108.6824656384
 10
159.23967305
 20
108.7363892261
 10
159.2643789097
 20
108.7898190754
 10
159.2912822552
 20
108.8421943125
 10
159.3200877316
 20
108.8929715339
 10
159.3503368517
 20
108.9414593007
 10
159.3816551377
 20
108.9872124943
 10
159.4136037892
 20
109.0298043238
 10
159.4455154304
 20
109.0686512626
 10
159.4769766758
 20
109.103588372
 10
159.5073822148
 20
109.1343116787
 10
159.5356990364
 20
109.1602788551
 10
159.5613539927
 20
109.1815661063
 10
159.5839520711
 20
109.1984454547
 10
159.6028234076
 20
109.2110545923
 10
159.6176213399
 20
109.2198390241
 10
159.6204974981
 20
109.2214138338
  0
LWPOLYLINE
  5
3E7
100
AcDbEntity
  8
218
100
AcDbPolyline
 62
253
  6
CONTINUOUS
 90
22
 70
0
 10
158.8847726596
 20
107.9937624759
 10
158.8874819615
 20
108.0851057345
 10
158.8953760149
 20
108.1778262471
 10
158.9084548195
 20
108.2719240137
 10
158.9268569122
 20
108.3679974204
 10
158.9504437562
 20
108.4654480811
 10
158.9787997418
 20
108.5624808379
 10
159.0119822557
 20
108.6589878266
 10
159.0499339112
 20
108.7550769115
 10
159.0920669376
 20
108.8492765271
 10
159.1384638128
 20
108.9415971813
 10
159.1890420589
 20
109.0320283663
 10
159.2429664721
 20
109.1190669931
 10
159.3002850746
 20
109.2026433883
 10
159.3609498441
 20
109.2828272254
 10
159.4239815105
 20
109.3583244362
 10
159.4894036764
 20
109.4290540998
 10
159.5571927392
 20
109.495097137
 10
159.6262986199
 20
109.5554022421
 10
159.6963712922
 20
109.6096189798
 10
159.7677607825
 20
109.6580977852
 10
159.8404670908
 20
109.7008386585
  0
LWPOLYLINE
  5
3E8
100
AcDbEntity
  8
218
100
AcDbPolyline
 62
253
  6
CONTINUOUS
 90
3
 70
0
 10
158.8291083918
 20
139.8828194013
 10
158.8285685227
 20
139.86820398
 10
158.8226952672
 20
139.8378854746
  0
LINE
  5
3E9
100
AcDbEntity
  8
218
100
AcDbLine
 62
253
  6
CONTINUOUS
 10
158.8291975223
 20
139.8700034399
 11
158.8286415799
 21
139.8570972388
  0
LWPOLYLINE
  5
3EA
100
AcDbEntity
  8
218
100
AcDbPolyline
 62
253
  6
CONTINUOUS
 90
9
 70
0
 10
158.8291975224
 20
138.2013426878
 10
158.8286419101
 20
138.1884346839
 10
158.8227619925
 20
138.1575204622
 10
158.8105222714
 20
138.1270754374
 10
158.792053791
 20
138.0974258589
 10
158.7675544256
 20
138.0688896598
 10
158.7372866778
 20
138.0417726758
 10
158.7015747995
 20
138.0163653799
 10
158.6608014026
 20
137.9929400108
  0
LWPOLYLINE
  5
3EB
100
AcDbEntity
  8
218
100
AcDbPolyline
 62
253
  6
CONTINUOUS
 90
9
 70
0
 10
158.8291975224
 20
133.7146858426
 10
158.8286419245
 20
133.7017783994
 10
158.8227620391
 20
133.6708652712
 10
158.8105223424
 20
133.6404215859
 10
158.7920538738
 20
133.6107735815
 10
158.7675545076
 20
133.5822389002
 10
158.7372867467
 20
133.5551232816
 10
158.7015748412
 20
133.5297172972
 10
158.6674819921
 20
133.5101311479
  0
LWPOLYLINE
  5
3EC
100
AcDbEntity
  8
218
100
AcDbPolyline
 62
253
  6
CONTINUOUS
 90
27
 70
0
 10
158.6612764058
 20
133.520834201
 10
158.661579906
 20
133.5262251743
 10
158.6624919786
 20
133.5363223158
 10
158.6637664933
 20
133.5465403698
 10
158.6653895553
 20
133.5568458506
 10
158.6673194805
 20
133.5671383013
 10
158.6695456273
 20
133.5773816749
 10
158.6720786371
 20
133.5876120184
 10
158.6749087506
 20
133.597837016
 10
158.6780323271
 20
133.608042209
 10
158.6814530071
 20
133.6182420561
 10
158.6851719533
 20
133.6284876178
 10
158.6891770703
 20
133.6387586772
 10
158.6934804534
 20
133.6490754512
 10
158.6981195509
 20
133.6595496509
 10
158.7030757451
 20
133.6701867162
 10
158.7083676538
 20
133.6809812073
 10
158.714088578
 20
133.6920285157
 10
158.7202553792
 20
133.7033601173
 10
158.726851196
 20
133.7149445363
 10
158.733918745
 20
133.7267827357
 10
158.7414441853
 20
133.7388529762
 10
158.7494413579
 20
133.7511769972
 10
158.7579945025
 20
133.7638209805
 10
158.76711466
 20
133.776825371
 10
158.7767907894
 20
133.7901497237
 10
158.7870740069
 20
133.8037388855
  0
LWPOLYLINE
  5
3ED
100
AcDbEntity
  8
218
100
AcDbPolyline
 62
253
  6
CONTINUOUS
 90
4
 70
0
 10
159.1373667152
 20
125.2219344831
 10
159.1346610757
 20
125.1873029784
 10
159.1253114036
 20
125.1487636051
 10
159.1093530356
 20
125.1107705129
  0
LWPOLYLINE
  5
3EE
100
AcDbEntity
  8
218
100
AcDbPolyline
 62
253
  6
CONTINUOUS
 90
50
 70
0
 10
162.2163166517
 20
119.8039018676
 10
162.2177469164
 20
119.8116292505
 10
162.2192548802
 20
119.8192526076
 10
162.2208383312
 20
119.8267759373
 10
162.2224950577
 20
119.8342032381
 10
162.2242228476
 20
119.8415385085
 10
162.2260194891
 20
119.8487857469
 10
162.228263659
 20
119.8573729193
 10
162.2306025488
 20
119.8658523452
 10
162.2330349176
 20
119.874237286
 10
162.2355595241
 20
119.8825410034
 10
162.2381751272
 20
119.890776759
 10
162.2404247766
 20
119.8975959388
 10
162.2427442237
 20
119.9043751931
 10
162.2451409361
 20
119.9111125828
 10
162.2476244619
 20
119.9178111134
 10
162.2502126701
 20
119.9244935705
 10
162.25292551
 20
119.9311876844
 10
162.2550525789
 20
119.9362281353
 10
162.2572612811
 20
119.9412756457
 10
162.2595519232
 20
119.9463151198
 10
162.2619248117
 20
119.9513314618
 10
162.2643799623
 20
119.9563085905
 10
162.2669162281
 20
119.9612264833
 10
162.2695336466
 20
119.9660674082
 10
162.2722381565
 20
119.9708267374
 10
162.2750374985
 20
119.9755028242
 10
162.2779407231
 20
119.9800928426
 10
162.2809530228
 20
119.9845934476
 10
162.284062852
 20
119.9890003999
 10
162.2872545355
 20
119.9933096833
 10
162.2905126186
 20
119.9975190691
 10
162.2938227593
 20
120.0016289235
 10
162.2971748433
 20
120.0056482037
 10
162.3016967797
 20
120.0108836184
 10
162.3062731134
 20
120.0159925226
 10
162.3108997776
 20
120.020989685
 10
162.3155724068
 20
120.025887096
 10
162.3202854418
 20
120.0306856339
 10
162.3250330248
 20
120.0353833989
 10
162.3298105938
 20
120.0399802801
 10
162.3346187692
 20
120.0444833228
 10
162.3394594668
 20
120.0489013611
 10
162.3443341505
 20
120.0532418265
 10
162.3492424748
 20
120.0575065395
 10
162.3541836419
 20
120.0616959181
 10
162.3616556432
 20
120.0678399882
 10
162.3691995448
 20
120.0738189478
 10
162.3768151458
 20
120.0796362485
 10
162.384502245
 20
120.0852953418
  0
LWPOLYLINE
  5
3EF
100
AcDbEntity
  8
218
100
AcDbPolyline
 62
253
  6
CONTINUOUS
 90
90
 70
0
 10
162.5666012325
 20
119.8691310778
 10
162.5588948531
 20
119.8288997444
 10
162.5548953891
 20
119.8086945501
 10
162.5507627474
 20
119.7883739859
 10
162.5464769809
 20
119.767899692
 10
162.5420412567
 20
119.7473221168
 10
162.5374613909
 20
119.7267053395
 10
162.5327306814
 20
119.7060791539
 10
162.5278110902
 20
119.6854457686
 10
162.5225645509
 20
119.6647727649
 10
162.5197827259
 20
119.6544543026
 10
162.5168824955
 20
119.6441726006
 10
162.5138500089
 20
119.6339373202
 10
162.510647598
 20
119.6237243956
 10
162.5072307796
 20
119.6135090858
 10
162.5035516283
 20
119.6032976776
 10
162.4995689626
 20
119.593113455
 10
162.4952720195
 20
119.5830166635
 10
162.4906643351
 20
119.5730745859
 10
162.4857762236
 20
119.5633456922
 10
162.4806373839
 20
119.5538748898
 10
162.4752482752
 20
119.5446616467
 10
162.4696014574
 20
119.5356977823
 10
162.4636871311
 20
119.5269899601
 10
162.4575020557
 20
119.5185544336
 10
162.4510715855
 20
119.5104309719
 10
162.444431276
 20
119.5026626176
 10
162.4376288954
 20
119.4952819932
 10
162.4307033339
 20
119.4883090768
 10
162.4236457576
 20
119.4817236903
 10
162.4164432837
 20
119.4755040667
 10
162.4091145581
 20
119.4696622379
 10
162.4016861089
 20
119.4642186858
 10
162.3941844644
 20
119.4591938921
 10
162.3866356442
 20
119.4546058697
 10
162.3790636344
 20
119.4504627553
 10
162.3714919127
 20
119.4467702166
 10
162.3639439569
 20
119.4435339213
 10
162.3564347498
 20
119.4407581972
 10
162.3489452943
 20
119.4384420123
 10
162.3414622226
 20
119.4365906645
 10
162.3340286609
 20
119.43524013
 10
162.3267006263
 20
119.434431728
 10
162.3195292045
 20
119.4341974698
 10
162.3125570009
 20
119.4345628147
 10
162.3057976333
 20
119.4355363234
 10
162.2992384944
 20
119.4371135803
 10
162.2928174432
 20
119.4392550341
 10
162.2865501411
 20
119.4419075504
 10
162.2804437145
 20
119.4450006642
 10
162.2745012
 20
119.448463627
 10
162.2687441876
 20
119.4522417532
 10
162.2632022509
 20
119.4563032092
 10
162.257918346
 20
119.4606915064
 10
162.2529252059
 20
119.4654790347
 10
162.2482229392
 20
119.4707651623
 10
162.2438773879
 20
119.4766008683
 10
162.2399301477
 20
119.4829787401
 10
162.2363474335
 20
119.4897938127
 10
162.2330736076
 20
119.4969118466
 10
162.2300534577
 20
119.5042138931
 10
162.2272386268
 20
119.5116488867
 10
162.2245906879
 20
119.5191945804
 10
162.2221040791
 20
119.5268761188
 10
162.2197843246
 20
119.5347178571
 10
162.2176484282
 20
119.5426936022
 10
162.2151082079
 20
119.5534729763
 10
162.2129010252
 20
119.56435175
 10
162.2109977277
 20
119.5752601203
 10
162.2097499567
 20
119.5834269281
 10
162.208631312
 20
119.591590259
 10
162.2067004769
 20
119.6079048637
 10
162.2058735495
 20
119.615994285
 10
162.2051663044
 20
119.6240251016
 10
162.2046114501
 20
119.6320013718
 10
162.2042296828
 20
119.639924469
 10
162.2040296628
 20
119.6477943047
 10
162.2039839186
 20
119.6556076269
 10
162.2040579166
 20
119.6633584758
 10
162.2042250072
 20
119.6710332251
 10
162.2047431019
 20
119.6861020672
 10
162.2053916788
 20
119.7007429578
 10
162.2061629462
 20
119.7149180575
 10
162.207079109
 20
119.7286437236
 10
162.2081618216
 20
119.7420059575
 10
162.2094235121
 20
119.7550219768
 10
162.2108718247
 20
119.7676926888
 10
162.2125052948
 20
119.7800437749
 10
162.2143206694
 20
119.7921055226
 10
162.2163166517
 20
119.8039018676
  0
LWPOLYLINE
  5
3F0
100
AcDbEntity
  8
218
100
AcDbPolyline
 62
253
  6
CONTINUOUS
 90
6
 70
0
 10
162.5982389719
 20
120.0293325154
 10
162.5937381472
 20
120.0092236832
 10
162.5894973963
 20
119.9891759056
 10
162.585481724
 20
119.9691603204
 10
162.5816190401
 20
119.9491646366
 10
162.5666012325
 20
119.8691310778
  0
LINE
  5
3F1
100
AcDbEntity
  8
218
100
AcDbLine
 62
253
  6
CONTINUOUS
 10
162.6099591666
 20
120.0799446414
 11
162.5982389719
 21
120.0293325154
  0
LWPOLYLINE
  5
3F2
100
AcDbEntity
  8
218
100
AcDbPolyline
 62
253
  6
CONTINUOUS
 90
11
 70
0
 10
158.6211364375
 20
100.3932127233
 10
158.6697645153
 20
100.4520103656
 10
158.7138501946
 20
100.5167964735
 10
158.7532046934
 20
100.5872936229
 10
158.7876594891
 20
100.6631999333
 10
158.817067041
 20
100.7441903625
 10
158.8413014214
 20
100.8299180967
 10
158.8602588548
 20
100.9200160358
 10
158.8738581628
 20
101.014098366
 10
158.8820411112
 20
101.1117622124
 10
158.8847726596
 20
101.2125893635
  0
LINE
  5
3F3
100
AcDbEntity
  8
218
100
AcDbLine
 62
253
  6
CONTINUOUS
 10
158.568174194
 20
100.3406553266
 11
158.6211364375
 21
100.3932127233
  0
LWPOLYLINE
  5
3F4
100
AcDbEntity
  8
217
100
AcDbPolyline
 62
7
  6
CONTINUOUS
 90
19
 70
0
 10
149.9708296135
 20
91.1710405675
 10
149.9770552853
 20
91.1748591773
 10
149.9830046232
 20
91.1791709294
 10
149.9886641475
 20
91.1839660545
 10
149.9940210081
 20
91.1892336754
 10
149.9990630781
 20
91.1949618629
 10
150.0037789787
 20
91.2011376593
 10
150.008157976
 20
91.2077470488
 10
150.0121901362
 20
91.214775051
 10
150.0158664133
 20
91.2222057849
 10
150.0191784083
 20
91.230022381
 10
150.0221185826
 20
91.2382071136
 10
150.0246804071
 20
91.2467415019
 10
150.0268579884
 20
91.2556061669
 10
150.0286463367
 20
91.2647809985
 10
150.0300415722
 20
91.2742452933
 10
150.0310405302
 20
91.2839776078
 10
150.0316407677
 20
91.2939558068
 10
150.0318408237
 20
91.3041572366
  0
LWPOLYLINE
  5
3F5
100
AcDbEntity
  8
217
100
AcDbPolyline
 62
253
  6
CONTINUOUS
 90
18
 70
0
 10
150.4964255058
 20
91.4406073313
 10
150.5020166136
 20
91.4437209625
 10
150.5087342504
 20
91.4481665394
 10
150.5151052952
 20
91.4532013354
 10
150.5211122438
 20
91.4588115383
 10
150.5267385976
 20
91.46498175
 10
150.5319689207
 20
91.4716950473
 10
150.5367888759
 20
91.4789330322
 10
150.5411852426
 20
91.4866758585
 10
150.5451459643
 20
91.4949022991
 10
150.5486601774
 20
91.5035897979
 10
150.5517182409
 20
91.5127145268
 10
150.5543117698
 20
91.5222514727
 10
150.5564336493
 20
91.5321744798
 10
150.558078056
 20
91.5424563095
 10
150.5592404829
 20
91.553068756
 10
150.5599177474
 20
91.5639827273
 10
150.5601079955
 20
91.5751682952
  0
LWPOLYLINE
  5
3F6
100
AcDbEntity
  8
217
100
AcDbPolyline
 62
253
  6
CONTINUOUS
 90
18
 70
0
 10
148.3642984403
 20
90.3882720107
 10
148.3716449741
 20
90.392265954
 10
148.3783561296
 20
90.3967106922
 10
148.3847286815
 20
90.4017483039
 10
148.3907451637
 20
90.4073649817
 10
148.3963890861
 20
90.4135453316
 10
148.40164498
 20
90.4202724142
 10
148.4064984397
 20
90.427527792
 10
148.410936163
 20
90.4352915793
 10
148.4149459868
 20
90.4435424971
 10
148.418516921
 20
90.452257931
 10
148.4216391783
 20
90.4614139938
 10
148.4243042012
 20
90.4709855903
 10
148.4265046854
 20
90.4809464867
 10
148.4282345997
 20
90.491269382
 10
148.4294892028
 20
90.5019259831
 10
148.430265056
 20
90.5128870821
 10
148.4305600329
 20
90.5241226369
  0
LWPOLYLINE
  5
3F7
100
AcDbEntity
  8
217
100
AcDbPolyline
 62
7
  6
CONTINUOUS
 90
22
 70
0
 10
150.4964255058
 20
91.4406073313
 10
150.5062322803
 20
91.4459182881
 10
150.5172439004
 20
91.4525849386
 10
150.5279075611
 20
91.4598165627
 10
150.5381942564
 20
91.4675957803
 10
150.54808294
 20
91.4759100715
 10
150.5575461296
 20
91.4847410529
 10
150.5665543882
 20
91.4940661451
 10
150.5750837431
 20
91.503865914
 10
150.5831085655
 20
91.5141172207
 10
150.5906030765
 20
91.5247938064
 10
150.5975441708
 20
91.5358699152
 10
150.6039091854
 20
91.5473172788
 10
150.6096769232
 20
91.559106351
 10
150.6148282209
 20
91.5712076646
 10
150.6193453601
 20
91.5835911206
 10
150.6232107989
 20
91.596221718
 10
150.6264085869
 20
91.609060792
 10
150.6289261735
 20
91.6220724367
 10
150.6307531235
 20
91.6352209078
 10
150.6318806486
 20
91.6484662534
 10
150.6323058525
 20
91.6630412636
  0
LINE
  5
3F8
100
AcDbEntity
  8
217
100
AcDbLine
 62
7
  6
CONTINUOUS
 10
149.9677357247
 20
91.1693794658
 11
149.9708296135
 21
91.1710405675
  0
LINE
  5
3F9
100
AcDbEntity
  8
217
100
AcDbLine
 62
253
  6
CONTINUOUS
 10
150.5601079955
 20
91.5751682952
 11
150.0318408237
 21
91.3041572366
  0
LINE
  5
3FA
100
AcDbEntity
  8
217
100
AcDbLine
 62
7
  6
CONTINUOUS
 10
150.4964199579
 20
91.440604485
 11
149.9677376944
 21
91.1693804764
  0
LINE
  5
3FB
100
AcDbEntity
  8
217
100
AcDbLine
 62
7
  6
CONTINUOUS
 10
149.9659993072
 20
91.1685112428
 11
149.9677357247
 21
91.1693794658
  0
LINE
  5
3FC
100
AcDbEntity
  8
217
100
AcDbLine
 62
253
  6
CONTINUOUS
 10
150.3746245726
 20
93.169573655
 11
151.0925009955
 21
93.5237374223
  0
LINE
  5
3FD
100
AcDbEntity
  8
217
100
AcDbLine
 62
7
  6
CONTINUOUS
 10
150.2399801535
 20
92.8967987002
 11
150.9616263383
 21
93.2528222766
  0
LINE
  5
3FE
100
AcDbEntity
  8
217
100
AcDbLine
 62
253
  6
CONTINUOUS
 10
150.0318408237
 20
91.3041572366
 11
148.4305600329
 21
90.5241226369
  0
LINE
  5
3FF
100
AcDbEntity
  8
217
100
AcDbLine
 62
7
  6
CONTINUOUS
 10
149.9659965433
 20
91.1685098964
 11
148.3642984403
 21
90.3882720107
  0
LINE
  5
400
100
AcDbEntity
  8
217
100
AcDbLine
 62
7
  6
CONTINUOUS
 10
150.2399796318
 20
92.8967984429
 11
150.2295658349
 21
92.8920502393
  0
LWPOLYLINE
  5
401
100
AcDbEntity
  8
217
100
AcDbPolyline
 62
7
  6
CONTINUOUS
 90
18
 70
0
 10
148.3642984403
 20
90.3882720107
 10
148.3520774806
 20
90.3827196445
 10
148.3394483569
 20
90.3777852045
 10
148.3264495577
 20
90.3735065755
 10
148.3131043072
 20
90.3699140016
 10
148.2994785779
 20
90.3670457744
 10
148.2856796191
 20
90.3649363025
 10
148.271780637
 20
90.3636000544
 10
148.2578112158
 20
90.3630416668
 10
148.2438103642
 20
90.3632660197
 10
148.2298368999
 20
90.364274626
 10
148.2159311446
 20
90.3660660935
 10
148.2020977048
 20
90.3686450858
 10
148.1883296433
 20
90.372026348
 10
148.1747285944
 20
90.3761984465
 10
148.1614427638
 20
90.3811149576
 10
148.1485086085
 20
90.3867517478
 10
148.1430053647
 20
90.3894199134
  0
LINE
  5
402
100
AcDbEntity
  8
217
100
AcDbLine
 62
7
  6
CONTINUOUS
 10
144.7231280547
 20
90.5806713086
 11
150.229575667
 21
92.892054352
  0
LWPOLYLINE
  5
403
100
AcDbEntity
  8
217
100
AcDbPolyline
 62
253
  6
CONTINUOUS
 90
10
 70
0
 10
136.3139692687
 20
122.936320528
 10
136.3448128333
 20
122.92172301
 10
136.3755976854
 20
122.9088018077
 10
136.4062652243
 20
122.8975815175
 10
136.4367570727
 20
122.8880834978
 10
136.4670151874
 20
122.8803258286
 10
136.4969819706
 20
122.8743232771
 10
136.5266003787
 20
122.8700872694
 10
136.5558140313
 20
122.8676258691
 10
136.5805183577
 20
122.8670398141
  0
LINE
  5
404
100
AcDbEntity
  8
217
100
AcDbLine
 62
253
  6
CONTINUOUS
 10
136.5614566421
 20
123.0600642147
 11
136.574548174
 21
123.0538033058
  0
LWPOLYLINE
  5
405
100
AcDbEntity
  8
217
100
AcDbPolyline
 62
7
  6
CONTINUOUS
 90
74
 70
0
 10
135.6431488754
 20
124.6257686547
 10
135.6545753516
 20
124.6198847762
 10
135.6670976548
 20
124.6130679654
 10
135.6806763108
 20
124.6052740464
 10
135.695274881
 20
124.5964590741
 10
135.7108425376
 20
124.586590005
 10
135.7273172461
 20
124.575644557
 10
135.7446377908
 20
124.5636042756
 10
135.7627705344
 20
124.5504344839
 10
135.7816991917
 20
124.5360877554
 10
135.8013966378
 20
124.5205236485
 10
135.8217942201
 20
124.5037359621
 10
135.8428160214
 20
124.4857295817
 10
135.8644116712
 20
124.4664919706
 10
135.8865268414
 20
124.4460165915
 10
135.9090796813
 20
124.4243266418
 10
135.932018699
 20
124.4014212705
 10
135.9552864611
 20
124.3773083361
 10
135.9787936639
 20
124.3520339442
 10
136.0024783601
 20
124.32562172
 10
136.0262934932
 20
124.2980822454
 10
136.050174637
 20
124.2694494176
 10
136.0740611827
 20
124.2397575457
 10
136.0979075261
 20
124.2090260996
 10
136.1216736862
 20
124.1772691545
 10
136.1453240817
 20
124.1444957621
 10
136.168789786
 20
124.1107640046
 10
136.191983859
 20
124.0761667748
 10
136.2148556353
 20
124.0407520991
 10
136.2373603718
 20
124.004563221
 10
136.2594257657
 20
123.9676942569
 10
136.2810056033
 20
123.9302049759
 10
136.3020628032
 20
123.8921442919
 10
136.322544427
 20
123.8535956094
 10
136.3424163301
 20
123.8146145034
 10
136.3616422143
 20
123.7752659121
 10
136.3801719922
 20
123.7356514361
 10
136.3979810212
 20
123.6958278404
 10
136.4150399945
 20
123.6558679622
 10
136.431300491
 20
123.6159010107
 10
136.44674743
 20
123.5759880373
 10
136.4613635654
 20
123.5362021401
 10
136.4751091275
 20
123.4966920976
 10
136.4879710404
 20
123.4575508605
 10
136.4999571749
 20
123.4188166343
 10
136.5110678825
 20
123.3805557709
 10
136.5213106409
 20
123.3428173453
 10
136.5306877221
 20
123.3056774507
 10
136.5391982795
 20
123.2692416445
 10
136.5468584844
 20
123.2335608132
 10
136.5536839677
 20
123.1986982661
 10
136.5596837659
 20
123.1647736652
 10
136.5648829094
 20
123.131847753
 10
136.5693127336
 20
123.0999553235
 10
136.5730013203
 20
123.0691710255
 10
136.5759832338
 20
123.0395462401
 10
136.5782977532
 20
123.011105376
 10
136.5799847162
 20
122.9838791726
 10
136.5810850032
 20
122.9579144847
 10
136.5816429793
 20
122.9332231708
 10
136.5817032583
 20
122.9097872535
 10
136.5813094403
 20
122.8876164672
 10
136.5805074172
 20
122.8667552454
 10
136.5793463634
 20
122.8472419429
 10
136.577872122
 20
122.829040554
 10
136.5761408605
 20
122.8122295489
 10
136.5742302162
 20
122.7969882542
 10
136.572226021
 20
122.7834379144
 10
136.570171791
 20
122.7713974829
 10
136.5680817686
 20
122.7606147143
 10
136.5659929503
 20
122.7510323341
 10
136.5639805012
 20
122.7427587715
 10
136.5621199322
 20
122.7358575443
 10
136.5610127042
 20
122.7320742335
  0
LWPOLYLINE
  5
406
100
AcDbEntity
  8
217
100
AcDbPolyline
 62
7
  6
CONTINUOUS
 90
46
 70
0
 10
135.3506972222
 20
124.9420267429
 10
135.3975077694
 20
124.9176344716
 10
135.4442440243
 20
124.8913064038
 10
135.4908551697
 20
124.8630694175
 10
135.5372989725
 20
124.8329465516
 10
135.5835160637
 20
124.8009734481
 10
135.6294304199
 20
124.7672018336
 10
135.6749792415
 20
124.7316795856
 10
135.7201261351
 20
124.6944361222
 10
135.7648352072
 20
124.655499629
 10
135.8090773454
 20
124.6148922218
 10
135.8527833055
 20
124.5726733965
 10
135.8958587443
 20
124.5289338707
 10
135.9382327334
 20
124.4837519907
 10
135.979886038
 20
124.437153956
 10
136.0208029705
 20
124.3891567259
 10
136.060936248
 20
124.3398146303
 10
136.1002437759
 20
124.2891778932
 10
136.1387145346
 20
124.2372533528
 10
136.1763332503
 20
124.1840500767
 10
136.2130233982
 20
124.1296636783
 10
136.24868477
 20
124.0742359175
 10
136.2832756099
 20
124.0178345286
 10
136.316761497
 20
123.9605174962
 10
136.3490630892
 20
123.9024235184
 10
136.3801202291
 20
123.8436779916
 10
136.4099352138
 20
123.7842939415
 10
136.4385224628
 20
123.7242432514
 10
136.4658736511
 20
123.6635371745
 10
136.4919312673
 20
123.6022960977
 10
136.5166357028
 20
123.5406563347
 10
136.5399471686
 20
123.4787305686
 10
136.5618605447
 20
123.4165462352
 10
136.5823702609
 20
123.354114284
 10
136.6014645968
 20
123.2914634049
 10
136.619107597
 20
123.2287037237
 10
136.63525938
 20
123.1659697412
 10
136.6498970322
 20
123.103369619
 10
136.663017615
 20
123.0409353437
 10
136.6746139194
 20
122.9786889155
 10
136.6846768991
 20
122.9166708543
 10
136.6931890278
 20
122.854980332
 10
136.7001316435
 20
122.7937284348
 10
136.7054967059
 20
122.7329978208
 10
136.7092838365
 20
122.6728420796
 10
136.7114912765
 20
122.6133277349
  0
LWPOLYLINE
  5
407
100
AcDbEntity
  8
217
100
AcDbPolyline
 62
253
  6
CONTINUOUS
 90
4
 70
0
 10
136.3139692687
 20
122.936320528
 10
136.2831257041
 20
122.9525665746
 10
136.252340852
 20
122.9704302245
 10
136.2311989546
 20
122.983836965
  0
LWPOLYLINE
  5
408
100
AcDbEntity
  8
217
100
AcDbPolyline
 62
253
  6
CONTINUOUS
 90
14
 70
0
 10
137.195789831
 20
139.9044630336
 10
137.2001373921
 20
139.8971101645
 10
137.2039875405
 20
139.8900173363
 10
137.2073297622
 20
139.883203918
 10
137.2101549303
 20
139.8766885157
 10
137.21245533
 20
139.8704889216
 10
137.2142246792
 20
139.8646220654
 10
137.2154581463
 20
139.8591039683
 10
137.2161523629
 20
139.8539496991
 10
137.2163054332
 20
139.849173333
 10
137.2159169393
 20
139.8447879132
 10
137.2149879421
 20
139.8408054155
 10
137.2135209784
 20
139.8372367152
 10
137.2115640858
 20
139.8341607687
  0
LINE
  5
409
100
AcDbEntity
  8
218
100
AcDbLine
 62
253
  6
CONTINUOUS
 10
154.5045967383
 20
111.7129954174
 11
154.4103216793
 21
111.971333127
  0
LINE
  5
40A
100
AcDbEntity
  8
218
100
AcDbLine
 62
253
  6
CONTINUOUS
 10
154.5988718169
 20
112.4199872007
 11
154.5045967383
 21
112.7222042319
  0
LINE
  5
40B
100
AcDbEntity
  8
218
100
AcDbLine
 62
7
  6
CONTINUOUS
 10
158.8290102914
 20
139.8831680879
 11
158.8270937067
 21
139.9268935301
  0
LWPOLYLINE
  5
40C
100
AcDbEntity
  8
218
100
AcDbPolyline
 62
7
  6
CONTINUOUS
 90
10
 70
0
 10
159.1373668392
 20
132.1332476998
 10
159.1330564774
 20
132.2608840567
 10
159.1204359527
 20
132.3879337492
 10
159.099917308
 20
132.5140954582
 10
159.0717518824
 20
132.6394525935
 10
159.0362196479
 20
132.7635232893
 10
158.9938487709
 20
132.8851461297
 10
158.9450616213
 20
133.0037664679
 10
158.8899559099
 20
133.1195021222
 10
158.8286635014
 20
133.2321341664
  0
LWPOLYLINE
  5
40D
100
AcDbEntity
  8
218
100
AcDbPolyline
 62
253
  6
CONTINUOUS
 90
13
 70
0
 10
158.8847726596
 20
131.8206514331
 10
158.8820411112
 20
131.9242101326
 10
158.8738581628
 20
132.0300569275
 10
158.8602588548
 20
132.1377385656
 10
158.8413014214
 20
132.2467939382
 10
158.8170670409
 20
132.3567560529
 10
158.787659489
 20
132.4671540339
 10
158.7532046934
 20
132.57751514
 10
158.7138501946
 20
132.6873667881
 10
158.6697645153
 20
132.7962385753
 10
158.6211364375
 20
132.9036642954
 10
158.568174194
 20
133.0091839356
 10
158.5111045775
 20
133.1123456447
  0
LWPOLYLINE
  5
40E
100
AcDbEntity
  8
218
100
AcDbPolyline
 62
7
  6
CONTINUOUS
 90
16
 70
0
 10
160.5477486621
 20
136.7871664923
 10
160.5464708132
 20
136.869311251
 10
160.5378143895
 20
137.0131757529
 10
160.5210354667
 20
137.1523141525
 10
160.4961329614
 20
137.286421191
 10
160.4631821664
 20
137.4148629469
 10
160.4224429379
 20
137.536771992
 10
160.3741160476
 20
137.6516998825
 10
160.3183491581
 20
137.7593611552
 10
160.2554908034
 20
137.8592431764
 10
160.1858812063
 20
137.9509559151
 10
160.1098110426
 20
138.0341987741
 10
160.027718981
 20
138.108615398
 10
159.9400485394
 20
138.1739441645
 10
159.847370676
 20
138.2298684368
 10
159.8189525423
 20
138.2446353926
  0
LINE
  5
40F
100
AcDbEntity
  8
218
100
AcDbLine
 62
7
  6
CONTINUOUS
 10
158.8291031066
 20
139.8831694155
 11
158.8291083918
 21
139.8828194013
  0
LINE
  5
410
100
AcDbEntity
  8
218
100
AcDbLine
 62
253
  6
CONTINUOUS
 10
159.4283400642
 20
113.3437070277
 11
159.4283400642
 21
114.3723044523
  0
LINE
  5
411
100
AcDbEntity
  8
218
100
AcDbLine
 62
253
  6
CONTINUOUS
 10
159.4283400642
 20
114.6354341469
 11
159.4283400642
 21
115.5384474957
  0
LINE
  5
412
100
AcDbEntity
  8
218
100
AcDbLine
 62
253
  6
CONTINUOUS
 10
159.6341590911
 20
122.4444837025
 11
159.6341590911
 21
122.9680817956
  0
LINE
  5
413
100
AcDbEntity
  8
218
100
AcDbLine
 62
253
  6
CONTINUOUS
 10
159.7257915397
 20
114.4425914563
 11
159.7257915397
 21
113.4977170375
  0
LINE
  5
414
100
AcDbEntity
  8
218
100
AcDbLine
 62
253
  6
CONTINUOUS
 10
159.7359781722
 20
114.7109954342
 11
159.7359781722
 21
115.655869853
  0
LINE
  5
415
100
AcDbEntity
  8
218
100
AcDbLine
 62
253
  6
CONTINUOUS
 10
160.0436162801
 20
115.982600158
 11
160.0436162801
 21
114.9540027334
  0
LINE
  5
416
100
AcDbEntity
  8
218
100
AcDbLine
 62
253
  6
CONTINUOUS
 10
160.0436162801
 20
113.5785526082
 11
160.0436162801
 21
114.6071500329
  0
LINE
  5
417
100
AcDbEntity
  8
218
100
AcDbLine
 62
253
  6
CONTINUOUS
 10
160.3785363881
 20
112.555441088
 11
160.3785363881
 21
118.560535716
  0
LWPOLYLINE
  5
418
100
AcDbEntity
  8
218
100
AcDbPolyline
 62
253
  6
CONTINUOUS
 90
11
 70
0
 10
159.8404670908
 20
109.7008386585
 10
159.8389551081
 20
109.6346122289
 10
159.8325293884
 20
109.5712677514
 10
159.8212388163
 20
109.5112871292
 10
159.8051692866
 20
109.455126674
 10
159.7844430507
 20
109.4032136351
 10
159.7592177866
 20
109.3559429489
 10
159.7296853992
 20
109.3136742345
 10
159.6960705609
 20
109.2767290577
 10
159.6586290016
 20
109.2453884845
 10
159.6204977207
 20
109.2214134219
  0
LWPOLYLINE
  5
419
100
AcDbEntity
  8
218
100
AcDbPolyline
 62
253
  6
CONTINUOUS
 90
25
 70
0
 10
160.4635506898
 20
136.6830172811
 10
160.460635517
 20
136.5649516771
 10
160.4522100038
 20
136.4453446288
 10
160.4382741502
 20
136.3241961361
 10
160.4187360246
 20
136.2010673153
 10
160.3936875585
 20
136.0763970501
 10
160.363404547
 20
135.951501992
 10
160.3278283583
 20
135.8263623879
 10
160.2870176242
 20
135.700997991
 10
160.2414240348
 20
135.5767847119
 10
160.1909981896
 20
135.4537420337
 10
160.1357894892
 20
135.3318504735
 10
160.0763978258
 20
135.2124274927
 10
160.0127754804
 20
135.0954952386
 10
159.9449701721
 20
134.9810315639
 10
159.8737249494
 20
134.8702874885
 10
159.7990184285
 20
134.7633194838
 10
159.7208719932
 20
134.6600710784
 10
159.6400928439
 20
134.5616238773
 10
159.5566240449
 20
134.4679978491
 10
159.4705225319
 20
134.3791730253
 10
159.3827663117
 20
134.2961711056
 10
159.2936813866
 20
134.2193326565
 10
159.2029417543
 20
134.1483171115
 10
159.1105474149
 20
134.0831244706
  0
LINE
  5
41A
100
AcDbEntity
  8
218
100
AcDbLine
 62
253
  6
CONTINUOUS
 10
164.4916001615
 20
117.9968843065
 11
164.3923632574
 21
118.0073618231
  0
LINE
  5
41B
100
AcDbEntity
  8
218
100
AcDbLine
 62
253
  6
CONTINUOUS
 10
164.7893108947
 20
118.5840412012
 11
164.8885478092
 21
118.5735636899
  0
LINE
  5
41C
100
AcDbEntity
  8
218
100
AcDbLine
 62
253
  6
CONTINUOUS
 10
164.4916001615
 20
118.6773328749
 11
164.3923632574
 21
118.6878103915
  0
LINE
  5
41D
100
AcDbEntity
  8
218
100
AcDbLine
 62
253
  6
CONTINUOUS
 10
164.7893108947
 20
119.264489718
 11
164.8885478092
 21
119.2540122067
  0
LWPOLYLINE
  5
41E
100
AcDbEntity
  8
217
100
AcDbPolyline
 62
7
  6
CONTINUOUS
 90
12
 70
0
 10
135.6023142839
 20
124.6440855222
 10
135.5997008176
 20
124.6445643257
 10
135.5972610488
 20
124.6450755766
 10
135.5965493979
 20
124.6452452917
 10
135.5975275763
 20
124.6449714923
 10
135.6000171673
 20
124.6442029869
 10
135.6039538794
 20
124.6428703009
 10
135.6092964465
 20
124.6409023865
 10
135.6159386918
 20
124.6382590265
 10
135.6238206258
 20
124.6348909681
 10
135.6329086152
 20
124.6307421073
 10
135.6431488754
 20
124.6257686547
  0
LWPOLYLINE
  5
41F
100
AcDbEntity
  8
217
100
AcDbPolyline
 62
253
  6
CONTINUOUS
 90
13
 70
0
 10
139.9600058779
 20
121.5595002446
 10
139.6748038287
 20
121.6337178719
 10
139.3918433333
 20
121.7105082645
 10
139.1112131454
 20
121.7898532124
 10
138.8329400246
 20
121.8717530933
 10
138.5571780033
 20
121.956171537
 10
138.2842017666
 20
122.0430300133
 10
138.0140972784
 20
122.1323043776
 10
137.7469491608
 20
122.2239709123
 10
137.4830182492
 20
122.3179420478
 10
137.2224415788
 20
122.4141673859
 10
136.9652394587
 20
122.5126388556
 10
136.7114912765
 20
122.6133277349
  0
LWPOLYLINE
  5
420
100
AcDbEntity
  8
217
100
AcDbPolyline
 62
7
  6
CONTINUOUS
 90
85
 70
0
 10
136.0192288722
 20
128.6346334492
 10
135.9451459339
 20
128.6707629053
 10
135.8716057744
 20
128.7050176013
 10
135.7986084153
 20
128.7373975469
 10
135.7263407073
 20
128.7678136723
 10
135.6546158838
 20
128.7963550856
 10
135.5828735614
 20
128.8232890735
 10
135.5110910799
 20
128.8486772845
 10
135.4392912656
 20
128.8724581457
 10
135.3669819975
 20
128.8947141262
 10
135.2940602281
 20
128.9155154343
 10
135.2206292848
 20
128.9347919892
 10
135.1465066662
 20
128.9524158518
 10
135.0715034705
 20
128.9684270123
 10
134.9958090404
 20
128.9827856815
 10
134.9198083001
 20
128.995244279
 10
134.8434875336
 20
129.0057769715
 10
134.7668610433
 20
129.0144098597
 10
134.6903558156
 20
129.0209732801
 10
134.6140007946
 20
129.0254311432
 10
134.5377677412
 20
129.0278198603
 10
134.4619978712
 20
129.0280785219
 10
134.3866780813
 20
129.0261741516
 10
134.3118222644
 20
129.0221400867
 10
134.2378120877
 20
129.0160148691
 10
134.1646365212
 20
129.0077580089
 10
134.0923073884
 20
128.9974103594
 10
134.0212405172
 20
128.9851324227
 10
133.9514761196
 20
128.9708885852
 10
133.882974662
 20
128.9547147718
 10
133.8160321648
 20
128.9368787062
 10
133.7508400293
 20
128.9174360336
 10
133.6872073172
 20
128.8963313219
 10
133.624856444
 20
128.8736656358
 10
133.5638652034
 20
128.8495205147
 10
133.504156316
 20
128.8238146561
 10
133.4452197237
 20
128.7964049239
 10
133.3868977935
 20
128.7672558999
 10
133.3293489988
 20
128.7364033893
 10
133.2725375923
 20
128.7038111603
 10
133.2163926695
 20
128.6694397554
 10
133.1609860632
 20
128.6333290604
 10
133.1064961056
 20
128.5955618467
 10
133.0529299504
 20
128.5561141256
 10
133.0002812976
 20
128.5150102809
 10
132.9487081676
 20
128.4724055825
 10
132.8982693977
 20
128.428348574
 10
132.8489068493
 20
128.3827910365
 10
132.8006030011
 20
128.3357430604
 10
132.7534723612
 20
128.287368628
 10
132.7074011107
 20
128.237504078
 10
132.6620295056
 20
128.1856681589
 10
132.6172657354
 20
128.1318323194
 10
132.5732029528
 20
128.076025734
 10
132.5297593227
 20
128.0178539549
 10
132.4867928874
 20
127.9571314448
 10
132.444447482
 20
127.8940446131
 10
132.403070026
 20
127.8287569628
 10
132.3626665031
 20
127.7612014204
 10
132.323232568
 20
127.6914458236
 10
132.2850992627
 20
127.6198558653
 10
132.2483052019
 20
127.5464209051
 10
132.212812947
 20
127.4711521357
 10
132.1788389618
 20
127.39444777
 10
132.1464190013
 20
127.3163078071
 10
132.1155180064
 20
127.2367325791
 10
132.0862457379
 20
127.1561205748
 10
132.0586207708
 20
127.074424046
 10
132.032624789
 20
126.9916908698
 10
132.0083116909
 20
126.9084627293
 10
131.9857090678
 20
126.8247358789
 10
131.9647889847
 20
126.7405139128
 10
131.9455214817
 20
126.6563492583
 10
131.9279589661
 20
126.5724622723
 10
131.9120480715
 20
126.4886321587
 10
131.8976000096
 20
126.4047495369
 10
131.88460414
 20
126.3209678402
 10
131.8730704018
 20
126.2371333151
 10
131.8628412967
 20
126.1526759976
 10
131.8538747515
 20
126.067641249
 10
131.8462128167
 20
125.9819837044
 10
131.8398248447
 20
125.8949976221
 10
131.8347010077
 20
125.8064479388
 10
131.830851907
 20
125.7165700877
 10
131.8282778947
 20
125.6253642376
  0
LINE
  5
421
100
AcDbEntity
  8
218
100
AcDbLine
 62
253
  6
CONTINUOUS
 10
160.0196232937
 20
116.5913107638
 11
159.4283400642
 21
116.9036109711
  0
LINE
  5
422
100
AcDbEntity
  8
218
100
AcDbLine
 62
253
  6
CONTINUOUS
 10
158.0000556608
 20
114.1342934731
 11
160.0057342628
 21
112.1932806437
  0
LINE
  5
423
100
AcDbEntity
  8
218
100
AcDbLine
 62
253
  6
CONTINUOUS
 10
164.2931263532
 20
120.1829029009
 11
164.2931263532
 21
119.9973261171
  0
LINE
  5
424
100
AcDbEntity
  8
218
100
AcDbLine
 62
253
  6
CONTINUOUS
 10
164.2931263532
 20
118.0796983193
 11
164.2931263532
 21
118.1415573505
  0
LINE
  5
425
100
AcDbEntity
  8
218
100
AcDbLine
 62
253
  6
CONTINUOUS
 10
164.2931263532
 20
118.7601468361
 11
164.2931263532
 21
118.8220058673
  0
LINE
  5
426
100
AcDbEntity
  8
218
100
AcDbLine
 62
253
  6
CONTINUOUS
 10
164.2931263532
 20
119.2550185692
 11
164.2931263532
 21
119.6261723431
  0
LINE
  5
427
100
AcDbEntity
  8
218
100
AcDbLine
 62
253
  6
CONTINUOUS
 10
164.2931263532
 20
121.3582231507
 11
164.2931263532
 21
121.5438001409
  0
LINE
  5
428
100
AcDbEntity
  8
218
100
AcDbLine
 62
253
  6
CONTINUOUS
 10
164.5908370657
 20
119.6565985146
 11
164.5908370657
 21
119.4091628029
  0
LINE
  5
429
100
AcDbEntity
  8
218
100
AcDbLine
 62
253
  6
CONTINUOUS
 10
164.5908370657
 20
121.5123673845
 11
164.5908370657
 21
121.6979443747
  0
LINE
  5
42A
100
AcDbEntity
  8
218
100
AcDbLine
 62
253
  6
CONTINUOUS
 10
164.7893108947
 20
117.491199666
 11
164.7893108947
 21
117.8211141052
  0
LINE
  5
42B
100
AcDbEntity
  8
218
100
AcDbLine
 62
253
  6
CONTINUOUS
 10
164.8389293571
 20
121.2696669482
 11
164.8389293571
 21
120.8366544528
  0
LINE
  5
42C
100
AcDbEntity
  8
218
100
AcDbLine
 62
253
  6
CONTINUOUS
 10
164.9877847237
 20
121.9034700411
 11
164.9877847237
 21
121.7178930509
  0
LINE
  5
42D
100
AcDbEntity
  8
218
100
AcDbLine
 62
253
  6
CONTINUOUS
 10
164.9877847237
 20
120.6662906569
 11
164.9877847237
 21
120.233277955
  0
LINE
  5
42E
100
AcDbEntity
  8
218
100
AcDbLine
 62
253
  6
CONTINUOUS
 10
164.9877847237
 20
119.1816757674
 11
164.9877847237
 21
119.1198167363
  0
LINE
  5
42F
100
AcDbEntity
  8
218
100
AcDbLine
 62
253
  6
CONTINUOUS
 10
164.9877847237
 20
118.5012272507
 11
164.9877847237
 21
118.4393682195
  0
LINE
  5
430
100
AcDbEntity
  8
218
100
AcDbLine
 62
253
  6
CONTINUOUS
 10
164.9877847237
 20
119.6146884693
 11
164.9877847237
 21
119.862124181
  0
LINE
  5
431
100
AcDbEntity
  8
218
100
AcDbLine
 62
253
  6
CONTINUOUS
 10
165.5545088491
 20
127.0263557184
 11
165.5545088491
 21
119.347965561
  0
LINE
  5
432
100
AcDbEntity
  8
218
100
AcDbLine
 62
253
  6
CONTINUOUS
 10
165.5545088491
 20
117.6475028721
 11
165.5545088491
 21
112.7836952769
  0
LWPOLYLINE
  5
433
100
AcDbEntity
  8
218
100
AcDbPolyline
 62
253
  6
CONTINUOUS
 90
11
 70
0
 10
165.5545088491
 20
112.7836952769
 10
165.5529904599
 20
112.7173643724
 10
165.5465424368
 20
112.6539247085
 10
165.5352138049
 20
112.5938606001
 10
165.5190907564
 20
112.5376303711
 10
165.498296216
 20
112.4856636671
 10
165.4729891246
 20
112.4383579627
 10
165.4433604933
 20
112.3960715993
 10
165.40963811
 20
112.3591307814
 10
165.3720880998
 20
112.3278237484
 10
165.3344380368
 20
112.3042152905
  0
LWPOLYLINE
  5
434
100
AcDbEntity
  8
218
100
AcDbPolyline
 62
253
  6
CONTINUOUS
 90
10
 70
0
 10
165.8071030285
 20
113.0962800537
 10
165.8045340465
 20
113.0623151974
 10
165.7953169312
 20
113.0237035563
 10
165.7794579703
 20
112.9856153763
 10
165.7570524076
 20
112.9483168385
 10
165.7282652221
 20
112.9121091258
 10
165.6933274597
 20
112.8772874659
 10
165.652513118
 20
112.8441190834
 10
165.6061236475
 20
112.8128439406
 10
165.5545088491
 20
112.7836952769
  0
LINE
  5
435
100
AcDbEntity
  8
218
100
AcDbLine
 62
253
  6
CONTINUOUS
 10
164.2931263532
 20
119.9973261171
 11
164.4419817302
 21
119.9506801824
  0
LINE
  5
436
100
AcDbEntity
  8
217
100
AcDbLine
 62
253
  6
CONTINUOUS
 10
143.4951641669
 20
126.9628227286
 11
128.6703180893
 21
134.3752457674
  0
LWPOLYLINE
  5
437
100
AcDbEntity
  8
218
100
AcDbPolyline
 62
7
  6
CONTINUOUS
 90
13
 70
0
 10
158.8270937067
 20
139.9268935301
 10
158.8186336415
 20
139.9980343158
 10
158.8037410634
 20
140.0676767591
 10
158.7824916216
 20
140.1355840727
 10
158.7544397003
 20
140.2026753098
 10
158.7198234846
 20
140.2678639722
 10
158.6790009547
 20
140.330270691
 10
158.6312467471
 20
140.3905031285
 10
158.5767900997
 20
140.4476436916
 10
158.5162376978
 20
140.5007654635
 10
158.4491255225
 20
140.549920817
 10
158.3754961315
 20
140.5945567517
 10
158.3397712147
 20
140.6132769088
  0
LINE
  5
438
100
AcDbEntity
  8
218
100
AcDbLine
 62
7
  6
CONTINUOUS
 10
165.807102665
 20
117.3915580364
 11
165.8071029906
 21
117.3910989687
  0
LINE
  5
439
100
AcDbEntity
  8
218
100
AcDbLine
 62
7
  6
CONTINUOUS
 10
165.8071030288
 20
127.3389519851
 11
165.8071030288
 21
120.2297686856
  0
LINE
  5
43A
100
AcDbEntity
  8
218
100
AcDbLine
 62
7
  6
CONTINUOUS
 10
165.8071030288
 20
117.3908080161
 11
165.8071030288
 21
113.0962915436
  0
LINE
  5
43B
100
AcDbEntity
  8
218
100
AcDbLine
 62
7
  6
CONTINUOUS
 10
165.8071028786
 20
120.2287501829
 11
165.8071027908
 21
120.2285026028
  0
LWPOLYLINE
  5
43C
100
AcDbEntity
  8
218
100
AcDbPolyline
 62
253
  6
CONTINUOUS
 90
29
 70
0
 10
165.8071027908
 20
120.2285026028
 10
165.80677442
 20
120.1850482954
 10
165.805568104
 20
120.133322346
 10
165.8035371454
 20
120.0830052355
 10
165.8007307913
 20
120.034105722
 10
165.7972015876
 20
119.9866401676
 10
165.7930006479
 20
119.9406098177
 10
165.7881513868
 20
119.8959999489
 10
165.7826953305
 20
119.8528257384
 10
165.7766689375
 20
119.8110842551
 10
165.7700626819
 20
119.7707347693
 10
165.7628996669
 20
119.7317499022
 10
165.7552057136
 20
119.6941681805
 10
165.7469504405
 20
119.658050522
 10
165.738141826
 20
119.6233510373
 10
165.7287978698
 20
119.5901283154
 10
165.7188839716
 20
119.5586032893
 10
165.7084027409
 20
119.5287449938
 10
165.6973636036
 20
119.5005995464
 10
165.6857284753
 20
119.4745067878
 10
165.673485164
 20
119.4504496904
 10
165.6606475189
 20
119.4284640508
 10
165.6472102246
 20
119.408971002
 10
165.6331607653
 20
119.392033948
 10
165.6185152113
 20
119.3776094091
 10
165.6033150752
 20
119.365957131
 10
165.5875812316
 20
119.3571685984
 10
165.5713095786
 20
119.3511686631
 10
165.5545088491
 20
119.347965561
  0
LINE
  5
43D
100
AcDbEntity
  8
218
100
AcDbLine
 62
253
  6
CONTINUOUS
 10
164.3923632574
 20
121.3271258538
 11
164.2931263532
 21
121.3582231507
  0
LINE
  5
43E
100
AcDbEntity
  8
218
100
AcDbLine
 62
253
  6
CONTINUOUS
 10
164.9877847237
 20
120.233277955
 11
164.4916001615
 21
120.4093835792
  0
LINE
  5
43F
100
AcDbEntity
  8
217
100
AcDbLine
 62
253
  6
CONTINUOUS
 10
144.5111025601
 20
128.7029406929
 11
129.6628840993
 21
136.1270499233
  0
LINE
  5
440
100
AcDbEntity
  8
218
100
AcDbLine
 62
253
  6
CONTINUOUS
 10
164.3923632574
 20
118.0073618231
 11
164.2931263532
 21
118.0796983193
  0
LINE
  5
441
100
AcDbEntity
  8
218
100
AcDbLine
 62
253
  6
CONTINUOUS
 10
164.3923632574
 20
118.6878103915
 11
164.2931263532
 21
118.7601468361
  0
LINE
  5
442
100
AcDbEntity
  8
218
100
AcDbLine
 62
253
  6
CONTINUOUS
 10
164.8885478092
 20
118.5735636899
 11
164.9877847237
 21
118.5012272507
  0
LINE
  5
443
100
AcDbEntity
  8
218
100
AcDbLine
 62
253
  6
CONTINUOUS
 10
164.8885478092
 20
119.2540122067
 11
164.9877847237
 21
119.1816757674
  0
LINE
  5
444
100
AcDbEntity
  8
218
100
AcDbLine
 62
253
  6
CONTINUOUS
 10
153.5825853086
 20
127.6277389932
 11
153.9576436967
 21
127.298153798
  0
LWPOLYLINE
  5
445
100
AcDbEntity
  8
218
100
AcDbPolyline
 62
7
  6
CONTINUOUS
 90
11
 70
0
 10
159.1388251747
 20
125.1473722187
 10
159.1407654374
 20
125.1439107495
 10
159.1453451964
 20
125.1347870415
 10
159.1469903004
 20
125.1308681484
 10
159.1465320476
 20
125.1323876068
 10
159.144774725
 20
125.1392941827
 10
159.1423643748
 20
125.1517728059
 10
159.1399670394
 20
125.169574148
 10
159.1381849402
 20
125.1916641492
 10
159.1373819729
 20
125.2174286285
 10
159.1373628602
 20
125.2219344848
  0
LWPOLYLINE
  5
446
100
AcDbEntity
  8
218
100
AcDbPolyline
 62
253
  6
CONTINUOUS
 90
68
 70
0
 10
159.7147505872
 20
122.7218622468
 10
159.7325943288
 20
122.6835130029
 10
159.7494305941
 20
122.644102942
 10
159.7653339905
 20
122.6036968376
 10
159.7803713401
 20
122.5623631643
 10
159.7945783235
 20
122.5201852003
 10
159.807982836
 20
122.4772499243
 10
159.820596771
 20
122.4336208668
 10
159.8323680141
 20
122.3892677627
 10
159.8432284489
 20
122.3441368987
 10
159.8507397322
 20
122.3097551979
 10
159.8576995424
 20
122.2749381187
 10
159.864110978
 20
122.2397079773
 10
159.8699928429
 20
122.204047051
 10
159.8753574277
 20
122.1679450914
 10
159.8801752624
 20
122.1314617859
 10
159.8843955221
 20
122.0946539813
 10
159.8879237244
 20
122.0574972291
 10
159.8906556748
 20
122.0199562599
 10
159.8924919911
 20
121.9820338179
 10
159.8933487592
 20
121.9437543611
 10
159.8931991268
 20
121.9051911892
 10
159.8920407961
 20
121.86642206
 10
159.889912627
 20
121.8274937213
 10
159.8868628865
 20
121.7884529318
 10
159.8829363134
 20
121.7493775037
 10
159.878170631
 20
121.7103437049
 10
159.8725790298
 20
121.6713905744
 10
159.8661543382
 20
121.632527958
 10
159.8588324712
 20
121.5936861586
 10
159.8505527304
 20
121.5548285115
 10
159.8413248788
 20
121.5161300251
 10
159.8311864445
 20
121.4777986566
 10
159.8202155572
 20
121.4399624865
 10
159.8085001227
 20
121.4027269634
 10
159.7961265503
 20
121.3661868849
 10
159.7831808754
 20
121.3304343861
 10
159.7697491333
 20
121.295561602
 10
159.7559122225
 20
121.2616578988
 10
159.741730494
 20
121.2288015684
 10
159.7272591618
 20
121.197068134
 10
159.7125534399
 20
121.1665331186
 10
159.6976681939
 20
121.1372600305
 10
159.6826568959
 20
121.1092643177
 10
159.6675726697
 20
121.0825494131
 10
159.6524686388
 20
121.0571187498
 10
159.6373931824
 20
121.0329570897
 10
159.6223757021
 20
121.0099745099
 10
159.6074408546
 20
120.9880624165
 10
159.5926132971
 20
120.9671122157
 10
159.5730348485
 20
120.9405086078
 10
159.5536421137
 20
120.915293022
 10
159.5343862343
 20
120.891336505
 10
159.5200006852
 20
120.8741272827
 10
159.5056196647
 20
120.8575561985
 10
159.4911905275
 20
120.8416173012
 10
159.4766299264
 20
120.8262710423
 10
159.461868775
 20
120.8114903128
 10
159.4469257333
 20
120.7973313576
 10
159.4318286851
 20
120.7838428916
 10
159.4165546628
 20
120.7709601542
 10
159.4010843762
 20
120.7586049907
 10
159.3854640948
 20
120.7467591425
 10
159.3697525025
 20
120.7354145814
 10
159.35399238
 20
120.7245443041
 10
159.3329506975
 20
120.7107230435
 10
159.3118651207
 20
120.6975504968
 10
159.2907090445
 20
120.6848886459
  0
LWPOLYLINE
  5
447
100
AcDbEntity
  8
217
100
AcDbPolyline
 62
7
  6
CONTINUOUS
 90
13
 70
0
 10
150.6248572451
 20
133.2161753631
 10
150.6218320308
 20
133.2156411287
 10
150.6183254992
 20
133.2153187305
 10
150.6143508555
 20
133.2151810035
 10
150.6099232593
 20
133.2152369463
 10
150.6050587751
 20
133.215496139
 10
150.5997717014
 20
133.2159317843
 10
150.5940784872
 20
133.2165514482
 10
150.587996393
 20
133.2173633923
 10
150.5815407487
 20
133.218341383
 10
150.5747283786
 20
133.2194811092
 10
150.5675780106
 20
133.2208000268
 10
150.5601079955
 20
133.2223039514
  0
LWPOLYLINE
  5
448
100
AcDbEntity
  8
217
100
AcDbPolyline
 62
7
  6
CONTINUOUS
 90
31
 70
0
 10
148.8279660668
 20
131.8775347131
 10
148.8293846315
 20
131.8772456635
 10
148.8402798658
 20
131.8754040164
 10
148.8514206583
 20
131.874156534
 10
148.8627588575
 20
131.8735085423
 10
148.8742712313
 20
131.8734562079
 10
148.8859292302
 20
131.8739625089
 10
148.8976993784
 20
131.8750269598
 10
148.9095493563
 20
131.8766473092
 10
148.9214541175
 20
131.8787834742
 10
148.9333829943
 20
131.8814325638
 10
148.9453064351
 20
131.884590846
 10
148.9572027694
 20
131.8882168437
 10
148.9690443806
 20
131.892305842
 10
148.9808045225
 20
131.8968528612
 10
148.9924643531
 20
131.9018160831
 10
149.0039992989
 20
131.9071894229
 10
149.0153854292
 20
131.9129668433
 10
149.0266061774
 20
131.9191067427
 10
149.0376399149
 20
131.9256019843
 10
149.0484655068
 20
131.9324456478
 10
149.0590682556
 20
131.9395966171
 10
149.0694293615
 20
131.9470469108
 10
149.0795304667
 20
131.9547888983
 10
149.0893585478
 20
131.962782121
 10
149.0988975277
 20
131.9710178819
 10
149.1081318281
 20
131.9794880233
 10
149.1170501313
 20
131.9881529878
 10
149.1256397983
 20
131.9969937325
 10
149.1338871786
 20
132.0060115242
 10
149.141780641
 20
132.0151971876
  0
LINE
  5
449
100
AcDbEntity
  8
217
100
AcDbLine
 62
7
  6
CONTINUOUS
 10
148.2037165394
 20
132.0078795497
 11
148.8281217888
 21
131.8775031542
  0
LWPOLYLINE
  5
44A
100
AcDbEntity
  8
217
100
AcDbPolyline
 62
253
  6
CONTINUOUS
 90
15
 70
0
 10
146.9288016494
 20
133.4710565233
 10
146.9195199607
 20
133.4753494097
 10
146.9102605969
 20
133.4790435476
 10
146.9010489241
 20
133.4821277053
 10
146.8919083553
 20
133.4845927387
 10
146.8828660349
 20
133.4864300101
 10
146.8739525248
 20
133.4876327389
 10
146.8651941652
 20
133.4881975739
 10
146.8566130054
 20
133.4881232998
 10
146.8482323392
 20
133.4874100924
 10
146.840075005
 20
133.4860598225
 10
146.8321635519
 20
133.484076148
 10
146.8245199195
 20
133.481464544
 10
146.817165157
 20
133.4782322223
 10
146.8157159892
 20
133.4775045015
  0
LWPOLYLINE
  5
44B
100
AcDbEntity
  8
217
100
AcDbPolyline
 62
253
  6
CONTINUOUS
 90
31
 70
0
 10
148.0780380732
 20
132.1642134343
 10
148.0874960914
 20
132.1597249007
 10
148.0974093284
 20
132.1554890544
 10
148.1077508136
 20
132.1515174197
 10
148.1184924112
 20
132.1478208022
 10
148.1296048968
 20
132.1444092591
 10
148.1410580372
 20
132.141292072
 10
148.152820672
 20
132.1384777219
 10
148.1648607991
 20
132.1359738657
 10
148.1771456611
 20
132.1337873155
 10
148.1896418352
 20
132.1319240202
 10
148.2023153232
 20
132.1303890491
 10
148.2151316449
 20
132.1291865786
 10
148.2280559313
 20
132.12831988
 10
148.2410530196
 20
132.1277913114
 10
148.254087549
 20
132.1276023108
 10
148.267124057
 20
132.1277533925
 10
148.2801270755
 20
132.1282441453
 10
148.2930612276
 20
132.1290732343
 10
148.3058913237
 20
132.1302384035
 10
148.3185824574
 20
132.1317364831
 10
148.3311001002
 20
132.1335633972
 10
148.3434101959
 20
132.1357141754
 10
148.3554792527
 20
132.1381829662
 10
148.3672744348
 20
132.1409630527
 10
148.3787636512
 20
132.1440468713
 10
148.3899156437
 20
132.147426032
 10
148.4007000714
 20
132.1510913411
 10
148.4110875933
 20
132.1550328265
 10
148.4210499486
 20
132.1592397649
 10
148.4305600329
 20
132.1637007104
  0
LWPOLYLINE
  5
44C
100
AcDbEntity
  8
217
100
AcDbPolyline
 62
253
  6
CONTINUOUS
 90
31
 70
0
 10
134.7137199088
 20
138.8463725165
 10
134.723177927
 20
138.8418839829
 10
134.733091164
 20
138.8376481366
 10
134.7434326492
 20
138.8336765019
 10
134.7541742467
 20
138.8299798844
 10
134.7652867324
 20
138.8265683413
 10
134.7767398728
 20
138.8234511542
 10
134.7885025076
 20
138.8206368042
 10
134.8005426346
 20
138.8181329479
 10
134.8128274967
 20
138.8159463977
 10
134.8253236707
 20
138.8140831024
 10
134.8379971588
 20
138.8125481313
 10
134.8508134805
 20
138.8113456608
 10
134.8637377668
 20
138.8104789622
 10
134.8767348551
 20
138.8099503936
 10
134.8897693846
 20
138.809761393
 10
134.9028058926
 20
138.8099124747
 10
134.9158089111
 20
138.8104032276
 10
134.9287430632
 20
138.8112323165
 10
134.9415731593
 20
138.8123974857
 10
134.9542642929
 20
138.8138955653
 10
134.9667819358
 20
138.8157224794
 10
134.9790920315
 20
138.8178732576
 10
134.9911610883
 20
138.8203420484
 10
135.0029562703
 20
138.8231221349
 10
135.0144454868
 20
138.8262059535
 10
135.0255974793
 20
138.8295851142
 10
135.0363819069
 20
138.8332504233
 10
135.0467694289
 20
138.8371919088
 10
135.0567317842
 20
138.8413988471
 10
135.0662418685
 20
138.8458597927
  0
LWPOLYLINE
  5
44D
100
AcDbEntity
  8
217
100
AcDbPolyline
 62
253
  6
CONTINUOUS
 90
31
 70
0
 10
148.0780380732
 20
132.5041873684
 10
148.0874982226
 20
132.499697875
 10
148.0974138092
 20
132.4954611729
 10
148.107757847
 20
132.4914887957
 10
148.1185021953
 20
132.4877915541
 10
148.1296176008
 20
132.4843795179
 10
148.1410737743
 20
132.4812619857
 10
148.1528395236
 20
132.4784474446
 10
148.164882831
 20
132.4759435522
 10
148.1771709035
 20
132.4737571251
 10
148.1896702911
 20
132.4718941132
 10
148.2023469729
 20
132.4703595854
 10
148.2151664388
 20
132.469157717
 10
148.2280938103
 20
132.4682917766
 10
148.2410938855
 20
132.4677641207
 10
148.2541312288
 20
132.4675761833
 10
148.2671703002
 20
132.4677284686
 10
148.2801756651
 20
132.4682205544
 10
148.2931120395
 20
132.4690511041
 10
148.3059443786
 20
132.4702178772
 10
148.3186375857
 20
132.4717176919
 10
148.331156735
 20
132.4735464086
 10
148.3434675316
 20
132.475698978
 10
148.3555367364
 20
132.478169548
 10
148.3673318542
 20
132.4809514519
 10
148.3788232767
 20
132.4840378311
 10
148.3899770932
 20
132.4874197058
 10
148.4007562488
 20
132.4910854649
 10
148.4111300148
 20
132.4950237507
 10
148.4210733188
 20
132.4992241033
 10
148.4305600329
 20
132.5036746446
  0
LWPOLYLINE
  5
44E
100
AcDbEntity
  8
217
100
AcDbPolyline
 62
253
  6
CONTINUOUS
 90
31
 70
0
 10
134.7137199088
 20
139.1863464506
 10
134.723177927
 20
139.181857917
 10
134.733091164
 20
139.1776220707
 10
134.7434326492
 20
139.173650436
 10
134.7541742467
 20
139.1699538185
 10
134.7652867324
 20
139.1665422754
 10
134.7767398728
 20
139.1634250884
 10
134.7885025076
 20
139.1606107383
 10
134.8005426346
 20
139.158106882
 10
134.8128274967
 20
139.1559203318
 10
134.8253236707
 20
139.1540570365
 10
134.8379971588
 20
139.1525220655
 10
134.8508134805
 20
139.1513195949
 10
134.8637377668
 20
139.1504528963
 10
134.8767348551
 20
139.1499243277
 10
134.8897693846
 20
139.1497353271
 10
134.9028058926
 20
139.1498864088
 10
134.9158089111
 20
139.1503771617
 10
134.9287430632
 20
139.1512062506
 10
134.9415731593
 20
139.1523714199
 10
134.9542642929
 20
139.1538694994
 10
134.9667819358
 20
139.1556964135
 10
134.9790920315
 20
139.1578471917
 10
134.9911610883
 20
139.1603159825
 10
135.0029562703
 20
139.163096069
 10
135.0144454868
 20
139.1661798877
 10
135.0255974793
 20
139.1695590483
 10
135.0363819069
 20
139.1732243574
 10
135.0467694289
 20
139.1771658429
 10
135.0567317842
 20
139.1813727812
 10
135.0662418685
 20
139.1858337268
  0
LWPOLYLINE
  5
44F
100
AcDbEntity
  8
217
100
AcDbPolyline
 62
7
  6
CONTINUOUS
 90
7
 70
0
 10
148.1430114422
 20
132.0289949479
 10
148.1516619485
 20
132.0248749813
 10
148.1634982537
 20
132.0198759903
 10
148.1755967522
 20
132.0154847098
 10
148.1879282875
 20
132.0117155045
 10
148.2004593658
 20
132.0085823356
 10
148.2037166198
 20
132.0078795329
  0
LWPOLYLINE
  5
450
100
AcDbEntity
  8
217
100
AcDbPolyline
 62
7
  6
CONTINUOUS
 90
7
 70
0
 10
134.7786932778
 20
138.7111540301
 10
134.7873437841
 20
138.7070340635
 10
134.7991800892
 20
138.7020350725
 10
134.8112785878
 20
138.697643792
 10
134.823610123
 20
138.6938745867
 10
134.8361412014
 20
138.6907414178
 10
134.8393984554
 20
138.6900386151
  0
LINE
  5
451
100
AcDbEntity
  8
218
100
AcDbLine
 62
253
  6
CONTINUOUS
 10
159.1373668392
 20
125.3230031611
 11
159.2041679139
 21
125.2896026238
  0
LINE
  5
452
100
AcDbEntity
  8
217
100
AcDbLine
 62
7
  6
CONTINUOUS
 10
148.7892586813
 20
131.1967971842
 11
147.4560463477
 21
131.863403351
  0
LINE
  5
453
100
AcDbEntity
  8
217
100
AcDbLine
 62
7
  6
CONTINUOUS
 10
135.4249405169
 20
137.8789562664
 11
134.0917281833
 21
138.5455624332
  0
LINE
  5
454
100
AcDbEntity
  8
217
100
AcDbLine
 62
7
  6
CONTINUOUS
 10
139.0383932731
 20
136.448476513
 11
144.5497003727
 21
133.6928229632
  0
LINE
  5
455
100
AcDbEntity
  8
217
100
AcDbLine
 62
7
  6
CONTINUOUS
 10
133.4537085254
 20
139.3736464063
 11
134.7786932052
 21
138.7111540664
  0
LINE
  5
456
100
AcDbEntity
  8
217
100
AcDbLine
 62
7
  6
CONTINUOUS
 10
146.8180266898
 20
132.6914873241
 11
148.1430113697
 21
132.0289949842
  0
LINE
  5
457
100
AcDbEntity
  8
217
100
AcDbLine
 62
253
  6
CONTINUOUS
 10
133.388735229
 20
139.5088648564
 11
134.7137199088
 21
138.8463725165
  0
LINE
  5
458
100
AcDbEntity
  8
217
100
AcDbLine
 62
253
  6
CONTINUOUS
 10
146.7530533934
 20
132.8267057742
 11
148.0780380732
 21
132.1642134343
  0
LINE
  5
459
100
AcDbEntity
  8
217
100
AcDbLine
 62
253
  6
CONTINUOUS
 10
148.0780380732
 20
132.5041873684
 11
146.7530533934
 21
133.1666797083
  0
LINE
  5
45A
100
AcDbEntity
  8
217
100
AcDbLine
 62
253
  6
CONTINUOUS
 10
134.7137199088
 20
139.1863464506
 11
133.388735229
 21
139.8488387905
  0
LINE
  5
45B
100
AcDbEntity
  8
217
100
AcDbLine
 62
7
  6
CONTINUOUS
 10
136.6675226593
 20
138.3864050693
 11
138.8919466637
 21
137.2741930671
  0
LINE
  5
45C
100
AcDbEntity
  8
217
100
AcDbLine
 62
7
  6
CONTINUOUS
 10
145.6124234413
 20
133.9139546783
 11
146.7063640424
 21
133.3669843778
  0
LINE
  5
45D
100
AcDbEntity
  8
217
100
AcDbLine
 62
253
  6
CONTINUOUS
 10
148.2537863292
 20
132.8085641834
 11
146.9288016494
 21
133.4710565233
  0
LINE
  5
45E
100
AcDbEntity
  8
217
100
AcDbLine
 62
253
  6
CONTINUOUS
 10
134.8894681648
 20
139.4907232656
 11
133.564483485
 21
140.1532156055
  0
LINE
  5
45F
100
AcDbEntity
  8
217
100
AcDbLine
 62
253
  6
CONTINUOUS
 10
144.5497003727
 20
134.773406274
 11
139.0383932731
 21
137.5290598238
  0
LINE
  5
460
100
AcDbEntity
  8
217
100
AcDbLine
 62
253
  6
CONTINUOUS
 10
144.9725227526
 20
134.8757958384
 11
138.8967681028
 21
137.9136731633
  0
LINE
  5
461
100
AcDbEntity
  8
217
100
AcDbLine
 62
7
  6
CONTINUOUS
 10
136.6675226593
 20
139.0859541613
 11
138.0755653943
 21
138.3819327938
  0
LINE
  5
462
100
AcDbEntity
  8
217
100
AcDbLine
 62
7
  6
CONTINUOUS
 10
150.0318408237
 20
132.4037950791
 11
150.7388398948
 21
132.0502955436
  0
LWPOLYLINE
  5
463
100
AcDbEntity
  8
217
100
AcDbPolyline
 62
253
  6
CONTINUOUS
 90
16
 70
0
 10
133.388735229
 20
139.5088648564
 10
133.3797581618
 20
139.5135938655
 10
133.3712864692
 20
139.518550484
 10
133.3633431998
 20
139.5237212266
 10
133.3559499648
 20
139.5290920254
 10
133.3491268785
 20
139.5346482682
 10
133.3428925045
 20
139.5403748384
 10
133.3372638043
 20
139.5462561558
 10
133.3322560918
 20
139.5522762193
 10
133.3278829914
 20
139.5584186504
 10
133.3241564007
 20
139.5646667374
 10
133.3210864587
 20
139.5710034814
 10
133.3186815175
 20
139.5774116422
 10
133.3169481204
 20
139.5838737854
 10
133.3158909831
 20
139.5903723296
 10
133.3155119243
 20
139.5972532041
  0
LWPOLYLINE
  5
464
100
AcDbEntity
  8
217
100
AcDbPolyline
 62
253
  6
CONTINUOUS
 90
16
 70
0
 10
133.388735229
 20
139.8488387905
 10
133.3797581618
 20
139.8535677996
 10
133.3712864692
 20
139.8585244181
 10
133.3633431998
 20
139.8636951607
 10
133.3559499648
 20
139.8690659595
 10
133.3491268785
 20
139.8746222023
 10
133.3428925045
 20
139.8803487725
 10
133.3372638043
 20
139.8862300899
 10
133.3322560918
 20
139.8922501535
 10
133.3278829914
 20
139.8983925845
 10
133.3241564007
 20
139.9046406715
 10
133.3210864587
 20
139.9109774155
 10
133.3186815175
 20
139.9173855764
 10
133.3169481204
 20
139.9238477195
 10
133.3158909831
 20
139.9303462637
 10
133.3155119243
 20
139.9372271382
  0
LWPOLYLINE
  5
465
100
AcDbEntity
  8
217
100
AcDbPolyline
 62
253
  6
CONTINUOUS
 90
16
 70
0
 10
146.7530533934
 20
132.8267057742
 10
146.7440763262
 20
132.8314347833
 10
146.7356046336
 20
132.8363914018
 10
146.7276613642
 20
132.8415621444
 10
146.7202681292
 20
132.8469329432
 10
146.7134450429
 20
132.852489186
 10
146.7072106689
 20
132.8582157562
 10
146.7015819687
 20
132.8640970736
 10
146.6965742563
 20
132.8701171371
 10
146.6922011558
 20
132.8762595681
 10
146.6884745651
 20
132.8825076552
 10
146.6854046231
 20
132.8888443992
 10
146.682999682
 20
132.89525256
 10
146.6812662848
 20
132.9017147032
 10
146.6802091476
 20
132.9082132474
 10
146.6798300887
 20
132.9150941218
  0
LWPOLYLINE
  5
466
100
AcDbEntity
  8
217
100
AcDbPolyline
 62
253
  6
CONTINUOUS
 90
16
 70
0
 10
146.7530533934
 20
133.1666797083
 10
146.7440966921
 20
133.1713974139
 10
146.7356379101
 20
133.1763448101
 10
146.7277009322
 20
133.1815088892
 10
146.7203068386
 20
133.1868771334
 10
146.7134784492
 20
133.1924342631
 10
146.7072390713
 20
133.1981619075
 10
146.7016068279
 20
133.2040432012
 10
146.6965956488
 20
133.210063345
 10
146.6922190632
 20
133.216206119
 10
146.6884889691
 20
133.2224549299
 10
146.6854156544
 20
133.2287926669
 10
146.6830075942
 20
133.2352019024
 10
146.6812713546
 20
133.2416651112
 10
146.6802116215
 20
133.2481647807
 10
146.6798300887
 20
133.2550677198
  0
LWPOLYLINE
  5
467
100
AcDbEntity
  8
218
100
AcDbPolyline
 62
253
  6
CONTINUOUS
 90
19
 70
0
 10
159.2041679133
 20
125.2896026235
 10
159.2605382787
 20
125.2593578151
 10
159.3163954476
 20
125.2233723584
 10
159.3713144912
 20
125.18191997
 10
159.4248775839
 20
125.1353159856
 10
159.4766772705
 20
125.0839148861
 10
159.5263195558
 20
125.0281075758
 10
159.57342678
 20
124.9683185326
 10
159.6176405194
 20
124.9050025851
 10
159.658624391
 20
124.838641356
 10
159.6960665917
 20
124.7697396043
 10
159.7296821881
 20
124.6988215447
 10
159.759215328
 20
124.6264268514
 10
159.7844413015
 20
124.5531062937
 10
159.8051681718
 20
124.4794176717
 10
159.8212381997
 20
124.4059217384
 10
159.8325291207
 20
124.3331776883
 10
159.8389550462
 20
124.2617389031
 10
159.8404670885
 20
124.1921488807
  0
LWPOLYLINE
  5
468
100
AcDbEntity
  8
217
100
AcDbPolyline
 62
7
  6
CONTINUOUS
 90
37
 70
0
 10
150.0317355824
 20
131.7039265453
 10
150.0466378666
 20
131.695128137
 10
150.0615423153
 20
131.6855504829
 10
150.0764208555
 20
131.6752073626
 10
150.09126527
 20
131.6641038504
 10
150.1060269495
 20
131.6522657132
 10
150.1206185993
 20
131.6397470896
 10
150.1349988722
 20
131.626583638
 10
150.149157365
 20
131.6127951638
 10
150.1630561724
 20
131.5984221496
 10
150.1766521657
 20
131.583517697
 10
150.189942893
 20
131.568093192
 10
150.2029501191
 20
131.5521234527
 10
150.2156574164
 20
131.5356251237
 10
150.2280319497
 20
131.5186375414
 10
150.2400666588
 20
131.5011633957
 10
150.2517548561
 20
131.4832031947
 10
150.2630521456
 20
131.4648150778
 10
150.2738981877
 20
131.4460916399
 10
150.2842722588
 20
131.427072951
 10
150.2941583575
 20
131.4077917857
 10
150.3035130631
 20
131.3883361928
 10
150.3123213348
 20
131.3687530904
 10
150.3205765897
 20
131.3490729433
 10
150.3282563809
 20
131.3293613406
 10
150.3353495402
 20
131.3096728677
 10
150.3418587432
 20
131.2900278035
 10
150.3477848197
 20
131.2704394994
 10
150.3531236734
 20
131.2509456297
 10
150.3578740167
 20
131.2315778345
 10
150.3620382266
 20
131.2123393842
 10
150.3656149011
 20
131.193256698
 10
150.3686010734
 20
131.1743689925
 10
150.3709949693
 20
131.1556982842
 10
150.3727958919
 20
131.137272687
 10
150.3740051187
 20
131.1191261079
 10
150.3746245726
 20
131.1012884169
  0
LWPOLYLINE
  5
469
100
AcDbEntity
  8
218
100
AcDbPolyline
 62
253
  6
CONTINUOUS
 90
13
 70
0
 10
144.4354102614
 20
137.0252895046
 10
144.4531211971
 20
137.0141676286
 10
144.4711893105
 20
137.0007631406
 10
144.4893110717
 20
136.9853012725
 10
144.5071820571
 20
136.9680418131
 10
144.5245020768
 20
136.9492747289
 10
144.5409802153
 20
136.9293152882
 10
144.5563396853
 20
136.9084988041
 10
144.5703225223
 20
136.8871749453
 10
144.582693915
 20
136.8657018435
 10
144.5932460888
 20
136.8444401676
 10
144.6018018095
 20
136.8237470683
 10
144.608217393
 20
136.803970118
  0
LWPOLYLINE
  5
46A
100
AcDbEntity
  8
218
100
AcDbPolyline
 62
7
  6
CONTINUOUS
 90
35
 70
0
 10
165.8071030288
 20
123.0028617585
 10
165.9238765409
 20
122.9257596644
 10
166.0636732163
 20
122.8212460181
 10
166.200411074
 20
122.7067174207
 10
166.3332765194
 20
122.5830009156
 10
166.4616619745
 20
122.4508541397
 10
166.5852435764
 20
122.3107867326
 10
166.7036237393
 20
122.1633812276
 10
166.8163781239
 20
122.0092703366
 10
166.9230536914
 20
121.8491635509
 10
167.0232107048
 20
121.683807792
 10
167.1164266497
 20
121.5139900283
 10
167.2023797733
 20
121.3403719958
 10
167.2807951557
 20
121.163534035
 10
167.3513618313
 20
120.9841434691
 10
167.4137364141
 20
120.803008907
 10
167.4676211503
 20
120.6209136099
 10
167.5127578734
 20
120.4386090248
 10
167.5489167759
 20
120.2568321858
 10
167.5758925194
 20
120.076308724
 10
167.593512324
 20
119.8976062699
 10
167.6015852243
 20
119.7216097525
 10
167.5999851614
 20
119.5494295103
 10
167.5886377879
 20
119.3815135336
 10
167.567503184
 20
119.2187365963
 10
167.5367738282
 20
119.0626429552
 10
167.4966693339
 20
118.91390099
 10
167.4473429837
 20
118.7728080594
 10
167.3891478618
 20
118.6401419696
 10
167.3223394757
 20
118.5162446192
 10
167.2472707596
 20
118.4015855217
 10
167.1646810516
 20
118.2969878846
 10
167.075241878
 20
118.2028605464
 10
166.979417567
 20
118.1192799881
 10
166.877826121
 20
118.0464310813
  0
LWPOLYLINE
  5
46B
100
AcDbEntity
  8
218
100
AcDbPolyline
 62
253
  6
CONTINUOUS
 90
34
 70
0
 10
165.8071030288
 20
122.9242512384
 10
165.8851981845
 20
122.8687393856
 10
166.0223390506
 20
122.7592837738
 10
166.1568815383
 20
122.6397582983
 10
166.288198113
 20
122.5107204483
 10
166.4156762674
 20
122.3727720992
 10
166.5387214
 20
122.2265566885
 10
166.6567595912
 20
122.0727562102
 10
166.7692402814
 20
121.9120880291
 10
166.8756388319
 20
121.7453015432
 10
166.9754589709
 20
121.5731746896
 10
167.0682351084
 20
121.3965103171
 10
167.15353451
 20
121.2161324389
 10
167.2309593153
 20
121.0328823881
 10
167.3001483938
 20
120.8476148936
 10
167.3607790286
 20
120.661194094
 10
167.4125684214
 20
120.474489508
 10
167.4552750121
 20
120.2883719777
 10
167.4886996051
 20
120.1037096072
 10
167.512686299
 20
119.9213637134
 10
167.527123213
 20
119.7421848083
 10
167.5319430094
 20
119.5670086321
 10
167.5271232073
 20
119.3966522554
 10
167.5126862876
 20
119.2319102678
 10
167.4886995881
 20
119.0735510717
 10
167.4552749894
 20
118.9223132985
 10
167.4125683931
 20
118.7789023635
 10
167.3607789948
 20
118.6439871752
 10
167.3001483547
 20
118.5181970159
 10
167.230959271
 20
118.4021186056
 10
167.1535344606
 20
118.2962933663
 10
167.0682350541
 20
118.201214896
 10
166.9754589118
 20
118.1173266677
 10
166.877826121
 20
118.0464310813
  0
LINE
  5
46C
100
AcDbEntity
  8
218
100
AcDbLine
 62
253
  6
CONTINUOUS
 10
164.9877847237
 20
119.862124181
 11
164.8885478092
 21
119.9344608267
  0
LINE
  5
46D
100
AcDbEntity
  8
218
100
AcDbLine
 62
253
  6
CONTINUOUS
 10
164.6900739905
 20
121.4400309506
 11
164.5908370657
 21
121.5123673845
  0
LINE
  5
46E
100
AcDbEntity
  8
218
100
AcDbLine
 62
253
  6
CONTINUOUS
 10
164.8885478092
 20
121.9758064803
 11
164.9877847237
 21
121.9034700411
  0
LINE
  5
46F
100
AcDbEntity
  8
218
100
AcDbLine
 62
253
  6
CONTINUOUS
 10
164.5412186343
 20
121.754731975
 11
164.5908370657
 21
121.6979443747
  0
LINE
  5
470
100
AcDbEntity
  8
218
100
AcDbLine
 62
7
  6
CONTINUOUS
 10
157.203437254
 20
133.4812594736
 11
156.4507431701
 21
134.7794647346
  0
LINE
  5
471
100
AcDbEntity
  8
218
100
AcDbLine
 62
253
  6
CONTINUOUS
 10
158.5111045775
 20
133.1123456447
 11
158.0568567683
 21
133.8958072239
  0
LINE
  5
472
100
AcDbEntity
  8
218
100
AcDbLine
 62
7
  6
CONTINUOUS
 10
158.8286635014
 20
133.2321341664
 11
158.4471211327
 21
133.89019741
  0
LWPOLYLINE
  5
473
100
AcDbEntity
  8
218
100
AcDbPolyline
 62
253
  6
CONTINUOUS
 90
35
 70
0
 10
165.8071030288
 20
120.9207736872
 10
165.8187005551
 20
120.8838987667
 10
165.8386380626
 20
120.8109848952
 10
165.8549520596
 20
120.7400131448
 10
165.8685478199
 20
120.6709468098
 10
165.8796055768
 20
120.6039679406
 10
165.8881329517
 20
120.5390444391
 10
165.8947326332
 20
120.475792876
 10
165.8995450471
 20
120.4142341876
 10
165.9025645866
 20
120.3544393819
 10
165.9041367247
 20
120.296080677
 10
165.9043529036
 20
120.2391099476
 10
165.9032219565
 20
120.1836335543
 10
165.9009441285
 20
120.1295454524
 10
165.8975829829
 20
120.0768309389
 10
165.8931604068
 20
120.0255448146
 10
165.8878054898
 20
119.975680878
 10
165.8815767503
 20
119.9272646344
 10
165.8744929821
 20
119.8802986796
 10
165.8666188985
 20
119.8347396345
 10
165.8580122143
 20
119.7906030085
 10
165.8486831787
 20
119.7478918983
 10
165.8386212602
 20
119.7065418701
 10
165.8278716685
 20
119.6665143133
 10
165.8164481137
 20
119.6278592772
 10
165.8042921444
 20
119.5906436011
 10
165.7914397009
 20
119.5548165508
 10
165.7779098132
 20
119.5204358649
 10
165.7636226207
 20
119.4877303021
 10
165.748611163
 20
119.4566626575
 10
165.7328950649
 20
119.4272750131
 10
165.7163799802
 20
119.3999151423
 10
165.699051701
 20
119.3747008775
 10
165.6809708642
 20
119.3515198993
 10
165.6621550329
 20
119.3303753631
  0
LWPOLYLINE
  5
474
100
AcDbEntity
  8
217
100
AcDbPolyline
 62
7
  6
CONTINUOUS
 90
18
 70
0
 10
144.9725227526
 20
134.8757958384
 10
144.9552280846
 20
134.8743035028
 10
144.9380336864
 20
134.8723099249
 10
144.9209753486
 20
134.869902742
 10
144.9040845152
 20
134.8671917884
 10
144.8873802524
 20
134.8642347759
 10
144.8708734325
 20
134.8610239278
 10
144.8545800256
 20
134.8576136999
 10
144.8385102326
 20
134.8540691702
 10
144.8226670788
 20
134.8503752142
 10
144.8070582671
 20
134.8465719319
 10
144.7916891844
 20
134.8427083437
 10
144.7765624564
 20
134.83876807
 10
144.7616814388
 20
134.8347820227
 10
144.7470489128
 20
134.8307879367
 10
144.7326702879
 20
134.8267708073
 10
144.718546735
 20
134.8227556467
 10
144.6910769893
 20
134.8148080345
  0
LINE
  5
475
100
AcDbEntity
  8
217
100
AcDbLine
 62
253
  6
CONTINUOUS
 10
148.4305600329
 20
132.1637007104
 11
149.141780641
 21
132.0151971876
  0
LWPOLYLINE
  5
476
100
AcDbEntity
  8
218
100
AcDbPolyline
 62
253
  6
CONTINUOUS
 90
3
 70
0
 10
159.1373668392
 20
131.221710254
 10
159.1689627741
 20
131.2122445608
 10
159.2008938963
 20
131.1982871413
  0
LWPOLYLINE
  5
477
100
AcDbEntity
  8
218
100
AcDbPolyline
 62
253
  6
CONTINUOUS
 90
8
 70
0
 10
145.899953576
 20
136.2930178473
 10
145.8811289029
 20
136.3001639079
 10
145.8632752426
 20
136.3047205596
 10
145.8466924985
 20
136.3066112604
 10
145.8316592257
 20
136.3058042505
 10
145.8184279511
 20
136.302313086
 10
145.807220932
 20
136.2961964109
 10
145.8031532049
 20
136.2928576075
  0
LWPOLYLINE
  5
478
100
AcDbEntity
  8
218
100
AcDbPolyline
 62
7
  6
CONTINUOUS
 90
10
 70
0
 10
144.4096830397
 20
137.734626944
 10
144.397213891
 20
137.7399833662
 10
144.38539745
 20
137.7439605427
 10
144.3742764104
 20
137.7466377692
 10
144.3638652139
 20
137.7480926398
 10
144.3541852036
 20
137.7484300537
 10
144.3452668686
 20
137.7477791401
 10
144.3371204505
 20
137.7462467754
 10
144.3296940906
 20
137.7439289129
 10
144.3248509259
 20
137.7418712887
  0
LWPOLYLINE
  5
479
100
AcDbEntity
  8
218
100
AcDbPolyline
 62
253
  6
CONTINUOUS
 90
9
 70
0
 10
165.3094618241
 20
128.1440031405
 10
165.2761695953
 20
128.1584536174
 10
165.2299873026
 20
128.1720477668
 10
165.1814591664
 20
128.1794031621
 10
165.1309579166
 20
128.1804913011
 10
165.0789719913
 20
128.1753473845
 10
165.0259361469
 20
128.1640826129
 10
164.9722160737
 20
128.1468409763
 10
164.9182096722
 20
128.1238094604
  0
LWPOLYLINE
  5
47A
100
AcDbEntity
  8
217
100
AcDbPolyline
 62
253
  6
CONTINUOUS
 90
14
 70
0
 10
149.156783089
 20
134.5499779792
 10
149.1493556684
 20
134.5532974969
 10
149.1417727258
 20
134.555935197
 10
149.1339263075
 20
134.5579480676
 10
149.1258380162
 20
134.5593305925
 10
149.1175300484
 20
134.5600790528
 10
149.109024876
 20
134.560191497
 10
149.1003454133
 20
134.5596676482
 10
149.0915133228
 20
134.5585086062
 10
149.0825545398
 20
134.5567175708
 10
149.0734992029
 20
134.5543011404
 10
149.0643740341
 20
134.551267769
 10
149.0552020296
 20
134.5476264118
 10
149.0460081312
 20
134.5433880872
  0
LWPOLYLINE
  5
47B
100
AcDbEntity
  8
217
100
AcDbPolyline
 62
253
  6
CONTINUOUS
 90
14
 70
0
 10
137.1297910869
 20
140.5634739802
 10
137.1223930062
 20
140.5667818741
 10
137.1148127889
 20
140.5694215276
 10
137.1069691425
 20
140.5714366395
 10
137.0988834069
 20
140.5728217275
 10
137.0905775809
 20
140.5735730232
 10
137.0820742617
 20
140.5736884825
 10
137.0733965842
 20
140.5731677914
 10
137.0645681573
 20
140.5720123664
 10
137.0556130004
 20
140.570225351
 10
137.0465554775
 20
140.5678116073
 10
137.037420231
 20
140.5647777021
 10
137.028232115
 20
140.5611318897
 10
137.0190161274
 20
140.5568840891
  0
LWPOLYLINE
  5
47C
100
AcDbEntity
  8
217
100
AcDbPolyline
 62
253
  6
CONTINUOUS
 90
14
 70
0
 10
135.7924649264
 20
141.2321370605
 10
135.7850668456
 20
141.2354449544
 10
135.7774866283
 20
141.2380846078
 10
135.7696429819
 20
141.2400997198
 10
135.7615572464
 20
141.2414848078
 10
135.7532514203
 20
141.2422361035
 10
135.7447481012
 20
141.2423515628
 10
135.7360704236
 20
141.2418308717
 10
135.7272419968
 20
141.2406754467
 10
135.7182868399
 20
141.2388884313
 10
135.7092293169
 20
141.2364746876
 10
135.7000940705
 20
141.2334407823
 10
135.6909059545
 20
141.2297949699
 10
135.6816899668
 20
141.2255471694
  0
LWPOLYLINE
  5
47D
100
AcDbEntity
  8
217
100
AcDbPolyline
 62
253
  6
CONTINUOUS
 90
14
 70
0
 10
150.4941021492
 20
133.8813184487
 10
150.4867306721
 20
133.8846150594
 10
150.4791495296
 20
133.8872568372
 10
150.4713047784
 20
133.8892738263
 10
150.4632177722
 20
133.8906605325
 10
150.45491052
 20
133.8914131781
 10
150.4464056332
 20
133.8915297111
 10
150.4377262681
 20
133.8910098116
 10
150.4288960422
 20
133.8898548921
 10
150.4199389958
 20
133.8880680949
 10
150.4108795366
 20
133.8856542901
 10
150.4017423331
 20
133.8826200553
 10
150.3925522467
 20
133.8789736512
 10
150.3833342918
 20
133.8747250069
  0
LWPOLYLINE
  5
47E
100
AcDbEntity
  8
217
100
AcDbPolyline
 62
253
  6
CONTINUOUS
 90
15
 70
0
 10
133.564483485
 20
140.1532156055
 10
133.5551776121
 20
140.1575189084
 10
133.5459000566
 20
140.161218175
 10
133.5366762583
 20
140.1643032581
 10
133.5275315007
 20
140.1667656964
 10
133.5184908688
 20
140.1685987306
 10
133.5095791786
 20
140.1697973279
 10
133.5008208717
 20
140.170358203
 10
133.4922399578
 20
140.1702798205
 10
133.4838599735
 20
140.1695623976
 10
133.4757038972
 20
140.1682079053
 10
133.4677940906
 20
140.1662200607
 10
133.4601522439
 20
140.1636043189
 10
133.4527993009
 20
140.1603678519
 10
133.4514049768
 20
140.1596672524
  0
LWPOLYLINE
  5
47F
100
AcDbEntity
  8
217
100
AcDbPolyline
 62
7
  6
CONTINUOUS
 90
18
 70
0
 10
135.7924649264
 20
141.2321370605
 10
135.7802591141
 20
141.2378342481
 10
135.7676368354
 20
141.2429130561
 10
135.7546366456
 20
141.2473349568
 10
135.7412820643
 20
141.2510692295
 10
135.7276390765
 20
141.2540768159
 10
135.713814787
 20
141.2563222348
 10
135.699883653
 20
141.2577901869
 10
135.6858749643
 20
141.2584758967
 10
135.6718254678
 20
141.2583740621
 10
135.6577931555
 20
141.2574821406
 10
135.6438206094
 20
141.2558008565
 10
135.6299147502
 20
141.2533256152
 10
135.6160698442
 20
141.2500419893
 10
135.6023875855
 20
141.2459606526
 10
135.5890166558
 20
141.241126947
 10
135.5759939347
 20
141.2355648303
 10
135.5711712163
 20
141.2332787259
  0
LINE
  5
480
100
AcDbEntity
  8
218
100
AcDbLine
 62
253
  6
CONTINUOUS
 10
145.4648592554
 20
137.8591657435
 11
145.4683000848
 21
137.8575524765
  0
LWPOLYLINE
  5
481
100
AcDbEntity
  8
217
100
AcDbPolyline
 62
7
  6
CONTINUOUS
 90
16
 70
0
 10
148.5115582525
 20
134.2830406206
 10
148.5031471771
 20
134.2870011045
 10
148.4947549595
 20
134.2904620832
 10
148.4864007118
 20
134.293415767
 10
148.4781035378
 20
134.2958555551
 10
148.4698822394
 20
134.2977759213
 10
148.4617552736
 20
134.2991724266
 10
148.4537411083
 20
134.3000419352
 10
148.4458579889
 20
134.3003825218
 10
148.4381236467
 20
134.3001933464
 10
148.4305556392
 20
134.2994748545
 10
148.4231711822
 20
134.2982287089
 10
148.4159869197
 20
134.2964576862
 10
148.409019141
 20
134.294165805
 10
148.4022836818
 20
134.2913582819
 10
148.4006260637
 20
134.2905707785
  0
LWPOLYLINE
  5
482
100
AcDbEntity
  8
217
100
AcDbPolyline
 62
7
  6
CONTINUOUS
 90
16
 70
0
 10
135.1472400881
 20
140.9651997028
 10
135.1388290127
 20
140.9691601867
 10
135.1304367951
 20
140.9726211654
 10
135.1220825474
 20
140.9755748492
 10
135.1137853734
 20
140.9780146373
 10
135.105564075
 20
140.9799350035
 10
135.0974371092
 20
140.9813315088
 10
135.0894229438
 20
140.9822010174
 10
135.0815398245
 20
140.982541604
 10
135.0738054823
 20
140.9823524286
 10
135.0662374747
 20
140.9816339368
 10
135.0588530178
 20
140.9803877911
 10
135.0516687553
 20
140.9786167685
 10
135.0447009766
 20
140.9763248872
 10
135.0379655174
 20
140.9735173641
 10
135.0363078993
 20
140.9727298607
  0
LWPOLYLINE
  5
483
100
AcDbEntity
  8
217
100
AcDbPolyline
 62
253
  6
CONTINUOUS
 90
14
 70
0
 10
149.0460081312
 20
134.5433880872
 10
149.0368091216
 20
134.5477429239
 10
149.0276325059
 20
134.5514910222
 10
149.0185034356
 20
134.5546221092
 10
149.0094469318
 20
134.5571276033
 10
149.0004878166
 20
134.5590006373
 10
148.9916506453
 20
134.5602360776
 10
148.9829596388
 20
134.5608305381
 10
148.9744386178
 20
134.5607823894
 10
148.9661109365
 20
134.5600917636
 10
148.9579994198
 20
134.5587605536
 10
148.9501262996
 20
134.5567924079
 10
148.9425131548
 20
134.5541927208
 10
148.9354960201
 20
134.5511228782
  0
LWPOLYLINE
  5
484
100
AcDbEntity
  8
217
100
AcDbPolyline
 62
253
  6
CONTINUOUS
 90
14
 70
0
 10
135.6816899668
 20
141.2255471694
 10
135.6725128593
 20
141.2298923464
 10
135.6633522408
 20
141.2336358569
 10
135.6542331962
 20
141.2367663288
 10
135.645178891
 20
141.239274494
 10
135.6362162007
 20
141.2411515804
 10
135.6273754128
 20
141.2423906703
 10
135.6186826543
 20
141.2429883059
 10
135.6101598116
 20
141.2429431903
 10
135.6018300197
 20
141.24225542
 10
135.5937159777
 20
141.2409267963
 10
135.5858401145
 20
141.2389609167
 10
135.5782242706
 20
141.236363207
 10
135.5711778562
 20
141.2332819607
  0
LINE
  5
485
100
AcDbEntity
  8
217
100
AcDbLine
 62
7
  6
CONTINUOUS
 10
139.3898837669
 20
138.2376600808
 11
145.6124234413
 21
135.1263902436
  0
LINE
  5
486
100
AcDbEntity
  8
217
100
AcDbLine
 62
7
  6
CONTINUOUS
 10
135.1472400881
 20
140.9651997028
 11
136.4907489556
 21
140.2934452691
  0
LINE
  5
487
100
AcDbEntity
  8
217
100
AcDbLine
 62
7
  6
CONTINUOUS
 10
148.5115582525
 20
134.2830406206
 11
149.85506712
 21
133.6112861869
  0
LINE
  5
488
100
AcDbEntity
  8
217
100
AcDbLine
 62
7
  6
CONTINUOUS
 10
140.7333866511
 20
138.2679770315
 11
145.6831341194
 21
135.7931032973
  0
LINE
  5
489
100
AcDbEntity
  8
217
100
AcDbLine
 62
253
  6
CONTINUOUS
 10
135.6816899668
 20
141.2255471694
 11
137.0190161274
 21
140.5568840891
  0
LINE
  5
48A
100
AcDbEntity
  8
217
100
AcDbLine
 62
253
  6
CONTINUOUS
 10
149.0460081312
 20
134.5433880872
 11
150.3833342918
 21
133.8747250069
  0
LINE
  5
48B
100
AcDbEntity
  8
217
100
AcDbLine
 62
7
  6
CONTINUOUS
 10
135.7924649264
 20
141.2321370605
 11
137.1297910869
 21
140.5634739802
  0
LINE
  5
48C
100
AcDbEntity
  8
217
100
AcDbLine
 62
7
  6
CONTINUOUS
 10
149.1567830908
 20
134.5499779783
 11
150.4941092513
 21
133.881314898
  0
LINE
  5
48D
100
AcDbEntity
  8
218
100
AcDbLine
 62
253
  6
CONTINUOUS
 10
145.0210886076
 20
136.916230542
 11
145.7794942063
 21
136.5370277427
  0
LINE
  5
48E
100
AcDbEntity
  8
218
100
AcDbLine
 62
253
  6
CONTINUOUS
 10
145.1235289552
 20
137.1339461255
 11
145.8819345538
 21
136.7547433261
  0
LINE
  5
48F
100
AcDbEntity
  8
218
100
AcDbLine
 62
7
  6
CONTINUOUS
 10
146.9972960997
 20
136.4408204139
 11
144.4096830397
 21
137.734626944
  0
LINE
  5
490
100
AcDbEntity
  8
218
100
AcDbLine
 62
253
  6
CONTINUOUS
 10
147.6046838162
 20
136.7401864177
 11
145.3800843261
 21
137.8524861627
  0
LINE
  5
491
100
AcDbEntity
  8
218
100
AcDbLine
 62
253
  6
CONTINUOUS
 10
164.9182096722
 20
128.1238094604
 11
159.1373668392
 21
131.0142308769
  0
LINE
  5
492
100
AcDbEntity
  8
218
100
AcDbLine
 62
7
  6
CONTINUOUS
 10
147.6542109081
 20
136.7645970654
 11
145.4682929268
 21
137.8575560561
  0
LINE
  5
493
100
AcDbEntity
  8
218
100
AcDbLine
 62
7
  6
CONTINUOUS
 10
159.2008939261
 20
131.1982871263
 11
165.3095952647
 21
128.143936457
  0
LWPOLYLINE
  5
494
100
AcDbEntity
  8
218
100
AcDbPolyline
 62
7
  6
CONTINUOUS
 90
9
 70
0
 10
165.3094618241
 20
128.1440031405
 10
165.3502129144
 20
128.1223124573
 10
165.4159931165
 20
128.0812665164
 10
165.4780813145
 20
128.0346414253
 10
165.5360899256
 20
127.9826720203
 10
165.5895583256
 20
127.9256842625
 10
165.6380150089
 20
127.8640878502
 10
165.6810694124
 20
127.7982732638
 10
165.7183389263
 20
127.7286907671
  0
LWPOLYLINE
  5
495
100
AcDbEntity
  8
217
100
AcDbPolyline
 62
7
  6
CONTINUOUS
 90
22
 70
0
 10
137.1297910869
 20
140.5634739802
 10
137.1414476528
 20
140.5572553959
 10
137.1528030355
 20
140.55040179
 10
137.163813881
 20
140.5429305259
 10
137.1744424431
 20
140.5348592581
 10
137.1846439317
 20
140.5262155025
 10
137.1943688555
 20
140.5170385227
 10
137.203543374
 20
140.5074054986
 10
137.2121816431
 20
140.4973114826
 10
137.2203521377
 20
140.486661697
 10
137.2280529337
 20
140.4754127189
 10
137.2351864576
 20
140.4636601322
 10
137.2416734617
 20
140.4515124899
 10
137.2474770936
 20
140.4390367979
 10
137.2525877372
 20
140.426254779
 10
137.2569867754
 20
140.4132118225
 10
137.2606583668
 20
140.3999582932
 10
137.2635933522
 20
140.3865347044
 10
137.2657870022
 20
140.3729655196
 10
137.2672327741
 20
140.3592807587
 10
137.2679234586
 20
140.3455337967
 10
137.2679876877
 20
140.3398739685
  0
LWPOLYLINE
  5
496
100
AcDbEntity
  8
218
100
AcDbPolyline
 62
253
  6
CONTINUOUS
 90
19
 70
0
 10
164.9182096722
 20
128.1238094604
 10
164.9745813541
 20
128.0935638754
 10
165.0304396841
 20
128.0575774638
 10
165.0853597115
 20
128.0161239979
 10
165.1389236236
 20
127.9695188413
 10
165.1907239247
 20
127.9181165499
 10
165.2403665361
 20
127.8623081746
 10
165.2874737938
 20
127.8025182863
 10
165.3316873222
 20
127.7392017456
 10
165.37267076
 20
127.6728402431
 10
165.4101123193
 20
127.6039386341
 10
165.4437271577
 20
127.5330210982
 10
165.4732595452
 20
127.4606271516
 10
165.4984848095
 20
127.3873075423
 10
165.5192110455
 20
127.3136200607
 10
165.5352805753
 20
127.2401252956
 10
165.5465711473
 20
127.1673823698
 10
165.5529968668
 20
127.0959446863
 10
165.5545088491
 20
127.0263557184
  0
LWPOLYLINE
  5
497
100
AcDbEntity
  8
218
100
AcDbPolyline
 62
253
  6
CONTINUOUS
 90
15
 70
0
 10
145.8819345538
 20
136.7547433261
 10
145.9155165302
 20
136.7355002002
 10
145.9448331183
 20
136.7138767973
 10
145.969884318
 20
136.6898731176
 10
145.9908735101
 20
136.6632407689
 10
146.0075973138
 20
136.6342281433
 10
146.0194455869
 20
136.6035804169
 10
146.0263023805
 20
136.5712204692
 10
146.0282836436
 20
136.5372254207
 10
146.0251270807
 20
136.5025718085
 10
146.0166643415
 20
136.4672057199
 10
146.0030637763
 20
136.4311810675
 10
145.9845681416
 20
136.3956361265
 10
145.961258356
 20
136.360950322
 10
145.9330535008
 20
136.326744229
  0
LWPOLYLINE
  5
498
100
AcDbEntity
  8
218
100
AcDbPolyline
 62
253
  6
CONTINUOUS
 90
9
 70
0
 10
145.7794942063
 20
136.5370277427
 10
145.7993753827
 20
136.5254137519
 10
145.8170371145
 20
136.5116692698
 10
145.8322886894
 20
136.4959045845
 10
145.8449532731
 20
136.478210822
 10
145.8548969689
 20
136.458746537
 10
145.8620115821
 20
136.4377331849
 10
145.8661879988
 20
136.4152685718
 10
145.8673621355
 20
136.3946668208
  0
LWPOLYLINE
  5
499
100
AcDbEntity
  8
218
100
AcDbPolyline
 62
7
  6
CONTINUOUS
 90
8
 70
0
 10
159.2029131752
 20
131.1972721695
 10
159.2022508692
 20
131.1976918978
 10
159.1973776936
 20
131.2010729189
 10
159.1890829371
 20
131.2074417116
 10
159.1777344085
 20
131.217015158
 10
159.1638383008
 20
131.229810065
 10
159.1477733819
 20
131.2458727258
 10
159.1373668392
 20
131.2571322859
  0
LWPOLYLINE
  5
49A
100
AcDbEntity
  8
218
100
AcDbPolyline
 62
7
  6
CONTINUOUS
 90
8
 70
0
 10
159.2028810717
 20
131.1972935535
 10
159.1998666919
 20
131.199301421
 10
159.1936600506
 20
131.2038494599
 10
159.1847064227
 20
131.211029162
 10
159.1734002336
 20
131.2208885041
 10
159.1600355725
 20
131.2334948359
 10
159.1448608529
 20
131.2489204802
 10
159.1373668392
 20
131.2571080829
  0
LWPOLYLINE
  5
49B
100
AcDbEntity
  8
218
100
AcDbPolyline
 62
7
  6
CONTINUOUS
 90
6
 70
0
 10
165.7183389934
 20
127.7286906276
 10
165.7494622527
 20
127.6558603862
 10
165.7741313219
 20
127.580327085
 10
165.7920939852
 20
127.5026315713
 10
165.8031319287
 20
127.4234042875
 10
165.8071030285
 20
127.3389637399
  0
LWPOLYLINE
  5
49C
100
AcDbEntity
  8
218
100
AcDbPolyline
 62
253
  6
CONTINUOUS
 90
9
 70
0
 10
157.8197105619
 20
140.6574867418
 10
157.8938126543
 20
140.6718926968
 10
157.9671549892
 20
140.6803148322
 10
158.0393068093
 20
140.6825755896
 10
158.1101218212
 20
140.6784627225
 10
158.1788841575
 20
140.6679499932
 10
158.2443546763
 20
140.6513395884
 10
158.3060305117
 20
140.6288463727
 10
158.3397841086
 20
140.6132696385
  0
LWPOLYLINE
  5
49D
100
AcDbEntity
  8
218
100
AcDbPolyline
 62
7
  6
CONTINUOUS
 90
10
 70
0
 10
145.3428558033
 20
137.8894328129
 10
145.261733345
 20
137.9011531676
 10
145.1794597258
 20
137.9090564189
 10
145.0966666643
 20
137.9131453824
 10
145.0137874935
 20
137.9134436795
 10
144.9310576636
 20
137.9099516842
 10
144.8490069173
 20
137.9026560865
 10
144.7681744857
 20
137.8915517875
 10
144.6887762825
 20
137.8765717347
 10
144.6112254522
 20
137.8576348857
  0
LWPOLYLINE
  5
49E
100
AcDbEntity
  8
218
100
AcDbPolyline
 62
253
  6
CONTINUOUS
 90
13
 70
0
 10
145.3800843261
 20
137.8524861627
 10
145.3103620962
 20
137.8660609075
 10
145.2396202973
 20
137.8763244086
 10
145.1678589294
 20
137.8832766661
 10
145.0944195531
 20
137.8869270407
 10
145.0199606079
 20
137.8872661718
 10
144.9464574121
 20
137.8842659772
 10
144.8739329019
 20
137.8778214154
 10
144.8023641412
 20
137.8680375281
 10
144.7336576399
 20
137.8552013576
 10
144.6684489015
 20
137.8394085848
 10
144.6061024226
 20
137.8205635288
 10
144.5466182031
 20
137.7986661896
  0
LINE
  5
49F
100
AcDbEntity
  8
218
100
AcDbLine
 62
7
  6
CONTINUOUS
 10
145.4222794954
 20
137.8738984257
 11
145.3428558033
 21
137.8894328129
  0
LINE
  5
4A0
100
AcDbEntity
  8
217
100
AcDbLine
 62
7
  6
CONTINUOUS
 10
134.8393983749
 20
138.6900386319
 11
135.4650050686
 21
138.5594172355
  0
LINE
  5
4A1
100
AcDbEntity
  8
217
100
AcDbLine
 62
253
  6
CONTINUOUS
 10
135.0662418685
 20
138.8458597927
 11
135.7774624766
 21
138.6973562698
  0
LWPOLYLINE
  5
4A2
100
AcDbEntity
  8
218
100
AcDbPolyline
 62
7
  6
CONTINUOUS
 90
7
 70
0
 10
145.4222726378
 20
137.8738999502
 10
145.4301333205
 20
137.8719839447
 10
145.4392293734
 20
137.8693388016
 10
145.4481927571
 20
137.8662648896
 10
145.4570130401
 20
137.8627645385
 10
145.4656705015
 20
137.8588434129
 10
145.4683110597
 20
137.8575469865
  0
LWPOLYLINE
  5
4A3
100
AcDbEntity
  8
217
100
AcDbPolyline
 62
7
  6
CONTINUOUS
 90
16
 70
0
 10
145.499051349
 20
140.5745903565
 10
145.4972427557
 20
140.5753740153
 10
145.4930392473
 20
140.5765523684
 10
145.4880859263
 20
140.5772471052
 10
145.4824265372
 20
140.5774761042
 10
145.4760975296
 20
140.5772463842
 10
145.4690947565
 20
140.5765907238
 10
145.4614284716
 20
140.575521168
 10
145.4531411438
 20
140.5740493625
 10
145.4442657102
 20
140.5722083412
 10
145.4348293453
 20
140.5700007488
 10
145.4248647197
 20
140.567441377
 10
145.4144166578
 20
140.5645790976
 10
145.4035228501
 20
140.5614332518
 10
145.3922111396
 20
140.557994584
 10
145.380513639
 20
140.5542668961
  0
LWPOLYLINE
  5
4A4
100
AcDbEntity
  8
217
100
AcDbPolyline
 62
7
  6
CONTINUOUS
 90
16
 70
0
 10
151.0540357127
 20
137.7970981657
 10
151.0525192272
 20
137.7977685302
 10
151.048390891
 20
137.7989816489
 10
151.0435169033
 20
137.7997132796
 10
151.0379418767
 20
137.7999807013
 10
151.031702149
 20
137.7997911939
 10
151.0247942554
 20
137.7991785917
 10
151.0172294501
 20
137.7981551192
 10
151.0090497731
 20
137.7967317484
 10
151.0002862296
 20
137.7949413558
 10
150.9909653772
 20
137.7927868764
 10
150.9811198703
 20
137.7902825966
 10
150.9707928192
 20
137.7874762528
 10
150.960020909
 20
137.7843868527
 10
150.9488319301
 20
137.7810055153
 10
150.9372575115
 20
137.7773360775
  0
LWPOLYLINE
  5
4A5
100
AcDbEntity
  8
217
100
AcDbPolyline
 62
7
  6
CONTINUOUS
 90
18
 70
0
 10
147.8981243819
 20
140.0185597733
 10
147.8785622976
 20
140.0276495063
 10
147.8556665174
 20
140.036634921
 10
147.8321572311
 20
140.0441371538
 10
147.808015909
 20
140.0501713236
 10
147.7833261557
 20
140.054717108
 10
147.7580647294
 20
140.0577710914
 10
147.7322548719
 20
140.0593366894
 10
147.706049913
 20
140.059403826
 10
147.6794659504
 20
140.05796505
 10
147.6524868864
 20
140.0550278127
 10
147.6252177578
 20
140.0506043914
 10
147.5976435781
 20
140.0446860058
 10
147.5697793339
 20
140.0372814362
 10
147.5417750208
 20
140.0284293016
 10
147.5136806376
 20
140.0181424749
 10
147.4854461856
 20
140.0064080832
 10
147.4570716648
 20
139.9932261264
  0
LWPOLYLINE
  5
4A6
100
AcDbEntity
  8
217
100
AcDbPolyline
 62
7
  6
CONTINUOUS
 90
40
 70
0
 10
145.7538447975
 20
138.257484364
 10
145.7247183772
 20
138.2714665901
 10
145.6945924693
 20
138.2848113767
 10
145.6634670739
 20
138.2975187239
 10
145.631288494
 20
138.3096071941
 10
145.5981104266
 20
138.3210582249
 10
145.5640939624
 20
138.3318161288
 10
145.5292350009
 20
138.3418775234
 10
145.4935376426
 20
138.3512457912
 10
145.4571752795
 20
138.3598753924
 10
145.4201450067
 20
138.3677626888
 10
145.3824497291
 20
138.3749113186
 10
145.3442715537
 20
138.3812866568
 10
145.3056076683
 20
138.3868850248
 10
145.2664608851
 20
138.3917101012
 10
145.2270217465
 20
138.3957382976
 10
145.1872889304
 20
138.3989656945
 10
145.1472637591
 20
138.4013962112
 10
145.1071407421
 20
138.4030180176
 10
145.0669194881
 20
138.4038271687
 10
145.0266003885
 20
138.4038276095
 10
144.9863791271
 20
138.4030193434
 10
144.9462561804
 20
138.401398439
 10
144.906231072
 20
138.3989688278
 10
144.8664980562
 20
138.3957423083
 10
144.827058554
 20
138.3917150063
 10
144.7879111445
 20
138.386890796
 10
144.749245819
 20
138.3812930981
 10
144.7110649222
 20
138.3749181525
 10
144.6733661096
 20
138.3677697195
 10
144.6363323383
 20
138.3598825002
 10
144.5999668425
 20
138.3512529035
 10
144.5642663881
 20
138.3418845205
 10
144.5294042299
 20
138.3318228269
 10
144.4953844447
 20
138.3210644526
 10
144.4622029557
 20
138.3096127676
 10
144.4300207878
 20
138.2975233577
 10
144.3988916159
 20
138.2848147514
 10
144.368761765
 20
138.2714684202
 10
144.3396312352
 20
138.257484364
  0
LINE
  5
4A7
100
AcDbEntity
  8
217
100
AcDbLine
 62
7
  6
CONTINUOUS
 10
148.2008098642
 20
137.0340018306
 11
145.7538447975
 21
138.257484364
  0
LINE
  5
4A8
100
AcDbEntity
  8
217
100
AcDbLine
 62
7
  6
CONTINUOUS
 10
145.4002914069
 20
138.4342610593
 11
145.0467380164
 21
138.6110377546
  0
LINE
  5
4A9
100
AcDbEntity
  8
217
100
AcDbLine
 62
7
  6
CONTINUOUS
 10
145.4002914069
 20
138.9868192486
 11
145.0467380164
 21
139.1635959439
  0
LINE
  5
4AA
100
AcDbEntity
  8
217
100
AcDbLine
 62
7
  6
CONTINUOUS
 10
149.6086255604
 20
137.727878489
 11
146.7980759135
 21
139.1331533125
  0
LINE
  5
4AB
100
AcDbEntity
  8
218
100
AcDbLine
 62
253
  6
CONTINUOUS
 10
158.0568567683
 20
133.8958072239
 11
156.5165533755
 21
134.6659589203
  0
LINE
  5
4AC
100
AcDbEntity
  8
218
100
AcDbLine
 62
7
  6
CONTINUOUS
 10
156.4507431701
 20
134.7794647346
 11
155.7119696376
 21
135.1488515008
  0
LINE
  5
4AD
100
AcDbEntity
  8
218
100
AcDbLine
 62
7
  6
CONTINUOUS
 10
158.3871321459
 20
133.946489328
 11
155.7835446514
 21
135.2482830752
  0
LINE
  5
4AE
100
AcDbEntity
  8
217
100
AcDbLine
 62
253
  6
CONTINUOUS
 10
144.7261071728
 20
140.8371035463
 11
145.3316376075
 21
140.534338329
  0
LINE
  5
4AF
100
AcDbEntity
  8
217
100
AcDbLine
 62
253
  6
CONTINUOUS
 10
150.2813850758
 20
138.0594645948
 11
150.8869155104
 21
137.7566993775
  0
LINE
  5
4B0
100
AcDbEntity
  8
217
100
AcDbLine
 62
7
  6
CONTINUOUS
 10
148.1580078536
 20
139.2069014999
 11
150.3938687252
 21
138.0889710641
  0
LINE
  5
4B1
100
AcDbEntity
  8
217
100
AcDbLine
 62
7
  6
CONTINUOUS
 10
151.0608515754
 20
137.755479639
 11
151.2591469749
 21
137.6563319393
  0
LINE
  5
4B2
100
AcDbEntity
  8
217
100
AcDbLine
 62
7
  6
CONTINUOUS
 10
145.0023791939
 20
140.8229222776
 11
145.4987856785
 21
140.5747190353
  0
LINE
  5
4B3
100
AcDbEntity
  8
217
100
AcDbLine
 62
7
  6
CONTINUOUS
 10
150.5573345859
 20
138.0454445815
 11
151.0537413559
 21
137.7972411965
  0
LINE
  5
4B4
100
AcDbEntity
  8
217
100
AcDbLine
 62
253
  6
CONTINUOUS
 10
144.3901057209
 20
141.5267090983
 11
147.4570716648
 21
139.9932261264
  0
LINE
  5
4B5
100
AcDbEntity
  8
217
100
AcDbLine
 62
253
  6
CONTINUOUS
 10
151.6997123519
 20
137.8719057828
 11
154.7666782959
 21
136.3384228109
  0
LINE
  5
4B6
100
AcDbEntity
  8
217
100
AcDbLine
 62
7
  6
CONTINUOUS
 10
152.140755355
 20
137.8972552494
 11
155.3679340453
 21
136.2836659043
  0
LWPOLYLINE
  5
4B7
100
AcDbEntity
  8
218
100
AcDbPolyline
 62
7
  6
CONTINUOUS
 90
4
 70
0
 10
158.3890576978
 20
133.9455263547
 10
158.4027011738
 20
133.9377116128
 10
158.4262368704
 20
133.9183393344
 10
158.4464150131
 20
133.8914615028
  0
LWPOLYLINE
  5
4B8
100
AcDbEntity
  8
217
100
AcDbPolyline
 62
7
  6
CONTINUOUS
 90
16
 70
0
 10
144.7770383641
 20
140.8574456512
 10
144.7892074019
 20
140.8608104095
 10
144.8019411896
 20
140.8634129663
 10
144.8152321141
 20
140.8652375207
 10
144.8290761245
 20
140.8662809851
 10
144.8434571186
 20
140.8665142514
 10
144.8583453968
 20
140.8658833266
 10
144.8737206104
 20
140.8643681427
 10
144.8895690397
 20
140.8619589488
 10
144.9058666568
 20
140.8586186461
 10
144.9225562835
 20
140.854343686
 10
144.939648871
 20
140.8491108482
 10
144.9572244206
 20
140.8428476428
 10
144.9752756465
 20
140.8355321977
 10
144.9937609246
 20
140.8271455542
 10
145.0018185576
 20
140.8232066808
  0
LINE
  5
4B9
100
AcDbEntity
  8
217
100
AcDbLine
 62
7
  6
CONTINUOUS
 10
146.7980759135
 20
139.1331533125
 11
148.1580078536
 21
139.2069014999
  0
LINE
  5
4BA
100
AcDbEntity
  8
218
100
AcDbLine
 62
253
  6
CONTINUOUS
 10
159.6015725579
 20
138.3213433943
 11
159.7033658639
 21
138.2930040254
  0
LWPOLYLINE
  5
4BB
100
AcDbEntity
  8
218
100
AcDbPolyline
 62
253
  6
CONTINUOUS
 90
3
 70
0
 10
159.7033658639
 20
138.2930040254
 10
159.8004095995
 20
138.2536769422
 10
159.8179062307
 20
138.2451607205
  0
LINE
  5
4BC
100
AcDbEntity
  8
218
100
AcDbLine
 62
253
  6
CONTINUOUS
 10
158.8291975224
 20
138.3019504148
 11
158.9199127083
 21
138.2565931965
  0
LINE
  5
4BD
100
AcDbEntity
  8
218
100
AcDbLine
 62
7
  6
CONTINUOUS
 10
158.8410975079
 20
138.2785588992
 11
158.8390163006
 21
138.279565994
  0
LWPOLYLINE
  5
4BE
100
AcDbEntity
  8
218
100
AcDbPolyline
 62
7
  6
CONTINUOUS
 90
3
 70
0
 10
158.8390516366
 20
138.2795479981
 10
158.8365059219
 20
138.2808572766
 10
158.8340024502
 20
138.2821688661
  0
LINE
  5
4BF
100
AcDbEntity
  8
218
100
AcDbLine
 62
7
  6
CONTINUOUS
 10
158.8339708507
 20
138.2821855661
 11
158.8315104434
 21
138.2834964232
  0
LINE
  5
4C0
100
AcDbEntity
  8
218
100
AcDbLine
 62
7
  6
CONTINUOUS
 10
158.8315405061
 20
138.2834802833
 11
158.8291975224
 21
138.2847472535
  0
LWPOLYLINE
  5
4C1
100
AcDbEntity
  8
218
100
AcDbPolyline
 62
253
  6
CONTINUOUS
 90
16
 70
0
 10
158.9199127758
 20
138.256583331
 10
158.9422976934
 20
138.2441702884
 10
158.9641638113
 20
138.2289367998
 10
158.9852722005
 20
138.2110492634
 10
159.0053922321
 20
138.1907030569
 10
159.0243040093
 20
138.1681204759
 10
159.0418007872
 20
138.1435483332
 10
159.0576913455
 20
138.1172551539
 10
159.071802065
 20
138.0895282012
 10
159.0839787454
 20
138.0606704272
 10
159.0940882354
 20
138.0309974186
 10
159.1020201638
 20
138.0008331627
 10
159.1076879533
 20
137.9705064607
 10
159.1110294822
 20
137.9403484513
 10
159.1120079648
 20
137.9106890179
 10
159.1106124956
 20
137.8818523745
  0
LWPOLYLINE
  5
4C2
100
AcDbEntity
  8
218
100
AcDbPolyline
 62
253
  6
CONTINUOUS
 90
19
 70
0
 10
157.8197105619
 20
140.6574867418
 10
157.8944565174
 20
140.6360978536
 10
157.9684433786
 20
140.6086498015
 10
158.0412328484
 20
140.5753833099
 10
158.112671304
 20
140.5365633738
 10
158.1820350813
 20
140.492525405
 10
158.2480774343
 20
140.4437741126
 10
158.3102855154
 20
140.3908633222
 10
158.3684924566
 20
140.3342574795
 10
158.4220685976
 20
140.2744634694
 10
158.4707002871
 20
140.2120780797
 10
158.5142519805
 20
140.1476035262
 10
158.552416958
 20
140.081416069
 10
158.5850200263
 20
140.0140656516
 10
158.6119713139
 20
139.9460577641
 10
158.6331015921
 20
139.8776827331
 10
158.6483002363
 20
139.8093686699
 10
158.6575477531
 20
139.7416787561
 10
158.6608314617
 20
139.6750867366
  0
LWPOLYLINE
  5
4C3
100
AcDbEntity
  8
218
100
AcDbPolyline
 62
253
  6
CONTINUOUS
 90
8
 70
0
 10
159.5920943556
 20
138.3578462243
 10
159.4930554318
 20
138.3982345596
 10
159.3892088981
 20
138.4276731154
 10
159.2811126657
 20
138.4460224213
 10
159.1692256475
 20
138.4532226996
 10
159.0539272339
 20
138.4492307197
 10
158.9357027932
 20
138.434016581
 10
158.8291975224
 20
138.4106908083
  0
LWPOLYLINE
  5
4C4
100
AcDbEntity
  8
218
100
AcDbPolyline
 62
7
  6
CONTINUOUS
 90
9
 70
0
 10
159.6114494228
 20
138.3483849532
 10
159.5102402211
 20
138.3932021756
 10
159.4106826615
 20
138.4265116219
 10
159.3069333719
 20
138.4510609578
 10
159.1997785467
 20
138.4664762742
 10
159.0897169592
 20
138.4725918074
 10
158.977144801
 20
138.4693177786
 10
158.8626649669
 20
138.4565969534
 10
158.8291975224
 20
138.4501936826
  0
LINE
  5
4C5
100
AcDbEntity
  8
218
100
AcDbLine
 62
253
  6
CONTINUOUS
 10
159.6094977588
 20
138.3493649564
 11
159.5920943556
 21
138.3578462243
  0
LINE
  5
4C6
100
AcDbEntity
  8
218
100
AcDbLine
 62
253
  6
CONTINUOUS
 10
157.8197105619
 20
140.6574867418
 11
151.0583740006
 21
144.0381550225
  0
LINE
  5
4C7
100
AcDbEntity
  8
218
100
AcDbLine
 62
7
  6
CONTINUOUS
 10
158.3397841086
 20
140.6132696385
 11
158.3404351264
 21
140.6129441284
  0
LINE
  5
4C8
100
AcDbEntity
  8
218
100
AcDbLine
 62
7
  6
CONTINUOUS
 10
158.3390319799
 20
140.6136458257
 11
151.510869808
 21
144.0277269116
  0
LINE
  5
4C9
100
AcDbEntity
  8
218
100
AcDbLine
 62
7
  6
CONTINUOUS
 10
159.6094731641
 20
138.3493772537
 11
159.8188779795
 21
138.2446741206
  0
ELLIPSE
  5
4CA
100
AcDbEntity
  8
217
100
AcDbEllipse
 62
7
  6
CONTINUOUS
 10
155.2885438543
 20
135.2808333052
 30
0.0
 11
0.499996712
 21
0.0035883639
 31
0.0
 40
0.5053247124
 41
-0.7715714568
 42
-0.0036478305
  0
ELLIPSE
  5
4CB
100
AcDbEntity
  8
217
100
AcDbEllipse
 62
7
  6
CONTINUOUS
 10
144.7240383276
 20
140.4030757163
 30
0.0
 11
0.2257019663
 21
0.4461636818
 31
0.0
 40
0.6159267166
 41
0.5380090616
 42
0.6817883054
  0
ELLIPSE
  5
4CC
100
AcDbEntity
  8
217
100
AcDbEllipse
 62
7
  6
CONTINUOUS
 10
139.3919466637
 20
137.8805560476
 30
0.0
 11
0.4999985559
 21
0.0023864752
 31
0.0
 40
0.5035541159
 41
2.3596088132
 42
3.0002042076
  0
ELLIPSE
  5
4CD
100
AcDbEntity
  8
217
100
AcDbEllipse
 62
7
  6
CONTINUOUS
 10
150.7388937488
 20
131.6172394262
 30
0.0
 11
-0.2237046003
 21
0.4472532382
 31
0.0
 40
0.6122950388
 41
-2.2557482655
 42
-0.6847996396
  0
ELLIPSE
  5
4CE
100
AcDbEntity
  8
217
100
AcDbEllipse
 62
7
  6
CONTINUOUS
 10
150.7388937488
 20
93.7004750957
 30
0.0
 11
-0.2236445579
 21
0.4471998343
 31
0.0
 40
0.6124778111
 41
-3.1448859382
 42
-2.255529033
  0
ELLIPSE
  5
4CF
100
AcDbEntity
  8
217
100
AcDbEllipse
 62
7
  6
CONTINUOUS
 10
155.4675875602
 20
98.2011376139
 30
0.0
 11
0.9987332359
 21
0.6172510855
 31
0.0
 40
0.0815198604
 41
-2.3978073241
 42
-1.2985018509
  0
ELLIPSE
  5
4D0
100
AcDbEntity
  8
217
100
AcDbEllipse
 62
7
  6
CONTINUOUS
 10
143.6768552717
 20
141.0111713023
 30
0.0
 11
0.9987332359
 21
0.6172510855
 31
0.0
 40
0.0815198604
 41
0.0509898783
 42
0.7263320369
  0
ELLIPSE
  5
4D1
100
AcDbEntity
  8
217
100
AcDbEllipse
 62
7
  6
CONTINUOUS
 10
155.2885438543
 20
97.991917295
 30
0.0
 11
0.499366618
 21
0.3086255427
 31
0.0
 40
0.0815198604
 41
6.1080157147
 42
7.0007906979
  0
ELLIPSE
  5
4D2
100
AcDbEntity
  8
217
100
AcDbEllipse
 62
7
  6
CONTINUOUS
 10
145.0778931586
 20
139.4782265393
 30
0.0
 11
0.4279673669
 21
-0.0030279657
 31
0.0
 40
0.4946372042
 41
-0.7818985079
 42
0.0034334386
  0
ELLIPSE
  5
4D3
100
AcDbEntity
  8
217
100
AcDbEllipse
 62
7
  6
CONTINUOUS
 10
150.6328815877
 20
136.7007323247
 30
0.0
 11
0.4279673669
 21
-0.0030279657
 31
0.0
 40
0.4946372042
 41
-0.7760807437
 42
0.0034304302
  0
ELLIPSE
  5
4D4
100
AcDbEntity
  8
217
100
AcDbEllipse
 62
7
  6
CONTINUOUS
 10
150.8848705984
 20
137.3226595809
 30
0.0
 11
0.221538876
 21
0.4482453432
 31
0.0
 40
0.6088015717
 41
0.5323082896
 42
0.6760875334
  0
ELLIPSE
  5
4D5
100
AcDbEntity
  8
217
100
AcDbEllipse
 62
7
  6
CONTINUOUS
 10
139.3919466637
 20
136.6479464424
 30
0.0
 11
0.4998587701
 21
0.0223649649
 31
0.0
 40
0.5313301283
 41
3.1178197826
 42
3.9032222197
  0
ELLIPSE
  5
4D6
100
AcDbEntity
  8
217
100
AcDbEllipse
 62
7
  6
CONTINUOUS
 10
144.9032537633
 20
133.8922928926
 30
0.0
 11
0.4998587701
 21
0.0223649649
 31
0.0
 40
0.5313301283
 41
-2.3799630874
 42
-0.8149845248
  0
ELLIPSE
  5
4D7
100
AcDbEntity
  8
217
100
AcDbEllipse
 62
7
  6
CONTINUOUS
 10
144.9032537633
 20
135.1249024978
 30
0.0
 11
0.4999985559
 21
0.0023864752
 31
0.0
 40
0.5035541159
 41
-1.4342147631
 42
-0.7936193687
  0
ELLIPSE
  5
4D8
100
AcDbEntity
  8
217
100
AcDbEllipse
 62
7
  6
CONTINUOUS
 10
155.4675875602
 20
135.1158051581
 30
0.0
 11
-0.7417913999
 21
1.2002436976
 31
0.0
 40
0.5587454355
 41
5.1248137075
 42
6.2241191807
  0
ELLIPSE
  5
4D9
100
AcDbEntity
  8
217
100
AcDbEllipse
 62
7
  6
CONTINUOUS
 10
134.2685048786
 20
138.6452973979
 30
0.0
 11
0.249929385
 21
0.0111824824
 31
0.0
 40
0.5313301283
 41
3.1179086008
 42
3.9032222197
  0
ELLIPSE
  5
4DA
100
AcDbEntity
  8
217
100
AcDbEllipse
 62
7
  6
CONTINUOUS
 10
135.6017172122
 20
137.9786912311
 30
0.0
 11
0.249929385
 21
0.0111824824
 31
0.0
 40
0.5313301283
 41
-2.3799630874
 42
-0.8149845248
  0
ELLIPSE
  5
4DB
100
AcDbEntity
  8
217
100
AcDbEllipse
 62
7
  6
CONTINUOUS
 10
155.2885438543
 20
136.2111759641
 30
0.0
 11
-0.3708957
 21
0.6001218488
 31
0.0
 40
0.5587454355
 41
-3.1744788413
 42
-2.2817038581
  0
ELLIPSE
  5
4DC
100
AcDbEntity
  8
217
100
AcDbEllipse
 62
7
  6
CONTINUOUS
 10
147.632823043
 20
131.9631383157
 30
0.0
 11
0.249929385
 21
0.0111824824
 31
0.0
 40
0.5313301283
 41
3.1178369227
 42
3.9032222197
  0
ELLIPSE
  5
4DD
100
AcDbEntity
  8
217
100
AcDbEllipse
 62
7
  6
CONTINUOUS
 10
148.9660353766
 20
131.2965321489
 30
0.0
 11
0.249929385
 21
0.0111824824
 31
0.0
 40
0.5313301283
 41
-2.3799630874
 42
-1.3352760237
  0
ELLIPSE
  5
4DE
100
AcDbEntity
  8
218
100
AcDbEllipse
 62
253
  6
CONTINUOUS
 10
162.5561100713
 20
119.4168679322
 30
0.0
 11
0.4278979336
 21
0.8858853175
 31
0.0
 40
0.6016116119
 41
-4.0358990871
 42
-0.8943064336
  0
ELLIPSE
  5
4DF
100
AcDbEntity
  8
218
100
AcDbEllipse
 62
253
  6
CONTINUOUS
 10
162.5561100713
 20
118.6885232471
 30
0.0
 11
0.4278979336
 21
0.8858853175
 31
0.0
 40
0.6016116119
 41
-4.0358990871
 42
-0.8943064336
  0
ELLIPSE
  5
4E0
100
AcDbEntity
  8
218
100
AcDbEllipse
 62
253
  6
CONTINUOUS
 10
162.5561100713
 20
117.960177696
 30
0.0
 11
0.4278979336
 21
0.8858853175
 31
0.0
 40
0.6016116119
 41
-4.0358990871
 42
-0.8943064336
  0
ELLIPSE
  5
4E1
100
AcDbEntity
  8
218
100
AcDbEllipse
 62
253
  6
CONTINUOUS
 10
159.9764492576
 20
116.5048206429
 30
0.0
 11
0.0420501637
 21
0.0870572623
 31
0.0
 40
0.6016116119
 41
-1.7669647314
 42
-0.0216414868
  0
ELLIPSE
  5
4E2
100
AcDbEntity
  8
218
100
AcDbEllipse
 62
253
  6
CONTINUOUS
 10
159.495506392
 20
114.6702105311
 30
0.0
 11
0.0420501372
 21
0.0870572074
 31
0.0
 40
0.6016116119
 41
-4.0358990871
 42
-2.4651027604
  0
ELLIPSE
  5
4E3
100
AcDbEntity
  8
218
100
AcDbEllipse
 62
253
  6
CONTINUOUS
 10
159.9764492576
 20
114.9192259894
 30
0.0
 11
0.0420501372
 21
0.0870572074
 31
0.0
 40
0.6016116119
 41
-2.4651027604
 42
-0.8943064336
  0
ELLIPSE
  5
4E4
100
AcDbEntity
  8
218
100
AcDbEllipse
 62
253
  6
CONTINUOUS
 10
159.9764492576
 20
114.5723732889
 30
0.0
 11
0.0420505722
 21
0.0870581079
 31
0.0
 40
0.6016116119
 41
-0.8943064336
 42
0.6764898932
  0
ELLIPSE
  5
4E5
100
AcDbEntity
  8
218
100
AcDbEllipse
 62
253
  6
CONTINUOUS
 10
159.7929571726
 20
114.4773674808
 30
0.0
 11
0.0420501372
 21
0.0870572074
 31
0.0
 40
0.6016116119
 41
0.6764898932
 42
2.24728622
  0
ELLIPSE
  5
4E6
100
AcDbEntity
  8
218
100
AcDbEllipse
 62
253
  6
CONTINUOUS
 10
159.6586245172
 20
113.4629402936
 30
0.0
 11
0.0420501372
 21
0.0870572074
 31
0.0
 40
0.6016116119
 41
-2.4651027604
 42
-0.8943064336
  0
ELLIPSE
  5
4E7
100
AcDbEntity
  8
218
100
AcDbEllipse
 62
253
  6
CONTINUOUS
 10
159.495506392
 20
113.3784834119
 30
0.0
 11
0.0420501372
 21
0.0870572074
 31
0.0
 40
0.6016116119
 41
-4.0358990871
 42
-2.4651027604
  0
ELLIPSE
  5
4E8
100
AcDbEntity
  8
218
100
AcDbEllipse
 62
253
  6
CONTINUOUS
 10
160.167441322
 20
112.446143418
 30
0.0
 11
0.1321574008
 21
0.2736080074
 31
0.0
 40
0.6016116119
 41
-3.3377655667
 42
-0.8943064336
  0
ELLIPSE
  5
4E9
100
AcDbEntity
  8
218
100
AcDbEllipse
 62
253
  6
CONTINUOUS
 10
160.167441322
 20
118.451238046
 30
0.0
 11
0.1321581333
 21
0.2736095239
 31
0.0
 40
0.6016116119
 41
-0.8943064336
 42
1.5491526995
  0
ELLIPSE
  5
4EA
100
AcDbEntity
  8
218
100
AcDbEllipse
 62
253
  6
CONTINUOUS
 10
158.1838145352
 20
114.4216378975
 30
0.0
 11
0.1501792481
 21
0.3109189842
 31
0.0
 40
0.6016116119
 41
1.5491551861
 42
2.945417254
  0
ELLIPSE
  5
4EB
100
AcDbEntity
  8
218
100
AcDbEllipse
 62
253
  6
CONTINUOUS
 10
159.0798880342
 20
119.9097983442
 30
0.0
 11
0.2036490191
 21
0.421618479
 31
0.0
 40
0.6016116119
 41
-1.1482588761
 42
3.8180825468
  0
ENDSEC
  0
SECTION
  2
OBJECTS
  0
DICTIONARY
  5
C
100
AcDbDictionary
280
0
281
1
  3
ACAD_GROUP
350
D
  3
ACAD_MLINESTYLE
350
17
  3
ACAD_LAYOUT
350
1A
  3
ACAD_PLOTSETTINGS
350
19
  3
ACAD_PLOTSTYLENAME
350
E
  0
DICTIONARY
  5
D
102
{ACAD_REACTORS
330
C
102
}
100
AcDbDictionary
280
0
281
1
  0
ACDBDICTIONARYWDFLT
  5
E
102
{ACAD_REACTORS
330
C
102
}
100
AcDbDictionary
281
1
  3
Normal
350
F
100
AcDbDictionaryWithDefault
340
F
  0
DICTIONARY
  5
17
102
{ACAD_REACTORS
330
C
102
}
100
AcDbDictionary
280
0
281
1
  3
Standard
350
18
  0
DICTIONARY
  5
19
102
{ACAD_REACTORS
330
C
102
}
100
AcDbDictionary
281
1
  0
DICTIONARY
  5
1A
102
{ACAD_REACTORS
330
C
102
}
100
AcDbDictionary
281
1
  3
Model
350
4EC
  3
Layout1
350
4ED
  0
ACDBPLACEHOLDER
  5
F
102
{ACAD_REACTORS
330
E
102
}
  0
MLINESTYLE
  5
18
102
{ACAD_REACTORS
330
17
102
}
100
AcDbMlineStyle
  2
STANDARD
 70
0
  3

 62
256
 51
90.0
 52
90.0
 71
2
 49
0.5
 62
256
  6
BYLAYER
 49
-0.5
 62
256
  6
BYLAYER
  0
LAYOUT
  5
4EC
102
{ACAD_REACTORS
330
1A
102
}
100
AcDbPlotSettings
  1

  2
none_device
  4
ISO_A4_(297.00_x_210.00_MM)
  6

 40
0.0
 41
0.0
 42
0.0
 43
0.0
 44
297.0
 45
210.0
 46
0.0
 47
0.0
 48
0.0
 49
0.0
140
0.0
141
0.0
142
1.0
143
1.0
 70
1024
 72
1
 73
0
 74
0
  7

 75
0
147
1.0
148
0.0
149
0.0
100
AcDbLayout
  1
Model
 70
0
 71
0
 10
0.0
 20
0.0
 11
297.0
 21
210.0
 12
0.0
 22
0.0
 32
0.0
 14
0.0
 24
0.0
 34
0.0
 15
0.0
 25
0.0
 35
0.0
146
0.0
 13
0.0
 23
0.0
 33
0.0
 16
1.0
 26
0.0
 36
0.0
 17
0.0
 27
1.0
 37
0.0
 76
0
330
21D
345
0
346
0
  0
LAYOUT
  5
4ED
102
{ACAD_REACTORS
330
1A
102
}
100
AcDbPlotSettings
  1

  2
none_device
  4
ISO_A4_(297.00_x_210.00_MM)
  6

 40
0.0
 41
0.0
 42
0.0
 43
0.0
 44
297.0
 45
210.0
 46
0.0
 47
0.0
 48
0.0
 49
0.0
140
0.0
141
0.0
142
1.0
143
1.0
 70
0
 72
1
 73
0
 74
0
  7

 75
0
147
1.0
148
0.0
149
0.0
100
AcDbLayout
  1
Layout1
 70
0
 71
1
 10
0.0
 20
0.0
 11
297.0
 21
210.0
 12
0.0
 22
0.0
 32
0.0
 14
0.0
 24
0.0
 34
0.0
 15
0.0
 25
0.0
 35
0.0
146
0.0
 13
0.0
 23
0.0
 33
0.0
 16
1.0
 26
0.0
 36
0.0
 17
0.0
 27
1.0
 37
0.0
 76
0
330
21E
345
0
346
0
  0
ENDSEC
  0
EOF
