  0
SECTION
  2
HEADER
  9
$ACADVER
  1
AC1015
  9
$DWGCODEPAGE
  3
ANSI_1252
  9
$EXTMAX
 10
297.0
 20
210.0
 30
0.0
  9
$EXTMIN
 10
0.0
 20
0.0
 30
0.0
  9
$LIMMIN
 10
0.0
 20
0.0
  9
$LIMMAX
 10
297.0
 20
210.0
  9
$VIEWCTR
 10
148.5
 20
105.0
  9
$VIEWSIZE
 40
210.0
  9
$CLAYER
  8
0
  9
$LTSCALE
 40
16.335
  9
$CELTYPE
  6
BYLAYER
  9
$DIMSCALE
 40
1.0
  9
$DIMASZ
 40
3.0
  9
$DIMEXO
 40
1.85625
  9
$DIMDLI
 40
11.286
  9
$DIMEXE
 40
5.346
  9
$DIMCEN
 40
2.673
  9
$DIMLFAC
 40
1.0
  9
$DIMBLK
  1
_FILLED
  9
$DIMTXT
 40
3.0
  9
$DIMTOL
 70
1
  9
$DIMLIM
 70
0
  9
$DIMTFAC
 40
1.0
  9
$DIMTP
 40
0.01
  9
$DIMTM
 40
0.01
  9
$PDMODE
 70
3
  9
$PDSIZE
 40
3.0
  9
$HANDSEED
  5
6A5
  9
$TILEMODE
 70
1
  9
$MEASUREMENT
 70
1
  9
$INSUNITS
 70
4
  0
ENDSEC
  0
SECTION
  2
CLASSES
  0
CLASS
  1
ACDBDICTIONARYWDFLT
  2
AcDbDictionaryWithDefault
  3
AutoCAD 2000
 90
0
280
0
281
0
  0
CLASS
  1
ACDBPLACEHOLDER
  2
AcDbPlaceHolder
  3
AutoCAD 2000
 90
0
280
0
281
0
  0
CLASS
  1
LAYOUT
  2
AcDbLayout
  3
AutoCAD 2000
 90
0
280
0
281
0
  0
ENDSEC
  0
SECTION
  2
TABLES
  0
TABLE
  2
VPORT
  5
8
100
AcDbSymbolTable
 70
2
  0
VPORT
  5
1F4
100
AcDbSymbolTableRecord
100
AcDbViewportTableRecord
  2
*ACTIVE
 70
0
 10
0.0
 20
0.0
 11
1.0
 21
1.0
 12
148.5
 22
105.0
 13
0.0
 23
0.0
 14
1.0
 24
1.0
 15
0.0
 25
0.0
 16
0.0
 26
0.0
 36
1.0
 17
0.0
 27
0.0
 37
0.0
 40
210.0
 41
1.4142857143
 42
50.0
 43
0.0
 44
0.0
 50
0.0
 51
0.0
 71
0
 72
100
 73
1
 74
1
 75
0
 76
0
 77
0
 78
0
  0
ENDTAB
  0
TABLE
  2
LTYPE
  5
5
100
AcDbSymbolTable
 70
6
  0
LTYPE
  5
14
100
AcDbSymbolTableRecord
100
AcDbLinetypeTableRecord
  2
BYBLOCK
 70
0
  3

 72
65
 73
0
 40
0.0
  0
LTYPE
  5
15
100
AcDbSymbolTableRecord
100
AcDbLinetypeTableRecord
  2
BYLAYER
 70
0
  3

 72
65
 73
0
 40
0.0
  0
LTYPE
  5
16
100
AcDbSymbolTableRecord
100
AcDbLinetypeTableRecord
  2
CONTINUOUS
 70
64
  3
Solid line
 72
65
 73
0
 40
0.0
  0
LTYPE
  5
1F5
100
AcDbSymbolTableRecord
100
AcDbLinetypeTableRecord
  2
CENTER
 70
64
  3
____ _ ____ _ ____ _ ____ _ ____ _ ____ _ ____
 72
65
 73
4
 40
0.6
 49
0.375
 74
0
 49
-0.075
 74
0
 49
0.075
 74
0
 49
-0.075
 74
0
  0
LTYPE
  5
1F6
100
AcDbSymbolTableRecord
100
AcDbLinetypeTableRecord
  2
HIDDEN
 70
64
  3
- - - - - - - - - - - - - - - - - - - -
 72
65
 73
2
 40
0.2
 49
0.1
 74
0
 49
-0.1
 74
0
  0
LTYPE
  5
1F7
100
AcDbSymbolTableRecord
100
AcDbLinetypeTableRecord
  2
PHANTOM
 70
64
  3
_____ _ _ _____ _ _ _____ _ _ _____
 72
65
 73
6
 40
0.8
 49
0.45
 74
0
 49
-0.05
 74
0
 49
0.1
 74
0
 49
-0.05
 74
0
 49
0.1
 74
0
 49
-0.05
 74
0
  0
LTYPE
  5
1F8
100
AcDbSymbolTableRecord
100
AcDbLinetypeTableRecord
  2
DOT
 70
64
  3
. . . . . . . . . . . . . . . . . . . .
 72
65
 73
2
 40
0.2
 49
0.1
 74
0
 49
-0.1
 74
0
  0
LTYPE
  5
1F9
100
AcDbSymbolTableRecord
100
AcDbLinetypeTableRecord
  2
DASHED
 70
64
  3
- - - - - - - - - - - - - - - - - - - -
 72
65
 73
2
 40
0.2
 49
0.1
 74
0
 49
-0.1
 74
0
  0
ENDTAB
  0
TABLE
  2
LAYER
  5
2
100
AcDbSymbolTable
 70
36
  0
LAYER
  5
10
100
AcDbSymbolTableRecord
100
AcDbLayerTableRecord
  2
0
 70
0
 62
7
  6
CONTINUOUS
370
-3
390
F
  0
LAYER
  5
1FA
100
AcDbSymbolTableRecord
100
AcDbLayerTableRecord
  2
DEFAULT_1
 70
0
 62
7
  6
CENTER
370
-3
390
F
  0
LAYER
  5
1FB
100
AcDbSymbolTableRecord
100
AcDbLayerTableRecord
  2
DEFAULT_2
 70
0
 62
7
  6
HIDDEN
370
-3
390
F
  0
LAYER
  5
1FC
100
AcDbSymbolTableRecord
100
AcDbLayerTableRecord
  2
DEFAULT_3
 70
0
 62
7
  6
PHANTOM
370
-3
390
F
  0
LAYER
  5
1FD
100
AcDbSymbolTableRecord
100
AcDbLayerTableRecord
  2
ASSI
 70
0
 62
7
  6
CONTINUOUS
370
-3
390
F
  0
LAYER
  5
1FE
100
AcDbSymbolTableRecord
100
AcDbLayerTableRecord
  2
COLORE_MATERIALE
 70
0
 62
7
  6
CONTINUOUS
370
-3
390
F
  0
LAYER
  5
1FF
100
AcDbSymbolTableRecord
100
AcDbLayerTableRecord
  2
COORDINATE
 70
0
 62
7
  6
CONTINUOUS
370
-3
390
F
  0
LAYER
  5
200
100
AcDbSymbolTableRecord
100
AcDbLayerTableRecord
  2
COORD_ORIGINE
 70
0
 62
7
  6
CONTINUOUS
370
-3
390
F
  0
LAYER
  5
201
100
AcDbSymbolTableRecord
100
AcDbLayerTableRecord
  2
COPY
 70
0
 62
7
  6
CONTINUOUS
370
-3
390
F
  0
LAYER
  5
202
100
AcDbSymbolTableRecord
100
AcDbLayerTableRecord
  2
COPY_PUBLISH
 70
0
 62
7
  6
CONTINUOUS
370
-3
390
F
  0
LAYER
  5
203
100
AcDbSymbolTableRecord
100
AcDbLayerTableRecord
  2
COSMETICI
 70
0
 62
7
  6
CONTINUOUS
370
-3
390
F
  0
LAYER
  5
204
100
AcDbSymbolTableRecord
100
AcDbLayerTableRecord
  2
CURVE
 70
0
 62
7
  6
CONTINUOUS
370
-3
390
F
  0
LAYER
  5
205
100
AcDbSymbolTableRecord
100
AcDbLayerTableRecord
  2
DRAFT
 70
0
 62
7
  6
CONTINUOUS
370
-3
390
F
  0
LAYER
  5
206
100
AcDbSymbolTableRecord
100
AcDbLayerTableRecord
  2
IMPORT_IGES
 70
0
 62
7
  6
CONTINUOUS
370
-3
390
F
  0
LAYER
  5
207
100
AcDbSymbolTableRecord
100
AcDbLayerTableRecord
  2
INTFCLR_2
 70
0
 62
7
  6
CONTINUOUS
370
-3
390
F
  0
LAYER
  5
208
100
AcDbSymbolTableRecord
100
AcDbLayerTableRecord
  2
INTF_1
 70
0
 62
7
  6
CONTINUOUS
370
-3
390
F
  0
LAYER
  5
209
100
AcDbSymbolTableRecord
100
AcDbLayerTableRecord
  2
NOTE
 70
0
 62
7
  6
CONTINUOUS
370
-3
390
F
  0
LAYER
  5
20A
100
AcDbSymbolTableRecord
100
AcDbLayerTableRecord
  2
PIANI
 70
0
 62
7
  6
CONTINUOUS
370
-3
390
F
  0
LAYER
  5
20B
100
AcDbSymbolTableRecord
100
AcDbLayerTableRecord
  2
PIANI_ORIGINE
 70
0
 62
7
  6
CONTINUOUS
370
-3
390
F
  0
LAYER
  5
20C
100
AcDbSymbolTableRecord
100
AcDbLayerTableRecord
  2
PIANI_RIFERIMENTO
 70
0
 62
7
  6
CONTINUOUS
370
-3
390
F
  0
LAYER
  5
20D
100
AcDbSymbolTableRecord
100
AcDbLayerTableRecord
  2
PIANI_SFORMO
 70
0
 62
7
  6
CONTINUOUS
370
-3
390
F
  0
LAYER
  5
20E
100
AcDbSymbolTableRecord
100
AcDbLayerTableRecord
  2
PUNTI
 70
0
 62
7
  6
CONTINUOUS
370
-3
390
F
  0
LAYER
  5
20F
100
AcDbSymbolTableRecord
100
AcDbLayerTableRecord
  2
RACCORDO
 70
0
 62
7
  6
CONTINUOUS
370
-3
390
F
  0
LAYER
  5
210
100
AcDbSymbolTableRecord
100
AcDbLayerTableRecord
  2
SIMBOLI
 70
0
 62
7
  6
CONTINUOUS
370
-3
390
F
  0
LAYER
  5
211
100
AcDbSymbolTableRecord
100
AcDbLayerTableRecord
  2
SMUSSO
 70
0
 62
7
  6
CONTINUOUS
370
-3
390
F
  0
LAYER
  5
212
100
AcDbSymbolTableRecord
100
AcDbLayerTableRecord
  2
SNAPLINE
 70
0
 62
7
  6
CONTINUOUS
370
-3
390
F
  0
LAYER
  5
213
100
AcDbSymbolTableRecord
100
AcDbLayerTableRecord
  2
SUPERFICI
 70
0
 62
7
  6
CONTINUOUS
370
-3
390
F
  0
LAYER
  5
214
100
AcDbSymbolTableRecord
100
AcDbLayerTableRecord
  2
TRASH
 70
0
 62
7
  6
CONTINUOUS
370
-3
390
F
  0
LAYER
  5
215
100
AcDbSymbolTableRecord
100
AcDbLayerTableRecord
  2
XSEC_DATUMS
 70
0
 62
7
  6
CONTINUOUS
370
-3
390
F
  0
ENDTAB
  0
TABLE
  2
STYLE
  5
3
100
AcDbSymbolTable
 70
1
  0
STYLE
  5
11
100
AcDbSymbolTableRecord
100
AcDbTextStyleTableRecord
  2
STANDARD
 70
0
 40
0.0
 41
0.8
 50
0.0
 71
0
 42
0.2
  3
txt
  4

  0
STYLE
  5
216
100
AcDbSymbolTableRecord
100
AcDbTextStyleTableRecord
  2
TEXTSTYLE_1
 70
0
 40
0.0
 41
0.8
 50
0.0
 71
0
 42
0.2
  3
gdt
  4

  0
ENDTAB
  0
TABLE
  2
VIEW
  5
6
100
AcDbSymbolTable
 70
0
  0
ENDTAB
  0
TABLE
  2
UCS
  5
7
100
AcDbSymbolTable
 70
0
  0
ENDTAB
  0
TABLE
  2
APPID
  5
9
100
AcDbSymbolTable
 70
1
  0
APPID
  5
217
100
AcDbSymbolTableRecord
100
AcDbRegAppTableRecord
  2
ACAD
 70
0
  0
ENDTAB
  0
TABLE
  2
BLOCK_RECORD
  5
1
100
AcDbSymbolTable
 70
0
  0
BLOCK_RECORD
  5
218
100
AcDbSymbolTableRecord
100
AcDbBlockTableRecord
  2
*Model_Space
  0
BLOCK_RECORD
  5
219
100
AcDbSymbolTableRecord
100
AcDbBlockTableRecord
  2
*Paper_Space
  0
ENDTAB
  0
TABLE
  2
DIMSTYLE
  5
A
100
AcDbSymbolTable
 70
1
100
AcDbDimStyleTable
 71
0
  0
DIMSTYLE
105
21A
100
AcDbSymbolTableRecord
100
AcDbDimStyleTableRecord
  2
STANDARD
 70
0
  3

  4

 40
1.0
 41
3.0
 42
0.0625
 43
0.38
 44
0.18
 45
0.0
 46
0.0
 47
0.01
 48
0.01
140
3.0
141
0.09
142
0.0
143
25.4
144
1.0
145
0.0
146
1.0
147
0.09
 71
1.0
 72
0.0
 73
0
 74
0
 75
0
 76
0
 77
1
 78
8
170
0
171
2
172
0
173
0
174
0
175
0
176
0
177
0
178
0
270
2
271
2
272
2
273
2
274
2
275
0
280
0
281
0
282
0
283
1
284
8
285
0
286
0
287
3
288
0
340
11
  0
ENDTAB
  0
ENDSEC
  0
SECTION
  2
BLOCKS
  0
BLOCK
  5
20
100
AcDbEntity
  8
0
100
AcDbBlockBegin
  2
*Model_Space
 70
0
 10
0.0
 20
0.0
 30
0.0
  3
*Model_Space
  1

  0
ENDBLK
  5
21
100
AcDbEntity
  8
0
100
AcDbBlockEnd
  0
BLOCK
  5
1C
100
AcDbEntity
  8
0
100
AcDbBlockBegin
  2
*Paper_Space
 70
0
 10
0.0
 20
0.0
 30
0.0
  3
*Paper_Space
  1

  0
ENDBLK
  5
1D
100
AcDbEntity
  8
0
100
AcDbBlockEnd
  0
ENDSEC
  0
SECTION
  2
ENTITIES
  0
LWPOLYLINE
  5
21B
100
AcDbEntity
  8
RACCORDO
100
AcDbPolyline
 62
7
  6
CONTINUOUS
 90
22
 70
0
 10
-10.0914974002
 20
-31.108411055
 10
-10.0564184626
 20
-31.125756077
 10
-10.0204090945
 20
-31.1415352291
 10
-9.9835135255
 20
-31.1557082487
 10
-9.9457468836
 20
-31.1682461041
 10
-9.9071689275
 20
-31.1791055566
 10
-9.8678402281
 20
-31.1882473163
 10
-9.8277709046
 20
-31.1956439393
 10
-9.7870159155
 20
-31.2012586294
 10
-9.7456390827
 20
-31.205058246
 10
-9.7036535691
 20
-31.2070147337
 10
-9.6611133985
 20
-31.2070959865
 10
-9.6180743126
 20
-31.2052747274
 10
-9.5745387675
 20
-31.2015209288
 10
-9.5305526935
 20
-31.1958040218
 10
-9.4861663507
 20
-31.1880973207
 10
-9.4413751696
 20
-31.1783640174
 10
-9.3962228061
 20
-31.1665720791
 10
-9.3507495761
 20
-31.1526902123
 10
-9.3049343838
 20
-31.136665271
 10
-9.2587939078
 20
-31.1184473178
 10
-9.2123948955
 20
-31.0980070235
  0
LWPOLYLINE
  5
21C
100
AcDbEntity
  8
ASSI
100
AcDbPolyline
 62
7
  6
CONTINUOUS
 90
12
 70
0
 10
-10.1226375601
 20
-31.0912641855
 10
-10.0729483239
 20
-31.1178338264
 10
-10.0043852669
 20
-31.1479313417
 10
-9.9329953612
 20
-31.1720484675
 10
-9.8588848949
 20
-31.1900655369
 10
-9.7824508289
 20
-31.2017707088
 10
-9.7041299963
 20
-31.2070030405
 10
-9.6239612822
 20
-31.2056354695
 10
-9.5422741211
 20
-31.1975151928
 10
-9.459409182
 20
-31.182518421
 10
-9.3752699801
 20
-31.1604257833
 10
-9.2899614035
 20
-31.1309828046
  0
LINE
  5
21D
100
AcDbEntity
  8
RACCORDO
100
AcDbLine
 62
7
  6
CONTINUOUS
 10
-10.1222272663
 20
-31.0915014622
 11
-10.0914974002
 21
-31.108411055
  0
LINE
  5
21E
100
AcDbEntity
  8
ASSI
100
AcDbLine
 62
7
  6
CONTINUOUS
 10
-24.9556986938
 20
-22.5268410323
 11
-10.1220941515
 21
-31.0915783863
  0
LINE
  5
21F
100
AcDbEntity
  8
RACCORDO
100
AcDbLine
 62
7
  6
CONTINUOUS
 10
-10.1220941561
 20
-31.0915783837
 11
-24.9556986893
 21
-22.526841035
  0
LINE
  5
220
100
AcDbEntity
  8
RACCORDO
100
AcDbLine
 62
7
  6
CONTINUOUS
 10
-24.9555761228
 20
-22.5269117806
 11
-24.9556962747
 21
-22.5268424291
  0
LINE
  5
221
100
AcDbEntity
  8
RACCORDO
100
AcDbLine
 62
253
  6
CONTINUOUS
 10
-24.9556962747
 20
-22.5268424291
 11
-24.9598233731
 21
-22.5244324961
  0
LINE
  5
222
100
AcDbEntity
  8
RACCORDO
100
AcDbLine
 62
7
  6
CONTINUOUS
 10
-24.986660244
 20
-22.5080423995
 11
-24.9555806285
 21
-22.5269091344
  0
LINE
  5
223
100
AcDbEntity
  8
RACCORDO
100
AcDbLine
 62
253
  6
CONTINUOUS
 10
-24.9598233731
 20
-22.5244324961
 11
-24.9852837595
 21
-22.5083205105
  0
LINE
  5
224
100
AcDbEntity
  8
ASSI
100
AcDbLine
 62
253
  6
CONTINUOUS
 10
-24.9598213862
 20
-22.5244336695
 11
-24.9852818463
 21
-22.5083218057
  0
LINE
  5
225
100
AcDbEntity
  8
RACCORDO
100
AcDbLine
 62
253
  6
CONTINUOUS
 10
-24.9852837595
 20
-22.5083205105
 11
-25.0097900034
 21
-22.4906184334
  0
LWPOLYLINE
  5
226
100
AcDbEntity
  8
ASSI
100
AcDbPolyline
 62
253
  6
CONTINUOUS
 90
21
 70
0
 10
-24.9852818463
 20
-22.5083218057
 10
-25.0097881677
 20
-22.4906198475
 10
-25.0333107933
 20
-22.4713492621
 10
-25.055820376
 20
-22.4505340201
 10
-25.0772886482
 20
-22.4282001324
 10
-25.0976895833
 20
-22.4043749912
 10
-25.1169976651
 20
-22.3790883076
 10
-25.135188753
 20
-22.3523715192
 10
-25.1522409404
 20
-22.3242573123
 10
-25.1681329289
 20
-22.2947806253
 10
-25.1828448074
 20
-22.263978067
 10
-25.1963588946
 20
-22.2318873031
 10
-25.2086584084
 20
-22.1985478374
 10
-25.2197277794
 20
-22.1640012809
 10
-25.2295534658
 20
-22.1282907978
 10
-25.2381232189
 20
-22.0914609441
 10
-25.2454263902
 20
-22.0535571624
 10
-25.2514542384
 20
-22.0146260453
 10
-25.2561993654
 20
-21.9747156898
 10
-25.259655749
 20
-21.9338756568
 10
-25.261819097
 20
-21.8921565134
  0
LWPOLYLINE
  5
227
100
AcDbEntity
  8
RACCORDO
100
AcDbPolyline
 62
253
  6
CONTINUOUS
 90
20
 70
0
 10
-25.0097900034
 20
-22.4906184334
 10
-25.0333125509
 20
-22.4713477303
 10
-25.0558220553
 20
-22.4505323708
 10
-25.0772902482
 20
-22.4281983664
 10
-25.0976911034
 20
-22.4043731089
 10
-25.1169991062
 20
-22.3790863067
 10
-25.135190114
 20
-22.3523693993
 10
-25.1522422161
 20
-22.3242550797
 10
-25.1681341121
 20
-22.294778292
 10
-25.1828458946
 20
-22.2639756412
 10
-25.1963598866
 20
-22.2318847853
 10
-25.208659307
 20
-22.1985452247
 10
-25.2197285846
 20
-22.1639985729
 10
-25.229554177
 20
-22.128287994
 10
-25.2381238484
 20
-22.0914579811
 10
-25.2454269323
 20
-22.0535540356
 10
-25.2514546605
 20
-22.0146229487
 10
-25.2561996475
 20
-21.9747128996
 10
-25.2596559014
 20
-21.9338733972
 10
-25.2618191499
 20
-21.8921550199
  0
LINE
  5
228
100
AcDbEntity
  8
RACCORDO
100
AcDbLine
 62
253
  6
CONTINUOUS
 10
-3.371256181
 20
-29.1856297811
 11
-3.8995233528
 21
-29.1399868381
  0
LWPOLYLINE
  5
229
100
AcDbEntity
  8
RACCORDO
100
AcDbPolyline
 62
7
  6
CONTINUOUS
 90
34
 70
0
 10
-4.7895835355
 20
-29.5307896135
 10
-4.7974769979
 20
-29.5299639446
 10
-4.8057243782
 20
-29.5289613031
 10
-4.8143140452
 20
-29.5277710933
 10
-4.8232323484
 20
-29.5263724796
 10
-4.8324666488
 20
-29.5247657702
 10
-4.8420056287
 20
-29.5229721814
 10
-4.8518337098
 20
-29.5209813019
 10
-4.861934815
 20
-29.5187840794
 10
-4.8722959209
 20
-29.5164036616
 10
-4.8828986697
 20
-29.5138303944
 10
-4.8937242616
 20
-29.5110559034
 10
-4.9047579991
 20
-29.5081051029
 10
-4.9159787473
 20
-29.5049692643
 10
-4.9273648776
 20
-29.5016408834
 10
-4.9388998234
 20
-29.498146526
 10
-4.950559654
 20
-29.4944786103
 10
-4.9623197959
 20
-29.4906307198
 10
-4.9741614071
 20
-29.4866309999
 10
-4.9860577414
 20
-29.4824733281
 10
-4.9979811822
 20
-29.4781526319
 10
-5.009910059
 20
-29.4736985681
 10
-5.0218148202
 20
-29.4691069109
 10
-5.0336647981
 20
-29.4643742379
 10
-5.0454349463
 20
-29.4595315648
 10
-5.0570929452
 20
-29.4545771611
 10
-5.068605319
 20
-29.4495095968
 10
-5.0799435182
 20
-29.4443608138
 10
-5.0910843107
 20
-29.4391283516
 10
-5.101979545
 20
-29.4338163942
 10
-5.1125648668
 20
-29.4284707438
 10
-5.1227979995
 20
-29.4231127075
 10
-5.1326557346
 20
-29.417736189
 10
-5.1421054952
 20
-29.4123501994
  0
LWPOLYLINE
  5
22A
100
AcDbEntity
  8
RACCORDO
100
AcDbPolyline
 62
7
  6
CONTINUOUS
 90
21
 70
0
 10
-5.8015554709
 20
-30.8424405631
 10
-5.7913046281
 20
-30.8480440824
 10
-5.7797536028
 20
-30.8536412352
 10
-5.7679184234
 20
-30.8586428975
 10
-5.7558209137
 20
-30.8630369079
 10
-5.7434902276
 20
-30.8668088954
 10
-5.7309598553
 20
-30.8699448913
 10
-5.7182587721
 20
-30.872433816
 10
-5.7054192589
 20
-30.8742651814
 10
-5.6924762775
 20
-30.8754298665
 10
-5.6794637367
 20
-30.8759207255
 10
-5.6664168258
 20
-30.8757322899
 10
-5.6533711055
 20
-30.8748609264
 10
-5.6403617186
 20
-30.87330475
 10
-5.6274229036
 20
-30.8710633673
 10
-5.6145931295
 20
-30.8681389091
 10
-5.6019139655
 20
-30.8645368551
 10
-5.5894219888
 20
-30.8602640083
 10
-5.5771527757
 20
-30.855328884
 10
-5.5651456267
 20
-30.8497438733
 10
-5.5537312331
 20
-30.8436891672
  0
LWPOLYLINE
  5
22B
100
AcDbEntity
  8
RACCORDO
100
AcDbPolyline
 62
253
  6
CONTINUOUS
 90
31
 70
0
 10
-5.8533261033
 20
-30.728006361
 10
-5.8438680851
 20
-30.7331896071
 10
-5.8339548481
 20
-30.7380810563
 10
-5.8236133629
 20
-30.7426674004
 10
-5.8128717653
 20
-30.7469361617
 10
-5.8017592797
 20
-30.7508757262
 10
-5.7903061393
 20
-30.7544753756
 10
-5.7785435045
 20
-30.7577253166
 10
-5.7665033774
 20
-30.760616707
 10
-5.7542185154
 20
-30.7631416804
 10
-5.7417223413
 20
-30.7652933671
 10
-5.7290488533
 20
-30.7670659132
 10
-5.7162325316
 20
-30.7684544961
 10
-5.7033082452
 20
-30.7694553379
 10
-5.6903111569
 20
-30.7700657156
 10
-5.6772766275
 20
-30.7702839688
 10
-5.6642401195
 20
-30.7701095034
 10
-5.651237101
 20
-30.7695427943
 10
-5.6383029489
 20
-30.7685853832
 10
-5.6254728528
 20
-30.767239875
 10
-5.6127817191
 20
-30.7655099302
 10
-5.6002640763
 20
-30.7634002556
 10
-5.5879539806
 20
-30.7609165908
 10
-5.5758849238
 20
-30.7580656932
 10
-5.5640897417
 20
-30.7548553189
 10
-5.5526005253
 20
-30.7512942025
 10
-5.5414485328
 20
-30.7473920324
 10
-5.5306641051
 20
-30.7431594254
 10
-5.5202765832
 20
-30.7386078967
 10
-5.5103142279
 20
-30.7337498298
 10
-5.5008041436
 20
-30.7285984417
  0
LWPOLYLINE
  5
22C
100
AcDbEntity
  8
RACCORDO
100
AcDbPolyline
 62
253
  6
CONTINUOUS
 90
31
 70
0
 10
-5.8533261033
 20
-30.4074861882
 10
-5.8438680851
 20
-30.4126694343
 10
-5.8339548481
 20
-30.4175608834
 10
-5.8236133629
 20
-30.4221472276
 10
-5.8128717653
 20
-30.4264159889
 10
-5.8017592797
 20
-30.4303555534
 10
-5.7903061393
 20
-30.4339552028
 10
-5.7785435045
 20
-30.4372051437
 10
-5.7665033774
 20
-30.4400965342
 10
-5.7542185154
 20
-30.4426215075
 10
-5.7417223413
 20
-30.4447731943
 10
-5.7290488533
 20
-30.4465457403
 10
-5.7162325316
 20
-30.4479343232
 10
-5.7033082452
 20
-30.448935165
 10
-5.6903111569
 20
-30.4495455428
 10
-5.6772766275
 20
-30.4497637959
 10
-5.6642401195
 20
-30.4495893306
 10
-5.651237101
 20
-30.4490226215
 10
-5.6383029489
 20
-30.4480652104
 10
-5.6254728528
 20
-30.4467197021
 10
-5.6127817191
 20
-30.4449897574
 10
-5.6002640763
 20
-30.4428800828
 10
-5.5879539806
 20
-30.440396418
 10
-5.5758849238
 20
-30.4375455203
 10
-5.5640897417
 20
-30.4343351461
 10
-5.5526005253
 20
-30.4307740296
 10
-5.5414485328
 20
-30.4268718596
 10
-5.5306641051
 20
-30.4226392525
 10
-5.5202765832
 20
-30.4180877239
 10
-5.5103142279
 20
-30.413229657
 10
-5.5008041436
 20
-30.4080782689
  0
LINE
  5
22D
100
AcDbEntity
  8
ASSI
100
AcDbLine
 62
7
  6
CONTINUOUS
 10
-24.954361275
 20
-22.5276104372
 11
-24.9556962801
 21
-22.526842426
  0
LINE
  5
22E
100
AcDbEntity
  8
ASSI
100
AcDbLine
 62
253
  6
CONTINUOUS
 10
-25.261819097
 20
-21.8921565134
 11
-10.4354276879
 21
-30.4527290945
  0
LINE
  5
22F
100
AcDbEntity
  8
RACCORDO
100
AcDbLine
 62
253
  6
CONTINUOUS
 10
-10.4354277437
 20
-30.4527275993
 11
-25.2618191499
 21
-21.8921550199
  0
LINE
  5
230
100
AcDbEntity
  8
RACCORDO
100
AcDbLine
 62
7
  6
CONTINUOUS
 10
-7.1265401278
 20
-30.0774110282
 11
-5.801555448
 21
-30.8424405763
  0
LINE
  5
231
100
AcDbEntity
  8
RACCORDO
100
AcDbLine
 62
253
  6
CONTINUOUS
 10
-7.0644611453
 20
-30.0287121669
 11
-5.8533261033
 21
-30.728006361
  0
LINE
  5
232
100
AcDbEntity
  8
CURVE
100
AcDbLine
 62
253
  6
CONTINUOUS
 10
-23.2595851557
 20
-20.3042631138
 11
-23.2392667142
 21
-20.317174658
  0
LINE
  5
233
100
AcDbEntity
  8
CURVE
100
AcDbLine
 62
253
  6
CONTINUOUS
 10
-23.2782938858
 20
-20.2900458419
 11
-23.2595851557
 21
-20.3042631138
  0
LINE
  5
234
100
AcDbEntity
  8
CURVE
100
AcDbLine
 62
253
  6
CONTINUOUS
 10
-19.805975651
 20
-21.6455254842
 11
-19.797737358
 21
-21.6522544591
  0
LINE
  5
235
100
AcDbEntity
  8
CURVE
100
AcDbLine
 62
253
  6
CONTINUOUS
 10
-19.8141244571
 20
-21.6384185204
 11
-19.805975651
 21
-21.6455254842
  0
LINE
  5
236
100
AcDbEntity
  8
CURVE
100
AcDbLine
 62
253
  6
CONTINUOUS
 10
-23.2953419164
 20
-20.2747386593
 11
-23.2782938858
 21
-20.2900458419
  0
LINE
  5
237
100
AcDbEntity
  8
CURVE
100
AcDbLine
 62
253
  6
CONTINUOUS
 10
-19.8221707106
 20
-21.6309452381
 11
-19.8141244571
 21
-21.6384185204
  0
LINE
  5
238
100
AcDbEntity
  8
CURVE
100
AcDbLine
 62
253
  6
CONTINUOUS
 10
-19.8301005184
 20
-21.6231185104
 11
-19.8221707106
 21
-21.6309452381
  0
LINE
  5
239
100
AcDbEntity
  8
CURVE
100
AcDbLine
 62
253
  6
CONTINUOUS
 10
-23.3106770741
 20
-20.2585573981
 11
-23.2953419164
 21
-20.2747386593
  0
LINE
  5
23A
100
AcDbEntity
  8
CURVE
100
AcDbLine
 62
253
  6
CONTINUOUS
 10
-23.324245697
 20
-20.241718564
 11
-23.3106770741
 21
-20.2585573981
  0
LINE
  5
23B
100
AcDbEntity
  8
CURVE
100
AcDbLine
 62
253
  6
CONTINUOUS
 10
-23.335992487
 20
-20.2244401205
 11
-23.324245697
 21
-20.241718564
  0
LWPOLYLINE
  5
23C
100
AcDbEntity
  8
ASSI
100
AcDbPolyline
 62
7
  6
CONTINUOUS
 90
12
 70
0
 10
-25.4082437604
 20
-21.6893151422
 10
-25.3996598739
 20
-21.8006631452
 10
-25.3816478158
 20
-21.90952546
 10
-25.3549497989
 20
-22.0113678541
 10
-25.3202972426
 20
-22.1056973898
 10
-25.278225871
 20
-22.1926915719
 10
-25.2289171579
 20
-22.2728428515
 10
-25.1729812776
 20
-22.3456771894
 10
-25.1110484907
 20
-22.4108589244
 10
-25.0431723461
 20
-22.4685861757
 10
-24.96980835
 20
-22.5185046291
 10
-24.9543646061
 20
-22.5276084933
  0
LWPOLYLINE
  5
23D
100
AcDbEntity
  8
ASSI
100
AcDbPolyline
 62
253
  6
CONTINUOUS
 90
16
 70
0
 10
-25.4082438723
 20
-21.6893151462
 10
-25.4074327174
 20
-21.7011154301
 10
-25.4051888708
 20
-21.7165710825
 10
-25.4016138602
 20
-21.7319056914
 10
-25.3967172684
 20
-21.7470781535
 10
-25.3905122202
 20
-21.7620478002
 10
-25.3830153478
 20
-21.7767745064
 10
-25.374246746
 20
-21.7912187984
 10
-25.3642299184
 20
-21.8053419593
 10
-25.3529917142
 20
-21.8191061331
 10
-25.3405622567
 20
-21.8324744259
 10
-25.3269748621
 20
-21.8454110051
 10
-25.3122659503
 20
-21.8578811952
 10
-25.2964749474
 20
-21.8698515707
 10
-25.2796441801
 20
-21.881290046
 10
-25.2618187619
 20
-21.8921659611
  0
LINE
  5
23E
100
AcDbEntity
  8
RACCORDO
100
AcDbLine
 62
253
  6
CONTINUOUS
 10
-25.4082446522
 20
-21.6892933966
 11
-25.4074327174
 21
-21.7011154301
  0
LINE
  5
23F
100
AcDbEntity
  8
RACCORDO
100
AcDbLine
 62
253
  6
CONTINUOUS
 10
-3.4606699764
 20
-28.8563513436
 11
-3.8995233528
 21
-28.8184338641
  0
LINE
  5
240
100
AcDbEntity
  8
CURVE
100
AcDbLine
 62
253
  6
CONTINUOUS
 10
-21.1019516602
 20
-21.5500516991
 11
-21.0878199182
 21
-21.5546610683
  0
LINE
  5
241
100
AcDbEntity
  8
CURVE
100
AcDbLine
 62
253
  6
CONTINUOUS
 10
-19.7308430612
 20
-21.6908764473
 11
-19.7227416525
 21
-21.6935797718
  0
LINE
  5
242
100
AcDbEntity
  8
CURVE
100
AcDbLine
 62
253
  6
CONTINUOUS
 10
-19.7390426465
 20
-21.6876823958
 11
-19.7308430612
 21
-21.6908764473
  0
LINE
  5
243
100
AcDbEntity
  8
CURVE
100
AcDbLine
 62
253
  6
CONTINUOUS
 10
-19.8005969251
 20
-21.2607768169
 11
-19.8088148302
 21
-21.257572769
  0
LINE
  5
244
100
AcDbEntity
  8
CURVE
100
AcDbLine
 62
253
  6
CONTINUOUS
 10
-19.7473290097
 20
-21.6840012879
 11
-19.7390426465
 21
-21.6876823958
  0
LINE
  5
245
100
AcDbEntity
  8
CURVE
100
AcDbLine
 62
253
  6
CONTINUOUS
 10
-19.7922893416
 20
-21.264469546
 11
-19.8005969251
 21
-21.2607768169
  0
LINE
  5
246
100
AcDbEntity
  8
CURVE
100
AcDbLine
 62
253
  6
CONTINUOUS
 10
-21.1500801658
 20
-19.9093343338
 11
-21.165347146
 21
-19.902295223
  0
LINE
  5
247
100
AcDbEntity
  8
CURVE
100
AcDbLine
 62
253
  6
CONTINUOUS
 10
-21.116247408
 20
-21.5429793977
 11
-21.1019516602
 21
-21.5500516991
  0
LINE
  5
248
100
AcDbEntity
  8
CURVE
100
AcDbLine
 62
253
  6
CONTINUOUS
 10
-19.7556916105
 20
-21.6798366076
 11
-19.7473290097
 21
-21.6840012879
  0
LINE
  5
249
100
AcDbEntity
  8
CURVE
100
AcDbLine
 62
253
  6
CONTINUOUS
 10
-19.7839023342
 20
-21.2686478006
 11
-19.7922893416
 21
-21.264469546
  0
LINE
  5
24A
100
AcDbEntity
  8
CURVE
100
AcDbLine
 62
253
  6
CONTINUOUS
 10
-19.7641207426
 20
-21.6751915241
 11
-19.7556916105
 21
-21.6798366076
  0
LINE
  5
24B
100
AcDbEntity
  8
CURVE
100
AcDbLine
 62
253
  6
CONTINUOUS
 10
-19.7754453414
 20
-21.2733087532
 11
-19.7839023342
 21
-21.2686478006
  0
LWPOLYLINE
  5
24C
100
AcDbEntity
  8
RACCORDO
100
AcDbPolyline
 62
253
  6
CONTINUOUS
 90
7
 70
0
 10
-3.4240523283
 20
-28.8676537788
 10
-3.4256188818
 20
-28.8667716653
 10
-3.4320814371
 20
-28.8635785333
 10
-3.4388349505
 20
-28.8609340503
 10
-3.4458626504
 20
-28.8588447869
 10
-3.453147032
 20
-28.8573159505
 10
-3.4606699764
 20
-28.8563513436
  0
LINE
  5
24D
100
AcDbEntity
  8
RACCORDO
100
AcDbLine
 62
253
  6
CONTINUOUS
 10
-5.8533261033
 20
-30.4074861882
 11
-6.7664383732
 21
-29.8802666075
  0
LINE
  5
24E
100
AcDbEntity
  8
CURVE
100
AcDbLine
 62
253
  6
CONTINUOUS
 10
-23.2392667142
 20
-20.317174658
 11
-21.116247408
 21
-21.5429793977
  0
LINE
  5
24F
100
AcDbEntity
  8
RACCORDO
100
AcDbLine
 62
253
  6
CONTINUOUS
 10
-5.7649377556
 20
-30.1796808638
 11
-6.5071705576
 21
-29.7511249462
  0
LINE
  5
250
100
AcDbEntity
  8
RACCORDO
100
AcDbLine
 62
7
  6
CONTINUOUS
 10
-5.4429517872
 20
-29.2386453208
 11
-5.1426197235
 21
-29.4120532904
  0
LINE
  5
251
100
AcDbEntity
  8
RACCORDO
100
AcDbLine
 62
253
  6
CONTINUOUS
 10
-3.8995233528
 20
-28.6029629042
 11
-3.4606699764
 21
-28.8563513436
  0
LINE
  5
252
100
AcDbEntity
  8
CURVE
100
AcDbLine
 62
253
  6
CONTINUOUS
 10
-19.7726033801
 20
-21.6700719638
 11
-19.7641207425
 21
-21.6751915241
  0
LINE
  5
253
100
AcDbEntity
  8
CURVE
100
AcDbLine
 62
253
  6
CONTINUOUS
 10
-19.7670163693
 20
-21.2783975451
 11
-19.7754453414
 21
-21.2733087532
  0
LINE
  5
254
100
AcDbEntity
  8
CURVE
100
AcDbLine
 62
253
  6
CONTINUOUS
 10
-21.1356802968
 20
-19.9183128945
 11
-21.1500801658
 21
-19.9093343338
  0
LINE
  5
255
100
AcDbEntity
  8
CURVE
100
AcDbLine
 62
253
  6
CONTINUOUS
 10
-19.7810402937
 20
-21.6645369804
 11
-19.7726033801
 21
-21.6700719638
  0
LINE
  5
256
100
AcDbEntity
  8
CURVE
100
AcDbLine
 62
253
  6
CONTINUOUS
 10
-19.7586275477
 20
-21.2839056093
 11
-19.7670163693
 21
-21.2783975451
  0
LWPOLYLINE
  5
257
100
AcDbEntity
  8
RACCORDO
100
AcDbPolyline
 62
7
  6
CONTINUOUS
 90
3
 70
0
 10
-7.1422352357
 20
-30.06745155
 10
-7.1389671105
 20
-30.0697434208
 10
-7.1265402765
 20
-30.0774109423
  0
LINE
  5
258
100
AcDbEntity
  8
CURVE
100
AcDbLine
 62
253
  6
CONTINUOUS
 10
-19.7894217886
 20
-21.6585948477
 11
-19.7810402937
 21
-21.6645369804
  0
LINE
  5
259
100
AcDbEntity
  8
CURVE
100
AcDbLine
 62
253
  6
CONTINUOUS
 10
-19.7502886136
 20
-21.2898249425
 11
-19.7586275477
 21
-21.2839056093
  0
LINE
  5
25A
100
AcDbEntity
  8
CURVE
100
AcDbLine
 62
253
  6
CONTINUOUS
 10
-19.797737358
 20
-21.6522544591
 11
-19.7894217886
 21
-21.6585948477
  0
LINE
  5
25B
100
AcDbEntity
  8
CURVE
100
AcDbLine
 62
253
  6
CONTINUOUS
 10
-19.7420101598
 20
-21.2961468895
 11
-19.7502886136
 21
-21.2898249425
  0
LINE
  5
25C
100
AcDbEntity
  8
CURVE
100
AcDbLine
 62
253
  6
CONTINUOUS
 10
-21.1221899808
 20
-19.9290669954
 11
-21.1356802968
 21
-19.9183128945
  0
LINE
  5
25D
100
AcDbEntity
  8
CURVE
100
AcDbLine
 62
253
  6
CONTINUOUS
 10
-19.7338036697
 20
-21.3028619772
 11
-19.7420101598
 21
-21.2961468895
  0
LINE
  5
25E
100
AcDbEntity
  8
CURVE
100
AcDbLine
 62
253
  6
CONTINUOUS
 10
-19.7256815361
 20
-21.3099597516
 11
-19.7338036697
 21
-21.3028619772
  0
LINE
  5
25F
100
AcDbEntity
  8
CURVE
100
AcDbLine
 62
253
  6
CONTINUOUS
 10
-19.7176570576
 20
-21.3174286223
 11
-19.7256815361
 21
-21.3099597516
  0
LWPOLYLINE
  5
260
100
AcDbEntity
  8
RACCORDO
100
AcDbPolyline
 62
253
  6
CONTINUOUS
 90
4
 70
0
 10
-7.1409471002
 20
-30.0668099279
 10
-7.1392163996
 20
-30.0684291457
 10
-7.1332465967
 20
-30.0730990039
 10
-7.1265402765
 20
-30.0774109423
  0
LINE
  5
261
100
AcDbEntity
  8
CURVE
100
AcDbLine
 62
253
  6
CONTINUOUS
 10
-21.109642868
 20
-19.9414759763
 11
-21.1221899808
 21
-19.9290669954
  0
LINE
  5
262
100
AcDbEntity
  8
CURVE
100
AcDbLine
 62
253
  6
CONTINUOUS
 10
-19.7097444122
 20
-21.3252557225
 11
-19.7176570576
 21
-21.3174286223
  0
LINE
  5
263
100
AcDbEntity
  8
CURVE
100
AcDbLine
 62
253
  6
CONTINUOUS
 10
-19.8378992099
 20
-21.6149525249
 11
-19.8301005184
 21
-21.6231185104
  0
LINE
  5
264
100
AcDbEntity
  8
CURVE
100
AcDbLine
 62
253
  6
CONTINUOUS
 10
-19.7019586046
 20
-21.33342679
 11
-19.7097444122
 21
-21.3252557225
  0
LINE
  5
265
100
AcDbEntity
  8
CURVE
100
AcDbLine
 62
253
  6
CONTINUOUS
 10
-19.845551414
 20
-21.6064628677
 11
-19.8378992099
 21
-21.6149525249
  0
LINE
  5
266
100
AcDbEntity
  8
CURVE
100
AcDbLine
 62
253
  6
CONTINUOUS
 10
-19.6943153871
 20
-21.3419260756
 11
-19.7019586046
 21
-21.33342679
  0
LINE
  5
267
100
AcDbEntity
  8
CURVE
100
AcDbLine
 62
253
  6
CONTINUOUS
 10
-21.103731092
 20
-19.9482786073
 11
-21.109642868
 21
-19.9414759763
  0
LINE
  5
268
100
AcDbEntity
  8
CURVE
100
AcDbLine
 62
253
  6
CONTINUOUS
 10
-19.8530411604
 20
-21.5976665766
 11
-19.845551414
 21
-21.6064628677
  0
LINE
  5
269
100
AcDbEntity
  8
CURVE
100
AcDbLine
 62
253
  6
CONTINUOUS
 10
-19.6868311523
 20
-21.3507362855
 11
-19.6943153871
 21
-21.3419260756
  0
LINE
  5
26A
100
AcDbEntity
  8
CURVE
100
AcDbLine
 62
253
  6
CONTINUOUS
 10
-19.8603520054
 20
-21.5885821581
 11
-19.8530411604
 21
-21.5976665766
  0
LINE
  5
26B
100
AcDbEntity
  8
CURVE
100
AcDbLine
 62
253
  6
CONTINUOUS
 10
-19.6795228009
 20
-21.3598385635
 11
-19.6868311523
 21
-21.3507362855
  0
LINE
  5
26C
100
AcDbEntity
  8
CURVE
100
AcDbLine
 62
253
  6
CONTINUOUS
 10
-21.098076908
 20
-19.9554598619
 11
-21.103731092
 21
-19.9482786073
  0
LINE
  5
26D
100
AcDbEntity
  8
CURVE
100
AcDbLine
 62
253
  6
CONTINUOUS
 10
-19.8674671798
 20
-21.5792295624
 11
-19.8603520054
 21
-21.5885821581
  0
LINE
  5
26E
100
AcDbEntity
  8
CURVE
100
AcDbLine
 62
253
  6
CONTINUOUS
 10
-19.6724075849
 20
-21.3692125165
 11
-19.6795228009
 21
-21.3598385635
  0
LINE
  5
26F
100
AcDbEntity
  8
CURVE
100
AcDbLine
 62
253
  6
CONTINUOUS
 10
-19.8743697553
 20
-21.5696301165
 11
-19.8674671798
 21
-21.5792295624
  0
LINE
  5
270
100
AcDbEntity
  8
CURVE
100
AcDbLine
 62
253
  6
CONTINUOUS
 10
-19.6655029314
 20
-21.3788362868
 11
-19.6724075849
 21
-21.3692125165
  0
LINE
  5
271
100
AcDbEntity
  8
CURVE
100
AcDbLine
 62
253
  6
CONTINUOUS
 10
-19.8810428236
 20
-21.5598064138
 11
-19.8743697553
 21
-21.5696301165
  0
LINE
  5
272
100
AcDbEntity
  8
CURVE
100
AcDbLine
 62
253
  6
CONTINUOUS
 10
-21.0875929184
 20
-19.9708956187
 11
-21.098076908
 21
-19.9554598619
  0
LINE
  5
273
100
AcDbEntity
  8
CURVE
100
AcDbLine
 62
253
  6
CONTINUOUS
 10
-19.6588262514
 20
-21.3886866706
 11
-19.6655029314
 21
-21.3788362868
  0
LINE
  5
274
100
AcDbEntity
  8
CURVE
100
AcDbLine
 62
253
  6
CONTINUOUS
 10
-19.8874696832
 20
-21.549782161
 11
-19.8810428236
 21
-21.5598064138
  0
LINE
  5
275
100
AcDbEntity
  8
CURVE
100
AcDbLine
 62
253
  6
CONTINUOUS
 10
-19.6523947416
 20
-21.3987392824
 11
-19.6588262514
 21
-21.3886866706
  0
LINE
  5
276
100
AcDbEntity
  8
CURVE
100
AcDbLine
 62
253
  6
CONTINUOUS
 10
-19.8939447064
 20
-21.5390678997
 11
-19.8874696832
 21
-21.549782161
  0
LINE
  5
277
100
AcDbEntity
  8
CURVE
100
AcDbLine
 62
253
  6
CONTINUOUS
 10
-19.6459624121
 20
-21.4094044451
 11
-19.6523947416
 21
-21.3987392824
  0
LINE
  5
278
100
AcDbEntity
  8
CURVE
100
AcDbLine
 62
253
  6
CONTINUOUS
 10
-19.9000935165
 20
-21.5281876306
 11
-19.8939447064
 21
-21.5390678997
  0
LINE
  5
279
100
AcDbEntity
  8
CURVE
100
AcDbLine
 62
253
  6
CONTINUOUS
 10
-19.6398493489
 20
-21.4202318673
 11
-19.6459624121
 21
-21.4094044451
  0
LINE
  5
27A
100
AcDbEntity
  8
CURVE
100
AcDbLine
 62
253
  6
CONTINUOUS
 10
-19.9056491565
 20
-21.5177147608
 11
-19.9000935165
 21
-21.5281876306
  0
LINE
  5
27B
100
AcDbEntity
  8
CURVE
100
AcDbLine
 62
253
  6
CONTINUOUS
 10
-19.6342843979
 20
-21.4307309666
 11
-19.6398493489
 21
-21.4202318673
  0
LINE
  5
27C
100
AcDbEntity
  8
CURVE
100
AcDbLine
 62
253
  6
CONTINUOUS
 10
-19.910893571
 20
-21.5071528583
 11
-19.9056491565
 21
-21.5177147608
  0
LINE
  5
27D
100
AcDbEntity
  8
CURVE
100
AcDbLine
 62
253
  6
CONTINUOUS
 10
-19.6290312503
 20
-21.4413176438
 11
-19.6342843979
 21
-21.4307309666
  0
LINE
  5
27E
100
AcDbEntity
  8
CURVE
100
AcDbLine
 62
253
  6
CONTINUOUS
 10
-19.9158146072
 20
-21.4965274911
 11
-19.910893571
 21
-21.5071528583
  0
LINE
  5
27F
100
AcDbEntity
  8
CURVE
100
AcDbLine
 62
253
  6
CONTINUOUS
 10
-19.6241023113
 20
-21.4519655883
 11
-19.6290312503
 21
-21.4413176438
  0
LINE
  5
280
100
AcDbEntity
  8
CURVE
100
AcDbLine
 62
253
  6
CONTINUOUS
 10
-19.9204012474
 20
-21.4858636771
 11
-19.9158146072
 21
-21.4965274911
  0
LWPOLYLINE
  5
281
100
AcDbEntity
  8
RACCORDO
100
AcDbPolyline
 62
253
  6
CONTINUOUS
 90
15
 70
0
 10
-25.4074327174
 20
-21.7011154301
 10
-25.4051888707
 20
-21.7165710825
 10
-25.4016138602
 20
-21.7319056914
 10
-25.3967172684
 20
-21.7470781535
 10
-25.3905122202
 20
-21.7620478002
 10
-25.3830153478
 20
-21.7767745064
 10
-25.374246746
 20
-21.7912187984
 10
-25.3642299183
 20
-21.8053419593
 10
-25.3529917142
 20
-21.8191061331
 10
-25.3405622567
 20
-21.8324744259
 10
-25.326974862
 20
-21.8454110051
 10
-25.3122659502
 20
-21.8578811952
 10
-25.2964749474
 20
-21.8698515707
 10
-25.2796441801
 20
-21.881290046
 10
-25.2618187619
 20
-21.8921659611
  0
LWPOLYLINE
  5
282
100
AcDbEntity
  8
RACCORDO
100
AcDbPolyline
 62
7
  6
CONTINUOUS
 90
23
 70
0
 10
-25.4082444677
 20
-21.68929339
 10
-25.4056166986
 20
-21.7383188624
 10
-25.400967358
 20
-21.7893400313
 10
-25.3944743682
 20
-21.8389373871
 10
-25.386203021
 20
-21.8870744506
 10
-25.3762094739
 20
-21.9337718538
 10
-25.3645321021
 20
-21.9790892412
 10
-25.351221905
 20
-22.0230131323
 10
-25.3363309649
 20
-22.0655248783
 10
-25.3198901381
 20
-22.1066557187
 10
-25.3019510016
 20
-22.1463786642
 10
-25.2825643636
 20
-22.1846724895
 10
-25.2617564692
 20
-22.2215578543
 10
-25.2395814315
 20
-22.2570017204
 10
-25.2160955198
 20
-22.2909746812
 10
-25.1913272611
 20
-22.3234852129
 10
-25.1653394955
 20
-22.3544938648
 10
-25.1381933053
 20
-22.3839726168
 10
-25.1099130226
 20
-22.4119320233
 10
-25.0805639364
 20
-22.4383376317
 10
-25.0502153259
 20
-22.4631584249
 10
-25.0188954655
 20
-22.4863997554
 10
-24.986660244
 20
-22.5080423995
  0
LWPOLYLINE
  5
283
100
AcDbEntity
  8
RACCORDO
100
AcDbPolyline
 62
253
  6
CONTINUOUS
 90
22
 70
0
 10
-25.2618191545
 20
-21.8921550172
 10
-25.3151254996
 20
-20.3258895408
 10
-25.3631036125
 20
-18.7562040109
 10
-25.4057527312
 20
-17.1831225201
 10
-25.4430721773
 20
-15.6066688128
 10
-25.4750613524
 20
-14.026867482
 10
-25.5017197525
 20
-12.443743978
 10
-25.5230469609
 20
-10.8573230109
 10
-25.5390426476
 20
-9.267628529
 10
-25.5497065761
 20
-7.6746849221
 10
-25.5550385841
 20
-6.0785166419
 10
-25.5550385841
 20
-4.4791481887
 10
-25.5497065761
 20
-2.876604098
 10
-25.5390426476
 20
-1.270908961
 10
-25.5230469609
 20
0.3379125732
 10
-25.5017197525
 20
1.9498358113
 10
-25.4750613534
 20
3.5648363774
 10
-25.4430721797
 20
5.1828891268
 10
-25.4057527312
 20
6.8039681371
 10
-25.3631036029
 20
8.4280481622
 10
-25.3151254727
 20
10.0551046386
 10
-25.261819101
 20
11.6851125947
  0
LWPOLYLINE
  5
284
100
AcDbEntity
  8
ASSI
100
AcDbPolyline
 62
253
  6
CONTINUOUS
 90
22
 70
0
 10
-25.261819101
 20
-21.8921565111
 10
-25.3151254727
 20
-20.3258903727
 10
-25.3631036029
 20
-18.7562043446
 10
-25.4057527312
 20
-17.1831225205
 10
-25.4430721797
 20
-15.6066687016
 10
-25.4750613534
 20
-14.0268674265
 10
-25.5017197525
 20
-12.4437439785
 10
-25.5230469609
 20
-10.8573230114
 10
-25.5390426476
 20
-9.2676285294
 10
-25.5497065761
 20
-7.6746849225
 10
-25.5550385841
 20
-6.0785166424
 10
-25.5550385841
 20
-4.4791481892
 10
-25.5497065761
 20
-2.8766040985
 10
-25.5390426476
 20
-1.2709089615
 10
-25.5230469609
 20
0.3379125728
 10
-25.5017197525
 20
1.9498358109
 10
-25.4750613524
 20
3.5648364342
 10
-25.4430721773
 20
5.1828892409
 10
-25.4057527312
 20
6.8039681367
 10
-25.3631036125
 20
8.428047817
 10
-25.3151254996
 20
10.0551037747
 10
-25.2618191545
 20
11.6851110372
  0
LINE
  5
285
100
AcDbEntity
  8
ASSI
100
AcDbLine
 62
7
  6
CONTINUOUS
 10
-25.5229345466
 20
-18.079921221
 11
-25.4082448441
 21
-21.6892880357
  0
LWPOLYLINE
  5
286
100
AcDbEntity
  8
RACCORDO
100
AcDbPolyline
 62
7
  6
CONTINUOUS
 90
4
 70
0
 10
-25.5519513083
 20
-16.9892020684
 10
-25.5092329646
 20
-18.5635900847
 10
-25.4611769139
 20
-20.134587456
 10
-25.4082448448
 20
-21.6892880166
  0
LWPOLYLINE
  5
287
100
AcDbEntity
  8
ASSI
100
AcDbPolyline
 62
253
  6
CONTINUOUS
 90
17
 70
0
 10
-25.4082790462
 20
11.889180787
 10
-25.4083392043
 20
11.8816693836
 10
-25.4074325292
 20
11.8673422454
 10
-25.4051886767
 20
11.853028392
 10
-25.4016136611
 20
11.8387661907
 10
-25.3967170651
 20
11.82459387
 10
-25.3905120136
 20
11.8105494179
 10
-25.3830151388
 20
11.7966704793
 10
-25.3742465354
 20
11.7829942558
 10
-25.364229707
 20
11.7695574053
 10
-25.3529915029
 20
11.7563959443
 10
-25.3405620463
 20
11.743545151
 10
-25.3269746534
 20
11.7310394711
 10
-25.3122657441
 20
11.718912425
 10
-25.2964747445
 20
11.7071965183
 10
-25.2796439812
 20
11.6959231546
 10
-25.2618185676
 20
11.6851225512
  0
LWPOLYLINE
  5
288
100
AcDbEntity
  8
RACCORDO
100
AcDbPolyline
 62
253
  6
CONTINUOUS
 90
17
 70
0
 10
-25.4082709395
 20
11.8894255804
 10
-25.4083392757
 20
11.8816693681
 10
-25.4074326034
 20
11.8673422281
 10
-25.4051887532
 20
11.8530283728
 10
-25.4016137397
 20
11.8387661695
 10
-25.3967171454
 20
11.8245938469
 10
-25.3905120953
 20
11.8105493929
 10
-25.3830152215
 20
11.7966704524
 10
-25.3742466188
 20
11.782994227
 10
-25.3642297908
 20
11.7695573747
 10
-25.3529915869
 20
11.7563959119
 10
-25.34056213
 20
11.7435451169
 10
-25.3269747366
 20
11.7310394353
 10
-25.3122658264
 20
11.7189123877
 10
-25.2964748256
 20
11.7071964795
 10
-25.2796440609
 20
11.6959231145
 10
-25.2618186456
 20
11.6851225099
  0
LWPOLYLINE
  5
289
100
AcDbEntity
  8
RACCORDO
100
AcDbPolyline
 62
7
  6
CONTINUOUS
 90
17
 70
0
 10
-25.5092785981
 20
8.6422195574
 10
-25.551989323
 20
7.0168963597
 10
-25.5893624597
 20
5.3945749033
 10
-25.6213974554
 20
3.7752794801
 10
-25.6480938302
 20
2.1590328776
 10
-25.6694511103
 20
0.5458591075
 10
-25.6854689552
 20
-1.0642169192
 10
-25.6961470644
 20
-2.6711710555
 10
-25.7014851676
 20
-4.2749789561
 10
-25.701483158
 20
-5.8756155376
 10
-25.6961409795
 20
-7.4730555477
 10
-25.6854586264
 20
-9.0672739644
 10
-25.6694362563
 20
-10.6582466989
 10
-25.6480740577
 20
-12.2459499006
 10
-25.6213722583
 20
-13.8303589972
 10
-25.5893312194
 20
-15.4114504768
 10
-25.5519513083
 20
-16.9892020684
  0
LWPOLYLINE
  5
28A
100
AcDbEntity
  8
ASSI
100
AcDbPolyline
 62
7
  6
CONTINUOUS
 90
9
 70
0
 10
-25.408270508
 20
11.8894412961
 10
-25.5230967749
 20
8.1377880419
 10
-25.6108081857
 20
4.3408716512
 10
-25.6692798657
 20
0.5606081683
 10
-25.6985064211
 20
-3.2026879806
 10
-25.6984846821
 20
-6.9487001358
 10
-25.6692139307
 20
-10.6771180384
 10
-25.6106959001
 20
-14.3876280052
 10
-25.5229345466
 20
-18.079921221
  0
LWPOLYLINE
  5
28B
100
AcDbEntity
  8
RACCORDO
100
AcDbPolyline
 62
7
  6
CONTINUOUS
 90
3
 70
0
 10
-25.4082705086
 20
11.889441281
 10
-25.4612311235
 20
10.2705164873
 10
-25.5092785981
 20
8.6422195574
  0
LINE
  5
28C
100
AcDbEntity
  8
RACCORDO
100
AcDbLine
 62
7
  6
CONTINUOUS
 10
-25.4065912545
 20
11.9257913836
 11
-25.4082709395
 21
11.8894255804
  0
LWPOLYLINE
  5
28D
100
AcDbEntity
  8
RACCORDO
100
AcDbPolyline
 62
253
  6
CONTINUOUS
 90
43
 70
0
 10
-25.261819097
 20
11.6851125925
 10
-25.259655749
 20
11.7293890149
 10
-25.2561993655
 20
11.7743143436
 10
-25.2514542384
 20
11.8198330552
 10
-25.2454263902
 20
11.8658888771
 10
-25.238123219
 20
11.9124249262
 10
-25.2295534658
 20
11.9593837883
 10
-25.2197277795
 20
12.0067078551
 10
-25.2086584085
 20
12.0543382948
 10
-25.1963588947
 20
12.1022151841
 10
-25.1828448075
 20
12.1502790516
 10
-25.168132929
 20
12.1984708951
 10
-25.1522409405
 20
12.2467311523
 10
-25.1351887532
 20
12.2950003396
 10
-25.1169976652
 20
12.3432188057
 10
-25.0976895834
 20
12.3913267354
 10
-25.0772886484
 20
12.4392649252
 10
-25.0558203762
 20
12.4869740876
 10
-25.0333107935
 20
12.5343946101
 10
-25.0097881679
 20
12.58146794
 10
-24.9852818465
 20
12.6281361164
 10
-24.9598213864
 20
12.6743410715
 10
-24.9334386879
 20
12.7200258774
 10
-24.906166726
 20
12.7651342095
 10
-24.8780383912
 20
12.8096098754
 10
-24.8490888483
 20
12.8533982003
 10
-24.8193543511
 20
12.8964451201
 10
-24.7888709737
 20
12.93869665
 10
-24.7576769819
 20
12.9801006947
 10
-24.7258113198
 20
13.0206063793
 10
-24.693312419
 20
13.0601631357
 10
-24.660221024
 20
13.0987222609
 10
-24.6265784885
 20
13.1362363614
 10
-24.5924252575
 20
13.1726586664
 10
-24.5578038194
 20
13.2079446656
 10
-24.5227577481
 20
13.2420506625
 10
-24.4873300089
 20
13.2749332641
 10
-24.4515651814
 20
13.3065519509
 10
-24.4155078279
 20
13.3368681367
 10
-24.37920154
 20
13.3658437456
 10
-24.3426912523
 20
13.3934429769
 10
-24.3060231856
 20
13.4196323469
 10
-24.2692432393
 20
13.4443798138
  0
LWPOLYLINE
  5
28E
100
AcDbEntity
  8
ASSI
100
AcDbPolyline
 62
253
  6
CONTINUOUS
 90
43
 70
0
 10
-25.2618191499
 20
11.6851110345
 10
-25.2596559014
 20
11.7293865719
 10
-25.2561996475
 20
11.7743112168
 10
-25.2514546606
 20
11.8198294574
 10
-25.2454269324
 20
11.8658851087
 10
-25.2381238484
 20
11.9124212197
 10
-25.229554177
 20
11.9593801446
 10
-25.2197285846
 20
12.006704195
 10
-25.2086593071
 20
12.0543346177
 10
-25.1963598867
 20
12.10221149
 10
-25.1828458947
 20
12.1502753364
 10
-25.1681341122
 20
12.1984671587
 10
-25.1522422162
 20
12.2467274069
 10
-25.1351901141
 20
12.2949966051
 10
-25.1169991063
 20
12.3432150944
 10
-25.0976911035
 20
12.3913230482
 10
-25.0772902483
 20
12.439261259
 10
-25.0558220554
 20
12.4869704435
 10
-25.033312551
 20
12.53439099
 10
-25.0097900036
 20
12.5814643444
 10
-24.9852837596
 20
12.6281325473
 10
-24.9598233733
 20
12.6743375365
 10
-24.9334407424
 20
12.7200223875
 10
-24.9061688438
 20
12.7651307719
 10
-24.878040571
 20
12.8096064918
 10
-24.8490910898
 20
12.853394871
 10
-24.8193566533
 20
12.896441847
 10
-24.7888733362
 20
12.938693434
 10
-24.7576794072
 20
12.9800975335
 10
-24.7258138077
 20
13.0206032742
 10
-24.6933149618
 20
13.0601600976
 10
-24.6602236078
 20
13.098719306
 10
-24.6265811045
 20
13.136233499
 10
-24.5924279054
 20
13.1726558963
 10
-24.5578065025
 20
13.2079419852
 10
-24.5227604665
 20
13.2420480724
 10
-24.4873327622
 20
13.2749307642
 10
-24.4515680288
 20
13.3065494892
 10
-24.4155107701
 20
13.3368657183
 10
-24.3792043955
 20
13.3658415192
 10
-24.3426937755
 20
13.393441116
 10
-24.3060251899
 20
13.4196309533
 10
-24.269244538
 20
13.4443789668
  0
LINE
  5
28F
100
AcDbEntity
  8
RACCORDO
100
AcDbLine
 62
253
  6
CONTINUOUS
 10
-17.2638415172
 20
16.8043335534
 11
-16.7355743455
 21
17.4671458198
  0
LINE
  5
290
100
AcDbEntity
  8
RACCORDO
100
AcDbLine
 62
7
  6
CONTINUOUS
 10
-17.2638415172
 20
16.7277817106
 11
-16.7178743449
 21
17.4128020151
  0
LWPOLYLINE
  5
291
100
AcDbEntity
  8
RACCORDO
100
AcDbPolyline
 62
7
  6
CONTINUOUS
 90
28
 70
0
 10
-18.1539016999
 20
16.1792073192
 10
-18.1617808229
 20
16.1698050567
 10
-18.170001072
 20
16.1605667439
 10
-18.1785589332
 20
16.151513853
 10
-18.1874573637
 20
16.1426693849
 10
-18.1966837988
 20
16.1340535119
 10
-18.2062103731
 20
16.1256837459
 10
-18.2160305613
 20
16.1175821369
 10
-18.2261364596
 20
16.1097701591
 10
-18.2364972426
 20
16.1022648473
 10
-18.2471037638
 20
16.0950881489
 10
-18.2579456752
 20
16.0882613181
 10
-18.2689894523
 20
16.081800762
 10
-18.2802233007
 20
16.0757279371
 10
-18.2916342516
 20
16.0700635845
 10
-18.303186072
 20
16.0648234734
 10
-18.3148642039
 20
16.0600281729
 10
-18.3266529354
 20
16.0556974939
 10
-18.3385132494
 20
16.051846459
 10
-18.3504276971
 20
16.048494259
 10
-18.3623777104
 20
16.0456592471
 10
-18.374321388
 20
16.0433554125
 10
-18.3862382376
 20
16.0415999489
 10
-18.3981068048
 20
16.0404090528
 10
-18.4098823834
 20
16.0397950868
 10
-18.4215412039
 20
16.0397724591
 10
-18.4330591411
 20
16.0403543087
 10
-18.4359682021
 20
16.0406006111
  0
LWPOLYLINE
  5
292
100
AcDbEntity
  8
RACCORDO
100
AcDbPolyline
 62
7
  6
CONTINUOUS
 90
35
 70
0
 10
-24.5579659799
 20
13.4431131566
 10
-24.5988188155
 20
13.4137139455
 10
-24.6396609674
 20
13.3823060828
 10
-24.6796593478
 20
13.3495438285
 10
-24.7188139285
 20
13.3154785863
 10
-24.7571251338
 20
13.2801542089
 10
-24.794580219
 20
13.2436240297
 10
-24.8311647565
 20
13.205938469
 10
-24.8668637066
 20
13.1671456648
 10
-24.9016597595
 20
13.1272955592
 10
-24.9355348687
 20
13.0864342967
 10
-24.9684664744
 20
13.0446136031
 10
-25.0004328475
 20
13.0018820638
 10
-25.0314131138
 20
12.9582843155
 10
-25.0613818881
 20
12.9138722983
 10
-25.0903153425
 20
12.8686920046
 10
-25.1181899248
 20
12.82278916
 10
-25.1449770753
 20
12.7762167896
 10
-25.1706512406
 20
12.7290200205
 10
-25.1951875471
 20
12.6812443921
 10
-25.218555694
 20
12.6329420434
 10
-25.2407294397
 20
12.584157151
 10
-25.2616820333
 20
12.5349342095
 10
-25.2813825809
 20
12.4853223426
 10
-25.2998042733
 20
12.4353629768
 10
-25.3169170426
 20
12.3851001258
 10
-25.3326890463
 20
12.3345802976
 10
-25.3470904839
 20
12.2838433015
 10
-25.3600880313
 20
12.2329301577
 10
-25.3716490597
 20
12.1818790744
 10
-25.3817381501
 20
12.1307290047
 10
-25.3903170664
 20
12.079518505
 10
-25.3973485654
 20
12.0282701868
 10
-25.4027890754
 20
11.9770114615
 10
-25.4065912545
 20
11.9257913836
  0
LINE
  5
293
100
AcDbEntity
  8
RACCORDO
100
AcDbLine
 62
7
  6
CONTINUOUS
 10
-24.5260104844
 20
13.464791591
 11
-24.5579659799
 21
13.4431131566
  0
LWPOLYLINE
  5
294
100
AcDbEntity
  8
ASSI
100
AcDbPolyline
 62
7
  6
CONTINUOUS
 90
19
 70
0
 10
-24.5258123358
 20
13.4649221077
 10
-24.5590067995
 20
13.4424071967
 10
-24.64605576
 20
13.3772029776
 10
-24.7295160638
 20
13.3058130771
 10
-24.8092880633
 20
13.2287177508
 10
-24.8852470842
 20
13.1463511529
 10
-24.957149833
 20
13.0592278931
 10
-25.024784393
 20
12.9678032102
 10
-25.087932009
 20
12.8725050123
 10
-25.1462530979
 20
12.7739329392
 10
-25.1995074105
 20
12.6725335771
 10
-25.2474414375
 20
12.5687461044
 10
-25.2897235388
 20
12.4631748078
 10
-25.3261048096
 20
12.3562310316
 10
-25.3563096535
 20
12.2483344303
 10
-25.3800284596
 20
12.1399627958
 10
-25.396957932
 20
12.0314506281
 10
-25.4067426354
 20
11.9231352545
 10
-25.4082790462
 20
11.889180787
  0
LINE
  5
295
100
AcDbEntity
  8
RACCORDO
100
AcDbLine
 62
7
  6
CONTINUOUS
 10
-20.9514932395
 20
15.8409743691
 11
-19.9128592979
 21
16.5259436855
  0
LINE
  5
296
100
AcDbEntity
  8
RACCORDO
100
AcDbLine
 62
7
  6
CONTINUOUS
 10
-24.5260221741
 20
13.464784094
 11
-20.9446549739
 21
15.826662081
  0
LINE
  5
297
100
AcDbEntity
  8
ASSI
100
AcDbLine
 62
7
  6
CONTINUOUS
 10
-24.5260221741
 20
13.464784094
 11
-20.9446549739
 21
15.826662081
  0
LINE
  5
298
100
AcDbEntity
  8
RACCORDO
100
AcDbLine
 62
253
  6
CONTINUOUS
 10
-20.7139975292
 20
15.8230328537
 11
-19.9128592979
 21
16.3513759828
  0
LINE
  5
299
100
AcDbEntity
  8
RACCORDO
100
AcDbLine
 62
253
  6
CONTINUOUS
 10
-24.2692432958
 20
13.4443798464
 11
-20.6865074628
 21
15.8071604339
  0
LINE
  5
29A
100
AcDbEntity
  8
ASSI
100
AcDbLine
 62
253
  6
CONTINUOUS
 10
-24.2692445868
 20
13.4443789951
 11
-20.6865074628
 21
15.8071604339
  0
LWPOLYLINE
  5
29B
100
AcDbEntity
  8
RACCORDO
100
AcDbPolyline
 62
7
  6
CONTINUOUS
 90
19
 70
0
 10
-20.4930334508
 20
17.6481400815
 10
-20.5049299373
 20
17.6406513618
 10
-20.5164641604
 20
17.6324473807
 10
-20.5275818934
 20
17.6235475554
 10
-20.5382350349
 20
17.6139717932
 10
-20.5483670238
 20
17.6037537888
 10
-20.5579171657
 20
17.592942369
 10
-20.5668363012
 20
17.5815866708
 10
-20.5750936832
 20
17.5697216097
 10
-20.5826636763
 20
17.5573778845
 10
-20.5895083844
 20
17.5446124573
 10
-20.5956058108
 20
17.5314638682
 10
-20.6009510427
 20
17.517928713
 10
-20.6055263264
 20
17.5040157137
 10
-20.6092901637
 20
17.4898110613
 10
-20.6122112264
 20
17.4754196139
 10
-20.6142823285
 20
17.4608809292
 10
-20.6154961996
 20
17.4462456809
 10
-20.6158522522
 20
17.4329095385
  0
LWPOLYLINE
  5
29C
100
AcDbEntity
  8
RACCORDO
100
AcDbPolyline
 62
253
  6
CONTINUOUS
 90
17
 70
0
 10
-24.5260105816
 20
13.4647917384
 10
-24.5180361712
 20
13.4697102122
 10
-24.5050462773
 20
13.4764011838
 10
-24.491360183
 20
13.4819176096
 10
-24.4770153573
 20
13.486244387
 10
-24.4620510727
 20
13.4893696703
 10
-24.4465082975
 20
13.4912849034
 10
-24.4304295839
 20
13.4919848429
 10
-24.4138589512
 20
13.4914675723
 10
-24.3968417658
 20
13.4897345081
 10
-24.3794246162
 20
13.4867903947
 10
-24.3616551862
 20
13.4826432925
 10
-24.3435821239
 20
13.4773045551
 10
-24.3252549088
 20
13.4707887987
 10
-24.3067237161
 20
13.4631138617
 10
-24.2880392794
 20
13.4543007562
 10
-24.269252752
 20
13.4443736101
  0
LWPOLYLINE
  5
29D
100
AcDbEntity
  8
ASSI
100
AcDbPolyline
 62
253
  6
CONTINUOUS
 90
17
 70
0
 10
-24.5258123948
 20
13.4649221973
 10
-24.5180361712
 20
13.4697102122
 10
-24.5050462773
 20
13.4764011838
 10
-24.491360183
 20
13.4819176096
 10
-24.4770153573
 20
13.486244387
 10
-24.4620510727
 20
13.4893696703
 10
-24.4465082975
 20
13.4912849034
 10
-24.4304295839
 20
13.4919848429
 10
-24.4138589512
 20
13.4914675723
 10
-24.3968417658
 20
13.4897345081
 10
-24.3794246162
 20
13.4867903947
 10
-24.3616551862
 20
13.4826432925
 10
-24.3435821239
 20
13.4773045551
 10
-24.3252549088
 20
13.4707887987
 10
-24.3067237161
 20
13.4631138617
 10
-24.2880392794
 20
13.4543007562
 10
-24.269252752
 20
13.4443736101
  0
LINE
  5
29E
100
AcDbEntity
  8
RACCORDO
100
AcDbLine
 62
7
  6
CONTINUOUS
 10
-18.909857041
 20
18.5836422062
 11
-20.4930334508
 21
17.6481400815
  0
LINE
  5
29F
100
AcDbEntity
  8
RACCORDO
100
AcDbLine
 62
253
  6
CONTINUOUS
 10
-18.7841240884
 20
18.571682149
 11
-20.3668806915
 21
17.636428089
  0
LINE
  5
2A0
100
AcDbEntity
  8
RACCORDO
100
AcDbLine
 62
7
  6
CONTINUOUS
 10
-18.9083991526
 20
18.5844840219
 11
-18.909853396
 21
18.58364436
  0
LINE
  5
2A1
100
AcDbEntity
  8
RACCORDO
100
AcDbLine
 62
253
  6
CONTINUOUS
 10
-16.9123480491
 20
18.1009721563
 11
-19.0418960117
 21
16.8713985408
  0
LINE
  5
2A2
100
AcDbEntity
  8
RACCORDO
100
AcDbLine
 62
7
  6
CONTINUOUS
 10
-18.3735208373
 20
18.8861710447
 11
-18.908395436
 21
18.5844861185
  0
LINE
  5
2A3
100
AcDbEntity
  8
RACCORDO
100
AcDbLine
 62
253
  6
CONTINUOUS
 10
-18.2496742097
 20
18.8731275207
 11
-18.7841240884
 21
18.571682149
  0
LINE
  5
2A4
100
AcDbEntity
  8
CURVE
100
AcDbLine
 62
253
  6
CONTINUOUS
 10
-21.0878199182
 20
-21.5546610683
 11
-21.0740634143
 21
-21.5566931025
  0
LINE
  5
2A5
100
AcDbEntity
  8
CURVE
100
AcDbLine
 62
253
  6
CONTINUOUS
 10
-19.7068832703
 20
-21.6974995174
 11
-19.6991533372
 21
-21.6987090546
  0
LINE
  5
2A6
100
AcDbEntity
  8
CURVE
100
AcDbLine
 62
253
  6
CONTINUOUS
 10
-19.8328152487
 20
-21.2509264705
 11
-19.8405550151
 21
-21.2497105813
  0
LINE
  5
2A7
100
AcDbEntity
  8
CURVE
100
AcDbLine
 62
253
  6
CONTINUOUS
 10
-19.7147506842
 20
-21.6957886583
 11
-19.7068832703
 21
-21.6974995174
  0
LINE
  5
2A8
100
AcDbEntity
  8
CURVE
100
AcDbLine
 62
253
  6
CONTINUOUS
 10
-19.8249363631
 20
-21.2526442197
 11
-19.8328152487
 21
-21.2509264705
  0
LINE
  5
2A9
100
AcDbEntity
  8
CURVE
100
AcDbLine
 62
253
  6
CONTINUOUS
 10
-19.7227416525
 20
-21.6935797718
 11
-19.7147506842
 21
-21.6957886583
  0
LINE
  5
2AA
100
AcDbEntity
  8
CURVE
100
AcDbLine
 62
253
  6
CONTINUOUS
 10
-19.8169319595
 20
-21.2548607623
 11
-19.8249363631
 21
-21.2526442197
  0
LINE
  5
2AB
100
AcDbEntity
  8
CURVE
100
AcDbLine
 62
253
  6
CONTINUOUS
 10
-21.165347146
 20
-19.902295223
 11
-21.181419905
 21
-19.8973979883
  0
LINE
  5
2AC
100
AcDbEntity
  8
CURVE
100
AcDbLine
 62
253
  6
CONTINUOUS
 10
-19.8088148302
 20
-21.257572769
 11
-19.8169319595
 21
-21.2548607623
  0
LINE
  5
2AD
100
AcDbEntity
  8
CURVE
100
AcDbLine
 62
253
  6
CONTINUOUS
 10
-19.6195087863
 20
-21.4626490858
 11
-19.6241023113
 21
-21.4519655883
  0
LINE
  5
2AE
100
AcDbEntity
  8
CURVE
100
AcDbLine
 62
253
  6
CONTINUOUS
 10
-19.9246436285
 20
-21.4751856708
 11
-19.9204012474
 21
-21.4858636771
  0
LINE
  5
2AF
100
AcDbEntity
  8
CURVE
100
AcDbLine
 62
253
  6
CONTINUOUS
 10
-19.6152606615
 20
-21.4733432449
 11
-19.6195087863
 21
-21.4626490858
  0
LINE
  5
2B0
100
AcDbEntity
  8
CURVE
100
AcDbLine
 62
253
  6
CONTINUOUS
 10
-19.9285330277
 20
-21.4645167805
 11
-19.9246436285
 21
-21.4751856708
  0
LINE
  5
2B1
100
AcDbEntity
  8
CURVE
100
AcDbLine
 62
253
  6
CONTINUOUS
 10
-19.6113667189
 20
-21.4840241905
 11
-19.6152606615
 21
-21.4733432449
  0
LINE
  5
2B2
100
AcDbEntity
  8
CURVE
100
AcDbLine
 62
253
  6
CONTINUOUS
 10
-19.932061819
 20
-21.4538792219
 11
-19.9285330277
 21
-21.4645167805
  0
LINE
  5
2B3
100
AcDbEntity
  8
CURVE
100
AcDbLine
 62
253
  6
CONTINUOUS
 10
-19.6078345844
 20
-21.4946692169
 11
-19.6113667189
 21
-21.4840241905
  0
LINE
  5
2B4
100
AcDbEntity
  8
CURVE
100
AcDbLine
 62
253
  6
CONTINUOUS
 10
-19.9352234029
 20
-21.4432940094
 11
-19.932061819
 21
-21.4538792219
  0
LINE
  5
2B5
100
AcDbEntity
  8
CURVE
100
AcDbLine
 62
253
  6
CONTINUOUS
 10
-19.6046708036
 20
-21.5052569013
 11
-19.6078345844
 21
-21.4946692169
  0
LINE
  5
2B6
100
AcDbEntity
  8
CURVE
100
AcDbLine
 62
253
  6
CONTINUOUS
 10
-19.6018809407
 20
-21.5157671744
 11
-19.6046708036
 21
-21.5052569013
  0
LINE
  5
2B7
100
AcDbEntity
  8
CURVE
100
AcDbLine
 62
253
  6
CONTINUOUS
 10
-19.9380121131
 20
-21.4327808871
 11
-19.9352234029
 21
-21.4432940094
  0
LINE
  5
2B8
100
AcDbEntity
  8
CURVE
100
AcDbLine
 62
253
  6
CONTINUOUS
 10
-19.5994696961
 20
-21.5261813512
 11
-19.6018809407
 21
-21.5157671744
  0
LINE
  5
2B9
100
AcDbEntity
  8
CURVE
100
AcDbLine
 62
253
  6
CONTINUOUS
 10
-19.9404231072
 20
-21.422358297
 11
-19.9380121131
 21
-21.4327808871
  0
LINE
  5
2BA
100
AcDbEntity
  8
CURVE
100
AcDbLine
 62
253
  6
CONTINUOUS
 10
-19.5936821035
 20
-21.5665505941
 11
-19.5945444889
 21
-21.5566808547
  0
LINE
  5
2BB
100
AcDbEntity
  8
CURVE
100
AcDbLine
 62
253
  6
CONTINUOUS
 10
-19.9462149163
 20
-21.3818975271
 11
-19.9453511198
 21
-21.3917988823
  0
LINE
  5
2BC
100
AcDbEntity
  8
CURVE
100
AcDbLine
 62
253
  6
CONTINUOUS
 10
-21.0136398532
 20
-21.4840282164
 11
-21.0530213861
 21
-20.0913556002
  0
LWPOLYLINE
  5
2BD
100
AcDbEntity
  8
RACCORDO
100
AcDbPolyline
 62
253
  6
CONTINUOUS
 90
25
 70
0
 10
-18.865122308
 20
16.2446973321
 10
-18.8700063252
 20
16.2329527031
 10
-18.8753569286
 20
16.2215204911
 10
-18.881159507
 20
16.2104319153
 10
-18.8873982146
 20
16.1997172561
 10
-18.894056015
 20
16.189405773
 10
-18.9011147269
 20
16.1795256245
 10
-18.9085550746
 20
16.1701037913
 10
-18.9163567401
 20
16.1611660024
 10
-18.9244984186
 20
16.152736665
 10
-18.9329578768
 20
16.1448387979
 10
-18.9417120139
 20
16.1374939685
 10
-18.950736924
 20
16.1307222341
 10
-18.9600079621
 20
16.1245420867
 10
-18.9694998108
 20
16.1189704031
 10
-18.97918655
 20
16.1140223983
 10
-18.9890417271
 20
16.1097115844
 10
-18.9990384297
 20
16.1060497333
 10
-19.009149359
 20
16.1030468447
 10
-19.019346904
 20
16.1007111189
 10
-19.0296032176
 20
16.0990489343
 10
-19.0398902917
 20
16.0980648299
 10
-19.0501800345
 20
16.0977614931
 10
-19.060444347
 20
16.0981397523
 10
-19.0637908828
 20
16.0984112357
  0
LINE
  5
2BE
100
AcDbEntity
  8
RACCORDO
100
AcDbLine
 62
7
  6
CONTINUOUS
 10
-17.2638415172
 20
15.9793024648
 11
-18.1539016999
 21
15.4177889831
  0
LINE
  5
2BF
100
AcDbEntity
  8
RACCORDO
100
AcDbLine
 62
7
  6
CONTINUOUS
 10
3.6030048677
 20
26.9255261914
 11
10.3312776736
 21
30.9070782592
  0
LINE
  5
2C0
100
AcDbEntity
  8
ASSI
100
AcDbLine
 62
7
  6
CONTINUOUS
 10
3.6030048677
 20
26.9255261914
 11
10.3312776736
 21
30.9070782592
  0
LINE
  5
2C1
100
AcDbEntity
  8
RACCORDO
100
AcDbLine
 62
253
  6
CONTINUOUS
 10
10.3312776736
 20
30.9070782592
 11
10.3343889079
 21
30.9088967944
  0
LINE
  5
2C2
100
AcDbEntity
  8
ASSI
100
AcDbLine
 62
253
  6
CONTINUOUS
 10
10.3312776736
 20
30.9070782592
 11
10.3343889079
 21
30.9088967944
  0
LINE
  5
2C3
100
AcDbEntity
  8
RACCORDO
100
AcDbLine
 62
253
  6
CONTINUOUS
 10
3.610631454
 20
26.9241779003
 11
10.7741414354
 21
31.162755318
  0
LINE
  5
2C4
100
AcDbEntity
  8
ASSI
100
AcDbLine
 62
253
  6
CONTINUOUS
 10
3.610631454
 20
26.9241779003
 11
10.7741414354
 21
31.162755318
  0
LINE
  5
2C5
100
AcDbEntity
  8
RACCORDO
100
AcDbLine
 62
7
  6
CONTINUOUS
 10
10.3312565614
 20
30.9070645689
 11
10.3343889079
 21
30.9088967944
  0
LINE
  5
2C6
100
AcDbEntity
  8
ASSI
100
AcDbLine
 62
7
  6
CONTINUOUS
 10
10.3312565614
 20
30.9070645689
 11
10.3343889079
 21
30.9088967944
  0
LINE
  5
2C7
100
AcDbEntity
  8
RACCORDO
100
AcDbLine
 62
253
  6
CONTINUOUS
 10
-16.7355743455
 20
17.7947911204
 11
-18.865122308
 21
16.5652175049
  0
LINE
  5
2C8
100
AcDbEntity
  8
RACCORDO
100
AcDbLine
 62
7
  6
CONTINUOUS
 10
-15.8557987822
 20
15.975740195
 11
-9.2545146595
 21
19.7872681892
  0
LINE
  5
2C9
100
AcDbEntity
  8
ASSI
100
AcDbLine
 62
7
  6
CONTINUOUS
 10
3.4134073741
 20
26.8976377017
 11
-9.0779117721
 21
19.6853065798
  0
LINE
  5
2CA
100
AcDbEntity
  8
ASSI
100
AcDbLine
 62
253
  6
CONTINUOUS
 10
3.7684073741
 20
26.8624535622
 11
-8.8699433764
 21
19.5652282346
  0
LINE
  5
2CB
100
AcDbEntity
  8
RACCORDO
100
AcDbLine
 62
7
  6
CONTINUOUS
 10
10.7741414354
 20
31.162755318
 11
10.3343889079
 21
30.9088967944
  0
LINE
  5
2CC
100
AcDbEntity
  8
ASSI
100
AcDbLine
 62
7
  6
CONTINUOUS
 10
10.7741414354
 20
31.162755318
 11
10.3343889079
 21
30.9088967944
  0
LINE
  5
2CD
100
AcDbEntity
  8
CURVE
100
AcDbLine
 62
253
  6
CONTINUOUS
 10
-19.6915755603
 20
-21.6994144515
 11
-19.6841652758
 21
-21.6996135493
  0
LINE
  5
2CE
100
AcDbEntity
  8
CURVE
100
AcDbLine
 62
253
  6
CONTINUOUS
 10
-19.8481413091
 20
-21.2489991782
 11
-19.8555591075
 21
-21.2487942656
  0
LINE
  5
2CF
100
AcDbEntity
  8
CURVE
100
AcDbLine
 62
253
  6
CONTINUOUS
 10
-19.6991533372
 20
-21.6987090546
 11
-19.6915755603
 21
-21.6994144515
  0
LINE
  5
2D0
100
AcDbEntity
  8
CURVE
100
AcDbLine
 62
253
  6
CONTINUOUS
 10
-19.8405550151
 20
-21.2497105813
 11
-19.8481413091
 21
-21.2489991782
  0
LINE
  5
2D1
100
AcDbEntity
  8
CURVE
100
AcDbLine
 62
253
  6
CONTINUOUS
 10
-21.181419905
 20
-19.8973979883
 11
-21.198212556
 21
-19.8948736438
  0
LWPOLYLINE
  5
2D2
100
AcDbEntity
  8
RACCORDO
100
AcDbPolyline
 62
253
  6
CONTINUOUS
 90
31
 70
0
 10
-5.5008041436
 20
-30.4080782689
 10
-5.5056826434
 20
-30.4013614857
 10
-5.511028285
 20
-30.3943812941
 10
-5.5168268751
 20
-30.3871565155
 10
-5.5230635603
 20
-30.3797059671
 10
-5.5297211545
 20
-30.3720504682
 10
-5.5367798035
 20
-30.364212965
 10
-5.5442194593
 20
-30.3562156778
 10
-5.5520204954
 20
-30.3480796664
 10
-5.5601618148
 20
-30.3398269426
 10
-5.5686213502
 20
-30.3314798981
 10
-5.577375887
 20
-30.3230614607
 10
-5.5864013072
 20
-30.3145948305
 10
-5.5956728736
 20
-30.3061032102
 10
-5.6051653429
 20
-30.2976097169
 10
-5.6148528112
 20
-30.2891375292
 10
-5.6247088358
 20
-30.2807097744
 10
-5.6347064816
 20
-30.272349486
 10
-5.6448184176
 20
-30.2640795199
 10
-5.6550170156
 20
-30.2559224711
 10
-5.6652744273
 20
-30.2479006131
 10
-5.6755626354
 20
-30.2400358571
 10
-5.6858535539
 20
-30.2323496735
 10
-5.6961190589
 20
-30.2248630682
 10
-5.7063310648
 20
-30.2175965227
 10
-5.7164616499
 20
-30.210569902
 10
-5.7264831757
 20
-30.2038023729
 10
-5.7363683141
 20
-30.1973123888
 10
-5.7460900797
 20
-30.1911176668
 10
-5.755621905
 20
-30.1852351362
 10
-5.7649377556
 20
-30.1796808638
  0
LINE
  5
2D3
100
AcDbEntity
  8
CURVE
100
AcDbLine
 62
253
  6
CONTINUOUS
 10
-19.5974410362
 20
-21.5364821244
 11
-19.5994696961
 21
-21.5261813512
  0
LINE
  5
2D4
100
AcDbEntity
  8
CURVE
100
AcDbLine
 62
253
  6
CONTINUOUS
 10
-19.9424522446
 20
-21.4120433815
 11
-19.9404231072
 21
-21.422358297
  0
LINE
  5
2D5
100
AcDbEntity
  8
CURVE
100
AcDbLine
 62
253
  6
CONTINUOUS
 10
-19.5957983301
 20
-21.5466535252
 11
-19.5974410362
 21
-21.5364821244
  0
LINE
  5
2D6
100
AcDbEntity
  8
CURVE
100
AcDbLine
 62
253
  6
CONTINUOUS
 10
-19.9440959577
 20
-21.4018520185
 11
-19.9424522446
 21
-21.4120433815
  0
LINE
  5
2D7
100
AcDbEntity
  8
CURVE
100
AcDbLine
 62
253
  6
CONTINUOUS
 10
-19.5945444889
 20
-21.5566808547
 11
-19.5957983301
 21
-21.5466535252
  0
LINE
  5
2D8
100
AcDbEntity
  8
CURVE
100
AcDbLine
 62
253
  6
CONTINUOUS
 10
-19.9453511198
 20
-21.3917988823
 11
-19.9440959577
 21
-21.4018520185
  0
LINE
  5
2D9
100
AcDbEntity
  8
CURVE
100
AcDbLine
 62
253
  6
CONTINUOUS
 10
-19.9466847188
 20
-21.3721604871
 11
-19.9462149163
 21
-21.3818975271
  0
LINE
  5
2DA
100
AcDbEntity
  8
CURVE
100
AcDbLine
 62
253
  6
CONTINUOUS
 10
-19.5932135756
 20
-21.5762502951
 11
-19.5936821035
 21
-21.5665505941
  0
LINE
  5
2DB
100
AcDbEntity
  8
CURVE
100
AcDbLine
 62
253
  6
CONTINUOUS
 10
-19.7431260643
 20
-22.3569922431
 11
-19.752690215
 21
-22.0359460619
  0
LINE
  5
2DC
100
AcDbEntity
  8
CURVE
100
AcDbLine
 62
253
  6
CONTINUOUS
 10
-19.7844659246
 20
-20.9080688502
 11
-19.7930081528
 21
-20.5864326309
  0
LWPOLYLINE
  5
2DD
100
AcDbEntity
  8
RACCORDO
100
AcDbPolyline
 62
253
  6
CONTINUOUS
 90
17
 70
0
 10
-20.5426289475
 20
17.0103189609
 10
-20.5424090928
 20
17.0002689988
 10
-20.5417500756
 20
16.9904979162
 10
-20.5406535348
 20
16.9810300175
 10
-20.5391222039
 20
16.971888884
 10
-20.5371598886
 20
16.9630972199
 10
-20.5347714428
 20
16.9546768077
 10
-20.5319627727
 20
16.946648549
 10
-20.5287408672
 20
16.9390324878
 10
-20.5251137696
 20
16.9318476585
 10
-20.52109049
 20
16.9251119131
 10
-20.5166810474
 20
16.9188420295
 10
-20.5118965109
 20
16.9130537153
 10
-20.5067488775
 20
16.9077614079
 10
-20.5012509095
 20
16.9029781571
 10
-20.4954161758
 20
16.8987157439
 10
-20.490857564
 20
16.8958843251
  0
LWPOLYLINE
  5
2DE
100
AcDbEntity
  8
RACCORDO
100
AcDbPolyline
 62
253
  6
CONTINUOUS
 90
17
 70
0
 10
-19.2176442677
 20
16.2452894127
 10
-19.217424413
 20
16.2352394506
 10
-19.2167653958
 20
16.225468368
 10
-19.215668855
 20
16.2160004693
 10
-19.2141375241
 20
16.2068593359
 10
-19.2121752088
 20
16.1980676717
 10
-19.209786763
 20
16.1896472596
 10
-19.2069780929
 20
16.1816190009
 10
-19.2037561874
 20
16.1740029397
 10
-19.2001290898
 20
16.1668181103
 10
-19.1961058102
 20
16.1600823649
 10
-19.1916963676
 20
16.1538124813
 10
-19.1869118311
 20
16.1480241671
 10
-19.1817641976
 20
16.1427318597
 10
-19.1762662297
 20
16.137948609
 10
-19.170431496
 20
16.1336861957
 10
-19.1659368288
 20
16.1308917347
  0
LINE
  5
2DF
100
AcDbEntity
  8
CURVE
100
AcDbLine
 62
253
  6
CONTINUOUS
 10
-19.9467565754
 20
-21.3626753626
 11
-19.9466847188
 21
-21.3721604871
  0
LINE
  5
2E0
100
AcDbEntity
  8
CURVE
100
AcDbLine
 62
253
  6
CONTINUOUS
 10
-19.5931412734
 20
-21.5857433354
 11
-19.5932135756
 21
-21.5762502951
  0
LINE
  5
2E1
100
AcDbEntity
  8
RACCORDO
100
AcDbLine
 62
7
  6
CONTINUOUS
 10
-20.6158522522
 20
17.432907782
 11
-20.6158474394
 21
17.1108364175
  0
LINE
  5
2E2
100
AcDbEntity
  8
RACCORDO
100
AcDbLine
 62
253
  6
CONTINUOUS
 10
-20.5426289475
 20
17.3308391337
 11
-20.5426289475
 21
17.0103189609
  0
LINE
  5
2E3
100
AcDbEntity
  8
RACCORDO
100
AcDbLine
 62
7
  6
CONTINUOUS
 10
-19.9128592979
 20
16.2827563051
 11
-19.9128592979
 21
16.5621553703
  0
LINE
  5
2E4
100
AcDbEntity
  8
RACCORDO
100
AcDbLine
 62
253
  6
CONTINUOUS
 10
-19.8396359932
 20
16.1775260419
 11
-19.8396359932
 21
16.5198771519
  0
LINE
  5
2E5
100
AcDbEntity
  8
RACCORDO
100
AcDbLine
 62
253
  6
CONTINUOUS
 10
-19.2176442677
 20
16.2452894127
 11
-19.2176442677
 21
16.5658095855
  0
LINE
  5
2E6
100
AcDbEntity
  8
RACCORDO
100
AcDbLine
 62
253
  6
CONTINUOUS
 10
-18.865122308
 20
16.2446973321
 11
-18.865122308
 21
16.5652175049
  0
LINE
  5
2E7
100
AcDbEntity
  8
0
100
AcDbLine
 62
7
  6
CONTINUOUS
 10
-18.5719890624
 20
14.5862640106
 11
-18.5719890624
 21
13.9847270041
  0
LINE
  5
2E8
100
AcDbEntity
  8
ASSI
100
AcDbLine
 62
7
  6
CONTINUOUS
 10
-18.5719890624
 20
13.9847270041
 11
-18.5719890624
 21
14.5862640106
  0
LINE
  5
2E9
100
AcDbEntity
  8
RACCORDO
100
AcDbLine
 62
253
  6
CONTINUOUS
 10
-18.5064236596
 20
16.0470882198
 11
-18.5064236596
 21
15.4077459495
  0
LWPOLYLINE
  5
2EA
100
AcDbEntity
  8
RACCORDO
100
AcDbPolyline
 62
253
  6
CONTINUOUS
 90
31
 70
0
 10
-20.5426289475
 20
17.3308391337
 10
-20.5423883663
 20
17.3416235396
 10
-20.5416672751
 20
17.3526564354
 10
-20.5404676333
 20
17.3639077924
 10
-20.5387927008
 20
17.3753469993
 10
-20.5366470343
 20
17.386942909
 10
-20.5340364796
 20
17.3986639224
 10
-20.5309681462
 20
17.4104781269
 10
-20.5274503849
 20
17.4223533736
 10
-20.5234927757
 20
17.4342573283
 10
-20.5191060938
 20
17.4461575872
 10
-20.5143022807
 20
17.4580217616
 10
-20.5090944161
 20
17.4698175543
 10
-20.5034966707
 20
17.4815128729
 10
-20.4975242891
 20
17.4930758713
 10
-20.4911935548
 20
17.5044750335
 10
-20.4845217339
 20
17.5156792899
 10
-20.4775269656
 20
17.5266581971
 10
-20.4702282287
 20
17.5373819696
 10
-20.4626452861
 20
17.5478215513
 10
-20.4547988678
 20
17.5579483842
 10
-20.4467105765
 20
17.5677346115
 10
-20.4384026087
 20
17.5771534478
 10
-20.4298974363
 20
17.5861794853
 10
-20.4212179736
 20
17.5947884309
 10
-20.4123858831
 20
17.6029586025
 10
-20.4034271001
 20
17.6106658162
 10
-20.3943717632
 20
17.6178846845
 10
-20.3852465944
 20
17.624595152
 10
-20.3760745899
 20
17.6307815437
 10
-20.3668806915
 20
17.636428089
  0
LWPOLYLINE
  5
2EB
100
AcDbEntity
  8
RACCORDO
100
AcDbPolyline
 62
253
  6
CONTINUOUS
 90
31
 70
0
 10
-19.2176442677
 20
16.5658095855
 10
-19.2174037922
 20
16.5765915917
 10
-19.21668302
 20
16.5876219586
 10
-19.2154839121
 20
16.5988706764
 10
-19.2138097308
 20
16.6103071409
 10
-19.2116650311
 20
16.6219002373
 10
-19.209055648
 20
16.6336184246
 10
-19.2059886806
 20
16.6454298216
 10
-19.2024724734
 20
16.6573022932
 10
-19.1985165926
 20
16.6692035385
 10
-19.1941318009
 20
16.6811011781
 10
-19.1893300279
 20
16.6929628425
 10
-19.1841243376
 20
16.7047562599
 10
-19.178528893
 20
16.7164493443
 10
-19.1725589175
 20
16.7280102829
 10
-19.1662306533
 20
16.739407622
 10
-19.1595613176
 20
16.7506103533
 10
-19.1525690555
 20
16.7615879978
 10
-19.1452728905
 20
16.772310689
 10
-19.1376926732
 20
16.7827492541
 10
-19.1298490268
 20
16.792875293
 10
-19.1217632913
 20
16.8026612563
 10
-19.1134574652
 20
16.8120805195
 10
-19.1049541461
 20
16.821107456
 10
-19.0962764685
 20
16.8297175064
 10
-19.0874480417
 20
16.8378872456
 10
-19.0784928848
 20
16.8455944465
 10
-19.0694353618
 20
16.8528181403
 10
-19.0603001154
 20
16.8595386737
 10
-19.0511119994
 20
16.8657377624
 10
-19.0418960117
 20
16.8713985408
  0
LINE
  5
2EC
100
AcDbEntity
  8
CURVE
100
AcDbLine
 62
253
  6
CONTINUOUS
 10
-19.593466133
 20
-21.5949455003
 11
-19.5931412734
 21
-21.5857433354
  0
LINE
  5
2ED
100
AcDbEntity
  8
CURVE
100
AcDbLine
 62
253
  6
CONTINUOUS
 10
-19.9464308382
 20
-21.3534787721
 11
-19.9467565754
 21
-21.3626753626
  0
LINE
  5
2EE
100
AcDbEntity
  8
RACCORDO
100
AcDbLine
 62
253
  6
CONTINUOUS
 10
3.9467946927
 20
26.7776953482
 11
11.2741223969
 21
31.1132020789
  0
LINE
  5
2EF
100
AcDbEntity
  8
ASSI
100
AcDbLine
 62
253
  6
CONTINUOUS
 10
3.9467946927
 20
26.7776953482
 11
11.2741223969
 21
31.1132020789
  0
LINE
  5
2F0
100
AcDbEntity
  8
RACCORDO
100
AcDbLine
 62
7
  6
CONTINUOUS
 10
-14.8950217989
 20
15.34159535
 11
-14.5414804096
 21
15.550503668
  0
LINE
  5
2F1
100
AcDbEntity
  8
ASSI
100
AcDbLine
 62
253
  6
CONTINUOUS
 10
6.4525199238
 20
25.3126806159
 11
-6.1858308268
 21
18.0154552882
  0
LINE
  5
2F2
100
AcDbEntity
  8
0
100
AcDbLine
 62
7
  6
CONTINUOUS
 10
-9.5917329413
 20
15.958943972
 11
-8.8846261601
 21
16.3672185653
  0
LINE
  5
2F3
100
AcDbEntity
  8
ASSI
100
AcDbLine
 62
7
  6
CONTINUOUS
 10
-8.599726569
 20
18.2106641442
 11
-13.1979775254
 21
15.5865810422
  0
LINE
  5
2F4
100
AcDbEntity
  8
DRAFT
100
AcDbLine
 62
7
  6
CONTINUOUS
 10
-8.8846261601
 20
16.8881586392
 11
-8.5508505375
 21
17.0775131789
  0
LINE
  5
2F5
100
AcDbEntity
  8
RACCORDO
100
AcDbLine
 62
7
  6
CONTINUOUS
 10
-6.4742925117
 20
17.8508551456
 11
-8.5310727696
 21
16.6840213425
  0
LINE
  5
2F6
100
AcDbEntity
  8
ASSI
100
AcDbLine
 62
7
  6
CONTINUOUS
 10
-14.5414804096
 20
15.550503668
 11
-9.2052570037
 21
18.5602898281
  0
LWPOLYLINE
  5
2F7
100
AcDbEntity
  8
ASSI
100
AcDbPolyline
 62
7
  6
CONTINUOUS
 90
7
 70
0
 10
-8.599726569
 20
18.2106641442
 10
-8.5915173097
 20
18.2152370595
 10
-8.5833333519
 20
18.2195787418
 10
-8.5751746958
 20
18.223689191
 10
-8.5670413414
 20
18.2275684071
 10
-8.5589332886
 20
18.2312163902
 10
-8.5508505375
 20
18.2346331402
  0
LWPOLYLINE
  5
2F8
100
AcDbEntity
  8
RACCORDO
100
AcDbPolyline
 62
253
  6
CONTINUOUS
 90
7
 70
0
 10
6.4508922382
 20
23.6167030451
 10
6.4730858568
 20
23.6265652411
 10
6.4962228838
 20
23.6310834517
 10
6.5212176671
 20
23.6309500499
 10
6.5476425805
 20
23.6261673181
 10
6.5750455303
 20
23.6168170821
 10
6.6029576897
 20
23.6030593116
  0
LWPOLYLINE
  5
2F9
100
AcDbEntity
  8
ASSI
100
AcDbPolyline
 62
253
  6
CONTINUOUS
 90
7
 70
0
 10
6.4508922382
 20
23.6167030451
 10
6.4730858568
 20
23.6265652411
 10
6.4962228838
 20
23.6310834517
 10
6.5212176671
 20
23.6309500499
 10
6.5476425805
 20
23.6261673181
 10
6.5750455303
 20
23.6168170821
 10
6.6029576897
 20
23.6030593116
  0
LINE
  5
2FA
100
AcDbEntity
  8
ASSI
100
AcDbLine
 62
7
  6
CONTINUOUS
 10
-8.5278918886
 20
18.2440114255
 11
-8.5508505375
 21
18.2346331402
  0
LWPOLYLINE
  5
2FB
100
AcDbEntity
  8
ASSI
100
AcDbPolyline
 62
7
  6
CONTINUOUS
 90
18
 70
0
 10
-9.1543258124
 20
18.5848040887
 10
-9.1421702221
 20
18.5892004493
 10
-9.1294374783
 20
18.5928394228
 10
-9.1161338225
 20
18.595701864
 10
-9.1022592276
 20
18.5977822933
 10
-9.0878312929
 20
18.5990468428
 10
-9.072887605
 20
18.5994352467
 10
-9.0574466748
 20
18.5989229475
 10
-9.0415236205
 20
18.5974988611
 10
-9.0251569541
 20
18.5951261696
 10
-9.0084063012
 20
18.5917962693
 10
-8.9912598421
 20
18.5874879106
 10
-8.9736483678
 20
18.5821403058
 10
-8.9555878118
 20
18.5757331813
 10
-8.9371130187
 20
18.5682428039
 10
-8.9181808312
 20
18.5595911843
 10
-8.8988196539
 20
18.5497504221
 10
-8.8827093601
 20
18.5408110897
  0
LINE
  5
2FC
100
AcDbEntity
  8
CURVE
100
AcDbLine
 62
253
  6
CONTINUOUS
 10
-19.6769383665
 20
-21.6993050292
 11
-19.6699111232
 21
-21.6984885819
  0
LINE
  5
2FD
100
AcDbEntity
  8
CURVE
100
AcDbLine
 62
253
  6
CONTINUOUS
 10
-19.8627928252
 20
-21.2490970478
 11
-19.8698264457
 21
-21.2499077591
  0
LINE
  5
2FE
100
AcDbEntity
  8
CURVE
100
AcDbLine
 62
253
  6
CONTINUOUS
 10
-21.0740634143
 20
-21.5566931025
 11
-21.0609608888
 21
-21.5560421143
  0
LINE
  5
2FF
100
AcDbEntity
  8
CURVE
100
AcDbLine
 62
253
  6
CONTINUOUS
 10
-19.6841652758
 20
-21.6996135493
 11
-19.6769383665
 21
-21.6993050292
  0
LINE
  5
300
100
AcDbEntity
  8
CURVE
100
AcDbLine
 62
253
  6
CONTINUOUS
 10
-19.8555591075
 20
-21.2487942656
 11
-19.8627928252
 21
-21.2490970478
  0
LINE
  5
301
100
AcDbEntity
  8
CURVE
100
AcDbLine
 62
253
  6
CONTINUOUS
 10
-21.198212556
 20
-19.8948736438
 11
-21.2151182771
 21
-19.8949288366
  0
LINE
  5
302
100
AcDbEntity
  8
0
100
AcDbLine
 62
7
  6
CONTINUOUS
 10
-4.2777619329
 20
-21.4015881739
 11
-4.4232652493
 21
-21.3175763826
  0
LINE
  5
303
100
AcDbEntity
  8
0
100
AcDbLine
 62
7
  6
CONTINUOUS
 10
-2.838863181
 20
-20.6277949897
 11
-3.8339346923
 21
-20.0532531702
  0
LWPOLYLINE
  5
304
100
AcDbEntity
  8
RACCORDO
100
AcDbPolyline
 62
253
  6
CONTINUOUS
 90
31
 70
0
 10
-18.865122308
 20
16.5652175049
 10
-18.8654174025
 20
16.5760119709
 10
-18.866193586
 20
16.587058359
 10
-18.8674487334
 20
16.598326381
 10
-18.8691794078
 20
16.609785152
 10
-18.8713808657
 20
16.6214032418
 10
-18.874047065
 20
16.6331487599
 10
-18.8771706917
 20
16.6449894916
 10
-18.8807431812
 20
16.6568929761
 10
-18.8847547325
 20
16.6688265624
 10
-18.8891943427
 20
16.6807575257
 10
-18.8940498368
 20
16.6926531534
 10
-18.8993078968
 20
16.7044808233
 10
-18.9049541095
 20
16.7162081179
 10
-18.9109729846
 20
16.7278028678
 10
-18.9173479908
 20
16.7392332374
 10
-18.9240616133
 20
16.7504678419
 10
-18.9310954637
 20
16.7614759287
 10
-18.9384303155
 20
16.7722274112
 10
-18.9460461594
 20
16.7826929409
 10
-18.9539220226
 20
16.7928436787
 10
-18.9620360646
 20
16.8026514997
 10
-18.9703658565
 20
16.8120893631
 10
-18.9788886992
 20
16.8211316184
 10
-18.9875814577
 20
16.8297537447
 10
-18.9964222457
 20
16.8379338398
 10
-19.0053849359
 20
16.8456475386
 10
-19.0144392411
 20
16.8528693105
 10
-19.0235582857
 20
16.8595789571
 10
-19.0327189042
 20
16.8657606612
 10
-19.0418960117
 20
16.8713985408
  0
LWPOLYLINE
  5
305
100
AcDbEntity
  8
RACCORDO
100
AcDbPolyline
 62
7
  6
CONTINUOUS
 90
34
 70
0
 10
-17.2638415172
 20
17.4897759311
 10
-17.2640415732
 20
17.4996037742
 10
-17.2646418107
 20
17.5096404508
 10
-17.2656407687
 20
17.5198632864
 10
-17.2670360042
 20
17.5302492314
 10
-17.2688243525
 20
17.5407747631
 10
-17.2710019338
 20
17.5514159399
 10
-17.2735637583
 20
17.5621486921
 10
-17.2765039326
 20
17.5729487608
 10
-17.2798159276
 20
17.5837916026
 10
-17.2834922047
 20
17.5946526784
 10
-17.2875243649
 20
17.6055074267
 10
-17.2919033623
 20
17.6163312031
 10
-17.2966192628
 20
17.627099498
 10
-17.3016613328
 20
17.6377879481
 10
-17.3070181935
 20
17.6483723101
 10
-17.3126777177
 20
17.6588286034
 10
-17.3186270557
 20
17.669133159
 10
-17.3248527274
 20
17.679262629
 10
-17.3313406599
 20
17.6891940505
 10
-17.3380761488
 20
17.6989049307
 10
-17.345043888
 20
17.7083732935
 10
-17.3522281451
 20
17.7175776612
 10
-17.3596126607
 20
17.7264971755
 10
-17.3671806151
 20
17.73511168
 10
-17.3749149366
 20
17.7434016195
 10
-17.3827981425
 20
17.7513481952
 10
-17.390812242
 20
17.7589334806
 10
-17.3989391723
 20
17.7661402417
 10
-17.4071605834
 20
17.7729521216
 10
-17.4154576801
 20
17.7793537886
 10
-17.4238116735
 20
17.7853307398
 10
-17.4322038226
 20
17.7908693337
 10
-17.4406152209
 20
17.795956967
  0
LWPOLYLINE
  5
306
100
AcDbEntity
  8
RACCORDO
100
AcDbPolyline
 62
253
  6
CONTINUOUS
 90
31
 70
0
 10
-16.7355743455
 20
17.7947911204
 10
-16.7357645936
 20
17.8056461234
 10
-16.7364418581
 20
17.816749626
 10
-16.7376042849
 20
17.8280711837
 10
-16.7392486916
 20
17.8395797646
 10
-16.7413705711
 20
17.8512438019
 10
-16.7439641
 20
17.8630312791
 10
-16.7470221635
 20
17.8749098661
 10
-16.7505363767
 20
17.8868469986
 10
-16.7544970984
 20
17.8988099333
 10
-16.758893465
 20
17.9107658649
 10
-16.7637134202
 20
17.9226820123
 10
-16.7689437433
 20
17.9345256971
 10
-16.7745700971
 20
17.9462644581
 10
-16.7805770457
 20
17.9578660942
 10
-16.7869480905
 20
17.9692987511
 10
-16.7936657273
 20
17.9805310376
 10
-16.8007115567
 20
17.991532208
 10
-16.8080663193
 20
18.0022721943
 10
-16.8157099517
 20
18.0127216792
 10
-16.8236214047
 20
18.0228518679
 10
-16.831778739
 20
18.0326346925
 10
-16.8401594052
 20
18.0420431817
 10
-16.8487405649
 20
18.0510517655
 10
-16.8574989245
 20
18.0596360145
 10
-16.8664124346
 20
18.0677741208
 10
-16.8754547551
 20
18.0754418421
 10
-16.8845953238
 20
18.0826138065
 10
-16.8938069967
 20
18.0892699707
 10
-16.9030663605
 20
18.0953946605
 10
-16.9123480491
 20
18.1009721563
  0
LINE
  5
307
100
AcDbEntity
  8
0
100
AcDbLine
 62
7
  6
CONTINUOUS
 10
-18.5012783843
 20
14.5454365513
 11
-18.5012783843
 21
13.9438995448
  0
LINE
  5
308
100
AcDbEntity
  8
RACCORDO
100
AcDbLine
 62
253
  6
CONTINUOUS
 10
-18.1539016999
 20
16.1792073192
 11
-18.1539016999
 21
15.4177889831
  0
LINE
  5
309
100
AcDbEntity
  8
RACCORDO
100
AcDbLine
 62
7
  6
CONTINUOUS
 10
-17.2638415172
 20
15.9793024648
 11
-17.2638415172
 21
17.4897759311
  0
LINE
  5
30A
100
AcDbEntity
  8
RACCORDO
100
AcDbLine
 62
253
  6
CONTINUOUS
 10
-16.7355743455
 20
17.7947911204
 11
-16.7355743455
 21
17.4671458198
  0
LINE
  5
30B
100
AcDbEntity
  8
RACCORDO
100
AcDbLine
 62
7
  6
CONTINUOUS
 10
-16.6633764885
 20
17.8962642334
 11
-16.6633764885
 21
17.5686189329
  0
LINE
  5
30C
100
AcDbEntity
  8
0
100
AcDbLine
 62
7
  6
CONTINUOUS
 10
-16.6628007532
 20
12.9253525312
 11
-16.6628007532
 21
12.9939930967
  0
LINE
  5
30D
100
AcDbEntity
  8
0
100
AcDbLine
 62
7
  6
CONTINUOUS
 10
-15.8142726158
 20
12.9510261676
 11
-15.8142726158
 21
12.9939930967
  0
LWPOLYLINE
  5
30E
100
AcDbEntity
  8
RACCORDO
100
AcDbPolyline
 62
7
  6
CONTINUOUS
 90
15
 70
0
 10
-16.6633764886
 20
17.5686140536
 10
-16.6635356224
 20
17.5597003258
 10
-16.6643091986
 20
17.5470438294
 10
-16.6657256646
 20
17.5344272756
 10
-16.6677834563
 20
17.5218849785
 10
-16.6704789507
 20
17.5094514916
 10
-16.6738093338
 20
17.4971516088
 10
-16.6777692071
 20
17.485017444
 10
-16.6823499553
 20
17.4730849548
 10
-16.6875428705
 20
17.4613847172
 10
-16.6933361337
 20
17.4499503092
 10
-16.6997163651
 20
17.4388138804
 10
-16.7066706338
 20
17.4280035367
 10
-16.7141829864
 20
17.4175495822
 10
-16.7178748258
 20
17.4128014118
  0
LWPOLYLINE
  5
30F
100
AcDbEntity
  8
RACCORDO
100
AcDbPolyline
 62
253
  6
CONTINUOUS
 90
16
 70
0
 10
-16.6633764885
 20
17.8962642371
 10
-16.663677759
 20
17.8891798868
 10
-16.6646574776
 20
17.8816704452
 10
-16.6663141666
 20
17.8742007094
 10
-16.6686433181
 20
17.866791019
 10
-16.6716385983
 20
17.8594615341
 10
-16.6752918572
 20
17.852232208
 10
-16.6795931553
 20
17.845122717
 10
-16.6845307879
 20
17.8381524141
 10
-16.6900913132
 20
17.8313402785
 10
-16.6962596023
 20
17.8247048476
 10
-16.7030188636
 20
17.8182641878
 10
-16.7103506774
 20
17.8120358489
 10
-16.7182350756
 20
17.8060367879
 10
-16.7266506013
 20
17.8002833257
 10
-16.7355743455
 20
17.7947911204
  0
LWPOLYLINE
  5
310
100
AcDbEntity
  8
RACCORDO
100
AcDbPolyline
 62
253
  6
CONTINUOUS
 90
16
 70
0
 10
-16.6633764886
 20
17.5686140536
 10
-16.6636794117
 20
17.5615151928
 10
-16.6646606488
 20
17.5540071385
 10
-16.6663186065
 20
17.5465388407
 10
-16.6686487729
 20
17.5391306224
 10
-16.6716448085
 20
17.5318026375
 10
-16.675298565
 20
17.524574818
 10
-16.6796001096
 20
17.5174668196
 10
-16.6845377353
 20
17.5104979935
 10
-16.6900979883
 20
17.5036873251
 10
-16.6962657218
 20
17.4970533576
 10
-16.7030241605
 20
17.4906141252
 10
-16.7103549311
 20
17.4843871303
 10
-16.7182380952
 20
17.4783893103
 10
-16.7266521978
 20
17.4726369898
 10
-16.7355743455
 20
17.4671458198
  0
LINE
  5
311
100
AcDbEntity
  8
CURVE
100
AcDbLine
 62
253
  6
CONTINUOUS
 10
-19.5941862358
 20
-21.6038470018
 11
-19.593466133
 21
-21.5949455003
  0
LINE
  5
312
100
AcDbEntity
  8
CURVE
100
AcDbLine
 62
253
  6
CONTINUOUS
 10
-19.9457093536
 20
-21.3445808346
 11
-19.9464308382
 21
-21.3534787721
  0
LINE
  5
313
100
AcDbEntity
  8
CURVE
100
AcDbLine
 62
253
  6
CONTINUOUS
 10
-19.5952995417
 20
-21.6124371884
 11
-19.5941862358
 21
-21.6038470018
  0
LINE
  5
314
100
AcDbEntity
  8
CURVE
100
AcDbLine
 62
253
  6
CONTINUOUS
 10
-19.9445941142
 20
-21.3359925254
 11
-19.9457093536
 21
-21.3445808346
  0
LWPOLYLINE
  5
315
100
AcDbEntity
  8
RACCORDO
100
AcDbPolyline
 62
7
  6
CONTINUOUS
 90
5
 70
0
 10
-15.0345960737
 20
15.1772274351
 10
-15.036632617
 20
15.1667947731
 10
-15.0381469759
 20
15.155701293
 10
-15.0391033596
 20
15.144033411
 10
-15.0394351064
 20
15.1311290228
  0
LWPOLYLINE
  5
316
100
AcDbEntity
  8
RACCORDO
100
AcDbPolyline
 62
253
  6
CONTINUOUS
 90
41
 70
0
 10
-8.6187318141
 20
15.3280672674
 10
-8.6089918176
 20
15.3393146727
 10
-8.5983027634
 20
15.3504387042
 10
-8.5866646515
 20
15.3614393618
 10
-8.574085749
 20
15.3723481687
 10
-8.5605577887
 20
15.3831336017
 10
-8.5460559696
 20
15.3937010913
 10
-8.5305495104
 20
15.4040611889
 10
-8.5140691924
 20
15.4142033429
 10
-8.4966825591
 20
15.4240013288
 10
-8.4783442901
 20
15.4334582738
 10
-8.4590997058
 20
15.4425710506
 10
-8.4391523109
 20
15.4512040521
 10
-8.4185207157
 20
15.459332373
 10
-8.3971863099
 20
15.4669809186
 10
-8.3752967673
 20
15.4740887971
 10
-8.352857676
 20
15.480647928
 10
-8.3298634479
 20
15.4866663918
 10
-8.3064449926
 20
15.4921075389
 10
-8.2825971117
 20
15.4969681783
 10
-8.2583250035
 20
15.5012515009
 10
-8.2337751731
 20
15.5049304307
 10
-8.208945153
 20
15.5080007709
 10
-8.1838374107
 20
15.5104667183
 10
-8.1586058531
 20
15.512313786
 10
-8.133249181
 20
15.5135375421
 10
-8.1077686938
 20
15.5141424186
 10
-8.0823221967
 20
15.5141272255
 10
-8.0569095255
 20
15.5134873759
 10
-8.0315308445
 20
15.5122274567
 10
-8.0063444518
 20
15.510360038
 10
-7.9813523872
 20
15.5078806796
 10
-7.9565526108
 20
15.5047938217
 10
-7.932097301
 20
15.5011253551
 10
-7.9079873885
 20
15.4968704438
 10
-7.8842219426
 20
15.4920339238
 10
-7.8609503487
 20
15.4866561932
 10
-7.8381818729
 20
15.4807349427
 10
-7.8159072491
 20
15.4742724816
 10
-7.7942480648
 20
15.4673161366
 10
-7.7731976483
 20
15.4598572462
  0
LWPOLYLINE
  5
317
100
AcDbEntity
  8
RACCORDO
100
AcDbPolyline
 62
253
  6
CONTINUOUS
 90
7
 70
0
 10
-8.6733596582
 20
15.2654085211
 10
-8.6641217389
 20
15.2756803474
 10
-8.6549371311
 20
15.286020693
 10
-8.6458058346
 20
15.2964295577
 10
-8.6367278497
 20
15.3069069417
 10
-8.6277031762
 20
15.317452845
 10
-8.6187318141
 20
15.3280672674
  0
LINE
  5
318
100
AcDbEntity
  8
RACCORDO
100
AcDbLine
 62
7
  6
CONTINUOUS
 10
-10.315497958
 20
13.9222734659
 11
-9.1875528274
 21
15.1210615156
  0
LINE
  5
319
100
AcDbEntity
  8
RACCORDO
100
AcDbLine
 62
253
  6
CONTINUOUS
 10
-10.1405751635
 20
13.8212752367
 11
-8.9291023476
 21
15.1088371
  0
LWPOLYLINE
  5
31A
100
AcDbEntity
  8
RACCORDO
100
AcDbPolyline
 62
7
  6
CONTINUOUS
 90
3
 70
0
 10
-9.1864970251
 20
15.1221169618
 10
-9.17860711
 20
15.1297240851
 10
-9.1645288184
 20
15.1401190963
  0
LWPOLYLINE
  5
31B
100
AcDbEntity
  8
RACCORDO
100
AcDbPolyline
 62
7
  6
CONTINUOUS
 90
4
 70
0
 10
-8.9109755518
 20
15.3075112937
 10
-8.9136075606
 20
15.3053912901
 10
-8.9393333455
 20
15.2848709175
 10
-8.9664079207
 20
15.2635521075
  0
LINE
  5
31C
100
AcDbEntity
  8
RACCORDO
100
AcDbLine
 62
7
  6
CONTINUOUS
 10
-8.8584502215
 20
15.3470826859
 11
-8.9108706289
 21
15.3075958179
  0
LINE
  5
31D
100
AcDbEntity
  8
RACCORDO
100
AcDbLine
 62
253
  6
CONTINUOUS
 10
-8.9108706289
 20
15.3075958179
 11
-8.8920984689
 21
15.3203961265
  0
LINE
  5
31E
100
AcDbEntity
  8
RACCORDO
100
AcDbLine
 62
7
  6
CONTINUOUS
 10
6.4508155236
 20
23.6166473671
 11
6.4116482397
 21
23.5905230284
  0
LINE
  5
31F
100
AcDbEntity
  8
ASSI
100
AcDbLine
 62
7
  6
CONTINUOUS
 10
6.4508145502
 20
23.6166467839
 11
6.4116482397
 21
23.5905230284
  0
LINE
  5
320
100
AcDbEntity
  8
RACCORDO
100
AcDbLine
 62
7
  6
CONTINUOUS
 10
-9.1629722573
 20
15.1410818336
 11
-8.96414008
 21
15.2640426346
  0
LINE
  5
321
100
AcDbEntity
  8
RACCORDO
100
AcDbLine
 62
253
  6
CONTINUOUS
 10
-8.926939851
 20
15.1075885016
 11
-8.672520617
 21
15.2649251723
  0
LINE
  5
322
100
AcDbEntity
  8
DRAFT
100
AcDbLine
 62
7
  6
CONTINUOUS
 10
-10.0336769148
 20
14.2217948607
 11
-10.4202301673
 21
13.982744531
  0
LINE
  5
323
100
AcDbEntity
  8
RACCORDO
100
AcDbLine
 62
7
  6
CONTINUOUS
 10
6.4508112182
 20
23.616654566
 11
7.8480902517
 21
24.4518349293
  0
LINE
  5
324
100
AcDbEntity
  8
ASSI
100
AcDbLine
 62
7
  6
CONTINUOUS
 10
6.4508102447
 20
23.6166539829
 11
7.8480902517
 21
24.4518349293
  0
LINE
  5
325
100
AcDbEntity
  8
RACCORDO
100
AcDbLine
 62
253
  6
CONTINUOUS
 10
6.6029576897
 20
23.6030593116
 11
7.9994275186
 21
24.437755946
  0
LINE
  5
326
100
AcDbEntity
  8
ASSI
100
AcDbLine
 62
253
  6
CONTINUOUS
 10
6.6029576897
 20
23.6030593116
 11
7.9994275186
 21
24.437755946
  0
LINE
  5
327
100
AcDbEntity
  8
DRAFT
100
AcDbLine
 62
7
  6
CONTINUOUS
 10
-10.5385510739
 20
14.0510615395
 11
-9.7840609041
 21
14.494297399
  0
LINE
  5
328
100
AcDbEntity
  8
0
100
AcDbLine
 62
7
  6
CONTINUOUS
 10
-7.133288263
 20
16.9701445244
 11
-8.5310727696
 21
16.1630812687
  0
LINE
  5
329
100
AcDbEntity
  8
ASSI
100
AcDbLine
 62
253
  6
CONTINUOUS
 10
6.9545657384
 20
24.4431117581
 11
-5.6957187608
 21
17.1389960335
  0
LINE
  5
32A
100
AcDbEntity
  8
0
100
AcDbLine
 62
7
  6
CONTINUOUS
 10
6.2474589572
 20
22.4425970256
 11
-4.3168871875
 21
16.342875964
  0
LINE
  5
32B
100
AcDbEntity
  8
0
100
AcDbLine
 62
7
  6
CONTINUOUS
 10
-4.1825498825
 20
16.2653112877
 11
6.2474589572
 21
22.287467673
  0
LWPOLYLINE
  5
32C
100
AcDbEntity
  8
RACCORDO
100
AcDbPolyline
 62
7
  6
CONTINUOUS
 90
3
 70
0
 10
-9.1645288184
 20
15.1401190963
 10
-9.1432936417
 20
15.1503926495
 10
-9.0989610736
 20
15.1587766422
  0
LWPOLYLINE
  5
32D
100
AcDbEntity
  8
RACCORDO
100
AcDbPolyline
 62
253
  6
CONTINUOUS
 90
3
 70
0
 10
-8.8920984689
 20
15.3203961265
 10
-8.8584702738
 20
15.3353857017
 10
-8.8189181617
 20
15.3450371811
  0
LWPOLYLINE
  5
32E
100
AcDbEntity
  8
RACCORDO
100
AcDbPolyline
 62
7
  6
CONTINUOUS
 90
4
 70
0
 10
-8.548544652
 20
15.4984138043
 10
-8.6571763283
 20
15.4583502834
 10
-8.7608253679
 20
15.4080023977
 10
-8.8584502215
 20
15.3470826859
  0
LINE
  5
32F
100
AcDbEntity
  8
CURVE
100
AcDbLine
 62
253
  6
CONTINUOUS
 10
-19.6699111232
 20
-21.6984885819
 11
-19.6631000865
 21
-21.6971650586
  0
LINE
  5
330
100
AcDbEntity
  8
CURVE
100
AcDbLine
 62
253
  6
CONTINUOUS
 10
-19.8698264457
 20
-21.2499077591
 11
-19.8766436744
 21
-21.2512255099
  0
LWPOLYLINE
  5
331
100
AcDbEntity
  8
RACCORDO
100
AcDbPolyline
 62
7
  6
CONTINUOUS
 90
27
 70
0
 10
-15.0394351064
 20
15.1311290228
 10
-15.0391591095
 20
15.1193186658
 10
-15.0383679254
 20
15.10638776
 10
-15.037056155
 20
15.0931467064
 10
-15.0352033972
 20
15.0796531321
 10
-15.0328805675
 20
15.0659279536
 10
-15.0300860312
 20
15.0520126533
 10
-15.0268083331
 20
15.0379511572
 10
-15.0231005834
 20
15.0237545743
 10
-15.0189625683
 20
15.0094538847
 10
-15.0143883645
 20
14.9950834777
 10
-15.0094188723
 20
14.9806516103
 10
-15.0040544044
 20
14.9661826871
 10
-14.9982923597
 20
14.9517043083
 10
-14.9921658056
 20
14.9372250023
 10
-14.9856752605
 20
14.9227647711
 10
-14.9788202148
 20
14.9083465662
 10
-14.9716292032
 20
14.89398092
 10
-14.964102905
 20
14.8796847734
 10
-14.9562422656
 20
14.8654778616
 10
-14.9480738261
 20
14.8513737357
 10
-14.9395982979
 20
14.8373867083
 10
-14.9308180267
 20
14.823534589
 10
-14.9217603418
 20
14.80983565
 10
-14.9124355001
 20
14.7963056316
 10
-14.9028379028
 20
14.7829573028
 10
-14.8929709034
 20
14.7698038003
  0
LINE
  5
332
100
AcDbEntity
  8
RACCORDO
100
AcDbLine
 62
7
  6
CONTINUOUS
 10
-15.0394175128
 20
15.1307187179
 11
-15.0394175128
 21
13.9614949534
  0
LINE
  5
333
100
AcDbEntity
  8
RACCORDO
100
AcDbLine
 62
253
  6
CONTINUOUS
 10
-14.8929709034
 20
14.7698038003
 11
-14.8929709034
 21
13.7510529057
  0
LINE
  5
334
100
AcDbEntity
  8
CURVE
100
AcDbLine
 62
253
  6
CONTINUOUS
 10
-19.5968037623
 20
-21.6207045863
 11
-19.5952995417
 21
-21.6124371884
  0
LINE
  5
335
100
AcDbEntity
  8
CURVE
100
AcDbLine
 62
253
  6
CONTINUOUS
 10
-19.9430873861
 20
-21.3277256312
 11
-19.9445941142
 21
-21.3359925254
  0
LINE
  5
336
100
AcDbEntity
  8
CURVE
100
AcDbLine
 62
253
  6
CONTINUOUS
 10
-19.5986962279
 20
-21.6286369643
 11
-19.5968037623
 21
-21.6207045863
  0
LINE
  5
337
100
AcDbEntity
  8
CURVE
100
AcDbLine
 62
253
  6
CONTINUOUS
 10
-19.9411918414
 20
-21.3197926811
 11
-19.9430873861
 21
-21.3277256312
  0
LWPOLYLINE
  5
338
100
AcDbEntity
  8
RACCORDO
100
AcDbPolyline
 62
7
  6
CONTINUOUS
 90
9
 70
0
 10
6.411629333
 20
23.5905104177
 10
6.3731145119
 20
23.5584190974
 10
6.3396680499
 20
23.5233725576
 10
6.3116038884
 20
23.4862010101
 10
6.2887265665
 20
23.4472308661
 10
6.2707045548
 20
23.4062316965
 10
6.257693441
 20
23.36351253
 10
6.2499525459
 20
23.3199727013
 10
6.2474723662
 20
23.277305232
  0
LWPOLYLINE
  5
339
100
AcDbEntity
  8
ASSI
100
AcDbPolyline
 62
7
  6
CONTINUOUS
 90
9
 70
0
 10
6.4116482397
 20
23.5905230284
 10
6.3731391659
 20
23.5584421433
 10
6.3396840575
 20
23.5233914046
 10
6.311612343
 20
23.4862136779
 10
6.2887291847
 20
23.4472359862
 10
6.2707039282
 20
23.4062300072
 10
6.2576918684
 20
23.3635059793
 10
6.2499514245
 20
23.3199630621
 10
6.2474723662
 20
23.2773048084
  0
LINE
  5
33A
100
AcDbEntity
  8
RACCORDO
100
AcDbLine
 62
7
  6
CONTINUOUS
 10
-8.3189407352
 20
10.8146288592
 11
-8.6766198845
 21
10.5889793263
  0
LINE
  5
33B
100
AcDbEntity
  8
ASSI
100
AcDbLine
 62
7
  6
CONTINUOUS
 10
5.8231948885
 20
20.8585152765
 11
6.2793875299
 21
21.1219151901
  0
LINE
  5
33C
100
AcDbEntity
  8
ASSI
100
AcDbLine
 62
7
  6
CONTINUOUS
 10
6.3181218019
 20
20.5727506796
 11
6.7423790372
 21
20.8177114901
  0
LINE
  5
33D
100
AcDbEntity
  8
ASSI
100
AcDbLine
 62
7
  6
CONTINUOUS
 10
-8.3189407352
 20
11.9576872467
 11
-3.0444486661
 21
15.003116307
  0
LINE
  5
33E
100
AcDbEntity
  8
RACCORDO
100
AcDbLine
 62
7
  6
CONTINUOUS
 10
-8.6766198845
 20
11.7511680196
 11
-8.3189407352
 21
11.9576872467
  0
LINE
  5
33F
100
AcDbEntity
  8
DRAFT
100
AcDbLine
 62
7
  6
CONTINUOUS
 10
-8.3189407352
 20
10.8146288592
 11
-2.994106665
 21
13.8711342247
  0
LINE
  5
340
100
AcDbEntity
  8
ASSI
100
AcDbLine
 62
7
  6
CONTINUOUS
 10
-3.6499791007
 20
15.3527419909
 11
-8.2482300571
 21
12.7286588889
  0
LINE
  5
341
100
AcDbEntity
  8
RACCORDO
100
AcDbLine
 62
7
  6
CONTINUOUS
 10
-2.2316518246
 20
15.4012075857
 11
-2.8705126011
 21
15.038774921
  0
LWPOLYLINE
  5
342
100
AcDbEntity
  8
ASSI
100
AcDbPolyline
 62
7
  6
CONTINUOUS
 90
7
 70
0
 10
-3.6499791007
 20
15.3527419909
 10
-3.6417698413
 20
15.3573149062
 10
-3.6335858836
 20
15.3616565885
 10
-3.6254272275
 20
15.3657670377
 10
-3.6172938731
 20
15.3696462538
 10
-3.6091858203
 20
15.3732942369
 10
-3.6011030692
 20
15.3767109869
  0
LWPOLYLINE
  5
343
100
AcDbEntity
  8
RACCORDO
100
AcDbPolyline
 62
7
  6
CONTINUOUS
 90
21
 70
0
 10
-2.2316518246
 20
15.4012075857
 10
-2.2032773038
 20
15.4166428996
 10
-2.1750428518
 20
15.430698633
 10
-2.1469484686
 20
15.4433747859
 10
-2.1189441555
 20
15.4546887945
 10
-2.0910799112
 20
15.4646232226
 10
-2.0635057316
 20
15.4731257619
 10
-2.036236603
 20
15.4801865458
 10
-2.0092575389
 20
15.4858154409
 10
-1.9826735763
 20
15.4899897386
 10
-1.9564686175
 20
15.4927041204
 10
-1.93065876
 20
15.4939639047
 10
-1.9053973337
 20
15.4937623383
 10
-1.8807075804
 20
15.4920937375
 10
-1.8565662583
 20
15.488963786
 10
-1.833056972
 20
15.4843827814
 10
-1.8101611918
 20
15.4783384341
 10
-1.7878974475
 20
15.4708430338
 10
-1.7664049329
 20
15.4619437471
 10
-1.7457081604
 20
15.4516434407
 10
-1.7377989781
 20
15.4472189271
  0
LINE
  5
344
100
AcDbEntity
  8
ASSI
100
AcDbLine
 62
7
  6
CONTINUOUS
 10
-2.9713913816
 20
15.0372425296
 11
-2.994106665
 21
15.0279707587
  0
LWPOLYLINE
  5
345
100
AcDbEntity
  8
ASSI
100
AcDbPolyline
 62
7
  6
CONTINUOUS
 90
18
 70
0
 10
-3.6011030692
 20
15.3767109869
 10
-3.5889591311
 20
15.3812379901
 10
-3.5762304128
 20
15.3850032817
 10
-3.5629230307
 20
15.387987415
 10
-3.5490362985
 20
15.3901849933
 10
-3.5345882869
 20
15.3915613993
 10
-3.5196183861
 20
15.3920549334
 10
-3.5041447519
 20
15.3916403587
 10
-3.4881832334
 20
15.3903068459
 10
-3.4717762399
 20
15.3880179439
 10
-3.4549846741
 20
15.3847647582
 10
-3.4377964127
 20
15.3805265808
 10
-3.4201439924
 20
15.3752446065
 10
-3.4020461877
 20
15.3688999753
 10
-3.3835358065
 20
15.3614681443
 10
-3.3645638426
 20
15.3528693952
 10
-3.3451573586
 20
15.3430753434
 10
-3.327716276
 20
15.3334281119
  0
LINE
  5
346
100
AcDbEntity
  8
CURVE
100
AcDbLine
 62
253
  6
CONTINUOUS
 10
-19.6631000865
 20
-21.6971650586
 11
-19.6565218709
 21
-21.6953365991
  0
LINE
  5
347
100
AcDbEntity
  8
CURVE
100
AcDbLine
 62
253
  6
CONTINUOUS
 10
-19.8766436744
 20
-21.2512255099
 11
-19.8832281081
 21
-21.2530481561
  0
LWPOLYLINE
  5
348
100
AcDbEntity
  8
ASSI
100
AcDbPolyline
 62
253
  6
CONTINUOUS
 90
43
 70
0
 10
-9.7348438609
 20
-30.4396542025
 10
-9.7333530849
 20
-30.4675392695
 10
-9.7309825208
 20
-30.4947886305
 10
-9.7277321683
 20
-30.5214022855
 10
-9.7235958424
 20
-30.5474121878
 10
-9.7185797283
 20
-30.5727863841
 10
-9.7127023816
 20
-30.597429014
 10
-9.7059605805
 20
-30.6213368876
 10
-9.6983575468
 20
-30.6445131948
 10
-9.6899215022
 20
-30.6668716453
 10
-9.6806493995
 20
-30.6884090129
 10
-9.6705442858
 20
-30.7091285238
 10
-9.6596435242
 20
-30.7289535657
 10
-9.6479441678
 20
-30.7478808627
 10
-9.6354491634
 20
-30.7659136907
 10
-9.6222047149
 20
-30.7829852649
 10
-9.6082079954
 20
-30.7990920648
 10
-9.5934618316
 20
-30.8142376108
 10
-9.5780209074
 20
-30.8283656793
 10
-9.5618826766
 20
-30.8414724546
 10
-9.5450496853
 20
-30.8535617523
 10
-9.527584256
 20
-30.8645887956
 10
-9.5094840497
 20
-30.8745496491
 10
-9.4907514052
 20
-30.8834482481
 10
-9.4714556615
 20
-30.8912516217
 10
-9.4515946807
 20
-30.8979557179
 10
-9.4311706006
 20
-30.9035645887
 10
-9.4102591727
 20
-30.908057419
 10
-9.3888586364
 20
-30.9114300519
 10
-9.3669707524
 20
-30.9136866443
 10
-9.3446765537
 20
-30.9148188522
 10
-9.3219745691
 20
-30.9148225282
 10
-9.2988662698
 20
-30.9137018198
 10
-9.2754371027
 20
-30.9114608252
 10
-9.2516856816
 20
-30.9080953246
 10
-9.2276133927
 20
-30.9036095379
 10
-9.203309842
 20
-30.8980202234
 10
-9.1787736033
 20
-30.8913229602
 10
-9.1540061027
 20
-30.8835221692
 10
-9.1291012239
 20
-30.8746478707
 10
-9.1040902614
 20
-30.8647100715
 10
-9.0789419206
 20
-30.8536987648
 10
-9.0536562016
 20
-30.8416139506
  0
LWPOLYLINE
  5
349
100
AcDbEntity
  8
RACCORDO
100
AcDbPolyline
 62
253
  6
CONTINUOUS
 90
43
 70
0
 10
-9.7348438609
 20
-30.4396542025
 10
-9.7333533347
 20
-30.467537078
 10
-9.7309830048
 20
-30.4947847889
 10
-9.7277328712
 20
-30.5213973352
 10
-9.7235967375
 20
-30.5474068452
 10
-9.7185808002
 20
-30.5727811906
 10
-9.7127036476
 20
-30.5974239861
 10
-9.7059620723
 20
-30.6213318684
 10
-9.6983592818
 20
-30.6445082007
 10
-9.6899234878
 20
-30.6668666869
 10
-9.6806516398
 20
-30.6884040955
 10
-9.6705467883
 20
-30.709123658
 10
-9.6596462967
 20
-30.7289487723
 10
-9.6479472185
 20
-30.7478761677
 10
-9.6354525003
 20
-30.765909115
 10
-9.622208345
 20
-30.7829808252
 10
-9.6082119343
 20
-30.7990877711
 10
-9.5934660864
 20
-30.8142334799
 10
-9.5780254588
 20
-30.8283617448
 10
-9.5618875045
 20
-30.8414687582
 10
-9.5450547705
 20
-30.8535583278
 10
-9.5275895546
 20
-30.8645856687
 10
-9.5094895083
 20
-30.8745468514
 10
-9.4907569802
 20
-30.8834458055
 10
-9.4714613138
 20
-30.8912495349
 10
-9.4516003641
 20
-30.8979539844
 10
-9.4311762761
 20
-30.9035632092
 10
-9.4102648289
 20
-30.9080563793
 10
-9.3888642723
 20
-30.9114293336
 10
-9.3669763566
 20
-30.9136862333
 10
-9.3446821115
 20
-30.9148187316
 10
-9.3219800617
 20
-30.9148226785
 10
-9.2988716826
 20
-30.913702224
 10
-9.2754424297
 20
-30.9114614718
 10
-9.2516909198
 20
-30.9080962075
 10
-9.2276185362
 20
-30.9036106455
 10
-9.2033148843
 20
-30.8980215324
 10
-9.1787786974
 20
-30.8913245182
 10
-9.1540112422
 20
-30.8835239529
 10
-9.1291059244
 20
-30.8746496338
 10
-9.1040938793
 20
-30.8647114932
 10
-9.0789439717
 20
-30.8536995988
 10
-9.0536562016
 20
-30.8416139506
  0
LWPOLYLINE
  5
34A
100
AcDbEntity
  8
ASSI
100
AcDbPolyline
 62
253
  6
CONTINUOUS
 90
23
 70
0
 10
-10.4354276879
 20
-30.4527290945
 10
-10.433213162
 20
-30.4944777874
 10
-10.4296754199
 20
-30.5353647957
 10
-10.4248187539
 20
-30.5753395523
 10
-10.4186489762
 20
-30.6143526178
 10
-10.4111736949
 20
-30.6523557737
 10
-10.4024022815
 20
-30.6893020635
 10
-10.3923452709
 20
-30.7251461103
 10
-10.3810150257
 20
-30.7598432923
 10
-10.3684260586
 20
-30.7933498848
 10
-10.3545938363
 20
-30.8256243359
 10
-10.3395352438
 20
-30.8566270825
 10
-10.3232692428
 20
-30.8863197196
 10
-10.3058156424
 20
-30.9146656975
 10
-10.2871958429
 20
-30.9416300186
 10
-10.2674333373
 20
-30.9671790808
 10
-10.24655217
 20
-30.991281502
 10
-10.2245779533
 20
-31.0139075158
 10
-10.201538589
 20
-31.0350286471
 10
-10.1774622571
 20
-31.0546189356
 10
-10.1523783924
 20
-31.07265436
 10
-10.1263186898
 20
-31.0891122189
 10
-10.1226357659
 20
-31.0912652272
  0
LWPOLYLINE
  5
34B
100
AcDbEntity
  8
RACCORDO
100
AcDbPolyline
 62
253
  6
CONTINUOUS
 90
23
 70
0
 10
-10.4354277437
 20
-30.4527275993
 10
-10.4332133209
 20
-30.4944755241
 10
-10.4296757115
 20
-30.535362
 10
-10.4248191881
 20
-30.5753364489
 10
-10.4186495319
 20
-30.6143494833
 10
-10.4111743389
 20
-30.6523528024
 10
-10.4024030089
 20
-30.6892992505
 10
-10.3923460955
 20
-30.7251433912
 10
-10.3810159474
 20
-30.7598406663
 10
-10.3684270774
 20
-30.7933473516
 10
-10.354594953
 20
-30.8256218932
 10
-10.3395364589
 20
-30.8566247308
 10
-10.3232705529
 20
-30.8863174672
 10
-10.3058170406
 20
-30.9146635561
 10
-10.2871973241
 20
-30.9416279945
 10
-10.2674349003
 20
-30.9671771737
 10
-10.2465538155
 20
-30.9912797098
 10
-10.2245796807
 20
-31.0139058386
 10
-10.2015403973
 20
-31.0350270859
 10
-10.1774641462
 20
-31.0546174906
 10
-10.1523803615
 20
-31.0726530325
 10
-10.1263207349
 20
-31.0891110119
 10
-10.1222229531
 20
-31.0915039939
  0
LINE
  5
34C
100
AcDbEntity
  8
0
100
AcDbLine
 62
7
  6
CONTINUOUS
 10
-10.6523931131
 20
10.0135885654
 11
-10.6523931131
 21
9.4120515589
  0
LINE
  5
34D
100
AcDbEntity
  8
ASSI
100
AcDbLine
 62
7
  6
CONTINUOUS
 10
-10.6523931131
 20
9.4120515589
 11
-10.6523931131
 21
10.0135885654
  0
LINE
  5
34E
100
AcDbEntity
  8
0
100
AcDbLine
 62
7
  6
CONTINUOUS
 10
-10.581682435
 20
9.972761106
 11
-10.581682435
 21
9.3712240995
  0
LWPOLYLINE
  5
34F
100
AcDbEntity
  8
RACCORDO
100
AcDbPolyline
 62
253
  6
CONTINUOUS
 90
22
 70
0
 10
-10.4354276839
 20
3.1245400091
 10
-10.4906261611
 20
1.4956245308
 10
-10.5403072259
 20
-0.1304486925
 10
-10.5844701182
 20
-1.7536546893
 10
-10.6231141779
 20
-3.3739688858
 10
-10.6562387921
 20
-4.991366046
 10
-10.6838434076
 20
-6.6058202786
 10
-10.7059275993
 20
-8.217306444
 10
-10.7224910453
 20
-9.8258001612
 10
-10.7335334829
 20
-11.4312767518
 10
-10.7390547411
 20
-13.0337115718
 10
-10.7390547411
 20
-14.633080025
 10
-10.7335334829
 20
-16.2293575758
 10
-10.7224910453
 20
-17.8225197291
 10
-10.7059275993
 20
-19.4125420282
 10
-10.6838434076
 20
-20.999400068
 10
-10.656238791
 20
-22.5830699055
 10
-10.6231141753
 20
-24.1635268254
 10
-10.5844701182
 20
-25.7407453466
 10
-10.5403072358
 20
-27.3147008654
 10
-10.4906261888
 20
-28.8853696482
 10
-10.4354277392
 20
-30.452727602
  0
LWPOLYLINE
  5
350
100
AcDbEntity
  8
ASSI
100
AcDbPolyline
 62
253
  6
CONTINUOUS
 90
22
 70
0
 10
-10.4354277391
 20
3.1245384524
 10
-10.4906261888
 20
1.4956236673
 10
-10.5403072358
 20
-0.1304490375
 10
-10.5844701182
 20
-1.7536546897
 10
-10.6231141753
 20
-3.3739687718
 10
-10.656238791
 20
-4.9913659893
 10
-10.6838434076
 20
-6.605820279
 10
-10.7059275993
 20
-8.2173064445
 10
-10.7224910453
 20
-9.8258001616
 10
-10.7335334829
 20
-11.4312767522
 10
-10.7390547411
 20
-13.0337115722
 10
-10.7390547411
 20
-14.6330800255
 10
-10.7335334829
 20
-16.2293575763
 10
-10.7224910453
 20
-17.8225197296
 10
-10.7059275993
 20
-19.4125420286
 10
-10.6838434076
 20
-20.9994000684
 10
-10.6562387921
 20
-22.5830698499
 10
-10.6231141779
 20
-24.1635267141
 10
-10.5844701182
 20
-25.7407453469
 10
-10.5403072259
 20
-27.3147011993
 10
-10.4906261611
 20
-28.8853704805
 10
-10.435427684
 20
-30.4527290968
  0
LINE
  5
351
100
AcDbEntity
  8
CURVE
100
AcDbLine
 62
253
  6
CONTINUOUS
 10
-19.6009737513
 20
-21.6362214233
 11
-19.5986962279
 21
-21.6286369643
  0
LINE
  5
352
100
AcDbEntity
  8
CURVE
100
AcDbLine
 62
253
  6
CONTINUOUS
 10
-19.9389106946
 20
-21.3122068511
 11
-19.9411918414
 21
-21.3197926811
  0
LINE
  5
353
100
AcDbEntity
  8
CURVE
100
AcDbLine
 62
253
  6
CONTINUOUS
 10
-19.6036324913
 20
-21.6434445119
 11
-19.6009737513
 21
-21.6362214233
  0
LINE
  5
354
100
AcDbEntity
  8
CURVE
100
AcDbLine
 62
253
  6
CONTINUOUS
 10
-19.9362478361
 20
-21.3049818453
 11
-19.9389106946
 21
-21.3122068511
  0
LINE
  5
355
100
AcDbEntity
  8
RACCORDO
100
AcDbLine
 62
7
  6
CONTINUOUS
 10
-5.5455388765
 20
10.8672523923
 11
-7.1287152864
 21
9.9317502676
  0
LINE
  5
356
100
AcDbEntity
  8
RACCORDO
100
AcDbLine
 62
253
  6
CONTINUOUS
 10
-5.419805924
 20
10.8552923351
 11
-7.0025625271
 21
9.9200382751
  0
LINE
  5
357
100
AcDbEntity
  8
RACCORDO
100
AcDbLine
 62
7
  6
CONTINUOUS
 10
-5.5440809882
 20
10.868094208
 11
-5.5455352315
 21
10.8672545461
  0
LINE
  5
358
100
AcDbEntity
  8
ASSI
100
AcDbLine
 62
7
  6
CONTINUOUS
 10
9.3587151278
 20
19.4703737682
 11
8.7930433695
 21
19.1437619845
  0
LINE
  5
359
100
AcDbEntity
  8
RACCORDO
100
AcDbLine
 62
253
  6
CONTINUOUS
 10
20.5402802556
 20
25.7630386635
 11
11.7011351045
 21
20.6594355675
  0
LINE
  5
35A
100
AcDbEntity
  8
ASSI
100
AcDbLine
 62
253
  6
CONTINUOUS
 10
20.5402802556
 20
25.7630386635
 11
11.7011351045
 21
20.6594355675
  0
LINE
  5
35B
100
AcDbEntity
  8
RACCORDO
100
AcDbLine
 62
253
  6
CONTINUOUS
 10
20.7524042127
 20
25.3956291928
 11
11.9132590615
 21
20.2920260968
  0
LINE
  5
35C
100
AcDbEntity
  8
ASSI
100
AcDbLine
 62
253
  6
CONTINUOUS
 10
20.7524042127
 20
25.3956291928
 11
11.9132590615
 21
20.2920260968
  0
LINE
  5
35D
100
AcDbEntity
  8
RACCORDO
100
AcDbLine
 62
253
  6
CONTINUOUS
 10
20.7524042127
 20
24.7424343182
 11
13.3343170834
 21
20.459330942
  0
LINE
  5
35E
100
AcDbEntity
  8
ASSI
100
AcDbLine
 62
253
  6
CONTINUOUS
 10
20.7524042127
 20
24.7424343182
 11
13.3343170834
 21
20.459330942
  0
LINE
  5
35F
100
AcDbEntity
  8
RACCORDO
100
AcDbLine
 62
253
  6
CONTINUOUS
 10
-3.5480298847
 20
10.3845823424
 11
-5.6775778473
 21
9.1550087269
  0
LINE
  5
360
100
AcDbEntity
  8
RACCORDO
100
AcDbLine
 62
253
  6
CONTINUOUS
 10
20.9645281697
 20
24.3750248475
 11
13.5464410404
 21
20.0919214713
  0
LINE
  5
361
100
AcDbEntity
  8
ASSI
100
AcDbLine
 62
253
  6
CONTINUOUS
 10
20.9645281697
 20
24.3750248475
 11
13.5464410404
 21
20.0919214713
  0
LINE
  5
362
100
AcDbEntity
  8
RACCORDO
100
AcDbLine
 62
7
  6
CONTINUOUS
 10
11.9132590615
 20
19.5531565666
 11
13.3343170834
 21
20.3594607439
  0
LINE
  5
363
100
AcDbEntity
  8
ASSI
100
AcDbLine
 62
7
  6
CONTINUOUS
 10
11.9132590615
 20
19.5531565666
 11
13.3343170834
 21
20.3594607439
  0
LINE
  5
364
100
AcDbEntity
  8
RACCORDO
100
AcDbLine
 62
7
  6
CONTINUOUS
 10
-5.0092026729
 20
11.1697812308
 11
-5.5440772716
 21
10.8680963046
  0
LINE
  5
365
100
AcDbEntity
  8
RACCORDO
100
AcDbLine
 62
253
  6
CONTINUOUS
 10
-4.8853560453
 20
11.1567377068
 11
-5.419805924
 21
10.8552923351
  0
LINE
  5
366
100
AcDbEntity
  8
RACCORDO
100
AcDbLine
 62
7
  6
CONTINUOUS
 10
0.8353141194
 20
13.6303798878
 11
-4.1817213079
 21
10.8338458817
  0
LWPOLYLINE
  5
367
100
AcDbEntity
  8
RACCORDO
100
AcDbPolyline
 62
253
  6
CONTINUOUS
 90
10
 70
0
 10
11.7011351045
 20
20.6594355675
 10
11.6881846192
 20
20.6525912561
 10
11.6744786806
 20
20.6464862532
 10
11.6600172887
 20
20.6411205587
 10
11.6446682644
 20
20.6364617521
 10
11.6285637868
 20
20.6325422539
 10
11.612100393
 20
20.6294593259
 10
11.595410262
 20
20.6272453886
 10
11.5783612149
 20
20.6258680214
 10
11.5609532516
 20
20.6253272244
  0
LWPOLYLINE
  5
368
100
AcDbEntity
  8
ASSI
100
AcDbPolyline
 62
253
  6
CONTINUOUS
 90
10
 70
0
 10
11.7011351045
 20
20.6594355675
 10
11.6881846192
 20
20.6525912561
 10
11.6744786806
 20
20.6464862532
 10
11.6600172887
 20
20.6411205587
 10
11.6446682644
 20
20.6364617521
 10
11.6285637868
 20
20.6325422539
 10
11.612100393
 20
20.6294593259
 10
11.595410262
 20
20.6272453886
 10
11.5783612149
 20
20.6258680214
 10
11.5609532516
 20
20.6253272244
  0
LWPOLYLINE
  5
369
100
AcDbEntity
  8
RACCORDO
100
AcDbPolyline
 62
7
  6
CONTINUOUS
 90
19
 70
0
 10
-5.0092026729
 20
11.1697812308
 10
-4.9967688985
 20
11.1763404582
 10
-4.983896788
 20
11.1822282831
 10
-4.9706302763
 20
11.1874074519
 10
-4.9570106714
 20
11.1918462589
 10
-4.9430954272
 20
11.1955125736
 10
-4.9289571436
 20
11.198378254
 10
-4.9146629537
 20
11.2004252913
 10
-4.9002584794
 20
11.2016445114
 10
-4.8857831095
 20
11.2020290607
 10
-4.8713051327
 20
11.2015745957
 10
-4.8568689293
 20
11.2002813334
 10
-4.8424739885
 20
11.1981433113
 10
-4.8281367445
 20
11.1951495087
 10
-4.8139526094
 20
11.1913070779
 10
-4.8000280638
 20
11.1866413109
 10
-4.7864009777
 20
11.1811657657
 10
-4.7731188803
 20
11.1748994833
 10
-4.7613799531
 20
11.1685335186
  0
LWPOLYLINE
  5
36A
100
AcDbEntity
  8
RACCORDO
100
AcDbPolyline
 62
253
  6
CONTINUOUS
 90
10
 70
0
 10
11.9132590615
 20
20.2920260968
 10
11.8812174466
 20
20.2752277662
 10
11.8468060361
 20
20.2600888156
 10
11.8102809396
 20
20.2467210125
 10
11.7719139914
 20
20.2352221194
 10
11.7319907452
 20
20.2256776918
 10
11.6908083499
 20
20.2181604446
 10
11.6486733146
 20
20.2127263556
 10
11.6058992254
 20
20.2094142579
 10
11.5628044294
 20
20.2082480747
  0
LWPOLYLINE
  5
36B
100
AcDbEntity
  8
ASSI
100
AcDbPolyline
 62
253
  6
CONTINUOUS
 90
10
 70
0
 10
11.9132590615
 20
20.2920260968
 10
11.8812174466
 20
20.2752277662
 10
11.8468060361
 20
20.2600888156
 10
11.8102809396
 20
20.2467210125
 10
11.7719139914
 20
20.2352221194
 10
11.7319907452
 20
20.2256776918
 10
11.6908083499
 20
20.2181604446
 10
11.6486733146
 20
20.2127263556
 10
11.6058992254
 20
20.2094142579
 10
11.5628044294
 20
20.2082480747
  0
LWPOLYLINE
  5
36C
100
AcDbEntity
  8
RACCORDO
100
AcDbPolyline
 62
7
  6
CONTINUOUS
 90
10
 70
0
 10
11.9132590615
 20
19.5531565666
 10
11.8809369287
 20
19.5363702008
 10
11.8466974892
 20
19.5214184537
 10
11.810540743
 20
19.5083013253
 10
11.772116038
 20
19.4969355484
 10
11.7317740263
 20
19.4874043901
 10
11.690566664
 20
19.4799576528
 10
11.6488446031
 20
19.4746786037
 10
11.6062571915
 20
19.4714839755
 10
11.5628044294
 20
19.4703737682
  0
LWPOLYLINE
  5
36D
100
AcDbEntity
  8
ASSI
100
AcDbPolyline
 62
7
  6
CONTINUOUS
 90
10
 70
0
 10
11.9132590615
 20
19.5531565666
 10
11.8809369287
 20
19.5363702008
 10
11.8466974892
 20
19.5214184537
 10
11.810540743
 20
19.5083013253
 10
11.772116038
 20
19.4969355484
 10
11.7317740263
 20
19.4874043901
 10
11.690566664
 20
19.4799576528
 10
11.6488446031
 20
19.4746786037
 10
11.6062571915
 20
19.4714839755
 10
11.5628044294
 20
19.4703737682
  0
LINE
  5
36E
100
AcDbEntity
  8
0
100
AcDbLine
 62
253
  6
CONTINUOUS
 10
7.8384492149
 20
-17.1743331469
 11
7.4141851462
 21
-16.9293683909
  0
LWPOLYLINE
  5
36F
100
AcDbEntity
  8
RACCORDO
100
AcDbPolyline
 62
253
  6
CONTINUOUS
 90
31
 70
0
 10
-9.0536562016
 20
4.2656452589
 10
-9.0551160829
 20
4.2867043359
 10
-9.0575228655
 20
4.308274303
 10
-9.0608699602
 20
4.3302961074
 10
-9.0651482035
 20
4.352709459
 10
-9.0703458828
 20
4.3754529959
 10
-9.0764487683
 20
4.398464452
 10
-9.083440152
 20
4.4216808282
 10
-9.0913008933
 20
4.4450385638
 10
-9.1000094715
 20
4.4684737113
 10
-9.109542045
 20
4.4919221115
 10
-9.119872516
 20
4.5153195685
 10
-9.1309726023
 20
4.5386020261
 10
-9.142811915
 20
4.5617057429
 10
-9.155358041
 20
4.5845674668
 10
-9.1685766323
 20
4.6071246081
 10
-9.1824314998
 20
4.6293154112
 10
-9.1968847125
 20
4.6510791232
 10
-9.2118967011
 20
4.6723561606
 10
-9.2274263667
 20
4.6930882722
 10
-9.2434311931
 20
4.7132186987
 10
-9.259867363
 20
4.732692328
 10
-9.2766898785
 20
4.7514558463
 10
-9.2938526838
 20
4.7694578837
 10
-9.3113087914
 20
4.7866491552
 10
-9.329010411
 20
4.8029825953
 10
-9.34690908
 20
4.8184134872
 10
-9.3649557963
 20
4.8328995849
 10
-9.3831011526
 20
4.8464012291
 10
-9.4012954715
 20
4.8588814558
 10
-9.4194889416
 20
4.8703060972
  0
LWPOLYLINE
  5
370
100
AcDbEntity
  8
ASSI
100
AcDbPolyline
 62
253
  6
CONTINUOUS
 90
31
 70
0
 10
-9.0536562016
 20
4.2656452589
 10
-9.0551160832
 20
4.2867043392
 10
-9.0575228664
 20
4.3082743096
 10
-9.0608699618
 20
4.3302961172
 10
-9.0651482061
 20
4.3527094717
 10
-9.0703458866
 20
4.3754530114
 10
-9.0764487734
 20
4.3984644701
 10
-9.0834401585
 20
4.4216808486
 10
-9.0913009012
 20
4.4450385861
 10
-9.1000094808
 20
4.4684737353
 10
-9.1095420557
 20
4.4919221368
 10
-9.119872528
 20
4.5153195947
 10
-9.1309726156
 20
4.5386020529
 10
-9.1428119293
 20
4.5617057699
 10
-9.1553580562
 20
4.5845674936
 10
-9.1685766482
 20
4.6071246344
 10
-9.1824315161
 20
4.6293154366
 10
-9.196884729
 20
4.6510791475
 10
-9.2118967177
 20
4.6723561834
 10
-9.227426383
 20
4.6930882934
 10
-9.2434312089
 20
4.713218718
 10
-9.259867378
 20
4.7326923454
 10
-9.2766898925
 20
4.7514558616
 10
-9.2938526966
 20
4.7694578968
 10
-9.3113088028
 20
4.7866491661
 10
-9.3290104208
 20
4.802982604
 10
-9.346909088
 20
4.8184134938
 10
-9.3649558025
 20
4.8328995896
 10
-9.3831011568
 20
4.8464012321
 10
-9.4012954736
 20
4.8588814572
 10
-9.4194889416
 20
4.8703060972
  0
LINE
  5
371
100
AcDbEntity
  8
DRAFT
100
AcDbLine
 62
253
  6
CONTINUOUS
 10
-9.5917329413
 20
14.6914960364
 11
-9.5917329413
 21
15.958943972
  0
LINE
  5
372
100
AcDbEntity
  8
RACCORDO
100
AcDbLine
 62
253
  6
CONTINUOUS
 10
-9.3816638038
 20
10.5688932592
 11
-9.3816638038
 21
11.5876441538
  0
LINE
  5
373
100
AcDbEntity
  8
DRAFT
100
AcDbLine
 62
7
  6
CONTINUOUS
 10
-8.8846261601
 20
16.3672185653
 11
-8.8846261601
 21
16.8881586392
  0
LINE
  5
374
100
AcDbEntity
  8
0
100
AcDbLine
 62
7
  6
CONTINUOUS
 10
-8.7432048039
 20
8.3526770859
 11
-8.7432048039
 21
8.4213176514
  0
LINE
  5
375
100
AcDbEntity
  8
RACCORDO
100
AcDbLine
 62
253
  6
CONTINUOUS
 10
-8.6766198845
 20
10.5889793263
 11
-8.6766198845
 21
11.7511680196
  0
LINE
  5
376
100
AcDbEntity
  8
ASSI
100
AcDbLine
 62
253
  6
CONTINUOUS
 10
-8.5508505375
 20
18.2346331402
 11
-8.5508505375
 21
17.0775131789
  0
LINE
  5
377
100
AcDbEntity
  8
DRAFT
100
AcDbLine
 62
7
  6
CONTINUOUS
 10
-8.5310727696
 20
16.1630812687
 11
-8.5310727696
 21
16.6840213425
  0
LINE
  5
378
100
AcDbEntity
  8
ASSI
100
AcDbLine
 62
7
  6
CONTINUOUS
 10
-8.4255010303
 20
18.275496876
 11
-8.4255010303
 21
17.2500909536
  0
LINE
  5
379
100
AcDbEntity
  8
DRAFT
100
AcDbLine
 62
7
  6
CONTINUOUS
 10
-8.3189407352
 20
11.9576872467
 11
-8.3189407352
 21
10.8146288592
  0
LINE
  5
37A
100
AcDbEntity
  8
DRAFT
100
AcDbLine
 62
253
  6
CONTINUOUS
 10
-8.177519379
 20
15.5585713584
 11
-8.177519379
 21
15.958943972
  0
LINE
  5
37B
100
AcDbEntity
  8
0
100
AcDbLine
 62
7
  6
CONTINUOUS
 10
-7.8946766665
 20
8.3783507224
 11
-7.8946766665
 21
8.4213176514
  0
LWPOLYLINE
  5
37C
100
AcDbEntity
  8
RACCORDO
100
AcDbPolyline
 62
253
  6
CONTINUOUS
 90
22
 70
0
 10
-9.7348438609
 20
3.1040569185
 10
-9.7899893652
 20
1.4767251229
 10
-9.8396214619
 20
-0.1477164356
 10
-9.8837401512
 20
-1.7692677569
 10
-9.9223459409
 20
-3.3879536479
 10
-9.9554383232
 20
-5.0037493018
 10
-9.9830157738
 20
-6.6165802983
 10
-10.0050780387
 20
-8.2264464926
 10
-10.021625372
 20
-9.8333480295
 10
-10.0326570121
 20
-11.4372109239
 10
-10.0381727051
 20
-13.0380350333
 10
-10.0381727049
 20
-14.6358205001
 10
-10.0326570115
 20
-16.2304937665
 10
-10.021625371
 20
-17.8220546918
 10
-10.0050780372
 20
-19.4105034168
 10
-9.9830157719
 20
-20.9957668055
 10
-9.9554383207
 20
-22.5778447238
 10
-9.922345938
 20
-24.1567373059
 10
-9.8837401482
 20
-25.7323718182
 10
-9.8396214595
 20
-27.3047240161
 10
-9.7899893637
 20
-28.8738181442
 10
-9.7348438609
 20
-30.4396542025
  0
LWPOLYLINE
  5
37D
100
AcDbEntity
  8
ASSI
100
AcDbPolyline
 62
253
  6
CONTINUOUS
 90
22
 70
0
 10
-9.7348438609
 20
3.1040569185
 10
-9.7899893637
 20
1.4767251768
 10
-9.8396214595
 20
-0.1477163412
 10
-9.8837401482
 20
-1.7692676357
 10
-9.922345938
 20
-3.3879535176
 10
-9.9554383207
 20
-5.003749176
 10
-9.9830157719
 20
-6.616580177
 10
-10.0050780372
 20
-8.2264463713
 10
-10.021625371
 20
-9.8333479082
 10
-10.0326570115
 20
-11.4372108027
 10
-10.0381727049
 20
-13.0380349122
 10
-10.0381727051
 20
-14.6358203793
 10
-10.0326570121
 20
-16.230493646
 10
-10.021625372
 20
-17.8220545717
 10
-10.0050780387
 20
-19.4105032971
 10
-9.9830157738
 20
-20.9957666863
 10
-9.9554383232
 20
-22.5778446008
 10
-9.9223459409
 20
-24.156737179
 10
-9.8837401512
 20
-25.7323717003
 10
-9.8396214619
 20
-27.3047239246
 10
-9.7899893652
 20
-28.8738180919
 10
-9.7348438609
 20
-30.4396542025
  0
LWPOLYLINE
  5
37E
100
AcDbEntity
  8
RACCORDO
100
AcDbPolyline
 62
253
  6
CONTINUOUS
 90
25
 70
0
 10
-5.5008041436
 20
8.5283075182
 10
-5.5056881608
 20
8.5165628892
 10
-5.5110387642
 20
8.5051306772
 10
-5.5168413425
 20
8.4940421014
 10
-5.5230800502
 20
8.4833274422
 10
-5.5297378505
 20
8.4730159591
 10
-5.5367965625
 20
8.4631358106
 10
-5.5442369102
 20
8.4537139774
 10
-5.5520385757
 20
8.4447761885
 10
-5.5601802541
 20
8.4363468511
 10
-5.5686397124
 20
8.428448984
 10
-5.5773938495
 20
8.4211041546
 10
-5.5864187596
 20
8.4143324202
 10
-5.5956897977
 20
8.4081522728
 10
-5.6051816464
 20
8.4025805892
 10
-5.6148683855
 20
8.3976325844
 10
-5.6247235626
 20
8.3933217705
 10
-5.6347202653
 20
8.3896599194
 10
-5.6448311945
 20
8.3866570309
 10
-5.6550287396
 20
8.3843213051
 10
-5.6652850531
 20
8.3826591204
 10
-5.6755721272
 20
8.381675016
 10
-5.6858618701
 20
8.3813716792
 10
-5.6961261826
 20
8.3817499384
 10
-5.6994727184
 20
8.3820214218
  0
LINE
  5
37F
100
AcDbEntity
  8
CURVE
100
AcDbLine
 62
253
  6
CONTINUOUS
 10
-19.6066678219
 20
-21.6502923678
 11
-19.6036324913
 21
-21.6434445119
  0
LINE
  5
380
100
AcDbEntity
  8
CURVE
100
AcDbLine
 62
253
  6
CONTINUOUS
 10
-19.9332079614
 20
-21.2981317497
 11
-19.9362478361
 21
-21.3049818453
  0
LINE
  5
381
100
AcDbEntity
  8
RACCORDO
100
AcDbLine
 62
253
  6
CONTINUOUS
 10
-3.8995233528
 20
9.0879437395
 11
-3.371256181
 21
9.750756006
  0
LINE
  5
382
100
AcDbEntity
  8
RACCORDO
100
AcDbLine
 62
7
  6
CONTINUOUS
 10
-3.8995233528
 20
9.0113918967
 11
-3.3535561805
 21
9.6964122012
  0
LWPOLYLINE
  5
383
100
AcDbEntity
  8
RACCORDO
100
AcDbPolyline
 62
7
  6
CONTINUOUS
 90
28
 70
0
 10
-4.7895835355
 20
8.4628175053
 10
-4.7974626585
 20
8.4534152428
 10
-4.8056829076
 20
8.44417693
 10
-4.8142407688
 20
8.4351240391
 10
-4.8231391993
 20
8.426279571
 10
-4.8323656343
 20
8.417663698
 10
-4.8418922086
 20
8.409293932
 10
-4.8517123969
 20
8.401192323
 10
-4.8618182952
 20
8.3933803452
 10
-4.8721790781
 20
8.3858750334
 10
-4.8827855994
 20
8.378698335
 10
-4.8936275108
 20
8.3718715042
 10
-4.9046712879
 20
8.3654109481
 10
-4.9159051363
 20
8.3593381232
 10
-4.9273160871
 20
8.3536737706
 10
-4.9388679076
 20
8.3484336595
 10
-4.9505460395
 20
8.343638359
 10
-4.962334771
 20
8.33930768
 10
-4.974195085
 20
8.3354566451
 10
-4.9861095326
 20
8.3321044451
 10
-4.998059546
 20
8.3292694332
 10
-5.0100032235
 20
8.3269655986
 10
-5.0219200732
 20
8.3252101351
 10
-5.0337886404
 20
8.3240192389
 10
-5.045564219
 20
8.3234052729
 10
-5.0572230395
 20
8.3233826452
 10
-5.0687409766
 20
8.3239644948
 10
-5.0716500376
 20
8.3242107972
  0
LWPOLYLINE
  5
384
100
AcDbEntity
  8
ASSI
100
AcDbPolyline
 62
253
  6
CONTINUOUS
 90
43
 70
0
 10
-9.4194805348
 20
4.8703113429
 10
-9.4571290813
 20
4.8460644409
 10
-9.4946607621
 20
4.8203729439
 10
-9.5320296777
 20
4.7932689163
 10
-9.5691905909
 20
4.7647865153
 10
-9.6060975888
 20
4.734960915
 10
-9.6427041351
 20
4.7038282423
 10
-9.6789657129
 20
4.6714270185
 10
-9.7148376961
 20
4.6377978229
 10
-9.750274032
 20
4.6029822661
 10
-9.7852310962
 20
4.5670240104
 10
-9.8196664505
 20
4.5299675997
 10
-9.8535367151
 20
4.4918581245
 10
-9.8868004833
 20
4.4527429577
 10
-9.9194170648
 20
4.4126708246
 10
-9.9513452535
 20
4.3716906774
 10
-9.982546047
 20
4.3298533523
 10
-10.0129812377
 20
4.287210983
 10
-10.0426121526
 20
4.243816055
 10
-10.0714024655
 20
4.1997225888
 10
-10.0993170837
 20
4.1549853026
 10
-10.1263207348
 20
4.1096590209
 10
-10.1523803614
 20
4.0638000254
 10
-10.1774641461
 20
4.0174652873
 10
-10.2015403971
 20
3.9707116345
 10
-10.2245796806
 20
3.9235969758
 10
-10.2465538154
 20
3.8761799158
 10
-10.2674349002
 20
3.8285189835
 10
-10.2871973239
 20
3.7806734067
 10
-10.3058170405
 20
3.7327024484
 10
-10.3232705528
 20
3.6846650195
 10
-10.3395364588
 20
3.63662072
 10
-10.3545949529
 20
3.5886290846
 10
-10.3684270773
 20
3.5407489238
 10
-10.3810159474
 20
3.4930391762
 10
-10.3923460954
 20
3.4455593768
 10
-10.4024030088
 20
3.3983688882
 10
-10.4111743388
 20
3.3515263984
 10
-10.4186495318
 20
3.3050896611
 10
-10.424819188
 20
3.2591159572
 10
-10.4296757115
 20
3.2136621163
 10
-10.4332133208
 20
3.168784445
 10
-10.4354277437
 20
3.1245384551
  0
LWPOLYLINE
  5
385
100
AcDbEntity
  8
RACCORDO
100
AcDbPolyline
 62
253
  6
CONTINUOUS
 90
43
 70
0
 10
-9.4194792057
 20
4.8703121722
 10
-9.4571270243
 20
4.8460658039
 10
-9.4946581699
 20
4.820374765
 10
-9.5320267434
 20
4.7932710971
 10
-9.5691875683
 20
4.7647888872
 10
-9.6060946656
 20
4.7349633329
 10
-9.6427013097
 20
4.7038307004
 10
-9.6789629223
 20
4.6714295669
 10
-9.7148349398
 20
4.6378004609
 10
-9.7502713104
 20
4.6029849935
 10
-9.7852284071
 20
4.5670268306
 10
-9.8196637946
 20
4.5299705129
 10
-9.8535341014
 20
4.4918611216
 10
-9.8867979254
 20
4.4527460223
 10
-9.9194145706
 20
4.4126739459
 10
-9.9513428233
 20
4.3716938542
 10
-9.9825436784
 20
4.329856587
 10
-10.0129789311
 20
4.2872142746
 10
-10.0426099093
 20
4.2438194019
 10
-10.0714002858
 20
4.1997259906
 10
-10.099314969
 20
4.1549887577
 10
-10.1263186896
 20
4.1096625223
 10
-10.1523783923
 20
4.0638035623
 10
-10.177462257
 20
4.0174688522
 10
-10.2015385888
 20
3.9707152253
 10
-10.2245779531
 20
3.9236005921
 10
-10.2465521698
 20
3.8761835557
 10
-10.2674333372
 20
3.828522646
 10
-10.2871958428
 20
3.780677095
 10
-10.3058156423
 20
3.7327061615
 10
-10.3232692427
 20
3.6846687451
 10
-10.3395352437
 20
3.636624438
 10
-10.3545938362
 20
3.5886327829
 10
-10.3684260585
 20
3.5407526026
 10
-10.3810150256
 20
3.4930428399
 10
-10.3923452709
 20
3.4455630258
 10
-10.4024022814
 20
3.3983725226
 10
-10.4111736948
 20
3.3515300967
 10
-10.4186489761
 20
3.3050934217
 10
-10.4248187539
 20
3.2591195483
 10
-10.4296754199
 20
3.2136652378
 10
-10.4332131619
 20
3.1687868844
 10
-10.4354276879
 20
3.1245400114
  0
LWPOLYLINE
  5
386
100
AcDbEntity
  8
ASSI
100
AcDbPolyline
 62
253
  6
CONTINUOUS
 90
43
 70
0
 10
-9.0536562016
 20
4.2656452589
 10
-9.0789439716
 20
4.2495311696
 10
-9.1040938792
 20
4.2324970643
 10
-9.1291059242
 20
4.214542943
 10
-9.1540112419
 20
4.1956440175
 10
-9.1787786972
 20
4.175825076
 10
-9.2033148841
 20
4.1551604831
 10
-9.227618536
 20
4.1336473012
 10
-9.2516909196
 20
4.1112884679
 10
-9.2754424295
 20
4.0881671602
 10
-9.2988716824
 20
4.0642807063
 10
-9.3219800616
 20
4.039631778
 10
-9.3446821114
 20
4.0143115678
 10
-9.3669763565
 20
3.9883175709
 10
-9.3888642722
 20
3.9616522922
 10
-9.4102648287
 20
3.9344144389
 10
-9.4311762759
 20
3.9066018017
 10
-9.4516003639
 20
3.87821659
 10
-9.4714613137
 20
3.849364139
 10
-9.4907569801
 20
3.8200427857
 10
-9.5094895082
 20
3.7902541931
 10
-9.5275895545
 20
3.760108686
 10
-9.5450547704
 20
3.7296049539
 10
-9.5618875044
 20
3.6987443073
 10
-9.5780254586
 20
3.6676410026
 10
-9.5934660863
 20
3.6362940726
 10
-9.6082119342
 20
3.6047044845
 10
-9.6222083449
 20
3.5729893966
 10
-9.6354525003
 20
3.5411484242
 10
-9.6479472185
 20
3.509181952
 10
-9.6596462966
 20
3.4772082923
 10
-9.6705467882
 20
3.4452274599
 10
-9.6806516397
 20
3.4132394401
 10
-9.6899234878
 20
3.3813625005
 10
-9.6983592818
 20
3.3495968118
 10
-9.7059620723
 20
3.3179422034
 10
-9.7127036476
 20
3.2865164318
 10
-9.7185808001
 20
3.255319711
 10
-9.7235967375
 20
3.224351827
 10
-9.7277328712
 20
3.1937298943
 10
-9.7309830048
 20
3.1634929511
 10
-9.7333533347
 20
3.1336019591
 10
-9.7348438609
 20
3.1040569185
  0
LWPOLYLINE
  5
387
100
AcDbEntity
  8
RACCORDO
100
AcDbPolyline
 62
253
  6
CONTINUOUS
 90
43
 70
0
 10
-9.0536562016
 20
4.2656452589
 10
-9.0789419205
 20
4.2495326228
 10
-9.1040902613
 20
4.2324996771
 10
-9.1291012238
 20
4.2145464216
 10
-9.1540061026
 20
4.195647965
 10
-9.1787736032
 20
4.1758291987
 10
-9.2033098418
 20
4.155164797
 10
-9.2276133926
 20
4.1336519294
 10
-9.2516856815
 20
4.1112934264
 10
-9.2754371026
 20
4.0881724539
 10
-9.2988662696
 20
4.0642863381
 10
-9.3219745689
 20
4.0396377528
 10
-9.3446765535
 20
4.0143178862
 10
-9.3669707522
 20
3.9883242315
 10
-9.3888586363
 20
3.9616592953
 10
-9.4102591725
 20
3.9344217862
 10
-9.4311706004
 20
3.9066095103
 10
-9.4515946806
 20
3.8782246614
 10
-9.4714556613
 20
3.8493725291
 10
-9.4907514051
 20
3.8200514452
 10
-9.5094840495
 20
3.790263078
 10
-9.5275842558
 20
3.7601177217
 10
-9.5450496852
 20
3.7296140491
 10
-9.5618826765
 20
3.6987533875
 10
-9.5780209073
 20
3.6676500126
 10
-9.5934618315
 20
3.6363029482
 10
-9.6082079952
 20
3.6047131707
 10
-9.6222047148
 20
3.5729978843
 10
-9.6354491633
 20
3.5411567211
 10
-9.6479441677
 20
3.5091900491
 10
-9.6596435241
 20
3.4772161775
 10
-9.6705442857
 20
3.4452351165
 10
-9.6806493994
 20
3.4132468558
 10
-9.6899215022
 20
3.3813696732
 10
-9.6983575468
 20
3.3496037407
 10
-9.7059605804
 20
3.3179488862
 10
-9.7127023816
 20
3.2865228716
 10
-9.7185797282
 20
3.2553260998
 10
-9.7235958424
 20
3.2243581678
 10
-9.7277321683
 20
3.1937356285
 10
-9.7309825207
 20
3.1634973326
 10
-9.7333530849
 20
3.1336044293
 10
-9.7348438609
 20
3.1040569185
  0
LINE
  5
388
100
AcDbEntity
  8
RACCORDO
100
AcDbLine
 62
7
  6
CONTINUOUS
 10
-3.8995233528
 20
8.2629126509
 11
-4.7895835355
 21
7.7013991692
  0
LINE
  5
389
100
AcDbEntity
  8
RACCORDO
100
AcDbLine
 62
7
  6
CONTINUOUS
 10
1.7168495779
 20
12.9200248755
 11
-3.3016756756
 21
9.8164935793
  0
LINE
  5
38A
100
AcDbEntity
  8
RACCORDO
100
AcDbLine
 62
253
  6
CONTINUOUS
 10
-5.709447588
 20
7.1595937688
 11
-9.4194791492
 21
4.8703121396
  0
LINE
  5
38B
100
AcDbEntity
  8
ASSI
100
AcDbLine
 62
253
  6
CONTINUOUS
 10
-5.709447588
 20
7.1595937688
 11
-9.419480486
 21
4.8703113147
  0
LINE
  5
38C
100
AcDbEntity
  8
RACCORDO
100
AcDbLine
 62
253
  6
CONTINUOUS
 10
-3.8833340816
 20
8.2535651686
 11
-5.6819575215
 21
7.143721349
  0
LINE
  5
38D
100
AcDbEntity
  8
RACCORDO
100
AcDbLine
 62
253
  6
CONTINUOUS
 10
-3.5568654402
 20
7.6910465296
 11
-5.3569359969
 21
6.580309764
  0
LINE
  5
38E
100
AcDbEntity
  8
RACCORDO
100
AcDbLine
 62
253
  6
CONTINUOUS
 10
-5.356163322
 20
6.547189872
 11
-9.0536562016
 21
4.2656452589
  0
LINE
  5
38F
100
AcDbEntity
  8
ASSI
100
AcDbLine
 62
253
  6
CONTINUOUS
 10
-5.356163322
 20
6.547189872
 11
-9.0536562016
 21
4.2656452589
  0
LINE
  5
390
100
AcDbEntity
  8
RACCORDO
100
AcDbLine
 62
7
  6
CONTINUOUS
 10
1.7168495779
 20
12.4511528011
 11
-3.8622171342
 21
9.0581996875
  0
LINE
  5
391
100
AcDbEntity
  8
DRAFT
100
AcDbLine
 62
7
  6
CONTINUOUS
 10
-3.4377251767
 20
8.8057001302
 11
0.326997897
 21
11.0894368162
  0
LINE
  5
392
100
AcDbEntity
  8
RACCORDO
100
AcDbLine
 62
7
  6
CONTINUOUS
 10
1.3289246282
 20
11.9058402369
 11
0.8338810775
 21
11.6133180072
  0
LINE
  5
393
100
AcDbEntity
  8
RACCORDO
100
AcDbLine
 62
253
  6
CONTINUOUS
 10
-3.371256181
 20
10.0784013065
 11
-5.5008041436
 21
8.848827691
  0
LINE
  5
394
100
AcDbEntity
  8
0
100
AcDbLine
 62
7
  6
CONTINUOUS
 10
0.3077619953
 20
11.1005433848
 11
1.0148687765
 21
11.5088179781
  0
LINE
  5
395
100
AcDbEntity
  8
RACCORDO
100
AcDbLine
 62
253
  6
CONTINUOUS
 10
-3.1642313937
 20
8.6477882476
 11
-3.8836807696
 21
8.2537653419
  0
LINE
  5
396
100
AcDbEntity
  8
RACCORDO
100
AcDbLine
 62
253
  6
CONTINUOUS
 10
-2.838863181
 20
8.0842768886
 11
-3.5568654402
 21
7.6910465296
  0
LWPOLYLINE
  5
397
100
AcDbEntity
  8
ASSI
100
AcDbPolyline
 62
7
  6
CONTINUOUS
 90
4
 70
0
 10
19.5946117039
 20
15.0000107063
 10
19.631450067
 20
15.0126047055
 10
19.7442645531
 20
15.0619256142
 10
19.8592644951
 20
15.1227464814
  0
LWPOLYLINE
  5
398
100
AcDbEntity
  8
RACCORDO
100
AcDbPolyline
 62
253
  6
CONTINUOUS
 90
31
 70
0
 10
-5.5008041436
 20
8.848827691
 10
-5.5010991205
 20
8.8596197603
 10
-5.5018749737
 20
8.8706636244
 10
-5.5031295768
 20
8.8819290141
 10
-5.5048594911
 20
8.8933850531
 10
-5.5070599753
 20
8.9050003425
 10
-5.5097249982
 20
8.916743047
 10
-5.5128472555
 20
8.9285809821
 10
-5.5164181897
 20
8.9404817021
 10
-5.5204280135
 20
8.9524125895
 10
-5.5248657368
 20
8.9643409439
 10
-5.5297191965
 20
8.976234072
 10
-5.5349750904
 20
8.9880593768
 10
-5.5406190128
 20
8.9997844476
 10
-5.546635495
 20
9.011377148
 10
-5.5530080469
 20
9.0228057046
 10
-5.5597192024
 20
9.0340387939
 10
-5.5667505676
 20
9.0450456281
 10
-5.5740828709
 20
9.0557960396
 10
-5.5816960157
 20
9.0662605635
 10
-5.5895691358
 20
9.0764105184
 10
-5.5976806526
 20
9.0862180853
 10
-5.6060083338
 20
9.0956563835
 10
-5.6145293549
 20
9.1046995443
 10
-5.6232203613
 20
9.1133227822
 10
-5.6320575326
 20
9.1215024625
 10
-5.6410166478
 20
9.1292161661
 10
-5.6500731517
 20
9.1364427514
 10
-5.659202222
 20
9.1431624115
 10
-5.6683788376
 20
9.1493567291
 10
-5.6775778473
 20
9.1550087269
  0
LWPOLYLINE
  5
399
100
AcDbEntity
  8
RACCORDO
100
AcDbPolyline
 62
253
  6
CONTINUOUS
 90
16
 70
0
 10
-5.8533261033
 20
-30.728006361
 10
-5.8530867484
 20
-30.7384865095
 10
-5.8523687431
 20
-30.7486680421
 10
-5.851173153
 20
-30.7585227648
 10
-5.8495019556
 20
-30.7680251955
 10
-5.8473590207
 20
-30.7771467511
 10
-5.8447510652
 20
-30.7858566418
 10
-5.8416858932
 20
-30.7941294365
 10
-5.8381713389
 20
-30.8019445287
 10
-5.8342168576
 20
-30.8092808383
 10
-5.8298330938
 20
-30.8161184823
 10
-5.8250320142
 20
-30.8224386735
 10
-5.8198268087
 20
-30.8282240118
 10
-5.8142317198
 20
-30.8334586939
 10
-5.8082619168
 20
-30.8381285521
 10
-5.8015554709
 20
-30.8424405631
  0
LWPOLYLINE
  5
39A
100
AcDbEntity
  8
RACCORDO
100
AcDbPolyline
 62
253
  6
CONTINUOUS
 90
17
 70
0
 10
-7.1783107831
 20
9.293929147
 10
-7.1780909284
 20
9.2838791849
 10
-7.1774319112
 20
9.2741081023
 10
-7.1763353704
 20
9.2646402036
 10
-7.1748040395
 20
9.2554990701
 10
-7.1728417242
 20
9.246707406
 10
-7.1704532784
 20
9.2382869938
 10
-7.1676446083
 20
9.2302587351
 10
-7.1644227028
 20
9.2226426739
 10
-7.1607956052
 20
9.2154578446
 10
-7.1567723256
 20
9.2087220992
 10
-7.152362883
 20
9.2024522156
 10
-7.1475783465
 20
9.1966639014
 10
-7.142430713
 20
9.191371594
 10
-7.1369327451
 20
9.1865883432
 10
-7.1310980114
 20
9.18232593
 10
-7.1265393996
 20
9.1794945112
  0
LWPOLYLINE
  5
39B
100
AcDbEntity
  8
RACCORDO
100
AcDbPolyline
 62
253
  6
CONTINUOUS
 90
17
 70
0
 10
-5.8533261033
 20
8.5288995988
 10
-5.8531062486
 20
8.5188496367
 10
-5.8524472313
 20
8.5090785541
 10
-5.8513506906
 20
8.4996106554
 10
-5.8498193597
 20
8.490469522
 10
-5.8478570444
 20
8.4816778578
 10
-5.8454685986
 20
8.4732574457
 10
-5.8426599285
 20
8.465229187
 10
-5.839438023
 20
8.4576131258
 10
-5.8358109254
 20
8.4504282964
 10
-5.8317876458
 20
8.443692551
 10
-5.8273782032
 20
8.4374226674
 10
-5.8225936667
 20
8.4316343532
 10
-5.8174460332
 20
8.4263420458
 10
-5.8119480653
 20
8.4215587951
 10
-5.8061133315
 20
8.4172963818
 10
-5.8016186644
 20
8.4145019208
  0
LWPOLYLINE
  5
39C
100
AcDbEntity
  8
RACCORDO
100
AcDbPolyline
 62
7
  6
CONTINUOUS
 90
21
 70
0
 10
-5.7733563229
 20
17.4391277281
 10
-5.7739295074
 20
17.4715668208
 10
-5.7756286203
 20
17.5032054236
 10
-5.7784536619
 20
17.5340435364
 10
-5.7824140965
 20
17.5641335237
 10
-5.7875004596
 20
17.593423021
 10
-5.7936843579
 20
17.621754935
 10
-5.8009669734
 20
17.6491112901
 10
-5.8093471241
 20
17.6755100619
 10
-5.8187928713
 20
17.7008480826
 10
-5.8293167298
 20
17.7251368407
 10
-5.8409061849
 20
17.7483648479
 10
-5.8534917536
 20
17.7703944714
 10
-5.8670669395
 20
17.7912025594
 10
-5.881638239
 20
17.8108122637
 10
-5.897155659
 20
17.8291554073
 10
-5.9136389464
 20
17.8462421838
 10
-5.9310683543
 20
17.8620623995
 10
-5.9493346489
 20
17.8765172956
 10
-5.9684233048
 20
17.8895868079
 10
-5.9804396652
 20
17.8968664871
  0
LINE
  5
39D
100
AcDbEntity
  8
RACCORDO
100
AcDbLine
 62
7
  6
CONTINUOUS
 10
-7.2515340878
 20
9.7165179682
 11
-7.251529275
 21
9.3944466036
  0
LINE
  5
39E
100
AcDbEntity
  8
RACCORDO
100
AcDbLine
 62
253
  6
CONTINUOUS
 10
-7.1783107831
 20
9.6144493198
 11
-7.1783107831
 21
9.293929147
  0
LINE
  5
39F
100
AcDbEntity
  8
RACCORDO
100
AcDbLine
 62
7
  6
CONTINUOUS
 10
-6.5485411335
 20
8.5663664912
 11
-6.5485411335
 21
8.8457655564
  0
LINE
  5
3A0
100
AcDbEntity
  8
RACCORDO
100
AcDbLine
 62
253
  6
CONTINUOUS
 10
-6.4753178288
 20
8.461136228
 11
-6.4753178288
 21
8.803487338
  0
LINE
  5
3A1
100
AcDbEntity
  8
RACCORDO
100
AcDbLine
 62
253
  6
CONTINUOUS
 10
-5.8533261033
 20
-30.728006361
 11
-5.8533261033
 21
-30.4074861882
  0
LINE
  5
3A2
100
AcDbEntity
  8
RACCORDO
100
AcDbLine
 62
253
  6
CONTINUOUS
 10
-5.8533261033
 20
8.5288995988
 11
-5.8533261033
 21
8.8494197717
  0
LINE
  5
3A3
100
AcDbEntity
  8
RACCORDO
100
AcDbLine
 62
7
  6
CONTINUOUS
 10
-5.7733563229
 20
17.4391277281
 11
-5.7733563229
 21
17.1838229889
  0
LINE
  5
3A4
100
AcDbEntity
  8
RACCORDO
100
AcDbLine
 62
253
  6
CONTINUOUS
 10
-5.5008041436
 20
-30.7285984417
 11
-5.5008041436
 21
-30.4080782689
  0
LINE
  5
3A5
100
AcDbEntity
  8
RACCORDO
100
AcDbLine
 62
253
  6
CONTINUOUS
 10
-5.5008041436
 20
8.5283075182
 11
-5.5008041436
 21
8.848827691
  0
LINE
  5
3A6
100
AcDbEntity
  8
RACCORDO
100
AcDbLine
 62
7
  6
CONTINUOUS
 10
-5.3569359969
 20
6.580309764
 11
-5.3569359969
 21
-0.4271177547
  0
LINE
  5
3A7
100
AcDbEntity
  8
0
100
AcDbLine
 62
7
  6
CONTINUOUS
 10
-5.3569359969
 20
-3.8990475423
 11
-5.3569359969
 21
-18.5527578995
  0
LINE
  5
3A8
100
AcDbEntity
  8
RACCORDO
100
AcDbLine
 62
7
  6
CONTINUOUS
 10
-5.3569359969
 20
-22.0246876871
 11
-5.3569359969
 21
-29.0321152057
  0
LINE
  5
3A9
100
AcDbEntity
  8
RACCORDO
100
AcDbLine
 62
7
  6
CONTINUOUS
 10
-5.356163322
 20
-28.9998875794
 11
-5.356163322
 21
-22.0037565073
  0
LINE
  5
3AA
100
AcDbEntity
  8
ASSI
100
AcDbLine
 62
7
  6
CONTINUOUS
 10
-5.356163322
 20
6.547189872
 11
-5.356163322
 21
-28.9998875794
  0
LINE
  5
3AB
100
AcDbEntity
  8
0
100
AcDbLine
 62
7
  6
CONTINUOUS
 10
-5.356163322
 20
-22.0037565073
 11
-5.356163322
 21
-0.4489412
  0
LINE
  5
3AC
100
AcDbEntity
  8
RACCORDO
100
AcDbLine
 62
7
  6
CONTINUOUS
 10
-5.356163322
 20
-0.4489412
 11
-5.356163322
 21
6.547189872
  0
LINE
  5
3AD
100
AcDbEntity
  8
RACCORDO
100
AcDbLine
 62
253
  6
CONTINUOUS
 10
-5.1421054952
 20
8.3306984059
 11
-5.1421054952
 21
7.6913561356
  0
LINE
  5
3AE
100
AcDbEntity
  8
RACCORDO
100
AcDbLine
 62
253
  6
CONTINUOUS
 10
-5.1421054952
 20
-29.0887933623
 11
-5.1421054952
 21
-29.4123501994
  0
LWPOLYLINE
  5
3AF
100
AcDbEntity
  8
RACCORDO
100
AcDbPolyline
 62
253
  6
CONTINUOUS
 90
22
 70
0
 10
-5.8533261033
 20
-30.4074861882
 10
-5.8531072321
 20
-30.3972056851
 10
-5.8524506764
 20
-30.3866920155
 10
-5.8513573387
 20
-30.3759708867
 10
-5.8498288889
 20
-30.3650665672
 10
-5.8478685703
 20
-30.3540078516
 10
-5.8454819872
 20
-30.3428282439
 10
-5.8426756544
 20
-30.331557721
 10
-5.8394561374
 20
-30.3202221902
 10
-5.8358313682
 20
-30.3088496186
 10
-5.8318102851
 20
-30.2974681444
 10
-5.8274029119
 20
-30.2861062256
 10
-5.8226202841
 20
-30.2747923403
 10
-5.8174743112
 20
-30.2635546599
 10
-5.8119777823
 20
-30.2524211106
 10
-5.806144439
 20
-30.2414195135
 10
-5.7999888502
 20
-30.2305773108
 10
-5.7935262949
 20
-30.2199213821
 10
-5.7867727815
 20
-30.209478111
 10
-5.7797450816
 20
-30.1992734359
 10
-5.7724607
 20
-30.1893327783
 10
-5.7649377556
 20
-30.1796808638
  0
LWPOLYLINE
  5
3B0
100
AcDbEntity
  8
RACCORDO
100
AcDbPolyline
 62
253
  6
CONTINUOUS
 90
31
 70
0
 10
-7.1783107831
 20
9.6144493198
 10
-7.1780714282
 20
9.6252058693
 10
-7.177353423
 20
9.6362165363
 10
-7.1761578329
 20
9.6474518965
 10
-7.1744866354
 20
9.6588841842
 10
-7.1723437005
 20
9.6704803473
 10
-7.169735745
 20
9.6822018396
 10
-7.166670573
 20
9.6940142182
 10
-7.1631560187
 20
9.7058878295
 10
-7.1592015375
 20
9.7177906749
 10
-7.1548177737
 20
9.7296905795
 10
-7.150016694
 20
9.7415549371
 10
-7.1448114886
 20
9.7533511162
 10
-7.1392163996
 20
9.7650468668
 10
-7.1332465967
 20
9.7766105038
 10
-7.1269182747
 20
9.7880106531
 10
-7.1202486237
 20
9.7992163293
 10
-7.1132558162
 20
9.810196982
 10
-7.1059589074
 20
9.8209226806
 10
-7.098377765
 20
9.8313642186
 10
-7.0905330137
 20
9.8414931861
 10
-7.0824460075
 20
9.8512820076
 10
-7.0741387553
 20
9.8607040393
 10
-7.0656338685
 20
9.869733632
 10
-7.0569545035
 20
9.8783461985
 10
-7.0481242775
 20
9.8865183013
 10
-7.0391672312
 20
9.8942276893
 10
-7.030107772
 20
9.9014533563
 10
-7.0209705684
 20
9.9081756315
 10
-7.0117804821
 20
9.914376229
 10
-7.0025625271
 20
9.9200382751
  0
LWPOLYLINE
  5
3B1
100
AcDbEntity
  8
RACCORDO
100
AcDbPolyline
 62
253
  6
CONTINUOUS
 90
31
 70
0
 10
-5.8533261033
 20
8.8494197717
 10
-5.853085522
 20
8.8602041776
 10
-5.8523644308
 20
8.8712370733
 10
-5.851164789
 20
8.8824884303
 10
-5.8494898565
 20
8.8939276372
 10
-5.84734419
 20
8.9055235469
 10
-5.8447336354
 20
8.9172445604
 10
-5.8416653019
 20
8.9290587648
 10
-5.8381475406
 20
8.9409340116
 10
-5.8341899314
 20
8.9528379662
 10
-5.8298032495
 20
8.9647382252
 10
-5.8249994365
 20
8.9766023995
 10
-5.8197915719
 20
8.9883981923
 10
-5.8141938265
 20
9.0000935109
 10
-5.8082214449
 20
9.0116565092
 10
-5.8018907106
 20
9.0230556715
 10
-5.7952188897
 20
9.0342599279
 10
-5.7882241213
 20
9.045238835
 10
-5.7809253845
 20
9.0559626075
 10
-5.7733424419
 20
9.0664021892
 10
-5.7654960235
 20
9.0765290222
 10
-5.7574077322
 20
9.0863152495
 10
-5.7490997645
 20
9.0957340857
 10
-5.7405945921
 20
9.1047601232
 10
-5.7319151294
 20
9.1133690688
 10
-5.7230830389
 20
9.1215392404
 10
-5.7141242559
 20
9.1292464542
 10
-5.705068919
 20
9.1364653225
 10
-5.6959437502
 20
9.1431757899
 10
-5.6867717456
 20
9.1493621816
 10
-5.6775778473
 20
9.1550087269
  0
LWPOLYLINE
  5
3B2
100
AcDbEntity
  8
RACCORDO
100
AcDbPolyline
 62
7
  6
CONTINUOUS
 90
19
 70
0
 10
-7.2515340878
 20
9.7165179682
 10
-7.2511362815
 20
9.730615566
 10
-7.2499332417
 20
9.7447643593
 10
-7.2479141781
 20
9.7589072488
 10
-7.2450719675
 20
9.7729918653
 10
-7.241407016
 20
9.7869521799
 10
-7.2369304582
 20
9.800711488
 10
-7.2316597834
 20
9.8142019694
 10
-7.2256096627
 20
9.8273788567
 10
-7.2187933634
 20
9.8402046982
 10
-7.2112409978
 20
9.8526172401
 10
-7.2029747966
 20
9.8645775528
 10
-7.1939888053
 20
9.8760835713
 10
-7.1842811508
 20
9.8871154791
 10
-7.1739058496
 20
9.8975924712
 10
-7.1629386201
 20
9.9074330722
 10
-7.1514107162
 20
9.9166104369
 10
-7.1393623605
 20
9.9250925765
 10
-7.1287176182
 20
9.9317488897
  0
LWPOLYLINE
  5
3B3
100
AcDbEntity
  8
RACCORDO
100
AcDbPolyline
 62
253
  6
CONTINUOUS
 90
17
 70
0
 10
-9.0536562016
 20
-30.8416139506
 10
-9.0551160836
 20
-30.8632022846
 10
-9.0575228675
 20
-30.8841629709
 10
-9.0608699641
 20
-30.9044386245
 10
-9.0651482097
 20
-30.9239737358
 10
-9.0703458918
 20
-30.9427148227
 10
-9.0764487804
 20
-30.9606105768
 10
-9.0834401672
 20
-30.9776120041
 10
-9.0913009118
 20
-30.9936725592
 10
-9.1000094933
 20
-31.0087482723
 10
-9.10954207
 20
-31.0227978699
 10
-9.119872544
 20
-31.0357828878
 10
-9.1309726332
 20
-31.0476677764
 10
-9.1428119483
 20
-31.0584199979
 10
-9.1553580763
 20
-31.0680101155
 10
-9.1685766691
 20
-31.0764118738
 10
-9.1780586274
 20
-31.0814980269
  0
LWPOLYLINE
  5
3B4
100
AcDbEntity
  8
ASSI
100
AcDbPolyline
 62
253
  6
CONTINUOUS
 90
17
 70
0
 10
-9.0536562016
 20
-30.8416139506
 10
-9.0551160836
 20
-30.8632022846
 10
-9.0575228675
 20
-30.8841629709
 10
-9.0608699641
 20
-30.9044386245
 10
-9.0651482097
 20
-30.9239737358
 10
-9.0703458918
 20
-30.9427148227
 10
-9.0764487804
 20
-30.9606105768
 10
-9.0834401672
 20
-30.9776120041
 10
-9.0913009118
 20
-30.9936725592
 10
-9.1000094933
 20
-31.0087482723
 10
-9.10954207
 20
-31.0227978699
 10
-9.119872544
 20
-31.0357828878
 10
-9.1309726332
 20
-31.0476677764
 10
-9.1428119483
 20
-31.0584199979
 10
-9.1553580763
 20
-31.0680101155
 10
-9.1685766691
 20
-31.0764118738
 10
-9.1780586274
 20
-31.0814980269
  0
LINE
  5
3B5
100
AcDbEntity
  8
CURVE
100
AcDbLine
 62
253
  6
CONTINUOUS
 10
-19.6100742111
 20
-21.6567508806
 11
-19.6066678219
 21
-21.6502923678
  0
LINE
  5
3B6
100
AcDbEntity
  8
CURVE
100
AcDbLine
 62
253
  6
CONTINUOUS
 10
-19.9297966877
 20
-21.2916708656
 11
-19.9332079614
 21
-21.2981317497
  0
LINE
  5
3B7
100
AcDbEntity
  8
CURVE
100
AcDbLine
 62
253
  6
CONTINUOUS
 10
-19.6138451156
 20
-21.6628058767
 11
-19.6100742111
 21
-21.6567508806
  0
LINE
  5
3B8
100
AcDbEntity
  8
CURVE
100
AcDbLine
 62
253
  6
CONTINUOUS
 10
-19.9260206543
 20
-21.2856135232
 11
-19.9297966877
 21
-21.2916708656
  0
LINE
  5
3B9
100
AcDbEntity
  8
RACCORDO
100
AcDbLine
 62
253
  6
CONTINUOUS
 10
1.6103356482
 20
8.8666306302
 11
-2.838863181
 21
6.2442481241
  0
LINE
  5
3BA
100
AcDbEntity
  8
RACCORDO
100
AcDbLine
 62
253
  6
CONTINUOUS
 10
2.0244861239
 20
7.4730178581
 11
-2.838863181
 21
4.6065327611
  0
LINE
  5
3BB
100
AcDbEntity
  8
RACCORDO
100
AcDbLine
 62
253
  6
CONTINUOUS
 10
17.1748259522
 20
17.9969374976
 11
24.5553192967
 21
22.3017470539
  0
LINE
  5
3BC
100
AcDbEntity
  8
ASSI
100
AcDbLine
 62
253
  6
CONTINUOUS
 10
17.1748259522
 20
17.9969374976
 11
24.5553192967
 21
22.3017470539
  0
LINE
  5
3BD
100
AcDbEntity
  8
RACCORDO
100
AcDbLine
 62
253
  6
CONTINUOUS
 10
17.6748069138
 20
17.4691252549
 11
25.0553002582
 21
21.7739348112
  0
LINE
  5
3BE
100
AcDbEntity
  8
ASSI
100
AcDbLine
 62
253
  6
CONTINUOUS
 10
17.6748069138
 20
17.4691252549
 11
25.0553002582
 21
21.7739348112
  0
LINE
  5
3BF
100
AcDbEntity
  8
ASSI
100
AcDbLine
 62
253
  6
CONTINUOUS
 10
17.2117919146
 20
17.9573534262
 11
1.5745514171
 21
8.9286067436
  0
LINE
  5
3C0
100
AcDbEntity
  8
ASSI
100
AcDbLine
 62
253
  6
CONTINUOUS
 10
17.5667919146
 20
17.5825924641
 11
1.801154747
 21
8.4797111533
  0
LINE
  5
3C1
100
AcDbEntity
  8
ASSI
100
AcDbLine
 62
253
  6
CONTINUOUS
 10
18.1212284228
 20
16.6222802634
 11
2.0244861239
 21
7.3282229996
  0
LINE
  5
3C2
100
AcDbEntity
  8
RACCORDO
100
AcDbLine
 62
253
  6
CONTINUOUS
 10
18.0769656565
 20
16.7725658804
 11
25.4950527858
 21
21.0122610915
  0
LINE
  5
3C3
100
AcDbEntity
  8
ASSI
100
AcDbLine
 62
253
  6
CONTINUOUS
 10
18.0769656565
 20
16.7725658804
 11
25.4950527858
 21
21.0122610915
  0
LWPOLYLINE
  5
3C4
100
AcDbEntity
  8
RACCORDO
100
AcDbPolyline
 62
253
  6
CONTINUOUS
 90
31
 70
0
 10
-9.7348438609
 20
3.1040569185
 10
-9.7539084839
 20
3.0948338363
 10
-9.7738529951
 20
3.0861921166
 10
-9.7946239347
 20
3.0781549227
 10
-9.8161656277
 20
3.0707437977
 10
-9.8384203334
 20
3.0639786067
 10
-9.8613283996
 20
3.0578774832
 10
-9.8848284231
 20
3.0524567808
 10
-9.9088574138
 20
3.0477310293
 10
-9.9333509639
 20
3.0437128956
 10
-9.9582434202
 20
3.0404131502
 10
-9.9834680604
 20
3.0378406377
 10
-10.0089572718
 20
3.0360022535
 10
-10.0346427325
 20
3.0349029253
 10
-10.0604555946
 20
3.0345455997
 10
-10.0863266687
 20
3.0349312346
 10
-10.1121866093
 20
3.0360587962
 10
-10.1379661008
 20
3.0379252623
 10
-10.1635960433
 20
3.0405256299
 10
-10.1890077377
 20
3.0438529289
 10
-10.2141330698
 20
3.0478982407
 10
-10.2389046931
 20
3.0526507222
 10
-10.2632562092
 20
3.0580976348
 10
-10.2871223457
 20
3.0642243784
 10
-10.3104391312
 20
3.0710145307
 10
-10.3331440668
 20
3.0784498912
 10
-10.3551762938
 20
3.0865105301
 10
-10.3764767563
 20
3.0951748414
 10
-10.3969883602
 20
3.104419601
 10
-10.4166561256
 20
3.1142200292
 10
-10.4354273346
 20
3.1245498565
  0
LWPOLYLINE
  5
3C5
100
AcDbEntity
  8
ASSI
100
AcDbPolyline
 62
253
  6
CONTINUOUS
 90
31
 70
0
 10
-9.7348438609
 20
3.1040569185
 10
-9.7539084839
 20
3.0948338364
 10
-9.7738529951
 20
3.0861921166
 10
-9.7946239347
 20
3.0781549227
 10
-9.8161656277
 20
3.0707437977
 10
-9.8384203334
 20
3.0639786067
 10
-9.8613283996
 20
3.0578774832
 10
-9.8848284231
 20
3.0524567808
 10
-9.9088574138
 20
3.0477310293
 10
-9.9333509639
 20
3.0437128956
 10
-9.9582434202
 20
3.0404131502
 10
-9.9834680604
 20
3.0378406377
 10
-10.0089572718
 20
3.0360022535
 10
-10.0346427325
 20
3.0349029253
 10
-10.0604555946
 20
3.0345455997
 10
-10.0863266687
 20
3.0349312346
 10
-10.1121866093
 20
3.0360587962
 10
-10.1379661008
 20
3.0379252623
 10
-10.1635960433
 20
3.0405256299
 10
-10.1890077377
 20
3.0438529289
 10
-10.2141330698
 20
3.0478982407
 10
-10.2389046931
 20
3.0526507223
 10
-10.2632562092
 20
3.0580976348
 10
-10.2871223457
 20
3.0642243784
 10
-10.3104391311
 20
3.0710145307
 10
-10.3331440668
 20
3.0784498913
 10
-10.3551762937
 20
3.0865105301
 10
-10.3764767563
 20
3.0951748414
 10
-10.3969883602
 20
3.104419601
 10
-10.4166561256
 20
3.1142200292
 10
-10.4354273346
 20
3.1245498565
  0
LINE
  5
3C6
100
AcDbEntity
  8
0
100
AcDbLine
 62
253
  6
CONTINUOUS
 10
7.7933553198
 20
-17.388413571
 11
7.4141851462
 21
-16.9702407988
  0
LWPOLYLINE
  5
3C7
100
AcDbEntity
  8
ASSI
100
AcDbPolyline
 62
7
  6
CONTINUOUS
 90
4
 70
0
 10
-8.4255010592
 20
18.275740707
 10
-8.4255540535
 20
18.2762128516
 10
-8.4263514085
 20
18.2773121622
 10
-8.4265006046
 20
18.2774023033
  0
LWPOLYLINE
  5
3C8
100
AcDbEntity
  8
RACCORDO
100
AcDbPolyline
 62
7
  6
CONTINUOUS
 90
34
 70
0
 10
-3.5568654402
 20
7.6910465296
 10
-3.5575692796
 20
7.7089493509
 10
-3.5589975502
 20
7.7272414327
 10
-3.5611457273
 20
7.7458818994
 10
-3.5640065774
 20
7.7648295825
 10
-3.5675734246
 20
7.7840416663
 10
-3.5718402326
 20
7.8034738055
 10
-3.5767961983
 20
7.8230825941
 10
-3.5824288867
 20
7.8428242756
 10
-3.588727613
 20
7.8626534181
 10
-3.5956771097
 20
7.8825257202
 10
-3.6032605304
 20
7.9023968489
 10
-3.6114627531
 20
7.9222211796
 10
-3.6202643491
 20
7.9419543878
 10
-3.6296443935
 20
7.9615524333
 10
-3.639583622
 20
7.9809703933
 10
-3.6500588259
 20
8.0001647897
 10
-3.6610454136
 20
8.0190927426
 10
-3.672520356
 20
8.0377109195
 10
-3.6844571196
 20
8.055977544
 10
-3.6968279285
 20
8.0738517417
 10
-3.7096064411
 20
8.0912926296
 10
-3.7227633188
 20
8.1082609572
 10
-3.736268146
 20
8.124718663
 10
-3.7500917873
 20
8.1406281266
 10
-3.7642026728
 20
8.1559533994
 10
-3.7785683447
 20
8.1706599875
 10
-3.7931574516
 20
8.1847142875
 10
-3.8079431351
 20
8.1980896646
 10
-3.8228853049
 20
8.2107499854
 10
-3.8379317568
 20
8.2226522254
 10
-3.8530419269
 20
8.2337676152
 10
-3.8681874413
 20
8.2440787688
 10
-3.8833340816
 20
8.2535651686
  0
LWPOLYLINE
  5
3C9
100
AcDbEntity
  8
RACCORDO
100
AcDbPolyline
 62
7
  6
CONTINUOUS
 90
22
 70
0
 10
-3.299058324
 20
-29.084156668
 10
-3.299381998
 20
-29.0714393215
 10
-3.300358243
 20
-29.058695544
 10
-3.3019924943
 20
-29.045966672
 10
-3.3042861053
 20
-29.0332984248
 10
-3.3072381898
 20
-29.0207293661
 10
-3.3108476762
 20
-29.0082904223
 10
-3.3151085705
 20
-28.9960231741
 10
-3.3200111037
 20
-28.9839699884
 10
-3.3255474391
 20
-28.972161649
 10
-3.3317045232
 20
-28.9606361223
 10
-3.3384642695
 20
-28.9494341973
 10
-3.3458106733
 20
-28.9385874664
 10
-3.353725866
 20
-28.9281270851
 10
-3.3621841641
 20
-28.9180902708
 10
-3.3711577009
 20
-28.9085110922
 10
-3.3806266279
 20
-28.8994115364
 10
-3.3905599184
 20
-28.8908220996
 10
-3.400913627
 20
-28.8827785443
 10
-3.4116688401
 20
-28.8752927659
 10
-3.4227941405
 20
-28.8683851316
 10
-3.8995233528
 20
-28.5931227684
  0
LWPOLYLINE
  5
3CA
100
AcDbEntity
  8
RACCORDO
100
AcDbPolyline
 62
7
  6
CONTINUOUS
 90
34
 70
0
 10
-3.8995233528
 20
9.7733861173
 10
-3.8997234088
 20
9.7832139603
 10
-3.9003236463
 20
9.7932506369
 10
-3.9013226043
 20
9.8034734725
 10
-3.9027178398
 20
9.8138594175
 10
-3.9045061881
 20
9.8243849493
 10
-3.9066837694
 20
9.835026126
 10
-3.9092455939
 20
9.8457588782
 10
-3.9121857682
 20
9.8565589469
 10
-3.9154977632
 20
9.8674017888
 10
-3.9191740403
 20
9.8782628645
 10
-3.9232062005
 20
9.8891176128
 10
-3.9275851978
 20
9.8999413892
 10
-3.9323010984
 20
9.9107096841
 10
-3.9373431684
 20
9.9213981342
 10
-3.942700029
 20
9.9319824962
 10
-3.9483595533
 20
9.9424387895
 10
-3.9543088912
 20
9.9527433451
 10
-3.960534563
 20
9.9628728151
 10
-3.9670224955
 20
9.9728042366
 10
-3.9737579844
 20
9.9825151168
 10
-3.9807257236
 20
9.9919834796
 10
-3.9879099806
 20
10.0011878473
 10
-3.9952944963
 20
10.0101073617
 10
-4.0028624506
 20
10.0187218661
 10
-4.0105967721
 20
10.0270118056
 10
-4.0184799781
 20
10.0349583813
 10
-4.0264940776
 20
10.0425436667
 10
-4.0346210079
 20
10.0497504278
 10
-4.042842419
 20
10.0565623077
 10
-4.0511395157
 20
10.0629639747
 10
-4.059493509
 20
10.0689409259
 10
-4.0678856582
 20
10.0744795199
 10
-4.0762970565
 20
10.0795671532
  0
LWPOLYLINE
  5
3CB
100
AcDbEntity
  8
RACCORDO
100
AcDbPolyline
 62
253
  6
CONTINUOUS
 90
31
 70
0
 10
-3.371256181
 20
10.0784013065
 10
-3.3714463339
 20
10.0892538998
 10
-3.372123288
 20
10.1003548671
 10
-3.3732851878
 20
10.1116737825
 10
-3.3749288488
 20
10.1231796231
 10
-3.377049766
 20
10.1348408534
 10
-3.3796421264
 20
10.1466255123
 10
-3.3826988248
 20
10.1585013003
 10
-3.3862114834
 20
10.1704356679
 10
-3.3901704746
 20
10.1823959054
 10
-3.3945649477
 20
10.194349232
 10
-3.399382858
 20
10.2062628858
 10
-3.4046110008
 20
10.2181042138
 10
-3.4102350466
 20
10.2298407611
 10
-3.4162395809
 20
10.24144036
 10
-3.4226081465
 20
10.2528712183
 10
-3.4293232883
 20
10.264102006
 10
-3.4363666014
 20
10.2751019417
 10
-3.4437187813
 20
10.2858408766
 10
-3.4513596772
 20
10.2962893773
 10
-3.4592683467
 20
10.3064188065
 10
-3.4674231138
 20
10.3162014012
 10
-3.4758016276
 20
10.3256103493
 10
-3.4843809242
 20
10.3346198625
 10
-3.4931374895
 20
10.3432052475
 10
-3.5020473234
 20
10.3513429734
 10
-3.5110860055
 20
10.3590107361
 10
-3.5202287627
 20
10.3661875197
 10
-3.5294505362
 20
10.3728536541
 10
-3.5387260511
 20
10.3789908687
 10
-3.5480298847
 20
10.3845823424
  0
LINE
  5
3CC
100
AcDbEntity
  8
RACCORDO
100
AcDbLine
 62
253
  6
CONTINUOUS
 10
-4.7895835355
 20
8.4628175053
 11
-4.7895835355
 21
7.7013991692
  0
LINE
  5
3CD
100
AcDbEntity
  8
RACCORDO
100
AcDbLine
 62
253
  6
CONTINUOUS
 10
-4.7895835355
 20
-28.9132016815
 11
-4.7895835355
 21
-29.5307896135
  0
LINE
  5
3CE
100
AcDbEntity
  8
RACCORDO
100
AcDbLine
 62
253
  6
CONTINUOUS
 10
-4.0567887309
 20
0.2808138678
 11
-4.0567887309
 21
-2.9223795623
  0
LINE
  5
3CF
100
AcDbEntity
  8
RACCORDO
100
AcDbLine
 62
253
  6
CONTINUOUS
 10
-4.0567887309
 20
-17.844826277
 11
-4.0567887309
 21
-21.0480197071
  0
LINE
  5
3D0
100
AcDbEntity
  8
ASSI
100
AcDbLine
 62
253
  6
CONTINUOUS
 10
-4.0567887309
 20
-21.0480197071
 11
-4.0567887309
 21
-17.844826277
  0
LINE
  5
3D1
100
AcDbEntity
  8
ASSI
100
AcDbLine
 62
253
  6
CONTINUOUS
 10
-4.0567887309
 20
-2.9223795623
 11
-4.0567887309
 21
0.2808138678
  0
LINE
  5
3D2
100
AcDbEntity
  8
RACCORDO
100
AcDbLine
 62
7
  6
CONTINUOUS
 10
-3.8995233528
 20
-28.4698614604
 11
-3.8995233528
 21
-29.8254292158
  0
LINE
  5
3D3
100
AcDbEntity
  8
RACCORDO
100
AcDbLine
 62
7
  6
CONTINUOUS
 10
-3.8995233528
 20
8.2629126509
 11
-3.8995233528
 21
9.7733861173
  0
LINE
  5
3D4
100
AcDbEntity
  8
RACCORDO
100
AcDbLine
 62
7
  6
CONTINUOUS
 10
-3.8339346923
 20
0.40948657
 11
-3.8339346923
 21
-2.5504385334
  0
LINE
  5
3D5
100
AcDbEntity
  8
RACCORDO
100
AcDbLine
 62
7
  6
CONTINUOUS
 10
-3.8339346923
 20
-17.7161535748
 11
-3.8339346923
 21
-20.6760786782
  0
LINE
  5
3D6
100
AcDbEntity
  8
ASSI
100
AcDbLine
 62
7
  6
CONTINUOUS
 10
-3.8339346923
 20
-20.6760786782
 11
-3.8339346923
 21
-17.7161535748
  0
LINE
  5
3D7
100
AcDbEntity
  8
ASSI
100
AcDbLine
 62
7
  6
CONTINUOUS
 10
-3.8339346923
 20
-2.5504385334
 11
-3.8339346923
 21
0.40948657
  0
LINE
  5
3D8
100
AcDbEntity
  8
RACCORDO
100
AcDbLine
 62
7
  6
CONTINUOUS
 10
-3.7741833427
 20
0.443986136
 11
-3.7741833427
 21
-1.9621127058
  0
LINE
  5
3D9
100
AcDbEntity
  8
RACCORDO
100
AcDbLine
 62
7
  6
CONTINUOUS
 10
-3.7741833427
 20
-17.6816540088
 11
-3.7741833427
 21
-20.0877528506
  0
LINE
  5
3DA
100
AcDbEntity
  8
RACCORDO
100
AcDbLine
 62
253
  6
CONTINUOUS
 10
-3.371256181
 20
10.0784013065
 11
-3.371256181
 21
9.750756006
  0
LINE
  5
3DB
100
AcDbEntity
  8
RACCORDO
100
AcDbLine
 62
253
  6
CONTINUOUS
 10
-3.371256181
 20
-29.1856297811
 11
-3.371256181
 21
-29.5132750816
  0
LINE
  5
3DC
100
AcDbEntity
  8
RACCORDO
100
AcDbLine
 62
7
  6
CONTINUOUS
 10
-3.299058324
 20
10.1798744195
 11
-3.299058324
 21
9.852229119
  0
LINE
  5
3DD
100
AcDbEntity
  8
RACCORDO
100
AcDbLine
 62
7
  6
CONTINUOUS
 10
-3.299058324
 20
-29.084156668
 11
-3.299058324
 21
-29.4118019685
  0
LINE
  5
3DE
100
AcDbEntity
  8
ASSI
100
AcDbLine
 62
253
  6
CONTINUOUS
 10
-2.994106665
 20
15.0279707587
 11
-2.994106665
 21
13.8711342247
  0
LINE
  5
3DF
100
AcDbEntity
  8
ASSI
100
AcDbLine
 62
7
  6
CONTINUOUS
 10
-2.8705126011
 20
15.0681556044
 11
-2.8705126011
 21
14.0427097723
  0
LINE
  5
3E0
100
AcDbEntity
  8
0
100
AcDbLine
 62
7
  6
CONTINUOUS
 10
-2.838863181
 20
-2.5021548449
 11
-2.838863181
 21
-17.1416136604
  0
LINE
  5
3E1
100
AcDbEntity
  8
RACCORDO
100
AcDbLine
 62
7
  6
CONTINUOUS
 10
-2.838863181
 20
8.0842768886
 11
-2.838863181
 21
-27.7280453939
  0
LWPOLYLINE
  5
3E2
100
AcDbEntity
  8
RACCORDO
100
AcDbPolyline
 62
7
  6
CONTINUOUS
 90
21
 70
0
 10
-3.299058324
 20
-29.4118019416
 10
-3.2993309567
 20
-29.4234742439
 10
-3.3002591943
 20
-29.4362763031
 10
-3.3018452191
 20
-29.4490267016
 10
-3.3040886511
 20
-29.4617004588
 10
-3.3069873591
 20
-29.4742651411
 10
-3.3105366952
 20
-29.4866847608
 10
-3.314731767
 20
-29.4989286847
 10
-3.319565517
 20
-29.5109637127
 10
-3.3250283632
 20
-29.5227550066
 10
-3.3311095398
 20
-29.5342696274
 10
-3.337796188
 20
-29.5454743661
 10
-3.3450736738
 20
-29.5563366096
 10
-3.3529260583
 20
-29.5668249808
 10
-3.361336563
 20
-29.5769096317
 10
-3.3702841081
 20
-29.5865583124
 10
-3.3797431633
 20
-29.5957377627
 10
-3.3896895485
 20
-29.6044197075
 10
-3.400098101
 20
-29.6125775944
 10
-3.4109384396
 20
-29.6201835837
 10
-3.4218771117
 20
-29.6270342599
  0
LWPOLYLINE
  5
3E3
100
AcDbEntity
  8
RACCORDO
100
AcDbPolyline
 62
7
  6
CONTINUOUS
 90
14
 70
0
 10
-3.299058324
 20
9.852229119
 10
-3.2993802687
 20
9.8395457702
 10
-3.3003515162
 20
9.8268337877
 10
-3.3019778129
 20
9.814134224
 10
-3.304261034
 20
9.8014916897
 10
-3.3072005634
 20
9.7889454439
 10
-3.3107949087
 20
9.7765287564
 10
-3.3150378862
 20
9.7642834846
 10
-3.3199199446
 20
9.7522511065
 10
-3.3254330007
 20
9.7404627789
 10
-3.331563976
 20
9.7289562164
 10
-3.3382949474
 20
9.7177716945
 10
-3.3456098963
 20
9.7069406568
 10
-3.3535573572
 20
9.696410725
  0
LWPOLYLINE
  5
3E4
100
AcDbEntity
  8
RACCORDO
100
AcDbPolyline
 62
7
  6
CONTINUOUS
 90
18
 70
0
 10
-3.5568654402
 20
-28.1354975455
 10
-3.5575714567
 20
-28.1533271151
 10
-3.5589960638
 20
-28.1706855914
 10
-3.5611373991
 20
-28.1875341643
 10
-3.5639930563
 20
-28.2038358697
 10
-3.5675568453
 20
-28.219553502
 10
-3.5718187497
 20
-28.2346497425
 10
-3.5767703558
 20
-28.2490908097
 10
-3.5824017515
 20
-28.2628444188
 10
-3.5886982121
 20
-28.2758777678
 10
-3.5956465844
 20
-28.2881617048
 10
-3.6032323365
 20
-28.2996688178
 10
-3.6114363313
 20
-28.3103715243
 10
-3.6202409431
 20
-28.3202459249
 10
-3.629627316
 20
-28.3292700639
 10
-3.6395722914
 20
-28.3374221696
 10
-3.6500541335
 20
-28.3446841049
 10
-3.6565537587
 20
-28.3485858187
  0
LWPOLYLINE
  5
3E5
100
AcDbEntity
  8
RACCORDO
100
AcDbPolyline
 62
253
  6
CONTINUOUS
 90
16
 70
0
 10
-3.299058324
 20
10.1798744161
 10
-3.299363829
 20
10.1727404904
 10
-3.3003480007
 20
10.1652313556
 10
-3.3020091001
 20
10.1577620552
 10
-3.3043426462
 20
10.1503528235
 10
-3.3073422757
 20
10.1430239247
 10
-3.3109997091
 20
10.1357955249
 10
-3.3153048479
 20
10.1286874252
 10
-3.3202459879
 20
10.1217188176
 10
-3.3258097956
 20
10.1149084644
 10
-3.3319825541
 20
10.1082734611
 10
-3.3387463035
 20
10.1018333872
 10
-3.3460778217
 20
10.0956096378
 10
-3.3539543933
 20
10.0896199554
 10
-3.3623550984
 20
10.0838788163
 10
-3.371256181
 20
10.0784013065
  0
LWPOLYLINE
  5
3E6
100
AcDbEntity
  8
RACCORDO
100
AcDbPolyline
 62
253
  6
CONTINUOUS
 90
16
 70
0
 10
-3.299058324
 20
9.852229119
 10
-3.2993615451
 20
9.8451218901
 10
-3.3003430509
 20
9.8376141102
 10
-3.3020012287
 20
9.8301460929
 10
-3.3043315672
 20
9.8227381562
 10
-3.3073277264
 20
9.8154104546
 10
-3.3109815546
 20
9.8081829245
 10
-3.315283111
 20
9.8010752296
 10
-3.3202206925
 20
9.7941067074
 10
-3.3257808656
 20
9.7872963172
 10
-3.3319485028
 20
9.7806625876
 10
-3.3387068241
 20
9.7742235669
 10
-3.3460374423
 20
9.7679967735
 10
-3.3539204133
 20
9.7619991485
 10
-3.36233429
 20
9.7562470094
 10
-3.371256181
 20
9.750756006
  0
LINE
  5
3E7
100
AcDbEntity
  8
CURVE
100
AcDbLine
 62
253
  6
CONTINUOUS
 10
-19.6179728954
 20
-21.668443318
 11
-19.6138451156
 21
-21.6628058767
  0
LINE
  5
3E8
100
AcDbEntity
  8
CURVE
100
AcDbLine
 62
253
  6
CONTINUOUS
 10
-19.9218876022
 20
-21.2799738805
 11
-19.9260206543
 21
-21.2856135232
  0
LINE
  5
3E9
100
AcDbEntity
  8
RACCORDO
100
AcDbLine
 62
7
  6
CONTINUOUS
 10
-5.356163322
 20
-0.4489412
 11
-5.2105485377
 21
-0.3483953164
  0
LINE
  5
3EA
100
AcDbEntity
  8
ASSI
100
AcDbLine
 62
7
  6
CONTINUOUS
 10
-5.356163322
 20
-0.4489412
 11
-5.2105485377
 21
-0.3483953164
  0
LINE
  5
3EB
100
AcDbEntity
  8
RACCORDO
100
AcDbLine
 62
253
  6
CONTINUOUS
 10
21.1184584458
 20
17.5941103928
 11
21.2422992946
 21
17.6695623444
  0
LINE
  5
3EC
100
AcDbEntity
  8
ASSI
100
AcDbLine
 62
253
  6
CONTINUOUS
 10
21.1184584458
 20
17.5941103928
 11
21.2422992946
 21
17.6695623444
  0
LINE
  5
3ED
100
AcDbEntity
  8
RACCORDO
100
AcDbLine
 62
7
  6
CONTINUOUS
 10
21.1261436249
 20
17.5004760495
 11
21.1800235229
 21
17.5321476183
  0
LINE
  5
3EE
100
AcDbEntity
  8
ASSI
100
AcDbLine
 62
7
  6
CONTINUOUS
 10
21.1264483102
 20
17.5006551489
 11
21.1800228464
 21
17.532147235
  0
LINE
  5
3EF
100
AcDbEntity
  8
ASSI
100
AcDbLine
 62
253
  6
CONTINUOUS
 10
18.2682742374
 20
16.1274723677
 11
2.0244861239
 21
6.7485126934
  0
LINE
  5
3F0
100
AcDbEntity
  8
RACCORDO
100
AcDbLine
 62
253
  6
CONTINUOUS
 10
18.2840645517
 20
16.0756798876
 11
25.702151681
 21
20.3153750987
  0
LINE
  5
3F1
100
AcDbEntity
  8
ASSI
100
AcDbLine
 62
253
  6
CONTINUOUS
 10
18.2840645517
 20
16.0756798876
 11
25.702151681
 21
20.3153750987
  0
LINE
  5
3F2
100
AcDbEntity
  8
RACCORDO
100
AcDbLine
 62
253
  6
CONTINUOUS
 10
21.2422992946
 20
17.6695623444
 11
25.702151681
 21
20.2000695818
  0
LINE
  5
3F3
100
AcDbEntity
  8
ASSI
100
AcDbLine
 62
253
  6
CONTINUOUS
 10
21.2422992946
 20
17.6695623444
 11
25.702151681
 21
20.2000695818
  0
LINE
  5
3F4
100
AcDbEntity
  8
RACCORDO
100
AcDbLine
 62
7
  6
CONTINUOUS
 10
21.1800745249
 20
17.5321840372
 11
25.6393581726
 21
20.062368574
  0
LINE
  5
3F5
100
AcDbEntity
  8
ASSI
100
AcDbLine
 62
7
  6
CONTINUOUS
 10
21.1800745249
 20
17.5321840372
 11
25.6393581726
 21
20.062368574
  0
LWPOLYLINE
  5
3F6
100
AcDbEntity
  8
RACCORDO
100
AcDbPolyline
 62
253
  6
CONTINUOUS
 90
13
 70
0
 10
21.0320265153
 20
14.0373456322
 10
20.9237646463
 20
13.9804457992
 10
20.8162283182
 20
13.9326314828
 10
20.7099418234
 20
13.8940978837
 10
20.6054194237
 20
13.8649964797
 10
20.5031615119
 20
13.8454218672
 10
20.4036534364
 20
13.8354166122
 10
20.3073777914
 20
13.8349883303
 10
20.2147714422
 20
13.8440968126
 10
20.1262296538
 20
13.8626623304
 10
20.0421695478
 20
13.890568206
 10
19.9629775648
 20
13.9276551795
 10
19.9496173642
 20
13.9350917364
  0
LWPOLYLINE
  5
3F7
100
AcDbEntity
  8
ASSI
100
AcDbPolyline
 62
253
  6
CONTINUOUS
 90
13
 70
0
 10
21.0320265153
 20
14.0373456322
 10
20.9237646463
 20
13.9804457992
 10
20.8162283182
 20
13.9326314828
 10
20.7099418234
 20
13.8940978837
 10
20.6054194237
 20
13.8649964797
 10
20.5031615119
 20
13.8454218672
 10
20.4036534364
 20
13.8354166122
 10
20.3073777914
 20
13.8349883303
 10
20.2147714422
 20
13.8440968126
 10
20.1262296538
 20
13.8626623304
 10
20.0421695478
 20
13.890568206
 10
19.9629775648
 20
13.9276551795
 10
19.9495534445
 20
13.9351282002
  0
LWPOLYLINE
  5
3F8
100
AcDbEntity
  8
ASSI
100
AcDbPolyline
 62
7
  6
CONTINUOUS
 90
4
 70
0
 10
19.5946117039
 20
10.9176593224
 10
19.631450067
 20
10.9302533215
 10
19.7442645531
 20
10.9795742303
 10
19.8592644951
 20
11.0403950974
  0
LINE
  5
3F9
100
AcDbEntity
  8
0
100
AcDbLine
 62
7
  6
CONTINUOUS
 10
-4.2777619329
 20
-3.2759480291
 11
-4.4232652493
 21
-3.1919362378
  0
LINE
  5
3FA
100
AcDbEntity
  8
0
100
AcDbLine
 62
7
  6
CONTINUOUS
 10
-2.838863181
 20
-2.5021548449
 11
-3.8339346923
 21
-1.9276130254
  0
LINE
  5
3FB
100
AcDbEntity
  8
0
100
AcDbLine
 62
253
  6
CONTINUOUS
 10
15.2630704174
 20
-12.8874499169
 11
14.8388063487
 21
-12.6424851609
  0
LINE
  5
3FC
100
AcDbEntity
  8
ASSI
100
AcDbLine
 62
253
  6
CONTINUOUS
 10
-25.2618191499
 20
11.6851110345
 11
-10.4354277437
 21
3.1245384551
  0
LINE
  5
3FD
100
AcDbEntity
  8
RACCORDO
100
AcDbLine
 62
253
  6
CONTINUOUS
 10
-10.4354276879
 20
3.1245400114
 11
-25.261819097
 21
11.6851125925
  0
LWPOLYLINE
  5
3FE
100
AcDbEntity
  8
RACCORDO
100
AcDbPolyline
 62
253
  6
CONTINUOUS
 90
13
 70
0
 10
-16.7355743455
 20
17.4671458198
 10
-16.7312266548
 20
17.4607311902
 10
-16.7273764086
 20
17.454611198
 10
-16.7240341217
 20
17.4488025568
 10
-16.721208924
 20
17.443321134
 10
-16.7189085281
 20
17.4381818943
 10
-16.7171392124
 20
17.4333988616
 10
-16.7159058111
 20
17.4289850928
 10
-16.7152117004
 20
17.4249526541
 10
-16.7150587794
 20
17.4213125724
 10
-16.7154474634
 20
17.418074792
 10
-16.7163766887
 20
17.4152481488
 10
-16.7178743449
 20
17.4128020151
  0
LWPOLYLINE
  5
3FF
100
AcDbEntity
  8
ASSI
100
AcDbPolyline
 62
7
  6
CONTINUOUS
 90
4
 70
0
 10
-2.8705126211
 20
15.0683584396
 10
-2.8705480843
 20
15.0687488113
 10
-2.871284062
 20
15.0698772813
 10
-2.8715125053
 20
15.070021388
  0
LWPOLYLINE
  5
400
100
AcDbEntity
  8
RACCORDO
100
AcDbPolyline
 62
253
  6
CONTINUOUS
 90
16
 70
0
 10
-3.299058324
 20
-29.4118019648
 10
-3.2993595946
 20
-29.4188863151
 10
-3.3003393132
 20
-29.4263957567
 10
-3.3019960022
 20
-29.4338654925
 10
-3.3043251537
 20
-29.4412751829
 10
-3.3073204339
 20
-29.4486046678
 10
-3.3109736928
 20
-29.455833994
 10
-3.3152749909
 20
-29.462943485
 10
-3.3202126234
 20
-29.4699137879
 10
-3.3257731487
 20
-29.4767259235
 10
-3.3319414378
 20
-29.4833613543
 10
-3.3387006991
 20
-29.4898020141
 10
-3.346032513
 20
-29.4960303531
 10
-3.3539169111
 20
-29.502029414
 10
-3.3623324369
 20
-29.5077828763
 10
-3.371256181
 20
-29.5132750816
  0
LWPOLYLINE
  5
401
100
AcDbEntity
  8
RACCORDO
100
AcDbPolyline
 62
253
  6
CONTINUOUS
 90
16
 70
0
 10
-3.299058324
 20
-29.084156668
 10
-3.2993615451
 20
-29.091263897
 10
-3.3003430509
 20
-29.0987716769
 10
-3.3020012287
 20
-29.1062396942
 10
-3.3043315672
 20
-29.1136476309
 10
-3.3073277264
 20
-29.1209753324
 10
-3.3109815546
 20
-29.1282028625
 10
-3.315283111
 20
-29.1353105575
 10
-3.3202206925
 20
-29.1422790796
 10
-3.3257808656
 20
-29.1490894699
 10
-3.3319485028
 20
-29.1557231995
 10
-3.3387068241
 20
-29.1621622202
 10
-3.3460374423
 20
-29.1683890135
 10
-3.3539204133
 20
-29.1743866385
 10
-3.36233429
 20
-29.1801387776
 10
-3.371256181
 20
-29.1856297811
  0
LINE
  5
402
100
AcDbEntity
  8
CURVE
100
AcDbLine
 62
253
  6
CONTINUOUS
 10
-19.6224487549
 20
-21.6736495112
 11
-19.6179728954
 21
-21.668443318
  0
LINE
  5
403
100
AcDbEntity
  8
CURVE
100
AcDbLine
 62
253
  6
CONTINUOUS
 10
-19.9174064258
 20
-21.2747657144
 11
-19.9218876022
 21
-21.2799738805
  0
LINE
  5
404
100
AcDbEntity
  8
RACCORDO
100
AcDbLine
 62
7
  6
CONTINUOUS
 10
-5.356163322
 20
-3.8781163625
 11
-4.0567887309
 21
-2.9223795623
  0
LINE
  5
405
100
AcDbEntity
  8
ASSI
100
AcDbLine
 62
7
  6
CONTINUOUS
 10
-5.356163322
 20
-3.8781163625
 11
-4.0567887309
 21
-2.9223795623
  0
LWPOLYLINE
  5
406
100
AcDbEntity
  8
ASSI
100
AcDbPolyline
 62
7
  6
CONTINUOUS
 90
20
 70
0
 10
19.8592644951
 20
15.1227464814
 10
19.9742644371
 20
15.1947246647
 10
20.0870789231
 20
15.2756790966
 10
20.1977079532
 20
15.3656097771
 10
20.3068376757
 20
15.4652133483
 10
20.4137819423
 20
15.5737931681
 10
20.5164823077
 20
15.6892593104
 10
20.6148565586
 20
15.811745178
 10
20.7089869084
 20
15.9411173681
 10
20.7970615519
 20
16.0748857467
 10
20.8789631773
 20
16.2131354773
 10
20.9548090964
 20
16.3557813963
 10
21.0231394398
 20
16.5000778793
 10
21.0838086149
 20
16.646056901
 10
21.1369622143
 20
16.7936864867
 10
21.1815771465
 20
16.9401250869
 10
21.2174879994
 20
17.0853496297
 10
21.2448601851
 20
17.229383187
 10
21.2631668483
 20
17.3694534253
 10
21.2722323707
 20
17.5054835666
  0
LWPOLYLINE
  5
407
100
AcDbEntity
  8
ASSI
100
AcDbPolyline
 62
7
  6
CONTINUOUS
 90
3
 70
0
 10
19.8592644951
 20
14.3062762046
 10
19.7442645531
 20
14.2342980213
 10
19.7052222927
 20
14.2062817255
  0
LINE
  5
408
100
AcDbEntity
  8
RACCORDO
100
AcDbLine
 62
253
  6
CONTINUOUS
 10
21.1184584458
 20
13.5117590088
 11
21.2422992946
 21
13.5872109604
  0
LINE
  5
409
100
AcDbEntity
  8
ASSI
100
AcDbLine
 62
253
  6
CONTINUOUS
 10
21.1184584458
 20
13.5117590088
 11
21.2422992946
 21
13.5872109604
  0
LINE
  5
40A
100
AcDbEntity
  8
RACCORDO
100
AcDbLine
 62
7
  6
CONTINUOUS
 10
21.1261436249
 20
13.4181246655
 11
21.1800235229
 21
13.4497962344
  0
LINE
  5
40B
100
AcDbEntity
  8
ASSI
100
AcDbLine
 62
7
  6
CONTINUOUS
 10
21.1264483102
 20
13.418303765
 11
21.1800228464
 21
13.449795851
  0
LINE
  5
40C
100
AcDbEntity
  8
DRAFT
100
AcDbLine
 62
7
  6
CONTINUOUS
 10
23.7837071307
 20
16.3271683682
 11
20.4542613502
 21
14.3709399975
  0
LINE
  5
40D
100
AcDbEntity
  8
ASSI
100
AcDbLine
 62
7
  6
CONTINUOUS
 10
23.7837071307
 20
16.3271683682
 11
20.4542613502
 21
14.3709399975
  0
LINE
  5
40E
100
AcDbEntity
  8
0
100
AcDbLine
 62
7
  6
CONTINUOUS
 10
-2.838863181
 20
0.9840264844
 11
-4.2777619329
 21
0.1532271335
  0
LINE
  5
40F
100
AcDbEntity
  8
DRAFT
100
AcDbLine
 62
7
  6
CONTINUOUS
 10
23.7837071307
 20
16.3271683682
 11
24.8443673025
 21
16.9395802581
  0
LINE
  5
410
100
AcDbEntity
  8
ASSI
100
AcDbLine
 62
7
  6
CONTINUOUS
 10
23.7837071307
 20
16.3271683682
 11
24.8443673025
 21
16.9395802581
  0
LINE
  5
411
100
AcDbEntity
  8
RACCORDO
100
AcDbLine
 62
253
  6
CONTINUOUS
 10
25.490011569
 20
16.5667933505
 11
21.0320265153
 21
14.0373456322
  0
LINE
  5
412
100
AcDbEntity
  8
ASSI
100
AcDbLine
 62
253
  6
CONTINUOUS
 10
25.490011569
 20
16.5667933505
 11
21.0320265153
 21
14.0373456322
  0
LINE
  5
413
100
AcDbEntity
  8
RACCORDO
100
AcDbLine
 62
253
  6
CONTINUOUS
 10
25.702151681
 20
16.1993652255
 11
21.2422992946
 21
13.6688579881
  0
LINE
  5
414
100
AcDbEntity
  8
ASSI
100
AcDbLine
 62
253
  6
CONTINUOUS
 10
25.702151681
 20
16.1993652255
 11
21.2422992946
 21
13.6688579881
  0
LINE
  5
415
100
AcDbEntity
  8
RACCORDO
100
AcDbLine
 62
253
  6
CONTINUOUS
 10
21.2422992946
 20
13.5872109604
 11
25.702151681
 21
16.1177181978
  0
LINE
  5
416
100
AcDbEntity
  8
ASSI
100
AcDbLine
 62
253
  6
CONTINUOUS
 10
21.2422992946
 20
13.5872109604
 11
25.702151681
 21
16.1177181978
  0
LINE
  5
417
100
AcDbEntity
  8
RACCORDO
100
AcDbLine
 62
7
  6
CONTINUOUS
 10
21.1800745249
 20
13.4498326532
 11
25.6393581726
 21
15.98001719
  0
LINE
  5
418
100
AcDbEntity
  8
ASSI
100
AcDbLine
 62
7
  6
CONTINUOUS
 10
21.1800745249
 20
13.4498326532
 11
25.6393581726
 21
15.98001719
  0
LINE
  5
419
100
AcDbEntity
  8
0
100
AcDbLine
 62
7
  6
CONTINUOUS
 10
-5.3569359969
 20
-0.4271177547
 11
-4.2777619329
 21
0.1532271335
  0
LWPOLYLINE
  5
41A
100
AcDbEntity
  8
RACCORDO
100
AcDbPolyline
 62
253
  6
CONTINUOUS
 90
45
 70
0
 10
21.2422992946
 20
13.6688579881
 10
21.118599343
 20
13.6038349583
 10
20.9967588403
 20
13.5494512372
 10
20.8767777867
 20
13.5057068249
 10
20.7580601645
 20
13.4725188732
 10
20.6412019912
 20
13.4499702303
 10
20.5279913198
 20
13.4383094403
 10
20.4185463085
 20
13.4377060121
 10
20.3127487989
 20
13.4479904369
 10
20.2120323691
 20
13.4689027318
 10
20.1164694981
 20
13.5005707961
 10
20.0259877069
 20
13.5428667305
 10
19.9418031362
 20
13.5951468546
 10
19.863993131
 20
13.657527606
 10
19.7924803462
 20
13.7298925471
 10
19.7282488877
 20
13.8112486847
 10
19.6713809894
 20
13.9017287771
 10
19.6217944172
 20
14.0012000661
 10
19.5802265753
 20
14.1082712836
 10
19.546789477
 20
14.2230641903
 10
19.521371109
 20
14.3454570256
 10
19.5043728354
 20
14.4736932388
 10
19.4959284432
 20
14.6078970278
 10
19.4959041455
 20
14.7479441947
 10
19.5042999455
 20
14.8917055952
 10
19.5212492952
 20
15.0392079438
 10
19.5466187425
 20
15.1904245259
 10
19.5800079346
 20
15.3431460533
 10
19.6215284207
 20
15.4973779429
 10
19.6710686517
 20
15.6531147778
 10
19.7278936275
 20
15.8081310196
 10
19.7920849747
 20
15.9623872426
 10
19.8635610667
 20
16.1159228724
 10
19.9413420248
 20
16.2666306479
 10
20.0255062404
 20
16.4144840543
 10
20.1159753219
 20
16.5595096063
 10
20.2115342158
 20
16.6996795863
 10
20.3122560775
 20
16.8349490134
 10
20.4180677516
 20
16.9653628685
 10
20.527534718
 20
17.089028376
 10
20.6407687783
 20
17.2059056563
 10
20.7576581309
 20
17.3160345891
 10
20.8764328513
 20
17.4176420379
 10
20.9965029647
 20
17.5101369573
 10
21.1184584458
 20
17.5941103928
  0
LWPOLYLINE
  5
41B
100
AcDbEntity
  8
ASSI
100
AcDbPolyline
 62
253
  6
CONTINUOUS
 90
45
 70
0
 10
21.2422992946
 20
13.6688579881
 10
21.118599343
 20
13.6038349583
 10
20.9967588403
 20
13.5494512372
 10
20.8767777867
 20
13.5057068249
 10
20.7580601645
 20
13.4725188732
 10
20.6412019912
 20
13.4499702303
 10
20.5279913198
 20
13.4383094403
 10
20.4185463085
 20
13.4377060121
 10
20.3127487989
 20
13.4479904369
 10
20.2120323691
 20
13.4689027318
 10
20.1164694981
 20
13.5005707961
 10
20.0259877069
 20
13.5428667305
 10
19.9418031362
 20
13.5951468546
 10
19.863993131
 20
13.657527606
 10
19.7924803462
 20
13.7298925471
 10
19.7282488877
 20
13.8112486847
 10
19.6713809894
 20
13.9017287771
 10
19.6217944172
 20
14.0012000661
 10
19.5802265753
 20
14.1082712836
 10
19.546789477
 20
14.2230641903
 10
19.521371109
 20
14.3454570256
 10
19.5043728354
 20
14.4736932388
 10
19.4959284432
 20
14.6078970278
 10
19.4959041455
 20
14.7479441947
 10
19.5042999455
 20
14.8917055952
 10
19.5212492952
 20
15.0392079438
 10
19.5466187425
 20
15.1904245259
 10
19.5800079346
 20
15.3431460533
 10
19.6215284207
 20
15.4973779429
 10
19.6710686517
 20
15.6531147778
 10
19.7278936275
 20
15.8081310196
 10
19.7920849747
 20
15.9623872426
 10
19.8635610667
 20
16.1159228724
 10
19.9413420248
 20
16.2666306479
 10
20.0255062404
 20
16.4144840543
 10
20.1159753219
 20
16.5595096063
 10
20.2115342158
 20
16.6996795863
 10
20.3122560775
 20
16.8349490134
 10
20.4180677516
 20
16.9653628685
 10
20.527534718
 20
17.089028376
 10
20.6407687783
 20
17.2059056563
 10
20.7576581309
 20
17.3160345891
 10
20.8764328513
 20
17.4176420379
 10
20.9965029647
 20
17.5101369573
 10
21.1184584458
 20
17.5941103928
  0
LWPOLYLINE
  5
41C
100
AcDbEntity
  8
ASSI
100
AcDbPolyline
 62
7
  6
CONTINUOUS
 90
4
 70
0
 10
19.5946117039
 20
6.8353079384
 10
19.631450067
 20
6.8479019375
 10
19.7442645531
 20
6.8972228463
 10
19.8592644951
 20
6.9580437134
  0
LINE
  5
41D
100
AcDbEntity
  8
ASSI
100
AcDbLine
 62
253
  6
CONTINUOUS
 10
-24.2692445868
 20
13.4443789951
 11
-9.419480486
 21
4.8703113147
  0
LINE
  5
41E
100
AcDbEntity
  8
RACCORDO
100
AcDbLine
 62
253
  6
CONTINUOUS
 10
-9.4194791492
 20
4.8703121396
 11
-24.2692432958
 21
13.4443798464
  0
LWPOLYLINE
  5
41F
100
AcDbEntity
  8
0
100
AcDbPolyline
 62
7
  6
CONTINUOUS
 90
9
 70
0
 10
7.0606318872
 20
-14.5160240627
 10
7.1034693104
 20
-14.5848119283
 10
7.1443633829
 20
-14.6556423358
 10
7.1826636351
 20
-14.7274106674
 10
7.2183003558
 20
-14.8000439549
 10
7.2513432562
 20
-14.8736151665
 10
7.2815140233
 20
-14.9475003701
 10
7.3088134772
 20
-15.0217749592
 10
7.3332407979
 20
-15.0963635403
  0
LINE
  5
420
100
AcDbEntity
  8
0
100
AcDbLine
 62
253
  6
CONTINUOUS
 10
7.4848958243
 20
-17.6185480626
 11
7.4051268717
 21
-17.4803841839
  0
LINE
  5
421
100
AcDbEntity
  8
0
100
AcDbLine
 62
253
  6
CONTINUOUS
 10
7.6914034003
 20
-17.4993362217
 11
7.4141851462
 21
-17.0191801213
  0
LINE
  5
422
100
AcDbEntity
  8
DRAFT
100
AcDbLine
 62
7
  6
CONTINUOUS
 10
1.0148687765
 20
11.5088179781
 11
1.0148687765
 21
9.8980095052
  0
LINE
  5
423
100
AcDbEntity
  8
RACCORDO
100
AcDbLine
 62
7
  6
CONTINUOUS
 10
1.4687052542
 20
12.1507836918
 11
1.4687052542
 21
12.3002418872
  0
LINE
  5
424
100
AcDbEntity
  8
RACCORDO
100
AcDbLine
 62
253
  6
CONTINUOUS
 10
1.7168495779
 20
12.9200248755
 11
1.7168495779
 21
12.4511528011
  0
LINE
  5
425
100
AcDbEntity
  8
RACCORDO
100
AcDbLine
 62
253
  6
CONTINUOUS
 10
1.7168495779
 20
-22.1378877317
 11
1.7168495779
 21
-22.2959309871
  0
LINE
  5
426
100
AcDbEntity
  8
RACCORDO
100
AcDbLine
 62
7
  6
CONTINUOUS
 10
1.8571796778
 20
13.2404616078
 11
1.8571796778
 21
12.6541470548
  0
LINE
  5
427
100
AcDbEntity
  8
RACCORDO
100
AcDbLine
 62
7
  6
CONTINUOUS
 10
1.8571796778
 20
-21.971720838
 11
1.8571796778
 21
-22.2152806824
  0
LINE
  5
428
100
AcDbEntity
  8
RACCORDO
100
AcDbLine
 62
7
  6
CONTINUOUS
 10
2.0244861239
 20
7.4730178581
 11
2.0244861239
 21
-21.3011716233
  0
LINE
  5
429
100
AcDbEntity
  8
CURVE
100
AcDbLine
 62
253
  6
CONTINUOUS
 10
-19.6272627135
 20
-21.6784113196
 11
-19.6224487549
 21
-21.6736495112
  0
LINE
  5
42A
100
AcDbEntity
  8
CURVE
100
AcDbLine
 62
253
  6
CONTINUOUS
 10
-19.9125871961
 20
-21.2700022109
 11
-19.9174064258
 21
-21.2747657144
  0
LWPOLYLINE
  5
42B
100
AcDbEntity
  8
ASSI
100
AcDbPolyline
 62
7
  6
CONTINUOUS
 90
20
 70
0
 10
19.8592644951
 20
11.0403950974
 10
19.9742644371
 20
11.1123732807
 10
20.0870789231
 20
11.1933277126
 10
20.1977079532
 20
11.2832583932
 10
20.3068376757
 20
11.3828619643
 10
20.4137819423
 20
11.4914417841
 10
20.5164823077
 20
11.6069079264
 10
20.6148565586
 20
11.729393794
 10
20.7089869084
 20
11.8587659841
 10
20.7970615519
 20
11.9925343627
 10
20.8789631773
 20
12.1307840933
 10
20.9548090964
 20
12.2734300124
 10
21.0231394398
 20
12.4177264953
 10
21.0838086149
 20
12.5637055171
 10
21.1369622143
 20
12.7113351027
 10
21.1815771465
 20
12.8577737029
 10
21.2174879994
 20
13.0029982457
 10
21.2448601851
 20
13.1470318031
 10
21.2631668483
 20
13.2871020413
 10
21.2722323707
 20
13.4231321826
  0
LWPOLYLINE
  5
42C
100
AcDbEntity
  8
ASSI
100
AcDbPolyline
 62
7
  6
CONTINUOUS
 90
3
 70
0
 10
19.8592644951
 20
10.2239248206
 10
19.7442645531
 20
10.1519466373
 10
19.7052222927
 20
10.1239303415
  0
LINE
  5
42D
100
AcDbEntity
  8
RACCORDO
100
AcDbLine
 62
253
  6
CONTINUOUS
 10
21.1184584458
 20
9.4294076249
 11
21.2422992946
 21
9.5048595764
  0
LINE
  5
42E
100
AcDbEntity
  8
ASSI
100
AcDbLine
 62
253
  6
CONTINUOUS
 10
21.1184584458
 20
9.4294076249
 11
21.2422992946
 21
9.5048595764
  0
LINE
  5
42F
100
AcDbEntity
  8
RACCORDO
100
AcDbLine
 62
7
  6
CONTINUOUS
 10
21.1261436249
 20
9.3357732815
 11
21.1800235229
 21
9.3674448504
  0
LINE
  5
430
100
AcDbEntity
  8
ASSI
100
AcDbLine
 62
7
  6
CONTINUOUS
 10
21.1264483102
 20
9.335952381
 11
21.1800228464
 21
9.3674444671
  0
LINE
  5
431
100
AcDbEntity
  8
DRAFT
100
AcDbLine
 62
7
  6
CONTINUOUS
 10
23.7837071307
 20
12.2448169842
 11
20.4542613502
 21
10.2885886135
  0
LINE
  5
432
100
AcDbEntity
  8
ASSI
100
AcDbLine
 62
7
  6
CONTINUOUS
 10
23.7837071307
 20
12.2448169842
 11
20.4542613502
 21
10.2885886135
  0
LINE
  5
433
100
AcDbEntity
  8
0
100
AcDbLine
 62
7
  6
CONTINUOUS
 10
-5.3569359969
 20
-3.8990475423
 11
-4.2777619329
 21
-3.2759480291
  0
LINE
  5
434
100
AcDbEntity
  8
DRAFT
100
AcDbLine
 62
7
  6
CONTINUOUS
 10
23.7837071307
 20
12.2448169842
 11
24.8443673025
 21
12.8572288742
  0
LINE
  5
435
100
AcDbEntity
  8
ASSI
100
AcDbLine
 62
7
  6
CONTINUOUS
 10
23.7837071307
 20
12.2448169842
 11
24.8443673025
 21
12.8572288742
  0
LINE
  5
436
100
AcDbEntity
  8
RACCORDO
100
AcDbLine
 62
253
  6
CONTINUOUS
 10
25.490011569
 20
12.4844419665
 11
21.0320265153
 21
9.9549942482
  0
LINE
  5
437
100
AcDbEntity
  8
ASSI
100
AcDbLine
 62
253
  6
CONTINUOUS
 10
25.490011569
 20
12.4844419665
 11
21.0320265153
 21
9.9549942482
  0
LINE
  5
438
100
AcDbEntity
  8
RACCORDO
100
AcDbLine
 62
253
  6
CONTINUOUS
 10
25.702151681
 20
12.1170138416
 11
21.2422992946
 21
9.5865066041
  0
LINE
  5
439
100
AcDbEntity
  8
ASSI
100
AcDbLine
 62
253
  6
CONTINUOUS
 10
25.702151681
 20
12.1170138416
 11
21.2422992946
 21
9.5865066041
  0
LINE
  5
43A
100
AcDbEntity
  8
RACCORDO
100
AcDbLine
 62
253
  6
CONTINUOUS
 10
21.2422992946
 20
9.5048595764
 11
25.702151681
 21
12.0353668139
  0
LINE
  5
43B
100
AcDbEntity
  8
ASSI
100
AcDbLine
 62
253
  6
CONTINUOUS
 10
21.2422992946
 20
9.5048595764
 11
25.702151681
 21
12.0353668139
  0
LINE
  5
43C
100
AcDbEntity
  8
RACCORDO
100
AcDbLine
 62
7
  6
CONTINUOUS
 10
21.1800745249
 20
9.3674812693
 11
25.6393581726
 21
11.8976658061
  0
LINE
  5
43D
100
AcDbEntity
  8
ASSI
100
AcDbLine
 62
7
  6
CONTINUOUS
 10
21.1800745249
 20
9.3674812693
 11
25.6393581726
 21
11.8976658061
  0
LINE
  5
43E
100
AcDbEntity
  8
0
100
AcDbLine
 62
7
  6
CONTINUOUS
 10
-2.838863181
 20
-2.5021548449
 11
-4.2777619329
 21
-3.2759480291
  0
LWPOLYLINE
  5
43F
100
AcDbEntity
  8
RACCORDO
100
AcDbPolyline
 62
253
  6
CONTINUOUS
 90
45
 70
0
 10
21.2422992946
 20
9.5865066041
 10
21.118599343
 20
9.5214835743
 10
20.9967588403
 20
9.4670998533
 10
20.8767777867
 20
9.4233554409
 10
20.7580601645
 20
9.3901674893
 10
20.6412019912
 20
9.3676188463
 10
20.5279913198
 20
9.3559580563
 10
20.4185463085
 20
9.3553546282
 10
20.3127487989
 20
9.3656390529
 10
20.2120323691
 20
9.3865513479
 10
20.1164694981
 20
9.4182194121
 10
20.0259877069
 20
9.4605153466
 10
19.9418031362
 20
9.5127954707
 10
19.863993131
 20
9.575176222
 10
19.7924803462
 20
9.6475411631
 10
19.7282488877
 20
9.7288973007
 10
19.6713809894
 20
9.8193773931
 10
19.6217944172
 20
9.9188486821
 10
19.5802265753
 20
10.0259198996
 10
19.546789477
 20
10.1407128064
 10
19.521371109
 20
10.2631056416
 10
19.5043728354
 20
10.3913418548
 10
19.4959284432
 20
10.5255456438
 10
19.4959041455
 20
10.6655928108
 10
19.5042999455
 20
10.8093542112
 10
19.5212492952
 20
10.9568565598
 10
19.5466187425
 20
11.1080731419
 10
19.5800079346
 20
11.2607946693
 10
19.6215284207
 20
11.4150265589
 10
19.6710686517
 20
11.5707633938
 10
19.7278936275
 20
11.7257796356
 10
19.7920849747
 20
11.8800358586
 10
19.8635610667
 20
12.0335714885
 10
19.9413420248
 20
12.1842792639
 10
20.0255062404
 20
12.3321326704
 10
20.1159753219
 20
12.4771582224
 10
20.2115342158
 20
12.6173282023
 10
20.3122560775
 20
12.7525976295
 10
20.4180677516
 20
12.8830114845
 10
20.527534718
 20
13.006676992
 10
20.6407687783
 20
13.1235542723
 10
20.7576581309
 20
13.2336832051
 10
20.8764328513
 20
13.3352906539
 10
20.9965029647
 20
13.4277855734
 10
21.1184584458
 20
13.5117590088
  0
LWPOLYLINE
  5
440
100
AcDbEntity
  8
ASSI
100
AcDbPolyline
 62
253
  6
CONTINUOUS
 90
45
 70
0
 10
21.2422992946
 20
9.5865066041
 10
21.118599343
 20
9.5214835743
 10
20.9967588403
 20
9.4670998533
 10
20.8767777867
 20
9.4233554409
 10
20.7580601645
 20
9.3901674893
 10
20.6412019912
 20
9.3676188463
 10
20.5279913198
 20
9.3559580563
 10
20.4185463085
 20
9.3553546282
 10
20.3127487989
 20
9.3656390529
 10
20.2120323691
 20
9.3865513479
 10
20.1164694981
 20
9.4182194121
 10
20.0259877069
 20
9.4605153466
 10
19.9418031362
 20
9.5127954707
 10
19.863993131
 20
9.575176222
 10
19.7924803462
 20
9.6475411631
 10
19.7282488877
 20
9.7288973007
 10
19.6713809894
 20
9.8193773931
 10
19.6217944172
 20
9.9188486821
 10
19.5802265753
 20
10.0259198996
 10
19.546789477
 20
10.1407128064
 10
19.521371109
 20
10.2631056416
 10
19.5043728354
 20
10.3913418548
 10
19.4959284432
 20
10.5255456438
 10
19.4959041455
 20
10.6655928108
 10
19.5042999455
 20
10.8093542112
 10
19.5212492952
 20
10.9568565598
 10
19.5466187425
 20
11.1080731419
 10
19.5800079346
 20
11.2607946693
 10
19.6215284207
 20
11.4150265589
 10
19.6710686517
 20
11.5707633938
 10
19.7278936275
 20
11.7257796356
 10
19.7920849747
 20
11.8800358586
 10
19.8635610667
 20
12.0335714885
 10
19.9413420248
 20
12.1842792639
 10
20.0255062404
 20
12.3321326704
 10
20.1159753219
 20
12.4771582224
 10
20.2115342158
 20
12.6173282023
 10
20.3122560775
 20
12.7525976295
 10
20.4180677516
 20
12.8830114845
 10
20.527534718
 20
13.006676992
 10
20.6407687783
 20
13.1235542723
 10
20.7576581309
 20
13.2336832051
 10
20.8764328513
 20
13.3352906539
 10
20.9965029647
 20
13.4277855734
 10
21.1184584458
 20
13.5117590088
  0
LWPOLYLINE
  5
441
100
AcDbEntity
  8
RACCORDO
100
AcDbPolyline
 62
253
  6
CONTINUOUS
 90
13
 70
0
 10
21.0320265153
 20
9.9549942482
 10
20.9237646463
 20
9.8980944152
 10
20.8162283182
 20
9.8502800989
 10
20.7099418234
 20
9.8117464998
 10
20.6054194237
 20
9.7826450957
 10
20.5031615119
 20
9.7630704833
 10
20.4036534364
 20
9.7530652283
 10
20.3073777914
 20
9.7526369464
 10
20.2147714422
 20
9.7617454286
 10
20.1262296538
 20
9.7803109465
 10
20.0421695478
 20
9.808216822
 10
19.9629775648
 20
9.8453037955
 10
19.9496173642
 20
9.8527403525
  0
LWPOLYLINE
  5
442
100
AcDbEntity
  8
ASSI
100
AcDbPolyline
 62
253
  6
CONTINUOUS
 90
13
 70
0
 10
21.0320265153
 20
9.9549942482
 10
20.9237646463
 20
9.8980944152
 10
20.8162283182
 20
9.8502800989
 10
20.7099418234
 20
9.8117464998
 10
20.6054194237
 20
9.7826450957
 10
20.5031615119
 20
9.7630704833
 10
20.4036534364
 20
9.7530652283
 10
20.3073777914
 20
9.7526369464
 10
20.2147714422
 20
9.7617454286
 10
20.1262296538
 20
9.7803109465
 10
20.0421695478
 20
9.808216822
 10
19.9629775648
 20
9.8453037955
 10
19.9495534445
 20
9.8527768162
  0
LINE
  5
443
100
AcDbEntity
  8
0
100
AcDbLine
 62
7
  6
CONTINUOUS
 10
-18.5719890624
 20
13.9847270041
 11
-16.7335114313
 21
12.9232130615
  0
LINE
  5
444
100
AcDbEntity
  8
0
100
AcDbLine
 62
7
  6
CONTINUOUS
 10
-10.6523931131
 20
9.4120515589
 11
-8.813915482
 21
8.3505376162
  0
LINE
  5
445
100
AcDbEntity
  8
ASSI
100
AcDbLine
 62
7
  6
CONTINUOUS
 10
-8.813915482
 20
8.3505376162
 11
-10.6523931131
 21
9.4120515589
  0
LINE
  5
446
100
AcDbEntity
  8
ASSI
100
AcDbLine
 62
7
  6
CONTINUOUS
 10
-16.7335114313
 20
12.9232130615
 11
-18.5719890624
 21
13.9847270041
  0
LINE
  5
447
100
AcDbEntity
  8
0
100
AcDbLine
 62
7
  6
CONTINUOUS
 10
-8.7432048039
 20
8.4213176514
 11
-10.581682435
 21
9.482831594
  0
LINE
  5
448
100
AcDbEntity
  8
0
100
AcDbLine
 62
7
  6
CONTINUOUS
 10
-16.6628007532
 20
12.9939930967
 11
-18.5012783843
 21
14.0555070393
  0
LINE
  5
449
100
AcDbEntity
  8
0
100
AcDbLine
 62
253
  6
CONTINUOUS
 10
15.2179765223
 20
-13.101530341
 11
14.8388063487
 21
-12.6833575688
  0
LWPOLYLINE
  5
44A
100
AcDbEntity
  8
RACCORDO
100
AcDbPolyline
 62
253
  6
CONTINUOUS
 90
13
 70
0
 10
-3.371256181
 20
9.750756006
 10
-3.3669130397
 20
9.744348332
 10
-3.3630652307
 20
9.7382329703
 10
-3.359723662
 20
9.7324268451
 10
-3.3568976377
 20
9.7269455694
 10
-3.3545956378
 20
9.7218049361
 10
-3.3528248054
 20
9.7170205519
 10
-3.3515900744
 20
9.7126059106
 10
-3.3508946115
 20
9.7085725681
 10
-3.3507403187
 20
9.7049314533
 10
-3.3511276685
 20
9.7016924895
 10
-3.3520556503
 20
9.698864617
 10
-3.3535561805
 20
9.6964122012
  0
LWPOLYLINE
  5
44B
100
AcDbEntity
  8
0
100
AcDbPolyline
 62
7
  6
CONTINUOUS
 90
8
 70
0
 10
7.3332407979
 20
-15.0963635403
 10
7.3545152124
 20
-15.1704160013
 10
7.3725877217
 20
-15.2438731842
 10
7.387507325
 20
-15.3167942469
 10
7.3991402466
 20
-15.3885065511
 10
7.4074418948
 20
-15.458785884
 10
7.4124568613
 20
-15.5278564585
 10
7.4141851462
 20
-15.5957182744
  0
LINE
  5
44C
100
AcDbEntity
  8
0
100
AcDbLine
 62
7
  6
CONTINUOUS
 10
3.9493619184
 20
-19.4198434102
 11
3.9493619184
 21
-16.3124323493
  0
LWPOLYLINE
  5
44D
100
AcDbEntity
  8
RACCORDO
100
AcDbPolyline
 62
253
  6
CONTINUOUS
 90
13
 70
0
 10
6.3939055667
 20
21.7448862568
 10
6.3957003951
 20
21.7777178342
 10
6.4010544547
 20
21.8120663381
 10
6.4098771115
 20
21.8473505259
 10
6.4220190449
 20
21.8829733446
 10
6.4372747625
 20
21.9183319951
 10
6.4553860677
 20
21.9528281342
 10
6.4760464568
 20
21.9858780581
 10
6.4989063093
 20
22.0169225618
 10
6.5235787817
 20
22.0454363666
 10
6.5496463734
 20
22.0709370383
 10
6.5766679953
 20
22.0929931452
 10
6.6041864233
 20
22.1112315444
  0
LWPOLYLINE
  5
44E
100
AcDbEntity
  8
ASSI
100
AcDbPolyline
 62
253
  6
CONTINUOUS
 90
13
 70
0
 10
6.3939055667
 20
21.7448862568
 10
6.3957003951
 20
21.7777178342
 10
6.4010544547
 20
21.8120663381
 10
6.4098771115
 20
21.8473505259
 10
6.4220190449
 20
21.8829733446
 10
6.4372747625
 20
21.9183319951
 10
6.4553860677
 20
21.9528281342
 10
6.4760464568
 20
21.9858780581
 10
6.4989063093
 20
22.0169225618
 10
6.5235787817
 20
22.0454363666
 10
6.5496463734
 20
22.0709370383
 10
6.5766679953
 20
22.0929931452
 10
6.6041864233
 20
22.1112315444
  0
LWPOLYLINE
  5
44F
100
AcDbEntity
  8
RACCORDO
100
AcDbPolyline
 62
253
  6
CONTINUOUS
 90
10
 70
0
 10
6.5456077795
 20
23.521124843
 10
6.5463857165
 20
23.5312676088
 10
6.5486031132
 20
23.541208585
 10
6.5522599698
 20
23.5509477715
 10
6.5574108074
 20
23.5605624277
 10
6.5640011049
 20
23.5699752943
 10
6.5718672982
 20
23.5789545937
 10
6.5809548662
 20
23.5874230668
 10
6.59131833
 20
23.5954579728
 10
6.6029576897
 20
23.6030593116
  0
LWPOLYLINE
  5
450
100
AcDbEntity
  8
ASSI
100
AcDbPolyline
 62
253
  6
CONTINUOUS
 90
10
 70
0
 10
6.5456077795
 20
23.521124843
 10
6.5463857165
 20
23.5312676088
 10
6.5486031132
 20
23.541208585
 10
6.5522599698
 20
23.5509477715
 10
6.5574108074
 20
23.5605624277
 10
6.5640011049
 20
23.5699752943
 10
6.5718672982
 20
23.5789545937
 10
6.5809548662
 20
23.5874230668
 10
6.59131833
 20
23.5954579728
 10
6.6029576897
 20
23.6030593116
  0
LWPOLYLINE
  5
451
100
AcDbEntity
  8
RACCORDO
100
AcDbPolyline
 62
253
  6
CONTINUOUS
 90
13
 70
0
 10
6.2474589572
 20
23.2772619333
 10
6.2500055014
 20
23.3089693051
 10
6.2576018703
 20
23.3401382895
 10
6.2701190557
 20
23.3702397424
 10
6.2873445188
 20
23.3987626602
 10
6.3089857833
 20
23.4252228252
 10
6.3346753885
 20
23.4491710336
 10
6.3639771638
 20
23.4702007598
 10
6.3963936379
 20
23.4879550403
 10
6.4313744558
 20
23.5021325131
 10
6.4683257482
 20
23.5124925499
 10
6.5066202188
 20
23.5188593352
 10
6.5456077795
 20
23.521124843
  0
LWPOLYLINE
  5
452
100
AcDbEntity
  8
ASSI
100
AcDbPolyline
 62
253
  6
CONTINUOUS
 90
13
 70
0
 10
6.2474589572
 20
23.2772619333
 10
6.2500055014
 20
23.3089693051
 10
6.2576018703
 20
23.3401382895
 10
6.2701190557
 20
23.3702397424
 10
6.2873445188
 20
23.3987626602
 10
6.3089857833
 20
23.4252228252
 10
6.3346753885
 20
23.4491710336
 10
6.3639771638
 20
23.4702007598
 10
6.3963936379
 20
23.4879550403
 10
6.4313744558
 20
23.5021325131
 10
6.4683257482
 20
23.5124925499
 10
6.5066202188
 20
23.5188593352
 10
6.5456077795
 20
23.521124843
  0
LWPOLYLINE
  5
453
100
AcDbEntity
  8
RACCORDO
100
AcDbPolyline
 62
253
  6
CONTINUOUS
 90
13
 70
0
 10
6.2474589572
 20
21.9494409397
 10
6.2500054024
 20
21.9811477098
 10
6.2576015088
 20
22.0123162163
 10
6.2701183225
 20
22.0424173332
 10
6.2873433544
 20
22.0709400549
 10
6.3089841871
 20
22.097400171
 10
6.3346734394
 20
22.1213484866
 10
6.3639750027
 20
22.1423784479
 10
6.3963914448
 20
22.160133044
 10
6.4313724546
 20
22.1743108674
 10
6.4683241838
 20
22.1846712311
 10
6.5066193287
 20
22.1910382546
 10
6.5456077795
 20
22.1933038493
  0
LWPOLYLINE
  5
454
100
AcDbEntity
  8
ASSI
100
AcDbPolyline
 62
253
  6
CONTINUOUS
 90
13
 70
0
 10
6.2474589572
 20
21.9494409397
 10
6.2500054024
 20
21.9811477098
 10
6.2576015088
 20
22.0123162163
 10
6.2701183225
 20
22.0424173332
 10
6.2873433544
 20
22.0709400549
 10
6.3089841871
 20
22.097400171
 10
6.3346734394
 20
22.1213484866
 10
6.3639750027
 20
22.1423784479
 10
6.3963914448
 20
22.160133044
 10
6.4313724546
 20
22.1743108674
 10
6.4683241838
 20
22.1846712311
 10
6.5066193287
 20
22.1910382546
 10
6.5456077795
 20
22.1933038493
  0
LINE
  5
455
100
AcDbEntity
  8
CURVE
100
AcDbLine
 62
253
  6
CONTINUOUS
 10
-19.6324036095
 20
-21.6827163694
 11
-19.6272627135
 21
-21.6784113196
  0
LINE
  5
456
100
AcDbEntity
  8
CURVE
100
AcDbLine
 62
253
  6
CONTINUOUS
 10
-19.9074411487
 20
-21.2656957614
 11
-19.9125871961
 21
-21.2700022109
  0
LWPOLYLINE
  5
457
100
AcDbEntity
  8
ASSI
100
AcDbPolyline
 62
7
  6
CONTINUOUS
 90
20
 70
0
 10
19.8592644951
 20
6.9580437134
 10
19.9742644371
 20
7.0300218967
 10
20.0870789231
 20
7.1109763287
 10
20.1977079532
 20
7.2009070092
 10
20.3068376757
 20
7.3005105804
 10
20.4137819423
 20
7.4090904001
 10
20.5164823077
 20
7.5245565425
 10
20.6148565586
 20
7.64704241
 10
20.7089869084
 20
7.7764146002
 10
20.7970615519
 20
7.9101829788
 10
20.8789631773
 20
8.0484327093
 10
20.9548090964
 20
8.1910786284
 10
21.0231394398
 20
8.3353751113
 10
21.0838086149
 20
8.4813541331
 10
21.1369622143
 20
8.6289837187
 10
21.1815771465
 20
8.7754223189
 10
21.2174879994
 20
8.9206468617
 10
21.2448601851
 20
9.0646804191
 10
21.2631668483
 20
9.2047506574
 10
21.2722323707
 20
9.3407807987
  0
LWPOLYLINE
  5
458
100
AcDbEntity
  8
ASSI
100
AcDbPolyline
 62
7
  6
CONTINUOUS
 90
3
 70
0
 10
19.8592644951
 20
6.1415734366
 10
19.7442645531
 20
6.0695952533
 10
19.7052222927
 20
6.0415789575
  0
LINE
  5
459
100
AcDbEntity
  8
DRAFT
100
AcDbLine
 62
7
  6
CONTINUOUS
 10
23.7837071307
 20
8.1624656002
 11
20.4542613502
 21
6.2062372295
  0
LINE
  5
45A
100
AcDbEntity
  8
ASSI
100
AcDbLine
 62
7
  6
CONTINUOUS
 10
23.7837071307
 20
8.1624656002
 11
20.4542613502
 21
6.2062372295
  0
LINE
  5
45B
100
AcDbEntity
  8
DRAFT
100
AcDbLine
 62
7
  6
CONTINUOUS
 10
23.7837071307
 20
8.1624656002
 11
24.8443673025
 21
8.7748774902
  0
LINE
  5
45C
100
AcDbEntity
  8
ASSI
100
AcDbLine
 62
7
  6
CONTINUOUS
 10
23.7837071307
 20
8.1624656002
 11
24.8443673025
 21
8.7748774902
  0
LINE
  5
45D
100
AcDbEntity
  8
RACCORDO
100
AcDbLine
 62
253
  6
CONTINUOUS
 10
25.490011569
 20
8.4020905826
 11
21.0320265153
 21
5.8726428642
  0
LINE
  5
45E
100
AcDbEntity
  8
ASSI
100
AcDbLine
 62
253
  6
CONTINUOUS
 10
25.490011569
 20
8.4020905826
 11
21.0320265153
 21
5.8726428642
  0
LINE
  5
45F
100
AcDbEntity
  8
RACCORDO
100
AcDbLine
 62
253
  6
CONTINUOUS
 10
25.702151681
 20
8.0346624576
 11
21.2422992946
 21
5.5041552201
  0
LINE
  5
460
100
AcDbEntity
  8
ASSI
100
AcDbLine
 62
253
  6
CONTINUOUS
 10
25.702151681
 20
8.0346624576
 11
21.2422992946
 21
5.5041552201
  0
LWPOLYLINE
  5
461
100
AcDbEntity
  8
RACCORDO
100
AcDbPolyline
 62
253
  6
CONTINUOUS
 90
45
 70
0
 10
21.2422992946
 20
5.5041552201
 10
21.118599343
 20
5.4391321904
 10
20.9967588403
 20
5.3847484693
 10
20.8767777867
 20
5.341004057
 10
20.7580601645
 20
5.3078161053
 10
20.6412019912
 20
5.2852674624
 10
20.5279913198
 20
5.2736066724
 10
20.4185463085
 20
5.2730032442
 10
20.3127487989
 20
5.283287669
 10
20.2120323691
 20
5.3041999639
 10
20.1164694981
 20
5.3358680282
 10
20.0259877069
 20
5.3781639626
 10
19.9418031362
 20
5.4304440867
 10
19.863993131
 20
5.4928248381
 10
19.7924803462
 20
5.5651897791
 10
19.7282488877
 20
5.6465459167
 10
19.6713809894
 20
5.7370260092
 10
19.6217944172
 20
5.8364972982
 10
19.5802265753
 20
5.9435685156
 10
19.546789477
 20
6.0583614224
 10
19.521371109
 20
6.1807542577
 10
19.5043728354
 20
6.3089904708
 10
19.4959284432
 20
6.4431942599
 10
19.4959041455
 20
6.5832414268
 10
19.5042999455
 20
6.7270028273
 10
19.5212492952
 20
6.8745051758
 10
19.5466187425
 20
7.0257217579
 10
19.5800079346
 20
7.1784432854
 10
19.6215284207
 20
7.3326751749
 10
19.6710686517
 20
7.4884120099
 10
19.7278936275
 20
7.6434282517
 10
19.7920849747
 20
7.7976844747
 10
19.8635610667
 20
7.9512201045
 10
19.9413420248
 20
8.10192788
 10
20.0255062404
 20
8.2497812864
 10
20.1159753219
 20
8.3948068384
 10
20.2115342158
 20
8.5349768183
 10
20.3122560775
 20
8.6702462455
 10
20.4180677516
 20
8.8006601005
 10
20.527534718
 20
8.9243256081
 10
20.6407687783
 20
9.0412028884
 10
20.7576581309
 20
9.1513318211
 10
20.8764328513
 20
9.25293927
 10
20.9965029647
 20
9.3454341894
 10
21.1184584458
 20
9.4294076249
  0
LWPOLYLINE
  5
462
100
AcDbEntity
  8
ASSI
100
AcDbPolyline
 62
253
  6
CONTINUOUS
 90
45
 70
0
 10
21.2422992946
 20
5.5041552201
 10
21.118599343
 20
5.4391321904
 10
20.9967588403
 20
5.3847484693
 10
20.8767777867
 20
5.341004057
 10
20.7580601645
 20
5.3078161053
 10
20.6412019912
 20
5.2852674624
 10
20.5279913198
 20
5.2736066724
 10
20.4185463085
 20
5.2730032442
 10
20.3127487989
 20
5.283287669
 10
20.2120323691
 20
5.3041999639
 10
20.1164694981
 20
5.3358680282
 10
20.0259877069
 20
5.3781639626
 10
19.9418031362
 20
5.4304440867
 10
19.863993131
 20
5.4928248381
 10
19.7924803462
 20
5.5651897791
 10
19.7282488877
 20
5.6465459167
 10
19.6713809894
 20
5.7370260092
 10
19.6217944172
 20
5.8364972982
 10
19.5802265753
 20
5.9435685156
 10
19.546789477
 20
6.0583614224
 10
19.521371109
 20
6.1807542577
 10
19.5043728354
 20
6.3089904708
 10
19.4959284432
 20
6.4431942599
 10
19.4959041455
 20
6.5832414268
 10
19.5042999455
 20
6.7270028273
 10
19.5212492952
 20
6.8745051758
 10
19.5466187425
 20
7.0257217579
 10
19.5800079346
 20
7.1784432854
 10
19.6215284207
 20
7.3326751749
 10
19.6710686517
 20
7.4884120099
 10
19.7278936275
 20
7.6434282517
 10
19.7920849747
 20
7.7976844747
 10
19.8635610667
 20
7.9512201045
 10
19.9413420248
 20
8.10192788
 10
20.0255062404
 20
8.2497812864
 10
20.1159753219
 20
8.3948068384
 10
20.2115342158
 20
8.5349768183
 10
20.3122560775
 20
8.6702462455
 10
20.4180677516
 20
8.8006601005
 10
20.527534718
 20
8.9243256081
 10
20.6407687783
 20
9.0412028884
 10
20.7576581309
 20
9.1513318211
 10
20.8764328513
 20
9.25293927
 10
20.9965029647
 20
9.3454341894
 10
21.1184584458
 20
9.4294076249
  0
LWPOLYLINE
  5
463
100
AcDbEntity
  8
RACCORDO
100
AcDbPolyline
 62
253
  6
CONTINUOUS
 90
13
 70
0
 10
21.0320265153
 20
5.8726428642
 10
20.9237646463
 20
5.8157430313
 10
20.8162283182
 20
5.7679287149
 10
20.7099418234
 20
5.7293951158
 10
20.6054194237
 20
5.7002937118
 10
20.5031615119
 20
5.6807190993
 10
20.4036534364
 20
5.6707138443
 10
20.3073777914
 20
5.6702855624
 10
20.2147714422
 20
5.6793940446
 10
20.1262296538
 20
5.6979595625
 10
20.0421695478
 20
5.725865438
 10
19.9629775648
 20
5.7629524116
 10
19.9496173642
 20
5.7703889685
  0
LWPOLYLINE
  5
464
100
AcDbEntity
  8
ASSI
100
AcDbPolyline
 62
253
  6
CONTINUOUS
 90
13
 70
0
 10
21.0320265153
 20
5.8726428642
 10
20.9237646463
 20
5.8157430313
 10
20.8162283182
 20
5.7679287149
 10
20.7099418234
 20
5.7293951158
 10
20.6054194237
 20
5.7002937118
 10
20.5031615119
 20
5.6807190993
 10
20.4036534364
 20
5.6707138443
 10
20.3073777914
 20
5.6702855624
 10
20.2147714422
 20
5.6793940446
 10
20.1262296538
 20
5.6979595625
 10
20.0421695478
 20
5.725865438
 10
19.9629775648
 20
5.7629524116
 10
19.9495534445
 20
5.7704254323
  0
LWPOLYLINE
  5
465
100
AcDbEntity
  8
ASSI
100
AcDbPolyline
 62
7
  6
CONTINUOUS
 90
4
 70
0
 10
19.5946117039
 20
2.7529565545
 10
19.631450067
 20
2.7655505536
 10
19.7442645531
 20
2.8148714623
 10
19.8592644951
 20
2.8756923295
  0
LWPOLYLINE
  5
466
100
AcDbEntity
  8
ASSI
100
AcDbPolyline
 62
7
  6
CONTINUOUS
 90
6
 70
0
 10
20.4137819423
 20
6.3308695985
 10
20.3068376757
 20
6.3159528599
 10
20.1977079532
 20
6.2895361629
 10
20.0870789231
 20
6.2517152125
 10
19.9742644371
 20
6.2023943038
 10
19.8592644951
 20
6.1415734366
  0
LINE
  5
467
100
AcDbEntity
  8
ASSI
100
AcDbLine
 62
7
  6
CONTINUOUS
 10
20.5164823077
 20
6.3339992639
 11
20.4137819423
 21
6.3308695985
  0
LWPOLYLINE
  5
468
100
AcDbEntity
  8
RACCORDO
100
AcDbPolyline
 62
253
  6
CONTINUOUS
 90
17
 70
0
 10
-7.0025625271
 20
9.9200382751
 10
-7.0118684
 20
9.9250706289
 10
-7.0211459554
 20
9.9295311369
 10
-7.0303697538
 20
9.9334075646
 10
-7.0395145113
 20
9.9366892819
 10
-7.0485551433
 20
9.9393672824
 10
-7.0574668335
 20
9.9414342139
 10
-7.0662251403
 20
9.9428844096
 10
-7.0748060542
 20
9.9437138959
 10
-7.0831860386
 20
9.9439203998
 10
-7.0913421148
 20
9.9435033585
 10
-7.0992519215
 20
9.9424639186
 10
-7.1068937682
 20
9.9408049345
 10
-7.1142467111
 20
9.9385309557
 10
-7.1212905813
 20
9.9356482229
 10
-7.1280060411
 20
9.932164659
 10
-7.1287152922
 20
9.9317502642
  0
LWPOLYLINE
  5
469
100
AcDbEntity
  8
RACCORDO
100
AcDbPolyline
 62
253
  6
CONTINUOUS
 90
31
 70
0
 10
-5.8533261033
 20
8.5288995988
 10
-5.8438671329
 20
8.5237158575
 10
-5.8339528566
 20
8.5188239717
 10
-5.8236102528
 20
8.5142372532
 10
-5.8128674823
 20
8.5099681895
 10
-5.8017537632
 20
8.5060283907
 10
-5.7902992858
 20
8.5024285623
 10
-5.7785351804
 20
8.4991784957
 10
-5.76649349
 20
8.4962870514
 10
-5.7542070358
 20
8.4937621132
 10
-5.7417092714
 20
8.4916105552
 10
-5.7290341886
 20
8.4898382283
 10
-5.7162162802
 20
8.4884499555
 10
-5.7032904168
 20
8.4874495142
 10
-5.6902917837
 20
8.486839628
 10
-5.6772557853
 20
8.4866219566
 10
-5.6642179175
 20
8.4867970889
 10
-5.6512136382
 20
8.4873645449
 10
-5.6382783038
 20
8.4883227803
 10
-5.6254469982
 20
8.4896692014
 10
-5.6127547569
 20
8.4914001373
 10
-5.6002364279
 20
8.4935108205
 10
-5.5879262635
 20
8.4959954351
 10
-5.5758575327
 20
8.4988472249
 10
-5.5640627619
 20
8.5020584883
 10
-5.5525728994
 20
8.5056208652
 10
-5.5414204176
 20
8.509524355
 10
-5.5306386077
 20
8.5137571146
 10
-5.5202574186
 20
8.5183069255
 10
-5.5103037065
 20
8.5231615387
 10
-5.5008041436
 20
8.5283075182
  0
LWPOLYLINE
  5
46A
100
AcDbEntity
  8
RACCORDO
100
AcDbPolyline
 62
253
  6
CONTINUOUS
 90
31
 70
0
 10
-5.8533261033
 20
8.8494197717
 10
-5.8438659539
 20
8.8442354172
 10
-5.8339503673
 20
8.8393429798
 10
-5.8236063295
 20
8.8347557782
 10
-5.8128619812
 20
8.8304862963
 10
-5.8017465757
 20
8.8265461624
 10
-5.7902904022
 20
8.8229461144
 10
-5.7785246529
 20
8.8196959528
 10
-5.7664813455
 20
8.8168045206
 10
-5.754193273
 20
8.8142796894
 10
-5.7416938854
 20
8.81212833
 10
-5.7290172036
 20
8.8103562957
 10
-5.7161977377
 20
8.8089684083
 10
-5.7032703662
 20
8.807968442
 10
-5.690270291
 20
8.8073591182
 10
-5.6772329477
 20
8.8071420928
 10
-5.6641938763
 20
8.807317948
 10
-5.6511885114
 20
8.8078861964
 10
-5.638252137
 20
8.8088452943
 10
-5.6254197979
 20
8.8101926546
 10
-5.6127265908
 20
8.8119246031
 10
-5.6002074415
 20
8.8140363593
 10
-5.5878966449
 20
8.8165220925
 10
-5.5758274401
 20
8.8193750448
 10
-5.5640323223
 20
8.8225875176
 10
-5.5525408998
 20
8.826151591
 10
-5.5413870833
 20
8.8300568952
 10
-5.5306079277
 20
8.8342900219
 10
-5.5202341617
 20
8.8388378556
 10
-5.5102908577
 20
8.8436883174
 10
-5.5008041436
 20
8.848827691
  0
LWPOLYLINE
  5
46B
100
AcDbEntity
  8
RACCORDO
100
AcDbPolyline
 62
253
  6
CONTINUOUS
 90
31
 70
0
 10
-19.2176442677
 20
16.2452894127
 10
-19.2081852974
 20
16.2401056714
 10
-19.198271021
 20
16.2352137856
 10
-19.1879284172
 20
16.2306270671
 10
-19.1771856468
 20
16.2263580034
 10
-19.1660719276
 20
16.2224182045
 10
-19.1546174502
 20
16.2188183761
 10
-19.1428533448
 20
16.2155683096
 10
-19.1308116545
 20
16.2126768653
 10
-19.1185252002
 20
16.2101519271
 10
-19.1060274358
 20
16.2080003691
 10
-19.093352353
 20
16.2062280422
 10
-19.0805344446
 20
16.2048397694
 10
-19.0676085812
 20
16.2038393281
 10
-19.0546099481
 20
16.2032294419
 10
-19.0415739498
 20
16.2030117705
 10
-19.0285360819
 20
16.2031869028
 10
-19.0155318027
 20
16.2037543588
 10
-19.0025964682
 20
16.2047125942
 10
-18.9897651626
 20
16.2060590152
 10
-18.9770729214
 20
16.2077899511
 10
-18.9645545923
 20
16.2099006344
 10
-18.952244428
 20
16.2123852489
 10
-18.9401756972
 20
16.2152370388
 10
-18.9283809263
 20
16.2184483022
 10
-18.9168910638
 20
16.222010679
 10
-18.905738582
 20
16.2259141689
 10
-18.8949567721
 20
16.2301469285
 10
-18.884575583
 20
16.2346967394
 10
-18.8746218709
 20
16.2395513526
 10
-18.865122308
 20
16.2446973321
  0
LWPOLYLINE
  5
46C
100
AcDbEntity
  8
RACCORDO
100
AcDbPolyline
 62
253
  6
CONTINUOUS
 90
31
 70
0
 10
-19.2176442677
 20
16.5658095855
 10
-19.2082088566
 20
16.5606380985
 10
-19.1983140641
 20
16.5557541037
 10
-19.187985906
 20
16.5511713922
 10
-19.1772494175
 20
16.5469021352
 10
-19.1661351582
 20
16.5429595087
 10
-19.1546798694
 20
16.5393569701
 10
-19.142917282
 20
16.5361049834
 10
-19.1308769944
 20
16.5332115914
 10
-19.1185914463
 20
16.5306846057
 10
-19.1060938245
 20
16.5285308961
 10
-19.0934183506
 20
16.5267564027
 10
-19.0805998795
 20
16.525366019
 10
-19.067673462
 20
16.524363536
 10
-19.054674123
 20
16.5237516594
 10
-19.0416371308
 20
16.523532051
 10
-19.0285979147
 20
16.5237053169
 10
-19.0155920183
 20
16.5242709942
 10
-19.0026548898
 20
16.5252275456
 10
-18.9898217564
 20
16.5265723685
 10
-18.9771275341
 20
16.5283018058
 10
-18.9646067806
 20
16.5304111517
 10
-18.9522935743
 20
16.5328946673
 10
-18.9402214333
 20
16.5357455945
 10
-18.9284232285
 20
16.5389561721
 10
-18.9169310656
 20
16.5425176649
 10
-18.9057762342
 20
16.5464203777
 10
-18.8949891297
 20
16.5506536751
 10
-18.8845991208
 20
16.5552060278
 10
-18.8746344738
 20
16.5600650469
 10
-18.865122308
 20
16.5652175049
  0
LINE
  5
46D
100
AcDbEntity
  8
ASSI
100
AcDbLine
 62
7
  6
CONTINUOUS
 10
-20.6865074628
 20
15.8071604339
 11
-18.5719890624
 21
14.5862640106
  0
LINE
  5
46E
100
AcDbEntity
  8
ASSI
100
AcDbLine
 62
7
  6
CONTINUOUS
 10
-15.7435619377
 20
12.9531656373
 11
-10.6523931131
 21
10.0135885654
  0
LINE
  5
46F
100
AcDbEntity
  8
ASSI
100
AcDbLine
 62
7
  6
CONTINUOUS
 10
-7.8239659884
 20
8.3804901921
 11
-5.709447588
 21
7.1595937688
  0
LINE
  5
470
100
AcDbEntity
  8
RACCORDO
100
AcDbLine
 62
7
  6
CONTINUOUS
 10
-5.6819575215
 20
7.143721349
 11
-7.8946766665
 21
8.4213176514
  0
LINE
  5
471
100
AcDbEntity
  8
0
100
AcDbLine
 62
7
  6
CONTINUOUS
 10
-7.8946766665
 20
8.4213176514
 11
-18.5012783843
 21
14.5454365513
  0
LINE
  5
472
100
AcDbEntity
  8
RACCORDO
100
AcDbLine
 62
7
  6
CONTINUOUS
 10
-18.5012783843
 20
14.5454365513
 11
-20.7139975292
 21
15.8230328537
  0
LINE
  5
473
100
AcDbEntity
  8
0
100
AcDbLine
 62
253
  6
CONTINUOUS
 10
22.6876916198
 20
-8.600566687
 11
22.2634275511
 21
-8.355601931
  0
LINE
  5
474
100
AcDbEntity
  8
RACCORDO
100
AcDbLine
 62
7
  6
CONTINUOUS
 10
-19.8396359932
 20
16.1775260419
 11
-18.5064236596
 21
15.4077459495
  0
LINE
  5
475
100
AcDbEntity
  8
RACCORDO
100
AcDbLine
 62
7
  6
CONTINUOUS
 10
-6.4753178288
 20
8.461136228
 11
-5.1421054952
 21
7.6913561356
  0
LINE
  5
476
100
AcDbEntity
  8
RACCORDO
100
AcDbLine
 62
7
  6
CONTINUOUS
 10
-20.4908582922
 20
16.8958847456
 11
-19.1658736124
 21
16.1308551974
  0
LINE
  5
477
100
AcDbEntity
  8
RACCORDO
100
AcDbLine
 62
7
  6
CONTINUOUS
 10
-7.1265401278
 20
9.1794949317
 11
-5.801555448
 21
8.4144653835
  0
LINE
  5
478
100
AcDbEntity
  8
RACCORDO
100
AcDbLine
 62
253
  6
CONTINUOUS
 10
-20.5426289475
 20
17.0103189609
 11
-19.2176442677
 21
16.2452894127
  0
LINE
  5
479
100
AcDbEntity
  8
RACCORDO
100
AcDbLine
 62
253
  6
CONTINUOUS
 10
-7.1783107831
 20
9.293929147
 11
-5.8533261033
 21
8.5288995988
  0
LINE
  5
47A
100
AcDbEntity
  8
RACCORDO
100
AcDbLine
 62
7
  6
CONTINUOUS
 10
-9.3816638038
 20
10.5688932592
 11
-14.8929709034
 21
13.7510529057
  0
LINE
  5
47B
100
AcDbEntity
  8
RACCORDO
100
AcDbLine
 62
253
  6
CONTINUOUS
 10
-5.8533261033
 20
8.8494197717
 11
-7.1783107831
 21
9.6144493198
  0
LINE
  5
47C
100
AcDbEntity
  8
RACCORDO
100
AcDbLine
 62
253
  6
CONTINUOUS
 10
-19.2176442677
 20
16.5658095855
 11
-20.5426289475
 21
17.3308391337
  0
LINE
  5
47D
100
AcDbEntity
  8
RACCORDO
100
AcDbLine
 62
253
  6
CONTINUOUS
 10
-5.6775778473
 20
9.1550087269
 11
-7.0025625271
 21
9.9200382751
  0
LINE
  5
47E
100
AcDbEntity
  8
RACCORDO
100
AcDbLine
 62
253
  6
CONTINUOUS
 10
-19.0418960117
 20
16.8713985408
 11
-20.3668806915
 21
17.636428089
  0
LINE
  5
47F
100
AcDbEntity
  8
RACCORDO
100
AcDbLine
 62
7
  6
CONTINUOUS
 10
-3.8836807696
 20
8.2537653419
 11
-3.8995233528
 21
8.2629126509
  0
LINE
  5
480
100
AcDbEntity
  8
DRAFT
100
AcDbLine
 62
7
  6
CONTINUOUS
 10
-6.961241952
 20
10.0307105977
 11
-8.3189407352
 21
10.8146288592
  0
LINE
  5
481
100
AcDbEntity
  8
DRAFT
100
AcDbLine
 62
7
  6
CONTINUOUS
 10
-15.0394175128
 20
14.6949479232
 11
-17.2638415172
 21
15.9793024648
  0
LINE
  5
482
100
AcDbEntity
  8
RACCORDO
100
AcDbLine
 62
253
  6
CONTINUOUS
 10
-9.3816638038
 20
11.5876441538
 11
-14.8929709034
 21
14.7698038003
  0
LINE
  5
483
100
AcDbEntity
  8
RACCORDO
100
AcDbLine
 62
253
  6
CONTINUOUS
 10
-8.9588414239
 20
11.6691628474
 11
-15.0345960737
 21
15.1772274351
  0
LINE
  5
484
100
AcDbEntity
  8
RACCORDO
100
AcDbLine
 62
253
  6
CONTINUOUS
 10
-19.1659368288
 20
16.1308917347
 11
-19.1658728842
 21
16.130854777
  0
LINE
  5
485
100
AcDbEntity
  8
RACCORDO
100
AcDbLine
 62
253
  6
CONTINUOUS
 10
-5.8016186644
 20
8.4145019208
 11
-5.8015547198
 21
8.4144649631
  0
LWPOLYLINE
  5
486
100
AcDbEntity
  8
RACCORDO
100
AcDbPolyline
 62
7
  6
CONTINUOUS
 90
21
 70
0
 10
-20.4908083913
 20
16.8958559564
 10
-20.4942822548
 20
16.8978981566
 10
-20.5054883491
 20
16.9050189647
 10
-20.5163084749
 20
16.9127305907
 10
-20.5266932358
 20
16.9209974915
 10
-20.536619239
 20
16.9297989014
 10
-20.5460837908
 20
16.9391346367
 10
-20.5550570149
 20
16.9489814971
 10
-20.5635039466
 20
16.9593065598
 10
-20.5714104759
 20
16.970099814
 10
-20.5787494777
 20
16.9813350576
 10
-20.585490582
 20
16.9929765375
 10
-20.591613301
 20
17.0050006973
 10
-20.597092333
 20
17.0173716897
 10
-20.6019057848
 20
17.0300545679
 10
-20.6060376622
 20
17.0430264613
 10
-20.6094687749
 20
17.0562539308
 10
-20.6121794359
 20
17.0696919593
 10
-20.6141541724
 20
17.0832988408
 10
-20.6153798947
 20
17.0970267625
 10
-20.6158474394
 20
17.1108364175
  0
LWPOLYLINE
  5
487
100
AcDbEntity
  8
RACCORDO
100
AcDbPolyline
 62
7
  6
CONTINUOUS
 90
21
 70
0
 10
-7.1264902269
 20
9.1794661425
 10
-7.1299640904
 20
9.1815083427
 10
-7.1411701846
 20
9.1886291508
 10
-7.1519903105
 20
9.1963407768
 10
-7.1623750714
 20
9.2046076776
 10
-7.1723010746
 20
9.2134090875
 10
-7.1817656264
 20
9.2227448228
 10
-7.1907388505
 20
9.2325916832
 10
-7.1991857822
 20
9.242916746
 10
-7.2070923115
 20
9.2537100001
 10
-7.2144313133
 20
9.2649452437
 10
-7.2211724176
 20
9.2765867236
 10
-7.2272951366
 20
9.2886108834
 10
-7.2327741686
 20
9.3009818758
 10
-7.2375876204
 20
9.313664754
 10
-7.2417194977
 20
9.3266366474
 10
-7.2451506104
 20
9.3398641169
 10
-7.2478612714
 20
9.3533021454
 10
-7.2498360079
 20
9.3669090269
 10
-7.2510617303
 20
9.3806369486
 10
-7.251529275
 20
9.3944466036
  0
LWPOLYLINE
  5
488
100
AcDbEntity
  8
RACCORDO
100
AcDbPolyline
 62
253
  6
CONTINUOUS
 90
16
 70
0
 10
-20.5426289475
 20
17.0103189609
 10
-20.5516068724
 20
17.0157804518
 10
-20.5600793213
 20
17.0215048307
 10
-20.568023239
 20
17.0274765205
 10
-20.5754169978
 20
17.0336792615
 10
-20.58224049
 20
17.0400961837
 10
-20.588475174
 20
17.0467098554
 10
-20.5941040917
 20
17.0535023024
 10
-20.5991118975
 20
17.0604550235
 10
-20.6034849369
 20
17.0675490682
 10
-20.6072113047
 20
17.0747651207
 10
-20.6102808672
 20
17.0820835547
 10
-20.6126852712
 20
17.0894844543
 10
-20.6144179748
 20
17.0969476859
 10
-20.6154742607
 20
17.1044529337
 10
-20.6158522522
 20
17.1123876107
  0
LWPOLYLINE
  5
489
100
AcDbEntity
  8
RACCORDO
100
AcDbPolyline
 62
253
  6
CONTINUOUS
 90
16
 70
0
 10
-20.5426289475
 20
17.3308391337
 10
-20.5516079344
 20
17.3363013054
 10
-20.5600813386
 20
17.3420264408
 10
-20.5680260929
 20
17.3479989586
 10
-20.5754205761
 20
17.3542026106
 10
-20.5822446485
 20
17.3606205065
 10
-20.5884797129
 20
17.3672351575
 10
-20.5941087952
 20
17.3740285537
 10
-20.59911658
 20
17.3809822084
 10
-20.6034894341
 20
17.3880771875
 10
-20.6072154579
 20
17.3952941772
 10
-20.6102845136
 20
17.4026135344
 10
-20.6126882503
 20
17.4100153334
 10
-20.6144201311
 20
17.4174794357
 10
-20.615475443
 20
17.4249855161
 10
-20.6158522522
 20
17.4329077854
  0
LWPOLYLINE
  5
48A
100
AcDbEntity
  8
RACCORDO
100
AcDbPolyline
 62
253
  6
CONTINUOUS
 90
16
 70
0
 10
-7.1783107831
 20
9.293929147
 10
-7.1872887079
 20
9.2993906379
 10
-7.1957611569
 20
9.3051150168
 10
-7.2037050746
 20
9.3110867066
 10
-7.2110988334
 20
9.3172894476
 10
-7.2179223255
 20
9.3237063698
 10
-7.2241570095
 20
9.3303200415
 10
-7.2297859272
 20
9.3371124885
 10
-7.234793733
 20
9.3440652096
 10
-7.2391667725
 20
9.3511592543
 10
-7.2428931402
 20
9.3583753068
 10
-7.2459627027
 20
9.3656937408
 10
-7.2483671067
 20
9.3730946405
 10
-7.2500998104
 20
9.380557872
 10
-7.2511560963
 20
9.3880631198
 10
-7.2515340878
 20
9.3959977968
  0
LWPOLYLINE
  5
48B
100
AcDbEntity
  8
RACCORDO
100
AcDbPolyline
 62
253
  6
CONTINUOUS
 90
16
 70
0
 10
-7.1783107831
 20
9.6144493198
 10
-7.1872878503
 20
9.619910261
 10
-7.1957595429
 20
9.6256340398
 10
-7.2037028123
 20
9.6316050837
 10
-7.2110960473
 20
9.6378071475
 10
-7.2179191336
 20
9.6442233575
 10
-7.2241535076
 20
9.6508362572
 10
-7.2297822078
 20
9.6576278551
 10
-7.2347899202
 20
9.6645796736
 10
-7.2391630207
 20
9.671672799
 10
-7.2428896114
 20
9.6788879332
 10
-7.2459595534
 20
9.6862054464
 10
-7.2483644945
 20
9.6936054299
 10
-7.2500978917
 20
9.7010677509
 10
-7.2511550289
 20
9.7085721068
 10
-7.2515340878
 20
9.7165179682
  0
LWPOLYLINE
  5
48C
100
AcDbEntity
  8
RACCORDO
100
AcDbPolyline
 62
7
  6
CONTINUOUS
 90
10
 70
0
 10
6.2474589572
 20
21.2230530013
 10
6.2494798762
 20
21.1975772874
 10
6.2551612707
 20
21.1726657118
 10
6.2645031407
 20
21.1483182745
 10
6.2776358113
 20
21.124355896
 10
6.2944289575
 20
21.1009576559
 10
6.3144916036
 20
21.0786607928
 10
6.3376934246
 20
21.0576443863
 10
6.3641647456
 20
21.0377293569
 10
6.3939055667
 20
21.0189157046
  0
LWPOLYLINE
  5
48D
100
AcDbEntity
  8
ASSI
100
AcDbPolyline
 62
7
  6
CONTINUOUS
 90
10
 70
0
 10
6.2474589572
 20
21.2230530013
 10
6.2494798762
 20
21.1975772874
 10
6.2551612707
 20
21.1726657118
 10
6.2645031407
 20
21.1483182745
 10
6.2776358113
 20
21.124355896
 10
6.2944289575
 20
21.1009576559
 10
6.3144916036
 20
21.0786607928
 10
6.3376934246
 20
21.0576443863
 10
6.3641647456
 20
21.0377293569
 10
6.3939055667
 20
21.0189157046
  0
LWPOLYLINE
  5
48E
100
AcDbEntity
  8
ASSI
100
AcDbPolyline
 62
7
  6
CONTINUOUS
 90
55
 70
0
 10
6.9545657384
 20
24.4431117581
 10
6.9543518523
 20
24.4601191946
 10
6.9537150403
 20
24.4773280992
 10
6.9526553025
 20
24.4947384719
 10
6.9511710276
 20
24.5123653761
 10
6.9492638268
 20
24.5301937484
 10
6.9469385344
 20
24.5481783988
 10
6.9441940898
 20
24.5663197238
 10
6.9410315537
 20
24.5846173268
 10
6.9374589421
 20
24.6030248286
 10
6.9334752148
 20
24.6215425079
 10
6.9290814121
 20
24.6401700859
 10
6.9242886711
 20
24.6588603469
 10
6.9190959797
 20
24.6776134498
 10
6.9135043499
 20
24.6964292356
 10
6.907527955
 20
24.7152600116
 10
6.901165819
 20
24.7341058157
 10
6.8944189178
 20
24.7529666098
 10
6.8873043531
 20
24.7717945872
 10
6.8798211921
 20
24.7905896645
 10
6.8719703676
 20
24.809351925
 10
6.8637717792
 20
24.8280338116
 10
6.8552245446
 20
24.8466351202
 10
6.8463295462
 20
24.8651560549
 10
6.8371093303
 20
24.8835496702
 10
6.8275630718
 20
24.901815643
 10
6.8176915958
 20
24.9199542963
 10
6.8075199238
 20
24.9379196538
 10
6.7970472942
 20
24.9557112757
 10
6.7862744685
 20
24.9733296016
 10
6.7752287529
 20
24.990729974
 10
6.7639094552
 20
25.00791184
 10
6.7523172676
 20
25.0248757524
 10
6.740481573
 20
25.0415787125
 10
6.7284017539
 20
25.0580200581
 10
6.7160784278
 20
25.0742004514
 10
6.7035428311
 20
25.0900788795
 10
6.6907944252
 20
25.1056545763
 10
6.6778337487
 20
25.1209283079
 10
6.6646936533
 20
25.1358613596
 10
6.6513736838
 20
25.1504528671
 10
6.6378742954
 20
25.1647036947
 10
6.6242297053
 20
25.1785777204
 10
6.6104395451
 20
25.1920739884
 10
6.5965041833
 20
25.2051934546
 10
6.5824589421
 20
25.2179028647
 10
6.5683035428
 20
25.2302011784
 10
6.5540382641
 20
25.2420894361
 10
6.5396992646
 20
25.2535375042
 10
6.5252863572
 20
25.2645442661
 10
6.5107997291
 20
25.2751108385
 10
6.4962760997
 20
25.285210438
 10
6.4817277089
 20
25.2948341368
 10
6.467142317
 20
25.3039908628
 10
6.4525199238
 20
25.3126806159
  0
LINE
  5
48F
100
AcDbEntity
  8
RACCORDO
100
AcDbLine
 62
7
  6
CONTINUOUS
 10
6.2474589572
 20
21.2230530013
 11
6.2474589572
 21
23.2772619333
  0
LINE
  5
490
100
AcDbEntity
  8
ASSI
100
AcDbLine
 62
7
  6
CONTINUOUS
 10
6.2474589572
 20
21.2230530013
 11
6.2474589572
 21
23.2772619333
  0
LINE
  5
491
100
AcDbEntity
  8
RACCORDO
100
AcDbLine
 62
253
  6
CONTINUOUS
 10
6.3939055667
 20
21.0189157046
 11
6.3939055667
 21
21.7448862568
  0
LINE
  5
492
100
AcDbEntity
  8
ASSI
100
AcDbLine
 62
253
  6
CONTINUOUS
 10
6.3939055667
 20
21.0189157046
 11
6.3939055667
 21
21.7448862568
  0
LINE
  5
493
100
AcDbEntity
  8
RACCORDO
100
AcDbLine
 62
253
  6
CONTINUOUS
 10
6.5456077795
 20
22.1933038493
 11
6.5456077795
 21
23.521124843
  0
LINE
  5
494
100
AcDbEntity
  8
ASSI
100
AcDbLine
 62
253
  6
CONTINUOUS
 10
6.5456077795
 20
22.1933038493
 11
6.5456077795
 21
23.521124843
  0
LINE
  5
495
100
AcDbEntity
  8
0
100
AcDbLine
 62
7
  6
CONTINUOUS
 10
7.3434744681
 20
-15.13198513
 11
7.3434744681
 21
-14.3527143013
  0
LINE
  5
496
100
AcDbEntity
  8
ASSI
100
AcDbLine
 62
7
  6
CONTINUOUS
 10
7.4141851462
 20
-15.5957182744
 11
7.4141851462
 21
-17.3327795202
  0
LINE
  5
497
100
AcDbEntity
  8
0
100
AcDbLine
 62
7
  6
CONTINUOUS
 10
7.8384492149
 20
-17.1743331469
 11
7.8384492149
 21
-14.066922086
  0
LWPOLYLINE
  5
498
100
AcDbEntity
  8
0
100
AcDbPolyline
 62
7
  6
CONTINUOUS
 90
8
 70
0
 10
7.4141851462
 20
-17.3327795202
 10
7.4130398734
 20
-17.3867277648
 10
7.4096803238
 20
-17.4390191243
 10
7.4041064975
 20
-17.4896535988
 10
7.3962983155
 20
-17.5387296168
 10
7.3862758567
 20
-17.5861487498
 10
7.374099358
 20
-17.6316157114
 10
7.3597464476
 20
-17.6751376706
  0
LWPOLYLINE
  5
499
100
AcDbEntity
  8
RACCORDO
100
AcDbPolyline
 62
253
  6
CONTINUOUS
 90
13
 70
0
 10
8.9294394726
 20
20.2809007572
 10
8.9312342114
 20
20.3137316331
 10
8.9365880589
 20
20.3480794983
 10
8.9454104229
 20
20.3833631541
 10
8.9575520206
 20
20.4189855671
 10
8.9728074044
 20
20.4543439721
 10
8.9909184386
 20
20.4888400708
 10
9.0115786672
 20
20.5218901562
 10
9.0344384993
 20
20.5529349891
 10
9.0591111247
 20
20.5814492613
 10
9.0851790588
 20
20.6069504839
 10
9.1122012072
 20
20.6290071517
 10
9.1397203292
 20
20.6472460448
  0
LWPOLYLINE
  5
49A
100
AcDbEntity
  8
ASSI
100
AcDbPolyline
 62
253
  6
CONTINUOUS
 90
13
 70
0
 10
8.9294394726
 20
20.2809007572
 10
8.9312342114
 20
20.3137316331
 10
8.9365880589
 20
20.3480794983
 10
8.9454104229
 20
20.3833631541
 10
8.9575520206
 20
20.4189855671
 10
8.9728074044
 20
20.4543439721
 10
8.9909184386
 20
20.4888400708
 10
9.0115786672
 20
20.5218901562
 10
9.0344384993
 20
20.5529349891
 10
9.0591111247
 20
20.5814492613
 10
9.0851790588
 20
20.6069504839
 10
9.1122012072
 20
20.6290071517
 10
9.1397203292
 20
20.6472460448
  0
LWPOLYLINE
  5
49B
100
AcDbEntity
  8
RACCORDO
100
AcDbPolyline
 62
253
  6
CONTINUOUS
 90
31
 70
0
 10
-3.371256181
 20
-29.1856297811
 10
-3.3669130397
 20
-29.1735885379
 10
-3.3630652307
 20
-29.1613001632
 10
-3.359723662
 20
-29.1487979715
 10
-3.3568976377
 20
-29.1361147281
 10
-3.3545956378
 20
-29.1232860719
 10
-3.3528248054
 20
-29.1103505367
 10
-3.3515900744
 20
-29.0973447674
 10
-3.3508946115
 20
-29.0843029839
 10
-3.3507403187
 20
-29.0712604776
 10
-3.3511276685
 20
-29.0582526544
 10
-3.3520556503
 20
-29.0453152622
 10
-3.3535217266
 20
-29.0324839614
 10
-3.3555218723
 20
-29.019793914
 10
-3.3580506352
 20
-29.007279664
 10
-3.3611011164
 20
-28.994975363
 10
-3.3646649937
 20
-28.9829146013
 10
-3.3687325321
 20
-28.9711303431
 10
-3.3732926133
 20
-28.9596548057
 10
-3.3783327779
 20
-28.9485193421
 10
-3.3838392625
 20
-28.9377543584
 10
-3.3897970267
 20
-28.9273892583
 10
-3.3961898071
 20
-28.9174523386
 10
-3.4030001339
 20
-28.9079707568
 10
-3.4102093718
 20
-28.8989704507
 10
-3.4177978012
 20
-28.8904760211
 10
-3.4257447113
 20
-28.8825106349
 10
-3.4340284282
 20
-28.87509601
 10
-3.4426263388
 20
-28.8682523883
 10
-3.4515149475
 20
-28.8619984724
 10
-3.4606699764
 20
-28.8563513436
  0
LINE
  5
49C
100
AcDbEntity
  8
CURVE
100
AcDbLine
 62
253
  6
CONTINUOUS
 10
-19.6378591382
 20
-21.686553243
 11
-19.6324036095
 21
-21.6827163694
  0
LINE
  5
49D
100
AcDbEntity
  8
CURVE
100
AcDbLine
 62
253
  6
CONTINUOUS
 10
-19.9017098468
 20
-21.261667446
 11
-19.9074411487
 21
-21.2656957614
  0
LWPOLYLINE
  5
49E
100
AcDbEntity
  8
ASSI
100
AcDbPolyline
 62
7
  6
CONTINUOUS
 90
20
 70
0
 10
19.8592644951
 20
2.8756923295
 10
19.9742644371
 20
2.9476705128
 10
20.0870789231
 20
3.0286249447
 10
20.1977079532
 20
3.1185556252
 10
20.3068376757
 20
3.2181591964
 10
20.4137819423
 20
3.3267390162
 10
20.5164823077
 20
3.4422051585
 10
20.6148565586
 20
3.5646910261
 10
20.7089869084
 20
3.6940632162
 10
20.7970615519
 20
3.8278315948
 10
20.8789631773
 20
3.9660813254
 10
20.9548090964
 20
4.1087272444
 10
21.0231394398
 20
4.2530237274
 10
21.0838086149
 20
4.3990027491
 10
21.1369622143
 20
4.5466323348
 10
21.1815771465
 20
4.693070935
 10
21.2174879994
 20
4.8382954778
 10
21.2448601851
 20
4.9823290351
 10
21.2631668483
 20
5.1223992734
 10
21.2722323707
 20
5.2584294147
  0
LINE
  5
49F
100
AcDbEntity
  8
RACCORDO
100
AcDbLine
 62
253
  6
CONTINUOUS
 10
21.1184584458
 20
5.3470562409
 11
21.2422992946
 21
5.4225081925
  0
LINE
  5
4A0
100
AcDbEntity
  8
ASSI
100
AcDbLine
 62
253
  6
CONTINUOUS
 10
21.1184584458
 20
5.3470562409
 11
21.2422992946
 21
5.4225081925
  0
LINE
  5
4A1
100
AcDbEntity
  8
RACCORDO
100
AcDbLine
 62
7
  6
CONTINUOUS
 10
21.1261436249
 20
5.2534218976
 11
21.1800235229
 21
5.2850934664
  0
LINE
  5
4A2
100
AcDbEntity
  8
ASSI
100
AcDbLine
 62
7
  6
CONTINUOUS
 10
21.1264483102
 20
5.2536009971
 11
21.1800228464
 21
5.2850930831
  0
LINE
  5
4A3
100
AcDbEntity
  8
0
100
AcDbLine
 62
7
  6
CONTINUOUS
 10
19.6007122256
 20
2.3181723511
 11
22.6876916198
 21
4.1005555644
  0
LINE
  5
4A4
100
AcDbEntity
  8
DRAFT
100
AcDbLine
 62
7
  6
CONTINUOUS
 10
23.7837071307
 20
4.0801142163
 11
24.8443673025
 21
4.6925261063
  0
LINE
  5
4A5
100
AcDbEntity
  8
ASSI
100
AcDbLine
 62
7
  6
CONTINUOUS
 10
23.7837071307
 20
4.0801142163
 11
24.8443673025
 21
4.6925261063
  0
LINE
  5
4A6
100
AcDbEntity
  8
RACCORDO
100
AcDbLine
 62
253
  6
CONTINUOUS
 10
21.2422992946
 20
5.4225081925
 11
25.702151681
 21
7.9530154299
  0
LINE
  5
4A7
100
AcDbEntity
  8
ASSI
100
AcDbLine
 62
253
  6
CONTINUOUS
 10
21.2422992946
 20
5.4225081925
 11
25.702151681
 21
7.9530154299
  0
LINE
  5
4A8
100
AcDbEntity
  8
RACCORDO
100
AcDbLine
 62
7
  6
CONTINUOUS
 10
21.1800745249
 20
5.2851298853
 11
25.6393581726
 21
7.8153144221
  0
LINE
  5
4A9
100
AcDbEntity
  8
ASSI
100
AcDbLine
 62
7
  6
CONTINUOUS
 10
21.1800745249
 20
5.2851298853
 11
25.6393581726
 21
7.8153144221
  0
LWPOLYLINE
  5
4AA
100
AcDbEntity
  8
RACCORDO
100
AcDbPolyline
 62
253
  6
CONTINUOUS
 90
13
 70
0
 10
21.0320265153
 20
1.7902914803
 10
20.9237646463
 20
1.7333916473
 10
20.8162283182
 20
1.6855773309
 10
20.7099418234
 20
1.6470437318
 10
20.6054194237
 20
1.6179423278
 10
20.5031615119
 20
1.5983677153
 10
20.4036534364
 20
1.5883624603
 10
20.3073777914
 20
1.5879341784
 10
20.2147714422
 20
1.5970426607
 10
20.1262296538
 20
1.6156081785
 10
20.0421695478
 20
1.6435140541
 10
19.9629775648
 20
1.6806010276
 10
19.9496173642
 20
1.6880375846
  0
LWPOLYLINE
  5
4AB
100
AcDbEntity
  8
ASSI
100
AcDbPolyline
 62
253
  6
CONTINUOUS
 90
13
 70
0
 10
21.0320265153
 20
1.7902914803
 10
20.9237646463
 20
1.7333916473
 10
20.8162283182
 20
1.6855773309
 10
20.7099418234
 20
1.6470437318
 10
20.6054194237
 20
1.6179423278
 10
20.5031615119
 20
1.5983677153
 10
20.4036534364
 20
1.5883624603
 10
20.3073777914
 20
1.5879341784
 10
20.2147714422
 20
1.5970426607
 10
20.1262296538
 20
1.6156081785
 10
20.0421695478
 20
1.6435140541
 10
19.9629775648
 20
1.6806010276
 10
19.9495534445
 20
1.6880740483
  0
LWPOLYLINE
  5
4AC
100
AcDbEntity
  8
ASSI
100
AcDbPolyline
 62
7
  6
CONTINUOUS
 90
6
 70
0
 10
20.4137819423
 20
10.4132209825
 10
20.3068376757
 20
10.3983042439
 10
20.1977079532
 20
10.3718875469
 10
20.0870789231
 20
10.3340665965
 10
19.9742644371
 20
10.2847456877
 10
19.8592644951
 20
10.2239248206
  0
LINE
  5
4AD
100
AcDbEntity
  8
0
100
AcDbLine
 62
7
  6
CONTINUOUS
 10
-8.7432048039
 20
8.4213176514
 11
-7.8946766665
 21
8.4213176514
  0
LINE
  5
4AE
100
AcDbEntity
  8
RACCORDO
100
AcDbLine
 62
7
  6
CONTINUOUS
 10
-5.6994727184
 20
8.3820214218
 11
-5.0715400058
 21
8.3242006543
  0
LINE
  5
4AF
100
AcDbEntity
  8
RACCORDO
100
AcDbLine
 62
253
  6
CONTINUOUS
 10
-5.5008041436
 20
8.5283075182
 11
-4.7895835355
 21
8.4628175053
  0
LWPOLYLINE
  5
4B0
100
AcDbEntity
  8
RACCORDO
100
AcDbPolyline
 62
7
  6
CONTINUOUS
 90
9
 70
0
 10
-5.6994727184
 20
8.3820214218
 10
-5.7128745346
 20
8.3836213774
 10
-5.7262254321
 20
8.3859533795
 10
-5.7394716537
 20
8.3890162044
 10
-5.7525761201
 20
8.3928087658
 10
-5.7654620691
 20
8.3973135056
 10
-5.7780266148
 20
8.4024898532
 10
-5.7902128284
 20
8.4083011863
 10
-5.8016186644
 20
8.4145019208
  0
LWPOLYLINE
  5
4B1
100
AcDbEntity
  8
RACCORDO
100
AcDbPolyline
 62
253
  6
CONTINUOUS
 90
16
 70
0
 10
-3.4240522869
 20
10.3963772848
 10
-3.4303888424
 20
10.3996824703
 10
-3.4373836107
 20
10.4025839943
 10
-3.4446823475
 20
10.4048793684
 10
-3.4522652902
 20
10.4065623581
 10
-3.4601117085
 20
10.4076283438
 10
-3.4681999998
 20
10.408074415
 10
-3.4765079675
 20
10.4078994184
 10
-3.4850131399
 20
10.407103896
 10
-3.4936926026
 20
10.4056900156
 10
-3.5025246931
 20
10.4036611104
 10
-3.5114834761
 20
10.4010229462
 10
-3.520538813
 20
10.3977849384
 10
-3.5296639818
 20
10.3939578897
 10
-3.5388359864
 20
10.3895526805
 10
-3.5480298847
 20
10.3845823424
  0
LWPOLYLINE
  5
4B2
100
AcDbEntity
  8
RACCORDO
100
AcDbPolyline
 62
253
  6
CONTINUOUS
 90
16
 70
0
 10
-4.7613799531
 20
11.1685335186
 10
-4.7677150029
 20
11.1718378348
 10
-4.7747097712
 20
11.1747393588
 10
-4.7820085081
 20
11.1770347329
 10
-4.7895914507
 20
11.1787177226
 10
-4.797437869
 20
11.1797837083
 10
-4.8055261603
 20
11.1802297795
 10
-4.8138341281
 20
11.1800547828
 10
-4.8223393005
 20
11.1792592605
 10
-4.8310187632
 20
11.1778453801
 10
-4.8398508537
 20
11.1758164749
 10
-4.8488096367
 20
11.1731783107
 10
-4.8578649736
 20
11.1699403029
 10
-4.8669901424
 20
11.1661132542
 10
-4.8761621469
 20
11.1617080449
 10
-4.8853560453
 20
11.1567377068
  0
LWPOLYLINE
  5
4B3
100
AcDbEntity
  8
RACCORDO
100
AcDbPolyline
 62
253
  6
CONTINUOUS
 90
16
 70
0
 10
-16.7883704484
 20
18.112767097
 10
-16.7946827432
 20
18.1160609146
 10
-16.8016750054
 20
18.1189640701
 10
-16.8089711703
 20
18.1212613329
 10
-16.8165513876
 20
18.122946453
 10
-16.824395034
 20
18.1240148457
 10
-16.8324807696
 20
18.1244636043
 10
-16.8407865956
 20
18.1242915078
 10
-16.8492899148
 20
18.1234990244
 10
-16.8579675923
 20
18.1220883103
 10
-16.8667960192
 20
18.1200632034
 10
-16.8757511761
 20
18.1174292136
 10
-16.884808699
 20
18.114193507
 10
-16.8939439455
 20
18.1103648868
 10
-16.9031320615
 20
18.1059537695
 10
-16.9123480491
 20
18.1009721563
  0
LWPOLYLINE
  5
4B4
100
AcDbEntity
  8
RACCORDO
100
AcDbPolyline
 62
253
  6
CONTINUOUS
 90
16
 70
0
 10
-18.125696609
 20
18.8849224615
 10
-18.1320089038
 20
18.8882162791
 10
-18.1390011659
 20
18.8911194346
 10
-18.1462973309
 20
18.8934166974
 10
-18.1538775482
 20
18.8951018175
 10
-18.1617211946
 20
18.8961702102
 10
-18.1698069301
 20
18.8966189687
 10
-18.1781127562
 20
18.8964468722
 10
-18.1866160753
 20
18.8956543889
 10
-18.1952937529
 20
18.8942436747
 10
-18.2041221797
 20
18.8922185679
 10
-18.2130773366
 20
18.8895845781
 10
-18.2221348596
 20
18.8863488714
 10
-18.231270106
 20
18.8825202512
 10
-18.240458222
 20
18.8781091339
 10
-18.2496742097
 20
18.8731275207
  0
LWPOLYLINE
  5
4B5
100
AcDbEntity
  8
RACCORDO
100
AcDbPolyline
 62
7
  6
CONTINUOUS
 90
19
 70
0
 10
-18.125696609
 20
18.8849224615
 10
-18.138104516
 20
18.8916272541
 10
-18.1509593814
 20
18.8976602549
 10
-18.1642171475
 20
18.9029835721
 10
-18.1778360082
 20
18.9075648519
 10
-18.1917585867
 20
18.9113714396
 10
-18.2059129198
 20
18.9143746347
 10
-18.2202315399
 20
18.9165556722
 10
-18.2346683285
 20
18.9179048688
 10
-18.2491842135
 20
18.9184149865
 10
-18.2637102454
 20
18.9180809732
 10
-18.2782015702
 20
18.9169026136
 10
-18.2926593071
 20
18.9148737292
 10
-18.3070671672
 20
18.9119828152
 10
-18.3213282332
 20
18.9082362503
 10
-18.3353342093
 20
18.9036588357
 10
-18.3490462591
 20
18.8982641848
 10
-18.3624165061
 20
18.8920711441
 10
-18.3735184932
 20
18.8861723668
  0
LWPOLYLINE
  5
4B6
100
AcDbEntity
  8
RACCORDO
100
AcDbPolyline
 62
253
  6
CONTINUOUS
 90
17
 70
0
 10
-20.3668806915
 20
17.636428089
 10
-20.3761845252
 20
17.6414594011
 10
-20.38546004
 20
17.6459191123
 10
-20.3946818136
 20
17.6497949994
 10
-20.4038245707
 20
17.6530764394
 10
-20.4128632529
 20
17.6557544383
 10
-20.4217730867
 20
17.6578216564
 10
-20.430529652
 20
17.6592724278
 10
-20.4391089487
 20
17.6601027761
 10
-20.4474874625
 20
17.6603104256
 10
-20.4556422295
 20
17.6598948071
 10
-20.4635508991
 20
17.6588570597
 10
-20.4711917949
 20
17.6572000277
 10
-20.4785439749
 20
17.6549282528
 10
-20.485587288
 20
17.6520479614
 10
-20.4923024298
 20
17.6485670479
 10
-20.4930334508
 20
17.6481400815
  0
LWPOLYLINE
  5
4B7
100
AcDbEntity
  8
RACCORDO
100
AcDbPolyline
 62
7
  6
CONTINUOUS
 90
18
 70
0
 10
-5.419805924
 20
10.8552923351
 10
-5.4282169994
 20
10.8599177873
 10
-5.436609217
 20
10.8640702764
 10
-5.4449634647
 20
10.8677404541
 10
-5.4532606387
 20
10.8709201111
 10
-5.4614819371
 20
10.8736020456
 10
-5.4696089029
 20
10.8757800804
 10
-5.4776230682
 20
10.8774493142
 10
-5.4855061876
 20
10.8786060171
 10
-5.4932405298
 20
10.8792474901
 10
-5.5008085373
 20
10.8793723004
 10
-5.5081929943
 20
10.8789802057
 10
-5.5153772568
 20
10.8780720412
 10
-5.5223450355
 20
10.8766498718
 10
-5.5290804947
 20
10.8747169481
 10
-5.5355684174
 20
10.8722776228
 10
-5.541794114
 20
10.8693374169
 10
-5.5440809882
 20
10.868094208
  0
LWPOLYLINE
  5
4B8
100
AcDbEntity
  8
RACCORDO
100
AcDbPolyline
 62
7
  6
CONTINUOUS
 90
18
 70
0
 10
-18.7841240884
 20
18.571682149
 10
-18.7925351638
 20
18.5763076012
 10
-18.8009273814
 20
18.5804600903
 10
-18.8092816291
 20
18.584130268
 10
-18.8175788031
 20
18.5873099249
 10
-18.8258001015
 20
18.5899918594
 10
-18.8339270673
 20
18.5921698943
 10
-18.8419412327
 20
18.5938391281
 10
-18.849824352
 20
18.594995831
 10
-18.8575586942
 20
18.595637304
 10
-18.8651267018
 20
18.5957621143
 10
-18.8725111587
 20
18.5953700196
 10
-18.8796954212
 20
18.5944618551
 10
-18.8866631999
 20
18.5930396857
 10
-18.8933986591
 20
18.591106762
 10
-18.8998865818
 20
18.5886674367
 10
-18.9061122785
 20
18.5857272308
 10
-18.9083991526
 20
18.5844840219
  0
LWPOLYLINE
  5
4B9
100
AcDbEntity
  8
RACCORDO
100
AcDbPolyline
 62
253
  6
CONTINUOUS
 90
16
 70
0
 10
-4.8853560453
 20
11.1567377068
 10
-4.8945550549
 20
11.161829543
 10
-4.9037316706
 20
11.1663463573
 10
-4.9128607409
 20
11.1702757702
 10
-4.9219172447
 20
11.1736070117
 10
-4.9308763599
 20
11.1763309517
 10
-4.9397135312
 20
11.1784401242
 10
-4.9484045377
 20
11.1799287484
 10
-4.9569255587
 20
11.1807927443
 10
-4.96525324
 20
11.1810297439
 10
-4.9733647567
 20
11.1806390975
 10
-4.9812378769
 20
11.1796218759
 10
-4.9888510217
 20
11.1779808671
 10
-4.9961833249
 20
11.1757205687
 10
-5.0032146901
 20
11.1728471759
 10
-5.0092026729
 20
11.1697812308
  0
LWPOLYLINE
  5
4BA
100
AcDbEntity
  8
RACCORDO
100
AcDbPolyline
 62
253
  6
CONTINUOUS
 90
16
 70
0
 10
-18.2496742097
 20
18.8731275207
 10
-18.2588513172
 20
18.8782079026
 10
-18.2680119357
 20
18.8827186797
 10
-18.2771309803
 20
18.8866464419
 10
-18.2861852855
 20
18.8899799698
 10
-18.2951479758
 20
18.8927081159
 10
-18.3039887637
 20
18.8948211189
 10
-18.3126815222
 20
18.8963129268
 10
-18.3212043649
 20
18.8971799796
 10
-18.3295341568
 20
18.8974198995
 10
-18.3376481988
 20
18.8970319635
 10
-18.345524062
 20
18.8960171734
 10
-18.3531399059
 20
18.8943783189
 10
-18.3604747577
 20
18.8921199318
 10
-18.3675086082
 20
18.8892481922
 10
-18.3735184932
 20
18.8861723668
  0
LINE
  5
4BB
100
AcDbEntity
  8
RACCORDO
100
AcDbLine
 62
7
  6
CONTINUOUS
 10
-17.2305761843
 20
16.769519437
 11
-15.8557987822
 21
15.975740195
  0
LINE
  5
4BC
100
AcDbEntity
  8
RACCORDO
100
AcDbLine
 62
7
  6
CONTINUOUS
 10
-3.8662580199
 20
9.0531296231
 11
-3.1642313937
 21
8.6477882476
  0
LINE
  5
4BD
100
AcDbEntity
  8
DRAFT
100
AcDbLine
 62
7
  6
CONTINUOUS
 10
-14.5414804096
 20
15.550503668
 11
-8.3189407352
 21
11.9576872467
  0
LINE
  5
4BE
100
AcDbEntity
  8
RACCORDO
100
AcDbLine
 62
7
  6
CONTINUOUS
 10
-18.7841240884
 20
18.571682149
 11
-17.4406152209
 21
17.795956967
  0
LINE
  5
4BF
100
AcDbEntity
  8
RACCORDO
100
AcDbLine
 62
7
  6
CONTINUOUS
 10
-5.419805924
 20
10.8552923351
 11
-4.0762970565
 21
10.0795671532
  0
LINE
  5
4C0
100
AcDbEntity
  8
DRAFT
100
AcDbLine
 62
7
  6
CONTINUOUS
 10
-8.2482300571
 20
12.7286588889
 11
-13.1979775254
 21
15.5865810422
  0
LINE
  5
4C1
100
AcDbEntity
  8
RACCORDO
100
AcDbLine
 62
253
  6
CONTINUOUS
 10
-18.2496742097
 20
18.8731275207
 11
-16.9123480491
 21
18.1009721563
  0
LINE
  5
4C2
100
AcDbEntity
  8
RACCORDO
100
AcDbLine
 62
253
  6
CONTINUOUS
 10
-4.8853560453
 20
11.1567377068
 11
-3.5480298847
 21
10.3845823424
  0
LINE
  5
4C3
100
AcDbEntity
  8
RACCORDO
100
AcDbLine
 62
7
  6
CONTINUOUS
 10
-18.125696609
 20
18.8849224615
 11
-16.7883704484
 21
18.112767097
  0
LINE
  5
4C4
100
AcDbEntity
  8
RACCORDO
100
AcDbLine
 62
7
  6
CONTINUOUS
 10
-4.7613784446
 20
11.1685326476
 11
-3.424052284
 21
10.3963772831
  0
LINE
  5
4C5
100
AcDbEntity
  8
DRAFT
100
AcDbLine
 62
7
  6
CONTINUOUS
 10
-9.9734035432
 20
14.3830654032
 11
-9.9141352212
 21
14.3488446168
  0
LINE
  5
4C6
100
AcDbEntity
  8
RACCORDO
100
AcDbLine
 62
7
  6
CONTINUOUS
 10
18.2657700316
 20
-1.2725056692
 11
18.3885095417
 21
-1.343373924
  0
LINE
  5
4C7
100
AcDbEntity
  8
ASSI
100
AcDbLine
 62
7
  6
CONTINUOUS
 10
18.2657700316
 20
-1.2725056692
 11
18.3885095417
 21
-1.343373924
  0
LINE
  5
4C8
100
AcDbEntity
  8
ASSI
100
AcDbLine
 62
253
  6
CONTINUOUS
 10
18.621827628
 20
-1.4722663788
 11
18.4250021845
 21
-1.3586218345
  0
LINE
  5
4C9
100
AcDbEntity
  8
RACCORDO
100
AcDbLine
 62
253
  6
CONTINUOUS
 10
18.2682742374
 20
-1.1048665907
 11
18.2840645517
 21
-1.1139837203
  0
LINE
  5
4CA
100
AcDbEntity
  8
ASSI
100
AcDbLine
 62
253
  6
CONTINUOUS
 10
18.2682742374
 20
-1.1048665907
 11
18.2840645517
 21
-1.1139837203
  0
LWPOLYLINE
  5
4CB
100
AcDbEntity
  8
RACCORDO
100
AcDbPolyline
 62
7
  6
CONTINUOUS
 90
19
 70
0
 10
-16.7883704484
 20
18.112767097
 10
-16.7763340593
 20
18.1053560074
 10
-16.7646596191
 20
18.0972201765
 10
-16.7534020785
 20
18.0883792722
 10
-16.742610971
 20
18.0788543151
 10
-16.7323426087
 20
18.0686786593
 10
-16.7226562746
 20
18.057899007
 10
-16.7136019665
 20
18.0465644006
 10
-16.7052115589
 20
18.0347104756
 10
-16.6975104253
 20
18.0223667424
 10
-16.6905378046
 20
18.0095908451
 10
-16.6843165206
 20
17.9964217638
 10
-16.6788511192
 20
17.9828543666
 10
-16.6741601412
 20
17.9688971389
 10
-16.6702870203
 20
17.9546381182
 10
-16.6672645569
 20
17.9401836728
 10
-16.6651007069
 20
17.9255752566
 10
-16.6638031777
 20
17.9108643212
 10
-16.6633764885
 20
17.896264398
  0
LWPOLYLINE
  5
4CC
100
AcDbEntity
  8
ASSI
100
AcDbPolyline
 62
7
  6
CONTINUOUS
 90
25
 70
0
 10
18.3718155719
 20
-1.4970369814
 10
18.3638089745
 20
-1.4921087334
 10
18.3560537904
 20
-1.4867106148
 10
18.3485788759
 20
-1.4808560188
 10
18.34137697
 20
-1.4745367641
 10
18.3344553337
 20
-1.4677610318
 10
18.3278497893
 20
-1.4605582045
 10
18.3215632767
 20
-1.4529238516
 10
18.3155928562
 20
-1.4448624037
 10
18.3099655307
 20
-1.4364165347
 10
18.3046884598
 20
-1.4275942342
 10
18.2997544841
 20
-1.4183875127
 10
18.2951691283
 20
-1.4088150753
 10
18.2909315426
 20
-1.3988787133
 10
18.2870425769
 20
-1.3885766354
 10
18.2835103058
 20
-1.3779221724
 10
18.280332138
 20
-1.3669027754
 10
18.2775106649
 20
-1.3555309932
 10
18.2750617347
 20
-1.3438578034
 10
18.2729887417
 20
-1.3318788101
 10
18.2712882916
 20
-1.3195984091
 10
18.2699660496
 20
-1.3070807649
 10
18.2690239041
 20
-1.2943472655
 10
18.2684599667
 20
-1.2813765229
 10
18.2682742374
 20
-1.268168537
  0
LWPOLYLINE
  5
4CD
100
AcDbEntity
  8
0
100
AcDbPolyline
 62
7
  6
CONTINUOUS
 90
9
 70
0
 10
14.4852530897
 20
-10.2291408327
 10
14.5280905129
 20
-10.2979286984
 10
14.5689845854
 20
-10.3687591059
 10
14.6072848375
 20
-10.4405274374
 10
14.6429215583
 20
-10.513160725
 10
14.6759644586
 20
-10.5867319365
 10
14.7061352258
 20
-10.6606171402
 10
14.7334346797
 20
-10.7348917293
 10
14.7578620003
 20
-10.8094803104
  0
LINE
  5
4CE
100
AcDbEntity
  8
RACCORDO
100
AcDbLine
 62
7
  6
CONTINUOUS
 10
0.326997897
 20
11.0894368162
 11
1.6103356482
 21
8.8666306302
  0
LINE
  5
4CF
100
AcDbEntity
  8
0
100
AcDbLine
 62
253
  6
CONTINUOUS
 10
14.9095170268
 20
-13.3316648326
 11
14.8297480741
 21
-13.1935009539
  0
LINE
  5
4D0
100
AcDbEntity
  8
0
100
AcDbLine
 62
253
  6
CONTINUOUS
 10
15.1160246027
 20
-13.2124529917
 11
14.8388063487
 21
-12.7322968914
  0
LINE
  5
4D1
100
AcDbEntity
  8
RACCORDO
100
AcDbLine
 62
253
  6
CONTINUOUS
 10
9.2829928632
 20
20.1967617066
 11
9.2820706059
 21
20.3418245147
  0
LINE
  5
4D2
100
AcDbEntity
  8
ASSI
100
AcDbLine
 62
253
  6
CONTINUOUS
 10
9.2829928632
 20
20.1967617066
 11
9.2820706059
 21
20.3418245147
  0
LINE
  5
4D3
100
AcDbEntity
  8
RACCORDO
100
AcDbLine
 62
253
  6
CONTINUOUS
 10
9.2820706059
 20
20.3418245147
 11
9.2813935425
 21
20.4943714184
  0
LINE
  5
4D4
100
AcDbEntity
  8
ASSI
100
AcDbLine
 62
253
  6
CONTINUOUS
 10
9.2820706059
 20
20.3418245147
 11
9.2813935425
 21
20.4943714184
  0
LINE
  5
4D5
100
AcDbEntity
  8
RACCORDO
100
AcDbLine
 62
253
  6
CONTINUOUS
 10
9.2813935425
 20
20.4943714184
 11
9.2811416854
 21
20.6138408563
  0
LINE
  5
4D6
100
AcDbEntity
  8
ASSI
100
AcDbLine
 62
253
  6
CONTINUOUS
 10
9.2813935425
 20
20.4943714184
 11
9.2811416854
 21
20.6138408563
  0
LINE
  5
4D7
100
AcDbEntity
  8
RACCORDO
100
AcDbLine
 62
253
  6
CONTINUOUS
 10
8.9294394726
 20
20.2809007572
 11
8.9294394726
 21
19.554930205
  0
LINE
  5
4D8
100
AcDbEntity
  8
ASSI
100
AcDbLine
 62
253
  6
CONTINUOUS
 10
8.9294394726
 20
20.2809007572
 11
8.9294394726
 21
19.554930205
  0
LINE
  5
4D9
100
AcDbEntity
  8
RACCORDO
100
AcDbLine
 62
253
  6
CONTINUOUS
 10
9.2829928632
 20
20.1967617066
 11
9.2829928632
 21
19.4703737682
  0
LINE
  5
4DA
100
AcDbEntity
  8
ASSI
100
AcDbLine
 62
253
  6
CONTINUOUS
 10
9.2829928632
 20
20.1967617066
 11
9.2829928632
 21
19.4703737682
  0
LINE
  5
4DB
100
AcDbEntity
  8
0
100
AcDbLine
 62
7
  6
CONTINUOUS
 10
3.816504376
 20
-19.7359222672
 11
3.8077055913
 21
-19.7580804251
  0
LINE
  5
4DC
100
AcDbEntity
  8
DRAFT
100
AcDbLine
 62
7
  6
CONTINUOUS
 10
23.7837071307
 20
4.0801142163
 11
20.4542613502
 21
2.1238858456
  0
LINE
  5
4DD
100
AcDbEntity
  8
ASSI
100
AcDbLine
 62
7
  6
CONTINUOUS
 10
23.7837071307
 20
4.0801142163
 11
20.4542613502
 21
2.1238858456
  0
LINE
  5
4DE
100
AcDbEntity
  8
CURVE
100
AcDbLine
 62
253
  6
CONTINUOUS
 10
-19.6438659952
 20
-21.6900575367
 11
-19.6378591382
 21
-21.686553243
  0
LINE
  5
4DF
100
AcDbEntity
  8
ASSI
100
AcDbLine
 62
7
  6
CONTINUOUS
 10
24.6322352681
 20
1.9980676645
 11
18.621827628
 21
-1.4722663788
  0
LINE
  5
4E0
100
AcDbEntity
  8
CURVE
100
AcDbLine
 62
253
  6
CONTINUOUS
 10
-19.8956335373
 20
-21.2581927117
 11
-19.9017098468
 21
-21.261667446
  0
LINE
  5
4E1
100
AcDbEntity
  8
RACCORDO
100
AcDbLine
 62
253
  6
CONTINUOUS
 10
25.490011569
 20
4.3197391986
 11
21.0320265153
 21
1.7902914803
  0
LINE
  5
4E2
100
AcDbEntity
  8
ASSI
100
AcDbLine
 62
253
  6
CONTINUOUS
 10
25.490011569
 20
4.3197391986
 11
21.0320265153
 21
1.7902914803
  0
LINE
  5
4E3
100
AcDbEntity
  8
RACCORDO
100
AcDbLine
 62
253
  6
CONTINUOUS
 10
25.702151681
 20
3.9523110736
 11
21.2422992946
 21
1.4218038362
  0
LINE
  5
4E4
100
AcDbEntity
  8
ASSI
100
AcDbLine
 62
253
  6
CONTINUOUS
 10
25.702151681
 20
3.9523110736
 11
21.2422992946
 21
1.4218038362
  0
LINE
  5
4E5
100
AcDbEntity
  8
RACCORDO
100
AcDbLine
 62
7
  6
CONTINUOUS
 10
24.6322352681
 20
2.0797146922
 11
18.640703356
 21
-1.3198630412
  0
LINE
  5
4E6
100
AcDbEntity
  8
ASSI
100
AcDbLine
 62
7
  6
CONTINUOUS
 10
24.6322352681
 20
2.0797146922
 11
18.640703356
 21
-1.3198630412
  0
LWPOLYLINE
  5
4E7
100
AcDbEntity
  8
ASSI
100
AcDbPolyline
 62
7
  6
CONTINUOUS
 90
25
 70
0
 10
18.621827628
 20
-1.4722663788
 10
18.6102964994
 20
-1.4787098736
 10
18.5987817125
 20
-1.4847072733
 10
18.5872832672
 20
-1.4902585778
 10
18.5757816532
 20
-1.4953728561
 10
18.564296381
 20
-1.5000410393
 10
18.5528859818
 20
-1.5042359206
 10
18.541552721
 20
-1.5079523247
 10
18.5302943333
 20
-1.5111954271
 10
18.5191625549
 20
-1.5139535468
 10
18.5081694578
 20
-1.5162227076
 10
18.4973029699
 20
-1.5180068858
 10
18.4865786106
 20
-1.5193063291
 10
18.4759951222
 20
-1.5201226615
 10
18.4655537624
 20
-1.5204542591
 10
18.4552738238
 20
-1.520296498
 10
18.445144872
 20
-1.5196471316
 10
18.4351773413
 20
-1.5185084065
 10
18.4254218266
 20
-1.5168824396
 10
18.4158808179
 20
-1.5147645016
 10
18.4065518253
 20
-1.5121593219
 10
18.3974779736
 20
-1.5090832049
 10
18.3886699413
 20
-1.5055383787
 10
18.38011705
 20
-1.5015226153
 10
18.3718155719
 20
-1.4970369814
  0
LWPOLYLINE
  5
4E8
100
AcDbEntity
  8
RACCORDO
100
AcDbPolyline
 62
253
  6
CONTINUOUS
 90
45
 70
0
 10
21.2422992946
 20
1.4218038362
 10
21.118599343
 20
1.3567808064
 10
20.9967588403
 20
1.3023970853
 10
20.8767777867
 20
1.258652673
 10
20.7580601645
 20
1.2254647213
 10
20.6412019912
 20
1.2029160784
 10
20.5279913198
 20
1.1912552884
 10
20.4185463085
 20
1.1906518602
 10
20.3127487989
 20
1.200936285
 10
20.2120323691
 20
1.2218485799
 10
20.1164694981
 20
1.2535166442
 10
20.0259877069
 20
1.2958125786
 10
19.9418031362
 20
1.3480927027
 10
19.863993131
 20
1.4104734541
 10
19.7924803462
 20
1.4828383952
 10
19.7282488877
 20
1.5641945328
 10
19.6713809894
 20
1.6546746252
 10
19.6217944172
 20
1.7541459142
 10
19.5802265753
 20
1.8612171317
 10
19.546789477
 20
1.9760100384
 10
19.521371109
 20
2.0984028737
 10
19.5043728354
 20
2.2266390869
 10
19.4959284432
 20
2.3608428759
 10
19.4959041455
 20
2.5008900428
 10
19.5042999455
 20
2.6446514433
 10
19.5212492952
 20
2.7921537919
 10
19.5466187425
 20
2.943370374
 10
19.5800079346
 20
3.0960919014
 10
19.6215284207
 20
3.250323791
 10
19.6710686517
 20
3.4060606259
 10
19.7278936275
 20
3.5610768677
 10
19.7920849747
 20
3.7153330907
 10
19.8635610667
 20
3.8688687206
 10
19.9413420248
 20
4.019576496
 10
20.0255062404
 20
4.1674299024
 10
20.1159753219
 20
4.3124554544
 10
20.2115342158
 20
4.4526254344
 10
20.3122560775
 20
4.5878948615
 10
20.4180677516
 20
4.7183087166
 10
20.527534718
 20
4.8419742241
 10
20.6407687783
 20
4.9588515044
 10
20.7576581309
 20
5.0689804372
 10
20.8764328513
 20
5.170587886
 10
20.9965029647
 20
5.2630828054
 10
21.1184584458
 20
5.3470562409
  0
LWPOLYLINE
  5
4E9
100
AcDbEntity
  8
ASSI
100
AcDbPolyline
 62
253
  6
CONTINUOUS
 90
45
 70
0
 10
21.2422992946
 20
1.4218038362
 10
21.118599343
 20
1.3567808064
 10
20.9967588403
 20
1.3023970853
 10
20.8767777867
 20
1.258652673
 10
20.7580601645
 20
1.2254647213
 10
20.6412019912
 20
1.2029160784
 10
20.5279913198
 20
1.1912552884
 10
20.4185463085
 20
1.1906518602
 10
20.3127487989
 20
1.200936285
 10
20.2120323691
 20
1.2218485799
 10
20.1164694981
 20
1.2535166442
 10
20.0259877069
 20
1.2958125786
 10
19.9418031362
 20
1.3480927027
 10
19.863993131
 20
1.4104734541
 10
19.7924803462
 20
1.4828383952
 10
19.7282488877
 20
1.5641945328
 10
19.6713809894
 20
1.6546746252
 10
19.6217944172
 20
1.7541459142
 10
19.5802265753
 20
1.8612171317
 10
19.546789477
 20
1.9760100384
 10
19.521371109
 20
2.0984028737
 10
19.5043728354
 20
2.2266390869
 10
19.4959284432
 20
2.3608428759
 10
19.4959041455
 20
2.5008900428
 10
19.5042999455
 20
2.6446514433
 10
19.5212492952
 20
2.7921537919
 10
19.5466187425
 20
2.943370374
 10
19.5800079346
 20
3.0960919014
 10
19.6215284207
 20
3.250323791
 10
19.6710686517
 20
3.4060606259
 10
19.7278936275
 20
3.5610768677
 10
19.7920849747
 20
3.7153330907
 10
19.8635610667
 20
3.8688687206
 10
19.9413420248
 20
4.019576496
 10
20.0255062404
 20
4.1674299024
 10
20.1159753219
 20
4.3124554544
 10
20.2115342158
 20
4.4526254344
 10
20.3122560775
 20
4.5878948615
 10
20.4180677516
 20
4.7183087166
 10
20.527534718
 20
4.8419742241
 10
20.6407687783
 20
4.9588515044
 10
20.7576581309
 20
5.0689804372
 10
20.8764328513
 20
5.170587886
 10
20.9965029647
 20
5.2630828054
 10
21.1184584458
 20
5.3470562409
  0
LINE
  5
4EA
100
AcDbEntity
  8
CURVE
100
AcDbLine
 62
253
  6
CONTINUOUS
 10
-19.889563418
 20
-21.2553721975
 11
-19.8956335373
 21
-21.2581927117
  0
LINE
  5
4EB
100
AcDbEntity
  8
ASSI
100
AcDbLine
 62
7
  6
CONTINUOUS
 10
20.5164823077
 20
10.4163506479
 11
20.4137819423
 21
10.4132209825
  0
LINE
  5
4EC
100
AcDbEntity
  8
0
100
AcDbLine
 62
7
  6
CONTINUOUS
 10
-8.813915482
 20
8.3505376162
 11
-7.8239659884
 21
8.3804901921
  0
LINE
  5
4ED
100
AcDbEntity
  8
ASSI
100
AcDbLine
 62
7
  6
CONTINUOUS
 10
-7.8239659884
 20
8.3804901921
 11
-8.813915482
 21
8.3505376162
  0
LWPOLYLINE
  5
4EE
100
AcDbEntity
  8
ASSI
100
AcDbPolyline
 62
7
  6
CONTINUOUS
 90
3
 70
0
 10
20.6452316738
 20
6.3184425603
 10
20.6148565586
 20
6.3251135154
 10
20.5164823077
 20
6.3339992639
  0
LWPOLYLINE
  5
4EF
100
AcDbEntity
  8
RACCORDO
100
AcDbPolyline
 62
253
  6
CONTINUOUS
 90
6
 70
0
 10
-7.5821935534
 20
15.4250551546
 10
-7.5895776392
 20
15.428627085
 10
-7.6093647742
 20
15.4335519004
 10
-7.631260961
 20
15.4330454495
 10
-7.6546156299
 20
15.4271230639
 10
-7.6787347834
 20
15.4159609593
  0
LWPOLYLINE
  5
4F0
100
AcDbEntity
  8
0
100
AcDbPolyline
 62
7
  6
CONTINUOUS
 90
40
 70
0
 10
-8.177519379
 20
15.958943972
 10
-8.2066457993
 20
15.9750902963
 10
-8.2367717072
 20
15.9905005214
 10
-8.2678971026
 20
16.0051746474
 10
-8.3000756825
 20
16.0191341098
 10
-8.3332537499
 20
16.0323574731
 10
-8.3672702141
 20
16.0447804309
 10
-8.4021291756
 20
16.0563990772
 10
-8.4378265339
 20
16.067217318
 10
-8.474188897
 20
16.0771825651
 10
-8.5112191698
 20
16.0862906173
 10
-8.5489144474
 20
16.0945456758
 10
-8.5870926228
 20
16.1019077566
 10
-8.6257565082
 20
16.1083726116
 10
-8.6649032914
 20
16.1139444889
 10
-8.70434243
 20
16.1185961491
 10
-8.7440752461
 20
16.1223230661
 10
-8.7841004174
 20
16.125129766
 10
-8.8242234344
 20
16.1270025873
 10
-8.8644446884
 20
16.1279369748
 10
-8.904763788
 20
16.1279374837
 10
-8.9449850494
 20
16.1270041183
 10
-8.9851079961
 20
16.1251323386
 10
-9.0251331045
 20
16.1223266845
 10
-9.0648661203
 20
16.1186007806
 10
-9.1043056225
 20
16.1139501532
 10
-9.143453032
 20
16.108379276
 10
-9.1821183575
 20
16.1019151948
 10
-9.2202992543
 20
16.0945535675
 10
-9.2579980669
 20
16.0862987361
 10
-9.2950318382
 20
16.0771907731
 10
-9.331397334
 20
16.067225531
 10
-9.3670977884
 20
16.0564071573
 10
-9.4019599466
 20
16.0447881657
 10
-9.4359797318
 20
16.0323646647
 10
-9.4691612208
 20
16.0191405459
 10
-9.5013433887
 20
16.0051799984
 10
-9.5324725606
 20
15.9905044184
 10
-9.5626024115
 20
15.9750924096
 10
-9.5917329413
 20
15.958943972
  0
LWPOLYLINE
  5
4F1
100
AcDbEntity
  8
RACCORDO
100
AcDbPolyline
 62
7
  6
CONTINUOUS
 90
3
 70
0
 10
-7.5812798682
 20
15.4245154081
 10
-7.6035479399
 20
15.4369068519
 10
-7.6883678969
 20
15.4766953057
  0
LINE
  5
4F2
100
AcDbEntity
  8
RACCORDO
100
AcDbLine
 62
7
  6
CONTINUOUS
 10
-8.9291023476
 20
15.1088371
 11
-6.5174357099
 21
13.7163710087
  0
LINE
  5
4F3
100
AcDbEntity
  8
RACCORDO
100
AcDbLine
 62
7
  6
CONTINUOUS
 10
-8.672520617
 20
15.2649251723
 11
-6.2524357454
 21
13.867598494
  0
LINE
  5
4F4
100
AcDbEntity
  8
ASSI
100
AcDbLine
 62
7
  6
CONTINUOUS
 10
-8.177519379
 20
15.958943972
 11
-5.3989711008
 21
14.3546450196
  0
LINE
  5
4F5
100
AcDbEntity
  8
0
100
AcDbLine
 62
7
  6
CONTINUOUS
 10
-8.5310727696
 20
16.1630812687
 11
-8.8846261601
 21
16.3672185653
  0
LINE
  5
4F6
100
AcDbEntity
  8
DRAFT
100
AcDbLine
 62
7
  6
CONTINUOUS
 10
0.3077619953
 20
11.1005433848
 11
0.326997897
 21
11.0894368162
  0
LINE
  5
4F7
100
AcDbEntity
  8
DRAFT
100
AcDbLine
 62
7
  6
CONTINUOUS
 10
-8.8846261601
 20
16.8881586392
 11
-8.5310727696
 21
16.6840213425
  0
LINE
  5
4F8
100
AcDbEntity
  8
DRAFT
100
AcDbLine
 62
7
  6
CONTINUOUS
 10
0.5801155017
 20
11.7598390702
 11
1.0148687765
 21
11.5088179781
  0
LINE
  5
4F9
100
AcDbEntity
  8
0
100
AcDbLine
 62
7
  6
CONTINUOUS
 10
-3.9930077291
 20
15.156985901
 11
-7.133288263
 21
16.9701445244
  0
LWPOLYLINE
  5
4FA
100
AcDbEntity
  8
RACCORDO
100
AcDbPolyline
 62
253
  6
CONTINUOUS
 90
3
 70
0
 10
-7.2879789941
 20
15.1903365035
 10
-7.0296988661
 20
15.0412205719
 10
-6.6556974009
 20
14.8252759701
  0
LINE
  5
4FB
100
AcDbEntity
  8
RACCORDO
100
AcDbLine
 62
7
  6
CONTINUOUS
 10
-5.5646309472
 20
14.2601079428
 11
-6.2426815853
 21
14.6516212031
  0
LINE
  5
4FC
100
AcDbEntity
  8
RACCORDO
100
AcDbLine
 62
7
  6
CONTINUOUS
 10
-6.2426815853
 20
14.6516212031
 11
-7.5821935534
 21
15.4250551546
  0
LINE
  5
4FD
100
AcDbEntity
  8
RACCORDO
100
AcDbLine
 62
253
  6
CONTINUOUS
 10
-7.6787347835
 20
15.4159609574
 11
-7.2879789941
 21
15.1903365035
  0
LWPOLYLINE
  5
4FE
100
AcDbEntity
  8
RACCORDO
100
AcDbPolyline
 62
253
  6
CONTINUOUS
 90
4
 70
0
 10
-6.6556974009
 20
14.8252759701
 10
-5.9649473878
 20
14.4264363282
 10
-5.8775555905
 20
14.3759353158
 10
-5.6211076316
 20
14.2278784028
  0
LINE
  5
4FF
100
AcDbEntity
  8
0
100
AcDbLine
 62
253
  6
CONTINUOUS
 10
22.6425977248
 20
-8.8146471111
 11
22.2634275511
 21
-8.3964743389
  0
LWPOLYLINE
  5
500
100
AcDbEntity
  8
RACCORDO
100
AcDbPolyline
 62
253
  6
CONTINUOUS
 90
13
 70
0
 10
11.9132590615
 20
20.2920260968
 10
11.9112165546
 20
20.3249138292
 10
11.905611393
 20
20.3593525597
 10
11.89653951
 20
20.3947530573
 10
11.8841561443
 20
20.4305096585
 10
11.8686731959
 20
20.4660105907
 10
11.8503556096
 20
20.5006484411
 10
11.8295168148
 20
20.5338306072
 10
11.80651336
 20
20.5649894185
 10
11.7817388347
 20
20.5935918134
 10
11.7556171141
 20
20.6191484896
 10
11.7285951038
 20
20.6412222697
 10
11.7011351045
 20
20.6594355675
  0
LWPOLYLINE
  5
501
100
AcDbEntity
  8
ASSI
100
AcDbPolyline
 62
253
  6
CONTINUOUS
 90
13
 70
0
 10
11.9132590615
 20
20.2920260968
 10
11.9112165546
 20
20.3249138292
 10
11.905611393
 20
20.3593525597
 10
11.89653951
 20
20.3947530573
 10
11.8841561443
 20
20.4305096585
 10
11.8686731959
 20
20.4660105907
 10
11.8503556096
 20
20.5006484411
 10
11.8295168148
 20
20.5338306072
 10
11.80651336
 20
20.5649894185
 10
11.7817388347
 20
20.5935918134
 10
11.7556171141
 20
20.6191484896
 10
11.7285951038
 20
20.6412222697
 10
11.7011351045
 20
20.6594355675
  0
LINE
  5
502
100
AcDbEntity
  8
RACCORDO
100
AcDbLine
 62
253
  6
CONTINUOUS
 10
11.5628044294
 20
20.2082480747
 11
11.561882123
 21
20.3533084697
  0
LINE
  5
503
100
AcDbEntity
  8
ASSI
100
AcDbLine
 62
253
  6
CONTINUOUS
 10
11.5628044294
 20
20.2082480747
 11
11.561882123
 21
20.3533084697
  0
LINE
  5
504
100
AcDbEntity
  8
RACCORDO
100
AcDbLine
 62
253
  6
CONTINUOUS
 10
11.561882123
 20
20.3533084697
 11
11.5612050533
 21
20.5058553906
  0
LINE
  5
505
100
AcDbEntity
  8
ASSI
100
AcDbLine
 62
253
  6
CONTINUOUS
 10
11.561882123
 20
20.3533084697
 11
11.5612050533
 21
20.5058553906
  0
LINE
  5
506
100
AcDbEntity
  8
RACCORDO
100
AcDbLine
 62
253
  6
CONTINUOUS
 10
11.5612050533
 20
20.5058553906
 11
11.5609532516
 21
20.6253272244
  0
LINE
  5
507
100
AcDbEntity
  8
ASSI
100
AcDbLine
 62
253
  6
CONTINUOUS
 10
11.5612050533
 20
20.5058553906
 11
11.5609532516
 21
20.6253272244
  0
LINE
  5
508
100
AcDbEntity
  8
0
100
AcDbLine
 62
7
  6
CONTINUOUS
 10
11.3739831208
 20
-15.1329601802
 11
11.3739831208
 21
-12.0255491194
  0
LINE
  5
509
100
AcDbEntity
  8
RACCORDO
100
AcDbLine
 62
253
  6
CONTINUOUS
 10
11.5628044294
 20
19.4703737682
 11
11.5628044294
 21
20.2082480747
  0
LINE
  5
50A
100
AcDbEntity
  8
ASSI
100
AcDbLine
 62
253
  6
CONTINUOUS
 10
11.5628044294
 20
19.4703737682
 11
11.5628044294
 21
20.2082480747
  0
LINE
  5
50B
100
AcDbEntity
  8
RACCORDO
100
AcDbLine
 62
253
  6
CONTINUOUS
 10
11.9132590615
 20
19.5531565666
 11
11.9132590615
 21
20.2920260968
  0
LINE
  5
50C
100
AcDbEntity
  8
ASSI
100
AcDbLine
 62
253
  6
CONTINUOUS
 10
11.9132590615
 20
19.5531565666
 11
11.9132590615
 21
20.2920260968
  0
LINE
  5
50D
100
AcDbEntity
  8
RACCORDO
100
AcDbLine
 62
7
  6
CONTINUOUS
 10
13.3343170834
 20
20.459330942
 11
13.3343170834
 21
20.3594607439
  0
LINE
  5
50E
100
AcDbEntity
  8
ASSI
100
AcDbLine
 62
7
  6
CONTINUOUS
 10
13.3343170834
 20
20.459330942
 11
13.3343170834
 21
20.3594607439
  0
LWPOLYLINE
  5
50F
100
AcDbEntity
  8
0
100
AcDbPolyline
 62
7
  6
CONTINUOUS
 90
11
 70
0
 10
7.3597464476
 20
-17.6751376706
 10
7.3432394972
 20
-17.7167074585
 10
7.32470586
 20
-17.7560082818
 10
7.3041454935
 20
-17.7930006309
 10
7.2815584401
 20
-17.8277240155
 10
7.2570721794
 20
-17.8599801714
 10
7.2306536797
 20
-17.889775642
 10
7.2023359729
 20
-17.9171038839
 10
7.1723456336
 20
-17.9417470028
 10
7.1406969969
 20
-17.9636676905
 10
7.1242678338
 20
-17.9736081848
  0
LWPOLYLINE
  5
510
100
AcDbEntity
  8
0
100
AcDbPolyline
 62
7
  6
CONTINUOUS
 90
10
 70
0
 10
3.8077055913
 20
-19.7580804251
 10
3.789171954
 20
-19.7973812484
 10
3.7686115876
 20
-19.8343735976
 10
3.7460245341
 20
-19.8690969821
 10
3.7215382735
 20
-19.901353138
 10
3.6951197738
 20
-19.9311486086
 10
3.6668020669
 20
-19.9584768506
 10
3.6368117276
 20
-19.9831199694
 10
3.605163091
 20
-20.0050406572
 10
3.5887339278
 20
-20.0149811514
  0
LWPOLYLINE
  5
511
100
AcDbEntity
  8
0
100
AcDbPolyline
 62
7
  6
CONTINUOUS
 90
16
 70
0
 10
3.9042680233
 20
-19.6339238343
 10
3.9100090145
 20
-19.6221017287
 10
3.9153669651
 20
-19.6099005966
 10
3.9203418753
 20
-19.5973204381
 10
3.9249372198
 20
-19.5843503231
 10
3.9291495238
 20
-19.5710011817
 10
3.9329683631
 20
-19.5573058038
 10
3.936392718
 20
-19.5432634696
 10
3.9394236083
 20
-19.5288748989
 10
3.9420536688
 20
-19.5141750409
 10
3.9442819245
 20
-19.4991631508
 10
3.9461093505
 20
-19.4838399733
 10
3.9475315069
 20
-19.4682426922
 10
3.9485469137
 20
-19.4523837019
 10
3.9491570509
 20
-19.4362506079
 10
3.9493619184
 20
-19.4198434102
  0
LINE
  5
512
100
AcDbEntity
  8
RACCORDO
100
AcDbLine
 62
7
  6
CONTINUOUS
 10
-5.356163322
 20
-18.5745813448
 11
-5.2105485377
 21
-18.4740354612
  0
LINE
  5
513
100
AcDbEntity
  8
ASSI
100
AcDbLine
 62
7
  6
CONTINUOUS
 10
-5.356163322
 20
-18.5745813448
 11
-5.2105485377
 21
-18.4740354612
  0
LINE
  5
514
100
AcDbEntity
  8
0
100
AcDbLine
 62
7
  6
CONTINUOUS
 10
-2.838863181
 20
-17.1416136604
 11
-4.2777619329
 21
-17.9724130113
  0
LINE
  5
515
100
AcDbEntity
  8
0
100
AcDbLine
 62
7
  6
CONTINUOUS
 10
-5.3569359969
 20
-18.5527578995
 11
-4.2777619329
 21
-17.9724130113
  0
LINE
  5
516
100
AcDbEntity
  8
CURVE
100
AcDbLine
 62
253
  6
CONTINUOUS
 10
-19.6501929775
 20
-21.6930067276
 11
-19.6438659952
 21
-21.6900575367
  0
LINE
  5
517
100
AcDbEntity
  8
CURVE
100
AcDbLine
 62
253
  6
CONTINUOUS
 10
-19.6565218709
 20
-21.6953365991
 11
-19.6501929775
 21
-21.6930067276
  0
LINE
  5
518
100
AcDbEntity
  8
CURVE
100
AcDbLine
 62
253
  6
CONTINUOUS
 10
-19.8832281081
 20
-21.2530481561
 11
-19.889563418
 21
-21.2553721975
  0
LINE
  5
519
100
AcDbEntity
  8
RACCORDO
100
AcDbLine
 62
7
  6
CONTINUOUS
 10
-9.1696827377
 20
11.6321530192
 11
-9.2536247657
 21
11.6131506548
  0
LWPOLYLINE
  5
51A
100
AcDbEntity
  8
RACCORDO
100
AcDbPolyline
 62
7
  6
CONTINUOUS
 90
3
 70
0
 10
-9.2536247657
 20
11.6131506548
 10
-9.2794927011
 20
11.6074126429
 10
-9.2920119158
 20
11.6046905242
  0
LINE
  5
51B
100
AcDbEntity
  8
RACCORDO
100
AcDbLine
 62
7
  6
CONTINUOUS
 10
-9.1396749921
 20
11.6387941491
 11
-9.1696827377
 21
11.6321530192
  0
LWPOLYLINE
  5
51C
100
AcDbEntity
  8
RACCORDO
100
AcDbPolyline
 62
7
  6
CONTINUOUS
 90
8
 70
0
 10
-9.2920119158
 20
11.6046905242
 10
-9.3162076496
 20
11.5996047892
 10
-9.3278707681
 20
11.5972455641
 10
-9.3392455507
 20
11.5950307202
 10
-9.350312153
 20
11.5929512924
 10
-9.3610651074
 20
11.5910139419
 10
-9.3715145399
 20
11.5892405168
 10
-9.3816638038
 20
11.5876441538
  0
LWPOLYLINE
  5
51D
100
AcDbEntity
  8
ASSI
100
AcDbPolyline
 62
7
  6
CONTINUOUS
 90
6
 70
0
 10
20.4137819423
 20
14.4955723665
 10
20.3068376757
 20
14.4806556278
 10
20.1977079532
 20
14.4542389309
 10
20.0870789231
 20
14.4164179805
 10
19.9742644371
 20
14.3670970717
 10
19.8592644951
 20
14.3062762046
  0
LWPOLYLINE
  5
51E
100
AcDbEntity
  8
RACCORDO
100
AcDbPolyline
 62
7
  6
CONTINUOUS
 90
11
 70
0
 10
-8.9588414239
 20
11.6691628474
 10
-8.9761360919
 20
11.6675400354
 10
-8.9933304901
 20
11.6655000135
 10
-9.0103888279
 20
11.6631291979
 10
-9.0272796613
 20
11.6605381648
 10
-9.0439839241
 20
11.657779651
 10
-9.060490744
 20
11.6548363959
 10
-9.0767841509
 20
11.651760351
 10
-9.0928539439
 20
11.6486150329
 10
-9.1086970977
 20
11.6453786656
 10
-9.1396749921
 20
11.6387941491
  0
LINE
  5
51F
100
AcDbEntity
  8
0
100
AcDbLine
 62
7
  6
CONTINUOUS
 10
-16.7335114313
 20
12.9232130615
 11
-15.7435619377
 21
12.9531656373
  0
LINE
  5
520
100
AcDbEntity
  8
ASSI
100
AcDbLine
 62
7
  6
CONTINUOUS
 10
-15.7435619377
 20
12.9531656373
 11
-16.7335114313
 21
12.9232130615
  0
LINE
  5
521
100
AcDbEntity
  8
0
100
AcDbLine
 62
7
  6
CONTINUOUS
 10
-16.6628007532
 20
12.9939930967
 11
-15.8142726158
 21
12.9939930967
  0
LWPOLYLINE
  5
522
100
AcDbEntity
  8
RACCORDO
100
AcDbPolyline
 62
7
  6
CONTINUOUS
 90
9
 70
0
 10
-19.0637908828
 20
16.0984112357
 10
-19.077192699
 20
16.1000111913
 10
-19.0905435965
 20
16.1023431933
 10
-19.1037898182
 20
16.1054060183
 10
-19.1168942845
 20
16.1091985796
 10
-19.1297802335
 20
16.1137033195
 10
-19.1423447793
 20
16.1188796671
 10
-19.1545309928
 20
16.1246910002
 10
-19.1659368288
 20
16.1308917347
  0
LWPOLYLINE
  5
523
100
AcDbEntity
  8
RACCORDO
100
AcDbPolyline
 62
7
  6
CONTINUOUS
 90
7
 70
0
 10
-8.7328737806
 20
15.2791874028
 10
-8.7892503861
 20
15.2881098401
 10
-8.8408909182
 20
15.2913933935
 10
-8.8862832918
 20
15.2893542862
 10
-8.9254511384
 20
15.281494592
 10
-8.9599774282
 20
15.2665273464
 10
-8.9643126123
 20
15.2639359381
  0
LINE
  5
524
100
AcDbEntity
  8
RACCORDO
100
AcDbLine
 62
7
  6
CONTINUOUS
 10
-8.6725479737
 20
15.2649082545
 11
-8.7328737806
 21
15.2791874028
  0
LWPOLYLINE
  5
525
100
AcDbEntity
  8
RACCORDO
100
AcDbPolyline
 62
7
  6
CONTINUOUS
 90
8
 70
0
 10
-7.78089128
 20
15.509222731
 10
-7.8806966114
 20
15.5341915229
 10
-7.9866434403
 20
15.5510408454
 10
-8.0966127385
 20
15.5591986367
 10
-8.2094895419
 20
15.55832349
 10
-8.3238895057
 20
15.5480189846
 10
-8.4371668334
 20
15.528144252
 10
-8.548544652
 20
15.4984138043
  0
LWPOLYLINE
  5
526
100
AcDbEntity
  8
RACCORDO
100
AcDbPolyline
 62
7
  6
CONTINUOUS
 90
3
 70
0
 10
-9.0468475395
 20
15.1545061667
 10
-8.9888889486
 20
15.1373318946
 10
-8.926939851
 20
15.1075885016
  0
LWPOLYLINE
  5
527
100
AcDbEntity
  8
ASSI
100
AcDbPolyline
 62
7
  6
CONTINUOUS
 90
15
 70
0
 10
-2.8715125053
 20
15.070021388
 10
-2.8729319639
 20
15.0704743162
 10
-2.8754479646
 20
15.0705836539
 10
-2.8787861254
 20
15.0702256035
 10
-2.8829004839
 20
15.0694181739
 10
-2.887764458
 20
15.0681999874
 10
-2.8933369902
 20
15.0665916027
 10
-2.899582119
 20
15.0646016442
 10
-2.9065015418
 20
15.0622521362
 10
-2.9140859143
 20
15.0595518896
 10
-2.9222926294
 20
15.0565195947
 10
-2.9310822283
 20
15.0531924118
 10
-2.94042478
 20
15.0495734413
 10
-2.9502880194
 20
15.0456787615
 10
-2.9713913816
 20
15.0372425296
  0
LINE
  5
528
100
AcDbEntity
  8
RACCORDO
100
AcDbLine
 62
7
  6
CONTINUOUS
 10
-7.6883678969
 20
15.4766953057
 11
-7.78089128
 21
15.509222731
  0
LWPOLYLINE
  5
529
100
AcDbEntity
  8
RACCORDO
100
AcDbPolyline
 62
253
  6
CONTINUOUS
 90
6
 70
0
 10
-7.7731976483
 20
15.4598572462
 10
-7.7527626713
 20
15.4519044718
 10
-7.733084736
 20
15.4435311246
 10
-7.7142110434
 20
15.4347616417
 10
-7.6960943925
 20
15.4255715859
 10
-7.6787347835
 20
15.4159609574
  0
LWPOLYLINE
  5
52A
100
AcDbEntity
  8
RACCORDO
100
AcDbPolyline
 62
7
  6
CONTINUOUS
 90
21
 70
0
 10
-5.9804396652
 20
17.8968664871
 10
-5.9883488475
 20
17.9012910007
 10
-6.00904562
 20
17.911591307
 10
-6.0305381346
 20
17.9204905937
 10
-6.0528018789
 20
17.9279859941
 10
-6.0756976591
 20
17.9340303414
 10
-6.0992069454
 20
17.938611346
 10
-6.1233482675
 20
17.9417412975
 10
-6.1480380208
 20
17.9434098983
 10
-6.1732994471
 20
17.9436114647
 10
-6.1991093046
 20
17.9423516804
 10
-6.2253142635
 20
17.9396372986
 10
-6.2518982261
 20
17.9354630009
 10
-6.2788772901
 20
17.9298341058
 10
-6.3061464187
 20
17.9227733218
 10
-6.3337205984
 20
17.9142707826
 10
-6.3615848426
 20
17.9043363545
 10
-6.3895891557
 20
17.8930223459
 10
-6.4176835389
 20
17.880346193
 10
-6.4459179909
 20
17.8662904595
 10
-6.4742925117
 20
17.8508551456
  0
LINE
  5
52B
100
AcDbEntity
  8
RACCORDO
100
AcDbLine
 62
7
  6
CONTINUOUS
 10
19.9496173642
 20
1.6880375846
 11
19.9462501225
 21
1.6899701116
  0
LINE
  5
52C
100
AcDbEntity
  8
ASSI
100
AcDbLine
 62
7
  6
CONTINUOUS
 10
19.9495534445
 20
1.6880740483
 11
19.9462501225
 21
1.6899701116
  0
LINE
  5
52D
100
AcDbEntity
  8
ASSI
100
AcDbLine
 62
253
  6
CONTINUOUS
 10
-3.0444486661
 20
15.003116307
 11
-3.6499791007
 21
15.3527419909
  0
LINE
  5
52E
100
AcDbEntity
  8
ASSI
100
AcDbLine
 62
253
  6
CONTINUOUS
 10
-8.599726569
 20
18.2106641442
 11
-9.2052570037
 21
18.5602898281
  0
LINE
  5
52F
100
AcDbEntity
  8
ASSI
100
AcDbLine
 62
7
  6
CONTINUOUS
 10
-2.8719979783
 20
15.0703015484
 11
-3.3268156409
 21
15.3329075665
  0
LINE
  5
530
100
AcDbEntity
  8
ASSI
100
AcDbLine
 62
7
  6
CONTINUOUS
 10
-8.4269790769
 20
18.2776780144
 11
-8.8817969142
 21
18.5402841335
  0
LINE
  5
531
100
AcDbEntity
  8
0
100
AcDbLine
 62
7
  6
CONTINUOUS
 10
-2.460812973
 20
15.2712019746
 11
-5.7733563229
 21
17.1838229889
  0
LINE
  5
532
100
AcDbEntity
  8
RACCORDO
100
AcDbLine
 62
253
  6
CONTINUOUS
 10
21.0320265153
 20
1.7902914803
 11
20.4542613502
 21
2.1238858456
  0
LINE
  5
533
100
AcDbEntity
  8
ASSI
100
AcDbLine
 62
253
  6
CONTINUOUS
 10
21.0320265153
 20
1.7902914803
 11
20.4542613502
 21
2.1238858456
  0
LINE
  5
534
100
AcDbEntity
  8
RACCORDO
100
AcDbLine
 62
253
  6
CONTINUOUS
 10
-9.5412584556
 20
19.6216828436
 11
-6.4742925117
 21
17.8508551456
  0
LINE
  5
535
100
AcDbEntity
  8
RACCORDO
100
AcDbLine
 62
253
  6
CONTINUOUS
 10
-2.2316518246
 20
15.4012075857
 11
0.8353141194
 21
13.6303798878
  0
LINE
  5
536
100
AcDbEntity
  8
RACCORDO
100
AcDbLine
 62
7
  6
CONTINUOUS
 10
-9.255414962
 20
19.787794697
 11
-5.980438944
 21
17.8968645893
  0
LINE
  5
537
100
AcDbEntity
  8
RACCORDO
100
AcDbLine
 62
7
  6
CONTINUOUS
 10
-1.7377982569
 20
15.4472170293
 11
1.5371777612
 21
13.5562869216
  0
LINE
  5
538
100
AcDbEntity
  8
ASSI
100
AcDbLine
 62
7
  6
CONTINUOUS
 10
19.9494834131
 20
1.6881172171
 11
19.8951036783
 21
1.7235744359
  0
LWPOLYLINE
  5
539
100
AcDbEntity
  8
RACCORDO
100
AcDbPolyline
 62
7
  6
CONTINUOUS
 90
34
 70
0
 10
19.9495473197
 20
1.6880807704
 10
19.8935473201
 20
1.7247341427
 10
19.836566938
 20
1.773728616
 10
19.7852002897
 20
1.8310765526
 10
19.7387304528
 20
1.8976854962
 10
19.6974031448
 20
1.9737738224
 10
19.6619506779
 20
2.0586023874
 10
19.6328036777
 20
2.1516730102
 10
19.6103092407
 20
2.2522417116
 10
19.5947235484
 20
2.3595141226
 10
19.5862067647
 20
2.4729348222
 10
19.5848476144
 20
2.5914378997
 10
19.5906466013
 20
2.7144271597
 10
19.6037361857
 20
2.8423571248
 10
19.6242953441
 20
2.9750186253
 10
19.6523205621
 20
3.1111877539
 10
19.6877706722
 20
3.2499781779
 10
19.7305468236
 20
3.3906227768
 10
19.7804848477
 20
3.5323092684
 10
19.8373396881
 20
3.6741125511
 10
19.9008243251
 20
3.8152108115
 10
19.9706233112
 20
3.954846519
 10
20.0463758936
 20
4.0922231192
 10
20.1276800598
 20
4.226584066
 10
20.2140850465
 20
4.3571954891
 10
20.3051069443
 20
4.4833205294
 10
20.4002764206
 20
4.6043261527
 10
20.4989937681
 20
4.7195086238
 10
20.6005101915
 20
4.8280683927
 10
20.7042485549
 20
4.9294926388
 10
20.8095522749
 20
5.0232801246
 10
20.915469743
 20
5.1087558389
 10
21.0212063975
 20
5.1855185853
 10
21.1261436249
 20
5.2534218976
  0
LWPOLYLINE
  5
53A
100
AcDbEntity
  8
0
100
AcDbPolyline
 62
7
  6
CONTINUOUS
 90
8
 70
0
 10
14.7578620003
 20
-10.8094803104
 10
14.7791364149
 20
-10.8835327714
 10
14.7972089242
 20
-10.9569899542
 10
14.8121285275
 20
-11.0299110169
 10
14.8237614491
 20
-11.1016233211
 10
14.8320630972
 20
-11.1719026541
 10
14.8370780638
 20
-11.2409732285
 10
14.8388063487
 20
-11.3088350445
  0
LINE
  5
53B
100
AcDbEntity
  8
0
100
AcDbLine
 62
7
  6
CONTINUOUS
 10
14.7680956705
 20
-10.8451019001
 11
14.7680956705
 21
-10.0658310714
  0
LINE
  5
53C
100
AcDbEntity
  8
ASSI
100
AcDbLine
 62
7
  6
CONTINUOUS
 10
14.8388063487
 20
-11.3088350445
 11
14.8388063487
 21
-13.0458962903
  0
LINE
  5
53D
100
AcDbEntity
  8
0
100
AcDbLine
 62
7
  6
CONTINUOUS
 10
15.2630704174
 20
-12.8874499169
 11
15.2630704174
 21
-9.7800388561
  0
LWPOLYLINE
  5
53E
100
AcDbEntity
  8
0
100
AcDbPolyline
 62
7
  6
CONTINUOUS
 90
8
 70
0
 10
14.8388063487
 20
-13.0458962903
 10
14.8376610759
 20
-13.0998445349
 10
14.8343015263
 20
-13.1521358944
 10
14.8287277
 20
-13.2027703688
 10
14.8209195179
 20
-13.2518463869
 10
14.8108970591
 20
-13.2992655198
 10
14.7987205605
 20
-13.3447324814
 10
14.78436765
 20
-13.3882544407
  0
LINE
  5
53F
100
AcDbEntity
  8
0
100
AcDbLine
 62
7
  6
CONTINUOUS
 10
11.2411255784
 20
-15.4490390372
 11
11.2323267938
 21
-15.4711971952
  0
LWPOLYLINE
  5
540
100
AcDbEntity
  8
0
100
AcDbPolyline
 62
7
  6
CONTINUOUS
 90
16
 70
0
 10
7.7933553198
 20
-17.388413571
 10
7.799096311
 20
-17.3765914654
 10
7.8044542617
 20
-17.3643903333
 10
7.8094291719
 20
-17.3518101748
 10
7.8140245163
 20
-17.3388400598
 10
7.8182368203
 20
-17.3254909184
 10
7.8220556596
 20
-17.3117955405
 10
7.8254800145
 20
-17.2977532063
 10
7.8285109048
 20
-17.2833646356
 10
7.8311409653
 20
-17.2686647776
 10
7.8333692211
 20
-17.2536528874
 10
7.8351966471
 20
-17.23832971
 10
7.8366188034
 20
-17.2227324289
 10
7.8376342102
 20
-17.2068734386
 10
7.8382443474
 20
-17.1907403446
 10
7.8384492149
 20
-17.1743331469
  0
LINE
  5
541
100
AcDbEntity
  8
RACCORDO
100
AcDbLine
 62
253
  6
CONTINUOUS
 10
-5.1426197235
 20
-29.4120532904
 11
-5.7649377556
 21
-30.1796808638
  0
LINE
  5
542
100
AcDbEntity
  8
RACCORDO
100
AcDbLine
 62
253
  6
CONTINUOUS
 10
-4.7895835355
 20
-29.5307896135
 11
-5.5008041436
 21
-30.4080782689
  0
LINE
  5
543
100
AcDbEntity
  8
RACCORDO
100
AcDbLine
 62
7
  6
CONTINUOUS
 10
-5.356163322
 20
-22.0037565073
 11
-4.0567887309
 21
-21.0480197071
  0
LINE
  5
544
100
AcDbEntity
  8
ASSI
100
AcDbLine
 62
7
  6
CONTINUOUS
 10
-5.356163322
 20
-22.0037565073
 11
-4.0567887309
 21
-21.0480197071
  0
LINE
  5
545
100
AcDbEntity
  8
0
100
AcDbLine
 62
7
  6
CONTINUOUS
 10
3.9493619184
 20
-16.3124323493
 11
7.8384492149
 21
-14.066922086
  0
LINE
  5
546
100
AcDbEntity
  8
0
100
AcDbLine
 62
7
  6
CONTINUOUS
 10
11.3739831208
 20
-12.0255491194
 11
15.2630704174
 21
-9.7800388561
  0
LINE
  5
547
100
AcDbEntity
  8
0
100
AcDbLine
 62
7
  6
CONTINUOUS
 10
-5.3569359969
 20
-22.0246876871
 11
-4.2777619329
 21
-21.4015881739
  0
LINE
  5
548
100
AcDbEntity
  8
CURVE
100
AcDbLine
 62
253
  6
CONTINUOUS
 10
-21.0609608888
 20
-21.5560421143
 11
-21.0482253321
 21
-21.5523898474
  0
LWPOLYLINE
  5
549
100
AcDbEntity
  8
RACCORDO
100
AcDbPolyline
 62
253
  6
CONTINUOUS
 90
5
 70
0
 10
-8.8189181617
 20
15.3450371811
 10
-8.7742336235
 20
15.3491574203
 10
-8.7253108495
 20
15.3476639665
 10
-8.6731288388
 20
15.3405867075
 10
-8.6187318141
 20
15.3280672674
  0
LINE
  5
54A
100
AcDbEntity
  8
ASSI
100
AcDbLine
 62
7
  6
CONTINUOUS
 10
20.5164823077
 20
14.4987020318
 11
20.4137819423
 21
14.4955723665
  0
LINE
  5
54B
100
AcDbEntity
  8
RACCORDO
100
AcDbLine
 62
7
  6
CONTINUOUS
 10
-9.0989610736
 20
15.1587766422
 11
-9.0468475395
 21
15.1545061667
  0
LINE
  5
54C
100
AcDbEntity
  8
RACCORDO
100
AcDbLine
 62
7
  6
CONTINUOUS
 10
-19.0637908828
 20
16.0984112357
 11
-18.4358581702
 21
16.0405904682
  0
LINE
  5
54D
100
AcDbEntity
  8
RACCORDO
100
AcDbLine
 62
253
  6
CONTINUOUS
 10
-18.865122308
 20
16.2446973321
 11
-18.1539016999
 21
16.1792073192
  0
LWPOLYLINE
  5
54E
100
AcDbEntity
  8
ASSI
100
AcDbPolyline
 62
7
  6
CONTINUOUS
 90
3
 70
0
 10
20.6452316738
 20
10.4007939443
 10
20.6148565586
 20
10.4074648994
 10
20.5164823077
 20
10.4163506479
  0
LWPOLYLINE
  5
54F
100
AcDbEntity
  8
ASSI
100
AcDbPolyline
 62
7
  6
CONTINUOUS
 90
15
 70
0
 10
-8.4265006046
 20
18.2774023033
 10
-8.4280644961
 20
18.2778776436
 10
-8.4306493514
 20
18.2779536417
 10
-8.4340593816
 20
18.2775610075
 10
-8.4382484354
 20
18.2767173603
 10
-8.4431915892
 20
18.2754606606
 10
-8.4488489976
 20
18.273811807
 10
-8.4551845151
 20
18.2717795438
 10
-8.4622000415
 20
18.2693850624
 10
-8.4698869841
 20
18.2666368899
 10
-8.4782024
 20
18.2635545558
 10
-8.4871047658
 20
18.2601759429
 10
-8.496563459
 20
18.256503938
 10
-8.5065461544
 20
18.2525550389
 10
-8.5278918886
 20
18.2440114255
  0
LINE
  5
550
100
AcDbEntity
  8
RACCORDO
100
AcDbLine
 62
7
  6
CONTINUOUS
 10
19.9496173642
 20
5.7703889685
 11
19.9462501225
 21
5.7723214955
  0
LINE
  5
551
100
AcDbEntity
  8
ASSI
100
AcDbLine
 62
7
  6
CONTINUOUS
 10
19.9495534445
 20
5.7704254323
 11
19.9462501225
 21
5.7723214955
  0
LINE
  5
552
100
AcDbEntity
  8
ASSI
100
AcDbLine
 62
7
  6
CONTINUOUS
 10
24.6322352681
 20
1.9980676645
 11
24.5609144002
 21
2.0392474398
  0
LINE
  5
553
100
AcDbEntity
  8
DRAFT
100
AcDbLine
 62
7
  6
CONTINUOUS
 10
22.6876916198
 20
4.182234156
 11
23.3281427899
 21
3.8124456771
  0
LINE
  5
554
100
AcDbEntity
  8
ASSI
100
AcDbLine
 62
7
  6
CONTINUOUS
 10
22.6876916198
 20
4.182234156
 11
23.3281427899
 21
3.8124456771
  0
LINE
  5
555
100
AcDbEntity
  8
RACCORDO
100
AcDbLine
 62
253
  6
CONTINUOUS
 10
21.0320265153
 20
5.8726428642
 11
20.4542613502
 21
6.2062372295
  0
LINE
  5
556
100
AcDbEntity
  8
ASSI
100
AcDbLine
 62
253
  6
CONTINUOUS
 10
21.0320265153
 20
5.8726428642
 11
20.4542613502
 21
6.2062372295
  0
LINE
  5
557
100
AcDbEntity
  8
RACCORDO
100
AcDbLine
 62
7
  6
CONTINUOUS
 10
25.490011569
 20
4.3197391986
 11
24.8443673025
 21
4.6925261063
  0
LINE
  5
558
100
AcDbEntity
  8
ASSI
100
AcDbLine
 62
7
  6
CONTINUOUS
 10
25.490011569
 20
4.3197391986
 11
24.8443673025
 21
4.6925261063
  0
LINE
  5
559
100
AcDbEntity
  8
ASSI
100
AcDbLine
 62
7
  6
CONTINUOUS
 10
19.9494834131
 20
5.7704686011
 11
19.8951036783
 21
5.8059258199
  0
LWPOLYLINE
  5
55A
100
AcDbEntity
  8
RACCORDO
100
AcDbPolyline
 62
7
  6
CONTINUOUS
 90
34
 70
0
 10
19.9495473197
 20
5.7704321543
 10
19.8935473201
 20
5.8070855266
 10
19.836566938
 20
5.8560799999
 10
19.7852002897
 20
5.9134279366
 10
19.7387304528
 20
5.9800368801
 10
19.6974031448
 20
6.0561252064
 10
19.6619506779
 20
6.1409537713
 10
19.6328036777
 20
6.2340243941
 10
19.6103092407
 20
6.3345930956
 10
19.5947235484
 20
6.4418655066
 10
19.5862067647
 20
6.5552862061
 10
19.5848476144
 20
6.6737892837
 10
19.5906466013
 20
6.7967785437
 10
19.6037361857
 20
6.9247085088
 10
19.6242953441
 20
7.0573700093
 10
19.6523205621
 20
7.1935391378
 10
19.6877706722
 20
7.3323295618
 10
19.7305468236
 20
7.4729741608
 10
19.7804848477
 20
7.6146606524
 10
19.8373396881
 20
7.7564639351
 10
19.9008243251
 20
7.8975621955
 10
19.9706233112
 20
8.037197903
 10
20.0463758936
 20
8.1745745032
 10
20.1276800598
 20
8.3089354499
 10
20.2140850465
 20
8.4395468731
 10
20.3051069443
 20
8.5656719134
 10
20.4002764206
 20
8.6866775366
 10
20.4989937681
 20
8.8018600077
 10
20.6005101915
 20
8.9104197767
 10
20.7042485549
 20
9.0118440227
 10
20.8095522749
 20
9.1056315086
 10
20.915469743
 20
9.1911072229
 10
21.0212063975
 20
9.2678699692
 10
21.1261436249
 20
9.3357732815
  0
LWPOLYLINE
  5
55B
100
AcDbEntity
  8
ASSI
100
AcDbPolyline
 62
7
  6
CONTINUOUS
 90
33
 70
0
 10
19.8951036783
 20
1.7235744359
 10
19.8379774528
 20
1.7723476158
 10
19.7864636964
 20
1.8294832908
 10
19.7398347678
 20
1.8958991411
 10
19.6983358257
 20
1.9718273418
 10
19.662704899
 20
2.0565341833
 10
19.6333797894
 20
2.1495219199
 10
19.6107123224
 20
2.2500529474
 10
19.5949639551
 20
2.3573288479
 10
19.5863000381
 20
2.4707722342
 10
19.5848094989
 20
2.5893020382
 10
19.5904900514
 20
2.7123274164
 10
19.6034735668
 20
2.8403122574
 10
19.6239405422
 20
2.9730493106
 10
19.6518877947
 20
3.1093091055
 10
19.6872755669
 20
3.2482070466
 10
19.7300066489
 20
3.3889759227
 10
19.7799165388
 20
3.5307992745
 10
19.8367597451
 20
3.67274836
 10
19.9002491724
 20
3.8139987225
 10
19.9700687496
 20
3.9537905916
 10
20.0458566994
 20
4.0913245602
 10
20.1272101632
 20
4.2258414688
 10
20.2136772438
 20
4.3566052726
 10
20.3047727242
 20
4.4828768849
 10
20.4000260171
 20
4.6040211091
 10
20.4988357501
 20
4.7193320649
 10
20.6004511199
 20
4.8280079713
 10
20.7042934017
 20
4.9295345075
 10
20.8097039109
 20
5.0234087602
 10
20.915727936
 20
5.1089536036
 10
21.0215682936
 20
5.185766876
 10
21.1264483102
 20
5.2536009971
  0
LINE
  5
55C
100
AcDbEntity
  8
0
100
AcDbLine
 62
253
  6
CONTINUOUS
 10
22.3341382292
 20
-9.0447816027
 11
22.2543692766
 21
-8.906617724
  0
LINE
  5
55D
100
AcDbEntity
  8
0
100
AcDbLine
 62
253
  6
CONTINUOUS
 10
22.5406458052
 20
-8.9255697618
 11
22.2634275511
 21
-8.4454136615
  0
LWPOLYLINE
  5
55E
100
AcDbEntity
  8
ASSI
100
AcDbPolyline
 62
7
  6
CONTINUOUS
 90
28
 70
0
 10
18.2682742374
 20
16.1274723677
 10
18.2680603513
 20
16.1444798042
 10
18.2674235393
 20
16.1616887089
 10
18.2663638015
 20
16.1790990816
 10
18.2648795265
 20
16.1967259858
 10
18.2629723258
 20
16.2145543581
 10
18.2606470334
 20
16.2325390085
 10
18.2579025888
 20
16.2506803334
 10
18.2547400527
 20
16.2689779365
 10
18.2511674411
 20
16.2873854383
 10
18.2471837138
 20
16.3059031176
 10
18.2427899111
 20
16.3245306956
 10
18.2379971701
 20
16.3432209565
 10
18.2328044787
 20
16.3619740594
 10
18.2272128489
 20
16.3807898453
 10
18.221236454
 20
16.3996206212
 10
18.214874318
 20
16.4184664253
 10
18.2081274168
 20
16.4373272195
 10
18.2010128521
 20
16.4561551969
 10
18.1935296911
 20
16.4749502742
 10
18.1856788666
 20
16.4937125347
 10
18.1774802782
 20
16.5123944212
 10
18.1689330436
 20
16.5309957299
 10
18.1600380452
 20
16.5495166646
 10
18.1508178293
 20
16.5679102798
 10
18.1412799113
 20
16.5861609271
 10
18.1314167758
 20
16.604284255
 10
18.1212284228
 20
16.6222802634
  0
LINE
  5
55F
100
AcDbEntity
  8
ASSI
100
AcDbLine
 62
7
  6
CONTINUOUS
 10
18.2682742374
 20
16.1274723677
 11
18.2682742374
 21
-1.268168537
  0
LINE
  5
560
100
AcDbEntity
  8
RACCORDO
100
AcDbLine
 62
7
  6
CONTINUOUS
 10
18.2840645517
 20
-1.1139837203
 11
18.2840645517
 21
16.0756798876
  0
LINE
  5
561
100
AcDbEntity
  8
ASSI
100
AcDbLine
 62
7
  6
CONTINUOUS
 10
18.2840645517
 20
-1.1139837203
 11
18.2840645517
 21
16.0756798876
  0
LINE
  5
562
100
AcDbEntity
  8
0
100
AcDbLine
 62
7
  6
CONTINUOUS
 10
18.7986043233
 20
-10.8460769503
 11
18.7986043233
 21
-8.3918421109
  0
LWPOLYLINE
  5
563
100
AcDbEntity
  8
0
100
AcDbPolyline
 62
7
  6
CONTINUOUS
 90
11
 70
0
 10
14.78436765
 20
-13.3882544407
 10
14.7678606997
 20
-13.4298242285
 10
14.7493270624
 20
-13.4691250519
 10
14.7287666959
 20
-13.506117401
 10
14.7061796425
 20
-13.5408407856
 10
14.6816933818
 20
-13.5730969414
 10
14.6552748822
 20
-13.6028924121
 10
14.6269571753
 20
-13.630220654
 10
14.596966836
 20
-13.6548637728
 10
14.5653181994
 20
-13.6767844606
 10
14.5488890362
 20
-13.6867249548
  0
LWPOLYLINE
  5
564
100
AcDbEntity
  8
0
100
AcDbPolyline
 62
7
  6
CONTINUOUS
 90
10
 70
0
 10
11.2323267938
 20
-15.4711971952
 10
11.2137931565
 20
-15.5104980185
 10
11.19323279
 20
-15.5474903676
 10
11.1706457366
 20
-15.5822137522
 10
11.1461594759
 20
-15.6144699081
 10
11.1197409763
 20
-15.6442653787
 10
11.0914232694
 20
-15.6715936206
 10
11.0614329301
 20
-15.6962367395
 10
11.0297842934
 20
-15.7181574272
 10
11.0133551303
 20
-15.7280979215
  0
LWPOLYLINE
  5
565
100
AcDbEntity
  8
0
100
AcDbPolyline
 62
7
  6
CONTINUOUS
 90
16
 70
0
 10
11.3288892258
 20
-15.3470406044
 10
11.3346302169
 20
-15.3352184987
 10
11.3399881676
 20
-15.3230173667
 10
11.3449630778
 20
-15.3104372082
 10
11.3495584222
 20
-15.2974670932
 10
11.3537707262
 20
-15.2841179518
 10
11.3575895655
 20
-15.2704225739
 10
11.3610139205
 20
-15.2563802397
 10
11.3640448107
 20
-15.241991669
 10
11.3666748713
 20
-15.2272918109
 10
11.368903127
 20
-15.2122799208
 10
11.370730553
 20
-15.1969567434
 10
11.3721527094
 20
-15.1813594622
 10
11.3731681162
 20
-15.1655004719
 10
11.3737782533
 20
-15.1493673779
 10
11.3739831208
 20
-15.1329601802
  0
LWPOLYLINE
  5
566
100
AcDbEntity
  8
0
100
AcDbPolyline
 62
7
  6
CONTINUOUS
 90
16
 70
0
 10
3.8023332888
 20
-19.7448365584
 10
3.8107055913
 20
-19.739767816
 10
3.8188772745
 20
-19.7343486448
 10
3.8268311533
 20
-19.7285889714
 10
3.8345710014
 20
-19.7224854465
 10
3.8420930453
 20
-19.7160414193
 10
3.8493859636
 20
-19.7092669377
 10
3.8564498968
 20
-19.7021611237
 10
3.8632847045
 20
-19.6947248553
 10
3.8698786446
 20
-19.6869708145
 10
3.8762312314
 20
-19.6788985943
 10
3.8823429506
 20
-19.6705086017
 10
3.8882035179
 20
-19.6618147391
 10
3.893809505
 20
-19.6528216407
 10
3.8991643402
 20
-19.6435246725
 10
3.9042680233
 20
-19.6339238343
  0
LWPOLYLINE
  5
567
100
AcDbEntity
  8
0
100
AcDbPolyline
 62
7
  6
CONTINUOUS
 90
16
 70
0
 10
7.6914205853
 20
-17.4993262951
 10
7.6997928878
 20
-17.4942575527
 10
7.707964571
 20
-17.4888383815
 10
7.7159184498
 20
-17.4830787081
 10
7.723658298
 20
-17.4769751832
 10
7.7311803418
 20
-17.470531156
 10
7.7384732601
 20
-17.4637566744
 10
7.7455371933
 20
-17.4566508604
 10
7.752372001
 20
-17.449214592
 10
7.7589659412
 20
-17.4414605512
 10
7.7653185279
 20
-17.433388331
 10
7.7714302472
 20
-17.4249983384
 10
7.7772908144
 20
-17.4163044758
 10
7.7828968015
 20
-17.4073113774
 10
7.7882516367
 20
-17.3980144092
 10
7.7933553198
 20
-17.388413571
  0
LWPOLYLINE
  5
568
100
AcDbEntity
  8
0
100
AcDbPolyline
 62
7
  6
CONTINUOUS
 90
16
 70
0
 10
11.2269544913
 20
-15.4579533285
 10
11.2353267937
 20
-15.4528845861
 10
11.2434984769
 20
-15.4474654149
 10
11.2514523557
 20
-15.4417057415
 10
11.2591922039
 20
-15.4356022165
 10
11.2667142477
 20
-15.4291581893
 10
11.2740071661
 20
-15.4223837077
 10
11.2810710992
 20
-15.4152778938
 10
11.2879059069
 20
-15.4078416254
 10
11.2944998471
 20
-15.4000875846
 10
11.3008524339
 20
-15.3920153644
 10
11.3069641531
 20
-15.3836253717
 10
11.3128247204
 20
-15.3749315091
 10
11.3184307075
 20
-15.3659384108
 10
11.3237855426
 20
-15.3566414425
 10
11.3288892258
 20
-15.3470406044
  0
LWPOLYLINE
  5
569
100
AcDbEntity
  8
0
100
AcDbPolyline
 62
7
  6
CONTINUOUS
 90
16
 70
0
 10
15.1160417878
 20
-13.2124430652
 10
15.1244140903
 20
-13.2073743228
 10
15.1325857734
 20
-13.2019551516
 10
15.1405396523
 20
-13.1961954782
 10
15.1482795004
 20
-13.1900919532
 10
15.1558015442
 20
-13.183647926
 10
15.1630944626
 20
-13.1768734444
 10
15.1701583958
 20
-13.1697676305
 10
15.1769932035
 20
-13.1623313621
 10
15.1835871436
 20
-13.1545773212
 10
15.1899397304
 20
-13.1465051011
 10
15.1960514496
 20
-13.1381151084
 10
15.2019120169
 20
-13.1294212458
 10
15.207518004
 20
-13.1204281475
 10
15.2128728391
 20
-13.1111311792
 10
15.2179765223
 20
-13.101530341
  0
LWPOLYLINE
  5
56A
100
AcDbEntity
  8
0
100
AcDbPolyline
 62
7
  6
CONTINUOUS
 90
16
 70
0
 10
18.6515756937
 20
-11.1710700986
 10
18.6599479962
 20
-11.1660013561
 10
18.6681196794
 20
-11.160582185
 10
18.6760735582
 20
-11.1548225115
 10
18.6838134064
 20
-11.1487189866
 10
18.6913354502
 20
-11.1422749594
 10
18.6986283685
 20
-11.1355004778
 10
18.7056923017
 20
-11.1283946638
 10
18.7125271094
 20
-11.1209583954
 10
18.7191210496
 20
-11.1132043546
 10
18.7254736363
 20
-11.1051321344
 10
18.7315853556
 20
-11.0967421418
 10
18.7374459228
 20
-11.0880482792
 10
18.7430519099
 20
-11.0790551809
 10
18.7484067451
 20
-11.0697582126
 10
18.7535104282
 20
-11.0601573744
  0
LINE
  5
56B
100
AcDbEntity
  8
0
100
AcDbLine
 62
7
  6
CONTINUOUS
 10
18.7986043233
 20
-8.3918421109
 11
22.6876916198
 21
-6.1463318475
  0
LINE
  5
56C
100
AcDbEntity
  8
0
100
AcDbLine
 62
7
  6
CONTINUOUS
 10
22.192716873
 20
-6.595272135
 11
21.9792358462
 21
-6.7185334043
  0
LINE
  5
56D
100
AcDbEntity
  8
0
100
AcDbLine
 62
253
  6
CONTINUOUS
 10
3.9493619184
 20
-17.5962637817
 11
7.4141851462
 21
-15.5957182744
  0
LINE
  5
56E
100
AcDbEntity
  8
0
100
AcDbLine
 62
253
  6
CONTINUOUS
 10
11.3739831208
 20
-13.3093805518
 11
14.8388063487
 21
-11.3088350445
  0
LINE
  5
56F
100
AcDbEntity
  8
0
100
AcDbLine
 62
253
  6
CONTINUOUS
 10
22.2634275511
 20
-7.5936504571
 11
18.7986043233
 21
-9.5941959644
  0
LINE
  5
570
100
AcDbEntity
  8
0
100
AcDbLine
 62
253
  6
CONTINUOUS
 10
3.9493619184
 20
-19.3333250275
 11
7.4141851462
 21
-17.3327795202
  0
LINE
  5
571
100
AcDbEntity
  8
0
100
AcDbLine
 62
253
  6
CONTINUOUS
 10
11.3739831208
 20
-15.0464417976
 11
14.8388063487
 21
-13.0458962903
  0
LINE
  5
572
100
AcDbEntity
  8
0
100
AcDbLine
 62
253
  6
CONTINUOUS
 10
18.7986043233
 20
-10.7595585676
 11
22.2634275511
 21
-8.7590130603
  0
LINE
  5
573
100
AcDbEntity
  8
0
100
AcDbLine
 62
253
  6
CONTINUOUS
 10
24.6322352681
 20
-7.4778115554
 11
22.6876916198
 21
-8.600566687
  0
LINE
  5
574
100
AcDbEntity
  8
0
100
AcDbLine
 62
253
  6
CONTINUOUS
 10
18.7986043233
 20
-10.8460769503
 11
15.2630704174
 21
-12.8874499169
  0
LINE
  5
575
100
AcDbEntity
  8
0
100
AcDbLine
 62
253
  6
CONTINUOUS
 10
11.3739831208
 20
-15.1329601802
 11
7.8384492149
 21
-17.1743331469
  0
LINE
  5
576
100
AcDbEntity
  8
0
100
AcDbLine
 62
253
  6
CONTINUOUS
 10
3.9493619184
 20
-19.4198434102
 11
2.0244861239
 21
-20.5312425696
  0
LINE
  5
577
100
AcDbEntity
  8
ASSI
100
AcDbLine
 62
7
  6
CONTINUOUS
 10
24.4852066072
 20
-7.8028047268
 11
22.5406629589
 21
-8.9255598584
  0
LINE
  5
578
100
AcDbEntity
  8
ASSI
100
AcDbLine
 62
7
  6
CONTINUOUS
 10
18.6515756624
 20
-11.1710701217
 11
15.1160417564
 21
-13.2124430884
  0
LINE
  5
579
100
AcDbEntity
  8
ASSI
100
AcDbLine
 62
7
  6
CONTINUOUS
 10
11.2269544599
 20
-15.4579533517
 11
7.691420554
 21
-17.4993263183
  0
LINE
  5
57A
100
AcDbEntity
  8
ASSI
100
AcDbLine
 62
7
  6
CONTINUOUS
 10
3.8023332574
 20
-19.7448365816
 11
2.0244861239
 21
-20.7713432349
  0
LINE
  5
57B
100
AcDbEntity
  8
0
100
AcDbLine
 62
7
  6
CONTINUOUS
 10
3.8023161037
 20
-19.744846485
 11
2.0244861239
 21
-20.7713432339
  0
LINE
  5
57C
100
AcDbEntity
  8
0
100
AcDbLine
 62
7
  6
CONTINUOUS
 10
3.5887355708
 20
-20.0149840925
 11
7.1242694767
 21
-17.9736111258
  0
LINE
  5
57D
100
AcDbEntity
  8
0
100
AcDbLine
 62
7
  6
CONTINUOUS
 10
11.0133567733
 20
-15.7281008625
 11
14.5488906792
 21
-13.6867278959
  0
LINE
  5
57E
100
AcDbEntity
  8
0
100
AcDbLine
 62
7
  6
CONTINUOUS
 10
18.4379779757
 20
-11.4412176326
 11
21.9735118817
 21
-9.3998446659
  0
LINE
  5
57F
100
AcDbEntity
  8
0
100
AcDbLine
 62
7
  6
CONTINUOUS
 10
24.4851894535
 20
-7.8028146301
 11
22.2009230363
 21
-9.1216835193
  0
LINE
  5
580
100
AcDbEntity
  8
0
100
AcDbLine
 62
7
  6
CONTINUOUS
 10
22.5406458052
 20
-8.9255697618
 11
22.2009230363
 21
-9.1216835193
  0
LINE
  5
581
100
AcDbEntity
  8
0
100
AcDbLine
 62
7
  6
CONTINUOUS
 10
18.6515585087
 20
-11.1710800251
 11
14.7763018338
 21
-13.4085667493
  0
LINE
  5
582
100
AcDbEntity
  8
0
100
AcDbLine
 62
7
  6
CONTINUOUS
 10
11.2269373062
 20
-15.457963255
 11
7.3516806313
 21
-17.6954499792
  0
LINE
  5
583
100
AcDbEntity
  8
RACCORDO
100
AcDbLine
 62
7
  6
CONTINUOUS
 10
25.4950527858
 20
-7.2348414214
 11
25.0553002582
 21
-7.488699945
  0
LINE
  5
584
100
AcDbEntity
  8
ASSI
100
AcDbLine
 62
7
  6
CONTINUOUS
 10
25.4950527858
 20
-7.2348414214
 11
25.0553002582
 21
-7.488699945
  0
LINE
  5
585
100
AcDbEntity
  8
RACCORDO
100
AcDbLine
 62
7
  6
CONTINUOUS
 10
25.0553002582
 20
-7.488699945
 11
25.0521962491
 21
-7.4904685169
  0
LINE
  5
586
100
AcDbEntity
  8
ASSI
100
AcDbLine
 62
7
  6
CONTINUOUS
 10
25.0553002582
 20
-7.488699945
 11
25.0521962491
 21
-7.4904685169
  0
LINE
  5
587
100
AcDbEntity
  8
RACCORDO
100
AcDbLine
 62
253
  6
CONTINUOUS
 10
25.702151681
 20
-6.7771080416
 11
24.6322352681
 21
-7.3797484447
  0
LINE
  5
588
100
AcDbEntity
  8
ASSI
100
AcDbLine
 62
253
  6
CONTINUOUS
 10
25.702151681
 20
-6.7771080416
 11
24.6322352681
 21
-7.3797484447
  0
LINE
  5
589
100
AcDbEntity
  8
RACCORDO
100
AcDbLine
 62
253
  6
CONTINUOUS
 10
25.4950527858
 20
-7.2348414214
 11
24.4855666359
 21
-7.803443915
  0
LINE
  5
58A
100
AcDbEntity
  8
ASSI
100
AcDbLine
 62
253
  6
CONTINUOUS
 10
25.4950527858
 20
-7.2348414214
 11
24.4855666359
 21
-7.803443915
  0
LINE
  5
58B
100
AcDbEntity
  8
RACCORDO
100
AcDbLine
 62
253
  6
CONTINUOUS
 10
25.0522183414
 20
-7.4904572602
 11
25.0553002582
 21
-7.488699945
  0
LINE
  5
58C
100
AcDbEntity
  8
ASSI
100
AcDbLine
 62
253
  6
CONTINUOUS
 10
25.0522183414
 20
-7.4904572602
 11
25.0553002582
 21
-7.488699945
  0
LINE
  5
58D
100
AcDbEntity
  8
RACCORDO
100
AcDbLine
 62
7
  6
CONTINUOUS
 10
24.4881939165
 20
-7.8081090117
 11
25.0522183414
 21
-7.4904572602
  0
LINE
  5
58E
100
AcDbEntity
  8
ASSI
100
AcDbLine
 62
7
  6
CONTINUOUS
 10
24.4277618434
 20
-7.8421436262
 11
25.0522183414
 21
-7.4904572602
  0
LWPOLYLINE
  5
58F
100
AcDbEntity
  8
0
100
AcDbPolyline
 62
7
  6
CONTINUOUS
 90
11
 70
0
 10
18.4379763327
 20
-11.4412146915
 10
18.4210842268
 20
-11.4505097619
 10
18.386273895
 20
-11.4669542331
 10
18.3499350216
 20
-11.4806013684
 10
18.3121070855
 20
-11.4914574101
 10
18.2730920933
 20
-11.4994351156
 10
18.2329122293
 20
-11.5045091532
 10
18.1915453091
 20
-11.5067048545
 10
18.1492267861
 20
-11.5060109711
 10
18.105922464
 20
-11.5024077097
 10
18.0833479987
 20
-11.4990957796
  0
LWPOLYLINE
  5
590
100
AcDbEntity
  8
0
100
AcDbPolyline
 62
7
  6
CONTINUOUS
 90
11
 70
0
 10
11.0133551303
 20
-15.7280979215
 10
10.9964630243
 20
-15.7373929919
 10
10.9616526926
 20
-15.7538374631
 10
10.9253138192
 20
-15.7674845983
 10
10.8874858831
 20
-15.7783406401
 10
10.8484708908
 20
-15.7863183455
 10
10.8082910268
 20
-15.7913923831
 10
10.7669241067
 20
-15.7935880844
 10
10.7246055837
 20
-15.792894201
 10
10.6813012615
 20
-15.7892909396
 10
10.6587267962
 20
-15.7859790096
  0
LINE
  5
591
100
AcDbEntity
  8
0
100
AcDbLine
 62
7
  6
CONTINUOUS
 10
-2.838863181
 20
-20.6277949897
 11
-4.2777619329
 21
-21.4015881739
  0
LINE
  5
592
100
AcDbEntity
  8
0
100
AcDbLine
 62
7
  6
CONTINUOUS
 10
-5.7733563229
 20
17.1838229889
 11
-7.133288263
 21
16.9701445244
  0
LWPOLYLINE
  5
593
100
AcDbEntity
  8
ASSI
100
AcDbPolyline
 62
7
  6
CONTINUOUS
 90
3
 70
0
 10
20.6452316738
 20
14.4831453282
 10
20.6148565586
 20
14.4898162834
 10
20.5164823077
 20
14.4987020318
  0
LINE
  5
594
100
AcDbEntity
  8
RACCORDO
100
AcDbLine
 62
7
  6
CONTINUOUS
 10
19.9496173642
 20
9.8527403525
 11
19.9462501225
 21
9.8546728795
  0
LINE
  5
595
100
AcDbEntity
  8
ASSI
100
AcDbLine
 62
7
  6
CONTINUOUS
 10
19.9495534445
 20
9.8527768162
 11
19.9462501225
 21
9.8546728795
  0
LINE
  5
596
100
AcDbEntity
  8
RACCORDO
100
AcDbLine
 62
253
  6
CONTINUOUS
 10
21.0320265153
 20
9.9549942482
 11
20.4542613502
 21
10.2885886135
  0
LINE
  5
597
100
AcDbEntity
  8
ASSI
100
AcDbLine
 62
253
  6
CONTINUOUS
 10
21.0320265153
 20
9.9549942482
 11
20.4542613502
 21
10.2885886135
  0
LINE
  5
598
100
AcDbEntity
  8
ASSI
100
AcDbLine
 62
7
  6
CONTINUOUS
 10
19.9494834131
 20
9.852819985
 11
19.8951036783
 21
9.8882772039
  0
LWPOLYLINE
  5
599
100
AcDbEntity
  8
RACCORDO
100
AcDbPolyline
 62
7
  6
CONTINUOUS
 90
34
 70
0
 10
19.9495473197
 20
9.8527835383
 10
19.8935473201
 20
9.8894369106
 10
19.836566938
 20
9.9384313839
 10
19.7852002897
 20
9.9957793205
 10
19.7387304528
 20
10.0623882641
 10
19.6974031448
 20
10.1384765903
 10
19.6619506779
 20
10.2233051553
 10
19.6328036777
 20
10.3163757781
 10
19.6103092407
 20
10.4169444795
 10
19.5947235484
 20
10.5242168905
 10
19.5862067647
 20
10.6376375901
 10
19.5848476144
 20
10.7561406677
 10
19.5906466013
 20
10.8791299276
 10
19.6037361857
 20
11.0070598928
 10
19.6242953441
 20
11.1397213932
 10
19.6523205621
 20
11.2758905218
 10
19.6877706722
 20
11.4146809458
 10
19.7305468236
 20
11.5553255448
 10
19.7804848477
 20
11.6970120364
 10
19.8373396881
 20
11.838815319
 10
19.9008243251
 20
11.9799135795
 10
19.9706233112
 20
12.119549287
 10
20.0463758936
 20
12.2569258871
 10
20.1276800598
 20
12.3912868339
 10
20.2140850465
 20
12.521898257
 10
20.3051069443
 20
12.6480232973
 10
20.4002764206
 20
12.7690289206
 10
20.4989937681
 20
12.8842113917
 10
20.6005101915
 20
12.9927711607
 10
20.7042485549
 20
13.0941954067
 10
20.8095522749
 20
13.1879828925
 10
20.915469743
 20
13.2734586069
 10
21.0212063975
 20
13.3502213532
 10
21.1261436249
 20
13.4181246655
  0
LWPOLYLINE
  5
59A
100
AcDbEntity
  8
ASSI
100
AcDbPolyline
 62
7
  6
CONTINUOUS
 90
33
 70
0
 10
19.8951036783
 20
5.8059258199
 10
19.8379774528
 20
5.8546989997
 10
19.7864636964
 20
5.9118346748
 10
19.7398347678
 20
5.978250525
 10
19.6983358257
 20
6.0541787257
 10
19.662704899
 20
6.1388855673
 10
19.6333797894
 20
6.2318733039
 10
19.6107123224
 20
6.3324043313
 10
19.5949639551
 20
6.4396802319
 10
19.5863000381
 20
6.5531236181
 10
19.5848094989
 20
6.6716534221
 10
19.5904900514
 20
6.7946788004
 10
19.6034735668
 20
6.9226636413
 10
19.6239405422
 20
7.0554006945
 10
19.6518877947
 20
7.1916604895
 10
19.6872755669
 20
7.3305584305
 10
19.7300066489
 20
7.4713273067
 10
19.7799165388
 20
7.6131506584
 10
19.8367597451
 20
7.7550997439
 10
19.9002491724
 20
7.8963501064
 10
19.9700687496
 20
8.0361419756
 10
20.0458566994
 20
8.1736759442
 10
20.1272101632
 20
8.3081928528
 10
20.2136772438
 20
8.4389566565
 10
20.3047727242
 20
8.5652282689
 10
20.4000260171
 20
8.6863724931
 10
20.4988357501
 20
8.8016834488
 10
20.6004511199
 20
8.9103593553
 10
20.7042934017
 20
9.0118858915
 10
20.8097039109
 20
9.1057601442
 10
20.915727936
 20
9.1913049875
 10
21.0215682936
 20
9.26811826
 10
21.1264483102
 20
9.335952381
  0
LWPOLYLINE
  5
59B
100
AcDbEntity
  8
0
100
AcDbPolyline
 62
7
  6
CONTINUOUS
 90
11
 70
0
 10
22.1972182369
 20
-7.1851977957
 10
22.177237643
 20
-7.1241872507
 10
22.1549077564
 20
-7.063433539
 10
22.1302292478
 20
-7.0029983293
 10
22.1032014463
 20
-6.9428199528
 10
22.0740520012
 20
-6.8834087616
 10
22.0427238914
 20
-6.8247050706
 10
22.0092741379
 20
-6.7667685648
 10
21.9741014526
 20
-6.7102886514
 10
21.9372330033
 20
-6.6553485941
 10
21.8986692789
 20
-6.6019034585
  0
LWPOLYLINE
  5
59C
100
AcDbEntity
  8
RACCORDO
100
AcDbPolyline
 62
253
  6
CONTINUOUS
 90
13
 70
0
 10
21.2422992946
 20
1.4218038362
 10
21.2405002521
 20
1.4548332473
 10
21.2351339626
 20
1.4894112765
 10
21.2262923303
 20
1.5249462217
 10
21.2141267293
 20
1.5608300099
 10
21.1988453911
 20
1.5964486626
 10
21.1807098218
 20
1.6311927979
 10
21.1600303802
 20
1.6644679463
 10
21.1371609294
 20
1.6957048104
 10
21.1124927318
 20
1.7243690434
 10
21.0864478466
 20
1.7499702572
 10
21.0594719244
 20
1.7720704319
 10
21.0320265173
 20
1.7902914814
  0
LWPOLYLINE
  5
59D
100
AcDbEntity
  8
ASSI
100
AcDbPolyline
 62
253
  6
CONTINUOUS
 90
13
 70
0
 10
21.2422992946
 20
1.4218038362
 10
21.2405002521
 20
1.4548332473
 10
21.2351339626
 20
1.4894112765
 10
21.2262923303
 20
1.5249462217
 10
21.2141267293
 20
1.5608300099
 10
21.1988453911
 20
1.5964486626
 10
21.1807098218
 20
1.6311927979
 10
21.1600303802
 20
1.6644679463
 10
21.1371609294
 20
1.6957048104
 10
21.1124927318
 20
1.7243690434
 10
21.0864478466
 20
1.7499702572
 10
21.0594719244
 20
1.7720704319
 10
21.0320265173
 20
1.7902914814
  0
LWPOLYLINE
  5
59E
100
AcDbEntity
  8
RACCORDO
100
AcDbPolyline
 62
253
  6
CONTINUOUS
 90
13
 70
0
 10
21.2422992946
 20
5.5041552201
 10
21.2405002521
 20
5.5371846313
 10
21.2351339626
 20
5.5717626605
 10
21.2262923303
 20
5.6072976056
 10
21.2141267293
 20
5.6431813939
 10
21.1988453911
 20
5.6788000465
 10
21.1807098218
 20
5.7135441819
 10
21.1600303802
 20
5.7468193303
 10
21.1371609294
 20
5.7780561944
 10
21.1124927318
 20
5.8067204274
 10
21.0864478466
 20
5.8323216412
 10
21.0594719244
 20
5.8544218159
 10
21.0320265173
 20
5.8726428654
  0
LWPOLYLINE
  5
59F
100
AcDbEntity
  8
ASSI
100
AcDbPolyline
 62
253
  6
CONTINUOUS
 90
13
 70
0
 10
21.2422992946
 20
5.5041552201
 10
21.2405002521
 20
5.5371846313
 10
21.2351339626
 20
5.5717626605
 10
21.2262923303
 20
5.6072976056
 10
21.2141267293
 20
5.6431813939
 10
21.1988453911
 20
5.6788000465
 10
21.1807098218
 20
5.7135441819
 10
21.1600303802
 20
5.7468193303
 10
21.1371609294
 20
5.7780561944
 10
21.1124927318
 20
5.8067204274
 10
21.0864478466
 20
5.8323216412
 10
21.0594719244
 20
5.8544218159
 10
21.0320265173
 20
5.8726428654
  0
LWPOLYLINE
  5
5A0
100
AcDbEntity
  8
RACCORDO
100
AcDbPolyline
 62
253
  6
CONTINUOUS
 90
13
 70
0
 10
21.2422992946
 20
9.5865066041
 10
21.2405002521
 20
9.6195360153
 10
21.2351339626
 20
9.6541140444
 10
21.2262923303
 20
9.6896489896
 10
21.2141267293
 20
9.7255327779
 10
21.1988453911
 20
9.7611514305
 10
21.1807098218
 20
9.7958955659
 10
21.1600303802
 20
9.8291707142
 10
21.1371609294
 20
9.8604075783
 10
21.1124927318
 20
9.8890718113
 10
21.0864478466
 20
9.9146730251
 10
21.0594719244
 20
9.9367731998
 10
21.0320265173
 20
9.9549942493
  0
LWPOLYLINE
  5
5A1
100
AcDbEntity
  8
ASSI
100
AcDbPolyline
 62
253
  6
CONTINUOUS
 90
13
 70
0
 10
21.2422992946
 20
9.5865066041
 10
21.2405002521
 20
9.6195360153
 10
21.2351339626
 20
9.6541140444
 10
21.2262923303
 20
9.6896489896
 10
21.2141267293
 20
9.7255327779
 10
21.1988453911
 20
9.7611514305
 10
21.1807098218
 20
9.7958955659
 10
21.1600303802
 20
9.8291707142
 10
21.1371609294
 20
9.8604075783
 10
21.1124927318
 20
9.8890718113
 10
21.0864478466
 20
9.9146730251
 10
21.0594719244
 20
9.9367731998
 10
21.0320265173
 20
9.9549942493
  0
LINE
  5
5A2
100
AcDbEntity
  8
RACCORDO
100
AcDbLine
 62
7
  6
CONTINUOUS
 10
20.7524042127
 20
25.3956291928
 11
20.7524042127
 21
24.7424343182
  0
LINE
  5
5A3
100
AcDbEntity
  8
ASSI
100
AcDbLine
 62
7
  6
CONTINUOUS
 10
20.7524042127
 20
25.3956291928
 11
20.7524042127
 21
24.7424343182
  0
LINE
  5
5A4
100
AcDbEntity
  8
ASSI
100
AcDbLine
 62
7
  6
CONTINUOUS
 10
21.2722323707
 20
5.2584294147
 11
21.2722323707
 21
5.3374199783
  0
LINE
  5
5A5
100
AcDbEntity
  8
ASSI
100
AcDbLine
 62
7
  6
CONTINUOUS
 10
21.2722323707
 20
9.3407807987
 11
21.2722323707
 21
9.4197713622
  0
LINE
  5
5A6
100
AcDbEntity
  8
ASSI
100
AcDbLine
 62
7
  6
CONTINUOUS
 10
21.2722323707
 20
13.4231321826
 11
21.2722323707
 21
13.5021227462
  0
LINE
  5
5A7
100
AcDbEntity
  8
ASSI
100
AcDbLine
 62
7
  6
CONTINUOUS
 10
21.2722323707
 20
17.5054835666
 11
21.2722323707
 21
17.5844741301
  0
LWPOLYLINE
  5
5A8
100
AcDbEntity
  8
RACCORDO
100
AcDbPolyline
 62
253
  6
CONTINUOUS
 90
7
 70
0
 10
21.2422992946
 20
17.6695623444
 10
21.2405003818
 20
17.6386480754
 10
21.2351344234
 20
17.6103766741
 10
21.2262932324
 20
17.585231872
 10
21.214128084
 20
17.5636439035
 10
21.1988471274
 20
17.5459821449
 10
21.1800745249
 20
17.5321840372
  0
LWPOLYLINE
  5
5A9
100
AcDbEntity
  8
ASSI
100
AcDbPolyline
 62
253
  6
CONTINUOUS
 90
7
 70
0
 10
21.2422992946
 20
17.6695623444
 10
21.2405003818
 20
17.6386480754
 10
21.2351344234
 20
17.6103766741
 10
21.2262932324
 20
17.585231872
 10
21.214128084
 20
17.5636439035
 10
21.1988471274
 20
17.5459821449
 10
21.1800745249
 20
17.5321840372
  0
LWPOLYLINE
  5
5AA
100
AcDbEntity
  8
RACCORDO
100
AcDbPolyline
 62
253
  6
CONTINUOUS
 90
7
 70
0
 10
21.2422992946
 20
13.5872109604
 10
21.2405003818
 20
13.5562966915
 10
21.2351344234
 20
13.5280252902
 10
21.2262932324
 20
13.502880488
 10
21.214128084
 20
13.4812925196
 10
21.1988471274
 20
13.4636307609
 10
21.1800745249
 20
13.4498326532
  0
LWPOLYLINE
  5
5AB
100
AcDbEntity
  8
ASSI
100
AcDbPolyline
 62
253
  6
CONTINUOUS
 90
7
 70
0
 10
21.2422992946
 20
13.5872109604
 10
21.2405003818
 20
13.5562966915
 10
21.2351344234
 20
13.5280252902
 10
21.2262932324
 20
13.502880488
 10
21.214128084
 20
13.4812925196
 10
21.1988471274
 20
13.4636307609
 10
21.1800745249
 20
13.4498326532
  0
LWPOLYLINE
  5
5AC
100
AcDbEntity
  8
RACCORDO
100
AcDbPolyline
 62
253
  6
CONTINUOUS
 90
7
 70
0
 10
21.2422992946
 20
9.5048595764
 10
21.2405003818
 20
9.4739453075
 10
21.2351344234
 20
9.4456739062
 10
21.2262932324
 20
9.4205291041
 10
21.214128084
 20
9.3989411356
 10
21.1988471274
 20
9.381279377
 10
21.1800745249
 20
9.3674812693
  0
LWPOLYLINE
  5
5AD
100
AcDbEntity
  8
ASSI
100
AcDbPolyline
 62
253
  6
CONTINUOUS
 90
7
 70
0
 10
21.2422992946
 20
9.5048595764
 10
21.2405003818
 20
9.4739453075
 10
21.2351344234
 20
9.4456739062
 10
21.2262932324
 20
9.4205291041
 10
21.214128084
 20
9.3989411356
 10
21.1988471274
 20
9.381279377
 10
21.1800745249
 20
9.3674812693
  0
LWPOLYLINE
  5
5AE
100
AcDbEntity
  8
RACCORDO
100
AcDbPolyline
 62
253
  6
CONTINUOUS
 90
7
 70
0
 10
21.2422992946
 20
5.4225081925
 10
21.2405003818
 20
5.3915939235
 10
21.2351344234
 20
5.3633225222
 10
21.2262932324
 20
5.3381777201
 10
21.214128084
 20
5.3165897517
 10
21.1988471274
 20
5.298927993
 10
21.1800745249
 20
5.2851298853
  0
LWPOLYLINE
  5
5AF
100
AcDbEntity
  8
ASSI
100
AcDbPolyline
 62
253
  6
CONTINUOUS
 90
7
 70
0
 10
21.2422992946
 20
5.4225081925
 10
21.2405003818
 20
5.3915939235
 10
21.2351344234
 20
5.3633225222
 10
21.2262932324
 20
5.3381777201
 10
21.214128084
 20
5.3165897517
 10
21.1988471274
 20
5.298927993
 10
21.1800745249
 20
5.2851298853
  0
LINE
  5
5B0
100
AcDbEntity
  8
0
100
AcDbLine
 62
7
  6
CONTINUOUS
 10
18.6657467809
 20
-11.1621558073
 11
18.6569479962
 21
-11.1843139652
  0
LWPOLYLINE
  5
5B1
100
AcDbEntity
  8
0
100
AcDbPolyline
 62
7
  6
CONTINUOUS
 90
10
 70
0
 10
18.6569479962
 20
-11.1843139652
 10
18.638414359
 20
-11.2236147886
 10
18.6178539925
 20
-11.2606071377
 10
18.595266939
 20
-11.2953305223
 10
18.5707806784
 20
-11.3275866781
 10
18.5443621787
 20
-11.3573821488
 10
18.5160444718
 20
-11.3847103907
 10
18.4860541326
 20
-11.4093535095
 10
18.4544054959
 20
-11.4312741973
 10
18.4379763327
 20
-11.4412146915
  0
LWPOLYLINE
  5
5B2
100
AcDbEntity
  8
0
100
AcDbPolyline
 62
7
  6
CONTINUOUS
 90
16
 70
0
 10
15.2179765223
 20
-13.101530341
 10
15.2237175134
 20
-13.0897082354
 10
15.2290754641
 20
-13.0775071034
 10
15.2340503743
 20
-13.0649269448
 10
15.2386457188
 20
-13.0519568299
 10
15.2428580227
 20
-13.0386076885
 10
15.2466768621
 20
-13.0249123106
 10
15.250101217
 20
-13.0108699764
 10
15.2531321073
 20
-12.9964814057
 10
15.2557621678
 20
-12.9817815476
 10
15.2579904235
 20
-12.9667696575
 10
15.2598178495
 20
-12.9514464801
 10
15.2612400059
 20
-12.9358491989
 10
15.2622554127
 20
-12.9199902086
 10
15.2628655498
 20
-12.9038571146
 10
15.2630704174
 20
-12.8874499169
  0
LWPOLYLINE
  5
5B3
100
AcDbEntity
  8
0
100
AcDbPolyline
 62
7
  6
CONTINUOUS
 90
16
 70
0
 10
18.7535104282
 20
-11.0601573744
 10
18.7592514194
 20
-11.0483352688
 10
18.7646093701
 20
-11.0361341367
 10
18.7695842803
 20
-11.0235539782
 10
18.7741796247
 20
-11.0105838633
 10
18.7783919287
 20
-10.9972347219
 10
18.782210768
 20
-10.9835393439
 10
18.7856351229
 20
-10.9694970097
 10
18.7886660132
 20
-10.955108439
 10
18.7912960737
 20
-10.940408581
 10
18.7935243295
 20
-10.9253966909
 10
18.7953517555
 20
-10.9100735134
 10
18.7967739118
 20
-10.8944762323
 10
18.7977893186
 20
-10.878617242
 10
18.7983994558
 20
-10.862484148
 10
18.7986043233
 20
-10.8460769503
  0
LWPOLYLINE
  5
5B4
100
AcDbEntity
  8
RACCORDO
100
AcDbPolyline
 62
7
  6
CONTINUOUS
 90
16
 70
0
 10
-3.942700029
 20
-29.9341662513
 10
-3.9373431684
 20
-29.929767869
 10
-3.9323010984
 20
-29.9249019092
 10
-3.9275851978
 20
-29.9195793725
 10
-3.9232062005
 20
-29.9138123461
 10
-3.9191740403
 20
-29.9076139031
 10
-3.9154977632
 20
-29.9009980386
 10
-3.9121857682
 20
-29.8939797816
 10
-3.9092455939
 20
-29.8865750525
 10
-3.9066837694
 20
-29.8788005549
 10
-3.9045061881
 20
-29.8706739536
 10
-3.9027178398
 20
-29.8622136917
 10
-3.9013226043
 20
-29.8534388406
 10
-3.9003236463
 20
-29.8443692828
 10
-3.8997234088
 20
-29.8350256664
 10
-3.8995233528
 20
-29.8254292158
  0
LINE
  5
5B5
100
AcDbEntity
  8
RACCORDO
100
AcDbLine
 62
253
  6
CONTINUOUS
 10
-2.838863181
 20
-24.2503012663
 11
2.0244861239
 21
-21.3011716233
  0
LINE
  5
5B6
100
AcDbEntity
  8
RACCORDO
100
AcDbLine
 62
7
  6
CONTINUOUS
 10
-2.838863181
 20
-24.9147043829
 11
1.6227486964
 21
-22.2091878718
  0
LWPOLYLINE
  5
5B7
100
AcDbEntity
  8
0
100
AcDbPolyline
 62
7
  6
CONTINUOUS
 90
16
 70
0
 10
22.5406629902
 20
-8.9255598353
 10
22.5490352927
 20
-8.9204910928
 10
22.5572069759
 20
-8.9150719217
 10
22.5651608547
 20
-8.9093122482
 10
22.5729007029
 20
-8.9032087233
 10
22.5804227467
 20
-8.8967646961
 10
22.587715665
 20
-8.8899902145
 10
22.5947795982
 20
-8.8828844005
 10
22.6016144059
 20
-8.8754481321
 10
22.6082083461
 20
-8.8676940913
 10
22.6145609328
 20
-8.8596218711
 10
22.6206726521
 20
-8.8512318785
 10
22.6265332193
 20
-8.8425380159
 10
22.6321392065
 20
-8.8335449176
 10
22.6374940416
 20
-8.8242479493
 10
22.6425977248
 20
-8.8146471111
  0
LINE
  5
5B8
100
AcDbEntity
  8
RACCORDO
100
AcDbLine
 62
7
  6
CONTINUOUS
 10
1.8571350129
 20
-22.2149203995
 11
1.7168495779
 21
-22.2959309871
  0
LINE
  5
5B9
100
AcDbEntity
  8
RACCORDO
100
AcDbLine
 62
7
  6
CONTINUOUS
 10
1.7168495779
 20
-22.2959309871
 11
-2.838863181
 21
-24.9263514693
  0
LWPOLYLINE
  5
5BA
100
AcDbEntity
  8
ASSI
100
AcDbPolyline
 62
253
  6
CONTINUOUS
 90
31
 70
0
 10
-9.7348438609
 20
-30.4396542025
 10
-9.7539084845
 20
-30.4506153514
 10
-9.7738529956
 20
-30.4609904792
 10
-9.7946239346
 20
-30.4707517762
 10
-9.8161656266
 20
-30.4798730779
 10
-9.8384203306
 20
-30.4883299355
 10
-9.8613283947
 20
-30.4960996808
 10
-9.8848284156
 20
-30.5031614878
 10
-9.9088574032
 20
-30.5094964279
 10
-9.9333509498
 20
-30.5150875206
 10
-9.9582434023
 20
-30.5199197795
 10
-9.9834680384
 20
-30.5239802521
 10
-10.0089572453
 20
-30.5272580546
 10
-10.0346427013
 20
-30.5297444012
 10
-10.0604555584
 20
-30.5314326273
 10
-10.0863266273
 20
-30.5323182079
 10
-10.1121865625
 20
-30.5323987691
 10
-10.1379660486
 20
-30.531674095
 10
-10.1635959856
 20
-30.5301461282
 10
-10.1890076744
 20
-30.527818964
 10
-10.2141330009
 20
-30.5246988405
 10
-10.2389046187
 20
-30.5207941207
 10
-10.2632561294
 20
-30.516115271
 10
-10.2871222605
 20
-30.5106748328
 10
-10.3104390408
 20
-30.5044873886
 10
-10.3331439715
 20
-30.4975695234
 10
-10.3551761936
 20
-30.4899397801
 10
-10.3764766517
 20
-30.4816186095
 10
-10.3969882513
 20
-30.472628316
 10
-10.4166560128
 20
-30.4629929973
 10
-10.4354272183
 20
-30.4527384802
  0
LWPOLYLINE
  5
5BB
100
AcDbEntity
  8
RACCORDO
100
AcDbPolyline
 62
253
  6
CONTINUOUS
 90
31
 70
0
 10
-9.7348438609
 20
-30.4396542025
 10
-9.7539084843
 20
-30.4506153478
 10
-9.773852995
 20
-30.4609904722
 10
-9.7946239332
 20
-30.4707517657
 10
-9.816165624
 20
-30.479873064
 10
-9.8384203266
 20
-30.4883299181
 10
-9.861328389
 20
-30.4960996603
 10
-9.8848284079
 20
-30.5031614641
 10
-9.9088573933
 20
-30.5094964012
 10
-9.9333509374
 20
-30.515087491
 10
-9.9582433872
 20
-30.5199197472
 10
-9.9834680204
 20
-30.5239802172
 10
-10.0089572243
 20
-30.5272580173
 10
-10.0346426771
 20
-30.5297443616
 10
-10.0604555309
 20
-30.5314325856
 10
-10.0863265964
 20
-30.5323181643
 10
-10.1121865281
 20
-30.5323987238
 10
-10.1379660107
 20
-30.5316740482
 10
-10.1635959441
 20
-30.53014608
 10
-10.1890076293
 20
-30.5278189147
 10
-10.2141329523
 20
-30.5246987902
 10
-10.2389045666
 20
-30.5207940697
 10
-10.2632560738
 20
-30.5161152196
 10
-10.2871222016
 20
-30.510674781
 10
-10.3104389787
 20
-30.5044873366
 10
-10.3331439062
 20
-30.4975694715
 10
-10.3551761255
 20
-30.4899397285
 10
-10.3764765807
 20
-30.4816185584
 10
-10.3969881778
 20
-30.4726282655
 10
-10.416655937
 20
-30.4629929476
 10
-10.4354271403
 20
-30.4527384315
  0
LWPOLYLINE
  5
5BC
100
AcDbEntity
  8
0
100
AcDbPolyline
 62
7
  6
CONTINUOUS
 90
11
 70
0
 10
3.5887339278
 20
-20.0149811514
 10
3.5718418219
 20
-20.0242762218
 10
3.5370314901
 20
-20.040720693
 10
3.5006926167
 20
-20.0543678282
 10
3.4628646806
 20
-20.06522387
 10
3.4238496884
 20
-20.0732015755
 10
3.3836698244
 20
-20.0782756131
 10
3.3423029042
 20
-20.0804713143
 10
3.2999843812
 20
-20.079777431
 10
3.256680059
 20
-20.0761741696
 10
3.2341055938
 20
-20.0728622395
  0
LINE
  5
5BD
100
AcDbEntity
  8
RACCORDO
100
AcDbLine
 62
253
  6
CONTINUOUS
 10
11.5628044294
 20
20.2082480747
 11
9.2829928632
 21
20.1967617066
  0
LINE
  5
5BE
100
AcDbEntity
  8
ASSI
100
AcDbLine
 62
253
  6
CONTINUOUS
 10
11.5628044294
 20
20.2082480747
 11
9.2829928632
 21
20.1967617066
  0
LINE
  5
5BF
100
AcDbEntity
  8
RACCORDO
100
AcDbLine
 62
253
  6
CONTINUOUS
 10
11.5609532516
 20
20.6253272244
 11
9.2811416854
 21
20.6138408563
  0
LINE
  5
5C0
100
AcDbEntity
  8
ASSI
100
AcDbLine
 62
253
  6
CONTINUOUS
 10
11.5609532516
 20
20.6253272244
 11
9.2811416854
 21
20.6138408563
  0
LINE
  5
5C1
100
AcDbEntity
  8
RACCORDO
100
AcDbLine
 62
7
  6
CONTINUOUS
 10
11.5628044294
 20
19.4703737682
 11
9.2829928632
 21
19.4703737682
  0
LINE
  5
5C2
100
AcDbEntity
  8
ASSI
100
AcDbLine
 62
7
  6
CONTINUOUS
 10
11.5628044294
 20
19.4703737682
 11
9.2829928632
 21
19.4703737682
  0
LWPOLYLINE
  5
5C3
100
AcDbEntity
  8
RACCORDO
100
AcDbPolyline
 62
253
  6
CONTINUOUS
 90
10
 70
0
 10
9.2811416854
 20
20.6138408563
 10
9.2635206137
 20
20.6142181636
 10
9.2462765562
 20
20.6154529977
 10
9.2294095129
 20
20.6175453586
 10
9.2127863068
 20
20.6205271554
 10
9.1965401149
 20
20.624366479
 10
9.1810704682
 20
20.6289676024
 10
9.1665105434
 20
20.6342986167
 10
9.1527271638
 20
20.6403914308
 10
9.1397203292
 20
20.6472460448
  0
LWPOLYLINE
  5
5C4
100
AcDbEntity
  8
ASSI
100
AcDbPolyline
 62
253
  6
CONTINUOUS
 90
10
 70
0
 10
9.2811416854
 20
20.6138408563
 10
9.2635206137
 20
20.6142181636
 10
9.2462765562
 20
20.6154529977
 10
9.2294095129
 20
20.6175453586
 10
9.2127863068
 20
20.6205271554
 10
9.1965401149
 20
20.624366479
 10
9.1810704682
 20
20.6289676024
 10
9.1665105434
 20
20.6342986167
 10
9.1527271638
 20
20.6403914308
 10
9.1397203292
 20
20.6472460448
  0
LWPOLYLINE
  5
5C5
100
AcDbEntity
  8
RACCORDO
100
AcDbPolyline
 62
253
  6
CONTINUOUS
 90
10
 70
0
 10
9.2829928632
 20
20.1967617066
 10
9.2393766218
 20
20.1977773488
 10
9.1961089204
 20
20.2009933412
 10
9.1535188339
 20
20.2063821773
 10
9.1119379704
 20
20.2138978429
 10
9.0716725324
 20
20.2234816552
 10
9.0330038902
 20
20.2350668691
 10
8.9962199949
 20
20.2485697765
 10
8.9616101617
 20
20.2638862351
 10
8.9294394726
 20
20.2809007572
  0
LWPOLYLINE
  5
5C6
100
AcDbEntity
  8
ASSI
100
AcDbPolyline
 62
253
  6
CONTINUOUS
 90
10
 70
0
 10
9.2829928632
 20
20.1967617066
 10
9.2393766218
 20
20.1977773488
 10
9.1961089204
 20
20.2009933412
 10
9.1535188339
 20
20.2063821773
 10
9.1119379704
 20
20.2138978429
 10
9.0716725324
 20
20.2234816552
 10
9.0330038902
 20
20.2350668691
 10
8.9962199949
 20
20.2485697765
 10
8.9616101617
 20
20.2638862351
 10
8.9294394726
 20
20.2809007572
  0
LWPOLYLINE
  5
5C7
100
AcDbEntity
  8
RACCORDO
100
AcDbPolyline
 62
7
  6
CONTINUOUS
 90
10
 70
0
 10
8.9294394726
 20
19.554930205
 10
8.9620235749
 20
19.5377582277
 10
8.9965151954
 20
19.5224740187
 10
9.0329143341
 20
19.5090775781
 10
9.0715311458
 20
19.4974936576
 10
9.1120554756
 20
19.4877975055
 10
9.1535568587
 20
19.4802148661
 10
9.1957251402
 20
19.4748209874
 10
9.2388704751
 20
19.4715406214
 10
9.2829928632
 20
19.4703737682
  0
LWPOLYLINE
  5
5C8
100
AcDbEntity
  8
ASSI
100
AcDbPolyline
 62
7
  6
CONTINUOUS
 90
10
 70
0
 10
8.9294394726
 20
19.554930205
 10
8.9620235749
 20
19.5377582277
 10
8.9965151954
 20
19.5224740187
 10
9.0329143341
 20
19.5090775781
 10
9.0715311458
 20
19.4974936576
 10
9.1120554756
 20
19.4877975055
 10
9.1535568587
 20
19.4802148661
 10
9.1957251402
 20
19.4748209874
 10
9.2388704751
 20
19.4715406214
 10
9.2829928632
 20
19.4703737682
  0
LINE
  5
5C9
100
AcDbEntity
  8
RACCORDO
100
AcDbLine
 62
7
  6
CONTINUOUS
 10
8.7876314124
 20
19.6368394178
 11
8.7845523174
 21
19.6385862325
  0
LINE
  5
5CA
100
AcDbEntity
  8
ASSI
100
AcDbLine
 62
7
  6
CONTINUOUS
 10
8.7876314124
 20
19.6368394178
 11
8.7845523174
 21
19.6385862325
  0
LINE
  5
5CB
100
AcDbEntity
  8
RACCORDO
100
AcDbLine
 62
7
  6
CONTINUOUS
 10
25.490011569
 20
8.4020905826
 11
24.8443673025
 21
8.7748774902
  0
LINE
  5
5CC
100
AcDbEntity
  8
ASSI
100
AcDbLine
 62
7
  6
CONTINUOUS
 10
25.490011569
 20
8.4020905826
 11
24.8443673025
 21
8.7748774902
  0
LINE
  5
5CD
100
AcDbEntity
  8
ASSI
100
AcDbLine
 62
7
  6
CONTINUOUS
 10
8.7930433695
 20
19.1437619845
 11
5.8231948885
 21
20.8585152765
  0
LINE
  5
5CE
100
AcDbEntity
  8
RACCORDO
100
AcDbLine
 62
7
  6
CONTINUOUS
 10
6.3939055667
 20
21.0189157046
 11
8.7845523174
 21
19.6385862325
  0
LINE
  5
5CF
100
AcDbEntity
  8
ASSI
100
AcDbLine
 62
7
  6
CONTINUOUS
 10
6.3939055667
 20
21.0189157046
 11
8.7845523174
 21
19.6385862325
  0
LINE
  5
5D0
100
AcDbEntity
  8
RACCORDO
100
AcDbLine
 62
7
  6
CONTINUOUS
 10
8.7868615029
 20
19.6372878303
 11
8.9294394726
 21
19.554930205
  0
LINE
  5
5D1
100
AcDbEntity
  8
ASSI
100
AcDbLine
 62
7
  6
CONTINUOUS
 10
8.7868615029
 20
19.6372878303
 11
8.9294394726
 21
19.554930205
  0
LWPOLYLINE
  5
5D2
100
AcDbEntity
  8
RACCORDO
100
AcDbPolyline
 62
253
  6
CONTINUOUS
 90
10
 70
0
 10
6.3939055667
 20
21.7448862568
 10
6.3644274191
 20
21.7634670003
 10
6.3378721874
 20
21.7834664837
 10
6.3144398891
 20
21.8047316519
 10
6.2943102865
 20
21.8270958075
 10
6.2776289628
 20
21.8503923417
 10
6.2645133333
 20
21.8744577456
 10
6.2550656383
 20
21.8991148723
 10
6.2493649666
 20
21.9241726048
 10
6.2474589572
 20
21.9494409397
  0
LWPOLYLINE
  5
5D3
100
AcDbEntity
  8
ASSI
100
AcDbPolyline
 62
253
  6
CONTINUOUS
 90
10
 70
0
 10
6.3939055667
 20
21.7448862568
 10
6.3644274191
 20
21.7634670003
 10
6.3378721874
 20
21.7834664837
 10
6.3144398891
 20
21.8047316519
 10
6.2943102865
 20
21.8270958075
 10
6.2776289628
 20
21.8503923417
 10
6.2645133333
 20
21.8744577456
 10
6.2550656383
 20
21.8991148723
 10
6.2493649666
 20
21.9241726048
 10
6.2474589572
 20
21.9494409397
  0
LWPOLYLINE
  5
5D4
100
AcDbEntity
  8
ASSI
100
AcDbPolyline
 62
7
  6
CONTINUOUS
 90
33
 70
0
 10
19.8951036783
 20
9.8882772039
 10
19.8379774528
 20
9.9370503837
 10
19.7864636964
 20
9.9941860588
 10
19.7398347678
 20
10.060601909
 10
19.6983358257
 20
10.1365301097
 10
19.662704899
 20
10.2212369512
 10
19.6333797894
 20
10.3142246879
 10
19.6107123224
 20
10.4147557153
 10
19.5949639551
 20
10.5220316159
 10
19.5863000381
 20
10.6354750021
 10
19.5848094989
 20
10.7540048061
 10
19.5904900514
 20
10.8770301843
 10
19.6034735668
 20
11.0050150253
 10
19.6239405422
 20
11.1377520785
 10
19.6518877947
 20
11.2740118735
 10
19.6872755669
 20
11.4129098145
 10
19.7300066489
 20
11.5536786907
 10
19.7799165388
 20
11.6955020424
 10
19.8367597451
 20
11.8374511279
 10
19.9002491724
 20
11.9787014904
 10
19.9700687496
 20
12.1184933595
 10
20.0458566994
 20
12.2560273281
 10
20.1272101632
 20
12.3905442367
 10
20.2136772438
 20
12.5213080405
 10
20.3047727242
 20
12.6475796528
 10
20.4000260171
 20
12.7687238771
 10
20.4988357501
 20
12.8840348328
 10
20.6004511199
 20
12.9927107393
 10
20.7042934017
 20
13.0942372754
 10
20.8097039109
 20
13.1881115281
 10
20.915727936
 20
13.2736563715
 10
21.0215682936
 20
13.3504696439
 10
21.1264483102
 20
13.418303765
  0
LWPOLYLINE
  5
5D5
100
AcDbEntity
  8
RACCORDO
100
AcDbPolyline
 62
253
  6
CONTINUOUS
 90
13
 70
0
 10
21.2422992946
 20
13.6688579881
 10
21.2405002521
 20
13.7018873992
 10
21.2351339626
 20
13.7364654284
 10
21.2262923303
 20
13.7720003736
 10
21.2141267293
 20
13.8078841618
 10
21.1988453911
 20
13.8435028144
 10
21.1807098218
 20
13.8782469498
 10
21.1600303802
 20
13.9115220982
 10
21.1371609294
 20
13.9427589623
 10
21.1124927318
 20
13.9714231953
 10
21.0864478466
 20
13.9970244091
 10
21.0594719244
 20
14.0191245838
 10
21.0320265173
 20
14.0373456333
  0
LWPOLYLINE
  5
5D6
100
AcDbEntity
  8
ASSI
100
AcDbPolyline
 62
253
  6
CONTINUOUS
 90
13
 70
0
 10
21.2422992946
 20
13.6688579881
 10
21.2405002521
 20
13.7018873992
 10
21.2351339626
 20
13.7364654284
 10
21.2262923303
 20
13.7720003736
 10
21.2141267293
 20
13.8078841618
 10
21.1988453911
 20
13.8435028144
 10
21.1807098218
 20
13.8782469498
 10
21.1600303802
 20
13.9115220982
 10
21.1371609294
 20
13.9427589623
 10
21.1124927318
 20
13.9714231953
 10
21.0864478466
 20
13.9970244091
 10
21.0594719244
 20
14.0191245838
 10
21.0320265173
 20
14.0373456333
  0
LWPOLYLINE
  5
5D7
100
AcDbEntity
  8
0
100
AcDbPolyline
 62
7
  6
CONTINUOUS
 90
8
 70
0
 10
22.2634275511
 20
-7.5936504571
 10
22.2620138816
 20
-7.5381421432
 10
22.2579118349
 20
-7.481645112
 10
22.2511214111
 20
-7.4241593637
 10
22.2416061357
 20
-7.3655015008
 10
22.2294024832
 20
-7.3058549208
 10
22.2146198767
 20
-7.2457698154
 10
22.1972182369
 20
-7.1851977957
  0
LINE
  5
5D8
100
AcDbEntity
  8
0
100
AcDbLine
 62
7
  6
CONTINUOUS
 10
22.192716873
 20
-7.1714529258
 11
22.192716873
 21
-6.4321240629
  0
LINE
  5
5D9
100
AcDbEntity
  8
ASSI
100
AcDbLine
 62
7
  6
CONTINUOUS
 10
22.2634275511
 20
-7.5936504571
 11
22.2634275511
 21
-8.7590130603
  0
LINE
  5
5DA
100
AcDbEntity
  8
0
100
AcDbLine
 62
7
  6
CONTINUOUS
 10
22.6876916198
 20
-8.600566687
 11
22.6876916198
 21
-6.1463318475
  0
LINE
  5
5DB
100
AcDbEntity
  8
0
100
AcDbLine
 62
7
  6
CONTINUOUS
 10
22.6876916198
 20
4.1005555644
 11
22.6876916198
 21
6.1405474282
  0
LINE
  5
5DC
100
AcDbEntity
  8
0
100
AcDbLine
 62
7
  6
CONTINUOUS
 10
22.6876916198
 20
7.5184975712
 11
22.6876916198
 21
10.2228988122
  0
LINE
  5
5DD
100
AcDbEntity
  8
0
100
AcDbLine
 62
7
  6
CONTINUOUS
 10
22.6876916198
 20
11.6008489552
 11
22.6876916198
 21
14.3052501961
  0
LINE
  5
5DE
100
AcDbEntity
  8
0
100
AcDbLine
 62
7
  6
CONTINUOUS
 10
22.6876916198
 20
15.6832003391
 11
22.6876916198
 21
18.3876015801
  0
LINE
  5
5DF
100
AcDbEntity
  8
DRAFT
100
AcDbLine
 62
7
  6
CONTINUOUS
 10
23.7837071307
 20
4.0801142163
 11
23.7837071307
 21
6.7624234327
  0
LINE
  5
5E0
100
AcDbEntity
  8
ASSI
100
AcDbLine
 62
7
  6
CONTINUOUS
 10
23.7837071307
 20
4.0801142163
 11
23.7837071307
 21
6.7624234327
  0
LINE
  5
5E1
100
AcDbEntity
  8
DRAFT
100
AcDbLine
 62
7
  6
CONTINUOUS
 10
23.7837071307
 20
8.1624656002
 11
23.7837071307
 21
10.8447748166
  0
LINE
  5
5E2
100
AcDbEntity
  8
ASSI
100
AcDbLine
 62
7
  6
CONTINUOUS
 10
23.7837071307
 20
8.1624656002
 11
23.7837071307
 21
10.8447748166
  0
LINE
  5
5E3
100
AcDbEntity
  8
DRAFT
100
AcDbLine
 62
7
  6
CONTINUOUS
 10
23.7837071307
 20
12.2448169842
 11
23.7837071307
 21
14.9271262006
  0
LINE
  5
5E4
100
AcDbEntity
  8
ASSI
100
AcDbLine
 62
7
  6
CONTINUOUS
 10
23.7837071307
 20
12.2448169842
 11
23.7837071307
 21
14.9271262006
  0
LINE
  5
5E5
100
AcDbEntity
  8
DRAFT
100
AcDbLine
 62
7
  6
CONTINUOUS
 10
23.7837071307
 20
16.3271683682
 11
23.7837071307
 21
19.0094775845
  0
LINE
  5
5E6
100
AcDbEntity
  8
ASSI
100
AcDbLine
 62
7
  6
CONTINUOUS
 10
23.7837071307
 20
16.3271683682
 11
23.7837071307
 21
19.0094775845
  0
LWPOLYLINE
  5
5E7
100
AcDbEntity
  8
0
100
AcDbPolyline
 62
7
  6
CONTINUOUS
 90
8
 70
0
 10
22.2634275511
 20
-8.7590130603
 10
22.2622822783
 20
-8.8129613049
 10
22.2589227288
 20
-8.8652526645
 10
22.2533489024
 20
-8.9158871389
 10
22.2455407204
 20
-8.9649631569
 10
22.2355182616
 20
-9.0123822899
 10
22.223341763
 20
-9.0578492515
 10
22.2089888525
 20
-9.1013712107
  0
LWPOLYLINE
  5
5E8
100
AcDbEntity
  8
0
100
AcDbPolyline
 62
7
  6
CONTINUOUS
 90
11
 70
0
 10
22.2089888525
 20
-9.1013712107
 10
22.1924819022
 20
-9.1429409986
 10
22.1739482649
 20
-9.1822418219
 10
22.1533878984
 20
-9.219234171
 10
22.130800845
 20
-9.2539575556
 10
22.1063145843
 20
-9.2862137115
 10
22.0798960847
 20
-9.3160091821
 10
22.0515783778
 20
-9.3433374241
 10
22.0215880385
 20
-9.3679805429
 10
21.9899394018
 20
-9.3899012306
 10
21.9735102387
 20
-9.3998417249
  0
LWPOLYLINE
  5
5E9
100
AcDbEntity
  8
0
100
AcDbPolyline
 62
7
  6
CONTINUOUS
 90
16
 70
0
 10
22.6425977248
 20
-8.8146471111
 10
22.6483387159
 20
-8.8028250055
 10
22.6536966666
 20
-8.7906238734
 10
22.6586715768
 20
-8.7780437149
 10
22.6632669212
 20
-8.7650736
 10
22.6674792252
 20
-8.7517244585
 10
22.6712980645
 20
-8.7380290806
 10
22.6747224194
 20
-8.7239867464
 10
22.6777533097
 20
-8.7095981757
 10
22.6803833702
 20
-8.6948983177
 10
22.682611626
 20
-8.6798864276
 10
22.684439052
 20
-8.6645632501
 10
22.6858612084
 20
-8.648965969
 10
22.6868766151
 20
-8.6331069787
 10
22.6874867523
 20
-8.6169738847
 10
22.6876916198
 20
-8.600566687
  0
LWPOLYLINE
  5
5EA
100
AcDbEntity
  8
RACCORDO
100
AcDbPolyline
 62
253
  6
CONTINUOUS
 90
16
 70
0
 10
-3.4218771117
 20
-29.6270342599
 10
-3.4162588813
 20
-29.6234028434
 10
-3.4102519327
 20
-29.6187516534
 10
-3.4046255789
 20
-29.6135329973
 10
-3.3993952558
 20
-29.6077611885
 10
-3.3945753006
 20
-29.6014520439
 10
-3.3901789339
 20
-29.5946228629
 10
-3.3862182122
 20
-29.5872923671
 10
-3.3827039991
 20
-29.5794806558
 10
-3.3796459356
 20
-29.5712091546
 10
-3.3770524067
 20
-29.5625005377
 10
-3.3749305272
 20
-29.5533786887
 10
-3.3732861205
 20
-29.5438686472
 10
-3.3721236936
 20
-29.5339965022
 10
-3.3714464291
 20
-29.5237893169
 10
-3.371256181
 20
-29.5132750816
  0
LWPOLYLINE
  5
5EB
100
AcDbEntity
  8
RACCORDO
100
AcDbPolyline
 62
7
  6
CONTINUOUS
 90
3
 70
0
 10
-3.950567777
 20
-29.9394386369
 10
-3.9483595533
 20
-29.9380870966
 10
-3.942700029
 20
-29.9341662513
  0
LINE
  5
5EC
100
AcDbEntity
  8
RACCORDO
100
AcDbLine
 62
253
  6
CONTINUOUS
 10
-3.371256181
 20
-29.5132750816
 11
-3.8995233528
 21
-29.8254292158
  0
LINE
  5
5ED
100
AcDbEntity
  8
RACCORDO
100
AcDbLine
 62
7
  6
CONTINUOUS
 10
-3.4218771254
 20
-29.627034268
 11
-3.9505641039
 21
-29.9394364668
  0
LINE
  5
5EE
100
AcDbEntity
  8
RACCORDO
100
AcDbLine
 62
7
  6
CONTINUOUS
 10
-3.9520220203
 20
-29.9402782988
 11
-3.950567777
 21
-29.9394386369
  0
LWPOLYLINE
  5
5EF
100
AcDbEntity
  8
RACCORDO
100
AcDbPolyline
 62
253
  6
CONTINUOUS
 90
17
 70
0
 10
-5.5537312134
 20
-30.8436891561
 10
-5.5529862711
 20
-30.8432639177
 10
-5.5466136406
 20
-30.8391867855
 10
-5.5405973164
 20
-30.8345249741
 10
-5.5349537407
 20
-30.8292912282
 10
-5.5296983255
 20
-30.8234998154
 10
-5.5248455594
 20
-30.817166675
 10
-5.5204088788
 20
-30.8103093816
 10
-5.5164004869
 20
-30.8029469259
 10
-5.5128312478
 20
-30.795099406
 10
-5.5097108294
 20
-30.7867881361
 10
-5.5070472557
 20
-30.7780339428
 10
-5.5048485634
 20
-30.7688625998
 10
-5.5031217184
 20
-30.7593053741
 10
-5.5018707741
 20
-30.7493912675
 10
-5.5010978455
 20
-30.7391460934
 10
-5.5008041436
 20
-30.7285984417
  0
LINE
  5
5F0
100
AcDbEntity
  8
RACCORDO
100
AcDbLine
 62
253
  6
CONTINUOUS
 10
-3.5568654402
 20
-28.1354975455
 11
-2.838863181
 21
-27.7280453939
  0
LINE
  5
5F1
100
AcDbEntity
  8
RACCORDO
100
AcDbLine
 62
7
  6
CONTINUOUS
 10
-3.656535858
 20
-28.3485756604
 11
-2.9351385042
 21
-27.9391968593
  0
LINE
  5
5F2
100
AcDbEntity
  8
RACCORDO
100
AcDbLine
 62
253
  6
CONTINUOUS
 10
-3.8995233528
 20
-29.8254292158
 11
-5.5008041436
 21
-30.7285984417
  0
LINE
  5
5F3
100
AcDbEntity
  8
RACCORDO
100
AcDbLine
 62
7
  6
CONTINUOUS
 10
-3.9520257088
 20
-29.9402803792
 11
-5.5537312197
 21
-30.8436891596
  0
LWPOLYLINE
  5
5F4
100
AcDbEntity
  8
RACCORDO
100
AcDbPolyline
 62
7
  6
CONTINUOUS
 90
3
 70
0
 10
-3.6565537587
 20
-28.3485858187
 10
-3.6610500533
 20
-28.3510398409
 10
-3.6639284165
 20
-28.3525113124
  0
LINE
  5
5F5
100
AcDbEntity
  8
RACCORDO
100
AcDbLine
 62
253
  6
CONTINUOUS
 10
-9.0536562016
 20
-30.8416139506
 11
-5.356163322
 21
-28.9998875794
  0
LINE
  5
5F6
100
AcDbEntity
  8
ASSI
100
AcDbLine
 62
253
  6
CONTINUOUS
 10
-9.0536562016
 20
-30.8416139506
 11
-5.356163322
 21
-28.9998875794
  0
LINE
  5
5F7
100
AcDbEntity
  8
RACCORDO
100
AcDbLine
 62
253
  6
CONTINUOUS
 10
-5.3569359969
 20
-29.0321152057
 11
-3.5568654402
 21
-28.1354975455
  0
LINE
  5
5F8
100
AcDbEntity
  8
RACCORDO
100
AcDbLine
 62
7
  6
CONTINUOUS
 10
-9.1780586274
 20
-31.0814980269
 11
-5.4688258032
 21
-29.2339239728
  0
LINE
  5
5F9
100
AcDbEntity
  8
ASSI
100
AcDbLine
 62
7
  6
CONTINUOUS
 10
-9.1780586274
 20
-31.0814980269
 11
-5.4688258032
 21
-29.2339239728
  0
LINE
  5
5FA
100
AcDbEntity
  8
RACCORDO
100
AcDbLine
 62
7
  6
CONTINUOUS
 10
-5.4605854796
 20
-29.2474286877
 11
-3.6639420244
 21
-28.3525180715
  0
LINE
  5
5FB
100
AcDbEntity
  8
RACCORDO
100
AcDbLine
 62
7
  6
CONTINUOUS
 10
-9.2123948955
 20
-31.0980070235
 11
-9.1780676705
 21
-31.0815024015
  0
LINE
  5
5FC
100
AcDbEntity
  8
RACCORDO
100
AcDbLine
 62
7
  6
CONTINUOUS
 10
19.9496173642
 20
13.9350917364
 11
19.9462501225
 21
13.9370242635
  0
LINE
  5
5FD
100
AcDbEntity
  8
ASSI
100
AcDbLine
 62
7
  6
CONTINUOUS
 10
19.9495534445
 20
13.9351282002
 11
19.9462501225
 21
13.9370242635
  0
LINE
  5
5FE
100
AcDbEntity
  8
RACCORDO
100
AcDbLine
 62
253
  6
CONTINUOUS
 10
8.9294394726
 20
20.2809007572
 11
6.3939055667
 21
21.7448862568
  0
LINE
  5
5FF
100
AcDbEntity
  8
ASSI
100
AcDbLine
 62
253
  6
CONTINUOUS
 10
8.9294394726
 20
20.2809007572
 11
6.3939055667
 21
21.7448862568
  0
LINE
  5
600
100
AcDbEntity
  8
RACCORDO
100
AcDbLine
 62
253
  6
CONTINUOUS
 10
9.1397203292
 20
20.6472460448
 11
6.6041864233
 21
22.1112315444
  0
LINE
  5
601
100
AcDbEntity
  8
ASSI
100
AcDbLine
 62
253
  6
CONTINUOUS
 10
9.1397203292
 20
20.6472460448
 11
6.6041864233
 21
22.1112315444
  0
LINE
  5
602
100
AcDbEntity
  8
RACCORDO
100
AcDbLine
 62
253
  6
CONTINUOUS
 10
21.0320265153
 20
14.0373456322
 11
20.4542613502
 21
14.3709399975
  0
LINE
  5
603
100
AcDbEntity
  8
ASSI
100
AcDbLine
 62
253
  6
CONTINUOUS
 10
21.0320265153
 20
14.0373456322
 11
20.4542613502
 21
14.3709399975
  0
LINE
  5
604
100
AcDbEntity
  8
RACCORDO
100
AcDbLine
 62
7
  6
CONTINUOUS
 10
25.490011569
 20
12.4844419665
 11
24.8443673025
 21
12.8572288742
  0
LINE
  5
605
100
AcDbEntity
  8
ASSI
100
AcDbLine
 62
7
  6
CONTINUOUS
 10
25.490011569
 20
12.4844419665
 11
24.8443673025
 21
12.8572288742
  0
LINE
  5
606
100
AcDbEntity
  8
ASSI
100
AcDbLine
 62
7
  6
CONTINUOUS
 10
13.1916684547
 20
20.278522328
 11
17.2117919146
 21
17.9573534262
  0
LINE
  5
607
100
AcDbEntity
  8
RACCORDO
100
AcDbLine
 62
7
  6
CONTINUOUS
 10
17.1748259522
 20
17.9969374976
 11
13.5464410404
 21
20.0919214713
  0
LINE
  5
608
100
AcDbEntity
  8
ASSI
100
AcDbLine
 62
7
  6
CONTINUOUS
 10
17.1748259522
 20
17.9969374976
 11
13.5464410404
 21
20.0919214713
  0
LWPOLYLINE
  5
609
100
AcDbEntity
  8
RACCORDO
100
AcDbPolyline
 62
253
  6
CONTINUOUS
 90
10
 70
0
 10
6.6041864233
 20
22.1112315444
 10
6.5923048302
 20
22.1187471972
 10
6.5817244969
 20
22.1267216858
 10
6.5724454233
 20
22.1351550104
 10
6.5644116708
 20
22.1441244547
 10
6.5576791781
 20
22.1535527349
 10
6.5524157609
 20
22.1632079996
 10
6.5486773581
 20
22.173012965
 10
6.546408031
 20
22.1830449149
 10
6.5456077795
 20
22.1933038493
  0
LWPOLYLINE
  5
60A
100
AcDbEntity
  8
ASSI
100
AcDbPolyline
 62
253
  6
CONTINUOUS
 90
10
 70
0
 10
6.6041864233
 20
22.1112315444
 10
6.5923048302
 20
22.1187471972
 10
6.5817244969
 20
22.1267216858
 10
6.5724454233
 20
22.1351550104
 10
6.5644116708
 20
22.1441244547
 10
6.5576791781
 20
22.1535527349
 10
6.5524157609
 20
22.1632079996
 10
6.5486773581
 20
22.173012965
 10
6.546408031
 20
22.1830449149
 10
6.5456077795
 20
22.1933038493
  0
LINE
  5
60B
100
AcDbEntity
  8
ASSI
100
AcDbLine
 62
7
  6
CONTINUOUS
 10
19.9494834131
 20
13.935171369
 11
19.8951036783
 21
13.9706285878
  0
LWPOLYLINE
  5
60C
100
AcDbEntity
  8
RACCORDO
100
AcDbPolyline
 62
7
  6
CONTINUOUS
 90
34
 70
0
 10
19.9495473197
 20
13.9351349223
 10
19.8935473201
 20
13.9717882945
 10
19.836566938
 20
14.0207827679
 10
19.7852002897
 20
14.0781307045
 10
19.7387304528
 20
14.1447396481
 10
19.6974031448
 20
14.2208279743
 10
19.6619506779
 20
14.3056565393
 10
19.6328036777
 20
14.3987271621
 10
19.6103092407
 20
14.4992958635
 10
19.5947235484
 20
14.6065682745
 10
19.5862067647
 20
14.7199889741
 10
19.5848476144
 20
14.8384920516
 10
19.5906466013
 20
14.9614813116
 10
19.6037361857
 20
15.0894112767
 10
19.6242953441
 20
15.2220727772
 10
19.6523205621
 20
15.3582419058
 10
19.6877706722
 20
15.4970323298
 10
19.7305468236
 20
15.6376769287
 10
19.7804848477
 20
15.7793634203
 10
19.8373396881
 20
15.921166703
 10
19.9008243251
 20
16.0622649634
 10
19.9706233112
 20
16.2019006709
 10
20.0463758936
 20
16.3392772711
 10
20.1276800598
 20
16.4736382178
 10
20.2140850465
 20
16.604249641
 10
20.3051069443
 20
16.7303746813
 10
20.4002764206
 20
16.8513803046
 10
20.4989937681
 20
16.9665627757
 10
20.6005101915
 20
17.0751225446
 10
20.7042485549
 20
17.1765467907
 10
20.8095522749
 20
17.2703342765
 10
20.915469743
 20
17.3558099908
 10
21.0212063975
 20
17.4325727372
 10
21.1261436249
 20
17.5004760495
  0
LWPOLYLINE
  5
60D
100
AcDbEntity
  8
ASSI
100
AcDbPolyline
 62
7
  6
CONTINUOUS
 90
33
 70
0
 10
19.8951036783
 20
13.9706285878
 10
19.8379774528
 20
14.0194017677
 10
19.7864636964
 20
14.0765374427
 10
19.7398347678
 20
14.1429532929
 10
19.6983358257
 20
14.2188814937
 10
19.662704899
 20
14.3035883352
 10
19.6333797894
 20
14.3965760718
 10
19.6107123224
 20
14.4971070993
 10
19.5949639551
 20
14.6043829998
 10
19.5863000381
 20
14.7178263861
 10
19.5848094989
 20
14.8363561901
 10
19.5904900514
 20
14.9593815683
 10
19.6034735668
 20
15.0873664093
 10
19.6239405422
 20
15.2201034625
 10
19.6518877947
 20
15.3563632574
 10
19.6872755669
 20
15.4952611985
 10
19.7300066489
 20
15.6360300746
 10
19.7799165388
 20
15.7778534263
 10
19.8367597451
 20
15.9198025119
 10
19.9002491724
 20
16.0610528744
 10
19.9700687496
 20
16.2008447435
 10
20.0458566994
 20
16.3383787121
 10
20.1272101632
 20
16.4728956207
 10
20.2136772438
 20
16.6036594245
 10
20.3047727242
 20
16.7299310368
 10
20.4000260171
 20
16.851075261
 10
20.4988357501
 20
16.9663862168
 10
20.6004511199
 20
17.0750621232
 10
20.7042934017
 20
17.1765886594
 10
20.8097039109
 20
17.2704629121
 10
20.915727936
 20
17.3560077554
 10
21.0215682936
 20
17.4328210279
 10
21.1264483102
 20
17.5006551489
  0
LWPOLYLINE
  5
60E
100
AcDbEntity
  8
ASSI
100
AcDbPolyline
 62
7
  6
CONTINUOUS
 90
28
 70
0
 10
17.5667919146
 20
17.5825924641
 10
17.5563010809
 20
17.6004138577
 10
17.5455373573
 20
17.6180172978
 10
17.5345007438
 20
17.6354027843
 10
17.523181446
 20
17.6525846503
 10
17.5115892584
 20
17.6695485627
 10
17.4997535639
 20
17.6862515228
 10
17.4876737447
 20
17.7026928685
 10
17.4753504187
 20
17.7188732618
 10
17.462814822
 20
17.7347516898
 10
17.4500664161
 20
17.7503273867
 10
17.4371057396
 20
17.7656011182
 10
17.4239656441
 20
17.7805341699
 10
17.4106456746
 20
17.7951256774
 10
17.3971462862
 20
17.809376505
 10
17.3835016961
 20
17.8232505307
 10
17.369711536
 20
17.8367467987
 10
17.3557761742
 20
17.8498662649
 10
17.341730933
 20
17.862575675
 10
17.3275755337
 20
17.8748739887
 10
17.313310255
 20
17.8867622464
 10
17.2989712555
 20
17.8982103146
 10
17.2845583481
 20
17.9092170765
 10
17.2700717199
 20
17.9197836488
 10
17.2555480905
 20
17.9298832483
 10
17.2409996998
 20
17.9395069472
 10
17.2264143078
 20
17.9486636731
 10
17.2117919146
 20
17.9573534262
  0
LINE
  5
60F
100
AcDbEntity
  8
ASSI
100
AcDbLine
 62
7
  6
CONTINUOUS
 10
17.5667919146
 20
17.5825924641
 11
18.1212284228
 21
16.6222802634
  0
LINE
  5
610
100
AcDbEntity
  8
RACCORDO
100
AcDbLine
 62
7
  6
CONTINUOUS
 10
18.0769656565
 20
16.7725658804
 11
17.6748069138
 21
17.4691252549
  0
LINE
  5
611
100
AcDbEntity
  8
ASSI
100
AcDbLine
 62
7
  6
CONTINUOUS
 10
18.0769656565
 20
16.7725658804
 11
17.6748069138
 21
17.4691252549
  0
LINE
  5
612
100
AcDbEntity
  8
RACCORDO
100
AcDbLine
 62
7
  6
CONTINUOUS
 10
24.6322352681
 20
2.0797146922
 11
24.6322352681
 21
-7.3797484447
  0
LINE
  5
613
100
AcDbEntity
  8
ASSI
100
AcDbLine
 62
7
  6
CONTINUOUS
 10
24.6322352681
 20
2.0797146922
 11
24.6322352681
 21
1.9980676645
  0
LINE
  5
614
100
AcDbEntity
  8
ASSI
100
AcDbLine
 62
7
  6
CONTINUOUS
 10
24.6322352681
 20
1.9980676645
 11
24.6322352681
 21
-7.4778115554
  0
LINE
  5
615
100
AcDbEntity
  8
ASSI
100
AcDbLine
 62
7
  6
CONTINUOUS
 10
24.8443673025
 20
4.6925261063
 11
24.8443673025
 21
7.3642389209
  0
LINE
  5
616
100
AcDbEntity
  8
ASSI
100
AcDbLine
 62
7
  6
CONTINUOUS
 10
24.8443673025
 20
8.7748774902
 11
24.8443673025
 21
11.4465903048
  0
LINE
  5
617
100
AcDbEntity
  8
ASSI
100
AcDbLine
 62
7
  6
CONTINUOUS
 10
24.8443673025
 20
12.8572288742
 11
24.8443673025
 21
15.5289416888
  0
LINE
  5
618
100
AcDbEntity
  8
ASSI
100
AcDbLine
 62
7
  6
CONTINUOUS
 10
24.8443673025
 20
16.9395802581
 11
24.8443673025
 21
19.6112930727
  0
LINE
  5
619
100
AcDbEntity
  8
RACCORDO
100
AcDbLine
 62
7
  6
CONTINUOUS
 10
25.702151681
 20
20.3153750987
 11
25.702151681
 21
20.2000695818
  0
LINE
  5
61A
100
AcDbEntity
  8
ASSI
100
AcDbLine
 62
7
  6
CONTINUOUS
 10
25.702151681
 20
20.3153750987
 11
25.702151681
 21
20.2000695818
  0
LINE
  5
61B
100
AcDbEntity
  8
RACCORDO
100
AcDbLine
 62
7
  6
CONTINUOUS
 10
25.702151681
 20
16.1993652255
 11
25.702151681
 21
16.1177181978
  0
LINE
  5
61C
100
AcDbEntity
  8
ASSI
100
AcDbLine
 62
7
  6
CONTINUOUS
 10
25.702151681
 20
16.1993652255
 11
25.702151681
 21
16.1177181978
  0
LINE
  5
61D
100
AcDbEntity
  8
RACCORDO
100
AcDbLine
 62
7
  6
CONTINUOUS
 10
25.702151681
 20
12.1170138416
 11
25.702151681
 21
12.0353668139
  0
LINE
  5
61E
100
AcDbEntity
  8
ASSI
100
AcDbLine
 62
7
  6
CONTINUOUS
 10
25.702151681
 20
12.1170138416
 11
25.702151681
 21
12.0353668139
  0
LINE
  5
61F
100
AcDbEntity
  8
RACCORDO
100
AcDbLine
 62
7
  6
CONTINUOUS
 10
25.702151681
 20
8.0346624576
 11
25.702151681
 21
7.9530154299
  0
LINE
  5
620
100
AcDbEntity
  8
ASSI
100
AcDbLine
 62
7
  6
CONTINUOUS
 10
25.702151681
 20
8.0346624576
 11
25.702151681
 21
7.9530154299
  0
LINE
  5
621
100
AcDbEntity
  8
RACCORDO
100
AcDbLine
 62
7
  6
CONTINUOUS
 10
25.702151681
 20
3.9523110736
 11
25.702151681
 21
-6.7771080416
  0
LINE
  5
622
100
AcDbEntity
  8
ASSI
100
AcDbLine
 62
7
  6
CONTINUOUS
 10
25.702151681
 20
3.9523110736
 11
25.702151681
 21
-6.7771080416
  0
LWPOLYLINE
  5
623
100
AcDbEntity
  8
ASSI
100
AcDbPolyline
 62
7
  6
CONTINUOUS
 90
28
 70
0
 10
24.6322352681
 20
-7.4778115554
 10
24.6320238184
 20
-7.4945424342
 10
24.6313883602
 20
-7.5109988691
 10
24.6303288936
 20
-7.52718086
 10
24.6288430241
 20
-7.5431089496
 10
24.6269331461
 20
-7.5587625951
 10
24.6246064433
 20
-7.574080169
 10
24.6218629966
 20
-7.5890499379
 10
24.6187027251
 20
-7.6036836352
 10
24.6151325697
 20
-7.6179548325
 10
24.6111524836
 20
-7.6318637909
 10
24.6067625136
 20
-7.6454102494
 10
24.6019697403
 20
-7.6585669965
 10
24.5967692821
 20
-7.6713409742
 10
24.5911660206
 20
-7.6837252405
 10
24.5851816818
 20
-7.6956717584
 10
24.5788187566
 20
-7.7071711356
 10
24.5720747541
 20
-7.7182327643
 10
24.5649639272
 20
-7.7288367841
 10
24.5574864503
 20
-7.7389829742
 10
24.5496421491
 20
-7.7486715553
 10
24.5414447528
 20
-7.7578833297
 10
24.5328871116
 20
-7.7666225654
 10
24.5239763755
 20
-7.7748849944
 10
24.5147477236
 20
-7.7826386154
 10
24.5052128826
 20
-7.7898727616
 10
24.4953601258
 20
-7.7965980998
 10
24.4852066313
 20
-7.8028047144
  0
LWPOLYLINE
  5
624
100
AcDbEntity
  8
ASSI
100
AcDbPolyline
 62
7
  6
CONTINUOUS
 90
3
 70
0
 10
-9.2899614035
 20
-31.1309828046
 10
-9.2038850561
 20
-31.094025549
 10
-9.1781644358
 20
-31.0815504727
  0
LWPOLYLINE
  5
625
100
AcDbEntity
  8
ASSI
100
AcDbPolyline
 62
7
  6
CONTINUOUS
 90
28
 70
0
 10
3.7684073741
 20
26.8624535622
 10
3.7537849809
 20
26.8706493823
 10
3.739199589
 20
26.8783355014
 10
3.7246511982
 20
26.8855119195
 10
3.7101275688
 20
26.8921838432
 10
3.6956409406
 20
26.8983460659
 10
3.6812280333
 20
26.9039829681
 10
3.6668890338
 20
26.9090932172
 10
3.6526237551
 20
26.9136781458
 10
3.6384683557
 20
26.9177261324
 10
3.6244231146
 20
26.9212358148
 10
3.6104877527
 20
26.9242085551
 10
3.5966975926
 20
26.9266368184
 10
3.5830530025
 20
26.9285192233
 10
3.5695536141
 20
26.9298571511
 10
3.5562336446
 20
26.9306472105
 10
3.5430935492
 20
26.9308880116
 10
3.5301328726
 20
26.9305809444
 10
3.5173844668
 20
26.9297267871
 10
3.5048488701
 20
26.9283241519
 10
3.492525544
 20
26.9263744267
 10
3.4804457248
 20
26.9238825534
 10
3.4686100303
 20
26.9208471567
 10
3.4570178427
 20
26.917269612
 10
3.4456985449
 20
26.9131589873
 10
3.4346619314
 20
26.9085183054
 10
3.4238982078
 20
26.9033445435
 10
3.4134073741
 20
26.8976377017
  0
LINE
  5
626
100
AcDbEntity
  8
ASSI
100
AcDbLine
 62
7
  6
CONTINUOUS
 10
3.7684073741
 20
26.8624535622
 11
6.4525199238
 21
25.3126806159
  0
LINE
  5
627
100
AcDbEntity
  8
RACCORDO
100
AcDbLine
 62
7
  6
CONTINUOUS
 10
3.9467946927
 20
26.7776953482
 11
7.9994275186
 21
24.437755946
  0
LINE
  5
628
100
AcDbEntity
  8
ASSI
100
AcDbLine
 62
7
  6
CONTINUOUS
 10
3.9467946927
 20
26.7776953482
 11
7.9994275186
 21
24.437755946
  0
LINE
  5
629
100
AcDbEntity
  8
RACCORDO
100
AcDbLine
 62
7
  6
CONTINUOUS
 10
25.490011569
 20
16.5667933505
 11
24.8443673025
 21
16.9395802581
  0
LINE
  5
62A
100
AcDbEntity
  8
ASSI
100
AcDbLine
 62
7
  6
CONTINUOUS
 10
25.490011569
 20
16.5667933505
 11
24.8443673025
 21
16.9395802581
  0
LINE
  5
62B
100
AcDbEntity
  8
RACCORDO
100
AcDbLine
 62
7
  6
CONTINUOUS
 10
24.5553192967
 20
22.3017470539
 11
20.9645281697
 21
24.3750248475
  0
LINE
  5
62C
100
AcDbEntity
  8
ASSI
100
AcDbLine
 62
7
  6
CONTINUOUS
 10
24.5553192967
 20
22.3017470539
 11
20.9645281697
 21
24.3750248475
  0
LINE
  5
62D
100
AcDbEntity
  8
RACCORDO
100
AcDbLine
 62
7
  6
CONTINUOUS
 10
11.2741223969
 20
31.1132020789
 11
20.5402802556
 21
25.7630386635
  0
LINE
  5
62E
100
AcDbEntity
  8
ASSI
100
AcDbLine
 62
7
  6
CONTINUOUS
 10
11.2741223969
 20
31.1132020789
 11
20.5402802556
 21
25.7630386635
  0
LINE
  5
62F
100
AcDbEntity
  8
RACCORDO
100
AcDbLine
 62
7
  6
CONTINUOUS
 10
25.4950527858
 20
21.0122610915
 11
25.0553002582
 21
21.7739348112
  0
LINE
  5
630
100
AcDbEntity
  8
ASSI
100
AcDbLine
 62
7
  6
CONTINUOUS
 10
25.4950527858
 20
21.0122610915
 11
25.0553002582
 21
21.7739348112
  0
ARC
  5
631
100
AcDbEntity
  8
RACCORDO
100
AcDbCircle
 62
7
  6
CONTINUOUS
 10
-3.549058324
 20
10.1798744195
 40
0.25
100
AcDbArc
 50
0.0102634021
 51
59.989736688
  0
ELLIPSE
  5
632
100
AcDbEntity
  8
RACCORDO
100
AcDbEllipse
 62
7
  6
CONTINUOUS
 10
20.5402641007
 20
25.5180975812
 30
0.0
 11
-0.1500072497
 21
0.2598034354
 31
0.0
 40
0.5773756362
 41
-2.3562047428
 42
-0.7854845684
  0
ELLIPSE
  5
633
100
AcDbEntity
  8
RACCORDO
100
AcDbEllipse
 62
7
  6
CONTINUOUS
 10
11.2741447023
 20
30.2966878334
 30
0.0
 11
-0.5000195414
 21
0.8660580892
 31
0.0
 40
0.5773134593
 41
-0.7853991688
 42
-0.0000325492
  0
ELLIPSE
  5
634
100
AcDbEntity
  8
RACCORDO
100
AcDbEllipse
 62
7
  6
CONTINUOUS
 10
24.9950179743
 20
-6.3687921466
 30
0.0
 11
-0.5000668544
 21
0.8660307748
 31
0.0
 40
0.5773134558
 41
-3.1416567412
 42
-2.3562901216
  0
ELLIPSE
  5
635
100
AcDbEntity
  8
RACCORDO
100
AcDbEllipse
 62
7
  6
CONTINUOUS
 10
25.490011569
 20
4.0747981156
 30
0.0
 11
-0.1500186713
 21
0.2598034368
 31
0.0
 40
0.5773316664
 41
-2.3562808875
 42
-0.7854845607
  0
ELLIPSE
  5
636
100
AcDbEntity
  8
RACCORDO
100
AcDbEllipse
 62
7
  6
CONTINUOUS
 10
25.490011569
 20
8.0755024718
 30
0.0
 11
-0.1500186713
 21
0.2598034368
 31
0.0
 40
0.5773316664
 41
-3.1459423927
 42
-2.3562808875
  0
ELLIPSE
  5
637
100
AcDbEntity
  8
RACCORDO
100
AcDbEllipse
 62
7
  6
CONTINUOUS
 10
25.490011569
 20
8.1571494995
 30
0.0
 11
-0.1500186713
 21
0.2598034368
 31
0.0
 40
0.5773316664
 41
-2.3562808875
 42
-0.7854845607
  0
ELLIPSE
  5
638
100
AcDbEntity
  8
RACCORDO
100
AcDbEllipse
 62
7
  6
CONTINUOUS
 10
25.490011569
 20
12.1578538558
 30
0.0
 11
-0.1500186713
 21
0.2598034368
 31
0.0
 40
0.5773316664
 41
-3.1459423927
 42
-2.3562808875
  0
ELLIPSE
  5
639
100
AcDbEntity
  8
RACCORDO
100
AcDbEllipse
 62
7
  6
CONTINUOUS
 10
25.490011569
 20
12.2395008835
 30
0.0
 11
-0.1500186713
 21
0.2598034368
 31
0.0
 40
0.5773316664
 41
-2.3562808875
 42
-0.7854845607
  0
ELLIPSE
  5
63A
100
AcDbEntity
  8
RACCORDO
100
AcDbEllipse
 62
7
  6
CONTINUOUS
 10
25.490011569
 20
16.2402052398
 30
0.0
 11
-0.1500186713
 21
0.2598034368
 31
0.0
 40
0.5773316664
 41
-3.1459423927
 42
-2.3562808875
  0
ELLIPSE
  5
63B
100
AcDbEntity
  8
RACCORDO
100
AcDbEllipse
 62
7
  6
CONTINUOUS
 10
25.490011569
 20
16.3218522674
 30
0.0
 11
-0.1500186713
 21
0.2598034368
 31
0.0
 40
0.5773316664
 41
-2.3562808875
 42
-0.7854845607
  0
ELLIPSE
  5
63C
100
AcDbEntity
  8
RACCORDO
100
AcDbEllipse
 62
7
  6
CONTINUOUS
 10
25.490011569
 20
20.3225566237
 30
0.0
 11
-0.1500186713
 21
0.2598034368
 31
0.0
 40
0.5773316664
 41
-3.1459423927
 42
-2.3562808875
  0
ELLIPSE
  5
63D
100
AcDbEntity
  8
RACCORDO
100
AcDbEllipse
 62
7
  6
CONTINUOUS
 10
24.9950179743
 20
20.7236394832
 30
0.0
 11
-0.500051088
 21
0.8660034525
 31
0.0
 40
0.5773498789
 41
-2.3562585873
 42
-1.5708919678
  0
ELLIPSE
  5
63E
100
AcDbEntity
  8
RACCORDO
100
AcDbEllipse
 62
7
  6
CONTINUOUS
 10
24.5552969913
 20
21.4852585661
 30
0.0
 11
-0.5000037704
 21
0.8660307695
 31
0.0
 40
0.5773498824
 41
-1.5707973348
 42
-0.7854307152
  0
ELLIPSE
  5
63F
100
AcDbEntity
  8
DRAFT
100
AcDbEllipse
 62
7
  6
CONTINUOUS
 10
20.4542613502
 20
3.8792969407
 30
0.0
 11
1.0610913518
 21
1.8699624759
 31
0.0
 40
0.5722717666
 41
-2.8628032189
 42
-2.3604340017
  0
ELLIPSE
  5
640
100
AcDbEntity
  8
DRAFT
100
AcDbEllipse
 62
7
  6
CONTINUOUS
 10
20.4542613502
 20
16.1263510926
 30
0.0
 11
1.0610913518
 21
1.8699624759
 31
0.0
 40
0.5722717666
 41
-2.8628032189
 42
-2.3604340017
  0
ELLIPSE
  5
641
100
AcDbEntity
  8
DRAFT
100
AcDbEllipse
 62
7
  6
CONTINUOUS
 10
20.4542613502
 20
12.0439997086
 30
0.0
 11
1.0610913518
 21
1.8699624759
 31
0.0
 40
0.5722717666
 41
-2.8628032189
 42
-2.3604340017
  0
ELLIPSE
  5
642
100
AcDbEntity
  8
DRAFT
100
AcDbEllipse
 62
7
  6
CONTINUOUS
 10
20.4542613502
 20
7.9616483246
 30
0.0
 11
1.0610913518
 21
1.8699624759
 31
0.0
 40
0.5722717666
 41
-2.8628032189
 42
-2.3604340017
  0
ELLIPSE
  5
643
100
AcDbEntity
  8
RACCORDO
100
AcDbEllipse
 62
7
  6
CONTINUOUS
 10
20.9645443247
 20
24.6199659298
 30
0.0
 11
-0.1500072497
 21
0.2598034354
 31
0.0
 40
0.5773756362
 41
0.7853879108
 42
2.3561080852
  0
ELLIPSE
  5
644
100
AcDbEntity
  8
RACCORDO
100
AcDbEllipse
 62
7
  6
CONTINUOUS
 10
7.9994436735
 20
24.1927962083
 30
0.0
 11
-0.1500186702
 21
0.2598232227
 31
0.0
 40
0.5772877058
 41
-0.7854084013
 42
0.0088311374
  0
ELLIPSE
  5
645
100
AcDbEntity
  8
RACCORDO
100
AcDbEllipse
 62
7
  6
CONTINUOUS
 10
23.9251015614
 20
-6.9714325498
 30
0.0
 11
-0.5000668544
 21
0.8660307748
 31
0.0
 40
0.5773134558
 41
-2.4217560886
 42
-2.3562901216
  0
ELLIPSE
  5
646
100
AcDbEntity
  8
RACCORDO
100
AcDbEllipse
 62
7
  6
CONTINUOUS
 10
3.9468169981
 20
25.9611811027
 30
0.0
 11
-0.5000195414
 21
0.8660580892
 31
0.0
 40
0.5773134593
 41
5.4977861384
 42
5.707770874
  0
ELLIPSE
  5
647
100
AcDbEntity
  8
RACCORDO
100
AcDbEllipse
 62
7
  6
CONTINUOUS
 10
17.1748036469
 20
17.1804490098
 30
0.0
 11
-0.5000037704
 21
0.8660307695
 31
0.0
 40
0.5773498824
 41
4.7123879724
 42
5.4977545919
  0
ELLIPSE
  5
648
100
AcDbEntity
  8
RACCORDO
100
AcDbEllipse
 62
7
  6
CONTINUOUS
 10
17.5769308451
 20
16.4839442721
 30
0.0
 11
-0.500051088
 21
0.8660034525
 31
0.0
 40
0.5773498789
 41
3.9269267198
 42
4.7122933394
  0
ELLIPSE
  5
649
100
AcDbEntity
  8
RACCORDO
100
AcDbEllipse
 62
7
  6
CONTINUOUS
 10
13.5464571954
 20
20.3368625537
 30
0.0
 11
-0.1500072497
 21
0.2598034354
 31
0.0
 40
0.5773756362
 41
0.7853879108
 42
2.3561080852
  0
ELLIPSE
  5
64A
100
AcDbEntity
  8
RACCORDO
100
AcDbEllipse
 62
7
  6
CONTINUOUS
 10
18.640703356
 20
-0.9116279028
 30
0.0
 11
0.2533110813
 21
0.431095234
 31
0.0
 40
0.5823475934
 41
2.3606829537
 42
3.9314792805
  0
ELLIPSE
  5
64B
100
AcDbEntity
  8
ASSI
100
AcDbEllipse
 62
7
  6
CONTINUOUS
 10
20.5402641007
 20
25.5180975812
 30
0.0
 11
-0.1500072497
 21
0.2598034354
 31
0.0
 40
0.5773756362
 41
-2.3562047428
 42
-0.7854845684
  0
ELLIPSE
  5
64C
100
AcDbEntity
  8
ASSI
100
AcDbEllipse
 62
7
  6
CONTINUOUS
 10
11.2741447023
 20
30.2966878334
 30
0.0
 11
-0.5000195414
 21
0.8660580892
 31
0.0
 40
0.5773134593
 41
-0.7853991688
 42
-0.0000325492
  0
ELLIPSE
  5
64D
100
AcDbEntity
  8
ASSI
100
AcDbEllipse
 62
7
  6
CONTINUOUS
 10
24.9950179743
 20
-6.3687921466
 30
0.0
 11
-0.5000668544
 21
0.8660307748
 31
0.0
 40
0.5773134558
 41
-3.1416567412
 42
-2.3562901216
  0
ELLIPSE
  5
64E
100
AcDbEntity
  8
ASSI
100
AcDbEllipse
 62
7
  6
CONTINUOUS
 10
25.490011569
 20
4.0747981156
 30
0.0
 11
-0.1500186713
 21
0.2598034368
 31
0.0
 40
0.5773316664
 41
-2.3562808875
 42
-0.7854845607
  0
ELLIPSE
  5
64F
100
AcDbEntity
  8
ASSI
100
AcDbEllipse
 62
7
  6
CONTINUOUS
 10
25.490011569
 20
8.0755024718
 30
0.0
 11
-0.1500186713
 21
0.2598034368
 31
0.0
 40
0.5773316664
 41
-3.1459423927
 42
-2.3562808875
  0
ELLIPSE
  5
650
100
AcDbEntity
  8
ASSI
100
AcDbEllipse
 62
7
  6
CONTINUOUS
 10
25.490011569
 20
8.1571494995
 30
0.0
 11
-0.1500186713
 21
0.2598034368
 31
0.0
 40
0.5773316664
 41
-2.3562808875
 42
-0.7854845607
  0
ELLIPSE
  5
651
100
AcDbEntity
  8
ASSI
100
AcDbEllipse
 62
7
  6
CONTINUOUS
 10
25.490011569
 20
12.1578538558
 30
0.0
 11
-0.1500186713
 21
0.2598034368
 31
0.0
 40
0.5773316664
 41
-3.1459423927
 42
-2.3562808875
  0
ELLIPSE
  5
652
100
AcDbEntity
  8
ASSI
100
AcDbEllipse
 62
7
  6
CONTINUOUS
 10
25.490011569
 20
12.2395008835
 30
0.0
 11
-0.1500186713
 21
0.2598034368
 31
0.0
 40
0.5773316664
 41
-2.3562808875
 42
-0.7854845607
  0
ELLIPSE
  5
653
100
AcDbEntity
  8
ASSI
100
AcDbEllipse
 62
7
  6
CONTINUOUS
 10
25.490011569
 20
16.2402052398
 30
0.0
 11
-0.1500186713
 21
0.2598034368
 31
0.0
 40
0.5773316664
 41
-3.1459423927
 42
-2.3562808875
  0
ELLIPSE
  5
654
100
AcDbEntity
  8
ASSI
100
AcDbEllipse
 62
7
  6
CONTINUOUS
 10
25.490011569
 20
16.3218522674
 30
0.0
 11
-0.1500186713
 21
0.2598034368
 31
0.0
 40
0.5773316664
 41
-2.3562808875
 42
-0.7854845607
  0
ELLIPSE
  5
655
100
AcDbEntity
  8
ASSI
100
AcDbEllipse
 62
7
  6
CONTINUOUS
 10
25.490011569
 20
20.3225566237
 30
0.0
 11
-0.1500186713
 21
0.2598034368
 31
0.0
 40
0.5773316664
 41
-3.1459423927
 42
-2.3562808875
  0
ELLIPSE
  5
656
100
AcDbEntity
  8
ASSI
100
AcDbEllipse
 62
7
  6
CONTINUOUS
 10
24.9950179743
 20
20.7236394832
 30
0.0
 11
-0.500051088
 21
0.8660034525
 31
0.0
 40
0.5773498789
 41
-2.3562585873
 42
-1.5708919678
  0
ELLIPSE
  5
657
100
AcDbEntity
  8
ASSI
100
AcDbEllipse
 62
7
  6
CONTINUOUS
 10
24.5552969913
 20
21.4852585661
 30
0.0
 11
-0.5000037704
 21
0.8660307695
 31
0.0
 40
0.5773498824
 41
-1.5707973348
 42
-0.7854307152
  0
ELLIPSE
  5
658
100
AcDbEntity
  8
ASSI
100
AcDbEllipse
 62
7
  6
CONTINUOUS
 10
20.9645443247
 20
24.6199659298
 30
0.0
 11
-0.1500072497
 21
0.2598034354
 31
0.0
 40
0.5773756362
 41
0.7853879108
 42
2.3561080852
  0
ELLIPSE
  5
659
100
AcDbEntity
  8
ASSI
100
AcDbEllipse
 62
7
  6
CONTINUOUS
 10
20.4542613502
 20
7.9616483246
 30
0.0
 11
1.0610913518
 21
1.8699624759
 31
0.0
 40
0.5722717666
 41
-2.8628032189
 42
-2.3604340017
  0
ELLIPSE
  5
65A
100
AcDbEntity
  8
ASSI
100
AcDbEllipse
 62
7
  6
CONTINUOUS
 10
20.4542613502
 20
12.0439997086
 30
0.0
 11
1.0610913518
 21
1.8699624759
 31
0.0
 40
0.5722717666
 41
-2.8628032189
 42
-2.3604340017
  0
ELLIPSE
  5
65B
100
AcDbEntity
  8
ASSI
100
AcDbEllipse
 62
7
  6
CONTINUOUS
 10
20.4542613502
 20
16.1263510926
 30
0.0
 11
1.0610913518
 21
1.8699624759
 31
0.0
 40
0.5722717666
 41
-2.8628032189
 42
-2.3604340017
  0
ELLIPSE
  5
65C
100
AcDbEntity
  8
ASSI
100
AcDbEllipse
 62
7
  6
CONTINUOUS
 10
20.4542613502
 20
3.8792969407
 30
0.0
 11
1.0610913518
 21
1.8699624759
 31
0.0
 40
0.5722717666
 41
-2.8628032189
 42
-2.3604340017
  0
ELLIPSE
  5
65D
100
AcDbEntity
  8
ASSI
100
AcDbEllipse
 62
7
  6
CONTINUOUS
 10
13.5464571954
 20
20.3368625537
 30
0.0
 11
-0.1500072497
 21
0.2598034354
 31
0.0
 40
0.5773756362
 41
0.7853879108
 42
2.3561080852
  0
ELLIPSE
  5
65E
100
AcDbEntity
  8
ASSI
100
AcDbEllipse
 62
7
  6
CONTINUOUS
 10
3.9468169981
 20
25.9611811027
 30
0.0
 11
-0.5000195414
 21
0.8660580892
 31
0.0
 40
0.5773134593
 41
5.4977861384
 42
5.707770874
  0
ELLIPSE
  5
65F
100
AcDbEntity
  8
ASSI
100
AcDbEllipse
 62
7
  6
CONTINUOUS
 10
17.1748036469
 20
17.1804490098
 30
0.0
 11
-0.5000037704
 21
0.8660307695
 31
0.0
 40
0.5773498824
 41
4.7123879724
 42
5.4977545919
  0
ELLIPSE
  5
660
100
AcDbEntity
  8
ASSI
100
AcDbEllipse
 62
7
  6
CONTINUOUS
 10
17.5769308451
 20
16.4839442721
 30
0.0
 11
-0.500051088
 21
0.8660034525
 31
0.0
 40
0.5773498789
 41
3.9269267198
 42
4.7122933394
  0
ELLIPSE
  5
661
100
AcDbEntity
  8
ASSI
100
AcDbEllipse
 62
7
  6
CONTINUOUS
 10
7.9994436735
 20
24.1927962083
 30
0.0
 11
-0.1500186702
 21
0.2598232227
 31
0.0
 40
0.5772877058
 41
-0.7854084013
 42
0.0088311374
  0
ELLIPSE
  5
662
100
AcDbEntity
  8
ASSI
100
AcDbEllipse
 62
7
  6
CONTINUOUS
 10
18.640703356
 20
-0.9116279028
 30
0.0
 11
0.2533110813
 21
0.431095234
 31
0.0
 40
0.5823475934
 41
2.3606829537
 42
3.9314792805
  0
ELLIPSE
  5
663
100
AcDbEntity
  8
ASSI
100
AcDbEllipse
 62
7
  6
CONTINUOUS
 10
23.9251015614
 20
-6.9714325498
 30
0.0
 11
-0.5000668544
 21
0.8660307748
 31
0.0
 40
0.5773134558
 41
-2.4217560886
 42
-2.3562901216
  0
ELLIPSE
  5
664
100
AcDbEntity
  8
RACCORDO
100
AcDbEllipse
 62
7
  6
CONTINUOUS
 10
0.6100571371
 20
-20.4842920039
 30
0.0
 11
-1.000389877
 21
1.7321775001
 31
0.0
 40
0.5772588101
 41
-3.1289935798
 42
-2.3564320312
  0
ELLIPSE
  5
665
100
AcDbEntity
  8
RACCORDO
100
AcDbEllipse
 62
7
  6
CONTINUOUS
 10
0.6100571371
 20
8.2894853787
 30
0.0
 11
-1.0002637881
 21
1.7319588718
 31
0.0
 40
0.5774045053
 41
-2.3563059395
 42
-1.5710339479
  0
ELLIPSE
  5
666
100
AcDbEntity
  8
RACCORDO
100
AcDbEllipse
 62
7
  6
CONTINUOUS
 10
-4.8339346923
 20
-2.5605075475
 30
0.0
 11
0.9999591619
 21
0.0153860996
 31
0.0
 40
0.5873737521
 41
-0.6897159224
 42
-0.0090140792
  0
ELLIPSE
  5
667
100
AcDbEntity
  8
RACCORDO
100
AcDbEllipse
 62
7
  6
CONTINUOUS
 10
-4.8339346923
 20
-20.6861476923
 30
0.0
 11
0.9999591619
 21
0.0153860996
 31
0.0
 40
0.5873737521
 41
-0.6897159224
 42
-0.0090140792
  0
ELLIPSE
  5
668
100
AcDbEntity
  8
RACCORDO
100
AcDbEllipse
 62
7
  6
CONTINUOUS
 10
-20.6861844821
 20
15.3981785706
 30
0.0
 11
-0.2498600223
 21
0.43379745
 31
0.0
 40
0.5768037941
 41
-0.7837728977
 42
0.0349351157
  0
ELLIPSE
  5
669
100
AcDbEntity
  8
RACCORDO
100
AcDbEllipse
 62
7
  6
CONTINUOUS
 10
-5.7097705687
 20
6.7509848756
 30
0.0
 11
-0.2496303025
 21
0.4334023309
 31
0.0
 40
0.5778584463
 41
-2.3545649475
 42
-0.7846820092
  0
ELLIPSE
  5
66A
100
AcDbEntity
  8
RACCORDO
100
AcDbEllipse
 62
7
  6
CONTINUOUS
 10
-5.7097705687
 20
-28.7953457979
 30
0.0
 11
-0.2498600223
 21
0.43379745
 31
0.0
 40
0.5768037941
 41
-3.1765341303
 42
-2.355482613
  0
ELLIPSE
  5
66B
100
AcDbEntity
  8
ASSI
100
AcDbEllipse
 62
7
  6
CONTINUOUS
 10
-5.7097705687
 20
-28.7953457979
 30
0.0
 11
-0.2498600223
 21
0.43379745
 31
0.0
 40
0.5768037941
 41
-3.1765341303
 42
-2.355482613
  0
ELLIPSE
  5
66C
100
AcDbEntity
  8
ASSI
100
AcDbEllipse
 62
7
  6
CONTINUOUS
 10
-5.7097705687
 20
6.7509848756
 30
0.0
 11
-0.2496303025
 21
0.4334023309
 31
0.0
 40
0.5778584463
 41
-2.3545649475
 42
-0.7846820092
  0
ELLIPSE
  5
66D
100
AcDbEntity
  8
ASSI
100
AcDbEllipse
 62
7
  6
CONTINUOUS
 10
-20.6861844821
 20
15.3981785706
 30
0.0
 11
-0.2498600223
 21
0.43379745
 31
0.0
 40
0.5768037941
 41
-0.7837728977
 42
0.0349351157
  0
ELLIPSE
  5
66E
100
AcDbEntity
  8
ASSI
100
AcDbEllipse
 62
7
  6
CONTINUOUS
 10
-4.8339346923
 20
-2.5605075475
 30
0.0
 11
0.9999591619
 21
0.0153860996
 31
0.0
 40
0.5873737521
 41
-0.6897159224
 42
-0.0090140792
  0
ELLIPSE
  5
66F
100
AcDbEntity
  8
ASSI
100
AcDbEllipse
 62
7
  6
CONTINUOUS
 10
-4.8339346923
 20
-20.6861476923
 30
0.0
 11
0.9999591619
 21
0.0153860996
 31
0.0
 40
0.5873737521
 41
-0.6897159224
 42
-0.0090140792
  0
ELLIPSE
  5
670
100
AcDbEntity
  8
CURVE
100
AcDbEllipse
 62
253
  6
CONTINUOUS
 10
353.2226100449
 20
184.2935104729
 30
0.0
 11
707.1533755257
 21
155.388473653
 31
0.0
 40
0.2022737761
 41
-2.1713043746
 42
-2.1709045269
  0
ELLIPSE
  5
671
100
AcDbEntity
  8
CURVE
100
AcDbEllipse
 62
253
  6
CONTINUOUS
 10
313.9861429937
 20
206.9481547999
 30
0.0
 11
-638.5519637624
 21
744.3974518348
 31
0.0
 40
0.4103439492
 41
1.5248881281
 42
1.5252879527
  0
ELLIPSE
  5
672
100
AcDbEntity
  8
CURVE
100
AcDbEllipse
 62
253
  6
CONTINUOUS
 10
353.1691141332
 20
184.3243983419
 30
0.0
 11
705.7061335494
 21
156.4005597426
 31
0.0
 40
0.2016429416
 41
-2.1709170898
 42
-2.1705165759
  0
ELLIPSE
  5
673
100
AcDbEntity
  8
CURVE
100
AcDbEllipse
 62
253
  6
CONTINUOUS
 10
314.004641244
 20
206.937474142
 30
0.0
 11
-637.927440774
 21
744.0608868578
 31
0.0
 40
0.4106394125
 41
1.5267477015
 42
1.5271475492
  0
ELLIPSE
  5
674
100
AcDbEntity
  8
CURVE
100
AcDbEllipse
 62
253
  6
CONTINUOUS
 10
331.7712184528
 20
196.6792751291
 30
0.0
 11
229.0405843212
 21
444.8674990369
 31
0.0
 40
0.6068706215
 41
-3.9258637467
 42
-3.9258078684
  0
ELLIPSE
  5
675
100
AcDbEntity
  8
CURVE
100
AcDbEllipse
 62
253
  6
CONTINUOUS
 10
330.538621603
 20
197.3909611022
 30
0.0
 11
173.0616754535
 21
473.5881941771
 31
0.0
 40
0.6629168521
 41
-4.0121819721
 42
-4.0121315325
  0
ELLIPSE
  5
676
100
AcDbEntity
  8
CURVE
100
AcDbEllipse
 62
253
  6
CONTINUOUS
 10
329.1397643868
 20
198.198643727
 30
0.0
 11
88.8536133519
 21
507.7847693813
 31
0.0
 40
0.7052175334
 41
-4.148964863
 42
-4.1489198853
  0
ELLIPSE
  5
677
100
AcDbEntity
  8
CURVE
100
AcDbEllipse
 62
253
  6
CONTINUOUS
 10
327.4986859685
 20
199.1461818382
 30
0.0
 11
-29.6624996702
 21
540.1092909173
 31
0.0
 40
0.7162457329
 41
-4.3342426527
 42
-4.3342031006
  0
ELLIPSE
  5
678
100
AcDbEntity
  8
CURVE
100
AcDbEllipse
 62
253
  6
CONTINUOUS
 10
325.4912720164
 20
200.3052374953
 30
0.0
 11
-165.0700568678
 21
565.1286444308
 31
0.0
 40
0.6829500924
 41
-4.5170285764
 42
-4.5169943756
  0
ELLIPSE
  5
679
100
AcDbEntity
  8
CURVE
100
AcDbEllipse
 62
253
  6
CONTINUOUS
 10
322.8992413858
 20
201.8018434956
 30
0.0
 11
-299.6691998674
 21
595.3282799791
 31
0.0
 40
0.611910355
 41
-4.6471825145
 42
-4.6471535843
  0
ELLIPSE
  5
67A
100
AcDbEntity
  8
CURVE
100
AcDbEllipse
 62
253
  6
CONTINUOUS
 10
350.6206445821
 20
185.7958527209
 30
0.0
 11
706.4086255274
 21
155.9093878184
 31
0.0
 40
0.2019500773
 41
-2.1725243042
 42
-2.1690560855
  0
ELLIPSE
  5
67B
100
AcDbEntity
  8
CURVE
100
AcDbEllipse
 62
253
  6
CONTINUOUS
 10
348.2792046539
 20
187.1477707903
 30
0.0
 11
646.8147914725
 21
196.8282568993
 31
0.0
 40
0.168929566
 41
-2.2332242321
 42
-2.2331927784
  0
ELLIPSE
  5
67C
100
AcDbEntity
  8
CURVE
100
AcDbEllipse
 62
253
  6
CONTINUOUS
 10
344.4912553812
 20
189.3348852262
 30
0.0
 11
556.2554339769
 21
255.1781080368
 31
0.0
 40
0.0833351647
 41
-2.3308407024
 42
-2.3308067253
  0
ELLIPSE
  5
67D
100
AcDbEntity
  8
CURVE
100
AcDbEllipse
 62
253
  6
CONTINUOUS
 10
341.4124082057
 20
191.1125729983
 30
0.0
 11
489.4175855708
 21
294.7447053767
 31
0.0
 40
0.0188268693
 41
2.4003077226
 42
2.4003437493
  0
ELLIPSE
  5
67E
100
AcDbEntity
  8
CURVE
100
AcDbEllipse
 62
253
  6
CONTINUOUS
 10
338.8098268614
 20
192.6152708485
 30
0.0
 11
437.6439187575
 21
323.7885814444
 31
0.0
 40
0.1271709861
 41
2.4451801281
 42
2.4452177303
  0
ELLIPSE
  5
67F
100
AcDbEntity
  8
CURVE
100
AcDbEllipse
 62
253
  6
CONTINUOUS
 10
336.5292980362
 20
193.9320196105
 30
0.0
 11
394.6336119516
 21
347.6860888274
 31
0.0
 40
0.2360636363
 41
2.4693275077
 42
2.4693662088
  0
ELLIPSE
  5
680
100
AcDbEntity
  8
CURVE
100
AcDbEllipse
 62
253
  6
CONTINUOUS
 10
334.4607927594
 20
195.1263486328
 30
0.0
 11
355.5249445927
 21
370.0296520016
 31
0.0
 40
0.3429857114
 41
-3.8087933436
 42
-3.8087540241
  0
ELLIPSE
  5
681
100
AcDbEntity
  8
CURVE
100
AcDbEllipse
 62
253
  6
CONTINUOUS
 10
332.519000653
 20
196.2475150587
 30
0.0
 11
315.7073643387
 21
393.7228164165
 31
0.0
 40
0.4467022303
 41
-3.8247055935
 42
-3.8246661412
  0
ELLIPSE
  5
682
100
AcDbEntity
  8
CURVE
100
AcDbEllipse
 62
253
  6
CONTINUOUS
 10
330.6309160264
 20
197.3376714588
 30
0.0
 11
269.1323996469
 21
421.7971222168
 31
0.0
 40
0.5454464384
 41
-3.8689166867
 42
-3.8688775933
  0
ELLIPSE
  5
683
100
AcDbEntity
  8
CURVE
100
AcDbEllipse
 62
253
  6
CONTINUOUS
 10
328.726418427
 20
198.4373045038
 30
0.0
 11
205.4673981789
 21
457.5242023054
 31
0.0
 40
0.6340851806
 41
-3.9575708902
 42
-3.9575326526
  0
ELLIPSE
  5
684
100
AcDbEntity
  8
CURVE
100
AcDbEllipse
 62
253
  6
CONTINUOUS
 10
326.7771072599
 20
199.562812341
 30
0.0
 11
110.6167568333
 21
499.9629076234
 31
0.0
 40
0.697813517
 41
-4.10991897
 42
-4.1098837596
  0
ELLIPSE
  5
685
100
AcDbEntity
  8
CURVE
100
AcDbEllipse
 62
253
  6
CONTINUOUS
 10
324.6526855286
 20
200.7894268234
 30
0.0
 11
-23.9118617437
 21
538.8671486412
 31
0.0
 40
0.7166611362
 41
-4.3218996461
 42
-4.321864538
  0
ELLIPSE
  5
686
100
AcDbEntity
  8
CURVE
100
AcDbEllipse
 62
253
  6
CONTINUOUS
 10
322.1728183182
 20
202.2212710707
 30
0.0
 11
-172.0394095478
 21
566.3934586198
 31
0.0
 40
0.6800873093
 41
-4.5213665008
 42
-4.521333732
  0
ELLIPSE
  5
687
100
AcDbEntity
  8
CURVE
100
AcDbEllipse
 62
253
  6
CONTINUOUS
 10
319.1937617009
 20
203.9413410251
 30
0.0
 11
-307.0963803205
 21
597.4862511471
 31
0.0
 40
0.6072569338
 41
-4.6486787805
 42
-4.6486488387
  0
ELLIPSE
  5
688
100
AcDbEntity
  8
CURVE
100
AcDbEllipse
 62
253
  6
CONTINUOUS
 10
344.2757842743
 20
189.4592955428
 30
0.0
 11
498.5721615515
 21
289.4896845453
 31
0.0
 40
0.0024410741
 41
2.3916867939
 42
2.3917182566
  0
ELLIPSE
  5
689
100
AcDbEntity
  8
CURVE
100
AcDbEllipse
 62
253
  6
CONTINUOUS
 10
341.355577831
 20
191.1453861444
 30
0.0
 11
440.5822133605
 21
322.1600008382
 31
0.0
 40
0.1203095428
 41
2.443322601
 42
2.4433576777
  0
ELLIPSE
  5
68A
100
AcDbEntity
  8
CURVE
100
AcDbEllipse
 62
253
  6
CONTINUOUS
 10
338.9749398926
 20
192.5199366536
 30
0.0
 11
395.9826284518
 21
346.929835963
 31
0.0
 40
0.2324489678
 41
2.4690724801
 42
2.4691101404
  0
ELLIPSE
  5
68B
100
AcDbEntity
  8
CURVE
100
AcDbEllipse
 62
253
  6
CONTINUOUS
 10
336.9089629467
 20
193.7128058494
 30
0.0
 11
357.2131802804
 21
369.0456577933
 31
0.0
 40
0.3383723451
 41
-3.808440466
 42
-3.8084011657
  0
ELLIPSE
  5
68C
100
AcDbEntity
  8
CURVE
100
AcDbEllipse
 62
253
  6
CONTINUOUS
 10
335.0222987392
 20
194.8021421174
 30
0.0
 11
318.9762404906
 21
391.7499060433
 31
0.0
 40
0.4387187856
 41
-3.8224889913
 42
-3.8224488267
  0
ELLIPSE
  5
68D
100
AcDbEntity
  8
CURVE
100
AcDbEllipse
 62
253
  6
CONTINUOUS
 10
333.2243770705
 20
195.8402395557
 30
0.0
 11
275.7940011222
 21
417.8256990117
 31
0.0
 40
0.5331560357
 41
-3.8611852786
 42
-3.8611448308
  0
ELLIPSE
  5
68E
100
AcDbEntity
  8
RACCORDO
100
AcDbEllipse
 62
7
  6
CONTINUOUS
 10
-3.164181848
 20
8.2721690118
 30
0.0
 11
-0.2300899278
 21
0.3984107856
 31
0.0
 40
0.5772437351
 41
-2.3564331449
 42
-0.7854845191
  0
ELLIPSE
  5
68F
100
AcDbEntity
  8
RACCORDO
100
AcDbEllipse
 62
7
  6
CONTINUOUS
 10
-3.164181848
 20
-27.5402676749
 30
0.0
 11
-0.2300549222
 21
0.3983500929
 31
0.0
 40
0.5774195892
 41
-3.1459654127
 42
-2.3562809449
  0
ELLIPSE
  5
690
100
AcDbEntity
  8
ASSI
100
AcDbEllipse
 62
7
  6
CONTINUOUS
 10
-9.2073258489
 20
18.1508808917
 30
0.0
 11
0.2522054935
 21
0.4317367776
 31
0.0
 40
0.580680601
 41
0.6387924013
 42
0.7825716451
  0
ELLIPSE
  5
691
100
AcDbEntity
  8
RACCORDO
100
AcDbEllipse
 62
7
  6
CONTINUOUS
 10
1.3571796778
 20
12.6516341434
 30
0.0
 11
0.4999950703
 21
0.0038122721
 31
0.0
 40
0.5824033911
 41
-0.7723854459
 42
-0.0044618197
  0
ELLIPSE
  5
692
100
AcDbEntity
  8
RACCORDO
100
AcDbEllipse
 62
7
  6
CONTINUOUS
 10
-14.5394175128
 20
15.1386629413
 30
0.0
 11
0.4999978344
 21
0.0025340295
 31
0.0
 40
0.5807363987
 41
2.3590690438
 42
2.9996644382
  0
ELLIPSE
  5
693
100
AcDbEntity
  8
RACCORDO
100
AcDbEllipse
 62
7
  6
CONTINUOUS
 10
1.3281066633
 20
12.0686537187
 30
0.0
 11
0.0991367736
 21
0.1737025424
 31
0.0
 40
0.5739631936
 41
-2.353203638
 42
-0.7882250754
  0
ELLIPSE
  5
694
100
AcDbEntity
  8
RACCORDO
100
AcDbEllipse
 62
7
  6
CONTINUOUS
 10
-5.6822546638
 20
6.7678011672
 30
0.0
 11
-0.2296598783
 21
0.3987301445
 31
0.0
 40
0.5778584463
 41
-2.3545649475
 42
-0.7846820092
  0
ELLIPSE
  5
695
100
AcDbEntity
  8
RACCORDO
100
AcDbEllipse
 62
7
  6
CONTINUOUS
 10
-20.7137003869
 20
15.4467695395
 30
0.0
 11
-0.2298712205
 21
0.399093654
 31
0.0
 40
0.5768037941
 41
5.4994124095
 42
6.5792962001
  0
ELLIPSE
  5
696
100
AcDbEntity
  8
DRAFT
100
AcDbEllipse
 62
7
  6
CONTINUOUS
 10
-3.2984825888
 20
14.044861753
 30
0.0
 11
0.4279660527
 21
-0.0032066148
 31
0.0
 40
0.5723275643
 41
-0.7752921553
 42
0.0042190185
  0
ELLIPSE
  5
697
100
AcDbEntity
  8
DRAFT
100
AcDbEllipse
 62
7
  6
CONTINUOUS
 10
-8.8534710179
 20
17.2522424516
 30
0.0
 11
0.4279660527
 21
-0.0032066148
 31
0.0
 40
0.5723275643
 41
-0.7811099195
 42
0.004222027
  0
ELLIPSE
  5
698
100
AcDbEntity
  8
RACCORDO
100
AcDbEllipse
 62
7
  6
CONTINUOUS
 10
1.5362233837
 20
12.4021188295
 30
0.0
 11
-0.7070896968
 21
1.224754734
 31
0.0
 40
0.5773595689
 41
5.1751773485
 42
6.2744828216
  0
ELLIPSE
  5
699
100
AcDbEntity
  8
ASSI
100
AcDbEllipse
 62
7
  6
CONTINUOUS
 10
-3.0464935781
 20
14.5936935519
 30
0.0
 11
0.247841934
 21
0.4342563559
 31
0.0
 40
0.5739631936
 41
0.6329742434
 42
0.7767534872
  0
ELLIPSE
  5
69A
100
AcDbEntity
  8
RACCORDO
100
AcDbEllipse
 62
7
  6
CONTINUOUS
 10
-5.6822546638
 20
-28.8439367668
 30
0.0
 11
-0.2298712205
 21
0.399093654
 31
0.0
 40
0.5768037941
 41
2.8808714214
 42
3.9277026942
  0
ELLIPSE
  5
69B
100
AcDbEntity
  8
RACCORDO
100
AcDbEllipse
 62
7
  6
CONTINUOUS
 10
-9.0281104132
 20
10.7944252529
 30
0.0
 11
0.4997887139
 21
0.0239535316
 31
0.0
 40
0.6067642562
 41
-2.385266879
 42
-0.8202883164
  0
ELLIPSE
  5
69C
100
AcDbEntity
  8
RACCORDO
100
AcDbEllipse
 62
7
  6
CONTINUOUS
 10
-9.0281104132
 20
11.9565032949
 30
0.0
 11
0.4999978344
 21
0.0025340295
 31
0.0
 40
0.5807363987
 41
-1.4347545326
 42
-0.7941591381
  0
ELLIPSE
  5
69D
100
AcDbEntity
  8
RACCORDO
100
AcDbEllipse
 62
7
  6
CONTINUOUS
 10
-14.5394175128
 20
13.9765848994
 30
0.0
 11
0.4997887139
 21
0.0239535316
 31
0.0
 40
0.6067642562
 41
3.1125159911
 42
3.8979184282
  0
ELLIPSE
  5
69E
100
AcDbEntity
  8
RACCORDO
100
AcDbEllipse
 62
7
  6
CONTINUOUS
 10
1.3571796778
 20
13.5287413562
 30
0.0
 11
-0.3535448484
 21
0.612377367
 31
0.0
 40
0.5773595689
 41
-3.1241152003
 42
-2.2313402172
  0
ELLIPSE
  5
69F
100
AcDbEntity
  8
RACCORDO
100
AcDbEllipse
 62
7
  6
CONTINUOUS
 10
-4.9653287999
 20
7.8041221325
 30
0.0
 11
0.249894357
 21
0.0119767658
 31
0.0
 40
0.6067642562
 41
-2.385266879
 42
-0.8202883164
  0
ELLIPSE
  5
6A0
100
AcDbEntity
  8
RACCORDO
100
AcDbEllipse
 62
7
  6
CONTINUOUS
 10
-19.6628592979
 20
16.2902920387
 30
0.0
 11
0.249894357
 21
0.0119767658
 31
0.0
 40
0.6067642562
 41
3.1125215436
 42
3.8979184282
  0
ELLIPSE
  5
6A1
100
AcDbEntity
  8
RACCORDO
100
AcDbEllipse
 62
7
  6
CONTINUOUS
 10
-18.3296469643
 20
15.5205119463
 30
0.0
 11
0.249894357
 21
0.0119767658
 31
0.0
 40
0.6067642562
 41
-2.385266879
 42
-0.8202883164
  0
ELLIPSE
  5
6A2
100
AcDbEntity
  8
RACCORDO
100
AcDbEllipse
 62
7
  6
CONTINUOUS
 10
-6.2985411335
 20
8.5739022248
 30
0.0
 11
0.249894357
 21
0.0119767658
 31
0.0
 40
0.6067642562
 41
3.1125215436
 42
3.8979184282
  0
ENDSEC
  0
SECTION
  2
OBJECTS
  0
DICTIONARY
  5
C
100
AcDbDictionary
280
0
281
1
  3
ACAD_GROUP
350
D
  3
ACAD_MLINESTYLE
350
17
  3
ACAD_LAYOUT
350
1A
  3
ACAD_PLOTSETTINGS
350
19
  3
ACAD_PLOTSTYLENAME
350
E
  0
DICTIONARY
  5
D
102
{ACAD_REACTORS
330
C
102
}
100
AcDbDictionary
280
0
281
1
  0
ACDBDICTIONARYWDFLT
  5
E
102
{ACAD_REACTORS
330
C
102
}
100
AcDbDictionary
281
1
  3
Normal
350
F
100
AcDbDictionaryWithDefault
340
F
  0
DICTIONARY
  5
17
102
{ACAD_REACTORS
330
C
102
}
100
AcDbDictionary
280
0
281
1
  3
Standard
350
18
  0
DICTIONARY
  5
19
102
{ACAD_REACTORS
330
C
102
}
100
AcDbDictionary
281
1
  0
DICTIONARY
  5
1A
102
{ACAD_REACTORS
330
C
102
}
100
AcDbDictionary
281
1
  3
Model
350
6A3
  3
Layout1
350
6A4
  0
ACDBPLACEHOLDER
  5
F
102
{ACAD_REACTORS
330
E
102
}
  0
MLINESTYLE
  5
18
102
{ACAD_REACTORS
330
17
102
}
100
AcDbMlineStyle
  2
STANDARD
 70
0
  3

 62
256
 51
90.0
 52
90.0
 71
2
 49
0.5
 62
256
  6
BYLAYER
 49
-0.5
 62
256
  6
BYLAYER
  0
LAYOUT
  5
6A3
102
{ACAD_REACTORS
330
1A
102
}
100
AcDbPlotSettings
  1

  2
none_device
  4
ISO_A4_(297.00_x_210.00_MM)
  6

 40
0.0
 41
0.0
 42
0.0
 43
0.0
 44
297.0
 45
210.0
 46
0.0
 47
0.0
 48
0.0
 49
0.0
140
0.0
141
0.0
142
1.0
143
1.0
 70
1024
 72
1
 73
0
 74
0
  7

 75
0
147
1.0
148
0.0
149
0.0
100
AcDbLayout
  1
Model
 70
0
 71
0
 10
0.0
 20
0.0
 11
297.0
 21
210.0
 12
0.0
 22
0.0
 32
0.0
 14
0.0
 24
0.0
 34
0.0
 15
0.0
 25
0.0
 35
0.0
146
0.0
 13
0.0
 23
0.0
 33
0.0
 16
1.0
 26
0.0
 36
0.0
 17
0.0
 27
1.0
 37
0.0
 76
0
330
218
345
0
346
0
  0
LAYOUT
  5
6A4
102
{ACAD_REACTORS
330
1A
102
}
100
AcDbPlotSettings
  1

  2
none_device
  4
ISO_A4_(297.00_x_210.00_MM)
  6

 40
0.0
 41
0.0
 42
0.0
 43
0.0
 44
297.0
 45
210.0
 46
0.0
 47
0.0
 48
0.0
 49
0.0
140
0.0
141
0.0
142
1.0
143
1.0
 70
0
 72
1
 73
0
 74
0
  7

 75
0
147
1.0
148
0.0
149
0.0
100
AcDbLayout
  1
Layout1
 70
0
 71
1
 10
0.0
 20
0.0
 11
297.0
 21
210.0
 12
0.0
 22
0.0
 32
0.0
 14
0.0
 24
0.0
 34
0.0
 15
0.0
 25
0.0
 35
0.0
146
0.0
 13
0.0
 23
0.0
 33
0.0
 16
1.0
 26
0.0
 36
0.0
 17
0.0
 27
1.0
 37
0.0
 76
0
330
219
345
0
346
0
  0
ENDSEC
  0
EOF
