  0
SECTION
  2
HEADER
  9
$ACADVER
  1
AC1021
  9
$DWGCODEPAGE
  3
ANSI_1252
  9
$EXTMAX
 10
279.4
 20
215.9
 30
0.0
  9
$EXTMIN
 10
0.0
 20
0.0
 30
0.0
  9
$LIMMIN
 10
0.0
 20
0.0
  9
$LIMMAX
 10
279.4
 20
215.9
  9
$VIEWCTR
 10
139.7
 20
107.95
  9
$VIEWSIZE
 40
215.9
  9
$CLAYER
  8
0
  9
$LTSCALE
 40
15.367
  9
$CELTYPE
  6
BYLAYER
  9
$DIMSCALE
 40
1.0
  9
$DIMASZ
 40
3.0
  9
$DIMEXO
 40
0.5
  9
$DIMDLI
 40
10.6172
  9
$DIMEXE
 40
1.5
  9
$DIMCEN
 40
2.5146
  9
$DIMLFAC
 40
1.0
  9
$DIMBLK
  1
_FILLED
  9
$DIMALT
 70
0
  9
$DIMALTF
 40
0.0393700787
  9
$DIMTXT
 40
3.0
  9
$DIMTOL
 70
1
  9
$DIMLIM
 70
0
  9
$DIMTFAC
 40
1.0
  9
$DIMTP
 40
0.01
  9
$DIMTM
 40
0.01
  9
$DIMGAP
 40
0.625
  9
$DIMDSEP
 70
44
  9
$AUNITS
 70
0
  9
$PDMODE
 70
3
  9
$PDSIZE
 40
3.0
  9
$HANDSEED
  5
5B2
  9
$TILEMODE
 70
1
  9
$MEASUREMENT
 70
1
  9
$INSUNITS
 70
4
  0
ENDSEC
  0
SECTION
  2
CLASSES
  0
CLASS
  1
ACDBDICTIONARYWDFLT
  2
AcDbDictionaryWithDefault
  3
AutoCAD 2000
 90
0
 91
1
280
0
281
0
  0
CLASS
  1
ACDBPLACEHOLDER
  2
AcDbPlaceHolder
  3
AutoCAD 2000
 90
0
 91
1
280
0
281
0
  0
CLASS
  1
LAYOUT
  2
AcDbLayout
  3
AutoCAD 2000
 90
0
 91
0
280
0
281
0
  0
ENDSEC
  0
SECTION
  2
TABLES
  0
TABLE
  2
VPORT
  5
8
100
AcDbSymbolTable
 70
2
  0
VPORT
  5
1F4
100
AcDbSymbolTableRecord
100
AcDbViewportTableRecord
  2
*ACTIVE
 70
0
 10
0.0
 20
0.0
 11
1.0
 21
1.0
 12
139.7
 22
107.95
 13
0.0
 23
0.0
 14
1.0
 24
1.0
 15
0.0
 25
0.0
 16
0.0
 26
0.0
 36
1.0
 17
0.0
 27
0.0
 37
0.0
 40
215.9
 41
1.2941176471
 42
50.0
 43
0.0
 44
0.0
 50
0.0
 51
0.0
 71
0
 72
100
 73
1
 74
1
 75
0
 76
0
 77
0
 78
0
  0
ENDTAB
  0
TABLE
  2
LTYPE
  5
5
100
AcDbSymbolTable
 70
6
  0
LTYPE
  5
14
100
AcDbSymbolTableRecord
100
AcDbLinetypeTableRecord
  2
BYBLOCK
 70
0
  3

 72
65
 73
0
 40
0.0
  0
LTYPE
  5
15
100
AcDbSymbolTableRecord
100
AcDbLinetypeTableRecord
  2
BYLAYER
 70
0
  3

 72
65
 73
0
 40
0.0
  0
LTYPE
  5
16
100
AcDbSymbolTableRecord
100
AcDbLinetypeTableRecord
  2
CONTINUOUS
 70
64
  3
Solid line
 72
65
 73
0
 40
0.0
  0
LTYPE
  5
1F5
100
AcDbSymbolTableRecord
100
AcDbLinetypeTableRecord
  2
CENTER
 70
64
  3
____ _ ____ _ ____ _ ____ _ ____ _ ____ _ ____
 72
65
 73
4
 40
0.6
 49
0.375
 74
0
 49
-0.075
 74
0
 49
0.075
 74
0
 49
-0.075
 74
0
  0
LTYPE
  5
1F6
100
AcDbSymbolTableRecord
100
AcDbLinetypeTableRecord
  2
HIDDEN
 70
64
  3
- - - - - - - - - - - - - - - - - - - -
 72
65
 73
2
 40
0.2
 49
0.1
 74
0
 49
-0.1
 74
0
  0
LTYPE
  5
1F7
100
AcDbSymbolTableRecord
100
AcDbLinetypeTableRecord
  2
PHANTOM
 70
64
  3
_____ _ _ _____ _ _ _____ _ _ _____
 72
65
 73
6
 40
0.8
 49
0.45
 74
0
 49
-0.05
 74
0
 49
0.1
 74
0
 49
-0.05
 74
0
 49
0.1
 74
0
 49
-0.05
 74
0
  0
LTYPE
  5
1F8
100
AcDbSymbolTableRecord
100
AcDbLinetypeTableRecord
  2
DOT
 70
64
  3
. . . . . . . . . . . . . . . . . . . .
 72
65
 73
2
 40
0.2
 49
0.1
 74
0
 49
-0.1
 74
0
  0
LTYPE
  5
1F9
100
AcDbSymbolTableRecord
100
AcDbLinetypeTableRecord
  2
DASHED
 70
64
  3
- - - - - - - - - - - - - - - - - - - -
 72
65
 73
2
 40
0.2
 49
0.1
 74
0
 49
-0.1
 74
0
  0
ENDTAB
  0
TABLE
  2
LAYER
  5
2
100
AcDbSymbolTable
 70
36
  0
LAYER
  5
10
100
AcDbSymbolTableRecord
100
AcDbLayerTableRecord
  2
0
 70
0
 62
7
  6
CONTINUOUS
370
-3
390
F
  0
LAYER
  5
1FA
100
AcDbSymbolTableRecord
100
AcDbLayerTableRecord
  2
DEFAULT_1
 70
0
 62
7
  6
CENTER
370
-3
390
F
  0
LAYER
  5
1FB
100
AcDbSymbolTableRecord
100
AcDbLayerTableRecord
  2
DEFAULT_2
 70
0
 62
7
  6
HIDDEN
370
-3
390
F
  0
LAYER
  5
1FC
100
AcDbSymbolTableRecord
100
AcDbLayerTableRecord
  2
DEFAULT_3
 70
0
 62
7
  6
PHANTOM
370
-3
390
F
  0
LAYER
  5
1FD
100
AcDbSymbolTableRecord
100
AcDbLayerTableRecord
  2
ASSI
 70
0
 62
7
  6
CONTINUOUS
370
-3
390
F
  0
LAYER
  5
1FE
100
AcDbSymbolTableRecord
100
AcDbLayerTableRecord
  2
COORDINATE
 70
0
 62
7
  6
CONTINUOUS
370
-3
390
F
  0
LAYER
  5
1FF
100
AcDbSymbolTableRecord
100
AcDbLayerTableRecord
  2
COORD_ORIGINE
 70
0
 62
7
  6
CONTINUOUS
370
-3
390
F
  0
LAYER
  5
200
100
AcDbSymbolTableRecord
100
AcDbLayerTableRecord
  2
CURVE
 70
0
 62
7
  6
CONTINUOUS
370
-3
390
F
  0
LAYER
  5
201
100
AcDbSymbolTableRecord
100
AcDbLayerTableRecord
  2
CURVE_COSTR_MODELLO
 70
0
 62
7
  6
CONTINUOUS
370
-3
390
F
  0
LAYER
  5
202
100
AcDbSymbolTableRecord
100
AcDbLayerTableRecord
  2
CURVE_SKETCH
 70
0
 62
7
  6
CONTINUOUS
370
-3
390
F
  0
LAYER
  5
203
100
AcDbSymbolTableRecord
100
AcDbLayerTableRecord
  2
DRAFT
 70
0
 62
7
  6
CONTINUOUS
370
-3
390
F
  0
LAYER
  5
204
100
AcDbSymbolTableRecord
100
AcDbLayerTableRecord
  2
IGES
 70
0
 62
7
  6
CONTINUOUS
370
-3
390
F
  0
LAYER
  5
205
100
AcDbSymbolTableRecord
100
AcDbLayerTableRecord
  2
INTF_6
 70
0
 62
7
  6
CONTINUOUS
370
-3
390
F
  0
LAYER
  5
206
100
AcDbSymbolTableRecord
100
AcDbLayerTableRecord
  2
NOTE
 70
0
 62
7
  6
CONTINUOUS
370
-3
390
F
  0
LAYER
  5
207
100
AcDbSymbolTableRecord
100
AcDbLayerTableRecord
  2
PIANI
 70
0
 62
7
  6
CONTINUOUS
370
-3
390
F
  0
LAYER
  5
208
100
AcDbSymbolTableRecord
100
AcDbLayerTableRecord
  2
PIANI_ORIGINE
 70
0
 62
7
  6
CONTINUOUS
370
-3
390
F
  0
LAYER
  5
209
100
AcDbSymbolTableRecord
100
AcDbLayerTableRecord
  2
PIANI_RIFERIMENTO
 70
0
 62
7
  6
CONTINUOUS
370
-3
390
F
  0
LAYER
  5
20A
100
AcDbSymbolTableRecord
100
AcDbLayerTableRecord
  2
PIANI_SFORMO
 70
0
 62
7
  6
CONTINUOUS
370
-3
390
F
  0
LAYER
  5
20B
100
AcDbSymbolTableRecord
100
AcDbLayerTableRecord
  2
PUNTI
 70
0
 62
7
  6
CONTINUOUS
370
-3
390
F
  0
LAYER
  5
20C
100
AcDbSymbolTableRecord
100
AcDbLayerTableRecord
  2
RACCORDO
 70
0
 62
7
  6
CONTINUOUS
370
-3
390
F
  0
LAYER
  5
20D
100
AcDbSymbolTableRecord
100
AcDbLayerTableRecord
  2
SMUSSO
 70
0
 62
7
  6
CONTINUOUS
370
-3
390
F
  0
LAYER
  5
20E
100
AcDbSymbolTableRecord
100
AcDbLayerTableRecord
  2
SNAPLINE
 70
0
 62
7
  6
CONTINUOUS
370
-3
390
F
  0
LAYER
  5
20F
100
AcDbSymbolTableRecord
100
AcDbLayerTableRecord
  2
SOLIDO
 70
0
 62
7
  6
CONTINUOUS
370
-3
390
F
  0
LAYER
  5
210
100
AcDbSymbolTableRecord
100
AcDbLayerTableRecord
  2
SUPERFICI
 70
0
 62
7
  6
CONTINUOUS
370
-3
390
F
  0
LAYER
  5
211
100
AcDbSymbolTableRecord
100
AcDbLayerTableRecord
  2
TRASH
 70
0
 62
7
  6
CONTINUOUS
370
-3
390
F
  0
LAYER
  5
212
100
AcDbSymbolTableRecord
100
AcDbLayerTableRecord
  2
XSEC_DATUMS
 70
0
 62
7
  6
CONTINUOUS
370
-3
390
F
  0
ENDTAB
  0
TABLE
  2
STYLE
  5
3
100
AcDbSymbolTable
 70
1
  0
STYLE
  5
11
100
AcDbSymbolTableRecord
100
AcDbTextStyleTableRecord
  2
STANDARD
 70
0
 40
0.0
 41
0.8
 50
0.0
 71
0
 42
0.2
  3
txt
  4

  0
STYLE
  5
213
100
AcDbSymbolTableRecord
100
AcDbTextStyleTableRecord
  2
TEXTSTYLE_1
 70
0
 40
0.0
 41
0.8
 50
0.0
 71
0
 42
0.2
  3
gdt
  4

  0
ENDTAB
  0
TABLE
  2
VIEW
  5
6
100
AcDbSymbolTable
 70
0
  0
ENDTAB
  0
TABLE
  2
UCS
  5
7
100
AcDbSymbolTable
 70
0
  0
ENDTAB
  0
TABLE
  2
APPID
  5
9
100
AcDbSymbolTable
 70
1
  0
APPID
  5
214
100
AcDbSymbolTableRecord
100
AcDbRegAppTableRecord
  2
ACAD
 70
0
  0
ENDTAB
  0
TABLE
  2
BLOCK_RECORD
  5
1
100
AcDbSymbolTable
 70
0
  0
BLOCK_RECORD
  5
215
100
AcDbSymbolTableRecord
100
AcDbBlockTableRecord
  2
*Model_Space
  0
BLOCK_RECORD
  5
216
100
AcDbSymbolTableRecord
100
AcDbBlockTableRecord
  2
*Paper_Space
  0
ENDTAB
  0
TABLE
  2
DIMSTYLE
  5
A
100
AcDbSymbolTable
 70
1
100
AcDbDimStyleTable
 71
0
  0
DIMSTYLE
105
217
100
AcDbSymbolTableRecord
100
AcDbDimStyleTableRecord
  2
STANDARD
 70
0
  3

  4

 40
1.0
 41
3.0
 42
0.5
 43
0.38
 44
1.5
 45
0.0
 46
0.0
 47
0.01
 48
0.01
140
3.0
141
0.09
142
0.0
143
25.4
144
1.0
145
0.0
146
1.0
147
0.625
 71
1.0
 72
0.0
 73
0
 74
0
 75
0
 76
0
 77
1
 78
8
170
0
171
2
172
0
173
0
174
0
175
0
176
0
177
0
178
0
270
2
271
2
272
2
273
2
274
2
275
0
280
0
281
0
282
0
283
1
284
8
285
0
286
0
287
3
288
0
340
11
278
44
  0
ENDTAB
  0
ENDSEC
  0
SECTION
  2
BLOCKS
  0
BLOCK
  5
20
100
AcDbEntity
  8
0
100
AcDbBlockBegin
  2
*Model_Space
 70
0
 10
0.0
 20
0.0
 30
0.0
  3
*Model_Space
  1

  0
ENDBLK
  5
21
100
AcDbEntity
  8
0
100
AcDbBlockEnd
  0
BLOCK
  5
1C
100
AcDbEntity
  8
0
100
AcDbBlockBegin
  2
*Paper_Space
 70
0
 10
0.0
 20
0.0
 30
0.0
  3
*Paper_Space
  1

  0
ENDBLK
  5
1D
100
AcDbEntity
  8
0
100
AcDbBlockEnd
  0
ENDSEC
  0
SECTION
  2
ENTITIES
  0
LWPOLYLINE
  5
218
100
AcDbEntity
  8
RACCORDO
100
AcDbPolyline
 62
7
  6
CONTINUOUS
 90
24
 70
0
 10
-9.298515585
 20
-31.7219295091
 10
-9.2763263007
 20
-31.7326424995
 10
-9.2441159594
 20
-31.7468683499
 10
-9.2112236518
 20
-31.7598538653
 10
-9.1776789302
 20
-31.771571757
 10
-9.1434911243
 20
-31.782000996
 10
-9.1086998628
 20
-31.7911113761
 10
-9.073347656
 20
-31.7988754606
 10
-9.0374454775
 20
-31.8052730814
 10
-9.0010312165
 20
-31.8102778619
 10
-8.9641506338
 20
-31.8138651179
 10
-8.9268225429
 20
-31.8160152136
 10
-8.8890894545
 20
-31.8167067161
 10
-8.8509909378
 20
-31.8159197768
 10
-8.8125360694
 20
-31.8136346651
 10
-8.7737649251
 20
-31.8098334406
 10
-8.734715446
 20
-31.8044990092
 10
-8.6953875564
 20
-31.7976076957
 10
-8.6558137359
 20
-31.7891401299
 10
-8.6160320865
 20
-31.7790793867
 10
-8.5760445411
 20
-31.7673977946
 10
-8.5358740743
 20
-31.7540712446
 10
-8.4955704165
 20
-31.7390864632
 10
-8.4681059679
 20
-31.727940412
  0
LINE
  5
219
100
AcDbEntity
  8
RACCORDO
100
AcDbLine
 62
7
  6
CONTINUOUS
 10
-9.2984228913
 20
-31.721975867
 11
-24.1463091479
 21
-24.2980327387
  0
LWPOLYLINE
  5
21A
100
AcDbEntity
  8
RACCORDO
100
AcDbPolyline
 62
253
  6
CONTINUOUS
 90
25
 70
0
 10
-24.1463091384
 20
-24.2980327435
 10
-24.1750728989
 20
-24.2825665462
 10
-24.2023409556
 20
-24.2657754142
 10
-24.2287198915
 20
-24.2473594598
 10
-24.2541767321
 20
-24.2273416553
 10
-24.2786795822
 20
-24.2057469837
 10
-24.3021989181
 20
-24.1826017511
 10
-24.3247054148
 20
-24.1579346615
 10
-24.3461707796
 20
-24.1317764902
 10
-24.3665689526
 20
-24.1041594788
 10
-24.3858744062
 20
-24.075118053
 10
-24.4040630255
 20
-24.0446882394
 10
-24.4211129301
 20
-24.0129073241
 10
-24.4370028146
 20
-23.9798147949
 10
-24.4517127836
 20
-23.9454516868
 10
-24.4652252031
 20
-23.9098599749
 10
-24.4775233243
 20
-23.8730833197
 10
-24.4885915209
 20
-23.8351677056
 10
-24.4984161797
 20
-23.7961608267
 10
-24.5069849564
 20
-23.7561119322
 10
-24.5142873747
 20
-23.7150698598
 10
-24.5203149133
 20
-23.6730835605
 10
-24.5250601048
 20
-23.6302042986
 10
-24.5285167233
 20
-23.58648572
 10
-24.5306803545
 20
-23.541981878
  0
LWPOLYLINE
  5
21B
100
AcDbEntity
  8
RACCORDO
100
AcDbPolyline
 62
253
  6
CONTINUOUS
 90
67
 70
0
 10
-30.863206258
 20
-11.5820761248
 10
-30.857862922
 20
-11.860268666
 10
-30.8418434483
 20
-12.1431845715
 10
-30.8151831897
 20
-12.4301859138
 10
-30.77795589
 20
-12.7205259312
 10
-30.7302375485
 20
-13.0136474145
 10
-30.6720705931
 20
-13.3091926127
 10
-30.6035026466
 20
-13.6067078037
 10
-30.5246940079
 20
-13.9053156596
 10
-30.435892792
 20
-14.2040179136
 10
-30.3373405936
 20
-14.5020237194
 10
-30.2292305438
 20
-14.7987693349
 10
-30.1118022809
 20
-15.0935975687
 10
-29.9853175743
 20
-15.3858483011
 10
-29.8500665102
 20
-15.6748484147
 10
-29.7063615052
 20
-15.9599300867
 10
-29.5544833633
 20
-16.2405281655
 10
-29.3948185662
 20
-16.5159209953
 10
-29.2278877626
 20
-16.7852373052
 10
-29.0542128766
 20
-17.0477037064
 10
-28.8740923175
 20
-17.3029350266
 10
-28.6877307568
 20
-17.5506590638
 10
-28.4954551387
 20
-17.7904200249
 10
-28.2977806446
 20
-18.0215549278
 10
-28.0951957859
 20
-18.2434877747
 10
-27.8881601612
 20
-18.4557153654
 10
-27.6771402519
 20
-18.6577598067
 10
-27.4626555474
 20
-18.849127946
 10
-27.2452890613
 20
-19.0293169222
 10
-27.0254392063
 20
-19.1980135383
 10
-26.8033524248
 20
-19.3550140843
 10
-26.5793739592
 20
-19.5000240809
 10
-26.3541576819
 20
-19.6325700623
 10
-26.1284167619
 20
-19.7522135983
 10
-25.9027270953
 20
-19.858654155
 10
-25.677537932
 20
-19.95168455
 10
-25.45337455
 20
-20.0310881774
 10
-25.230755705
 20
-20.0966838226
 10
-25.0101763224
 20
-20.1483282103
 10
-24.79212092
 20
-20.185908091
 10
-24.5770739375
 20
-20.209337645
 10
-24.3655349366
 20
-20.2185600808
 10
-24.1580005885
 20
-20.2135540527
 10
-23.9549520815
 20
-20.1943343015
 10
-23.7568384706
 20
-20.1609465351
 10
-23.5640932251
 20
-20.1134640662
 10
-23.3771442386
 20
-20.0519894226
 10
-23.1964272868
 20
-19.9766629298
 10
-23.0223676607
 20
-19.8876622227
 10
-22.8553687993
 20
-19.7851975928
 10
-22.6957984578
 20
-19.6694988454
 10
-22.5440046602
 20
-19.5408186256
 10
-22.4003238874
 20
-19.3994380468
 10
-22.2650931649
 20
-19.2456844076
 10
-22.1386331274
 20
-19.0799232198
 10
-22.0212378879
 20
-18.9025474858
 10
-21.9131617336
 20
-18.713949332
 10
-21.8146356986
 20
-18.5145317354
 10
-21.7258513651
 20
-18.3046578915
 10
-21.6470541784
 20
-18.0848812738
 10
-21.5784937696
 20
-17.8559527324
 10
-21.5203311498
 20
-17.6185880735
 10
-21.4726148137
 20
-17.3731930015
 10
-21.4353883504
 20
-17.1200854234
 10
-21.4087282546
 20
-16.8597473127
 10
-21.3927085387
 20
-16.5928503202
 10
-21.3873649912
 20
-16.3199967582
  0
LWPOLYLINE
  5
21C
100
AcDbEntity
  8
RACCORDO
100
AcDbPolyline
 62
7
  6
CONTINUOUS
 90
19
 70
0
 10
-30.9723817032
 20
-11.4261465199
 10
-30.9665108735
 20
-11.1312743966
 10
-30.948893633
 20
-10.8423119294
 10
-30.9195331232
 20
-10.5598285346
 10
-30.8784149806
 20
-10.2842032051
 10
-30.8255888075
 20
-10.0161924416
 10
-30.7612444709
 20
-9.7568588322
 10
-30.6854858179
 20
-9.5065980522
 10
-30.5984791643
 20
-9.2659687244
 10
-30.5006995031
 20
-9.0361105984
 10
-30.3924658776
 20
-8.8174555795
 10
-30.2740424961
 20
-8.6102650925
 10
-30.1460186253
 20
-8.415258668
 10
-30.0089311933
 20
-8.2328551201
 10
-29.8630926596
 20
-8.0631028497
 10
-29.7088537483
 20
-7.9061207687
 10
-29.5466515018
 20
-7.7621048712
 10
-29.3770130054
 20
-7.6312813455
 10
-29.2004574955
 20
-7.5138086965
  0
LINE
  5
21D
100
AcDbEntity
  8
RACCORDO
100
AcDbLine
 62
253
  6
CONTINUOUS
 10
-2.6339416249
 20
-30.3827623775
 11
-3.1622087967
 21
-30.2742601004
  0
LINE
  5
21E
100
AcDbEntity
  8
RACCORDO
100
AcDbLine
 62
253
  6
CONTINUOUS
 10
-2.7233554203
 20
-30.0631955715
 11
-3.1622087967
 21
-29.9730582448
  0
LWPOLYLINE
  5
21F
100
AcDbEntity
  8
RACCORDO
100
AcDbPolyline
 62
7
  6
CONTINUOUS
 90
34
 70
0
 10
-4.0522689794
 20
-30.5898691413
 10
-4.0601481024
 20
-30.5881928124
 10
-4.0683683515
 20
-30.5863249063
 10
-4.0769262126
 20
-30.5842755009
 10
-4.0858246432
 20
-30.5820650885
 10
-4.0950510782
 20
-30.5796952498
 10
-4.1045776525
 20
-30.5771485559
 10
-4.1143978408
 20
-30.5744381477
 10
-4.124503739
 20
-30.5715765141
 10
-4.134864522
 20
-30.568546019
 10
-4.1454710433
 20
-30.5653614872
 10
-4.1563129547
 20
-30.5620372161
 10
-4.1673567317
 20
-30.5585555631
 10
-4.1785905802
 20
-30.5549329563
 10
-4.190001531
 20
-30.5511854866
 10
-4.2015533515
 20
-30.5472958325
 10
-4.2132314833
 20
-30.5432819309
 10
-4.2250202149
 20
-30.5391616432
 10
-4.2368805288
 20
-30.5349184226
 10
-4.2487949765
 20
-30.5305715569
 10
-4.2607449899
 20
-30.5261406474
 10
-4.2726886674
 20
-30.521610554
 10
-4.2846055171
 20
-30.5170016679
 10
-4.2964740843
 20
-30.5123352432
 10
-4.3082496629
 20
-30.5075983567
 10
-4.3199084834
 20
-30.5028121894
 10
-4.3314264205
 20
-30.4979993789
 10
-4.3427567732
 20
-30.4931500019
 10
-4.3538620356
 20
-30.4882921643
 10
-4.3647263874
 20
-30.4834422298
 10
-4.375333073
 20
-30.4785762184
 10
-4.3856551312
 20
-30.4737050109
 10
-4.3956568278
 20
-30.4688706414
 10
-4.4053051674
 20
-30.4640993033
  0
LWPOLYLINE
  5
220
100
AcDbEntity
  8
RACCORDO
100
AcDbPolyline
 62
253
  6
CONTINUOUS
 90
31
 70
0
 10
-5.1160115471
 20
-31.7808268287
 10
-5.1065513978
 20
-31.7853163221
 10
-5.0966358112
 20
-31.7895530242
 10
-5.0862917733
 20
-31.7935254014
 10
-5.0755474251
 20
-31.797222643
 10
-5.0644320196
 20
-31.8006346792
 10
-5.052975846
 20
-31.8037522114
 10
-5.0412100968
 20
-31.8065667526
 10
-5.0291667894
 20
-31.8090706449
 10
-5.0168787168
 20
-31.811257072
 10
-5.0043793293
 20
-31.8131200839
 10
-4.9917026475
 20
-31.8146546118
 10
-4.9788831816
 20
-31.8158564801
 10
-4.96595581
 20
-31.8167224205
 10
-4.9529557349
 20
-31.8172500764
 10
-4.9399183916
 20
-31.8174380138
 10
-4.9268793202
 20
-31.8172857286
 10
-4.9138739552
 20
-31.8167936427
 10
-4.9009375809
 20
-31.815963093
 10
-4.8881052418
 20
-31.81479632
 10
-4.8754120347
 20
-31.8132965052
 10
-4.8628928854
 20
-31.8114677885
 10
-4.8505820887
 20
-31.8093152191
 10
-4.838512884
 20
-31.8068446491
 10
-4.8267177662
 20
-31.8040627453
 10
-4.8152263437
 20
-31.800976366
 10
-4.8040725271
 20
-31.7975944913
 10
-4.7932933715
 20
-31.7939287322
 10
-4.7829196056
 20
-31.7899904464
 10
-4.7729763016
 20
-31.7857900939
 10
-4.7634895875
 20
-31.7813395526
  0
LWPOLYLINE
  5
221
100
AcDbEntity
  8
RACCORDO
100
AcDbPolyline
 62
253
  6
CONTINUOUS
 90
31
 70
0
 10
-5.1160115471
 20
-31.4408528946
 10
-5.1065525768
 20
-31.445341857
 10
-5.0966383004
 20
-31.4495780815
 10
-5.0862956967
 20
-31.4535500403
 10
-5.0755529262
 20
-31.4572469197
 10
-5.064439207
 20
-31.4606586658
 10
-5.0529847297
 20
-31.4637760078
 10
-5.0412206243
 20
-31.4665904667
 10
-5.0291789339
 20
-31.4690943696
 10
-5.0168924796
 20
-31.4712808893
 10
-5.0043947153
 20
-31.4731440732
 10
-4.9917196325
 20
-31.4746788544
 10
-4.9789017241
 20
-31.4758810564
 10
-4.9659758607
 20
-31.4767474082
 10
-4.9529772275
 20
-31.4772755512
 10
-4.9399412292
 20
-31.477464048
 10
-4.9269033614
 20
-31.4773123887
 10
-4.9138990821
 20
-31.476820989
 10
-4.9009637477
 20
-31.4759911863
 10
-4.8881324421
 20
-31.4748252266
 10
-4.8754402008
 20
-31.4733262887
 10
-4.8629218718
 20
-31.4714985012
 10
-4.8506117074
 20
-31.4693469005
 10
-4.8385429766
 20
-31.4668773371
 10
-4.8267482058
 20
-31.4640964806
 10
-4.8152583432
 20
-31.4610115705
 10
-4.8041058615
 20
-31.4576312669
 10
-4.7933240516
 20
-31.4539658257
 10
-4.7829428625
 20
-31.4500258278
 10
-4.7729891504
 20
-31.4458218802
 10
-4.7634895875
 20
-31.4413656184
  0
LINE
  5
222
100
AcDbEntity
  8
RACCORDO
100
AcDbLine
 62
253
  6
CONTINUOUS
 10
-9.6919366301
 20
-30.9613537402
 11
-24.5306803545
 21
-23.541981878
  0
LINE
  5
223
100
AcDbEntity
  8
RACCORDO
100
AcDbLine
 62
7
  6
CONTINUOUS
 10
-6.3760229305
 20
-31.2535529389
 11
-5.0510382507
 21
-31.9160452788
  0
LINE
  5
224
100
AcDbEntity
  8
RACCORDO
100
AcDbLine
 62
253
  6
CONTINUOUS
 10
-6.440996227
 20
-31.1183344888
 11
-5.1160115471
 21
-31.7808268287
  0
LINE
  5
225
100
AcDbEntity
  8
RACCORDO
100
AcDbLine
 62
253
  6
CONTINUOUS
 10
-5.1160115471
 20
-31.4408528946
 11
-6.3337054851
 21
-30.8320059256
  0
LINE
  5
226
100
AcDbEntity
  8
RACCORDO
100
AcDbLine
 62
253
  6
CONTINUOUS
 10
-5.0276231995
 20
-31.2091587208
 11
-6.033748395
 21
-30.706096123
  0
LWPOLYLINE
  5
227
100
AcDbEntity
  8
RACCORDO
100
AcDbPolyline
 62
253
  6
CONTINUOUS
 90
16
 70
0
 10
-6.440996227
 20
-31.1183344888
 10
-6.4499529283
 20
-31.1136167832
 10
-6.4584117103
 20
-31.108669387
 10
-6.4663486882
 20
-31.103505308
 10
-6.4737427818
 20
-31.0981370637
 10
-6.4805711712
 20
-31.0925799341
 10
-6.4868105491
 20
-31.0868522896
 10
-6.4924427925
 20
-31.080970996
 10
-6.4974539716
 20
-31.0749508521
 10
-6.5018305571
 20
-31.0688080781
 10
-6.5055606513
 20
-31.0625592672
 10
-6.508633966
 20
-31.0562215302
 10
-6.5110420261
 20
-31.0498122947
 10
-6.5127782657
 20
-31.0433490859
 10
-6.5138379989
 20
-31.0368494164
 10
-6.5142195313
 20
-31.0299529271
  0
LWPOLYLINE
  5
228
100
AcDbEntity
  8
RACCORDO
100
AcDbPolyline
 62
7
  6
CONTINUOUS
 90
22
 70
0
 10
-6.3760229305
 20
-31.2535529389
 10
-6.3876794964
 20
-31.2473343546
 10
-6.3990348792
 20
-31.2404807486
 10
-6.4100457247
 20
-31.2330094846
 10
-6.4206742868
 20
-31.2249382167
 10
-6.4308757753
 20
-31.2162944612
 10
-6.4406006991
 20
-31.2071174813
 10
-6.4497752177
 20
-31.1974844573
 10
-6.4584134867
 20
-31.1873904412
 10
-6.4665839814
 20
-31.1767406557
 10
-6.4742847773
 20
-31.1654916776
 10
-6.4814183013
 20
-31.1537390908
 10
-6.4879053053
 20
-31.1415914486
 10
-6.4937089372
 20
-31.1291157566
 10
-6.4988195808
 20
-31.1163337377
 10
-6.5032186191
 20
-31.1032907812
 10
-6.5068902104
 20
-31.0900372518
 10
-6.5098251958
 20
-31.0766136631
 10
-6.5120188458
 20
-31.0630444782
 10
-6.5134646177
 20
-31.0493597173
 10
-6.5141553022
 20
-31.0356127553
 10
-6.5142195313
 20
-31.0299529271
  0
LWPOLYLINE
  5
229
100
AcDbEntity
  8
RACCORDO
100
AcDbPolyline
 62
253
  6
CONTINUOUS
 90
17
 70
0
 10
-24.6740293705
 20
-23.3717569472
 10
-24.6727337914
 20
-23.3838238648
 10
-24.6703566023
 20
-23.3958190328
 10
-24.6669030697
 20
-23.4077158781
 10
-24.662380844
 20
-23.4194880455
 10
-24.6567999435
 20
-23.4311094559
 10
-24.6501727315
 20
-23.4425543644
 10
-24.6425138895
 20
-23.4537974167
 10
-24.6338403841
 20
-23.4648137062
 10
-24.6241714299
 20
-23.4755788282
 10
-24.6135284467
 20
-23.4860689347
 10
-24.6019350119
 20
-23.4962607868
 10
-24.5894168086
 20
-23.5061318063
 10
-24.5760015686
 20
-23.5156601259
 10
-24.5617190107
 20
-23.5248246374
 10
-24.5466007755
 20
-23.5336050385
 10
-24.5306803543
 20
-23.5419818779
  0
LWPOLYLINE
  5
22A
100
AcDbEntity
  8
RACCORDO
100
AcDbPolyline
 62
253
  6
CONTINUOUS
 90
5
 70
0
 10
-2.6999466949
 20
-30.0712797849
 10
-2.7015203944
 20
-30.0705113699
 10
-2.7085480943
 20
-30.0675051644
 10
-2.7158324759
 20
-30.0650645414
 10
-2.7233554203
 20
-30.0631955715
  0
LINE
  5
22B
100
AcDbEntity
  8
RACCORDO
100
AcDbLine
 62
7
  6
CONTINUOUS
 10
-4.404790939
 20
-30.4643564174
 11
-4.8853845349
 21
-30.2240596195
  0
LINE
  5
22C
100
AcDbEntity
  8
RACCORDO
100
AcDbLine
 62
253
  6
CONTINUOUS
 10
-3.1622087967
 20
-29.8437688833
 11
-2.7233554203
 21
-30.0631955715
  0
LINE
  5
22D
100
AcDbEntity
  8
RACCORDO
100
AcDbLine
 62
7
  6
CONTINUOUS
 10
-3.1622087967
 20
-29.8401487338
 11
-2.699940369
 21
-30.0712829476
  0
LWPOLYLINE
  5
22E
100
AcDbEntity
  8
RACCORDO
100
AcDbPolyline
 62
7
  6
CONTINUOUS
 90
27
 70
0
 10
-24.674214725
 20
-23.3678869579
 10
-24.6724612764
 20
-23.4058395595
 10
-24.6685739287
 20
-23.4567252097
 10
-24.6629692257
 20
-23.5067062536
 10
-24.6556566066
 20
-23.5557773097
 10
-24.6466529434
 20
-23.6038813054
 10
-24.6359907201
 20
-23.6509044008
 10
-24.6236905991
 20
-23.6968234204
 10
-24.6097753196
 20
-23.7416049246
 10
-24.5943015554
 20
-23.7851228704
 10
-24.5773038555
 20
-23.8273507103
 10
-24.5588179837
 20
-23.8682609553
 10
-24.5389297607
 20
-23.9077309942
 10
-24.5177082306
 20
-23.9457080985
 10
-24.4951926633
 20
-23.9822006797
 10
-24.471444353
 20
-24.0171776095
 10
-24.4465464975
 20
-24.0505875471
 10
-24.4205431328
 20
-24.082441584
 10
-24.3934369887
 20
-24.1127888353
 10
-24.365291328
 20
-24.1415998502
 10
-24.3361677613
 20
-24.1688546556
 10
-24.3060565988
 20
-24.194595628
 10
-24.2750210867
 20
-24.2187925556
 10
-24.243123125
 20
-24.2414216015
 10
-24.2103417843
 20
-24.2625157998
 10
-24.1767092133
 20
-24.2820622175
 10
-24.1461856904
 20
-24.2980944466
  0
LWPOLYLINE
  5
22F
100
AcDbEntity
  8
RACCORDO
100
AcDbPolyline
 62
253
  6
CONTINUOUS
 90
3
 70
0
 10
-24.5306803545
 20
-23.541981878
 10
-24.583986876
 20
-21.8744417427
 10
-24.6252734437
 20
-20.436891252
  0
LWPOLYLINE
  5
230
100
AcDbEntity
  8
RACCORDO
100
AcDbPolyline
 62
7
  6
CONTINUOUS
 90
3
 70
0
 10
-24.7645969162
 20
-20.4096966087
 10
-24.7271400192
 20
-21.7128795332
 10
-24.6742148799
 20
-23.3678878557
  0
LWPOLYLINE
  5
231
100
AcDbEntity
  8
RACCORDO
100
AcDbPolyline
 62
253
  6
CONTINUOUS
 90
18
 70
0
 10
-24.6742333095
 20
12.244791763
 10
-24.6740292579
 20
12.2336268635
 10
-24.6727336752
 20
12.2226763448
 10
-24.6703564831
 20
12.2117396159
 10
-24.6669029479
 20
12.2008409053
 10
-24.66238072
 20
12.1900043569
 10
-24.6567998177
 20
12.1792539771
 10
-24.6501726045
 20
12.1686135812
 10
-24.6425137617
 20
12.1581067411
 10
-24.6338402559
 20
12.1477567327
 10
-24.6241713017
 20
12.1375864845
 10
-24.6135283189
 20
12.1276185268
 10
-24.6019348849
 20
12.1178749416
 10
-24.5894166829
 20
12.1083773141
 10
-24.5760014445
 20
12.0991466845
 10
-24.5617188887
 20
12.0902035015
 10
-24.5466006558
 20
12.081567577
 10
-24.5306802374
 20
12.0732580422
  0
LWPOLYLINE
  5
232
100
AcDbEntity
  8
RACCORDO
100
AcDbPolyline
 62
253
  6
CONTINUOUS
 90
11
 70
0
 10
-24.8232100035
 20
-4.8180459609
 10
-24.8185680662
 20
-3.3387664747
 10
-24.8079041416
 20
-1.6368562422
 10
-24.7919084604
 20
0.0677494075
 10
-24.7705812596
 20
1.7750243114
 10
-24.7439228765
 20
3.4849422677
 10
-24.7119337229
 20
5.1974770349
 10
-24.6746142723
 20
6.9126023301
 10
-24.6319650984
 20
8.6302918328
 10
-24.583986876
 20
10.350519185
 10
-24.5306803545
 20
12.0732579896
  0
LWPOLYLINE
  5
233
100
AcDbEntity
  8
RACCORDO
100
AcDbPolyline
 62
7
  6
CONTINUOUS
 90
11
 70
0
 10
-24.674233129
 20
12.2448006677
 10
-24.7271884691
 20
10.5339529477
 10
-24.775231103
 20
8.812595724
 10
-24.8179374782
 20
7.0937735467
 10
-24.8553067695
 20
5.3775160276
 10
-24.8873384376
 20
3.6638488878
 10
-24.9140320159
 20
1.9527962799
 10
-24.9353870447
 20
0.244383627
 10
-24.9514031979
 20
-1.4613626772
 10
-24.9620801891
 20
-3.1644170157
 10
-24.9674177147
 20
-4.9068574285
  0
LWPOLYLINE
  5
234
100
AcDbEntity
  8
RACCORDO
100
AcDbPolyline
 62
253
  6
CONTINUOUS
 90
43
 70
0
 10
-24.5306803545
 20
12.0732579896
 10
-24.5285167097
 20
12.1199774038
 10
-24.5250600699
 20
12.1672349604
 10
-24.5203148549
 20
12.2149721888
 10
-24.5142872997
 20
12.2631294018
 10
-24.506984875
 20
12.311647679
 10
-24.498416094
 20
12.3604689869
 10
-24.488591427
 20
12.4095341531
 10
-24.4775232215
 20
12.4587814435
 10
-24.46522509
 20
12.5081485687
 10
-24.4517126563
 20
12.5575740274
 10
-24.4370026703
 20
12.6069973011
 10
-24.4211127719
 20
12.6563574697
 10
-24.4040628614
 20
12.7055936943
 10
-24.3858742414
 20
12.7546450905
 10
-24.3665687862
 20
12.8034509069
 10
-24.346170608
 20
12.8519511056
 10
-24.3247052362
 20
12.9000856296
 10
-24.3021987311
 20
12.9477942809
 10
-24.2786793841
 20
12.9950180815
 10
-24.254176521
 20
13.0416989122
 10
-24.2287196695
 20
13.0877787769
 10
-24.2023407283
 20
13.1332008735
 10
-24.1750726692
 20
13.1779091793
 10
-24.1469483471
 20
13.2218480869
 10
-24.1180028945
 20
13.2649635911
 10
-24.0882725874
 20
13.3072023893
 10
-24.0577935479
 20
13.3485114754
 10
-24.026604075
 20
13.3888398542
 10
-23.9947430815
 20
13.4281379979
 10
-23.9622489538
 20
13.4663569393
 10
-23.9291624527
 20
13.5034495792
 10
-23.895524911
 20
13.5393703284
 10
-23.8613766661
 20
13.5740745397
 10
-23.8267600845
 20
13.6075198762
 10
-23.7917188469
 20
13.6396647696
 10
-23.7562961607
 20
13.670468134
 10
-23.7205371849
 20
13.6998915626
 10
-23.6844859153
 20
13.7278996702
 10
-23.6481844389
 20
13.7544583956
 10
-23.611677161
 20
13.7795351063
 10
-23.5750107853
 20
13.8030988322
 10
-23.5382312064
 20
13.8251205764
  0
LWPOLYLINE
  5
235
100
AcDbEntity
  8
RACCORDO
100
AcDbPolyline
 62
7
  6
CONTINUOUS
 90
14
 70
0
 10
-15.982899217
 20
17.5281656775
 10
-15.9744138493
 20
17.5390964478
 10
-15.9665305307
 20
17.5505041563
 10
-15.9592783893
 20
17.5623548211
 10
-15.9526812137
 20
17.5746190576
 10
-15.946767764
 20
17.5872532758
 10
-15.9415676535
 20
17.6001991824
 10
-15.9370986951
 20
17.6134121175
 10
-15.933373154
 20
17.6268555052
 10
-15.9304039006
 20
17.6404824058
 10
-15.9281990283
 20
17.6542547578
 10
-15.9267656151
 20
17.6681292457
 10
-15.9261084189
 20
17.6820525704
 10
-15.9260619324
 20
17.686875133
  0
LINE
  5
236
100
AcDbEntity
  8
RACCORDO
100
AcDbLine
 62
253
  6
CONTINUOUS
 10
-16.5265269611
 20
16.9560486883
 11
-15.9982597893
 21
17.5990008441
  0
LINE
  5
237
100
AcDbEntity
  8
RACCORDO
100
AcDbLine
 62
7
  6
CONTINUOUS
 10
-16.5265269611
 20
16.866518222
 11
-15.982899217
 21
17.5281656775
  0
LWPOLYLINE
  5
238
100
AcDbEntity
  8
RACCORDO
100
AcDbPolyline
 62
7
  6
CONTINUOUS
 90
30
 70
0
 10
-17.4165871438
 20
16.3918940803
 10
-17.4244662668
 20
16.3827596771
 10
-17.4326865159
 20
16.3737622361
 10
-17.4412443771
 20
16.3649232495
 10
-17.4501428076
 20
16.3562667197
 10
-17.4593692426
 20
16.3478120404
 10
-17.4688958169
 20
16.3395741477
 10
-17.4787160052
 20
16.3315753941
 10
-17.4888219035
 20
16.3238375173
 10
-17.4991826864
 20
16.3163749775
 10
-17.5097892077
 20
16.3092101996
 10
-17.5206311191
 20
16.3023648944
 10
-17.5316748962
 20
16.2958529227
 10
-17.5429087446
 20
16.2896964036
 10
-17.5543196954
 20
16.2839167397
 10
-17.5658715159
 20
16.2785272162
 10
-17.5775496478
 20
16.2735492585
 10
-17.5893383793
 20
16.2690035613
 10
-17.6011986933
 20
16.2649027761
 10
-17.6131131409
 20
16.2612671506
 10
-17.6250631543
 20
16.2581161656
 10
-17.6370068318
 20
16.2554616293
 10
-17.6489236815
 20
16.2533219969
 10
-17.6607922487
 20
16.2517148594
 10
-17.6725678273
 20
16.2506506987
 10
-17.6842266478
 20
16.2501453933
 10
-17.6957445849
 20
16.2502137594
 10
-17.7070749376
 20
16.2508641578
 10
-17.7181802
 20
16.2521075506
 10
-17.7290445518
 20
16.253955046
  0
LWPOLYLINE
  5
239
100
AcDbEntity
  8
RACCORDO
100
AcDbPolyline
 62
7
  6
CONTINUOUS
 90
37
 70
0
 10
-23.766908487
 20
13.8337180405
 10
-23.7986593111
 20
13.8146251451
 10
-23.8415883844
 20
13.7869384022
 10
-23.8837048557
 20
13.7576210636
 10
-23.9249908729
 20
13.726734147
 10
-23.9654372113
 20
13.6943314669
 10
-24.005030242
 20
13.6604649266
 10
-24.043754838
 20
13.6251867241
 10
-24.0815949432
 20
13.5885460114
 10
-24.1185255478
 20
13.5505976624
 10
-24.154528957
 20
13.511390235
 10
-24.1895853186
 20
13.4709698169
 10
-24.2236613279
 20
13.4293985699
 10
-24.2567353853
 20
13.3867247097
 10
-24.2887849049
 20
13.3429937797
 10
-24.319772617
 20
13.2982741365
 10
-24.3496742704
 20
13.2526140617
 10
-24.3784658171
 20
13.2060607239
 10
-24.4061085584
 20
13.1586864802
 10
-24.4325771376
 20
13.110539764
 10
-24.4578467052
 20
13.0616700133
 10
-24.4818779444
 20
13.0121530506
 10
-24.5046456994
 20
12.9620383031
 10
-24.5261248393
 20
12.911375711
 10
-24.5462775478
 20
12.8602420058
 10
-24.5650797169
 20
12.8086865403
 10
-24.582505346
 20
12.756759006
 10
-24.5985198101
 20
12.7045345185
 10
-24.6130989715
 20
12.6520612017
 10
-24.6262158654
 20
12.5993871421
 10
-24.6378395907
 20
12.5465820167
 10
-24.647944033
 20
12.493693234
 10
-24.6565009762
 20
12.4407669973
 10
-24.6634808668
 20
12.387860411
 10
-24.6688535019
 20
12.3350183151
 10
-24.6725884676
 20
12.2822873864
 10
-24.6742333095
 20
12.244791763
  0
LINE
  5
23A
100
AcDbEntity
  8
RACCORDO
100
AcDbLine
 62
7
  6
CONTINUOUS
 10
-23.766918173
 20
13.8337126217
 11
-19.1755447418
 21
16.5109038696
  0
LINE
  5
23B
100
AcDbEntity
  8
RACCORDO
100
AcDbLine
 62
253
  6
CONTINUOUS
 10
-19.1755447418
 20
16.3689663767
 11
-23.5382312064
 21
13.8251205764
  0
LWPOLYLINE
  5
23C
100
AcDbEntity
  8
RACCORDO
100
AcDbPolyline
 62
253
  6
CONTINUOUS
 90
17
 70
0
 10
-23.7669085865
 20
13.8337182111
 10
-23.7645086839
 20
13.8350919391
 10
-23.7521249422
 20
13.8414146637
 10
-23.7392161952
 20
13.8467621736
 10
-23.7258116513
 20
13.8511223691
 10
-23.7119416409
 20
13.8544853843
 10
-23.6976375475
 20
13.8568436098
 10
-23.6829317368
 20
13.8581917098
 10
-23.6678574835
 20
13.8585266338
 10
-23.6524488958
 20
13.857847624
 10
-23.6367408387
 20
13.8561562169
 10
-23.6207688546
 20
13.8534562395
 10
-23.6045690831
 20
13.8497538011
 10
-23.5881781792
 20
13.845057279
 10
-23.5716332304
 20
13.8393773002
 10
-23.5549716728
 20
13.8327267166
 10
-23.5382312064
 20
13.8251205764
  0
LINE
  5
23D
100
AcDbEntity
  8
RACCORDO
100
AcDbLine
 62
7
  6
CONTINUOUS
 10
-18.1594781362
 20
18.6663994493
 11
-19.7426518016
 21
17.8542013912
  0
LINE
  5
23E
100
AcDbEntity
  8
RACCORDO
100
AcDbLine
 62
253
  6
CONTINUOUS
 10
-18.0468095323
 20
18.6597375134
 11
-19.6295661354
 21
17.847753416
  0
LINE
  5
23F
100
AcDbEntity
  8
RACCORDO
100
AcDbLine
 62
253
  6
CONTINUOUS
 10
-16.7033006648
 20
17.9879830796
 11
-18.3045814556
 21
17.1852610761
  0
LINE
  5
240
100
AcDbEntity
  8
RACCORDO
100
AcDbLine
 62
7
  6
CONTINUOUS
 10
-18.1577417232
 20
18.6672676702
 11
-18.1594781342
 21
18.6663994503
  0
LINE
  5
241
100
AcDbEntity
  8
RACCORDO
100
AcDbLine
 62
253
  6
CONTINUOUS
 10
-16.175033493
 20
18.2514218996
 11
-16.7033006648
 21
17.9879830796
  0
LINE
  5
242
100
AcDbEntity
  8
RACCORDO
100
AcDbLine
 62
7
  6
CONTINUOUS
 10
-17.6228717647
 20
18.927819771
 11
-18.1577417224
 21
18.6672676706
  0
LINE
  5
243
100
AcDbEntity
  8
RACCORDO
100
AcDbLine
 62
253
  6
CONTINUOUS
 10
-17.5123596536
 20
18.9200849799
 11
-18.0468095323
 21
18.6597375134
  0
LWPOLYLINE
  5
244
100
AcDbEntity
  8
RACCORDO
100
AcDbPolyline
 62
253
  6
CONTINUOUS
 90
67
 70
0
 10
-21.3873649912
 20
-16.3199967582
 10
-21.3927082256
 20
-16.0418041662
 10
-21.4087276463
 20
-15.7588882342
 10
-21.4353879006
 20
-15.4718868897
 10
-21.4726152756
 20
-15.18154691
 10
-21.5203337411
 20
-14.8884254886
 10
-21.5785007756
 20
-14.5928803301
 10
-21.6470687047
 20
-14.2953651304
 10
-21.7258772812
 20
-13.9967572433
 10
-21.8146784526
 20
-13.6980549671
 10
-21.9132306529
 20
-13.4000491622
 10
-22.0213407222
 20
-13.1033035564
 10
-22.1387689989
 20
-12.8084753296
 10
-22.2652537037
 20
-12.5162245963
 10
-22.4005047604
 20
-12.2272244789
 10
-22.5442097593
 20
-11.9421428039
 10
-22.6960878991
 20
-11.661544724
 10
-22.8557526955
 20
-11.3861518939
 10
-23.0226834986
 20
-11.1168355838
 10
-23.1963583839
 20
-10.8543691822
 10
-23.3764789425
 20
-10.5991378618
 10
-23.5628405026
 20
-10.3514138243
 10
-23.7551161197
 20
-10.1116528626
 10
-23.9527906125
 20
-9.8805179591
 10
-24.1553754699
 20
-9.6585851117
 10
-24.3624110935
 20
-9.4463575204
 10
-24.5734310018
 20
-9.2443130785
 10
-24.7879157054
 20
-9.0529449389
 10
-25.0052821912
 20
-8.8727559625
 10
-25.2251320462
 20
-8.7040593463
 10
-25.4472188275
 20
-8.5470588002
 10
-25.6711972924
 20
-8.4020488033
 10
-25.8964135688
 20
-8.2695028215
 10
-26.1221544881
 20
-8.1498592851
 10
-26.3478441543
 20
-8.0434187282
 10
-26.5730333176
 20
-7.9503883331
 10
-26.7971966994
 20
-7.8709847057
 10
-27.0198155443
 20
-7.8053890605
 10
-27.2403949268
 20
-7.7537446727
 10
-27.4584503292
 20
-7.7161647919
 10
-27.6734973117
 20
-7.692735238
 10
-27.8850363127
 20
-7.6835128022
 10
-28.092570661
 20
-7.6885188304
 10
-28.2956191682
 20
-7.7077385817
 10
-28.4937327794
 20
-7.7411263483
 10
-28.6864780252
 20
-7.7886088173
 10
-28.8734270123
 20
-7.8500834613
 10
-29.0541439649
 20
-7.9254099544
 10
-29.2282035916
 20
-8.0144106618
 10
-29.3952024528
 20
-8.1168752916
 10
-29.5547727938
 20
-8.2325740388
 10
-29.7065665921
 20
-8.3612542589
 10
-29.8502473686
 20
-8.5026348396
 10
-29.9854780959
 20
-8.6563884812
 10
-30.1119381347
 20
-8.8221496696
 10
-30.2293333654
 20
-8.9995253992
 10
-30.3374095072
 20
-9.1881235468
 10
-30.4359355413
 20
-9.3875411429
 10
-30.5247199042
 20
-9.5974150016
 10
-30.603517132
 20
-9.8171916398
 10
-30.6720775517
 20
-10.0461201866
 10
-30.7302401171
 20
-10.2834848184
 10
-30.7779563686
 20
-10.5288798481
 10
-30.8151827814
 20
-10.7819874009
 10
-30.8418428823
 20
-11.0423255141
 10
-30.8578626373
 20
-11.3092225262
 10
-30.863206258
 20
-11.5820761248
  0
LWPOLYLINE
  5
245
100
AcDbEntity
  8
RACCORDO
100
AcDbPolyline
 62
253
  6
CONTINUOUS
 90
50
 70
0
 10
-20.7474762658
 20
-16.3132618759
 10
-20.753173217
 20
-16.0166786157
 10
-20.770251887
 20
-15.7150599114
 10
-20.7986745865
 20
-15.4090858214
 10
-20.8383625857
 20
-15.0995524848
 10
-20.8892349858
 20
-14.7870538326
 10
-20.9512468994
 20
-14.4719711188
 10
-21.0243477327
 20
-14.1547880562
 10
-21.1083663913
 20
-13.8364400832
 10
-21.2030381369
 20
-13.5179915126
 10
-21.3081053143
 20
-13.2002854532
 10
-21.4233621284
 20
-12.8839228839
 10
-21.5485531756
 20
-12.5696044408
 10
-21.6833994096
 20
-12.2580338968
 10
-21.8275915333
 20
-11.9499288682
 10
-21.9807964567
 20
-11.6460013197
 10
-22.1427148066
 20
-11.3468537572
 10
-22.31293456
 20
-11.0532555454
 10
-22.490900653
 20
-10.7661355536
 10
-22.6760566593
 20
-10.4863182978
 10
-22.868084442
 20
-10.2142144121
 10
-23.0667658001
 20
-9.9501140939
 10
-23.2717521762
 20
-9.6945032681
 10
-23.4824943314
 20
-9.4480887441
 10
-23.6984714598
 20
-9.2114845965
 10
-23.9191935804
 20
-8.9852272903
 10
-24.1441633741
 20
-8.7698263108
 10
-24.3728270093
 20
-8.5658074103
 10
-24.6045629316
 20
-8.3737066913
 10
-24.8389463906
 20
-8.1938580561
 10
-25.0757146525
 20
-8.0264786835
 10
-25.3144996516
 20
-7.8718825214
 10
-25.5546042899
 20
-7.7305743338
 10
-25.7952682531
 20
-7.603021532
 10
-26.0358775749
 20
-7.4895445164
 10
-26.2759533069
 20
-7.3903641666
 10
-26.5149354461
 20
-7.3057114082
 10
-26.7522709437
 20
-7.2357794357
 10
-26.9874321562
 20
-7.1807209956
 10
-27.2199025361
 20
-7.1406568237
 10
-27.4491656187
 20
-7.1156784131
 10
-27.674688818
 20
-7.1058463094
 10
-27.8959426294
 20
-7.1111832697
 10
-28.1124140544
 20
-7.131673579
 10
-28.3236243527
 20
-7.1672685077
 10
-28.5291113998
 20
-7.2178898957
 10
-28.7284190161
 20
-7.283428437
 10
-28.9210826177
 20
-7.3637345302
 10
-29.1066487975
 20
-7.4586187997
 10
-29.2004574968
 20
-7.5138086973
  0
LWPOLYLINE
  5
246
100
AcDbEntity
  8
RACCORDO
100
AcDbPolyline
 62
7
  6
CONTINUOUS
 90
20
 70
0
 10
-19.8785376961
 20
17.6317649487
 10
-19.878133824
 20
17.6459695607
 10
-19.8769152124
 20
17.6602009846
 10
-19.8748748249
 20
17.6744031824
 10
-19.8720100735
 20
17.6885205773
 10
-19.8683237512
 20
17.7024943465
 10
-19.8638244588
 20
17.7162642937
 10
-19.8585258654
 20
17.7297723051
 10
-19.8524441238
 20
17.7429670689
 10
-19.8455966424
 20
17.7558029019
 10
-19.8380059719
 20
17.7682312132
 10
-19.8296995854
 20
17.7802031319
 10
-19.8207031775
 20
17.7916787623
 10
-19.8110418692
 20
17.8026222772
 10
-19.8007525967
 20
17.8129886446
 10
-19.7898783258
 20
17.8227340593
 10
-19.7784441622
 20
17.8318350647
 10
-19.7664920061
 20
17.8402562155
 10
-19.7540893746
 20
17.8479518494
 10
-19.7426446436
 20
17.854205063
  0
LWPOLYLINE
  5
247
100
AcDbEntity
  8
RACCORDO
100
AcDbPolyline
 62
253
  6
CONTINUOUS
 90
27
 70
0
 10
-18.1278077519
 20
16.5403976032
 10
-18.1326862517
 20
16.5284417015
 10
-18.1380318933
 20
16.5167574274
 10
-18.1438304834
 20
16.505376879
 10
-18.1500671686
 20
16.4943303656
 10
-18.1567247628
 20
16.4836494038
 10
-18.1637834118
 20
16.4733662784
 10
-18.1712230676
 20
16.4635100474
 10
-18.1790241037
 20
16.4541065712
 10
-18.1871654231
 20
16.4451813135
 10
-18.1956249585
 20
16.4367585508
 10
-18.2043794953
 20
16.4288614782
 10
-18.2134049155
 20
16.421511881
 10
-18.2226764819
 20
16.4147298927
 10
-18.2321689512
 20
16.4085339683
 10
-18.2418564195
 20
16.4029410184
 10
-18.2517124441
 20
16.3979663164
 10
-18.2617100899
 20
16.3936234641
 10
-18.2718220259
 20
16.3899243364
 10
-18.2820206239
 20
16.3868790393
 10
-18.2922780356
 20
16.3844958876
 10
-18.3025662437
 20
16.3827813906
 10
-18.3128571622
 20
16.3817402302
 10
-18.3231226672
 20
16.3813752532
 10
-18.3333346731
 20
16.3816874537
 10
-18.3434652582
 20
16.3826759657
 10
-18.353486784
 20
16.38433808
  0
LINE
  5
248
100
AcDbEntity
  8
RACCORDO
100
AcDbLine
 62
7
  6
CONTINUOUS
 10
-16.5265269611
 20
16.0809428798
 11
-17.4165871438
 21
15.5842619585
  0
LINE
  5
249
100
AcDbEntity
  8
RACCORDO
100
AcDbLine
 62
7
  6
CONTINUOUS
 10
-14.1577072427
 20
15.7508244665
 11
-13.8041658535
 21
15.9321978913
  0
LINE
  5
24A
100
AcDbEntity
  8
RACCORDO
100
AcDbLine
 62
253
  6
CONTINUOUS
 10
-16.5265269611
 20
17.6830935408
 11
-18.1278077519
 21
16.8803715373
  0
LINE
  5
24B
100
AcDbEntity
  8
RACCORDO
100
AcDbLine
 62
253
  6
CONTINUOUS
 10
-15.9982597893
 20
17.9465323608
 11
-16.5265269611
 21
17.6830935408
  0
LINE
  5
24C
100
AcDbEntity
  8
RACCORDO
100
AcDbLine
 62
7
  6
CONTINUOUS
 10
-8.8039438995
 20
19.2212469089
 11
-15.1184842261
 21
16.0764706043
  0
LINE
  5
24D
100
AcDbEntity
  8
ASSI
100
AcDbLine
 62
7
  6
CONTINUOUS
 10
-13.8041658535
 20
15.9321978913
 11
-8.4638288987
 21
18.5336451968
  0
LINE
  5
24E
100
AcDbEntity
  8
RACCORDO
100
AcDbLine
 62
7
  6
CONTINUOUS
 10
9.9697023565
 20
27.3964044205
 11
-7.8526103697
 21
18.9914511121
  0
LINE
  5
24F
100
AcDbEntity
  8
ASSI
100
AcDbLine
 62
7
  6
CONTINUOUS
 10
9.9697023565
 20
27.3964044205
 11
-7.8526103697
 21
18.9914511121
  0
LINE
  5
250
100
AcDbEntity
  8
0
100
AcDbLine
 62
7
  6
CONTINUOUS
 10
-12.6451142656
 20
-16.1453713611
 11
-12.8031465418
 21
-16.0308382795
  0
LWPOLYLINE
  5
251
100
AcDbEntity
  8
RACCORDO
100
AcDbPolyline
 62
253
  6
CONTINUOUS
 90
31
 70
0
 10
-4.7634895875
 20
-31.4413656184
 10
-4.7683736046
 20
-31.4337445213
 10
-4.7737242081
 20
-31.4259014656
 10
-4.7795267864
 20
-31.417857869
 10
-4.7857654941
 20
-31.4096356969
 10
-4.7924232944
 20
-31.4012574025
 10
-4.7994820064
 20
-31.3927458649
 10
-4.8069223541
 20
-31.3841243275
 10
-4.8147240196
 20
-31.3754163338
 10
-4.822865698
 20
-31.3666456637
 10
-4.8313251563
 20
-31.3578362678
 10
-4.8400792934
 20
-31.349012203
 10
-4.8491042035
 20
-31.3401975657
 10
-4.8583752415
 20
-31.331416427
 10
-4.8678670903
 20
-31.3226927664
 10
-4.8775538294
 20
-31.3140504062
 10
-4.8874090065
 20
-31.305512947
 10
-4.8974057092
 20
-31.2971037028
 10
-4.9075166384
 20
-31.2888456374
 10
-4.9177141835
 20
-31.280761302
 10
-4.927970497
 20
-31.2728727732
 10
-4.9382575711
 20
-31.2652015928
 10
-4.948547314
 20
-31.2577687092
 10
-4.9588116264
 20
-31.2505944202
 10
-4.9690224788
 20
-31.2436983172
 10
-4.9791519875
 20
-31.2370992319
 10
-4.9891724907
 20
-31.2308151852
 10
-4.9990566248
 20
-31.2248633375
 10
-5.0087773981
 20
-31.2192599419
 10
-5.0183082653
 20
-31.2140203002
 10
-5.0276231995
 20
-31.2091587208
  0
LWPOLYLINE
  5
252
100
AcDbEntity
  8
RACCORDO
100
AcDbPolyline
 62
253
  6
CONTINUOUS
 90
31
 70
0
 10
-18.1278077519
 20
16.8803715373
 10
-18.1281014539
 20
16.8917697557
 10
-18.1288743824
 20
16.9033867367
 10
-18.1301253267
 20
16.9151911208
 10
-18.1318521717
 20
16.9271534508
 10
-18.134050864
 20
16.9392387541
 10
-18.1367144377
 20
16.9514064227
 10
-18.1398348562
 20
16.963620415
 10
-18.1434040952
 20
16.9758498957
 10
-18.1474124871
 20
16.9880616784
 10
-18.1518491677
 20
17.0002225148
 10
-18.1567019338
 20
17.0122988203
 10
-18.161957349
 20
17.0242571163
 10
-18.1676009247
 20
17.0360644637
 10
-18.1736172489
 20
17.0476886442
 10
-18.1799898794
 20
17.0590978851
 10
-18.1867013778
 20
17.0702609453
 10
-18.1937333214
 20
17.0811471634
 10
-18.2010664055
 20
17.0917266439
 10
-18.2086805153
 20
17.101970364
 10
-18.2165547829
 20
17.1118502457
 10
-18.2246676156
 20
17.1213391925
 10
-18.2329967704
 20
17.1304111849
 10
-18.241519408
 20
17.1390413432
 10
-18.2502121516
 20
17.1472059933
 10
-18.2590511714
 20
17.154882751
 10
-18.268012225
 20
17.1620505596
 10
-18.2770707149
 20
17.168689745
 10
-18.2862017927
 20
17.1747821
 10
-18.295380429
 20
17.1803109293
 10
-18.3045814556
 20
17.1852610761
  0
LWPOLYLINE
  5
253
100
AcDbEntity
  8
RACCORDO
100
AcDbPolyline
 62
7
  6
CONTINUOUS
 90
23
 70
0
 10
-19.8785376961
 20
17.2917910146
 10
-19.8782192881
 20
17.2791774623
 10
-19.8772606714
 20
17.2665545141
 10
-19.8756588972
 20
17.2539609739
 10
-19.8734147372
 20
17.2414399005
 10
-19.8705306972
 20
17.2290264755
 10
-19.867008873
 20
17.2167477085
 10
-19.8628555078
 20
17.2046407817
 10
-19.858080653
 20
17.1927454144
 10
-19.8526928581
 20
17.181091135
 10
-19.8467044976
 20
17.1697121601
 10
-19.8401324564
 20
17.1586457653
 10
-19.8329930226
 20
17.1479229518
 10
-19.8253032296
 20
17.1375725825
 10
-19.8170859097
 20
17.1276277693
 10
-19.808366876
 20
17.118120447
 10
-19.79916566
 20
17.1090723842
 10
-19.7895092105
 20
17.1005106665
 10
-19.7794348086
 20
17.0924670034
 10
-19.7689622589
 20
17.0849554709
 10
-19.7581195688
 20
17.0779954621
 10
-19.746955819
 20
17.0716157477
 10
-19.7403347691
 20
17.0681810542
  0
LWPOLYLINE
  5
254
100
AcDbEntity
  8
RACCORDO
100
AcDbPolyline
 62
253
  6
CONTINUOUS
 90
19
 70
0
 10
-19.8053143914
 20
17.2034026669
 10
-19.8050955202
 20
17.1927416747
 10
-19.8044389645
 20
17.1823202582
 10
-19.8033456268
 20
17.1721646808
 10
-19.801817177
 20
17.1622988267
 10
-19.7998568584
 20
17.15274963
 10
-19.7974702753
 20
17.1435463939
 10
-19.7946639426
 20
17.1347136673
 10
-19.7914444255
 20
17.1262716265
 10
-19.7878196563
 20
17.118241112
 10
-19.7837985732
 20
17.1106420267
 10
-19.7793912001
 20
17.1034934049
 10
-19.7746085722
 20
17.0968131773
 10
-19.7694625993
 20
17.0906179763
 10
-19.7639660704
 20
17.084923196
 10
-19.7581327271
 20
17.0797430597
 10
-19.7519771383
 20
17.0750904683
 10
-19.7455145831
 20
17.0709769358
 10
-19.740341095
 20
17.0681842168
  0
LWPOLYLINE
  5
255
100
AcDbEntity
  8
RACCORDO
100
AcDbPolyline
 62
253
  6
CONTINUOUS
 90
19
 70
0
 10
-18.4803297116
 20
16.540910327
 10
-18.4801108404
 20
16.5302493348
 10
-18.4794542847
 20
16.5198279183
 10
-18.478360947
 20
16.5096723409
 10
-18.4768324972
 20
16.4998064868
 10
-18.4748721786
 20
16.4902572901
 10
-18.4724855955
 20
16.481054054
 10
-18.4696792627
 20
16.4722213274
 10
-18.4664597457
 20
16.4637792866
 10
-18.4628349765
 20
16.4557487721
 10
-18.4588138934
 20
16.4481496868
 10
-18.4544065202
 20
16.441001065
 10
-18.4496238924
 20
16.4343208374
 10
-18.4444779195
 20
16.4281256364
 10
-18.4389813906
 20
16.4224308561
 10
-18.4331480473
 20
16.4172507198
 10
-18.4269924585
 20
16.4125981284
 10
-18.4205299033
 20
16.4084845959
 10
-18.4153564151
 20
16.4056918769
  0
LINE
  5
256
100
AcDbEntity
  8
RACCORDO
100
AcDbLine
 62
7
  6
CONTINUOUS
 10
-19.8785376961
 20
17.6317649487
 11
-19.8785376961
 21
17.2917910146
  0
LINE
  5
257
100
AcDbEntity
  8
RACCORDO
100
AcDbLine
 62
253
  6
CONTINUOUS
 10
-19.8053143914
 20
17.5433766011
 11
-19.8053143914
 21
17.2034026669
  0
LINE
  5
258
100
AcDbEntity
  8
RACCORDO
100
AcDbLine
 62
7
  6
CONTINUOUS
 10
-19.1755447418
 20
16.3318119386
 11
-19.1755447418
 21
16.7857860403
  0
LINE
  5
259
100
AcDbEntity
  8
RACCORDO
100
AcDbLine
 62
253
  6
CONTINUOUS
 10
-19.1023214371
 20
16.2401002437
 11
-19.1023214371
 21
16.7491743879
  0
LINE
  5
25A
100
AcDbEntity
  8
RACCORDO
100
AcDbLine
 62
253
  6
CONTINUOUS
 10
-18.4803297116
 20
16.540910327
 11
-18.4803297116
 21
16.8808842611
  0
LINE
  5
25B
100
AcDbEntity
  8
RACCORDO
100
AcDbLine
 62
253
  6
CONTINUOUS
 10
-18.1278077519
 20
16.5403976032
 11
-18.1278077519
 21
16.8803715373
  0
LINE
  5
25C
100
AcDbEntity
  8
RACCORDO
100
AcDbLine
 62
253
  6
CONTINUOUS
 10
-17.7691091035
 20
16.2623146999
 11
-17.7691091035
 21
15.5734940769
  0
LINE
  5
25D
100
AcDbEntity
  8
RACCORDO
100
AcDbLine
 62
253
  6
CONTINUOUS
 10
-17.4165871438
 20
16.3918940803
 11
-17.4165871438
 21
15.5842619585
  0
LWPOLYLINE
  5
25E
100
AcDbEntity
  8
RACCORDO
100
AcDbPolyline
 62
253
  6
CONTINUOUS
 90
31
 70
0
 10
-19.8053143914
 20
17.5433766011
 10
-19.8050750365
 20
17.5547591012
 10
-19.8043570313
 20
17.5663573269
 10
-19.8031614412
 20
17.5781401878
 10
-19.8014902437
 20
17.5900784552
 10
-19.7993473088
 20
17.6021375062
 10
-19.7967393533
 20
17.6142772101
 10
-19.7936741813
 20
17.6264619109
 10
-19.790159627
 20
17.6386610363
 10
-19.7862051458
 20
17.6508417083
 10
-19.781821382
 20
17.6629709962
 10
-19.7770203023
 20
17.67501566
 10
-19.7718150969
 20
17.6869425708
 10
-19.7662200079
 20
17.6987191223
 10
-19.760250205
 20
17.710313412
 10
-19.7539218831
 20
17.7216939825
 10
-19.747252232
 20
17.7328299001
 10
-19.7402594245
 20
17.7436908036
 10
-19.7329625157
 20
17.7542470882
 10
-19.7253813733
 20
17.7644700084
 10
-19.717536622
 20
17.7743317488
 10
-19.7094496158
 20
17.7838054612
 10
-19.7011423636
 20
17.7928653591
 10
-19.6926374769
 20
17.8014867787
 10
-19.6839581118
 20
17.8096462443
 10
-19.6751278858
 20
17.8173215508
 10
-19.6661708395
 20
17.8244917999
 10
-19.6571113803
 20
17.8311374543
 10
-19.6479741767
 20
17.837240423
 10
-19.6387840904
 20
17.8427841054
 10
-19.6295661354
 20
17.847753416
  0
LWPOLYLINE
  5
25F
100
AcDbEntity
  8
RACCORDO
100
AcDbPolyline
 62
253
  6
CONTINUOUS
 90
31
 70
0
 10
-18.4803297116
 20
16.8808842611
 10
-18.4800903567
 20
16.8922667613
 10
-18.4793723515
 20
16.903864987
 10
-18.4781767613
 20
16.9156478479
 10
-18.4765055639
 20
16.9275861153
 10
-18.474362629
 20
16.9396451663
 10
-18.4717546735
 20
16.9517848702
 10
-18.4686895015
 20
16.963969571
 10
-18.4651749472
 20
16.9761686964
 10
-18.461220466
 20
16.9883493684
 10
-18.4568367022
 20
17.0004786563
 10
-18.4520356225
 20
17.0125233201
 10
-18.446830417
 20
17.0244502309
 10
-18.4412353281
 20
17.0362267824
 10
-18.4352655251
 20
17.0478210721
 10
-18.4289372032
 20
17.0592016426
 10
-18.4222675522
 20
17.0703375602
 10
-18.4152747447
 20
17.0811984637
 10
-18.4079778359
 20
17.0917547483
 10
-18.4003966935
 20
17.1019776685
 10
-18.3925519422
 20
17.1118394089
 10
-18.384464936
 20
17.1213131213
 10
-18.3761576838
 20
17.1303730192
 10
-18.367652797
 20
17.1389944388
 10
-18.358973432
 20
17.1471539044
 10
-18.350143206
 20
17.1548292109
 10
-18.3411861597
 20
17.16199946
 10
-18.3321267004
 20
17.1686451144
 10
-18.3229894969
 20
17.1747480831
 10
-18.3137994106
 20
17.1802917655
 10
-18.3045814556
 20
17.1852610761
  0
LWPOLYLINE
  5
260
100
AcDbEntity
  8
RACCORDO
100
AcDbPolyline
 62
253
  6
CONTINUOUS
 90
15
 70
0
 10
-15.9263662489
 20
17.680707731
 10
-15.9273490481
 20
17.6742055914
 10
-15.9290086535
 20
17.6677379242
 10
-15.931340573
 20
17.6613222714
 10
-15.9343384488
 20
17.6549761508
 10
-15.9379940238
 20
17.6487169862
 10
-15.9422972253
 20
17.642561904
 10
-15.9472363519
 20
17.6365275387
 10
-15.952798065
 20
17.6306301532
 10
-15.9589678852
 20
17.624885222
 10
-15.9657284924
 20
17.6193089811
 10
-15.9730593748
 20
17.6139180761
 10
-15.9809393707
 20
17.6087274816
 10
-15.9893472657
 20
17.6037506255
 10
-15.9982597893
 20
17.5990008441
  0
LWPOLYLINE
  5
261
100
AcDbEntity
  8
RACCORDO
100
AcDbPolyline
 62
253
  6
CONTINUOUS
 90
46
 70
0
 10
-22.6057166572
 20
-3.4523850198
 10
-22.5523673747
 20
-3.363669187
 10
-22.4789615547
 20
-3.2500163367
 10
-22.4026947287
 20
-3.1400039248
 10
-22.3235646397
 20
-3.0336395645
 10
-22.241577238
 20
-2.9309174813
 10
-22.1568716205
 20
-2.8320105841
 10
-22.0694444867
 20
-2.7369252642
 10
-21.9793030256
 20
-2.6456570553
 10
-21.8866023848
 20
-2.5583627319
 10
-21.7913392264
 20
-2.4750495435
 10
-21.6935209015
 20
-2.3957122172
 10
-21.5933188621
 20
-2.3204888739
 10
-21.4907326115
 20
-2.2493887993
 10
-21.3857667076
 20
-2.1824046989
 10
-21.2786004028
 20
-2.1196499267
 10
-21.1692338754
 20
-2.0611329587
 10
-21.0576709633
 20
-2.0068472802
 10
-20.9440965689
 20
-1.9568838351
 10
-20.8285062132
 20
-1.9112493671
 10
-20.7109082599
 20
-1.8699390229
 10
-20.5915069898
 20
-1.8330264039
 10
-20.4702955535
 20
-1.8005200433
 10
-20.3472844877
 20
-1.7724131965
 10
-20.2227042278
 20
-1.7487565835
 10
-20.0965607816
 20
-1.7295610675
 10
-19.9688515643
 20
-1.7148174409
 10
-19.8397941465
 20
-1.7045463285
 10
-19.7094030074
 20
-1.6987536896
 10
-19.577666736
 20
-1.6974350453
 10
-19.444764037
 20
-1.7005953471
 10
-19.3106849789
 20
-1.7082391196
 10
-19.175442134
 20
-1.7203631098
 10
-19.0392479016
 20
-1.736960573
 10
-18.9020716484
 20
-1.758047352
 10
-18.763946192
 20
-1.7836086541
 10
-18.6251790288
 20
-1.8135917423
 10
-18.4857638749
 20
-1.8480158318
 10
-18.3457087049
 20
-1.8868625192
 10
-18.2053422978
 20
-1.9300225892
 10
-18.0646634851
 20
-1.9775148197
 10
-17.9236745792
 20
-2.0293209814
 10
-17.7827094469
 20
-2.0852762836
 10
-17.6418795673
 20
-2.1453258873
 10
-17.5010740317
 20
-2.2095249048
 10
-17.3602929822
 20
-2.2778734045
  0
LINE
  5
262
100
AcDbEntity
  8
RACCORDO
100
AcDbLine
 62
7
  6
CONTINUOUS
 10
-8.5607849247
 20
15.2879670699
 11
-8.2388372018
 21
15.4616652524
  0
LINE
  5
263
100
AcDbEntity
  8
ASSI
100
AcDbLine
 62
7
  6
CONTINUOUS
 10
-8.5607849247
 20
15.2879670699
 11
-8.2388372018
 21
15.4616652524
  0
LINE
  5
264
100
AcDbEntity
  8
RACCORDO
100
AcDbLine
 62
253
  6
CONTINUOUS
 10
-8.4740769364
 20
15.2807724247
 11
-8.1473331432
 21
15.4570581972
  0
LINE
  5
265
100
AcDbEntity
  8
ASSI
100
AcDbLine
 62
253
  6
CONTINUOUS
 10
-8.4740769364
 20
15.2807724247
 11
-8.1473331432
 21
15.4570581972
  0
LINE
  5
266
100
AcDbEntity
  8
RACCORDO
100
AcDbLine
 62
7
  6
CONTINUOUS
 10
-8.2388366426
 20
15.4616655106
 11
-8.2346702606
 21
15.4637489942
  0
LINE
  5
267
100
AcDbEntity
  8
ASSI
100
AcDbLine
 62
7
  6
CONTINUOUS
 10
-8.2388366426
 20
15.4616655106
 11
-8.2346702606
 21
15.4637489942
  0
LINE
  5
268
100
AcDbEntity
  8
0
100
AcDbLine
 62
7
  6
CONTINUOUS
 10
-8.8544183852
 20
15.9520221745
 11
-8.147311604
 21
16.3055755651
  0
LINE
  5
269
100
AcDbEntity
  8
0
100
AcDbLine
 62
7
  6
CONTINUOUS
 10
-6.3959737069
 20
16.827691123
 11
-7.7937582134
 21
16.1287988698
  0
LINE
  5
26A
100
AcDbEntity
  8
ASSI
100
AcDbLine
 62
7
  6
CONTINUOUS
 10
-7.8583222576
 20
18.2308918762
 11
-12.4606629693
 21
15.962514842
  0
LINE
  5
26B
100
AcDbEntity
  8
DRAFT
100
AcDbLine
 62
7
  6
CONTINUOUS
 10
-8.147311604
 20
16.8581337544
 11
-7.8135359814
 21
17.0214541096
  0
LINE
  5
26C
100
AcDbEntity
  8
RACCORDO
100
AcDbLine
 62
7
  6
CONTINUOUS
 10
-5.7369779556
 20
17.6877639369
 11
-7.7937582134
 21
16.6813570591
  0
LWPOLYLINE
  5
26D
100
AcDbEntity
  8
RACCORDO
100
AcDbPolyline
 62
7
  6
CONTINUOUS
 90
4
 70
0
 10
-8.5607618575
 20
15.2879795151
 10
-8.5566589636
 20
15.2899802854
 10
-8.5430382653
 20
15.2940955344
 10
-8.5276948828
 20
15.2952675046
  0
LWPOLYLINE
  5
26E
100
AcDbEntity
  8
ASSI
100
AcDbPolyline
 62
7
  6
CONTINUOUS
 90
4
 70
0
 10
-8.5607618575
 20
15.2879795151
 10
-8.5566589636
 20
15.2899802854
 10
-8.5430382653
 20
15.2940955344
 10
-8.5276948828
 20
15.2952675046
  0
LINE
  5
26F
100
AcDbEntity
  8
RACCORDO
100
AcDbLine
 62
7
  6
CONTINUOUS
 10
12.6181740496
 20
26.2592080141
 11
-5.3509831913
 21
17.7406375229
  0
LINE
  5
270
100
AcDbEntity
  8
ASSI
100
AcDbLine
 62
7
  6
CONTINUOUS
 10
12.6181740496
 20
26.2592080141
 11
-5.3509831913
 21
17.7406375229
  0
LINE
  5
271
100
AcDbEntity
  8
RACCORDO
100
AcDbLine
 62
253
  6
CONTINUOUS
 10
10.4085871069
 20
27.3640014855
 11
-7.6062327966
 21
18.8682623256
  0
LINE
  5
272
100
AcDbEntity
  8
ASSI
100
AcDbLine
 62
253
  6
CONTINUOUS
 10
10.4085871069
 20
27.3640014855
 11
-7.6062327966
 21
18.8682623256
  0
LINE
  5
273
100
AcDbEntity
  8
RACCORDO
100
AcDbLine
 62
7
  6
CONTINUOUS
 10
-8.2346712929
 20
15.4637485174
 11
-8.2211009053
 21
15.4700157721
  0
LINE
  5
274
100
AcDbEntity
  8
ASSI
100
AcDbLine
 62
7
  6
CONTINUOUS
 10
-8.2346712929
 20
15.4637485174
 11
-8.2211009053
 21
15.4700157721
  0
LINE
  5
275
100
AcDbEntity
  8
RACCORDO
100
AcDbLine
 62
253
  6
CONTINUOUS
 10
-8.1473331432
 20
15.4570581972
 11
-8.1347770203
 21
15.4628570309
  0
LINE
  5
276
100
AcDbEntity
  8
ASSI
100
AcDbLine
 62
253
  6
CONTINUOUS
 10
-8.1473331432
 20
15.4570581972
 11
-8.1347770203
 21
15.4628570309
  0
LWPOLYLINE
  5
277
100
AcDbEntity
  8
RACCORDO
100
AcDbPolyline
 62
253
  6
CONTINUOUS
 90
58
 70
0
 10
-8.1347770203
 20
15.4628570309
 10
-8.1188774556
 20
15.4699971436
 10
-8.1025994982
 20
15.4769093958
 10
-8.0859431482
 20
15.4835937873
 10
-8.068894764
 20
15.4900552636
 10
-8.0514679872
 20
15.4962888794
 10
-8.033703742
 20
15.5022797979
 10
-8.0156019942
 20
15.5080271604
 10
-7.997162778
 20
15.5135318257
 10
-7.9784271204
 20
15.5187815334
 10
-7.9593943539
 20
15.5237757098
 10
-7.940065146
 20
15.5285149287
 10
-7.9204825253
 20
15.5329886505
 10
-7.9006459312
 20
15.5371962855
 10
-7.8805559244
 20
15.5411384235
 10
-7.860257216
 20
15.544806294
 10
-7.839749342
 20
15.5481992853
 10
-7.8190327665
 20
15.5513180092
 10
-7.7981535921
 20
15.5541555311
 10
-7.7771114567
 20
15.556711225
 10
-7.7559067224
 20
15.558985717
 10
-7.7345865792
 20
15.5609739502
 10
-7.7131507716
 20
15.562675287
 10
-7.6915995551
 20
15.5640903651
 10
-7.6699808858
 20
15.565216041
 10
-7.6482946146
 20
15.5660516702
 10
-7.6265408907
 20
15.5665978972
 10
-7.6047681178
 20
15.5668535115
 10
-7.5829762548
 20
15.5668178662
 10
-7.5611653427
 20
15.5664916082
 10
-7.539383909
 20
15.565875468
 10
-7.51763202
 20
15.5649688004
 10
-7.4959096094
 20
15.5637722506
 10
-7.4742650052
 20
15.5622884847
 10
-7.452698382
 20
15.5605168635
 10
-7.4312095653
 20
15.5584580262
 10
-7.4098463595
 20
15.5561165558
 10
-7.3886090442
 20
15.5534918236
 10
-7.3674973398
 20
15.5505844584
 10
-7.3465582117
 20
15.5474009299
 10
-7.3257920477
 20
15.5439406247
 10
-7.30519846
 20
15.5402041563
 10
-7.2848232496
 20
15.5361998346
 10
-7.2646668954
 20
15.5319270623
 10
-7.2447289185
 20
15.5273864367
 10
-7.2250536832
 20
15.5225880598
 10
-7.2056417677
 20
15.5175313553
 10
-7.1864925937
 20
15.5122168997
 10
-7.1676487908
 20
15.5066565236
 10
-7.1491110307
 20
15.5008496747
 10
-7.1308786416
 20
15.4947969055
 10
-7.1129922382
 20
15.4885117044
 10
-7.0954526122
 20
15.4819935583
 10
-7.0782589719
 20
15.4752429803
 10
-7.0614495565
 20
15.4682749983
 10
-7.0450371125
 20
15.4610946214
 10
-7.0290088933
 20
15.4536968404
 10
-7.013364899
 20
15.4460816554
  0
LWPOLYLINE
  5
278
100
AcDbEntity
  8
ASSI
100
AcDbPolyline
 62
253
  6
CONTINUOUS
 90
58
 70
0
 10
-8.1347770203
 20
15.4628570309
 10
-8.1188774556
 20
15.4699971436
 10
-8.1025994982
 20
15.4769093958
 10
-8.0859431482
 20
15.4835937873
 10
-8.068894764
 20
15.4900552636
 10
-8.0514679872
 20
15.4962888794
 10
-8.033703742
 20
15.5022797979
 10
-8.0156019942
 20
15.5080271604
 10
-7.997162778
 20
15.5135318257
 10
-7.9784271204
 20
15.5187815334
 10
-7.9593943539
 20
15.5237757098
 10
-7.940065146
 20
15.5285149287
 10
-7.9204825253
 20
15.5329886505
 10
-7.9006459312
 20
15.5371962855
 10
-7.8805559244
 20
15.5411384235
 10
-7.860257216
 20
15.544806294
 10
-7.839749342
 20
15.5481992853
 10
-7.8190327665
 20
15.5513180092
 10
-7.7981535921
 20
15.5541555311
 10
-7.7771114567
 20
15.556711225
 10
-7.7559067224
 20
15.558985717
 10
-7.7345865792
 20
15.5609739502
 10
-7.7131507716
 20
15.562675287
 10
-7.6915995551
 20
15.5640903651
 10
-7.6699808858
 20
15.565216041
 10
-7.6482946146
 20
15.5660516702
 10
-7.6265408907
 20
15.5665978972
 10
-7.6047681178
 20
15.5668535115
 10
-7.5829762548
 20
15.5668178662
 10
-7.5611653427
 20
15.5664916082
 10
-7.539383909
 20
15.565875468
 10
-7.51763202
 20
15.5649688004
 10
-7.4959096094
 20
15.5637722506
 10
-7.4742650052
 20
15.5622884847
 10
-7.452698382
 20
15.5605168635
 10
-7.4312095653
 20
15.5584580262
 10
-7.4098463595
 20
15.5561165558
 10
-7.3886090442
 20
15.5534918236
 10
-7.3674973398
 20
15.5505844584
 10
-7.3465582117
 20
15.5474009299
 10
-7.3257920477
 20
15.5439406247
 10
-7.30519846
 20
15.5402041563
 10
-7.2848232496
 20
15.5361998346
 10
-7.2646668954
 20
15.5319270623
 10
-7.2447289185
 20
15.5273864367
 10
-7.2250536832
 20
15.5225880598
 10
-7.2056417677
 20
15.5175313553
 10
-7.1864925937
 20
15.5122168997
 10
-7.1676487908
 20
15.5066565236
 10
-7.1491110307
 20
15.5008496747
 10
-7.1308786416
 20
15.4947969055
 10
-7.1129922382
 20
15.4885117044
 10
-7.0954526122
 20
15.4819935583
 10
-7.0782589719
 20
15.4752429803
 10
-7.0614495565
 20
15.4682749983
 10
-7.0450371125
 20
15.4610946214
 10
-7.0290088933
 20
15.4536968404
 10
-7.013364899
 20
15.4460816554
  0
LINE
  5
279
100
AcDbEntity
  8
ASSI
100
AcDbLine
 62
7
  6
CONTINUOUS
 10
-8.1574678516
 20
15.4969135365
 11
-8.22138334
 21
15.4698844297
  0
LINE
  5
27A
100
AcDbEntity
  8
RACCORDO
100
AcDbLine
 62
7
  6
CONTINUOUS
 10
-8.1558664852
 20
15.4975305098
 11
-8.2213790483
 21
15.4698864334
  0
LWPOLYLINE
  5
27B
100
AcDbEntity
  8
ASSI
100
AcDbPolyline
 62
7
  6
CONTINUOUS
 90
7
 70
0
 10
-7.8135359814
 20
18.2491319902
 10
-7.8209490429
 20
18.2466028966
 10
-7.8283826315
 20
18.2438694329
 10
-7.8358367473
 20
18.2409315989
 10
-7.8433113902
 20
18.2377893949
 10
-7.8508065603
 20
18.2344428206
 10
-7.8583222576
 20
18.2308918762
  0
LWPOLYLINE
  5
27C
100
AcDbEntity
  8
0
100
AcDbPolyline
 62
253
  6
CONTINUOUS
 90
3
 70
0
 10
-12.9855869686
 20
-16.2146918729
 10
-12.9722144835
 20
-16.2457662488
 10
-12.9519598001
 20
-16.3093448582
  0
LWPOLYLINE
  5
27D
100
AcDbEntity
  8
RACCORDO
100
AcDbPolyline
 62
7
  6
CONTINUOUS
 90
34
 70
0
 10
-16.5265269611
 20
17.6830935408
 10
-16.5267270171
 20
17.6934953494
 10
-16.5273272546
 20
17.7040737175
 10
-16.5283262126
 20
17.7148047356
 10
-16.5297214481
 20
17.7256641887
 10
-16.5315097964
 20
17.7366274812
 10
-16.5336873777
 20
17.7476696921
 10
-16.5362492022
 20
17.758765839
 10
-16.5391893765
 20
17.7698908324
 10
-16.5425013715
 20
17.7810194029
 10
-16.5461776486
 20
17.7921263607
 10
-16.5502098088
 20
17.8031865819
 10
-16.5545888061
 20
17.8141749631
 10
-16.5593047067
 20
17.8250666207
 10
-16.5643467767
 20
17.8358369078
 10
-16.5697036373
 20
17.8464613991
 10
-16.5753631616
 20
17.8569160236
 10
-16.5813124995
 20
17.8671771137
 10
-16.5875381713
 20
17.8772214201
 10
-16.5940261038
 20
17.887026175
 10
-16.6007615927
 20
17.8965691721
 10
-16.6077293319
 20
17.9058288124
 10
-16.6149135889
 20
17.9147840948
 10
-16.6222981046
 20
17.9234147268
 10
-16.6298660589
 20
17.9317011995
 10
-16.6376003805
 20
17.9396247068
 10
-16.6454835864
 20
17.9471672829
 10
-16.6534976859
 20
17.9543119066
 10
-16.6616246162
 20
17.9610423494
 10
-16.6698460273
 20
17.9673433379
 10
-16.678143124
 20
17.9732006852
 10
-16.6864971174
 20
17.978601122
 10
-16.6948892665
 20
17.9835323266
 10
-16.7033006648
 20
17.9879830796
  0
LWPOLYLINE
  5
27E
100
AcDbEntity
  8
RACCORDO
100
AcDbPolyline
 62
253
  6
CONTINUOUS
 90
31
 70
0
 10
-15.9982597893
 20
17.9465323608
 10
-15.9984500374
 20
17.9580130232
 10
-15.9991273019
 20
17.969703178
 10
-16.0002897288
 20
17.981570772
 10
-16.0019341355
 20
17.9935832761
 10
-16.004056015
 20
18.005707741
 10
-16.0066495439
 20
18.0179108862
 10
-16.0097076074
 20
18.0301592419
 10
-16.0132218206
 20
18.0424192301
 10
-16.0171825422
 20
18.054657222
 10
-16.0215789089
 20
18.0668396585
 10
-16.0263988641
 20
18.0789331375
 10
-16.0316291872
 20
18.0909044948
 10
-16.037255541
 20
18.1027209193
 10
-16.0432624896
 20
18.1143499972
 10
-16.0496335344
 20
18.1257597994
 10
-16.0563511712
 20
18.1369189988
 10
-16.0633970006
 20
18.1477970507
 10
-16.0707517632
 20
18.1583642242
 10
-16.0783953956
 20
18.168591672
 10
-16.0863068486
 20
18.1784512098
 10
-16.0944641828
 20
18.1879155216
 10
-16.1028448491
 20
18.196958521
 10
-16.1114260088
 20
18.2055556378
 10
-16.1201843684
 20
18.2136835612
 10
-16.1290978785
 20
18.2213216204
 10
-16.1381401989
 20
18.2284470393
 10
-16.1472807677
 20
18.2350363111
 10
-16.1564924406
 20
18.2410711979
 10
-16.1657518043
 20
18.2465376786
 10
-16.175033493
 20
18.2514218996
  0
LINE
  5
27F
100
AcDbEntity
  8
RACCORDO
100
AcDbLine
 62
7
  6
CONTINUOUS
 10
-16.5265269611
 20
16.0809428798
 11
-16.5265269611
 21
17.6830935408
  0
LINE
  5
280
100
AcDbEntity
  8
RACCORDO
100
AcDbLine
 62
253
  6
CONTINUOUS
 10
-15.9982597893
 20
17.9465323608
 11
-15.9982597893
 21
17.5990008441
  0
LINE
  5
281
100
AcDbEntity
  8
RACCORDO
100
AcDbLine
 62
7
  6
CONTINUOUS
 10
-15.9260619323
 20
18.034404993
 11
-15.9260619323
 21
17.6868734763
  0
LWPOLYLINE
  5
282
100
AcDbEntity
  8
RACCORDO
100
AcDbPolyline
 62
253
  6
CONTINUOUS
 90
16
 70
0
 10
-15.9260619323
 20
18.034404993
 10
-15.9263632029
 20
18.0282701641
 10
-15.9273429215
 20
18.021767216
 10
-15.9289996105
 20
18.0152986517
 10
-15.931328762
 20
18.008882085
 10
-15.9343240422
 20
18.0025349739
 10
-15.9379773011
 20
17.9962745971
 10
-15.9422785992
 20
17.9901179939
 10
-15.9472162317
 20
17.9840819235
 10
-15.952776757
 20
17.978182821
 10
-15.9589450461
 20
17.9724367396
 10
-15.9657043074
 20
17.9668593239
 10
-15.9730361213
 20
17.9614657717
 10
-15.9809205194
 20
17.9562707672
 10
-15.9893360452
 20
17.9512884437
 10
-15.9982597893
 20
17.9465323608
  0
LINE
  5
283
100
AcDbEntity
  8
RACCORDO
100
AcDbLine
 62
253
  6
CONTINUOUS
 10
-15.9260619323
 20
17.6868734763
 11
-15.9261084189
 21
17.6820525704
  0
LWPOLYLINE
  5
284
100
AcDbEntity
  8
RACCORDO
100
AcDbPolyline
 62
7
  6
CONTINUOUS
 90
5
 70
0
 10
-14.2972815176
 20
15.6082109738
 10
-14.2993180609
 20
15.5990895759
 10
-14.3008324197
 20
15.5892559783
 10
-14.3017888035
 20
15.5787978184
 10
-14.3021207897
 20
15.5672520001
  0
LWPOLYLINE
  5
285
100
AcDbEntity
  8
DRAFT
100
AcDbPolyline
 62
7
  6
CONTINUOUS
 90
4
 70
0
 10
-19.5959701087
 20
-2.0214369927
 10
-19.5604503737
 20
-1.9660245522
 10
-19.48657034
 20
-1.8587052686
 10
-19.4177742589
 20
-1.7656359774
  0
LWPOLYLINE
  5
286
100
AcDbEntity
  8
RACCORDO
100
AcDbPolyline
 62
253
  6
CONTINUOUS
 90
17
 70
0
 10
-22.3524172437
 20
-3.2963885582
 10
-22.349147182
 20
-3.2913275395
 10
-22.2737586446
 20
-3.1826273974
 10
-22.1955439885
 20
-3.0775267144
 10
-22.1145466821
 20
-2.9760840483
 10
-22.0308175959
 20
-2.8783577081
 10
-21.944402451
 20
-2.7844020297
 10
-21.8553503356
 20
-2.6942711522
 10
-21.7637192523
 20
-2.6080201133
 10
-21.669559393
 20
-2.5256968398
 10
-21.5729242739
 20
-2.4473487003
 10
-21.4738792787
 20
-2.3730261231
 10
-21.3724815403
 20
-2.3027717061
 10
-21.2687864974
 20
-2.2366235582
 10
-21.162859117
 20
-2.1746216801
 10
-21.0547603879
 20
-2.116801629
 10
-20.9682099383
 20
-2.0742639195
  0
LINE
  5
287
100
AcDbEntity
  8
RACCORDO
100
AcDbLine
 62
7
  6
CONTINUOUS
 10
-9.4133186205
 20
14.4388426676
 11
-8.5734436976
 21
15.2785384048
  0
LINE
  5
288
100
AcDbEntity
  8
ASSI
100
AcDbLine
 62
7
  6
CONTINUOUS
 10
-9.4133186205
 20
14.4388426676
 11
-8.5734436976
 21
15.2785384048
  0
LINE
  5
289
100
AcDbEntity
  8
0
100
AcDbLine
 62
253
  6
CONTINUOUS
 10
-9.3601175858
 20
14.4122421502
 11
-8.4750156162
 21
15.2812417646
  0
LINE
  5
28A
100
AcDbEntity
  8
ASSI
100
AcDbLine
 62
253
  6
CONTINUOUS
 10
-9.3601175858
 20
14.4122421502
 11
-8.4750156162
 21
15.2812417646
  0
LWPOLYLINE
  5
28B
100
AcDbEntity
  8
RACCORDO
100
AcDbPolyline
 62
7
  6
CONTINUOUS
 90
3
 70
0
 10
-8.5734620843
 20
15.2785279431
 10
-8.5684402856
 20
15.282966244
 10
-8.5607618575
 20
15.2879795151
  0
LWPOLYLINE
  5
28C
100
AcDbEntity
  8
ASSI
100
AcDbPolyline
 62
7
  6
CONTINUOUS
 90
3
 70
0
 10
-8.5734620843
 20
15.2785279431
 10
-8.5684402856
 20
15.282966244
 10
-8.5607618575
 20
15.2879795151
  0
LINE
  5
28D
100
AcDbEntity
  8
RACCORDO
100
AcDbLine
 62
7
  6
CONTINUOUS
 10
-7.9393053283
 20
12.6416235093
 11
-7.5816261791
 21
12.8209280541
  0
LINE
  5
28E
100
AcDbEntity
  8
DRAFT
100
AcDbLine
 62
7
  6
CONTINUOUS
 10
13.5255112393
 20
25.5286832504
 11
12.8184044582
 21
25.1751298598
  0
LINE
  5
28F
100
AcDbEntity
  8
ASSI
100
AcDbLine
 62
7
  6
CONTINUOUS
 10
13.5255112393
 20
25.5286832504
 11
12.8184044582
 21
25.1751298598
  0
LINE
  5
290
100
AcDbEntity
  8
ASSI
100
AcDbLine
 62
7
  6
CONTINUOUS
 10
-7.5816261791
 20
12.8209280541
 11
-2.3030681481
 21
15.4532648215
  0
LINE
  5
291
100
AcDbEntity
  8
ASSI
100
AcDbLine
 62
7
  6
CONTINUOUS
 10
-2.9085747893
 20
15.7560181421
 11
-7.510915501
 21
13.4876411078
  0
LINE
  5
292
100
AcDbEntity
  8
RACCORDO
100
AcDbLine
 62
7
  6
CONTINUOUS
 10
-1.4943372684
 20
15.5664435933
 11
-2.133198045
 21
15.2538414682
  0
LINE
  5
293
100
AcDbEntity
  8
RACCORDO
100
AcDbLine
 62
7
  6
CONTINUOUS
 10
12.8192311923
 20
25.1709376482
 11
-4.6043430812
 21
16.6855899676
  0
LINE
  5
294
100
AcDbEntity
  8
ASSI
100
AcDbLine
 62
7
  6
CONTINUOUS
 10
12.8192311923
 20
25.1709376482
 11
-4.6043430812
 21
16.6855899676
  0
LINE
  5
295
100
AcDbEntity
  8
RACCORDO
100
AcDbLine
 62
7
  6
CONTINUOUS
 10
14.1039764683
 20
25.5163068048
 11
-4.3912389307
 21
16.5790378924
  0
LINE
  5
296
100
AcDbEntity
  8
ASSI
100
AcDbLine
 62
7
  6
CONTINUOUS
 10
14.1039764683
 20
25.5163068048
 11
-4.3912389307
 21
16.5790378924
  0
LINE
  5
297
100
AcDbEntity
  8
RACCORDO
100
AcDbLine
 62
7
  6
CONTINUOUS
 10
16.1537079556
 20
24.4914410612
 11
-2.4747520577
 21
15.6603173953
  0
LINE
  5
298
100
AcDbEntity
  8
ASSI
100
AcDbLine
 62
7
  6
CONTINUOUS
 10
16.1537079556
 20
24.4914410612
 11
-2.4747520577
 21
15.6603173953
  0
LWPOLYLINE
  5
299
100
AcDbEntity
  8
RACCORDO
100
AcDbPolyline
 62
7
  6
CONTINUOUS
 90
18
 70
0
 10
-1.4943372684
 20
15.5664435933
 10
-1.4659627477
 20
15.5796255501
 10
-1.4377282957
 20
15.5913599419
 10
-1.4096339125
 20
15.6016467686
 10
-1.3816295994
 20
15.6104989032
 10
-1.3537653551
 20
15.6179034727
 10
-1.3261911755
 20
15.6238218583
 10
-1.2989220468
 20
15.6282452796
 10
-1.2719429828
 20
15.631182517
 10
-1.2453590202
 20
15.6326212929
 10
-1.2191540613
 20
15.6325541563
 10
-1.1933442039
 20
15.6309885584
 10
-1.1680827776
 20
15.6279345749
 10
-1.1433930243
 20
15.6233887906
 10
-1.1192517022
 20
15.6173546207
 10
-1.0957424159
 20
15.6098523879
 10
-1.0728466357
 20
15.6008669733
 10
-1.0532986512
 20
15.5917842865
  0
LWPOLYLINE
  5
29A
100
AcDbEntity
  8
ASSI
100
AcDbPolyline
 62
7
  6
CONTINUOUS
 90
7
 70
0
 10
-2.8637885131
 20
15.774258256
 10
-2.8712015746
 20
15.7717291624
 10
-2.8786351632
 20
15.7689956987
 10
-2.886089279
 20
15.7660578648
 10
-2.8935639219
 20
15.7629156607
 10
-2.901059092
 20
15.7595690865
 10
-2.9085747893
 20
15.7560181421
  0
LWPOLYLINE
  5
29B
100
AcDbEntity
  8
RACCORDO
100
AcDbPolyline
 62
7
  6
CONTINUOUS
 90
5
 70
0
 10
-8.2346702606
 20
15.4637489942
 10
-8.2180326788
 20
15.469211319
 10
-8.2014457812
 20
15.4709341103
 10
-8.1839353606
 20
15.4694552834
 10
-8.1657958566
 20
15.4648026992
  0
LWPOLYLINE
  5
29C
100
AcDbEntity
  8
ASSI
100
AcDbPolyline
 62
7
  6
CONTINUOUS
 90
5
 70
0
 10
-8.2346702606
 20
15.4637489942
 10
-8.2180326788
 20
15.469211319
 10
-8.2014457812
 20
15.4709341103
 10
-8.1839353606
 20
15.4694552834
 10
-8.1657958566
 20
15.4648026992
  0
LWPOLYLINE
  5
29D
100
AcDbEntity
  8
RACCORDO
100
AcDbPolyline
 62
253
  6
CONTINUOUS
 90
3
 70
0
 10
-8.2211009053
 20
15.4700157721
 10
-8.2045615539
 20
15.4754331146
 10
-8.1881221812
 20
15.4770882882
  0
LWPOLYLINE
  5
29E
100
AcDbEntity
  8
ASSI
100
AcDbPolyline
 62
253
  6
CONTINUOUS
 90
3
 70
0
 10
-8.2211009053
 20
15.4700157721
 10
-8.2045615539
 20
15.4754331146
 10
-8.1881221812
 20
15.4770882882
  0
LWPOLYLINE
  5
29F
100
AcDbEntity
  8
ASSI
100
AcDbPolyline
 62
7
  6
CONTINUOUS
 90
16
 70
0
 10
-2.8637885131
 20
15.774258256
 10
-2.851628696
 20
15.7778226596
 10
-2.8388980758
 20
15.7806189333
 10
-2.8256043482
 20
15.7826311202
 10
-2.8117512728
 20
15.7838560997
 10
-2.7973554393
 20
15.7842644681
 10
-2.7824479507
 20
15.7838017619
 10
-2.7670489861
 20
15.7824474062
 10
-2.751172971
 20
15.7801920111
 10
-2.7348469605
 20
15.7769995675
 10
-2.7181298456
 20
15.772866538
 10
-2.7010098801
 20
15.767770039
 10
-2.6834063425
 20
15.7616392648
 10
-2.6653281724
 20
15.7544535754
 10
-2.6468158297
 20
15.7461930498
 10
-2.6357305459
 20
15.7408104868
  0
LINE
  5
2A0
100
AcDbEntity
  8
DRAFT
100
AcDbLine
 62
7
  6
CONTINUOUS
 10
-13.8268298807
 20
-16.7767943705
 11
-13.9418107042
 21
-16.782101416
  0
LWPOLYLINE
  5
2A1
100
AcDbEntity
  8
DRAFT
100
AcDbPolyline
 62
7
  6
CONTINUOUS
 90
5
 70
0
 10
-12.6688431471
 20
-15.8954945833
 10
-12.6670964839
 20
-15.8956541104
 10
-12.5360258643
 20
-15.9033374587
 10
-12.4061943178
 20
-15.9066199784
 10
-12.3778598893
 20
-15.9063752231
  0
LINE
  5
2A2
100
AcDbEntity
  8
0
100
AcDbLine
 62
253
  6
CONTINUOUS
 10
-13.2530587513
 20
-16.4108387891
 11
-13.2414779068
 21
-16.4640475291
  0
LWPOLYLINE
  5
2A3
100
AcDbEntity
  8
RACCORDO
100
AcDbPolyline
 62
7
  6
CONTINUOUS
 90
27
 70
0
 10
-14.3021207897
 20
15.5672520001
 10
-14.3018445533
 20
15.556360179
 10
-14.3010533693
 20
15.544500329
 10
-14.2997415989
 20
15.5322875124
 10
-14.297888841
 20
15.5197817074
 10
-14.2955660113
 20
15.5070047596
 10
-14.2927714751
 20
15.4939998033
 10
-14.289493777
 20
15.4808128247
 10
-14.2857860273
 20
15.4674553121
 10
-14.2816480122
 20
15.4539597485
 10
-14.2770738084
 20
15.4403622976
 10
-14.2721043162
 20
15.4266711097
 10
-14.2667398482
 20
15.4129119386
 10
-14.2609778036
 20
15.3991139343
 10
-14.2548512495
 20
15.3852851542
 10
-14.2483607044
 20
15.3714468343
 10
-14.2415056587
 20
15.3576233002
 10
-14.2343146471
 20
15.3438243402
 10
-14.2267883489
 20
15.3300680539
 10
-14.2189277094
 20
15.3163754266
 10
-14.21075927
 20
15.3027590619
 10
-14.2022837418
 20
15.2892344044
 10
-14.1935034706
 20
15.275820425
 10
-14.1844457857
 20
15.262534274
 10
-14.1751209439
 20
15.2493920321
 10
-14.1655233466
 20
15.2364083819
 10
-14.1556563473
 20
15.2235976343
  0
LINE
  5
2A4
100
AcDbEntity
  8
RACCORDO
100
AcDbLine
 62
7
  6
CONTINUOUS
 10
-14.3021029567
 20
15.5672546034
 11
-14.3021029567
 21
14.3264377132
  0
LINE
  5
2A5
100
AcDbEntity
  8
RACCORDO
100
AcDbLine
 62
253
  6
CONTINUOUS
 10
-14.1556563473
 20
15.2235976343
 11
-14.1556563473
 21
14.1430143235
  0
LINE
  5
2A6
100
AcDbEntity
  8
RACCORDO
100
AcDbLine
 62
7
  6
CONTINUOUS
 10
-7.5816261791
 20
11.6084924888
 11
-7.9393053283
 21
11.408896537
  0
LWPOLYLINE
  5
2A7
100
AcDbEntity
  8
RACCORDO
100
AcDbPolyline
 62
7
  6
CONTINUOUS
 90
22
 70
0
 10
-6.3783391849
 20
11.1720394626
 10
-6.3881459172
 20
11.1667285299
 10
-6.3991575418
 20
11.1600618795
 10
-6.4098212054
 20
11.1528302562
 10
-6.4201079036
 20
11.1450510391
 10
-6.4299965901
 20
11.1367367482
 10
-6.4394597824
 20
11.127905767
 10
-6.4484680436
 20
11.1185806749
 10
-6.4569974009
 20
11.1087809058
 10
-6.4650222258
 20
11.0985295988
 10
-6.4725167391
 20
11.0878530125
 10
-6.4794578356
 20
11.076776903
 10
-6.4858228523
 20
11.0653295385
 10
-6.4915905922
 20
11.0535404653
 10
-6.4967418918
 20
11.0414391505
 10
-6.5012590327
 20
11.0290556932
 10
-6.505124473
 20
11.0164250944
 10
-6.5083222624
 20
11.0035860187
 10
-6.5108398502
 20
10.9905743723
 10
-6.5126668012
 20
10.9774258993
 10
-6.5137943272
 20
10.9641805518
 10
-6.5142195317
 20
10.9496055303
  0
LINE
  5
2A8
100
AcDbEntity
  8
RACCORDO
100
AcDbLine
 62
7
  6
CONTINUOUS
 10
-4.7951599718
 20
11.9842403671
 11
-6.3783336371
 21
11.1720423089
  0
LINE
  5
2A9
100
AcDbEntity
  8
RACCORDO
100
AcDbLine
 62
253
  6
CONTINUOUS
 10
-4.6824913678
 20
11.9775784311
 11
-6.265247971
 21
11.1655943338
  0
LINE
  5
2AA
100
AcDbEntity
  8
RACCORDO
100
AcDbLine
 62
253
  6
CONTINUOUS
 10
-3.3389825003
 20
11.3058239974
 11
-4.9402632912
 21
10.5031019939
  0
LINE
  5
2AB
100
AcDbEntity
  8
DRAFT
100
AcDbLine
 62
7
  6
CONTINUOUS
 10
17.0610451453
 20
23.7609162975
 11
16.3539383641
 21
23.4073629069
  0
LINE
  5
2AC
100
AcDbEntity
  8
ASSI
100
AcDbLine
 62
7
  6
CONTINUOUS
 10
17.0610451453
 20
23.7609162975
 11
16.3539383641
 21
23.4073629069
  0
LINE
  5
2AD
100
AcDbEntity
  8
RACCORDO
100
AcDbLine
 62
7
  6
CONTINUOUS
 10
-4.7934235588
 20
11.985108588
 11
-4.7951599698
 21
11.9842403681
  0
LINE
  5
2AE
100
AcDbEntity
  8
RACCORDO
100
AcDbLine
 62
253
  6
CONTINUOUS
 10
-2.8107153286
 20
11.5692628174
 11
-3.3389825003
 21
11.3058239974
  0
LINE
  5
2AF
100
AcDbEntity
  8
DRAFT
100
AcDbLine
 62
7
  6
CONTINUOUS
 10
-7.5816261791
 20
11.6084924888
 11
-2.2567921089
 21
14.2448239207
  0
LINE
  5
2B0
100
AcDbEntity
  8
RACCORDO
100
AcDbLine
 62
7
  6
CONTINUOUS
 10
-4.2585536003
 20
12.2456606888
 11
-4.793423558
 21
11.9851085884
  0
LINE
  5
2B1
100
AcDbEntity
  8
RACCORDO
100
AcDbLine
 62
253
  6
CONTINUOUS
 10
-4.1480414892
 20
12.2379258977
 11
-4.6824913678
 21
11.9775784311
  0
LINE
  5
2B2
100
AcDbEntity
  8
RACCORDO
100
AcDbLine
 62
7
  6
CONTINUOUS
 10
16.3547650982
 20
23.4031706952
 11
-0.3781051795
 21
15.254198517
  0
LINE
  5
2B3
100
AcDbEntity
  8
ASSI
100
AcDbLine
 62
7
  6
CONTINUOUS
 10
16.3547650982
 20
23.4031706952
 11
-0.3781051795
 21
15.254198517
  0
LINE
  5
2B4
100
AcDbEntity
  8
RACCORDO
100
AcDbLine
 62
7
  6
CONTINUOUS
 10
17.6395103743
 20
23.7485398518
 11
-0.1623433248
 21
15.1463175897
  0
LINE
  5
2B5
100
AcDbEntity
  8
ASSI
100
AcDbLine
 62
7
  6
CONTINUOUS
 10
17.6395103743
 20
23.7485398518
 11
-0.1623433248
 21
15.1463175897
  0
LINE
  5
2B6
100
AcDbEntity
  8
RACCORDO
100
AcDbLine
 62
7
  6
CONTINUOUS
 10
1.5726286755
 20
14.0329606214
 11
-3.1109082041
 21
11.7813366261
  0
LINE
  5
2B7
100
AcDbEntity
  8
RACCORDO
100
AcDbLine
 62
7
  6
CONTINUOUS
 10
19.6892418615
 20
22.7236741082
 11
1.7200846206
 21
14.205103617
  0
LINE
  5
2B8
100
AcDbEntity
  8
ASSI
100
AcDbLine
 62
7
  6
CONTINUOUS
 10
19.6892418615
 20
22.7236741082
 11
1.7200846206
 21
14.205103617
  0
LWPOLYLINE
  5
2B9
100
AcDbEntity
  8
RACCORDO
100
AcDbPolyline
 62
7
  6
CONTINUOUS
 90
18
 70
0
 10
-4.2585536003
 20
12.2456606888
 10
-4.2463326405
 20
12.251213055
 10
-4.2337035168
 20
12.256147495
 10
-4.2207047176
 20
12.260426124
 10
-4.2073594672
 20
12.2640186979
 10
-4.1937337379
 20
12.2668869251
 10
-4.179934779
 20
12.268996397
 10
-4.166035797
 20
12.2703326451
 10
-4.1520663757
 20
12.2708910327
 10
-4.1380655241
 20
12.2706666798
 10
-4.1240920599
 20
12.2696580735
 10
-4.1101863046
 20
12.267866606
 10
-4.0963528647
 20
12.2652876137
 10
-4.0825848033
 20
12.2619063515
 10
-4.0689837543
 20
12.257734253
 10
-4.0556979238
 20
12.252817742
 10
-4.0427637684
 20
12.2471809517
 10
-4.0372605247
 20
12.2445127861
  0
LINE
  5
2BA
100
AcDbEntity
  8
RACCORDO
100
AcDbLine
 62
7
  6
CONTINUOUS
 10
-8.5029726311
 20
12.509345845
 11
-8.590556212
 21
12.4833706396
  0
LWPOLYLINE
  5
2BB
100
AcDbEntity
  8
RACCORDO
100
AcDbPolyline
 62
7
  6
CONTINUOUS
 90
4
 70
0
 10
-8.590556212
 20
12.4833706396
 10
-8.6237505513
 20
12.4737068358
 10
-8.6341999837
 20
12.4707467004
 10
-8.6443492477
 20
12.4679440845
  0
LINE
  5
2BC
100
AcDbEntity
  8
RACCORDO
100
AcDbLine
 62
7
  6
CONTINUOUS
 10
-15.0406759745
 20
-17.2117083016
 11
-15.0719768481
 21
-17.2201620238
  0
LINE
  5
2BD
100
AcDbEntity
  8
0
100
AcDbLine
 62
7
  6
CONTINUOUS
 10
7.6918802945
 20
-18.1677733305
 11
8.1161443633
 21
-18.3799053649
  0
LWPOLYLINE
  5
2BE
100
AcDbEntity
  8
0
100
AcDbPolyline
 62
7
  6
CONTINUOUS
 90
3
 70
0
 10
-16.0138898165
 20
-3.3059187982
 10
-16.5965778491
 20
-2.9015446479
 10
-17.1982784032
 20
-2.5593296005
  0
LINE
  5
2BF
100
AcDbEntity
  8
RACCORDO
100
AcDbLine
 62
253
  6
CONTINUOUS
 10
-16.0999486044
 20
-3.0761984681
 11
-15.9622233873
 21
-3.1844606474
  0
LINE
  5
2C0
100
AcDbEntity
  8
RACCORDO
100
AcDbLine
 62
7
  6
CONTINUOUS
 10
-15.972489113
 20
-3.213816679
 11
-15.8381281748
 21
-3.3230590757
  0
LWPOLYLINE
  5
2C1
100
AcDbEntity
  8
RACCORDO
100
AcDbPolyline
 62
253
  6
CONTINUOUS
 90
111
 70
0
 10
-15.9622233873
 20
-3.1844606474
 10
-15.8252408619
 20
-3.2964526107
 10
-15.6893045969
 20
-3.4119215304
 10
-15.5544453006
 20
-3.5308505179
 10
-15.4206300804
 20
-3.6532554115
 10
-15.2880670245
 20
-3.778932436
 10
-15.1567663577
 20
-3.907873363
 10
-15.0267152145
 20
-4.040085149
 10
-14.8980869864
 20
-4.1753867662
 10
-14.7708676376
 20
-4.313795342
 10
-14.645068136
 20
-4.4552922684
 10
-14.5208993484
 20
-4.5996428984
 10
-14.3983555156
 20
-4.7468606632
 10
-14.2774389737
 20
-4.8969304758
 10
-14.1583727574
 20
-5.0495749226
 10
-14.0411638128
 20
-5.2047920536
 10
-13.9258015062
 20
-5.3625820302
 10
-13.8124825777
 20
-5.5226706407
 10
-13.7012116658
 20
-5.6850562113
 10
-13.5919802471
 20
-5.8497385256
 10
-13.4849654332
 20
-6.0164456122
 10
-13.3801672543
 20
-6.1851820285
 10
-13.277581664
 20
-6.355941256
 10
-13.1773798203
 20
-6.5284347852
 10
-13.079562384
 20
-6.7026673211
 10
-12.9841246329
 20
-6.8786321675
 10
-12.8912298685
 20
-7.0560238177
 10
-12.8008815306
 20
-7.2348421581
 10
-12.7130721662
 20
-7.4150853256
 10
-12.6279490099
 20
-7.5964453193
 10
-12.5455154577
 20
-7.7789212868
 10
-12.4657642251
 20
-7.9625121556
 10
-12.3888268431
 20
-8.1469097461
 10
-12.3147056623
 20
-8.3321156781
 10
-12.2433946387
 20
-8.5181264931
 10
-12.1750130745
 20
-8.7046265701
 10
-12.109563592
 20
-8.8916184403
 10
-12.0470401498
 20
-9.0790978589
 10
-11.9875494704
 20
-9.2667392428
 10
-11.9310957996
 20
-9.4545415848
 10
-11.8776718297
 20
-9.6425043453
 10
-11.8273674157
 20
-9.8303028675
 10
-11.7801871472
 20
-10.017934967
 10
-11.7361237909
 20
-10.2054014797
 10
-11.6952499632
 20
-10.3923825217
 10
-11.6575704713
 20
-10.5788738951
 10
-11.6230783319
 20
-10.7648786732
 10
-11.5918289916
 20
-10.9500881329
 10
-11.5638270211
 20
-11.1344944961
 10
-11.5390661714
 20
-11.3181046571
 10
-11.5175861749
 20
-11.5006321552
 10
-11.4993901846
 20
-11.6820795372
 10
-11.4844738565
 20
-11.8624436103
 10
-11.4728662031
 20
-12.041429565
 10
-11.4645725566
 20
-12.2190518128
 10
-11.4595869231
 20
-12.3952955569
 10
-11.457921924
 20
-12.5698224735
 10
-11.4595861736
 20
-12.7426284065
 10
-11.4645710568
 20
-12.9137174558
 10
-11.4728640033
 20
-13.0827640078
 10
-11.484471038
 20
-13.249747891
 10
-11.4993867976
 20
-13.4146895532
 10
-11.5175822287
 20
-13.5773246106
 10
-11.5390616669
 20
-13.7376465869
 10
-11.5638219682
 20
-13.8956625036
 10
-11.5918233857
 20
-14.0511284893
 10
-11.6230721629
 20
-14.2040468597
 10
-11.6575637348
 20
-14.3544160936
 10
-11.6952426569
 20
-14.5019868246
 10
-11.7361159198
 20
-14.6467573545
 10
-11.7801787091
 20
-14.7887304331
 10
-11.8273583897
 20
-14.927663628
 10
-11.8776621827
 20
-15.0635531822
 10
-11.9310855108
 20
-15.1964041479
 10
-11.9875385373
 20
-15.3259875601
 10
-12.0470285628
 20
-15.4522986842
 10
-12.1095513485
 20
-15.5753437699
 10
-12.1750002102
 20
-15.6949105659
 10
-12.2433812074
 20
-15.8109923345
 10
-12.3146916996
 20
-15.9235975191
 10
-12.3888123693
 20
-16.0325368545
 10
-12.4657492656
 20
-16.1378046245
 10
-12.5455000326
 20
-16.2394084001
 10
-12.6279331087
 20
-16.3371790344
 10
-12.7130557621
 20
-16.4311121183
 10
-12.8008646133
 20
-16.5212140247
 10
-12.8912124459
 20
-16.6073319451
 10
-12.9841067144
 20
-16.6894606879
 10
-13.0795439775
 20
-16.7676074815
 10
-13.1773609479
 20
-16.8416382889
 10
-13.2775623671
 20
-16.9115459474
 10
-13.3801475548
 20
-16.9773396898
 10
-13.4849453088
 20
-17.0389101867
 10
-13.5919596578
 20
-17.0962510659
 10
-13.7011905892
 20
-17.1493707547
 10
-13.8124609998
 20
-17.1981822084
 10
-13.9257793706
 20
-17.2426806839
 10
-14.0411411054
 20
-17.2828729188
 10
-14.1583495994
 20
-17.3186891497
 10
-14.2774155319
 20
-17.3501227585
 10
-14.3983319112
 20
-17.3771822622
 10
-14.5208757008
 20
-17.3998206403
 10
-14.6450446808
 20
-17.4180289236
 10
-14.7708444943
 20
-17.4318178487
 10
-14.8980639244
 20
-17.4411699676
 10
-15.0266919284
 20
-17.4460810391
 10
-15.1567426171
 20
-17.4465568921
 10
-15.2880424741
 20
-17.4425951692
 10
-15.4206041103
 20
-17.4341926857
 10
-15.5544175555
 20
-17.4213539953
 10
-15.5745345379
 20
-17.4187784429
  0
LINE
  5
2C2
100
AcDbEntity
  8
0
100
AcDbLine
 62
7
  6
CONTINUOUS
 10
-15.4502143054
 20
-3.7724520513
 11
-16.0138898165
 21
-3.3059187982
  0
LINE
  5
2C3
100
AcDbEntity
  8
RACCORDO
100
AcDbLine
 62
253
  6
CONTINUOUS
 10
4.9225116621
 20
-19.0977814085
 11
5.7145484722
 21
-19.7537220576
  0
LINE
  5
2C4
100
AcDbEntity
  8
ASSI
100
AcDbLine
 62
253
  6
CONTINUOUS
 10
4.9225116621
 20
-19.0977814085
 11
5.7145484722
 21
-19.7537220576
  0
LWPOLYLINE
  5
2C5
100
AcDbEntity
  8
RACCORDO
100
AcDbPolyline
 62
7
  6
CONTINUOUS
 90
94
 70
0
 10
-15.8381281748
 20
-3.3230590757
 10
-15.7046154116
 20
-3.4358294351
 10
-15.5720267572
 20
-3.5520659106
 10
-15.4404370186
 20
-3.671702615
 10
-15.3099222173
 20
-3.7946706859
 10
-15.1805566747
 20
-3.920901675
 10
-15.0524127089
 20
-4.0503239205
 10
-14.9255629242
 20
-4.1828634793
 10
-14.8000789791
 20
-4.3184463583
 10
-14.6760308504
 20
-4.4569951763
 10
-14.5534882349
 20
-4.5984307061
 10
-14.4325201233
 20
-4.7426735637
 10
-14.3131935988
 20
-4.8896413327
 10
-14.1955751103
 20
-5.0392500295
 10
-14.0797306315
 20
-5.1914153709
 10
-13.9657240781
 20
-5.3460503662
 10
-13.8536184153
 20
-5.5030667446
 10
-13.7434763026
 20
-5.6623758162
 10
-13.6353582349
 20
-5.8238864795
 10
-13.529323508
 20
-5.9875065945
 10
-13.4254311737
 20
-6.1531435915
 10
-13.3237380864
 20
-6.320702696
 10
-13.2242997717
 20
-6.4900881748
 10
-13.1271713212
 20
-6.6612042497
 10
-13.0324058098
 20
-6.833952781
 10
-12.9400551558
 20
-7.0082341536
 10
-12.8501704747
 20
-7.1839494019
 10
-12.7628005256
 20
-7.3609979696
 10
-12.6779929755
 20
-7.5392774853
 10
-12.5957946415
 20
-7.7186864542
 10
-12.5162498267
 20
-7.8991223121
 10
-12.4394015948
 20
-8.0804807306
 10
-12.3652921442
 20
-8.2626584829
 10
-12.2939612415
 20
-8.4455512995
 10
-12.2254473316
 20
-8.6290529701
 10
-12.159787787
 20
-8.8130591075
 10
-12.0970176279
 20
-8.9974642708
 10
-12.0371705995
 20
-9.1821604082
 10
-11.9802791666
 20
-9.3670421099
 10
-11.9263732306
 20
-9.5520037652
 10
-11.8754813163
 20
-9.7369368556
 10
-11.8276307399
 20
-9.9217356977
 10
-11.7828461926
 20
-10.1062949507
 10
-11.7411507244
 20
-10.2905065773
 10
-11.7025663943
 20
-10.4742650113
 10
-11.6671125228
 20
-10.657465982
 10
-11.6348064108
 20
-10.8400035083
 10
-11.605664661
 20
-11.0217733809
 10
-11.5797013256
 20
-11.2026723118
 10
-11.5569281337
 20
-11.3825959724
 10
-11.5373562365
 20
-11.5614414136
 10
-11.5209942145
 20
-11.7391075766
 10
-11.5078480881
 20
-11.9154934008
 10
-11.4979236801
 20
-12.0904939801
 10
-11.491223818
 20
-12.2640148358
 10
-11.4877488023
 20
-12.4359708137
 10
-11.4874994243
 20
-12.6062642299
 10
-11.4904741874
 20
-12.7747981176
 10
-11.4966692126
 20
-12.9414884633
 10
-11.5060804464
 20
-13.1062414083
 10
-11.5187015115
 20
-13.2689617557
 10
-11.5345237553
 20
-13.4295638623
 10
-11.5535378009
 20
-13.5879558663
 10
-11.5757321737
 20
-13.7440474173
 10
-11.6010932966
 20
-13.897755905
 10
-11.6296061291
 20
-14.0489913594
 10
-11.6612543347
 20
-14.1976694346
 10
-11.6960207556
 20
-14.3437167512
 10
-11.7338844596
 20
-14.4870444268
 10
-11.7748251574
 20
-14.6275754437
 10
-11.8188261537
 20
-14.765254185
 10
-11.8658636001
 20
-14.8999993645
 10
-11.9159125671
 20
-15.0317336459
 10
-11.9689552357
 20
-15.1604064835
 10
-12.0249643372
 20
-15.2859411089
 10
-12.0839112168
 20
-15.4082633379
 10
-12.1457766609
 20
-15.5273256241
 10
-12.2105329386
 20
-15.6430604377
 10
-12.2781454114
 20
-15.7553923069
 10
-12.3485842537
 20
-15.8642624271
 10
-12.4218185483
 20
-15.9696094449
 10
-12.4978087343
 20
-16.0713633046
 10
-12.5765098036
 20
-16.1694561249
 10
-12.6578816133
 20
-16.2638284153
 10
-12.7418841381
 20
-16.3544245091
 10
-12.8284698949
 20
-16.4411878925
 10
-12.9175947061
 20
-16.5240668507
 10
-13.0092150214
 20
-16.6030135786
 10
-13.1032826177
 20
-16.6779823373
 10
-13.1997503703
 20
-16.7489289195
 10
-13.2985714658
 20
-16.8158124065
 10
-13.3996970563
 20
-16.87859578
 10
-13.5030773323
 20
-16.9372415085
 10
-13.5313118157
 20
-16.9523310252
  0
LWPOLYLINE
  5
2C6
100
AcDbEntity
  8
RACCORDO
100
AcDbPolyline
 62
253
  6
CONTINUOUS
 90
43
 70
0
 10
-9.0053648257
 20
-30.9470459223
 10
-9.0038603022
 20
-30.9770719285
 10
-9.0014670625
 20
-31.0065162809
 10
-8.9981851066
 20
-31.0353789796
 10
-8.9940081652
 20
-31.0636958557
 10
-8.9889425076
 20
-31.091431078
 10
-8.983006941
 20
-31.1184771535
 10
-8.9761982215
 20
-31.1448301677
 10
-8.9685195931
 20
-31.1704940351
 10
-8.9599995945
 20
-31.1953730053
 10
-8.950635166
 20
-31.2194638625
 10
-8.9404293673
 20
-31.2427698226
 10
-8.9294199174
 20
-31.2652047822
 10
-8.9176038393
 20
-31.2867655782
 10
-8.90498411
 20
-31.3074553738
 10
-8.8916073781
 20
-31.327197556
 10
-8.877470781
 20
-31.3459886726
 10
-8.8625771815
 20
-31.3638321758
 10
-8.846981817
 20
-31.3806618092
 10
-8.8306821282
 20
-31.3964737541
 10
-8.8136806746
 20
-31.4112718292
 10
-8.7960403711
 20
-31.4250012333
 10
-8.777758847
 20
-31.4376580171
 10
-8.7588384732
 20
-31.4492461301
 10
-8.7393492775
 20
-31.4597226187
 10
-8.7192890729
 20
-31.4690833795
 10
-8.6986600466
 20
-31.4773325159
 10
-8.6775387875
 20
-31.4844393857
 10
-8.6559235494
 20
-31.4903997129
 10
-8.6338160786
 20
-31.4952177733
 10
-8.6112982029
 20
-31.498875752
 10
-8.588368446
 20
-31.5013693709
 10
-8.5650282843
 20
-31.5027029081
 10
-8.5413639745
 20
-31.5028713824
 10
-8.5173740384
 20
-31.5018704177
 10
-8.4930599543
 20
-31.4997043902
 10
-8.4685124137
 20
-31.4963814478
 10
-8.4437298203
 20
-31.491896904
 10
-8.4187137704
 20
-31.4862554453
 10
-8.3935597444
 20
-31.4794792795
 10
-8.368299569
 20
-31.4715758092
 10
-8.3429014175
 20
-31.4625376317
 10
-8.3173652898
 20
-31.4523647472
  0
LWPOLYLINE
  5
2C7
100
AcDbEntity
  8
RACCORDO
100
AcDbPolyline
 62
253
  6
CONTINUOUS
 90
25
 70
0
 10
-9.6919366301
 20
-30.9613537402
 10
-9.6897212974
 20
-31.005883433
 10
-9.6861824968
 20
-31.0496431027
 10
-9.6813246424
 20
-31.092578696
 10
-9.675153748
 20
-31.1346366731
 10
-9.6676774933
 20
-31.1757656638
 10
-9.6589050359
 20
-31.2159163986
 10
-9.6488467371
 20
-31.2550400975
 10
-9.6375150562
 20
-31.2930874537
 10
-9.6249245878
 20
-31.3300102826
 10
-9.6110908543
 20
-31.3657626514
 10
-9.5960307083
 20
-31.400300848
 10
-9.5797630769
 20
-31.4335822507
 10
-9.5623077525
 20
-31.4655658759
 10
-9.5436861434
 20
-31.4962121844
 10
-9.5239217311
 20
-31.5254830896
 10
-9.5030385328
 20
-31.5533426136
 10
-9.4810621738
 20
-31.579756282
 10
-9.4580206089
 20
-31.6046909057
 10
-9.433942043
 20
-31.6281157533
 10
-9.4088558889
 20
-31.6500020769
 10
-9.3827938287
 20
-31.6703224913
 10
-9.3557876765
 20
-31.6890520538
 10
-9.3278704881
 20
-31.7061677516
 10
-9.2985148416
 20
-31.7219298816
  0
LWPOLYLINE
  5
2C8
100
AcDbEntity
  8
RACCORDO
100
AcDbPolyline
 62
253
  6
CONTINUOUS
 90
11
 70
0
 10
-9.9955641406
 20
-14.1485642008
 10
-9.9900428805
 20
-15.8423262568
 10
-9.9790004391
 20
-17.5333833063
 10
-9.9624369874
 20
-19.2217093896
 10
-9.9403527881
 20
-20.9072785935
 10
-9.9127481699
 20
-22.5900650492
 10
-9.8796235536
 20
-24.2700429314
 10
-9.8409794644
 20
-25.9471864567
 10
-9.7968164939
 20
-27.6214698873
 10
-9.7471352994
 20
-29.292867531
 10
-9.6919366301
 20
-30.9613537402
  0
LINE
  5
2C9
100
AcDbEntity
  8
DRAFT
100
AcDbLine
 62
253
  6
CONTINUOUS
 10
-8.8544183852
 20
15.9520221745
 11
-8.8544183852
 21
14.9976236626
  0
LINE
  5
2CA
100
AcDbEntity
  8
RACCORDO
100
AcDbLine
 62
253
  6
CONTINUOUS
 10
-8.6443492477
 20
11.3873607737
 11
-8.6443492477
 21
12.4679440845
  0
LWPOLYLINE
  5
2CB
100
AcDbEntity
  8
RACCORDO
100
AcDbPolyline
 62
253
  6
CONTINUOUS
 90
12
 70
0
 10
-9.6919366301
 20
4.6538861274
 10
-9.7471352994
 20
2.9320933966
 10
-9.7968164939
 20
1.2127175306
 10
-9.8409794644
 20
-0.5042150738
 10
-9.8796235536
 20
-2.2186780498
 10
-9.9127481699
 20
-3.9306450855
 10
-9.9403527881
 20
-5.6400899244
 10
-9.9624369874
 20
-7.346986329
 10
-9.9790004391
 20
-9.0513080934
 10
-9.9900428805
 20
-10.7530290676
 10
-9.9955641406
 20
-12.4521231297
 10
-9.9955641406
 20
-14.1485642008
  0
LWPOLYLINE
  5
2CC
100
AcDbEntity
  8
RACCORDO
100
AcDbPolyline
 62
253
  6
CONTINUOUS
 90
22
 70
0
 10
-9.0053648257
 20
4.6332910102
 10
-9.0605114287
 20
2.9131425174
 10
-9.1101445158
 20
1.1954610494
 10
-9.1542640869
 20
-0.5197533936
 10
-9.1928706508
 20
-2.2325270929
 10
-9.2259636987
 20
-3.9428337674
 10
-9.2535417042
 20
-5.6505945735
 10
-9.2756044122
 20
-7.3558093617
 10
-9.2921520778
 20
-9.0584782817
 10
-9.3031839392
 20
-10.7585229381
 10
-9.3086997427
 20
-12.4559432073
 10
-9.3086997421
 20
-14.1507392131
 10
-9.3031839374
 20
-15.8428329321
 10
-9.2921520746
 20
-17.532224243
 10
-9.2756044078
 20
-19.2189132672
 10
-9.2535416985
 20
-20.9028223451
 10
-9.2259636914
 20
-22.5839513939
 10
-9.1928706418
 20
-24.2623004966
 10
-9.1542640776
 20
-25.9377922419
 10
-9.1101445082
 20
-27.6104008261
 10
-9.0605114242
 20
-29.2801520529
 10
-9.0053648257
 20
-30.9470459223
  0
LINE
  5
2CD
100
AcDbEntity
  8
RACCORDO
100
AcDbLine
 62
253
  6
CONTINUOUS
 10
-3.1622087967
 20
10.2738896061
 11
-2.6339416249
 21
10.9168417619
  0
LINE
  5
2CE
100
AcDbEntity
  8
RACCORDO
100
AcDbLine
 62
7
  6
CONTINUOUS
 10
-3.1622087967
 20
10.1843591398
 11
-2.5627962924
 21
10.9139020348
  0
LWPOLYLINE
  5
2CF
100
AcDbEntity
  8
RACCORDO
100
AcDbPolyline
 62
7
  6
CONTINUOUS
 90
31
 70
0
 10
-4.0522689794
 20
9.7097349981
 10
-4.0601624418
 20
9.7005493347
 10
-4.0684098221
 20
9.691531543
 10
-4.0769994891
 20
9.6826907983
 10
-4.0859177922
 20
9.6740258338
 10
-4.0951520927
 20
9.6655556924
 10
-4.1046910725
 20
9.6573199315
 10
-4.1145191537
 20
9.6493267088
 10
-4.1246202589
 20
9.6415847213
 10
-4.1349813648
 20
9.6341344276
 10
-4.1455841136
 20
9.6269834583
 10
-4.1564097054
 20
9.6201397948
 10
-4.1674434429
 20
9.6136445532
 10
-4.1786641912
 20
9.6075046538
 10
-4.1900503215
 20
9.6017272334
 10
-4.2015852672
 20
9.5963538936
 10
-4.2132450979
 20
9.5913906717
 10
-4.2250052398
 20
9.5868436525
 10
-4.236846851
 20
9.5827546542
 10
-4.2487431853
 20
9.5791286565
 10
-4.260666626
 20
9.5759703743
 10
-4.2725955029
 20
9.5733212848
 10
-4.2845002641
 20
9.5711851197
 10
-4.296350242
 20
9.5695647703
 10
-4.3081203902
 20
9.5685003194
 10
-4.3197783891
 20
9.5679940185
 10
-4.3312907629
 20
9.5680463529
 10
-4.342628962
 20
9.5686943446
 10
-4.3537697545
 20
9.5699418269
 10
-4.3646649889
 20
9.571783474
 10
-4.3661373723
 20
9.5720837245
  0
LWPOLYLINE
  5
2D0
100
AcDbEntity
  8
RACCORDO
100
AcDbPolyline
 62
7
  6
CONTINUOUS
 90
5
 70
0
 10
-2.5627961281
 20
10.9139064129
 10
-2.5631446746
 20
10.9135172765
 10
-2.5646430989
 20
10.9123739313
 10
-2.5666630214
 20
10.9114483253
 10
-2.5691923752
 20
10.9107131736
  0
LINE
  5
2D1
100
AcDbEntity
  8
RACCORDO
100
AcDbLine
 62
7
  6
CONTINUOUS
 10
-22.1193020475
 20
-3.1533120848
 11
-22.1051903464
 21
-3.1420928914
  0
LINE
  5
2D2
100
AcDbEntity
  8
RACCORDO
100
AcDbLine
 62
7
  6
CONTINUOUS
 10
-22.1051903464
 20
-3.1420928914
 11
-21.9618452899
 21
-3.0486801695
  0
LINE
  5
2D3
100
AcDbEntity
  8
0
100
AcDbLine
 62
7
  6
CONTINUOUS
 10
-21.965503526
 20
-3.0509294945
 11
-21.008074542
 21
-2.4612892281
  0
LINE
  5
2D4
100
AcDbEntity
  8
0
100
AcDbLine
 62
7
  6
CONTINUOUS
 10
-29.2004575066
 20
-7.5138087033
 11
-22.1506280054
 21
-3.1721150484
  0
LINE
  5
2D5
100
AcDbEntity
  8
RACCORDO
100
AcDbLine
 62
253
  6
CONTINUOUS
 10
-21.9618455082
 20
-3.0486803039
 11
-21.9655037407
 21
-3.0509296267
  0
LWPOLYLINE
  5
2D6
100
AcDbEntity
  8
0
100
AcDbPolyline
 62
7
  6
CONTINUOUS
 90
59
 70
0
 10
-22.1506248843
 20
-3.1721208036
 10
-22.0929358424
 20
-3.1374797212
 10
-21.9221906124
 20
-3.0450059824
 10
-21.7454624855
 20
-2.9637947548
 10
-21.5636091034
 20
-2.8942401474
 10
-21.3766055538
 20
-2.8363988201
 10
-21.1844767489
 20
-2.7902141131
 10
-20.9881550686
 20
-2.7559101555
 10
-20.7876201321
 20
-2.7335446966
 10
-20.58289232
 20
-2.7230599871
 10
-20.3749651534
 20
-2.7245069082
 10
-20.163823081
 20
-2.7379434565
 10
-19.9494816541
 20
-2.7633116353
 10
-19.7329810476
 20
-2.8004883357
 10
-19.5143107662
 20
-2.8495309559
 10
-19.2934813052
 20
-2.9103820978
 10
-19.0715643252
 20
-2.9827464575
 10
-18.8485545399
 20
-3.066679998
 10
-18.6244572356
 20
-3.1621267563
 10
-18.4003599312
 20
-3.26862354
 10
-18.1762626269
 20
-3.3862240606
 10
-17.9521653226
 20
-3.5148746066
 10
-17.7291555373
 20
-3.6539508515
 10
-17.5072385573
 20
-3.8035034718
 10
-17.2864090962
 20
-3.9634817909
 10
-17.0677388149
 20
-4.133109452
 10
-16.8512382084
 20
-4.3124333581
 10
-16.6368967815
 20
-4.5014066062
 10
-16.4257547091
 20
-4.6991121303
 10
-16.2178275425
 20
-4.9055923759
 10
-16.0130997304
 20
-5.1208048974
 10
-15.8125647939
 20
-5.3437052928
 10
-15.6162431135
 20
-5.5743309308
 10
-15.4241143087
 20
-5.8126444427
 10
-15.237110759
 20
-6.0574893196
 10
-15.055257377
 20
-6.308897309
 10
-14.8785292501
 20
-6.5668366635
 10
-14.7077840201
 20
-6.8300556324
 10
-14.5430507683
 20
-7.0985798785
 10
-14.3843004133
 20
-7.3723837391
 10
-14.2323033529
 20
-7.6501384746
 10
-14.087092413
 20
-7.9318632893
 10
-13.9486347677
 20
-8.217538979
 10
-13.8176023362
 20
-8.5057791917
 10
-13.6940312108
 20
-8.7965963928
 10
-13.5778852993
 20
-9.0899781169
 10
-13.4697282448
 20
-9.3845006154
 10
-13.3695988791
 20
-9.6801694332
 10
-13.2774583704
 20
-9.9769790255
 10
-13.1937538662
 20
-10.2734890085
 10
-13.1185263718
 20
-10.569697926
 10
-13.051734882
 20
-10.8656072342
 10
-12.9937035282
 20
-11.1597809185
 10
-12.9444748915
 20
-11.4522105426
 10
-12.9040063908
 20
-11.7429045427
 10
-12.8724944154
 20
-12.0304522136
 10
-12.8500044282
 20
-12.3143833202
 10
-12.8364709662
 20
-12.5951680976
 10
-12.8318940294
 20
-12.8728065457
  0
LWPOLYLINE
  5
2D7
100
AcDbEntity
  8
RACCORDO
100
AcDbPolyline
 62
253
  6
CONTINUOUS
 90
43
 70
0
 10
-8.675881375
 20
6.3939456607
 10
-8.7135375989
 20
6.372362239
 10
-8.7510757472
 20
6.3492343995
 10
-8.7884499252
 20
6.3245911388
 10
-8.8256144725
 20
6.2984639488
 10
-8.8625239406
 20
6.2708849404
 10
-8.8991331122
 20
6.2418866098
 10
-8.9353979892
 20
6.2115043408
 10
-8.9712734151
 20
6.1797765414
 10
-9.0067130596
 20
6.1467427365
 10
-9.0416731859
 20
6.1124444658
 10
-9.0761114837
 20
6.0769240948
 10
-9.109984662
 20
6.0402247934
 10
-9.1432513396
 20
6.0023921269
 10
-9.1758708041
 20
5.9634732187
 10
-9.2078018601
 20
5.9235156315
 10
-9.2390055341
 20
5.8825688626
 10
-9.2694435879
 20
5.8406839378
 10
-9.2990772738
 20
5.7979125503
 10
-9.3278702413
 20
5.7543079654
 10
-9.3557874325
 20
5.7099242255
 10
-9.3827935905
 20
5.6648157374
 10
-9.4088556623
 20
5.6190384828
 10
-9.4339418304
 20
5.5726493047
 10
-9.4580204085
 20
5.5257051196
 10
-9.4810619826
 20
5.4782640028
 10
-9.5030383495
 20
5.4303849763
 10
-9.523921554
 20
5.3821272908
 10
-9.5436859687
 20
5.3335509542
 10
-9.5623075796
 20
5.2847160533
 10
-9.5797629107
 20
5.2356825391
 10
-9.5960305567
 20
5.1865112444
 10
-9.6110907202
 20
5.1372630594
 10
-9.6249244687
 20
5.087998258
 10
-9.637514949
 20
5.0387773072
 10
-9.6488466406
 20
4.9896617599
 10
-9.6589049488
 20
4.9407134143
 10
-9.6676774101
 20
4.8919939465
 10
-9.6751536701
 20
4.843562587
 10
-9.6813245806
 20
4.7954770516
 10
-9.686182459
 20
4.7477961549
 10
-9.6897212821
 20
4.70057969
 10
-9.6919366301
 20
4.6538861274
  0
LWPOLYLINE
  5
2D8
100
AcDbEntity
  8
RACCORDO
100
AcDbPolyline
 62
253
  6
CONTINUOUS
 90
43
 70
0
 10
-8.3173652898
 20
5.8030032639
 10
-8.3428965439
 20
5.7885193279
 10
-8.3682910244
 20
5.7730332746
 10
-8.3935487312
 20
5.7565451038
 10
-8.4187018875
 20
5.7390312619
 10
-8.4437182701
 20
5.7205153026
 10
-8.4685012091
 20
5.701067887
 10
-8.4930487119
 20
5.680686096
 10
-8.5173627712
 20
5.6593728487
 10
-8.5413526949
 20
5.6372075647
 10
-8.565017001
 20
5.6141872933
 10
-8.5883571714
 20
5.5903149852
 10
-8.6112869603
 20
5.5656789114
 10
-8.6338048969
 20
5.5402762163
 10
-8.6559124519
 20
5.5141097555
 10
-8.6775277914
 20
5.4872763669
 10
-8.6986491579
 20
5.4597734774
 10
-8.719278309
 20
5.4316036601
 10
-8.739338683
 20
5.4028714722
 10
-8.7588281002
 20
5.3735749181
 10
-8.7777487404
 20
5.3437159935
 10
-8.7960305808
 20
5.3134052428
 10
-8.8136712609
 20
5.2826409888
 10
-8.8306731414
 20
5.2514249087
 10
-8.8469732808
 20
5.2198725795
 10
-8.8625691204
 20
5.187982645
 10
-8.8774632189
 20
5.1557564614
 10
-8.8916003117
 20
5.1233136739
 10
-8.9049775271
 20
5.0906536128
 10
-8.9175977368
 20
5.0577769479
 10
-8.9294142916
 20
5.0248053335
 10
-8.9404242151
 20
4.9917384738
 10
-8.9506304835
 20
4.9585766646
 10
-8.9599953768
 20
4.9254424477
 10
-8.9685158378
 20
4.8923355655
 10
-8.9761949236
 20
4.8592562756
 10
-8.9830040848
 20
4.8263278927
 10
-8.9889400534
 20
4.793550124
 10
-8.9940060973
 20
4.7609232622
 10
-8.998183471
 20
4.7285715007
 10
-9.0014659261
 20
4.696536237
 10
-9.003859711
 20
4.6647760735
 10
-9.0053648257
 20
4.6332910102
  0
LINE
  5
2D9
100
AcDbEntity
  8
RACCORDO
100
AcDbLine
 62
7
  6
CONTINUOUS
 10
-4.0522689794
 20
8.9016881756
 11
-3.1622087967
 21
9.3987394323
  0
LINE
  5
2DA
100
AcDbEntity
  8
RACCORDO
100
AcDbLine
 62
253
  6
CONTINUOUS
 10
-8.675881375
 20
6.3939456607
 11
-4.1426143696
 21
8.8687893672
  0
LINE
  5
2DB
100
AcDbEntity
  8
RACCORDO
100
AcDbLine
 62
253
  6
CONTINUOUS
 10
-2.8194565069
 20
8.8044732709
 11
-8.3173652898
 21
5.8030032639
  0
LINE
  5
2DC
100
AcDbEntity
  8
RACCORDO
100
AcDbLine
 62
7
  6
CONTINUOUS
 10
2.454164134
 20
13.29910243
 11
-3.0373791942
 21
10.3362888191
  0
LWPOLYLINE
  5
2DD
100
AcDbEntity
  8
RACCORDO
100
AcDbPolyline
 62
7
  6
CONTINUOUS
 90
10
 70
0
 10
-4.0522689794
 20
8.9016881756
 10
-4.0609800526
 20
8.8970516906
 10
-4.0700747864
 20
8.8926457744
 10
-4.0795324326
 20
8.8884794048
 10
-4.0893321715
 20
8.884566848
 10
-4.0994508983
 20
8.880910297
 10
-4.1098630357
 20
8.8774996657
 10
-4.1205437494
 20
8.874335772
 10
-4.1314692396
 20
8.8714305109
 10
-4.1426143696
 20
8.8687893672
  0
LINE
  5
2DE
100
AcDbEntity
  8
RACCORDO
100
AcDbLine
 62
7
  6
CONTINUOUS
 10
2.454164134
 20
12.7223507865
 11
-2.8832207484
 21
9.9588388655
  0
LINE
  5
2DF
100
AcDbEntity
  8
RACCORDO
100
AcDbLine
 62
253
  6
CONTINUOUS
 10
-3.1622087967
 20
11.0009344586
 11
-4.7634895875
 21
10.1982124551
  0
LINE
  5
2E0
100
AcDbEntity
  8
DRAFT
100
AcDbLine
 62
7
  6
CONTINUOUS
 10
20.5965790512
 20
21.9931493445
 11
19.5359188794
 21
21.4628192586
  0
LINE
  5
2E1
100
AcDbEntity
  8
ASSI
100
AcDbLine
 62
7
  6
CONTINUOUS
 10
20.5965790512
 20
21.9931493445
 11
19.5359188794
 21
21.4628192586
  0
LINE
  5
2E2
100
AcDbEntity
  8
RACCORDO
100
AcDbLine
 62
253
  6
CONTINUOUS
 10
-2.6339416249
 20
11.2643732786
 11
-3.1622087967
 21
11.0009344586
  0
LINE
  5
2E3
100
AcDbEntity
  8
RACCORDO
100
AcDbLine
 62
7
  6
CONTINUOUS
 10
19.5359188794
 20
21.4628192586
 11
2.5944942339
 21
13.2122803011
  0
LINE
  5
2E4
100
AcDbEntity
  8
ASSI
100
AcDbLine
 62
7
  6
CONTINUOUS
 10
19.5359188794
 20
21.4628192586
 11
2.5944942339
 21
13.2122803011
  0
LINE
  5
2E5
100
AcDbEntity
  8
DRAFT
100
AcDbLine
 62
7
  6
CONTINUOUS
 10
-2.4116471863
 20
9.7206112049
 11
3.2566935497
 21
12.4740025451
  0
LINE
  5
2E6
100
AcDbEntity
  8
ASSI
100
AcDbLine
 62
7
  6
CONTINUOUS
 10
-2.4116471863
 20
9.7206112049
 11
3.2566935497
 21
12.4740025451
  0
LINE
  5
2E7
100
AcDbEntity
  8
RACCORDO
100
AcDbLine
 62
253
  6
CONTINUOUS
 10
3.8787945376
 20
11.4010370567
 11
23.3846312229
 21
20.8759794275
  0
LINE
  5
2E8
100
AcDbEntity
  8
ASSI
100
AcDbLine
 62
253
  6
CONTINUOUS
 10
3.8787945376
 20
11.4010370567
 11
23.3846312229
 21
20.8759794275
  0
LINE
  5
2E9
100
AcDbEntity
  8
RACCORDO
100
AcDbLine
 62
7
  6
CONTINUOUS
 10
21.1750442802
 20
21.9807728989
 11
2.5944942339
 21
13.0022685277
  0
LINE
  5
2EA
100
AcDbEntity
  8
ASSI
100
AcDbLine
 62
7
  6
CONTINUOUS
 10
21.1750442802
 20
21.9807728989
 11
2.5944942339
 21
13.0022685277
  0
LINE
  5
2EB
100
AcDbEntity
  8
RACCORDO
100
AcDbLine
 62
253
  6
CONTINUOUS
 10
-2.4481365036
 20
9.7412967431
 11
-3.1622087967
 21
9.4040121481
  0
LINE
  5
2EC
100
AcDbEntity
  8
RACCORDO
100
AcDbLine
 62
253
  6
CONTINUOUS
 10
-2.1015486249
 20
9.1435695663
 11
-2.8194565069
 21
8.8044732709
  0
LWPOLYLINE
  5
2ED
100
AcDbEntity
  8
RACCORDO
100
AcDbPolyline
 62
253
  6
CONTINUOUS
 90
9
 70
0
 10
23.3846312229
 20
20.8759794275
 10
23.4455213844
 20
20.9018996003
 10
23.5058665234
 20
20.921136506
 10
23.5652175198
 20
20.9335469736
 10
23.6231326524
 20
20.9390386378
 10
23.6791808865
 20
20.9375706267
 10
23.7329450819
 20
20.9291538662
 10
23.7840250972
 20
20.9138509981
 10
23.8195041035
 20
20.8983427571
  0
LWPOLYLINE
  5
2EE
100
AcDbEntity
  8
ASSI
100
AcDbPolyline
 62
253
  6
CONTINUOUS
 90
9
 70
0
 10
23.3846312229
 20
20.8759794275
 10
23.4455213844
 20
20.9018996003
 10
23.5058665234
 20
20.921136506
 10
23.5652175198
 20
20.9335469736
 10
23.6231326524
 20
20.9390386378
 10
23.6791808865
 20
20.9375706267
 10
23.7329450819
 20
20.9291538662
 10
23.7840250972
 20
20.9138509981
 10
23.8195041035
 20
20.8983427571
  0
LWPOLYLINE
  5
2EF
100
AcDbEntity
  8
RACCORDO
100
AcDbPolyline
 62
253
  6
CONTINUOUS
 90
5
 70
0
 10
24.1351835182
 20
20.4587040686
 10
24.175929875
 20
20.4736703606
 10
24.208204117
 20
20.4833649817
 10
24.231660448
 20
20.487684061
 10
24.2460475497
 20
20.4865813224
  0
LWPOLYLINE
  5
2F0
100
AcDbEntity
  8
RACCORDO
100
AcDbPolyline
 62
253
  6
CONTINUOUS
 90
10
 70
0
 10
-18.2030254796
 20
-3.1477521945
 10
-18.6874313728
 20
-2.9313181154
 10
-19.1689318287
 20
-2.7678418037
 10
-19.6438631007
 20
-2.6588095515
 10
-20.108818239
 20
-2.6052910849
 10
-20.5599530841
 20
-2.6080234143
 10
-20.9930978903
 20
-2.6671123243
 10
-21.4047707798
 20
-2.782045947
 10
-21.7920239092
 20
-2.9519627921
 10
-21.9618455082
 20
-3.0486803039
  0
LINE
  5
2F1
100
AcDbEntity
  8
RACCORDO
100
AcDbLine
 62
7
  6
CONTINUOUS
 10
-17.3343135632
 20
-2.3334240303
 11
-17.2070852612
 21
-2.3987530975
  0
LWPOLYLINE
  5
2F2
100
AcDbEntity
  8
RACCORDO
100
AcDbPolyline
 62
253
  6
CONTINUOUS
 90
10
 70
0
 10
-17.3602929822
 20
-2.2778734045
 10
-17.2195700564
 20
-2.3502769114
 10
-17.0789360096
 20
-2.4267973962
 10
-16.9383906997
 20
-2.5074347905
 10
-16.7978232871
 20
-2.5922447664
 10
-16.6573440411
 20
-2.6811713784
 10
-16.5172843401
 20
-2.7740470641
 10
-16.3776453667
 20
-2.8708883168
 10
-16.2384247943
 20
-2.9716780945
 10
-16.0999486044
 20
-3.0761984681
  0
LWPOLYLINE
  5
2F3
100
AcDbEntity
  8
RACCORDO
100
AcDbPolyline
 62
7
  6
CONTINUOUS
 90
10
 70
0
 10
-17.2070852612
 20
-2.3987530975
 10
-17.0685896759
 20
-2.4737683653
 10
-16.9302351314
 20
-2.5527792465
 10
-16.7921098247
 20
-2.6357402614
 10
-16.6542921219
 20
-2.7226058128
 10
-16.5168571097
 20
-2.8133306821
 10
-16.3798813651
 20
-2.9078675778
 10
-16.2434432242
 20
-3.0061634755
 10
-16.1076200914
 20
-3.1081646977
 10
-15.972489113
 20
-3.213816679
  0
LWPOLYLINE
  5
2F4
100
AcDbEntity
  8
RACCORDO
100
AcDbPolyline
 62
7
  6
CONTINUOUS
 90
25
 70
0
 10
5.0952079722
 20
-19.7080388971
 10
5.0670117514
 20
-19.6763937925
 10
5.0259928378
 20
-19.6184544115
 10
4.9914075281
 20
-19.5532087882
 10
4.9633347966
 20
-19.4802099678
 10
4.941695669
 20
-19.3999049051
 10
4.92719164
 20
-19.314892748
 10
4.9200565414
 20
-19.2253646862
 10
4.9200565414
 20
-19.1311295299
 10
4.92719164
 20
-19.0342128572
 10
4.941695669
 20
-18.9341813384
 10
4.9633347966
 20
-18.8314683032
 10
4.9914075281
 20
-18.7293993182
 10
5.0259928378
 20
-18.6283395584
 10
5.0670117514
 20
-18.5279238489
 10
5.1135258517
 20
-18.4303822314
 10
5.165797541
 20
-18.335532166
 10
5.2235644171
 20
-18.2435561927
 10
5.285100856
 20
-18.1572319727
 10
5.3504050051
 20
-18.0768734346
 10
5.4194787172
 20
-18.0021666497
 10
5.4906019265
 20
-17.9349474943
 10
5.5632012778
 20
-17.8758279268
 10
5.6378501264
 20
-17.8241959887
 10
5.7145484722
 20
-17.78005168
  0
LWPOLYLINE
  5
2F5
100
AcDbEntity
  8
ASSI
100
AcDbPolyline
 62
7
  6
CONTINUOUS
 90
25
 70
0
 10
5.0952079722
 20
-19.7080388971
 10
5.0670117514
 20
-19.6763937925
 10
5.0259928378
 20
-19.6184544115
 10
4.9914075281
 20
-19.5532087882
 10
4.9633347966
 20
-19.4802099678
 10
4.941695669
 20
-19.3999049051
 10
4.92719164
 20
-19.314892748
 10
4.9200565414
 20
-19.2253646862
 10
4.9200565414
 20
-19.1311295299
 10
4.92719164
 20
-19.0342128572
 10
4.941695669
 20
-18.9341813384
 10
4.9633347966
 20
-18.8314683032
 10
4.9914075281
 20
-18.7293993182
 10
5.0259928378
 20
-18.6283395584
 10
5.0670117514
 20
-18.5279238489
 10
5.1135258517
 20
-18.4303822314
 10
5.165797541
 20
-18.335532166
 10
5.2235644171
 20
-18.2435561927
 10
5.285100856
 20
-18.1572319727
 10
5.3504050051
 20
-18.0768734346
 10
5.4194787172
 20
-18.0021666497
 10
5.4906019265
 20
-17.9349474943
 10
5.5632012778
 20
-17.8758279268
 10
5.6378501264
 20
-17.8241959887
 10
5.7145484722
 20
-17.78005168
  0
LWPOLYLINE
  5
2F6
100
AcDbEntity
  8
RACCORDO
100
AcDbPolyline
 62
253
  6
CONTINUOUS
 90
34
 70
0
 10
-8.3173652898
 20
5.8030032639
 10
-8.3186274887
 20
5.8229312579
 10
-8.3206570108
 20
5.8432129335
 10
-8.3234492641
 20
5.8638023997
 10
-8.3269979307
 20
5.8846530689
 10
-8.331294981
 20
5.9057177627
 10
-8.3363306922
 20
5.9269488184
 10
-8.3420936701
 20
5.9482981966
 10
-8.3485708751
 20
5.9697175904
 10
-8.3557476512
 20
5.9911585345
 10
-8.3636077598
 20
6.0125725147
 10
-8.3721334158
 20
6.0339110778
 10
-8.3813053285
 20
6.0551259413
 10
-8.3911027447
 20
6.0761691026
 10
-8.401503496
 20
6.0969929476
 10
-8.4124840488
 20
6.1175503584
 10
-8.4240195575
 20
6.1377948199
 10
-8.436083921
 20
6.1576805251
 10
-8.4486498413
 20
6.1771624789
 10
-8.4616888856
 20
6.1961965997
 10
-8.4751715509
 20
6.214739819
 10
-8.4890673298
 20
6.2327501794
 10
-8.5033447807
 20
6.2501869288
 10
-8.5179715982
 20
6.2670106133
 10
-8.5329146862
 20
6.2831831661
 10
-8.5481402332
 20
6.2986679936
 10
-8.5636137885
 20
6.3134300585
 10
-8.5793003403
 20
6.3274359586
 10
-8.5951643946
 20
6.340654003
 10
-8.6111700562
 20
6.3530542833
 10
-8.627281109
 20
6.3646087415
 10
-8.6434610988
 20
6.3752912332
 10
-8.6596734153
 20
6.3850775875
 10
-8.675881375
 20
6.3939456607
  0
LWPOLYLINE
  5
2F7
100
AcDbEntity
  8
ASSI
100
AcDbPolyline
 62
7
  6
CONTINUOUS
 90
6
 70
0
 10
-7.6881864741
 20
18.2599270172
 10
-7.6882451062
 20
18.2612397695
 10
-7.6890602753
 20
18.2646106751
 10
-7.6907923093
 20
18.2673659349
 10
-7.6933961332
 20
18.2695567378
 10
-7.6947317988
 20
18.2703111722
  0
LWPOLYLINE
  5
2F8
100
AcDbEntity
  8
RACCORDO
100
AcDbPolyline
 62
7
  6
CONTINUOUS
 90
23
 70
0
 10
-6.5142195317
 20
10.6096319324
 10
-6.5139011237
 20
10.5970183801
 10
-6.512942507
 20
10.5843954319
 10
-6.5113407327
 20
10.5718018917
 10
-6.5090965728
 20
10.5592808183
 10
-6.5062125328
 20
10.5468673932
 10
-6.5026907086
 20
10.5345886263
 10
-6.4985373434
 20
10.5224816995
 10
-6.4937624885
 20
10.5105863322
 10
-6.4883746937
 20
10.4989320528
 10
-6.4823863331
 20
10.4875530779
 10
-6.4758142919
 20
10.4764866831
 10
-6.4686748581
 20
10.4657638696
 10
-6.4609850651
 20
10.4554135003
 10
-6.4527677453
 20
10.4454686871
 10
-6.4440487116
 20
10.4359613647
 10
-6.4348474956
 20
10.426913302
 10
-6.4251910461
 20
10.4183515843
 10
-6.4151166442
 20
10.4103079212
 10
-6.4046440944
 20
10.4027963887
 10
-6.3938014044
 20
10.3958363799
 10
-6.3826376546
 20
10.3894566655
 10
-6.3760166046
 20
10.386021972
  0
LWPOLYLINE
  5
2F9
100
AcDbEntity
  8
RACCORDO
100
AcDbPolyline
 62
253
  6
CONTINUOUS
 90
18
 70
0
 10
-6.440996227
 20
-31.1183344888
 10
-6.4407557515
 20
-31.1295033892
 10
-6.4400349793
 20
-31.1404014272
 10
-6.4388358714
 20
-31.1509989529
 10
-6.4371616901
 20
-31.1612671339
 10
-6.4350169904
 20
-31.1711780339
 10
-6.4324076072
 20
-31.1807046886
 10
-6.4293406399
 20
-31.1898211791
 10
-6.4258244326
 20
-31.1985027025
 10
-6.4218685518
 20
-31.2067256392
 10
-6.4174837601
 20
-31.2144676173
 10
-6.4126819871
 20
-31.2217075734
 10
-6.4074762969
 20
-31.2284258101
 10
-6.4018808523
 20
-31.2346040491
 10
-6.3959108767
 20
-31.2402254817
 10
-6.3895826126
 20
-31.2452748136
 10
-6.3829132769
 20
-31.2497383074
 10
-6.3760229305
 20
-31.2535529389
  0
LWPOLYLINE
  5
2FA
100
AcDbEntity
  8
RACCORDO
100
AcDbPolyline
 62
253
  6
CONTINUOUS
 90
18
 70
0
 10
-5.1160115471
 20
-31.7808268287
 10
-5.1157709659
 20
-31.7919981569
 10
-5.1150498747
 20
-31.8028985223
 10
-5.1138502329
 20
-31.8134982536
 10
-5.1121753004
 20
-31.8237685078
 10
-5.1100296339
 20
-31.8336813163
 10
-5.1074190793
 20
-31.8432096655
 10
-5.1043507458
 20
-31.8523276141
 10
-5.1008329845
 20
-31.8610103523
 10
-5.0968753753
 20
-31.86923424
 10
-5.0924886934
 20
-31.8769768937
 10
-5.0876848804
 20
-31.8842172428
 10
-5.0824770157
 20
-31.8909355801
 10
-5.0768792704
 20
-31.8971136295
 10
-5.0709068888
 20
-31.9027345703
 10
-5.0645761545
 20
-31.9077830882
 10
-5.0579043335
 20
-31.912245435
 10
-5.0510442557
 20
-31.9160422761
  0
LWPOLYLINE
  5
2FB
100
AcDbEntity
  8
RACCORDO
100
AcDbPolyline
 62
253
  6
CONTINUOUS
 90
19
 70
0
 10
-6.440996227
 20
10.5212435847
 10
-6.4407773558
 20
10.5105825925
 10
-6.4401208001
 20
10.500161176
 10
-6.4390274624
 20
10.4900055986
 10
-6.4374990126
 20
10.4801397445
 10
-6.435538694
 20
10.4705905478
 10
-6.4331521109
 20
10.4613873117
 10
-6.4303457781
 20
10.4525545851
 10
-6.4271262611
 20
10.4441125443
 10
-6.4235014919
 20
10.4360820298
 10
-6.4194804088
 20
10.4284829445
 10
-6.4150730356
 20
10.4213343227
 10
-6.4102904078
 20
10.4146540951
 10
-6.4051444349
 20
10.408458894
 10
-6.399647906
 20
10.4027641138
 10
-6.3938145627
 20
10.3975839775
 10
-6.3876589739
 20
10.3929313861
 10
-6.3811964186
 20
10.3888178536
 10
-6.3760229305
 20
10.3860251346
  0
LINE
  5
2FC
100
AcDbEntity
  8
DRAFT
100
AcDbLine
 62
7
  6
CONTINUOUS
 10
-8.147311604
 20
16.3055755651
 11
-8.147311604
 21
16.8581337544
  0
LINE
  5
2FD
100
AcDbEntity
  8
RACCORDO
100
AcDbLine
 62
253
  6
CONTINUOUS
 10
-7.9393053283
 20
11.408896537
 11
-7.9393053283
 21
12.6416235093
  0
LINE
  5
2FE
100
AcDbEntity
  8
ASSI
100
AcDbLine
 62
253
  6
CONTINUOUS
 10
-7.8135359814
 20
17.0214541096
 11
-7.8135359814
 21
18.2491319902
  0
LINE
  5
2FF
100
AcDbEntity
  8
DRAFT
100
AcDbLine
 62
7
  6
CONTINUOUS
 10
-7.7937582134
 20
16.1287988698
 11
-7.7937582134
 21
16.6813570591
  0
LINE
  5
300
100
AcDbEntity
  8
ASSI
100
AcDbLine
 62
7
  6
CONTINUOUS
 10
-7.6881864741
 20
17.1704772383
 11
-7.6881864741
 21
18.2599294086
  0
LINE
  5
301
100
AcDbEntity
  8
DRAFT
100
AcDbLine
 62
7
  6
CONTINUOUS
 10
-7.5816261791
 20
12.8209280541
 11
-7.5816261791
 21
11.6084924888
  0
LINE
  5
302
100
AcDbEntity
  8
DRAFT
100
AcDbLine
 62
253
  6
CONTINUOUS
 10
-7.4402048228
 20
15.9520221745
 11
-7.4402048228
 21
15.58503738
  0
LINE
  5
303
100
AcDbEntity
  8
RACCORDO
100
AcDbLine
 62
7
  6
CONTINUOUS
 10
-6.5142195317
 20
10.9496058665
 11
-6.5142195317
 21
10.6096319324
  0
LINE
  5
304
100
AcDbEntity
  8
RACCORDO
100
AcDbLine
 62
7
  6
CONTINUOUS
 10
-6.5142195317
 20
-30.9077783901
 11
-6.5142195317
 21
-31.0299461411
  0
LINE
  5
305
100
AcDbEntity
  8
RACCORDO
100
AcDbLine
 62
253
  6
CONTINUOUS
 10
-6.440996227
 20
10.8612175188
 11
-6.440996227
 21
10.5212435847
  0
LINE
  5
306
100
AcDbEntity
  8
RACCORDO
100
AcDbLine
 62
253
  6
CONTINUOUS
 10
-6.440996227
 20
-30.877042221
 11
-6.440996227
 21
-31.1183344888
  0
LINE
  5
307
100
AcDbEntity
  8
RACCORDO
100
AcDbLine
 62
7
  6
CONTINUOUS
 10
-5.8112265774
 20
9.6496528564
 11
-5.8112265774
 21
10.103626958
  0
LINE
  5
308
100
AcDbEntity
  8
RACCORDO
100
AcDbLine
 62
253
  6
CONTINUOUS
 10
-5.7380032727
 20
9.5579411615
 11
-5.7380032727
 21
10.0670153057
  0
LWPOLYLINE
  5
309
100
AcDbEntity
  8
RACCORDO
100
AcDbPolyline
 62
253
  6
CONTINUOUS
 90
31
 70
0
 10
-6.440996227
 20
10.8612175188
 10
-6.4407557515
 20
10.8726268947
 10
-6.4400349793
 20
10.8842457049
 10
-6.4388358714
 20
10.8960423386
 10
-6.4371616901
 20
10.9079847008
 10
-6.4350169904
 20
10.9200403006
 10
-6.4324076072
 20
10.9321763384
 10
-6.4293406399
 20
10.9443597962
 10
-6.4258244326
 20
10.9565575269
 10
-6.4218685518
 20
10.9687363444
 10
-6.4174837601
 20
10.9808631141
 10
-6.4126819871
 20
10.9929048433
 10
-6.4074762969
 20
11.0048287702
 10
-6.4018808523
 20
11.0166024539
 10
-6.3959108767
 20
11.028193862
 10
-6.3895826126
 20
11.0395714581
 10
-6.3829132769
 20
11.0507042876
 10
-6.3759210148
 20
11.0615620617
 10
-6.3686248498
 20
11.07211524
 10
-6.3610446325
 20
11.0823351107
 10
-6.3532009861
 20
11.0921938691
 10
-6.3451152506
 20
11.1016646926
 10
-6.3368094245
 20
11.1107218144
 10
-6.3283061053
 20
11.1193405929
 10
-6.3196284278
 20
11.1274975793
 10
-6.310800001
 20
11.1351705811
 10
-6.3018448441
 20
11.1423387227
 10
-6.2927873211
 20
11.1489825018
 10
-6.2836520747
 20
11.1550838431
 10
-6.2744639587
 20
11.1606261467
 10
-6.265247971
 20
11.1655943338
  0
LWPOLYLINE
  5
30A
100
AcDbEntity
  8
RACCORDO
100
AcDbPolyline
 62
253
  6
CONTINUOUS
 90
21
 70
0
 10
-8.3173652898
 20
-31.4523647472
 10
-8.3186274893
 20
-31.4727409916
 10
-8.3206570126
 20
-31.4926723586
 10
-8.3234492675
 20
-31.5121137499
 10
-8.326997936
 20
-31.5310211755
 10
-8.3312949887
 20
-31.5493518539
 10
-8.3363307025
 20
-31.5670643084
 10
-8.3420936833
 20
-31.5841184613
 10
-8.3485708912
 20
-31.6004757244
 10
-8.3557476704
 20
-31.6160990862
 10
-8.3636077819
 20
-31.630953196
 10
-8.3721334408
 20
-31.6450044435
 10
-8.3813053563
 20
-31.6582210352
 10
-8.3911027751
 20
-31.6705730659
 10
-8.4015035286
 20
-31.682032587
 10
-8.4124840834
 20
-31.6925736691
 10
-8.4240195937
 20
-31.702172461
 10
-8.4360839583
 20
-31.7108072436
 10
-8.4486498794
 20
-31.7184584792
 10
-8.461688924
 20
-31.7251088552
 10
-8.4680963903
 20
-31.7279365316
  0
LWPOLYLINE
  5
30B
100
AcDbEntity
  8
RACCORDO
100
AcDbPolyline
 62
253
  6
CONTINUOUS
 90
27
 70
0
 10
-4.7634895875
 20
9.858238521
 10
-4.7683680873
 20
9.8462826193
 10
-4.7737137289
 20
9.8345983452
 10
-4.779512319
 20
9.8232177968
 10
-4.7857490042
 20
9.8121712834
 10
-4.7924065983
 20
9.8014903216
 10
-4.7994652474
 20
9.7912071962
 10
-4.8069049032
 20
9.7813509652
 10
-4.8147059393
 20
9.771947489
 10
-4.8228472586
 20
9.7630222313
 10
-4.831306794
 20
9.7545994686
 10
-4.8400613309
 20
9.746702396
 10
-4.8490867511
 20
9.7393527988
 10
-4.8583583175
 20
9.7325708105
 10
-4.8678507868
 20
9.7263748861
 10
-4.8775382551
 20
9.7207819362
 10
-4.8873942796
 20
9.7158072342
 10
-4.8973919255
 20
9.7114643819
 10
-4.9075038614
 20
9.7077652542
 10
-4.9177024595
 20
9.7047199571
 10
-4.9279598712
 20
9.7023368054
 10
-4.9382480792
 20
9.7006223084
 10
-4.9485389978
 20
9.6995811479
 10
-4.9588045028
 20
9.699216171
 10
-4.9690165087
 20
9.6995283715
 10
-4.9791470938
 20
9.7005168835
 10
-4.9891686196
 20
9.7021789978
  0
LINE
  5
30C
100
AcDbEntity
  8
RACCORDO
100
AcDbLine
 62
253
  6
CONTINUOUS
 10
23.89746529
 20
20.3501363333
 11
-2.1015486249
 21
7.1230655359
  0
LINE
  5
30D
100
AcDbEntity
  8
ASSI
100
AcDbLine
 62
253
  6
CONTINUOUS
 10
23.89746529
 20
20.3501363333
 11
-2.1015486249
 21
7.1230655359
  0
LINE
  5
30E
100
AcDbEntity
  8
RACCORDO
100
AcDbLine
 62
253
  6
CONTINUOUS
 10
24.3116157656
 20
18.9185027586
 11
-2.1015486249
 21
5.4807317524
  0
LINE
  5
30F
100
AcDbEntity
  8
ASSI
100
AcDbLine
 62
253
  6
CONTINUOUS
 10
24.3116157656
 20
18.9185027586
 11
-2.1015486249
 21
5.4807317524
  0
LWPOLYLINE
  5
310
100
AcDbEntity
  8
0
100
AcDbPolyline
 62
7
  6
CONTINUOUS
 90
8
 70
0
 10
-21.0073536068
 20
-2.4626158198
 10
-20.5232939054
 20
-2.2199909259
 10
-20.0280902544
 20
-2.0750366057
 10
-19.4967226384
 20
-2.0091264674
 10
-18.946342501
 20
-2.0243879535
 10
-18.3826669899
 20
-2.1215302115
 10
-17.7999789573
 20
-2.2998440938
 10
-17.1982784032
 20
-2.5593296005
  0
LWPOLYLINE
  5
311
100
AcDbEntity
  8
RACCORDO
100
AcDbPolyline
 62
253
  6
CONTINUOUS
 90
5
 70
0
 10
23.89746529
 20
20.3501363333
 10
23.9669023255
 20
20.3840502183
 10
24.0301068315
 20
20.4136526501
 10
24.0864016156
 20
20.4386264593
 10
24.1351835182
 20
20.4587040686
  0
LWPOLYLINE
  5
312
100
AcDbEntity
  8
ASSI
100
AcDbPolyline
 62
253
  6
CONTINUOUS
 90
9
 70
0
 10
23.89746529
 20
20.3501363333
 10
23.9669023255
 20
20.3840502183
 10
24.0301068315
 20
20.4136526501
 10
24.0864016156
 20
20.4386264593
 10
24.1351835182
 20
20.4587040686
 10
24.175929875
 20
20.4736703606
 10
24.208204117
 20
20.4833649817
 10
24.231660448
 20
20.487684061
 10
24.2460475497
 20
20.4865813224
  0
LINE
  5
313
100
AcDbEntity
  8
RACCORDO
100
AcDbLine
 62
253
  6
CONTINUOUS
 10
4.2164628715
 20
10.8186453296
 11
23.9428378471
 21
20.4009573296
  0
LINE
  5
314
100
AcDbEntity
  8
ASSI
100
AcDbLine
 62
253
  6
CONTINUOUS
 10
4.2164628715
 20
10.8186453296
 11
23.9428378471
 21
20.4009573296
  0
LWPOLYLINE
  5
315
100
AcDbEntity
  8
RACCORDO
100
AcDbPolyline
 62
253
  6
CONTINUOUS
 90
11
 70
0
 10
23.9428378471
 20
20.4009573296
 10
23.9968827254
 20
20.4265602304
 10
24.0462848966
 20
20.4490195976
 10
24.0906757871
 20
20.4681672463
 10
24.1297193407
 20
20.4838575282
 10
24.1631171865
 20
20.4959701249
 10
24.1906189002
 20
20.504414138
 10
24.2120200807
 20
20.5091267175
 10
24.2271600511
 20
20.5100723863
 10
24.2359261061
 20
20.5072441292
 10
24.2373898156
 20
20.5055161472
  0
LWPOLYLINE
  5
316
100
AcDbEntity
  8
ASSI
100
AcDbPolyline
 62
253
  6
CONTINUOUS
 90
11
 70
0
 10
23.9428378471
 20
20.4009573296
 10
23.9968827254
 20
20.4265602304
 10
24.0462848966
 20
20.4490195976
 10
24.0906757871
 20
20.4681672463
 10
24.1297193407
 20
20.4838575282
 10
24.1631171865
 20
20.4959701249
 10
24.1906189002
 20
20.504414138
 10
24.2120200807
 20
20.5091267175
 10
24.2271600511
 20
20.5100723863
 10
24.2359261061
 20
20.5072441292
 10
24.2373898156
 20
20.5055161472
  0
LWPOLYLINE
  5
317
100
AcDbEntity
  8
RACCORDO
100
AcDbPolyline
 62
7
  6
CONTINUOUS
 90
30
 70
0
 10
-20.9682099383
 20
-2.0742639195
 10
-20.9493056305
 20
-2.065403003
 10
-20.8379932703
 20
-2.0162859008
 10
-20.7247278039
 20
-1.9714743609
 10
-20.6095754643
 20
-1.9309878068
 10
-20.4925943484
 20
-1.8948417646
 10
-20.3738502693
 20
-1.8630542837
 10
-20.2534125859
 20
-1.8356391133
 10
-20.1313446091
 20
-1.8126074889
 10
-20.0077154451
 20
-1.7939714286
 10
-19.8825974607
 20
-1.7797382746
 10
-19.756059402
 20
-1.7699137292
 10
-19.6281732198
 20
-1.7645030626
 10
-19.4990148026
 20
-1.7635066224
 10
-19.3686596298
 20
-1.7669232962
 10
-19.2371825999
 20
-1.7747508374
 10
-19.1046624889
 20
-1.7869816857
 10
-18.971181389
 20
-1.8036063066
 10
-18.8368176017
 20
-1.824614061
 10
-18.7016508859
 20
-1.8499890745
 10
-18.5657660028
 20
-1.8797128909
 10
-18.4292439152
 20
-1.9137660992
 10
-18.2921652575
 20
-1.9521241256
 10
-18.1546142989
 20
-1.9947598376
 10
-18.0166719474
 20
-2.0416457703
 10
-17.8784174209
 20
-2.0927504585
 10
-17.739932068
 20
-2.1480401064
 10
-17.6012969331
 20
-2.2074792539
 10
-17.4625997322
 20
-2.2710237857
 10
-17.3343137819
 20
-2.3334239416
  0
LWPOLYLINE
  5
318
100
AcDbEntity
  8
RACCORDO
100
AcDbPolyline
 62
253
  6
CONTINUOUS
 90
34
 70
0
 10
-9.0053648257
 20
4.6332910102
 10
-9.0223132703
 20
4.6263060929
 10
-9.0399782226
 20
4.6197270721
 10
-9.0583205491
 20
4.6135685225
 10
-9.0772996159
 20
4.607844087
 10
-9.0968733784
 20
4.6025664472
 10
-9.1169984746
 20
4.5977472946
 10
-9.1376303211
 20
4.5933973051
 10
-9.158723212
 20
4.5895261155
 10
-9.1802304199
 20
4.5861423015
 10
-9.2021042997
 20
4.5832533593
 10
-9.2242963938
 20
4.5808656889
 10
-9.2467575399
 20
4.5789845797
 10
-9.2694379795
 20
4.5776141989
 10
-9.2922874683
 20
4.5767575824
 10
-9.3152553876
 20
4.5764166278
 10
-9.3382908563
 20
4.5765920905
 10
-9.3613428437
 20
4.5772835817
 10
-9.3843602823
 20
4.5784895696
 10
-9.4072921814
 20
4.5802073826
 10
-9.4300877397
 20
4.5824332151
 10
-9.4526964578
 20
4.5851621362
 10
-9.4750682504
 20
4.5883881006
 10
-9.4971535571
 20
4.5921039617
 10
-9.5189034519
 20
4.5963014876
 10
-9.5402697521
 20
4.6009713797
 10
-9.5612051245
 20
4.6061032926
 10
-9.581663191
 20
4.6116858575
 10
-9.6015986303
 20
4.6177067073
 10
-9.6209672794
 20
4.624152504
 10
-9.6397262306
 20
4.631008968
 10
-9.6578339269
 20
4.6382609102
 10
-9.6752502543
 20
4.6458922653
 10
-9.69193663
 20
4.6538861274
  0
LINE
  5
319
100
AcDbEntity
  8
ASSI
100
AcDbLine
 62
7
  6
CONTINUOUS
 10
7.1121960365
 20
-12.7344197092
 11
7.6918802945
 21
-13.0242618382
  0
LWPOLYLINE
  5
31A
100
AcDbEntity
  8
RACCORDO
100
AcDbPolyline
 62
253
  6
CONTINUOUS
 90
4
 70
0
 10
7.1908351884
 20
-12.6941615612
 10
7.3393163919
 20
-12.8068521679
 10
7.6188474651
 20
-12.9822418918
 10
7.6918802945
 20
-13.0211583263
  0
LINE
  5
31B
100
AcDbEntity
  8
RACCORDO
100
AcDbLine
 62
253
  6
CONTINUOUS
 10
4.9225116621
 20
-14.7676543896
 11
5.7145484722
 21
-15.4235950387
  0
LINE
  5
31C
100
AcDbEntity
  8
ASSI
100
AcDbLine
 62
253
  6
CONTINUOUS
 10
4.9225116621
 20
-14.7676543896
 11
5.7145484722
 21
-15.4235950387
  0
LWPOLYLINE
  5
31D
100
AcDbEntity
  8
RACCORDO
100
AcDbPolyline
 62
7
  6
CONTINUOUS
 90
25
 70
0
 10
5.0952079722
 20
-15.3779118782
 10
5.0670117514
 20
-15.3462667736
 10
5.0259928378
 20
-15.2883273925
 10
4.9914075281
 20
-15.2230817693
 10
4.9633347966
 20
-15.1500829488
 10
4.941695669
 20
-15.0697778862
 10
4.92719164
 20
-14.984765729
 10
4.9200565414
 20
-14.8952376673
 10
4.9200565414
 20
-14.801002511
 10
4.92719164
 20
-14.7040858383
 10
4.941695669
 20
-14.6040543195
 10
4.9633347966
 20
-14.5013412843
 10
4.9914075281
 20
-14.3992722993
 10
5.0259928378
 20
-14.2982125395
 10
5.0670117514
 20
-14.19779683
 10
5.1135258517
 20
-14.1002552124
 10
5.165797541
 20
-14.0054051471
 10
5.2235644171
 20
-13.9134291738
 10
5.285100856
 20
-13.8271049538
 10
5.3504050051
 20
-13.7467464156
 10
5.4194787172
 20
-13.6720396308
 10
5.4906019265
 20
-13.6048204753
 10
5.5632012778
 20
-13.5457009079
 10
5.6378501264
 20
-13.4940689698
 10
5.7145484722
 20
-13.4499246611
  0
LWPOLYLINE
  5
31E
100
AcDbEntity
  8
ASSI
100
AcDbPolyline
 62
7
  6
CONTINUOUS
 90
25
 70
0
 10
5.0952079722
 20
-15.3779118782
 10
5.0670117514
 20
-15.3462667736
 10
5.0259928378
 20
-15.2883273925
 10
4.9914075281
 20
-15.2230817693
 10
4.9633347966
 20
-15.1500829488
 10
4.941695669
 20
-15.0697778862
 10
4.92719164
 20
-14.984765729
 10
4.9200565414
 20
-14.8952376673
 10
4.9200565414
 20
-14.801002511
 10
4.92719164
 20
-14.7040858383
 10
4.941695669
 20
-14.6040543195
 10
4.9633347966
 20
-14.5013412843
 10
4.9914075281
 20
-14.3992722993
 10
5.0259928378
 20
-14.2982125395
 10
5.0670117514
 20
-14.19779683
 10
5.1135258517
 20
-14.1002552124
 10
5.165797541
 20
-14.0054051471
 10
5.2235644171
 20
-13.9134291738
 10
5.285100856
 20
-13.8271049538
 10
5.3504050051
 20
-13.7467464156
 10
5.4194787172
 20
-13.6720396308
 10
5.4906019265
 20
-13.6048204753
 10
5.5632012778
 20
-13.5457009079
 10
5.6378501264
 20
-13.4940689698
 10
5.7145484722
 20
-13.4499246611
  0
LWPOLYLINE
  5
31F
100
AcDbEntity
  8
RACCORDO
100
AcDbPolyline
 62
253
  6
CONTINUOUS
 90
31
 70
0
 10
-4.7634895875
 20
10.1982124551
 10
-4.7637845644
 20
10.2096381628
 10
-4.7645604176
 20
10.2212762159
 10
-4.7658150207
 20
10.2330947167
 10
-4.767544935
 20
10.245061273
 10
-4.7697454191
 20
10.2571430866
 10
-4.772410442
 20
10.2693070436
 10
-4.7755326993
 20
10.2815198048
 10
-4.7791036335
 20
10.2937478973
 10
-4.7831134574
 20
10.3059578063
 10
-4.7875511806
 20
10.3181160666
 10
-4.7924046404
 20
10.3301893548
 10
-4.7976605342
 20
10.3421445802
 10
-4.8033044567
 20
10.3539489758
 10
-4.8093209389
 20
10.365570188
 10
-4.8156934908
 20
10.3769763652
 10
-4.8224046463
 20
10.3881362453
 10
-4.8294360115
 20
10.399019241
 10
-4.8367683148
 20
10.4095955241
 10
-4.8443814596
 20
10.4198361071
 10
-4.8522545797
 20
10.4297129223
 10
-4.8603660965
 20
10.4391988994
 10
-4.8686937777
 20
10.448268039
 10
-4.8772147988
 20
10.4568954843
 10
-4.8859058052
 20
10.4650575891
 10
-4.8947429765
 20
10.4727319826
 10
-4.9037020917
 20
10.4798976308
 10
-4.9127585956
 20
10.4865348939
 10
-4.9218876658
 20
10.4926255804
 10
-4.9310642815
 20
10.4981529969
 10
-4.9402632912
 20
10.5031019939
  0
LWPOLYLINE
  5
320
100
AcDbEntity
  8
RACCORDO
100
AcDbPolyline
 62
7
  6
CONTINUOUS
 90
23
 70
0
 10
-2.5617437679
 20
-30.2948897453
 10
-2.5620621759
 20
-30.282276193
 10
-2.5630207926
 20
-30.2696532449
 10
-2.5646225668
 20
-30.2570597047
 10
-2.5668667268
 20
-30.2445386313
 10
-2.5697507668
 20
-30.2321252062
 10
-2.573272591
 20
-30.2198464393
 10
-2.5774259562
 20
-30.2077395125
 10
-2.582200811
 20
-30.1958441452
 10
-2.5875886059
 20
-30.1841898657
 10
-2.5935769665
 20
-30.1728108909
 10
-2.6001490077
 20
-30.1617444961
 10
-2.6072884414
 20
-30.1510216826
 10
-2.6149782345
 20
-30.1406713132
 10
-2.6231955543
 20
-30.1307265
 10
-2.631914588
 20
-30.1212191777
 10
-2.641115804
 20
-30.1121711149
 10
-2.6507722535
 20
-30.1036093973
 10
-2.6608466554
 20
-30.0955657342
 10
-2.6713192052
 20
-30.0880542016
 10
-2.6821618952
 20
-30.0810941929
 10
-2.693325645
 20
-30.0747144784
 10
-2.6999466949
 20
-30.0712797849
  0
LWPOLYLINE
  5
321
100
AcDbEntity
  8
RACCORDO
100
AcDbPolyline
 62
253
  6
CONTINUOUS
 90
19
 70
0
 10
-5.1160115471
 20
9.8587512448
 10
-5.115792676
 20
9.8480902526
 10
-5.1151361203
 20
9.837668836
 10
-5.1140427826
 20
9.8275132587
 10
-5.1125143327
 20
9.8176474046
 10
-5.1105540142
 20
9.8080982079
 10
-5.1081674311
 20
9.7988949718
 10
-5.1053610983
 20
9.7900622452
 10
-5.1021415812
 20
9.7816202044
 10
-5.0985168121
 20
9.7735896899
 10
-5.094495729
 20
9.7659906046
 10
-5.0900883558
 20
9.7588419828
 10
-5.085305728
 20
9.7521617552
 10
-5.0801597551
 20
9.7459665541
 10
-5.0746632262
 20
9.7402717739
 10
-5.0688298829
 20
9.7350916376
 10
-5.0626742941
 20
9.7304390462
 10
-5.0562117388
 20
9.7263255137
 10
-5.0510382507
 20
9.7235327947
  0
LWPOLYLINE
  5
322
100
AcDbEntity
  8
RACCORDO
100
AcDbPolyline
 62
7
  6
CONTINUOUS
 90
34
 70
0
 10
-3.1622087967
 20
11.0009344586
 10
-3.1624088527
 20
11.0113362672
 10
-3.1630090901
 20
11.0219146353
 10
-3.1640080481
 20
11.0326456534
 10
-3.1654032837
 20
11.0435051065
 10
-3.1671916319
 20
11.0544683989
 10
-3.1693692133
 20
11.0655106099
 10
-3.1719310378
 20
11.0766067568
 10
-3.1748712121
 20
11.0877317502
 10
-3.1781832071
 20
11.0988603206
 10
-3.1818594842
 20
11.1099672785
 10
-3.1858916444
 20
11.1210274997
 10
-3.1902706417
 20
11.1320158809
 10
-3.1949865423
 20
11.1429075385
 10
-3.2000286123
 20
11.1536778256
 10
-3.2053854729
 20
11.1643023169
 10
-3.2110449972
 20
11.1747569414
 10
-3.2169943351
 20
11.1850180315
 10
-3.2232200069
 20
11.1950623379
 10
-3.2297079394
 20
11.2048670928
 10
-3.2364434282
 20
11.2144100899
 10
-3.2434111675
 20
11.2236697301
 10
-3.2505954245
 20
11.2326250126
 10
-3.2579799402
 20
11.2412556445
 10
-3.2655478945
 20
11.2495421173
 10
-3.273282216
 20
11.2574656246
 10
-3.2811654219
 20
11.2650082007
 10
-3.2891795214
 20
11.2721528244
 10
-3.2973064518
 20
11.2788832672
 10
-3.3055278628
 20
11.2851842557
 10
-3.3138249596
 20
11.291041603
 10
-3.3221789529
 20
11.2964420398
 10
-3.3305711021
 20
11.3013732444
 10
-3.3389825003
 20
11.3058239974
  0
LWPOLYLINE
  5
323
100
AcDbEntity
  8
RACCORDO
100
AcDbPolyline
 62
7
  6
CONTINUOUS
 90
24
 70
0
 10
-5.0360417668
 20
17.1722396031
 10
-5.0366149512
 20
17.2067120092
 10
-5.0383140642
 20
17.2404619302
 10
-5.0411391058
 20
17.273489366
 10
-5.0450995403
 20
17.3058509234
 10
-5.0501859035
 20
17.3374899956
 10
-5.0563698018
 20
17.3682367621
 10
-5.0636524173
 20
17.3980722896
 10
-5.0720325679
 20
17.4270155113
 10
-5.0814783152
 20
17.4549534072
 10
-5.0920021737
 20
17.48189957
 10
-5.1035916287
 20
17.507840407
 10
-5.1161771975
 20
17.5326221199
 10
-5.1297523833
 20
17.5562194213
 10
-5.1443236829
 20
17.5786575986
 10
-5.1598411029
 20
17.5998587158
 10
-5.1763243903
 20
17.6198358058
 10
-5.1937537981
 20
17.6385758356
 10
-5.2120200928
 20
17.6559617712
 10
-5.2311087487
 20
17.6719706975
 10
-5.2510342914
 20
17.6866255296
 10
-5.2717310639
 20
17.699877978
 10
-5.2932235785
 20
17.7117338392
 10
-8.5222581956
 20
19.3262750251
  0
LINE
  5
324
100
AcDbEntity
  8
RACCORDO
100
AcDbLine
 62
253
  6
CONTINUOUS
 10
-5.1160115471
 20
-31.7808268287
 11
-5.1160115471
 21
-31.4408528946
  0
LINE
  5
325
100
AcDbEntity
  8
RACCORDO
100
AcDbLine
 62
253
  6
CONTINUOUS
 10
-5.1160115471
 20
9.8587512448
 11
-5.1160115471
 21
10.1987251789
  0
LINE
  5
326
100
AcDbEntity
  8
RACCORDO
100
AcDbLine
 62
7
  6
CONTINUOUS
 10
-5.0360417668
 20
17.1722396031
 11
-5.0360417668
 21
16.9014393104
  0
LINE
  5
327
100
AcDbEntity
  8
RACCORDO
100
AcDbLine
 62
253
  6
CONTINUOUS
 10
-4.7634895875
 20
-31.7813395526
 11
-4.7634895875
 21
-31.4413656184
  0
LINE
  5
328
100
AcDbEntity
  8
RACCORDO
100
AcDbLine
 62
253
  6
CONTINUOUS
 10
-4.7634895875
 20
9.858238521
 11
-4.7634895875
 21
10.1982124551
  0
LINE
  5
329
100
AcDbEntity
  8
RACCORDO
100
AcDbLine
 62
253
  6
CONTINUOUS
 10
-4.404790939
 20
9.5801556176
 11
-4.404790939
 21
8.8913349947
  0
LINE
  5
32A
100
AcDbEntity
  8
RACCORDO
100
AcDbLine
 62
253
  6
CONTINUOUS
 10
-4.404790939
 20
-30.022325949
 11
-4.404790939
 21
-30.4643564174
  0
LINE
  5
32B
100
AcDbEntity
  8
RACCORDO
100
AcDbLine
 62
253
  6
CONTINUOUS
 10
-4.0522689794
 20
9.7097349981
 11
-4.0522689794
 21
8.9016881756
  0
LINE
  5
32C
100
AcDbEntity
  8
RACCORDO
100
AcDbLine
 62
253
  6
CONTINUOUS
 10
-4.0522689794
 20
-29.8743515493
 11
-4.0522689794
 21
-30.5898691413
  0
LINE
  5
32D
100
AcDbEntity
  8
RACCORDO
100
AcDbLine
 62
7
  6
CONTINUOUS
 10
-3.1622087967
 20
9.3987327074
 11
-3.1622087967
 21
11.0009344586
  0
LINE
  5
32E
100
AcDbEntity
  8
RACCORDO
100
AcDbLine
 62
7
  6
CONTINUOUS
 10
-3.1622087967
 20
-29.5007404376
 11
-3.1622087967
 21
-31.0013049529
  0
LINE
  5
32F
100
AcDbEntity
  8
RACCORDO
100
AcDbLine
 62
253
  6
CONTINUOUS
 10
-2.6339416249
 20
11.2643732786
 11
-2.6339416249
 21
10.9168417619
  0
LINE
  5
330
100
AcDbEntity
  8
RACCORDO
100
AcDbLine
 62
253
  6
CONTINUOUS
 10
-2.6339416249
 20
-30.3827623775
 11
-2.6339416249
 21
-30.7302938943
  0
LWPOLYLINE
  5
331
100
AcDbEntity
  8
RACCORDO
100
AcDbPolyline
 62
253
  6
CONTINUOUS
 90
22
 70
0
 10
-5.1160115471
 20
-31.4408528946
 10
-5.1157916925
 20
-31.4299483834
 10
-5.1151326752
 20
-31.4188511397
 10
-5.1140361344
 20
-31.4075887664
 10
-5.1125048035
 20
-31.396189317
 10
-5.1105424883
 20
-31.384681107
 10
-5.1081540424
 20
-31.3730926408
 10
-5.1053453723
 20
-31.3614526588
 10
-5.1021234668
 20
-31.3497901962
 10
-5.0984963693
 20
-31.3381343903
 10
-5.0944730896
 20
-31.3265141998
 10
-5.0900636471
 20
-31.3149585664
 10
-5.0852791105
 20
-31.3034964645
 10
-5.0801314771
 20
-31.2921565538
 10
-5.0746335091
 20
-31.2809668734
 10
-5.0687987754
 20
-31.2699550135
 10
-5.062640559
 20
-31.259146282
 10
-5.0561752848
 20
-31.2485697341
 10
-5.0494229179
 20
-31.238257413
 10
-5.0424020591
 20
-31.2282363449
 10
-5.0351293381
 20
-31.2185289397
 10
-5.0276231995
 20
-31.2091587208
  0
LWPOLYLINE
  5
332
100
AcDbEntity
  8
RACCORDO
100
AcDbPolyline
 62
253
  6
CONTINUOUS
 90
31
 70
0
 10
-5.1160115471
 20
10.1987251789
 10
-5.1157709659
 20
10.2101370883
 10
-5.1150498747
 20
10.221758545
 10
-5.1138502329
 20
10.2335579181
 10
-5.1121753004
 20
10.2455031047
 10
-5.1100296339
 20
10.2575615798
 10
-5.1074190793
 20
10.2697004836
 10
-5.1043507458
 20
10.2818867657
 10
-5.1008329845
 20
10.2940872651
 10
-5.0968753753
 20
10.306268762
 10
-5.0924886934
 20
10.3183980976
 10
-5.0876848804
 20
10.3304422598
 10
-5.0824770157
 20
10.3423684618
 10
-5.0768792704
 20
10.3541442565
 10
-5.0709068888
 20
10.3657375789
 10
-5.0645761545
 20
10.3771168311
 10
-5.0579043335
 20
10.3882509988
 10
-5.0509095652
 20
10.3991098304
 10
-5.0436108283
 20
10.4096638664
 10
-5.0360278857
 20
10.4198845092
 10
-5.0281814674
 20
10.4297437981
 10
-5.0200931761
 20
10.4392146143
 10
-5.0117852084
 20
10.4482710423
 10
-5.003280036
 20
10.4568886589
 10
-4.9946005732
 20
10.4650442728
 10
-4.9857684827
 20
10.4727173213
 10
-4.9768096998
 20
10.4798850689
 10
-4.9677543629
 20
10.4865239754
 10
-4.9586291941
 20
10.4926157728
 10
-4.9494571895
 20
10.4981464202
 10
-4.9402632912
 20
10.5031019939
  0
LWPOLYLINE
  5
333
100
AcDbEntity
  8
RACCORDO
100
AcDbPolyline
 62
7
  6
CONTINUOUS
 90
4
 70
0
 10
-2.5617437679
 20
10.9168350788
 10
-2.5617618768
 20
10.9164084205
 10
-2.5621804046
 20
10.914866105
 10
-2.5627961281
 20
10.9139064129
  0
LWPOLYLINE
  5
334
100
AcDbEntity
  8
RACCORDO
100
AcDbPolyline
 62
253
  6
CONTINUOUS
 90
16
 70
0
 10
-2.5617437679
 20
11.3522459108
 10
-2.562046989
 20
11.3460912665
 10
-2.5630284947
 20
11.3395897573
 10
-2.5646866726
 20
11.3331226813
 10
-2.5670170111
 20
11.3267076332
 10
-2.5700131702
 20
11.3203620664
 10
-2.5736669984
 20
11.3141032449
 10
-2.5779685549
 20
11.3079481971
 10
-2.5829061364
 20
11.3019136687
 10
-2.5884663094
 20
11.2960160777
 10
-2.5946339467
 20
11.2902714695
 10
-2.601392268
 20
11.2846954732
 10
-2.6087228862
 20
11.2793032594
 10
-2.6166058571
 20
11.2741094984
 10
-2.6250197338
 20
11.2691283208
 10
-2.6339416249
 20
11.2643732786
  0
LWPOLYLINE
  5
335
100
AcDbEntity
  8
RACCORDO
100
AcDbPolyline
 62
253
  6
CONTINUOUS
 90
4
 70
0
 10
24.3116157656
 20
18.9185027586
 10
24.3795703554
 20
18.9575433019
 10
24.4390894456
 20
18.9998869611
 10
24.4895353437
 20
19.045080039
  0
LWPOLYLINE
  5
336
100
AcDbEntity
  8
ASSI
100
AcDbPolyline
 62
253
  6
CONTINUOUS
 90
3
 70
0
 10
24.3116157656
 20
18.9185027586
 10
24.3795703554
 20
18.9575433019
 10
24.4390894456
 20
18.9998869611
  0
LWPOLYLINE
  5
337
100
AcDbEntity
  8
ASSI
100
AcDbPolyline
 62
7
  6
CONTINUOUS
 90
22
 70
0
 10
19.1470101498
 20
14.1451660892
 10
19.2620100918
 20
14.2085833112
 10
19.3748245778
 20
14.2817673038
 10
19.4854536079
 20
14.3647180668
 10
19.5945833304
 20
14.4580973798
 10
19.701527597
 20
14.5612434632
 10
19.8042279624
 20
14.6721709788
 10
19.9026022133
 20
14.7910306692
 10
19.9967325631
 20
14.9176717917
 10
20.0848072066
 20
15.0496567793
 10
20.166708832
 20
15.187089154
 10
20.2425547511
 20
15.3298653938
 10
20.3108850945
 20
15.4752373658
 10
20.3715542696
 20
15.6232553547
 10
20.424707869
 20
15.7738690758
 10
20.4693228012
 20
15.9241795415
 10
20.5052336541
 20
16.0741808771
 10
20.5326058398
 20
16.2238789574
 10
20.550912503
 20
16.370392419
 10
20.5599780254
 20
16.5136595689
 10
20.5599780254
 20
16.6537421002
 10
20.5562018074
 20
16.7096434136
  0
LINE
  5
338
100
AcDbEntity
  8
RACCORDO
100
AcDbLine
 62
7
  6
CONTINUOUS
 10
24.3116157656
 20
18.6851008035
 11
20.6867166894
 21
16.7845956187
  0
LINE
  5
339
100
AcDbEntity
  8
ASSI
100
AcDbLine
 62
7
  6
CONTINUOUS
 10
24.3116157656
 20
18.6851008035
 11
20.6867166894
 21
16.7845956187
  0
LINE
  5
33A
100
AcDbEntity
  8
RACCORDO
100
AcDbLine
 62
7
  6
CONTINUOUS
 10
19.4220690068
 20
13.4042311585
 11
5.7145484722
 21
6.2270400559
  0
LINE
  5
33B
100
AcDbEntity
  8
ASSI
100
AcDbLine
 62
7
  6
CONTINUOUS
 10
19.4220690068
 20
13.4042311585
 11
5.7145484722
 21
6.2270400559
  0
LINE
  5
33C
100
AcDbEntity
  8
RACCORDO
100
AcDbLine
 62
7
  6
CONTINUOUS
 10
19.4220690068
 20
15.2180723713
 11
5.7145484722
 21
8.2007104335
  0
LINE
  5
33D
100
AcDbEntity
  8
ASSI
100
AcDbLine
 62
7
  6
CONTINUOUS
 10
19.4220690068
 20
15.2180723713
 11
5.7145484722
 21
8.2007104335
  0
LINE
  5
33E
100
AcDbEntity
  8
RACCORDO
100
AcDbLine
 62
7
  6
CONTINUOUS
 10
18.5841208522
 20
13.9724778889
 11
17.8742179436
 21
13.6092256817
  0
LINE
  5
33F
100
AcDbEntity
  8
ASSI
100
AcDbLine
 62
7
  6
CONTINUOUS
 10
18.5841208522
 20
13.9724778889
 11
17.8742179436
 21
13.6092256817
  0
LINE
  5
340
100
AcDbEntity
  8
DRAFT
100
AcDbLine
 62
7
  6
CONTINUOUS
 10
22.5472935269
 20
14.8316157008
 11
19.941184615
 21
13.5229653827
  0
LINE
  5
341
100
AcDbEntity
  8
ASSI
100
AcDbLine
 62
7
  6
CONTINUOUS
 10
22.5472935269
 20
14.8316157008
 11
19.941184615
 21
13.5229653827
  0
LINE
  5
342
100
AcDbEntity
  8
RACCORDO
100
AcDbLine
 62
7
  6
CONTINUOUS
 10
17.8742179436
 20
14.2119443464
 11
16.7428470937
 21
13.6462589215
  0
LINE
  5
343
100
AcDbEntity
  8
RACCORDO
100
AcDbLine
 62
253
  6
CONTINUOUS
 10
16.7428470937
 20
13.4730538407
 11
8.1161443633
 21
9.1597024755
  0
LINE
  5
344
100
AcDbEntity
  8
RACCORDO
100
AcDbLine
 62
7
  6
CONTINUOUS
 10
24.3088896524
 20
15.7067233468
 11
22.5411226995
 21
14.8348323256
  0
LINE
  5
345
100
AcDbEntity
  8
ASSI
100
AcDbLine
 62
7
  6
CONTINUOUS
 10
24.3088896524
 20
15.7067233468
 11
22.5411226995
 21
14.8348323256
  0
LWPOLYLINE
  5
346
100
AcDbEntity
  8
RACCORDO
100
AcDbPolyline
 62
7
  6
CONTINUOUS
 90
11
 70
0
 10
5.7145484722
 20
6.2270400559
 10
5.6378501264
 20
6.1917609025
 10
5.5632012778
 20
6.166091695
 10
5.4906019265
 20
6.1500324334
 10
5.4194787172
 20
6.1436013496
 10
5.3504050051
 20
6.1467802117
 10
5.285100856
 20
6.1595143238
 10
5.2235644171
 20
6.1821156959
 10
5.165797541
 20
6.2142723179
 10
5.1135258517
 20
6.2549934644
 10
5.0952079722
 20
6.2727232164
  0
LWPOLYLINE
  5
347
100
AcDbEntity
  8
ASSI
100
AcDbPolyline
 62
7
  6
CONTINUOUS
 90
11
 70
0
 10
5.7145484722
 20
6.2270400559
 10
5.6378501264
 20
6.1917609025
 10
5.5632012778
 20
6.166091695
 10
5.4906019265
 20
6.1500324334
 10
5.4194787172
 20
6.1436013496
 10
5.3504050051
 20
6.1467802117
 10
5.285100856
 20
6.1595143238
 10
5.2235644171
 20
6.1821156959
 10
5.165797541
 20
6.2142723179
 10
5.1135258517
 20
6.2549934644
 10
5.0952079722
 20
6.2727232164
  0
LWPOLYLINE
  5
348
100
AcDbEntity
  8
DRAFT
100
AcDbPolyline
 62
7
  6
CONTINUOUS
 90
5
 70
0
 10
19.941184615
 20
13.5229653827
 10
19.8236748753
 20
13.4692261919
 10
19.7084384833
 20
13.4276820367
 10
19.595475439
 20
13.3983329171
 10
19.4841683311
 20
13.3811518445
  0
LWPOLYLINE
  5
349
100
AcDbEntity
  8
ASSI
100
AcDbPolyline
 62
7
  6
CONTINUOUS
 90
5
 70
0
 10
19.941184615
 20
13.5229653827
 10
19.8236748753
 20
13.4692261919
 10
19.7084384833
 20
13.4276820367
 10
19.595475439
 20
13.3983329171
 10
19.4841683311
 20
13.3811518445
  0
LINE
  5
34A
100
AcDbEntity
  8
RACCORDO
100
AcDbLine
 62
253
  6
CONTINUOUS
 10
4.9225116621
 20
-10.4375273706
 11
5.7145484722
 21
-11.0934680198
  0
LINE
  5
34B
100
AcDbEntity
  8
ASSI
100
AcDbLine
 62
253
  6
CONTINUOUS
 10
4.9225116621
 20
-10.4375273706
 11
5.7145484722
 21
-11.0934680198
  0
LWPOLYLINE
  5
34C
100
AcDbEntity
  8
RACCORDO
100
AcDbPolyline
 62
7
  6
CONTINUOUS
 90
25
 70
0
 10
5.0952079722
 20
-11.0477848593
 10
5.0670117514
 20
-11.0161397547
 10
5.0259928378
 20
-10.9582003736
 10
4.9914075281
 20
-10.8929547504
 10
4.9633347966
 20
-10.8199559299
 10
4.941695669
 20
-10.7396508673
 10
4.92719164
 20
-10.6546387101
 10
4.9200565414
 20
-10.5651106484
 10
4.9200565414
 20
-10.4708754921
 10
4.92719164
 20
-10.3739588194
 10
4.941695669
 20
-10.2739273006
 10
4.9633347966
 20
-10.1712142654
 10
4.9914075281
 20
-10.0691452804
 10
5.0259928378
 20
-9.9680855206
 10
5.0670117514
 20
-9.867669811
 10
5.1135258517
 20
-9.7701281935
 10
5.165797541
 20
-9.6752781282
 10
5.2235644171
 20
-9.5833021549
 10
5.285100856
 20
-9.4969779349
 10
5.3504050051
 20
-9.4166193967
 10
5.4194787172
 20
-9.3419126119
 10
5.4906019265
 20
-9.2746934564
 10
5.5632012778
 20
-9.215573889
 10
5.6378501264
 20
-9.1639419509
 10
5.7145484722
 20
-9.1197976422
  0
LWPOLYLINE
  5
34D
100
AcDbEntity
  8
ASSI
100
AcDbPolyline
 62
7
  6
CONTINUOUS
 90
25
 70
0
 10
5.0952079722
 20
-11.0477848593
 10
5.0670117514
 20
-11.0161397547
 10
5.0259928378
 20
-10.9582003736
 10
4.9914075281
 20
-10.8929547504
 10
4.9633347966
 20
-10.8199559299
 10
4.941695669
 20
-10.7396508673
 10
4.92719164
 20
-10.6546387101
 10
4.9200565414
 20
-10.5651106484
 10
4.9200565414
 20
-10.4708754921
 10
4.92719164
 20
-10.3739588194
 10
4.941695669
 20
-10.2739273006
 10
4.9633347966
 20
-10.1712142654
 10
4.9914075281
 20
-10.0691452804
 10
5.0259928378
 20
-9.9680855206
 10
5.0670117514
 20
-9.867669811
 10
5.1135258517
 20
-9.7701281935
 10
5.165797541
 20
-9.6752781282
 10
5.2235644171
 20
-9.5833021549
 10
5.285100856
 20
-9.4969779349
 10
5.3504050051
 20
-9.4166193967
 10
5.4194787172
 20
-9.3419126119
 10
5.4906019265
 20
-9.2746934564
 10
5.5632012778
 20
-9.215573889
 10
5.6378501264
 20
-9.1639419509
 10
5.7145484722
 20
-9.1197976422
  0
LWPOLYLINE
  5
34E
100
AcDbEntity
  8
RACCORDO
100
AcDbPolyline
 62
253
  6
CONTINUOUS
 90
14
 70
0
 10
-15.9982597893
 20
17.5990008441
 10
-15.9939122283
 20
17.591647975
 10
-15.9900620799
 20
17.5845551468
 10
-15.9867198582
 20
17.5777417285
 10
-15.9838946901
 20
17.5712263262
 10
-15.9815942904
 20
17.5650267321
 10
-15.9798249412
 20
17.5591598759
 10
-15.9785914741
 20
17.5536417788
 10
-15.9778972575
 20
17.5484875096
 10
-15.9777441872
 20
17.5437111435
 10
-15.9781326811
 20
17.5393257238
 10
-15.9790616783
 20
17.535343226
 10
-15.980528642
 20
17.5317745257
 10
-15.9824855346
 20
17.5286985792
  0
LWPOLYLINE
  5
34F
100
AcDbEntity
  8
ASSI
100
AcDbPolyline
 62
7
  6
CONTINUOUS
 90
6
 70
0
 10
-2.133198045
 20
15.4824332588
 10
-2.1332380132
 20
15.4835220117
 10
-2.1339912218
 20
15.4869181765
 10
-2.1356574879
 20
15.4897019134
 10
-2.1381919231
 20
15.4919235287
 10
-2.1397433561
 20
15.4928170973
  0
LWPOLYLINE
  5
350
100
AcDbEntity
  8
RACCORDO
100
AcDbPolyline
 62
7
  6
CONTINUOUS
 90
20
 70
0
 10
-2.5617437679
 20
11.3522459108
 10
-2.5621492353
 20
11.3664785265
 10
-2.5633724193
 20
11.3807357673
 10
-2.5654200066
 20
11.3949613013
 10
-2.5682940043
 20
11.4090984614
 10
-2.5719913096
 20
11.4230891083
 10
-2.5765037499
 20
11.4368753025
 10
-2.5818177529
 20
11.450398993
 10
-2.5879169277
 20
11.4636081374
 10
-2.5947843062
 20
11.4764577941
 10
-2.602397388
 20
11.4888990964
 10
-2.610728441
 20
11.5008825088
 10
-2.6197518559
 20
11.5123680695
 10
-2.6294420191
 20
11.5233192059
 10
-2.6397618088
 20
11.5336906839
 10
-2.6506688774
 20
11.5434392152
 10
-2.6621375879
 20
11.5525406706
 10
-2.6741256173
 20
11.560959218
 10
-2.6865664366
 20
11.5686497826
 10
-2.6999474711
 20
11.5758562592
  0
LWPOLYLINE
  5
351
100
AcDbEntity
  8
RACCORDO
100
AcDbPolyline
 62
253
  6
CONTINUOUS
 90
31
 70
0
 10
-2.6339416249
 20
11.2643732786
 10
-2.6341307457
 20
11.2758237876
 10
-2.634804929
 20
11.2874901413
 10
-2.6359632449
 20
11.2993408395
 10
-2.6376038264
 20
11.3113463013
 10
-2.6397228885
 20
11.3234714197
 10
-2.6423137401
 20
11.3356754493
 10
-2.6453685574
 20
11.3479222422
 10
-2.6488794795
 20
11.3601808814
 10
-2.652836997
 20
11.3724181012
 10
-2.6572303854
 20
11.3846005838
 10
-2.6620475616
 20
11.3966946842
 10
-2.6672751884
 20
11.4086668745
 10
-2.6728988533
 20
11.4204841772
 10
-2.6789031985
 20
11.4321143472
 10
-2.6852718146
 20
11.4435255954
 10
-2.6919872744
 20
11.4546866749
 10
-2.6990311446
 20
11.4655669297
 10
-2.7063840875
 20
11.4761364806
 10
-2.7140259343
 20
11.4863663323
 10
-2.7219357409
 20
11.4962284446
 10
-2.7300918171
 20
11.5056957696
 10
-2.7384718015
 20
11.5147423472
 10
-2.7470527154
 20
11.5233433673
 10
-2.7558110222
 20
11.5314752358
 10
-2.7647227124
 20
11.5391156583
 10
-2.7737633444
 20
11.5462436778
 10
-2.7829081019
 20
11.5528397293
 10
-2.7921319003
 20
11.5588857241
 10
-2.8014094557
 20
11.5643650938
 10
-2.8107153286
 20
11.5692628174
  0
LINE
  5
352
100
AcDbEntity
  8
RACCORDO
100
AcDbLine
 62
7
  6
CONTINUOUS
 10
-2.5617437679
 20
11.3522459108
 11
-2.5617437679
 21
10.9168410183
  0
LINE
  5
353
100
AcDbEntity
  8
RACCORDO
100
AcDbLine
 62
7
  6
CONTINUOUS
 10
-2.5617437679
 20
-30.2948897453
 11
-2.5617437679
 21
-30.6424212621
  0
LINE
  5
354
100
AcDbEntity
  8
ASSI
100
AcDbLine
 62
253
  6
CONTINUOUS
 10
-2.2567921089
 20
14.2448239207
 11
-2.2567921089
 21
15.4722122844
  0
LINE
  5
355
100
AcDbEntity
  8
ASSI
100
AcDbLine
 62
7
  6
CONTINUOUS
 10
-2.133198045
 20
14.3929830237
 11
-2.133198045
 21
15.4824351941
  0
LINE
  5
356
100
AcDbEntity
  8
ASSI
100
AcDbLine
 62
7
  6
CONTINUOUS
 10
-2.1015486249
 20
5.4807317524
 11
-2.1015486249
 21
-25.1275488561
  0
LINE
  5
357
100
AcDbEntity
  8
RACCORDO
100
AcDbLine
 62
7
  6
CONTINUOUS
 10
-2.1015486249
 20
-28.79038667
 11
-2.1015486249
 21
9.1435695663
  0
LWPOLYLINE
  5
358
100
AcDbEntity
  8
RACCORDO
100
AcDbPolyline
 62
7
  6
CONTINUOUS
 90
20
 70
0
 10
-2.8194565069
 20
-29.1445659576
 10
-2.8201610904
 20
-29.1638723283
 10
-2.8215712228
 20
-29.1828100274
 10
-2.8236892539
 20
-29.2013375761
 10
-2.8265162526
 20
-29.2194097926
 10
-2.830050962
 20
-29.2369906654
 10
-2.8342916239
 20
-29.2540520216
 10
-2.839234134
 20
-29.2705472146
 10
-2.8448761965
 20
-29.2864431045
 10
-2.8512219837
 20
-29.3017277062
 10
-2.8582723726
 20
-29.3163664339
 10
-2.8660190817
 20
-29.3303090755
 10
-2.8744543839
 20
-29.3435166578
 10
-2.8835796454
 20
-29.3559605505
 10
-2.8933764888
 20
-29.3675869373
 10
-2.9038000214
 20
-29.3783271767
 10
-2.9148340043
 20
-29.388153919
 10
-2.9264552254
 20
-29.3970362916
 10
-2.9385946063
 20
-29.4049207118
 10
-2.9514078768
 20
-29.4118853339
  0
LWPOLYLINE
  5
359
100
AcDbEntity
  8
RACCORDO
100
AcDbPolyline
 62
253
  6
CONTINUOUS
 90
16
 70
0
 10
-2.5617437679
 20
-30.6424212621
 10
-2.5620450385
 20
-30.6485560909
 10
-2.5630247571
 20
-30.6550590391
 10
-2.564681446
 20
-30.6615276034
 10
-2.5670105976
 20
-30.6679441701
 10
-2.5700058778
 20
-30.6742912812
 10
-2.5736591367
 20
-30.680551658
 10
-2.5779604348
 20
-30.6867082611
 10
-2.5828980673
 20
-30.6927443316
 10
-2.5884585926
 20
-30.698643434
 10
-2.5946268817
 20
-30.7043895155
 10
-2.601386143
 20
-30.7099669311
 10
-2.6087179569
 20
-30.7153604834
 10
-2.616602355
 20
-30.7205554879
 10
-2.6250178808
 20
-30.7255378114
 10
-2.6339416249
 20
-30.7302938943
  0
LWPOLYLINE
  5
35A
100
AcDbEntity
  8
RACCORDO
100
AcDbPolyline
 62
253
  6
CONTINUOUS
 90
16
 70
0
 10
-2.5617437679
 20
-30.2948897453
 10
-2.562046989
 20
-30.3010443896
 10
-2.5630284947
 20
-30.3075458988
 10
-2.5646866726
 20
-30.3140129749
 10
-2.5670170111
 20
-30.3204280229
 10
-2.5700131702
 20
-30.3267735898
 10
-2.5736669984
 20
-30.3330324112
 10
-2.5779685549
 20
-30.339187459
 10
-2.5829061364
 20
-30.3452219874
 10
-2.5884663094
 20
-30.3511195785
 10
-2.5946339467
 20
-30.3568641867
 10
-2.601392268
 20
-30.3624401829
 10
-2.6087228862
 20
-30.3678323968
 10
-2.6166058571
 20
-30.3730261577
 10
-2.6250197338
 20
-30.3780073354
 10
-2.6339416249
 20
-30.3827623775
  0
LINE
  5
35B
100
AcDbEntity
  8
RACCORDO
100
AcDbLine
 62
7
  6
CONTINUOUS
 10
24.3116157656
 20
14.3549737845
 11
20.6867166894
 21
12.4544685997
  0
LINE
  5
35C
100
AcDbEntity
  8
ASSI
100
AcDbLine
 62
7
  6
CONTINUOUS
 10
24.3116157656
 20
14.3549737845
 11
20.6867166894
 21
12.4544685997
  0
LINE
  5
35D
100
AcDbEntity
  8
RACCORDO
100
AcDbLine
 62
7
  6
CONTINUOUS
 10
19.4220690068
 20
10.8879453524
 11
5.7145484722
 21
3.8705834146
  0
LINE
  5
35E
100
AcDbEntity
  8
ASSI
100
AcDbLine
 62
7
  6
CONTINUOUS
 10
19.4220690068
 20
10.8879453524
 11
5.7145484722
 21
3.8705834146
  0
LINE
  5
35F
100
AcDbEntity
  8
RACCORDO
100
AcDbLine
 62
7
  6
CONTINUOUS
 10
18.5841208522
 20
9.64235087
 11
17.8742179436
 21
9.2790986628
  0
LINE
  5
360
100
AcDbEntity
  8
ASSI
100
AcDbLine
 62
7
  6
CONTINUOUS
 10
18.5841208522
 20
9.64235087
 11
17.8742179436
 21
9.2790986628
  0
LINE
  5
361
100
AcDbEntity
  8
RACCORDO
100
AcDbLine
 62
7
  6
CONTINUOUS
 10
24.3116157656
 20
15.0004766159
 11
20.6867166894
 21
13.1472889228
  0
LINE
  5
362
100
AcDbEntity
  8
ASSI
100
AcDbLine
 62
7
  6
CONTINUOUS
 10
24.3116157656
 20
15.0004766159
 11
20.6867166894
 21
13.1472889228
  0
LWPOLYLINE
  5
363
100
AcDbEntity
  8
DRAFT
100
AcDbPolyline
 62
7
  6
CONTINUOUS
 90
5
 70
0
 10
19.941184615
 20
9.1928383638
 10
19.8236748753
 20
9.139099173
 10
19.7084384833
 20
9.0975550178
 10
19.595475439
 20
9.0682058981
 10
19.4841683311
 20
9.0510248256
  0
LWPOLYLINE
  5
364
100
AcDbEntity
  8
ASSI
100
AcDbPolyline
 62
7
  6
CONTINUOUS
 90
5
 70
0
 10
19.941184615
 20
9.1928383638
 10
19.8236748753
 20
9.139099173
 10
19.7084384833
 20
9.0975550178
 10
19.595475439
 20
9.0682058981
 10
19.4841683311
 20
9.0510248256
  0
LINE
  5
365
100
AcDbEntity
  8
RACCORDO
100
AcDbLine
 62
253
  6
CONTINUOUS
 10
-9.6919366301
 20
4.6538861274
 11
-24.5306803545
 21
12.0732579896
  0
LINE
  5
366
100
AcDbEntity
  8
RACCORDO
100
AcDbLine
 62
253
  6
CONTINUOUS
 10
4.9225116621
 20
-6.1074003517
 11
5.7145484722
 21
-6.7633410009
  0
LINE
  5
367
100
AcDbEntity
  8
ASSI
100
AcDbLine
 62
253
  6
CONTINUOUS
 10
4.9225116621
 20
-6.1074003517
 11
5.7145484722
 21
-6.7633410009
  0
LWPOLYLINE
  5
368
100
AcDbEntity
  8
RACCORDO
100
AcDbPolyline
 62
7
  6
CONTINUOUS
 90
25
 70
0
 10
5.0952079722
 20
-6.7176578404
 10
5.0670117514
 20
-6.6860127357
 10
5.0259928378
 20
-6.6280733547
 10
4.9914075281
 20
-6.5628277315
 10
4.9633347966
 20
-6.489828911
 10
4.941695669
 20
-6.4095238483
 10
4.92719164
 20
-6.3245116912
 10
4.9200565414
 20
-6.2349836294
 10
4.9200565414
 20
-6.1407484732
 10
4.92719164
 20
-6.0438318004
 10
4.941695669
 20
-5.9438002817
 10
4.9633347966
 20
-5.8410872464
 10
4.9914075281
 20
-5.7390182614
 10
5.0259928378
 20
-5.6379585017
 10
5.0670117514
 20
-5.5375427921
 10
5.1135258517
 20
-5.4400011746
 10
5.165797541
 20
-5.3451511093
 10
5.2235644171
 20
-5.2531751359
 10
5.285100856
 20
-5.166850916
 10
5.3504050051
 20
-5.0864923778
 10
5.4194787172
 20
-5.011785593
 10
5.4906019265
 20
-4.9445664375
 10
5.5632012778
 20
-4.8854468701
 10
5.6378501264
 20
-4.833814932
 10
5.7145484722
 20
-4.7896706233
  0
LWPOLYLINE
  5
369
100
AcDbEntity
  8
ASSI
100
AcDbPolyline
 62
7
  6
CONTINUOUS
 90
25
 70
0
 10
5.0952079722
 20
-6.7176578404
 10
5.0670117514
 20
-6.6860127357
 10
5.0259928378
 20
-6.6280733547
 10
4.9914075281
 20
-6.5628277315
 10
4.9633347966
 20
-6.489828911
 10
4.941695669
 20
-6.4095238483
 10
4.92719164
 20
-6.3245116912
 10
4.9200565414
 20
-6.2349836294
 10
4.9200565414
 20
-6.1407484732
 10
4.92719164
 20
-6.0438318004
 10
4.941695669
 20
-5.9438002817
 10
4.9633347966
 20
-5.8410872464
 10
4.9914075281
 20
-5.7390182614
 10
5.0259928378
 20
-5.6379585017
 10
5.0670117514
 20
-5.5375427921
 10
5.1135258517
 20
-5.4400011746
 10
5.165797541
 20
-5.3451511093
 10
5.2235644171
 20
-5.2531751359
 10
5.285100856
 20
-5.166850916
 10
5.3504050051
 20
-5.0864923778
 10
5.4194787172
 20
-5.011785593
 10
5.4906019265
 20
-4.9445664375
 10
5.5632012778
 20
-4.8854468701
 10
5.6378501264
 20
-4.833814932
 10
5.7145484722
 20
-4.7896706233
  0
LINE
  5
36A
100
AcDbEntity
  8
RACCORDO
100
AcDbLine
 62
253
  6
CONTINUOUS
 10
2.454164134
 20
13.29910243
 11
2.454164134
 21
12.7223507865
  0
LINE
  5
36B
100
AcDbEntity
  8
RACCORDO
100
AcDbLine
 62
253
  6
CONTINUOUS
 10
2.454164134
 20
-23.7613169744
 11
2.454164134
 21
-24.0542627352
  0
LINE
  5
36C
100
AcDbEntity
  8
RACCORDO
100
AcDbLine
 62
7
  6
CONTINUOUS
 10
2.5944942339
 20
13.5995275567
 11
2.5944942339
 21
12.8960153791
  0
LINE
  5
36D
100
AcDbEntity
  8
RACCORDO
100
AcDbLine
 62
7
  6
CONTINUOUS
 10
2.5944942339
 20
-23.687108106
 11
2.5944942339
 21
-24.0073586767
  0
LWPOLYLINE
  5
36E
100
AcDbEntity
  8
RACCORDO
100
AcDbPolyline
 62
7
  6
CONTINUOUS
 90
18
 70
0
 10
2.594483734
 20
12.8960153785
 10
2.5944298332
 20
12.8922907366
 10
2.5935336817
 20
12.8805264355
 10
2.591529785
 20
12.8688259441
 10
2.5884235863
 20
12.8571724089
 10
2.584229608
 20
12.8456187935
 10
2.5789349668
 20
12.8341506984
 10
2.5725525459
 20
12.8227825231
 10
2.5651355176
 20
12.8116104296
 10
2.5566850465
 20
12.8006480871
 10
2.5471999679
 20
12.7898818264
 10
2.53672996
 20
12.7793668016
 10
2.5252605309
 20
12.7690959207
 10
2.5128061725
 20
12.7590762757
 10
2.4994600383
 20
12.7493842968
 10
2.4852531794
 20
12.7400454606
 10
2.4701545446
 20
12.7310342905
 10
2.454164134
 20
12.7223507865
  0
LINE
  5
36F
100
AcDbEntity
  8
ASSI
100
AcDbLine
 62
253
  6
CONTINUOUS
 10
24.4390894456
 20
18.9998869611
 11
24.4895353437
 21
19.045080039
  0
LWPOLYLINE
  5
370
100
AcDbEntity
  8
ASSI
100
AcDbPolyline
 62
7
  6
CONTINUOUS
 90
22
 70
0
 10
19.1470101498
 20
9.8150390702
 10
19.2620100918
 20
9.8784562923
 10
19.3748245778
 20
9.9516402849
 10
19.4854536079
 20
10.0345910479
 10
19.5945833304
 20
10.1279703609
 10
19.701527597
 20
10.2311164443
 10
19.8042279624
 20
10.3420439598
 10
19.9026022133
 20
10.4609036503
 10
19.9967325631
 20
10.5875447728
 10
20.0848072066
 20
10.7195297604
 10
20.166708832
 20
10.8569621351
 10
20.2425547511
 20
10.9997383749
 10
20.3108850945
 20
11.1451103469
 10
20.3715542696
 20
11.2931283358
 10
20.424707869
 20
11.4437420569
 10
20.4693228012
 20
11.5940525226
 10
20.5052336541
 20
11.7440538582
 10
20.5326058398
 20
11.8937519385
 10
20.550912503
 20
12.0402654001
 10
20.5599780254
 20
12.18353255
 10
20.5599780254
 20
12.3236150813
 10
20.5562018074
 20
12.3795163947
  0
LINE
  5
371
100
AcDbEntity
  8
RACCORDO
100
AcDbLine
 62
7
  6
CONTINUOUS
 10
24.3116157656
 20
10.0248467656
 11
20.6867166894
 21
8.1243415808
  0
LINE
  5
372
100
AcDbEntity
  8
ASSI
100
AcDbLine
 62
7
  6
CONTINUOUS
 10
24.3116157656
 20
10.0248467656
 11
20.6867166894
 21
8.1243415808
  0
LINE
  5
373
100
AcDbEntity
  8
RACCORDO
100
AcDbLine
 62
7
  6
CONTINUOUS
 10
19.4220690068
 20
9.0741041396
 11
5.7145484722
 21
1.896913037
  0
LINE
  5
374
100
AcDbEntity
  8
ASSI
100
AcDbLine
 62
7
  6
CONTINUOUS
 10
19.4220690068
 20
9.0741041396
 11
5.7145484722
 21
1.896913037
  0
LINE
  5
375
100
AcDbEntity
  8
RACCORDO
100
AcDbLine
 62
7
  6
CONTINUOUS
 10
19.4220690068
 20
6.5578183334
 11
5.7145484722
 21
-0.4595436043
  0
LINE
  5
376
100
AcDbEntity
  8
ASSI
100
AcDbLine
 62
7
  6
CONTINUOUS
 10
19.4220690068
 20
6.5578183334
 11
5.7145484722
 21
-0.4595436043
  0
LINE
  5
377
100
AcDbEntity
  8
RACCORDO
100
AcDbLine
 62
7
  6
CONTINUOUS
 10
24.3116157656
 20
10.6703495969
 11
20.6867166894
 21
8.8171619038
  0
LINE
  5
378
100
AcDbEntity
  8
ASSI
100
AcDbLine
 62
7
  6
CONTINUOUS
 10
24.3116157656
 20
10.6703495969
 11
20.6867166894
 21
8.8171619038
  0
LINE
  5
379
100
AcDbEntity
  8
DRAFT
100
AcDbLine
 62
7
  6
CONTINUOUS
 10
22.5472935269
 20
10.5014886818
 11
19.941184615
 21
9.1928383638
  0
LINE
  5
37A
100
AcDbEntity
  8
ASSI
100
AcDbLine
 62
7
  6
CONTINUOUS
 10
22.5472935269
 20
10.5014886818
 11
19.941184615
 21
9.1928383638
  0
LINE
  5
37B
100
AcDbEntity
  8
RACCORDO
100
AcDbLine
 62
7
  6
CONTINUOUS
 10
24.3088896524
 20
11.3765963278
 11
22.5411226995
 21
10.5047053067
  0
LINE
  5
37C
100
AcDbEntity
  8
ASSI
100
AcDbLine
 62
7
  6
CONTINUOUS
 10
24.3088896524
 20
11.3765963278
 11
22.5411226995
 21
10.5047053067
  0
LWPOLYLINE
  5
37D
100
AcDbEntity
  8
RACCORDO
100
AcDbPolyline
 62
7
  6
CONTINUOUS
 90
11
 70
0
 10
5.7145484722
 20
1.896913037
 10
5.6378501264
 20
1.8616338836
 10
5.5632012778
 20
1.8359646761
 10
5.4906019265
 20
1.8199054144
 10
5.4194787172
 20
1.8134743307
 10
5.3504050051
 20
1.8166531928
 10
5.285100856
 20
1.8293873049
 10
5.2235644171
 20
1.8519886769
 10
5.165797541
 20
1.884145299
 10
5.1135258517
 20
1.9248664455
 10
5.0952079722
 20
1.9425961975
  0
LWPOLYLINE
  5
37E
100
AcDbEntity
  8
ASSI
100
AcDbPolyline
 62
7
  6
CONTINUOUS
 90
11
 70
0
 10
5.7145484722
 20
1.896913037
 10
5.6378501264
 20
1.8616338836
 10
5.5632012778
 20
1.8359646761
 10
5.4906019265
 20
1.8199054144
 10
5.4194787172
 20
1.8134743307
 10
5.3504050051
 20
1.8166531928
 10
5.285100856
 20
1.8293873049
 10
5.2235644171
 20
1.8519886769
 10
5.165797541
 20
1.884145299
 10
5.1135258517
 20
1.9248664455
 10
5.0952079722
 20
1.9425961975
  0
LWPOLYLINE
  5
37F
100
AcDbEntity
  8
0
100
AcDbPolyline
 62
7
  6
CONTINUOUS
 90
3
 70
0
 10
-16.7865226162
 20
-2.6392618406
 10
-16.8757280421
 20
-2.6612313382
 10
-16.9665449902
 20
-2.6911271539
  0
LWPOLYLINE
  5
380
100
AcDbEntity
  8
ASSI
100
AcDbPolyline
 62
7
  6
CONTINUOUS
 90
5
 70
0
 10
18.6994369691
 20
5.3502701613
 10
18.8085666916
 20
5.3660205709
 10
18.9191957217
 20
5.3936988379
 10
19.0320102078
 20
5.4333293314
 10
19.1470101498
 20
5.4849120513
  0
LINE
  5
381
100
AcDbEntity
  8
RACCORDO
100
AcDbLine
 62
253
  6
CONTINUOUS
 10
-8.675881375
 20
6.3939456607
 11
-23.5382312064
 21
13.8251205764
  0
LINE
  5
382
100
AcDbEntity
  8
RACCORDO
100
AcDbLine
 62
253
  6
CONTINUOUS
 10
4.9225116621
 20
-1.7772733328
 11
5.7145484722
 21
-2.433213982
  0
LINE
  5
383
100
AcDbEntity
  8
ASSI
100
AcDbLine
 62
253
  6
CONTINUOUS
 10
4.9225116621
 20
-1.7772733328
 11
5.7145484722
 21
-2.433213982
  0
LWPOLYLINE
  5
384
100
AcDbEntity
  8
RACCORDO
100
AcDbPolyline
 62
7
  6
CONTINUOUS
 90
25
 70
0
 10
5.0952079722
 20
-2.3875308214
 10
5.0670117514
 20
-2.3558857168
 10
5.0259928378
 20
-2.2979463358
 10
4.9914075281
 20
-2.2327007125
 10
4.9633347966
 20
-2.1597018921
 10
4.941695669
 20
-2.0793968294
 10
4.92719164
 20
-1.9943846723
 10
4.9200565414
 20
-1.9048566105
 10
4.9200565414
 20
-1.8106214543
 10
4.92719164
 20
-1.7137047815
 10
4.941695669
 20
-1.6136732628
 10
4.9633347966
 20
-1.5109602275
 10
4.9914075281
 20
-1.4088912425
 10
5.0259928378
 20
-1.3078314827
 10
5.0670117514
 20
-1.2074157732
 10
5.1135258517
 20
-1.1098741557
 10
5.165797541
 20
-1.0150240903
 10
5.2235644171
 20
-0.923048117
 10
5.285100856
 20
-0.8367238971
 10
5.3504050051
 20
-0.7563653589
 10
5.4194787172
 20
-0.681658574
 10
5.4906019265
 20
-0.6144394186
 10
5.5632012778
 20
-0.5553198511
 10
5.6378501264
 20
-0.5036879131
 10
5.7145484722
 20
-0.4595436043
  0
LWPOLYLINE
  5
385
100
AcDbEntity
  8
ASSI
100
AcDbPolyline
 62
7
  6
CONTINUOUS
 90
25
 70
0
 10
5.0952079722
 20
-2.3875308214
 10
5.0670117514
 20
-2.3558857168
 10
5.0259928378
 20
-2.2979463358
 10
4.9914075281
 20
-2.2327007125
 10
4.9633347966
 20
-2.1597018921
 10
4.941695669
 20
-2.0793968294
 10
4.92719164
 20
-1.9943846723
 10
4.9200565414
 20
-1.9048566105
 10
4.9200565414
 20
-1.8106214543
 10
4.92719164
 20
-1.7137047815
 10
4.941695669
 20
-1.6136732628
 10
4.9633347966
 20
-1.5109602275
 10
4.9914075281
 20
-1.4088912425
 10
5.0259928378
 20
-1.3078314827
 10
5.0670117514
 20
-1.2074157732
 10
5.1135258517
 20
-1.1098741557
 10
5.165797541
 20
-1.0150240903
 10
5.2235644171
 20
-0.923048117
 10
5.285100856
 20
-0.8367238971
 10
5.3504050051
 20
-0.7563653589
 10
5.4194787172
 20
-0.681658574
 10
5.4906019265
 20
-0.6144394186
 10
5.5632012778
 20
-0.5553198511
 10
5.6378501264
 20
-0.5036879131
 10
5.7145484722
 20
-0.4595436043
  0
LINE
  5
386
100
AcDbEntity
  8
0
100
AcDbLine
 62
7
  6
CONTINUOUS
 10
4.7220318136
 20
21.2275704097
 11
4.7220318136
 21
20.9827579657
  0
LINE
  5
387
100
AcDbEntity
  8
0
100
AcDbLine
 62
7
  6
CONTINUOUS
 10
5.004874526
 20
-18.9566868028
 11
5.004874526
 21
-18.690048172
  0
LINE
  5
388
100
AcDbEntity
  8
0
100
AcDbLine
 62
7
  6
CONTINUOUS
 10
5.004874526
 20
-14.6265597839
 11
5.004874526
 21
-14.3599211531
  0
LINE
  5
389
100
AcDbEntity
  8
0
100
AcDbLine
 62
7
  6
CONTINUOUS
 10
5.004874526
 20
-10.296432765
 11
5.004874526
 21
-10.0297941342
  0
LINE
  5
38A
100
AcDbEntity
  8
0
100
AcDbLine
 62
7
  6
CONTINUOUS
 10
5.004874526
 20
-5.9663057461
 11
5.004874526
 21
-5.6996671153
  0
LINE
  5
38B
100
AcDbEntity
  8
0
100
AcDbLine
 62
7
  6
CONTINUOUS
 10
5.004874526
 20
-1.6361787271
 11
5.004874526
 21
-1.3695400963
  0
LINE
  5
38C
100
AcDbEntity
  8
0
100
AcDbLine
 62
7
  6
CONTINUOUS
 10
5.7119813072
 20
-18.5948653539
 11
5.7119813072
 21
-17.78005168
  0
LINE
  5
38D
100
AcDbEntity
  8
0
100
AcDbLine
 62
7
  6
CONTINUOUS
 10
5.7119813072
 20
-14.264738335
 11
5.7119813072
 21
-13.4499246611
  0
LINE
  5
38E
100
AcDbEntity
  8
0
100
AcDbLine
 62
7
  6
CONTINUOUS
 10
5.7119813072
 20
-9.934611316
 11
5.7119813072
 21
-9.1197976422
  0
LINE
  5
38F
100
AcDbEntity
  8
0
100
AcDbLine
 62
7
  6
CONTINUOUS
 10
5.7119813072
 20
-5.6044842971
 11
5.7119813072
 21
-4.7896706233
  0
LINE
  5
390
100
AcDbEntity
  8
0
100
AcDbLine
 62
7
  6
CONTINUOUS
 10
5.7119813072
 20
-1.2743572782
 11
5.7119813072
 21
-0.4595436043
  0
LINE
  5
391
100
AcDbEntity
  8
RACCORDO
100
AcDbLine
 62
253
  6
CONTINUOUS
 10
5.8887580025
 20
7.4763521219
 11
5.8887580025
 21
8.2898944201
  0
LINE
  5
392
100
AcDbEntity
  8
RACCORDO
100
AcDbLine
 62
7
  6
CONTINUOUS
 10
5.9326919853
 20
7.4988328246
 11
5.9326919853
 21
8.3123857713
  0
LWPOLYLINE
  5
393
100
AcDbEntity
  8
RACCORDO
100
AcDbPolyline
 62
253
  6
CONTINUOUS
 90
3
 70
0
 10
24.4895353437
 20
19.045080039
 10
24.5303675805
 20
19.092638319
 10
24.5611486768
 20
19.1420522276
  0
LWPOLYLINE
  5
394
100
AcDbEntity
  8
ASSI
100
AcDbPolyline
 62
253
  6
CONTINUOUS
 90
3
 70
0
 10
24.4895353437
 20
19.045080039
 10
24.5303675805
 20
19.092638319
 10
24.5611486768
 20
19.1420522276
  0
LWPOLYLINE
  5
395
100
AcDbEntity
  8
RACCORDO
100
AcDbPolyline
 62
253
  6
CONTINUOUS
 90
28
 70
0
 10
-14.2542276567
 20
-16.8043018795
 10
-13.9246596867
 20
-16.5289134261
 10
-13.6277496885
 20
-16.2037829069
 10
-13.3656666474
 20
-15.831305647
 10
-13.1403884284
 20
-15.4142563613
 10
-12.9536728828
 20
-14.9558469282
 10
-12.806960518
 20
-14.4596039571
 10
-12.7013701052
 20
-13.9293278986
 10
-12.6376988908
 20
-13.3690453138
 10
-12.6164300129
 20
-12.7830168752
 10
-12.6377255605
 20
-12.1757072815
 10
-12.7014233301
 20
-11.5517438651
 10
-12.8070398772
 20
-10.9158712892
 10
-12.9537774089
 20
-10.2729143878
 10
-13.1405170029
 20
-9.6277914524
 10
-13.3658186653
 20
-8.9854675047
 10
-13.6279250011
 20
-8.3509114066
 10
-13.9248579253
 20
-7.7288766972
 10
-14.2544482346
 20
-7.1239283773
 10
-14.6142732782
 20
-6.5405856631
 10
-15.0015518557
 20
-5.9834233813
 10
-15.4132383316
 20
-5.4568412493
 10
-15.8463800649
 20
-4.9646491167
 10
-16.2974968248
 20
-4.5108340294
 10
-16.7624149869
 20
-4.0994589985
 10
-17.2372889605
 20
-3.7336266015
 10
-17.7187132995
 20
-3.4156672134
 10
-18.2030254796
 20
-3.1477521945
  0
LINE
  5
396
100
AcDbEntity
  8
0
100
AcDbLine
 62
7
  6
CONTINUOUS
 10
-11.6229175535
 20
-13.3811428895
 11
-11.5225899511
 21
-13.3084309742
  0
LWPOLYLINE
  5
397
100
AcDbEntity
  8
ASSI
100
AcDbPolyline
 62
7
  6
CONTINUOUS
 90
22
 70
0
 10
19.1470101498
 20
5.4849120513
 10
19.2620100918
 20
5.5483292734
 10
19.3748245778
 20
5.6215132659
 10
19.4854536079
 20
5.704464029
 10
19.5945833304
 20
5.7978433419
 10
19.701527597
 20
5.9009894254
 10
19.8042279624
 20
6.0119169409
 10
19.9026022133
 20
6.1307766313
 10
19.9967325631
 20
6.2574177538
 10
20.0848072066
 20
6.3894027414
 10
20.166708832
 20
6.5268351162
 10
20.2425547511
 20
6.669611356
 10
20.3108850945
 20
6.8149833279
 10
20.3715542696
 20
6.9630013169
 10
20.424707869
 20
7.1136150379
 10
20.4693228012
 20
7.2639255036
 10
20.5052336541
 20
7.4139268393
 10
20.5326058398
 20
7.5636249196
 10
20.550912503
 20
7.7101383811
 10
20.5599780254
 20
7.8534055311
 10
20.5599780254
 20
7.9934880623
 10
20.5562018074
 20
8.0493893758
  0
LINE
  5
398
100
AcDbEntity
  8
RACCORDO
100
AcDbLine
 62
7
  6
CONTINUOUS
 10
19.4220690068
 20
4.7439771207
 11
5.7145484722
 21
-2.433213982
  0
LINE
  5
399
100
AcDbEntity
  8
ASSI
100
AcDbLine
 62
7
  6
CONTINUOUS
 10
19.4220690068
 20
4.7439771207
 11
5.7145484722
 21
-2.433213982
  0
LINE
  5
39A
100
AcDbEntity
  8
RACCORDO
100
AcDbLine
 62
7
  6
CONTINUOUS
 10
18.5841208522
 20
5.3122238511
 11
17.8742179436
 21
4.9489716439
  0
LINE
  5
39B
100
AcDbEntity
  8
ASSI
100
AcDbLine
 62
7
  6
CONTINUOUS
 10
18.5841208522
 20
5.3122238511
 11
17.8742179436
 21
4.9489716439
  0
LINE
  5
39C
100
AcDbEntity
  8
RACCORDO
100
AcDbLine
 62
7
  6
CONTINUOUS
 10
24.3116157656
 20
6.340222578
 11
20.6867166894
 21
4.4870348849
  0
LINE
  5
39D
100
AcDbEntity
  8
ASSI
100
AcDbLine
 62
7
  6
CONTINUOUS
 10
24.3116157656
 20
6.340222578
 11
20.6867166894
 21
4.4870348849
  0
LINE
  5
39E
100
AcDbEntity
  8
DRAFT
100
AcDbLine
 62
7
  6
CONTINUOUS
 10
22.5472935269
 20
6.1713616629
 11
19.941184615
 21
4.8627113449
  0
LINE
  5
39F
100
AcDbEntity
  8
ASSI
100
AcDbLine
 62
7
  6
CONTINUOUS
 10
22.5472935269
 20
6.1713616629
 11
19.941184615
 21
4.8627113449
  0
LINE
  5
3A0
100
AcDbEntity
  8
0
100
AcDbLine
 62
7
  6
CONTINUOUS
 10
20.9147771027
 20
5.6759752048
 11
19.2618273957
 21
4.8495003513
  0
LINE
  5
3A1
100
AcDbEntity
  8
RACCORDO
100
AcDbLine
 62
7
  6
CONTINUOUS
 10
24.3088896524
 20
7.0464693089
 11
22.5411226995
 21
6.1745782878
  0
LINE
  5
3A2
100
AcDbEntity
  8
ASSI
100
AcDbLine
 62
7
  6
CONTINUOUS
 10
24.3088896524
 20
7.0464693089
 11
22.5411226995
 21
6.1745782878
  0
LWPOLYLINE
  5
3A3
100
AcDbEntity
  8
RACCORDO
100
AcDbPolyline
 62
7
  6
CONTINUOUS
 90
11
 70
0
 10
5.7145484722
 20
-2.433213982
 10
5.6378501264
 20
-2.4684931354
 10
5.5632012778
 20
-2.4941623429
 10
5.4906019265
 20
-2.5102216045
 10
5.4194787172
 20
-2.5166526883
 10
5.3504050051
 20
-2.5134738261
 10
5.285100856
 20
-2.500739714
 10
5.2235644171
 20
-2.478138342
 10
5.165797541
 20
-2.4459817199
 10
5.1135258517
 20
-2.4052605734
 10
5.0952079722
 20
-2.3875308214
  0
LWPOLYLINE
  5
3A4
100
AcDbEntity
  8
ASSI
100
AcDbPolyline
 62
7
  6
CONTINUOUS
 90
11
 70
0
 10
5.7145484722
 20
-2.433213982
 10
5.6378501264
 20
-2.4684931354
 10
5.5632012778
 20
-2.4941623429
 10
5.4906019265
 20
-2.5102216045
 10
5.4194787172
 20
-2.5166526883
 10
5.3504050051
 20
-2.5134738261
 10
5.285100856
 20
-2.500739714
 10
5.2235644171
 20
-2.478138342
 10
5.165797541
 20
-2.4459817199
 10
5.1135258517
 20
-2.4052605734
 10
5.0952079722
 20
-2.3875308214
  0
LWPOLYLINE
  5
3A5
100
AcDbEntity
  8
DRAFT
100
AcDbPolyline
 62
7
  6
CONTINUOUS
 90
5
 70
0
 10
19.941184615
 20
4.8627113449
 10
19.8236748753
 20
4.8089721541
 10
19.7084384833
 20
4.7674279989
 10
19.595475439
 20
4.7380788792
 10
19.4841683311
 20
4.7208978066
  0
LWPOLYLINE
  5
3A6
100
AcDbEntity
  8
ASSI
100
AcDbPolyline
 62
7
  6
CONTINUOUS
 90
5
 70
0
 10
19.941184615
 20
4.8627113449
 10
19.8236748753
 20
4.8089721541
 10
19.7084384833
 20
4.7674279989
 10
19.595475439
 20
4.7380788792
 10
19.4841683311
 20
4.7208978066
  0
LWPOLYLINE
  5
3A7
100
AcDbEntity
  8
RACCORDO
100
AcDbPolyline
 62
7
  6
CONTINUOUS
 90
3
 70
0
 10
6.0572564426
 20
7.801434676
 10
6.0347699762
 20
7.7951831307
 10
5.9326919853
 20
7.7604020846
  0
LINE
  5
3A8
100
AcDbEntity
  8
ASSI
100
AcDbLine
 62
7
  6
CONTINUOUS
 10
19.4854536079
 20
9.0679051469
 11
19.4343760962
 21
9.0551260689
  0
LINE
  5
3A9
100
AcDbEntity
  8
DRAFT
100
AcDbLine
 62
7
  6
CONTINUOUS
 10
19.4841683311
 20
4.7208978066
 11
19.4383931735
 21
4.718804541
  0
LINE
  5
3AA
100
AcDbEntity
  8
ASSI
100
AcDbLine
 62
7
  6
CONTINUOUS
 10
19.4841683311
 20
4.7208978066
 11
19.4383931735
 21
4.718804541
  0
LINE
  5
3AB
100
AcDbEntity
  8
0
100
AcDbLine
 62
7
  6
CONTINUOUS
 10
5.2726471484
 20
2.8309656147
 11
5.0061208585
 21
2.9642287597
  0
LINE
  5
3AC
100
AcDbEntity
  8
RACCORDO
100
AcDbLine
 62
7
  6
CONTINUOUS
 10
-4.404790939
 20
8.8913349947
 11
-5.7380032727
 21
9.5579411615
  0
LINE
  5
3AD
100
AcDbEntity
  8
RACCORDO
100
AcDbLine
 62
7
  6
CONTINUOUS
 10
-17.7691091035
 20
15.5734940769
 11
-19.1023214371
 21
16.2401002437
  0
LINE
  5
3AE
100
AcDbEntity
  8
RACCORDO
100
AcDbLine
 62
7
  6
CONTINUOUS
 10
-14.1556563473
 20
14.1430143235
 11
-8.6443492477
 21
11.3873607737
  0
LWPOLYLINE
  5
3AF
100
AcDbEntity
  8
RACCORDO
100
AcDbPolyline
 62
253
  6
CONTINUOUS
 90
16
 70
0
 10
-19.8053143914
 20
17.2034026669
 10
-19.8142914586
 20
17.208131676
 10
-19.8227631512
 20
17.2130882945
 10
-19.8307064206
 20
17.2182590371
 10
-19.8380996556
 20
17.2236298359
 10
-19.8449227419
 20
17.2291860787
 10
-19.8511571159
 20
17.2349126489
 10
-19.8567858161
 20
17.2407939663
 10
-19.8617935286
 20
17.2468140298
 10
-19.866166629
 20
17.2529564609
 10
-19.8698932197
 20
17.2592045479
 10
-19.8729631617
 20
17.2655412919
 10
-19.8753681028
 20
17.2719494528
 10
-19.8771015
 20
17.2784115959
 10
-19.8781586373
 20
17.2849101401
 10
-19.8785376961
 20
17.2917910146
  0
LWPOLYLINE
  5
3B0
100
AcDbEntity
  8
RACCORDO
100
AcDbPolyline
 62
253
  6
CONTINUOUS
 90
16
 70
0
 10
-19.8053143914
 20
17.5433766011
 10
-19.8142914586
 20
17.5481056101
 10
-19.8227631512
 20
17.5530622286
 10
-19.8307064206
 20
17.5582329712
 10
-19.8380996556
 20
17.56360377
 10
-19.8449227419
 20
17.5691600129
 10
-19.8511571159
 20
17.574886583
 10
-19.8567858161
 20
17.5807679004
 10
-19.8617935286
 20
17.586787964
 10
-19.866166629
 20
17.592930395
 10
-19.8698932197
 20
17.599178482
 10
-19.8729631617
 20
17.605515226
 10
-19.8753681028
 20
17.6119233869
 10
-19.8771015
 20
17.6183855301
 10
-19.8781586373
 20
17.6248840742
 10
-19.8785376961
 20
17.6317649487
  0
LWPOLYLINE
  5
3B1
100
AcDbEntity
  8
RACCORDO
100
AcDbPolyline
 62
253
  6
CONTINUOUS
 90
16
 70
0
 10
-6.440996227
 20
10.5212435847
 10
-6.4499732942
 20
10.5259725938
 10
-6.4584449868
 20
10.5309292123
 10
-6.4663882561
 20
10.5360999549
 10
-6.4737814912
 20
10.5414707537
 10
-6.4806045774
 20
10.5470269965
 10
-6.4868389515
 20
10.5527535667
 10
-6.4924676516
 20
10.5586348841
 10
-6.4974753641
 20
10.5646549476
 10
-6.5018484646
 20
10.5707973787
 10
-6.5055750552
 20
10.5770454657
 10
-6.5086449973
 20
10.5833822097
 10
-6.5110499384
 20
10.5897903705
 10
-6.5127833356
 20
10.5962525137
 10
-6.5138404728
 20
10.6027510579
 10
-6.5142195317
 20
10.6096319324
  0
LINE
  5
3B2
100
AcDbEntity
  8
RACCORDO
100
AcDbLine
 62
253
  6
CONTINUOUS
 10
4.9225116621
 20
2.5528536861
 11
5.7145484722
 21
1.896913037
  0
LINE
  5
3B3
100
AcDbEntity
  8
ASSI
100
AcDbLine
 62
253
  6
CONTINUOUS
 10
4.9225116621
 20
2.5528536861
 11
5.7145484722
 21
1.896913037
  0
LWPOLYLINE
  5
3B4
100
AcDbEntity
  8
RACCORDO
100
AcDbPolyline
 62
7
  6
CONTINUOUS
 90
25
 70
0
 10
5.0952079722
 20
1.9425961975
 10
5.0670117514
 20
1.9742413021
 10
5.0259928378
 20
2.0321806832
 10
4.9914075281
 20
2.0974263064
 10
4.9633347966
 20
2.1704251269
 10
4.941695669
 20
2.2507301895
 10
4.92719164
 20
2.3357423466
 10
4.9200565414
 20
2.4252704084
 10
4.9200565414
 20
2.5195055647
 10
4.92719164
 20
2.6164222374
 10
4.941695669
 20
2.7164537562
 10
4.9633347966
 20
2.8191667914
 10
4.9914075281
 20
2.9212357764
 10
5.0259928378
 20
3.0222955362
 10
5.0670117514
 20
3.1227112457
 10
5.1135258517
 20
3.2202528632
 10
5.165797541
 20
3.3151029286
 10
5.2235644171
 20
3.4070789019
 10
5.285100856
 20
3.4934031219
 10
5.3504050051
 20
3.57376166
 10
5.4194787172
 20
3.6484684449
 10
5.4906019265
 20
3.7156876003
 10
5.5632012778
 20
3.7748071678
 10
5.6378501264
 20
3.8264391059
 10
5.7145484722
 20
3.8705834146
  0
LWPOLYLINE
  5
3B5
100
AcDbEntity
  8
ASSI
100
AcDbPolyline
 62
7
  6
CONTINUOUS
 90
25
 70
0
 10
5.0952079722
 20
1.9425961975
 10
5.0670117514
 20
1.9742413021
 10
5.0259928378
 20
2.0321806832
 10
4.9914075281
 20
2.0974263064
 10
4.9633347966
 20
2.1704251269
 10
4.941695669
 20
2.2507301895
 10
4.92719164
 20
2.3357423466
 10
4.9200565414
 20
2.4252704084
 10
4.9200565414
 20
2.5195055647
 10
4.92719164
 20
2.6164222374
 10
4.941695669
 20
2.7164537562
 10
4.9633347966
 20
2.8191667914
 10
4.9914075281
 20
2.9212357764
 10
5.0259928378
 20
3.0222955362
 10
5.0670117514
 20
3.1227112457
 10
5.1135258517
 20
3.2202528632
 10
5.165797541
 20
3.3151029286
 10
5.2235644171
 20
3.4070789019
 10
5.285100856
 20
3.4934031219
 10
5.3504050051
 20
3.57376166
 10
5.4194787172
 20
3.6484684449
 10
5.4906019265
 20
3.7156876003
 10
5.5632012778
 20
3.7748071678
 10
5.6378501264
 20
3.8264391059
 10
5.7145484722
 20
3.8705834146
  0
LWPOLYLINE
  5
3B6
100
AcDbEntity
  8
RACCORDO
100
AcDbPolyline
 62
7
  6
CONTINUOUS
 90
4
 70
0
 10
8.1161443633
 20
9.1597024755
 10
8.113119992
 20
9.251062136
 10
8.1037202622
 20
9.3443249888
 10
8.0915749283
 20
9.4175938907
  0
LINE
  5
3B7
100
AcDbEntity
  8
RACCORDO
100
AcDbLine
 62
7
  6
CONTINUOUS
 10
7.6918802945
 20
9.212976148
 11
7.6918802945
 21
8.3989968167
  0
LINE
  5
3B8
100
AcDbEntity
  8
RACCORDO
100
AcDbLine
 62
7
  6
CONTINUOUS
 10
7.6918802945
 20
4.8828491291
 11
7.6918802945
 21
4.0688697978
  0
LINE
  5
3B9
100
AcDbEntity
  8
RACCORDO
100
AcDbLine
 62
7
  6
CONTINUOUS
 10
7.6918802945
 20
0.5527221102
 11
7.6918802945
 21
-0.2612572211
  0
LINE
  5
3BA
100
AcDbEntity
  8
RACCORDO
100
AcDbLine
 62
7
  6
CONTINUOUS
 10
7.6918802945
 20
-3.7774049087
 11
7.6918802945
 21
-4.59138424
  0
LINE
  5
3BB
100
AcDbEntity
  8
RACCORDO
100
AcDbLine
 62
7
  6
CONTINUOUS
 10
7.6918802945
 20
-8.1075319277
 11
7.6918802945
 21
-8.921511259
  0
LINE
  5
3BC
100
AcDbEntity
  8
RACCORDO
100
AcDbLine
 62
7
  6
CONTINUOUS
 10
7.6918802945
 20
-12.4376589466
 11
7.6918802945
 21
-13.2516382779
  0
LINE
  5
3BD
100
AcDbEntity
  8
RACCORDO
100
AcDbLine
 62
7
  6
CONTINUOUS
 10
7.6918802945
 20
-16.7677859655
 11
7.6918802945
 21
-17.5817652968
  0
LINE
  5
3BE
100
AcDbEntity
  8
RACCORDO
100
AcDbLine
 62
7
  6
CONTINUOUS
 10
8.1161443633
 20
-16.5505902648
 11
8.1161443633
 21
-18.3799053649
  0
LWPOLYLINE
  5
3BF
100
AcDbEntity
  8
RACCORDO
100
AcDbPolyline
 62
253
  6
CONTINUOUS
 90
31
 70
0
 10
-2.6339416249
 20
-30.3827623775
 10
-2.6295984836
 20
-30.3705387966
 10
-2.6257506746
 20
-30.3581056062
 10
-2.6224091059
 20
-30.3454965471
 10
-2.6195830816
 20
-30.3327447032
 10
-2.6172810817
 20
-30.3198859443
 10
-2.6155102493
 20
-30.3069589106
 10
-2.6142755183
 20
-30.2940002172
 10
-2.6135800554
 20
-30.2810439544
 10
-2.6134257626
 20
-30.2681251835
 10
-2.6138131124
 20
-30.2552789782
 10
-2.6147410942
 20
-30.2425406462
 10
-2.6162071704
 20
-30.2299453008
 10
-2.6182073161
 20
-30.2175274564
 10
-2.6207360791
 20
-30.2053209159
 10
-2.6237865603
 20
-30.1933589913
 10
-2.6273504376
 20
-30.1816743383
 10
-2.6314179759
 20
-30.1702988939
 10
-2.6359780572
 20
-30.1592637576
 10
-2.6410182218
 20
-30.1485990792
 10
-2.6465247064
 20
-30.1383339793
 10
-2.6524824705
 20
-30.1284964962
 10
-2.658875251
 20
-30.1191134863
 10
-2.6656855778
 20
-30.1102105935
 10
-2.6728948157
 20
-30.1018121721
 10
-2.6804832451
 20
-30.0939411768
 10
-2.6884301552
 20
-30.0866190731
 10
-2.6967138721
 20
-30.0798658246
 10
-2.7053117827
 20
-30.0736998675
 10
-2.7142003913
 20
-30.0681380529
 10
-2.7233554203
 20
-30.0631955715
  0
LWPOLYLINE
  5
3C0
100
AcDbEntity
  8
RACCORDO
100
AcDbPolyline
 62
253
  6
CONTINUOUS
 90
3
 70
0
 10
7.6918802945
 20
-0.1370168532
 10
7.6188415624
 20
-0.2472065236
 10
7.5727524011
 20
-0.3222141065
  0
LWPOLYLINE
  5
3C1
100
AcDbEntity
  8
ASSI
100
AcDbPolyline
 62
7
  6
CONTINUOUS
 90
6
 70
0
 10
-12.5415441997
 20
-15.9655339283
 10
-12.5283475986
 20
-15.9575202395
 10
-12.5131012169
 20
-15.943851037
 10
-12.5002544897
 20
-15.9267268605
 10
-12.490027228
 20
-15.9064407094
 10
-12.489407979
 20
-15.9045160947
  0
LINE
  5
3C2
100
AcDbEntity
  8
DRAFT
100
AcDbLine
 62
7
  6
CONTINUOUS
 10
-13.8268298807
 20
-16.7767943705
 11
-12.4919500451
 21
-16.0635182885
  0
LINE
  5
3C3
100
AcDbEntity
  8
RACCORDO
100
AcDbLine
 62
7
  6
CONTINUOUS
 10
-13.5306334141
 20
-16.9519732586
 11
-13.5313259598
 21
-16.9523387465
  0
LINE
  5
3C4
100
AcDbEntity
  8
RACCORDO
100
AcDbLine
 62
7
  6
CONTINUOUS
 10
24.3116157656
 20
2.9739930106
 11
5.7145484722
 21
-6.7633410009
  0
LINE
  5
3C5
100
AcDbEntity
  8
ASSI
100
AcDbLine
 62
7
  6
CONTINUOUS
 10
24.3116157656
 20
2.9739930106
 11
5.7145484722
 21
-6.7633410009
  0
LWPOLYLINE
  5
3C6
100
AcDbEntity
  8
RACCORDO
100
AcDbPolyline
 62
253
  6
CONTINUOUS
 90
17
 70
0
 10
-13.5313259598
 20
-16.9523387465
 10
-13.5674935989
 20
-16.9711126226
 10
-13.6753704666
 20
-17.0235523427
 10
-13.7853280262
 20
-17.0717636231
 10
-13.8973068713
 20
-17.115719382
 10
-14.0112400766
 20
-17.1553922787
 10
-14.1270670477
 20
-17.190761906
 10
-14.2447268327
 20
-17.221808907
 10
-14.3641472359
 20
-17.2485133921
 10
-14.4852483237
 20
-17.2708602119
 10
-14.6079533487
 20
-17.2888373277
 10
-14.732198374
 20
-17.3024372925
 10
-14.8579207223
 20
-17.3116573477
 10
-14.9850344747
 20
-17.3164933083
 10
-15.1134802162
 20
-17.3169447855
 10
-15.2432353491
 20
-17.3130136113
 10
-15.2973552543
 20
-17.3095782295
  0
LINE
  5
3C7
100
AcDbEntity
  8
RACCORDO
100
AcDbLine
 62
7
  6
CONTINUOUS
 10
24.3116157656
 20
4.7308222952
 11
5.7145484722
 21
-4.7896706233
  0
LINE
  5
3C8
100
AcDbEntity
  8
ASSI
100
AcDbLine
 62
7
  6
CONTINUOUS
 10
24.3116157656
 20
4.7308222952
 11
5.7145484722
 21
-4.7896706233
  0
LINE
  5
3C9
100
AcDbEntity
  8
RACCORDO
100
AcDbLine
 62
7
  6
CONTINUOUS
 10
23.2482294807
 20
3.368687637
 11
17.8742179436
 21
0.618844625
  0
LINE
  5
3CA
100
AcDbEntity
  8
ASSI
100
AcDbLine
 62
7
  6
CONTINUOUS
 10
23.2482294807
 20
3.368687637
 11
17.8742179436
 21
0.618844625
  0
LINE
  5
3CB
100
AcDbEntity
  8
0
100
AcDbLine
 62
7
  6
CONTINUOUS
 10
23.1068081244
 20
3.396097045
 11
17.8742179436
 21
0.7798019546
  0
LINE
  5
3CC
100
AcDbEntity
  8
RACCORDO
100
AcDbLine
 62
7
  6
CONTINUOUS
 10
24.3088896524
 20
3.8990177229
 11
23.2482294807
 21
3.368687637
  0
LINE
  5
3CD
100
AcDbEntity
  8
ASSI
100
AcDbLine
 62
7
  6
CONTINUOUS
 10
24.3088896524
 20
3.8990177229
 11
23.2482294807
 21
3.368687637
  0
LINE
  5
3CE
100
AcDbEntity
  8
0
100
AcDbLine
 62
7
  6
CONTINUOUS
 10
23.5310721931
 20
3.1839650106
 11
17.8742179436
 21
0.3555378859
  0
LINE
  5
3CF
100
AcDbEntity
  8
0
100
AcDbLine
 62
7
  6
CONTINUOUS
 10
-12.5415441997
 20
-15.9655339283
 11
-12.7496686123
 21
-16.0695961346
  0
LWPOLYLINE
  5
3D0
100
AcDbEntity
  8
0
100
AcDbPolyline
 62
7
  6
CONTINUOUS
 90
22
 70
0
 10
-13.8631618079
 20
-16.7511145893
 10
-13.4154032085
 20
-16.5284971018
 10
-12.9937074808
 20
-16.2228752859
 10
-12.6217871807
 20
-15.8480741257
 10
-12.3012664299
 20
-15.4018363692
 10
-12.0305211065
 20
-14.8864192684
 10
-11.8182903075
 20
-14.3184594173
 10
-11.6664833027
 20
-13.6962423989
 10
-11.5731908222
 20
-13.0214826302
 10
-11.5414241537
 20
-12.3159599555
 10
-11.5731908222
 20
-11.5786706124
 10
-11.6664833027
 20
-10.8106183632
 10
-11.8182903075
 20
-10.03659434
 10
-12.0305211065
 20
-9.2564036899
 10
-12.3012664299
 20
-8.4702412658
 10
-12.6217871807
 20
-7.7034827584
 10
-12.9937074808
 20
-6.9567612981
 10
-13.4154032085
 20
-6.2294437546
 10
-13.873262901
 20
-5.5450064281
 10
-14.368466552
 20
-4.9048484569
 10
-14.899834168
 20
-4.3075707027
 10
-15.4502143054
 20
-3.7724520513
  0
LWPOLYLINE
  5
3D1
100
AcDbEntity
  8
RACCORDO
100
AcDbPolyline
 62
7
  6
CONTINUOUS
 90
11
 70
0
 10
5.7145484722
 20
-6.7633410009
 10
5.6378501264
 20
-6.7986201543
 10
5.5632012778
 20
-6.8242893618
 10
5.4906019265
 20
-6.8403486234
 10
5.4194787172
 20
-6.8467797072
 10
5.3504050051
 20
-6.8436008451
 10
5.285100856
 20
-6.8308667329
 10
5.2235644171
 20
-6.8082653609
 10
5.165797541
 20
-6.7761087388
 10
5.1135258517
 20
-6.7353875923
 10
5.0952079722
 20
-6.7176578404
  0
LWPOLYLINE
  5
3D2
100
AcDbEntity
  8
ASSI
100
AcDbPolyline
 62
7
  6
CONTINUOUS
 90
11
 70
0
 10
5.7145484722
 20
-6.7633410009
 10
5.6378501264
 20
-6.7986201543
 10
5.5632012778
 20
-6.8242893618
 10
5.4906019265
 20
-6.8403486234
 10
5.4194787172
 20
-6.8467797072
 10
5.3504050051
 20
-6.8436008451
 10
5.285100856
 20
-6.8308667329
 10
5.2235644171
 20
-6.8082653609
 10
5.165797541
 20
-6.7761087388
 10
5.1135258517
 20
-6.7353875923
 10
5.0952079722
 20
-6.7176578404
  0
LINE
  5
3D3
100
AcDbEntity
  8
ASSI
100
AcDbLine
 62
7
  6
CONTINUOUS
 10
19.4854536079
 20
13.3980321658
 11
19.4343760962
 21
13.3852530878
  0
LWPOLYLINE
  5
3D4
100
AcDbEntity
  8
ASSI
100
AcDbPolyline
 62
7
  6
CONTINUOUS
 90
5
 70
0
 10
18.6994369691
 20
9.6803971802
 10
18.8085666916
 20
9.6961475898
 10
18.9191957217
 20
9.7238258568
 10
19.0320102078
 20
9.7634563503
 10
19.1470101498
 20
9.8150390702
  0
LINE
  5
3D5
100
AcDbEntity
  8
DRAFT
100
AcDbLine
 62
7
  6
CONTINUOUS
 10
19.4841683311
 20
9.0510248256
 11
19.4383931735
 21
9.0489315599
  0
LINE
  5
3D6
100
AcDbEntity
  8
ASSI
100
AcDbLine
 62
7
  6
CONTINUOUS
 10
19.4841683311
 20
9.0510248256
 11
19.4383931735
 21
9.0489315599
  0
LWPOLYLINE
  5
3D7
100
AcDbEntity
  8
ASSI
100
AcDbPolyline
 62
7
  6
CONTINUOUS
 90
3
 70
0
 10
19.6644973183
 20
9.0861385893
 10
19.5945833304
 20
9.0836555565
 10
19.4854536079
 20
9.0679051469
  0
LWPOLYLINE
  5
3D8
100
AcDbEntity
  8
ASSI
100
AcDbPolyline
 62
7
  6
CONTINUOUS
 90
3
 70
0
 10
18.4897923371
 20
5.3546991283
 10
18.5924927025
 20
5.3464719782
 10
18.6994369691
 20
5.3502701613
  0
LINE
  5
3D9
100
AcDbEntity
  8
RACCORDO
100
AcDbLine
 62
7
  6
CONTINUOUS
 10
-4.990333081
 20
9.7024173602
 11
-4.366137484
 21
9.5720847404
  0
LINE
  5
3DA
100
AcDbEntity
  8
RACCORDO
100
AcDbLine
 62
253
  6
CONTINUOUS
 10
-4.7634895875
 20
9.858238521
 11
-4.0522689794
 21
9.7097349981
  0
LWPOLYLINE
  5
3DB
100
AcDbEntity
  8
RACCORDO
100
AcDbPolyline
 62
253
  6
CONTINUOUS
 90
15
 70
0
 10
-6.265247971
 20
11.1655943338
 10
-6.2745296597
 20
11.1698872203
 10
-6.2837890234
 20
11.1735813581
 10
-6.2930006963
 20
11.1766655158
 10
-6.3021412651
 20
11.1791305492
 10
-6.3111835855
 20
11.1809678206
 10
-6.3200970956
 20
11.1821705494
 10
-6.3288554552
 20
11.1827353845
 10
-6.337436615
 20
11.1826611103
 10
-6.3458172812
 20
11.1819479029
 10
-6.3539746154
 20
11.1805976331
 10
-6.3618860684
 20
11.1786139585
 10
-6.3695297009
 20
11.1760023546
 10
-6.3768844634
 20
11.1727700329
 10
-6.3783336371
 20
11.1720423089
  0
LWPOLYLINE
  5
3DC
100
AcDbEntity
  8
RACCORDO
100
AcDbPolyline
 62
253
  6
CONTINUOUS
 90
15
 70
0
 10
-19.6295661354
 20
17.847753416
 10
-19.6388720083
 20
17.8520567189
 10
-19.6481495637
 20
17.8557559855
 10
-19.6573733621
 20
17.8588410686
 10
-19.6665181196
 20
17.8613035069
 10
-19.6755587516
 20
17.8631365411
 10
-19.6844704418
 20
17.8643351384
 10
-19.6932287486
 20
17.8648960135
 10
-19.7018096625
 20
17.864817631
 10
-19.7101896469
 20
17.8641002082
 10
-19.7183457231
 20
17.8627457158
 10
-19.7262555298
 20
17.8607578712
 10
-19.7338973765
 20
17.8581421294
 10
-19.7412503194
 20
17.8549056624
 10
-19.7426446436
 20
17.854205063
  0
LWPOLYLINE
  5
3DD
100
AcDbEntity
  8
RACCORDO
100
AcDbPolyline
 62
7
  6
CONTINUOUS
 90
16
 70
0
 10
-4.6824913678
 20
11.9775784311
 10
-4.6909024433
 20
11.981538915
 10
-4.6992946609
 20
11.9849998937
 10
-4.7076489086
 20
11.9879535775
 10
-4.7159460826
 20
11.9903933656
 10
-4.7241673809
 20
11.9923137318
 10
-4.7322943467
 20
11.9937102371
 10
-4.7403085121
 20
11.9945797457
 10
-4.7481916315
 20
11.9949203323
 10
-4.7559259737
 20
11.9947311569
 10
-4.7634939812
 20
11.9940126651
 10
-4.7708784382
 20
11.9927665194
 10
-4.7780627007
 20
11.9909954968
 10
-4.7850304794
 20
11.9887036155
 10
-4.7917659386
 20
11.9858960924
 10
-4.7934235588
 20
11.985108588
  0
LWPOLYLINE
  5
3DE
100
AcDbEntity
  8
RACCORDO
100
AcDbPolyline
 62
7
  6
CONTINUOUS
 90
16
 70
0
 10
-18.0468095323
 20
18.6597375134
 10
-18.0552206077
 20
18.6636979972
 10
-18.0636128253
 20
18.667158976
 10
-18.071967073
 20
18.6701126597
 10
-18.080264247
 20
18.6725524478
 10
-18.0884855454
 20
18.674472814
 10
-18.0966125112
 20
18.6758693193
 10
-18.1046266765
 20
18.676738828
 10
-18.1125097959
 20
18.6770794145
 10
-18.1202441381
 20
18.6768902391
 10
-18.1278121456
 20
18.6761717473
 10
-18.1351966026
 20
18.6749256016
 10
-18.1423808651
 20
18.673154579
 10
-18.1493486438
 20
18.6708626977
 10
-18.156084103
 20
18.6680551746
 10
-18.1577417232
 20
18.6672676702
  0
LWPOLYLINE
  5
3DF
100
AcDbEntity
  8
RACCORDO
100
AcDbPolyline
 62
253
  6
CONTINUOUS
 90
14
 70
0
 10
-4.1480414892
 20
12.2379258977
 10
-4.1572404988
 20
12.2422807344
 10
-4.1664171145
 20
12.2460288327
 10
-4.1755461848
 20
12.2491599197
 10
-4.1846026886
 20
12.2516654138
 10
-4.1935618038
 20
12.2535384478
 10
-4.2023989751
 20
12.2547738881
 10
-4.2110899815
 20
12.2553683486
 10
-4.2196110026
 20
12.2553201999
 10
-4.2279386838
 20
12.2546295742
 10
-4.2360502006
 20
12.2532983641
 10
-4.2439233208
 20
12.2513302184
 10
-4.2515364656
 20
12.2487305313
 10
-4.2585536003
 20
12.2456606888
  0
LWPOLYLINE
  5
3E0
100
AcDbEntity
  8
RACCORDO
100
AcDbPolyline
 62
253
  6
CONTINUOUS
 90
31
 70
0
 10
-5.1160115471
 20
9.8587512448
 10
-5.106553529
 20
9.8542627112
 10
-5.096640292
 20
9.8500268649
 10
-5.0862988068
 20
9.8460552302
 10
-5.0755572092
 20
9.8423586127
 10
-5.0644447235
 20
9.8389470696
 10
-5.0529915832
 20
9.8358298826
 10
-5.0412289484
 20
9.8330155325
 10
-5.0291888213
 20
9.8305116762
 10
-5.0169039593
 20
9.828325126
 10
-5.0044077852
 20
9.8264618307
 10
-4.9917342972
 20
9.8249268596
 10
-4.9789179755
 20
9.8237243891
 10
-4.9659936891
 20
9.8228576905
 10
-4.9529966008
 20
9.8223291219
 10
-4.9399620713
 20
9.8221401213
 10
-4.9269255633
 20
9.822291203
 10
-4.9139225449
 20
9.8227819559
 10
-4.9009883928
 20
9.8236110448
 10
-4.8881582967
 20
9.824776214
 10
-4.875467163
 20
9.8262742936
 10
-4.8629495201
 20
9.8281012077
 10
-4.8506394244
 20
9.8302519859
 10
-4.8385703676
 20
9.8327207767
 10
-4.8267751856
 20
9.8355008632
 10
-4.8152859692
 20
9.8385846818
 10
-4.8041339767
 20
9.8419638425
 10
-4.793349549
 20
9.8456291516
 10
-4.782962027
 20
9.8495706371
 10
-4.7729996718
 20
9.8537775754
 10
-4.7634895875
 20
9.858238521
  0
LWPOLYLINE
  5
3E1
100
AcDbEntity
  8
RACCORDO
100
AcDbPolyline
 62
253
  6
CONTINUOUS
 90
31
 70
0
 10
-18.4803297116
 20
16.540910327
 10
-18.4708716934
 20
16.5364217934
 10
-18.4609584564
 20
16.5321859471
 10
-18.4506169712
 20
16.5282143124
 10
-18.4398753736
 20
16.5245176949
 10
-18.428762888
 20
16.5211061518
 10
-18.4173097476
 20
16.5179889648
 10
-18.4055471128
 20
16.5151746147
 10
-18.3935069857
 20
16.5126707584
 10
-18.3812221237
 20
16.5104842082
 10
-18.3687259496
 20
16.5086209129
 10
-18.3560524616
 20
16.5070859419
 10
-18.3432361399
 20
16.5058834713
 10
-18.3303118536
 20
16.5050167727
 10
-18.3173147652
 20
16.5044882041
 10
-18.3042802358
 20
16.5042992035
 10
-18.2912437278
 20
16.5044502852
 10
-18.2782407093
 20
16.5049410381
 10
-18.2653065572
 20
16.505770127
 10
-18.2524764611
 20
16.5069352962
 10
-18.2397853274
 20
16.5084333758
 10
-18.2272676846
 20
16.5102602899
 10
-18.2149575889
 20
16.5124110681
 10
-18.2028885321
 20
16.5148798589
 10
-18.19109335
 20
16.5176599454
 10
-18.1796041336
 20
16.520743764
 10
-18.1684521411
 20
16.5241229247
 10
-18.1576677134
 20
16.5277882338
 10
-18.1472801915
 20
16.5317297193
 10
-18.1373178362
 20
16.5359366576
 10
-18.1278077519
 20
16.5403976032
  0
LWPOLYLINE
  5
3E2
100
AcDbEntity
  8
RACCORDO
100
AcDbPolyline
 62
253
  6
CONTINUOUS
 90
31
 70
0
 10
-5.1160115471
 20
10.1987251789
 10
-5.1065513978
 20
10.1942356855
 10
-5.0966358112
 20
10.1899989834
 10
-5.0862917733
 20
10.1860266063
 10
-5.0755474251
 20
10.1823293647
 10
-5.0644320196
 20
10.1789173284
 10
-5.052975846
 20
10.1757997963
 10
-5.0412100968
 20
10.1729852551
 10
-5.0291667894
 20
10.1704813627
 10
-5.0168787168
 20
10.1682949356
 10
-5.0043793293
 20
10.1664319237
 10
-4.9917026475
 20
10.1648973959
 10
-4.9788831816
 20
10.1636955275
 10
-4.96595581
 20
10.1628295872
 10
-4.9529557349
 20
10.1623019312
 10
-4.9399183916
 20
10.1621139938
 10
-4.9268793202
 20
10.1622662791
 10
-4.9138739552
 20
10.1627583649
 10
-4.9009375809
 20
10.1635889146
 10
-4.8881052418
 20
10.1647556877
 10
-4.8754120347
 20
10.1662555024
 10
-4.8628928854
 20
10.1680842191
 10
-4.8505820887
 20
10.1702367885
 10
-4.838512884
 20
10.1727073585
 10
-4.8267177662
 20
10.1754892624
 10
-4.8152263437
 20
10.1785756416
 10
-4.8040725271
 20
10.1819575163
 10
-4.7932933715
 20
10.1856232754
 10
-4.7829196056
 20
10.1895615612
 10
-4.7729763016
 20
10.1937619138
 10
-4.7634895875
 20
10.1982124551
  0
LWPOLYLINE
  5
3E3
100
AcDbEntity
  8
RACCORDO
100
AcDbPolyline
 62
253
  6
CONTINUOUS
 90
31
 70
0
 10
-18.4803297116
 20
16.8808842611
 10
-18.4708716934
 20
16.8763957275
 10
-18.4609584564
 20
16.8721598812
 10
-18.4506169712
 20
16.8681882466
 10
-18.4398753736
 20
16.864491629
 10
-18.428762888
 20
16.8610800859
 10
-18.4173097476
 20
16.8579628989
 10
-18.4055471128
 20
16.8551485488
 10
-18.3935069857
 20
16.8526446926
 10
-18.3812221237
 20
16.8504581423
 10
-18.3687259496
 20
16.848594847
 10
-18.3560524616
 20
16.847059876
 10
-18.3432361399
 20
16.8458574054
 10
-18.3303118536
 20
16.8449907068
 10
-18.3173147652
 20
16.8444621382
 10
-18.3042802358
 20
16.8442731376
 10
-18.2912437278
 20
16.8444242193
 10
-18.2782407093
 20
16.8449149722
 10
-18.2653065572
 20
16.8457440611
 10
-18.2524764611
 20
16.8469092304
 10
-18.2397853274
 20
16.8484073099
 10
-18.2272676846
 20
16.8502342241
 10
-18.2149575889
 20
16.8523850023
 10
-18.2028885321
 20
16.854853793
 10
-18.19109335
 20
16.8576338795
 10
-18.1796041336
 20
16.8607176982
 10
-18.1684521411
 20
16.8640968588
 10
-18.1576677134
 20
16.8677621679
 10
-18.1472801915
 20
16.8717036534
 10
-18.1373178362
 20
16.8759105918
 10
-18.1278077519
 20
16.8803715373
  0
LWPOLYLINE
  5
3E4
100
AcDbEntity
  8
RACCORDO
100
AcDbPolyline
 62
7
  6
CONTINUOUS
 90
7
 70
0
 10
-5.0510381782
 20
9.7235327584
 10
-5.0423877107
 20
9.7194128094
 10
-5.0305514045
 20
9.7144138156
 10
-5.0184529048
 20
9.7100225326
 10
-5.0061213684
 20
9.7062533249
 10
-4.9935902888
 20
9.7031201537
 10
-4.9903330006
 20
9.7024173434
  0
LWPOLYLINE
  5
3E5
100
AcDbEntity
  8
RACCORDO
100
AcDbPolyline
 62
7
  6
CONTINUOUS
 90
7
 70
0
 10
-18.4153563426
 20
16.4056918406
 10
-18.4067058751
 20
16.4015718916
 10
-18.3948695689
 20
16.3965728978
 10
-18.3827710692
 20
16.3921816148
 10
-18.3704395328
 20
16.3884124071
 10
-18.3579084533
 20
16.385279236
 10
-18.354651165
 20
16.3845764256
  0
LINE
  5
3E6
100
AcDbEntity
  8
RACCORDO
100
AcDbLine
 62
7
  6
CONTINUOUS
 10
-19.740341095
 20
17.0681842168
 11
-18.4153564151
 21
16.4056918769
  0
LINE
  5
3E7
100
AcDbEntity
  8
RACCORDO
100
AcDbLine
 62
7
  6
CONTINUOUS
 10
-6.3760229305
 20
10.3860251346
 11
-5.0510382507
 21
9.7235327947
  0
LINE
  5
3E8
100
AcDbEntity
  8
RACCORDO
100
AcDbLine
 62
253
  6
CONTINUOUS
 10
-19.8053143914
 20
17.2034026669
 11
-18.4803297116
 21
16.540910327
  0
LINE
  5
3E9
100
AcDbEntity
  8
RACCORDO
100
AcDbLine
 62
253
  6
CONTINUOUS
 10
-6.440996227
 20
10.5212435847
 11
-5.1160115471
 21
9.8587512448
  0
LINE
  5
3EA
100
AcDbEntity
  8
RACCORDO
100
AcDbLine
 62
253
  6
CONTINUOUS
 10
-5.1160115471
 20
10.1987251789
 11
-6.440996227
 21
10.8612175188
  0
LINE
  5
3EB
100
AcDbEntity
  8
RACCORDO
100
AcDbLine
 62
253
  6
CONTINUOUS
 10
-18.4803297116
 20
16.8808842611
 11
-19.8053143914
 21
17.5433766011
  0
LINE
  5
3EC
100
AcDbEntity
  8
DRAFT
100
AcDbLine
 62
7
  6
CONTINUOUS
 10
-16.5265269611
 20
16.0809428798
 11
-14.3021029567
 21
14.9687308776
  0
LINE
  5
3ED
100
AcDbEntity
  8
DRAFT
100
AcDbLine
 62
7
  6
CONTINUOUS
 10
-7.5816261791
 20
11.6084924888
 11
-6.4876855778
 21
11.0615221882
  0
LINE
  5
3EE
100
AcDbEntity
  8
RACCORDO
100
AcDbLine
 62
253
  6
CONTINUOUS
 10
-4.9402632912
 20
10.5031019939
 11
-6.265247971
 21
11.1655943338
  0
LINE
  5
3EF
100
AcDbEntity
  8
RACCORDO
100
AcDbLine
 62
253
  6
CONTINUOUS
 10
-18.3045814556
 20
17.1852610761
 11
-19.6295661354
 21
17.847753416
  0
LINE
  5
3F0
100
AcDbEntity
  8
RACCORDO
100
AcDbLine
 62
253
  6
CONTINUOUS
 10
-8.6443492477
 20
12.4679440845
 11
-14.1556563473
 21
15.2235976343
  0
LINE
  5
3F1
100
AcDbEntity
  8
RACCORDO
100
AcDbLine
 62
253
  6
CONTINUOUS
 10
-8.2215268678
 20
12.570333649
 11
-14.2972815176
 21
15.6082109738
  0
LINE
  5
3F2
100
AcDbEntity
  8
RACCORDO
100
AcDbLine
 62
7
  6
CONTINUOUS
 10
-16.5265269611
 20
16.7804919718
 11
-15.1184842261
 21
16.0764706043
  0
LINE
  5
3F3
100
AcDbEntity
  8
RACCORDO
100
AcDbLine
 62
7
  6
CONTINUOUS
 10
-3.1622087967
 20
10.0983328896
 11
-2.4481365036
 21
9.7412967431
  0
LINE
  5
3F4
100
AcDbEntity
  8
DRAFT
100
AcDbLine
 62
7
  6
CONTINUOUS
 10
-13.8041658535
 20
15.9321978913
 11
-7.5816261791
 21
12.8209280541
  0
LINE
  5
3F5
100
AcDbEntity
  8
RACCORDO
100
AcDbLine
 62
7
  6
CONTINUOUS
 10
-18.0468095323
 20
18.6597375134
 11
-16.7033006648
 21
17.9879830796
  0
LINE
  5
3F6
100
AcDbEntity
  8
RACCORDO
100
AcDbLine
 62
7
  6
CONTINUOUS
 10
-4.6824913678
 20
11.9775784311
 11
-3.3389825003
 21
11.3058239974
  0
LINE
  5
3F7
100
AcDbEntity
  8
DRAFT
100
AcDbLine
 62
7
  6
CONTINUOUS
 10
-12.4606629693
 20
15.962514842
 11
-7.510915501
 21
13.4876411078
  0
LINE
  5
3F8
100
AcDbEntity
  8
RACCORDO
100
AcDbLine
 62
253
  6
CONTINUOUS
 10
-17.5123596536
 20
18.9200849799
 11
-16.175033493
 21
18.2514218996
  0
LINE
  5
3F9
100
AcDbEntity
  8
RACCORDO
100
AcDbLine
 62
253
  6
CONTINUOUS
 10
-4.1480414892
 20
12.2379258977
 11
-2.8107153286
 21
11.5692628174
  0
LINE
  5
3FA
100
AcDbEntity
  8
RACCORDO
100
AcDbLine
 62
7
  6
CONTINUOUS
 10
-17.401584694
 20
18.926674871
 11
-16.0642585335
 21
18.2580117908
  0
LINE
  5
3FB
100
AcDbEntity
  8
RACCORDO
100
AcDbLine
 62
7
  6
CONTINUOUS
 10
-4.0372665296
 20
12.2445157888
 11
-2.699940369
 21
11.5758527085
  0
LWPOLYLINE
  5
3FC
100
AcDbEntity
  8
RACCORDO
100
AcDbPolyline
 62
253
  6
CONTINUOUS
 90
16
 70
0
 10
-6.440996227
 20
10.8612175188
 10
-6.4499529283
 20
10.8659352244
 10
-6.4584117103
 20
10.8708826206
 10
-6.4663486882
 20
10.8760466997
 10
-6.4737427818
 20
10.8814149439
 10
-6.4805711712
 20
10.8869720736
 10
-6.4868105491
 20
10.892699718
 10
-6.4924427925
 20
10.8985810117
 10
-6.4974539716
 20
10.9046011555
 10
-6.5018305571
 20
10.9107439296
 10
-6.5055606513
 20
10.9169927404
 10
-6.508633966
 20
10.9233304774
 10
-6.5110420261
 20
10.929739713
 10
-6.5127782657
 20
10.9362029217
 10
-6.5138379989
 20
10.9427025912
 10
-6.5142195317
 20
10.9496055303
  0
LWPOLYLINE
  5
3FD
100
AcDbEntity
  8
RACCORDO
100
AcDbPolyline
 62
7
  6
CONTINUOUS
 90
22
 70
0
 10
-16.0642585335
 20
18.2580117908
 10
-16.0526019676
 20
18.2517932064
 10
-16.0412465848
 20
18.2449396005
 10
-16.0302357394
 20
18.2374683364
 10
-16.0196071773
 20
18.2293970686
 10
-16.0094056887
 20
18.220753313
 10
-15.9996807649
 20
18.2115763332
 10
-15.9905062464
 20
18.2019433091
 10
-15.9818679773
 20
18.1918492931
 10
-15.9736974827
 20
18.1811995075
 10
-15.9659966867
 20
18.1699505294
 10
-15.9588631627
 20
18.1581979427
 10
-15.9523761587
 20
18.1460503004
 10
-15.9465725268
 20
18.1335746084
 10
-15.9414618832
 20
18.1207925895
 10
-15.9370628449
 20
18.107749633
 10
-15.9333912536
 20
18.0944961037
 10
-15.9304562682
 20
18.081072515
 10
-15.9282626182
 20
18.0675033301
 10
-15.9268168463
 20
18.0538185692
 10
-15.9261261618
 20
18.0400716072
 10
-15.9260619327
 20
18.034411779
  0
LWPOLYLINE
  5
3FE
100
AcDbEntity
  8
RACCORDO
100
AcDbPolyline
 62
7
  6
CONTINUOUS
 90
34
 70
0
 10
-3.1622539235
 20
9.3987108746
 10
-3.1461044671
 20
9.389555013
 10
-3.1299471448
 20
9.3794571431
 10
-3.1138189582
 20
9.368434373
 10
-3.0977357219
 20
9.3564920536
 10
-3.0817567361
 20
9.3436640582
 10
-3.0659824508
 20
9.3300232088
 10
-3.0504624551
 20
9.31561718
 10
-3.0352153636
 20
9.3004718149
 10
-3.0202909409
 20
9.2846412194
 10
-3.0057512334
 20
9.2682035135
 10
-2.991592819
 20
9.2511676046
 10
-2.9777707611
 20
9.2334771315
 10
-2.964288873
 20
9.2151245139
 10
-2.9512129315
 20
9.1961865965
 10
-2.9385946063
 20
9.1767283234
 10
-2.9264552254
 20
9.1567777479
 10
-2.9148340043
 20
9.136393066
 10
-2.9038000214
 20
9.1156928758
 10
-2.8933764888
 20
9.0947330499
 10
-2.8835796454
 20
9.07355794
 10
-2.8744543839
 20
9.0522751856
 10
-2.8660190817
 20
9.0309578273
 10
-2.8582723726
 20
9.0096342203
 10
-2.8512219837
 20
8.9883453285
 10
-2.8448761965
 20
8.967150126
 10
-2.839234134
 20
8.9460833991
 10
-2.8342916239
 20
8.9251481484
 10
-2.830050962
 20
8.9043806568
 10
-2.8265162526
 20
8.8838322693
 10
-2.8236892539
 20
8.8635278063
 10
-2.8215712228
 20
8.8435032499
 10
-2.8201610904
 20
8.8238051936
 10
-2.8194565069
 20
8.8044732709
  0
LINE
  5
3FF
100
AcDbEntity
  8
RACCORDO
100
AcDbLine
 62
253
  6
CONTINUOUS
 10
4.9225116621
 20
6.8829807051
 11
5.7145484722
 21
6.2270400559
  0
LINE
  5
400
100
AcDbEntity
  8
ASSI
100
AcDbLine
 62
253
  6
CONTINUOUS
 10
4.9225116621
 20
6.8829807051
 11
5.7145484722
 21
6.2270400559
  0
LWPOLYLINE
  5
401
100
AcDbEntity
  8
RACCORDO
100
AcDbPolyline
 62
7
  6
CONTINUOUS
 90
25
 70
0
 10
5.0952079722
 20
6.2727232164
 10
5.0670117514
 20
6.304368321
 10
5.0259928378
 20
6.3623077021
 10
4.9914075281
 20
6.4275533253
 10
4.9633347966
 20
6.5005521458
 10
4.941695669
 20
6.5808572084
 10
4.92719164
 20
6.6658693656
 10
4.9200565414
 20
6.7553974273
 10
4.9200565414
 20
6.8496325836
 10
4.92719164
 20
6.9465492563
 10
4.941695669
 20
7.0465807751
 10
4.9633347966
 20
7.1492938103
 10
4.9914075281
 20
7.2513627953
 10
5.0259928378
 20
7.3524225551
 10
5.0670117514
 20
7.4528382646
 10
5.1135258517
 20
7.5503798822
 10
5.165797541
 20
7.6452299475
 10
5.2235644171
 20
7.7372059208
 10
5.285100856
 20
7.8235301408
 10
5.3504050051
 20
7.903888679
 10
5.4194787172
 20
7.9785954638
 10
5.4906019265
 20
8.0458146193
 10
5.5632012778
 20
8.1049341867
 10
5.6378501264
 20
8.1565661248
 10
5.7145484722
 20
8.2007104335
  0
LWPOLYLINE
  5
402
100
AcDbEntity
  8
ASSI
100
AcDbPolyline
 62
7
  6
CONTINUOUS
 90
25
 70
0
 10
5.0952079722
 20
6.2727232164
 10
5.0670117514
 20
6.304368321
 10
5.0259928378
 20
6.3623077021
 10
4.9914075281
 20
6.4275533253
 10
4.9633347966
 20
6.5005521458
 10
4.941695669
 20
6.5808572084
 10
4.92719164
 20
6.6658693656
 10
4.9200565414
 20
6.7553974273
 10
4.9200565414
 20
6.8496325836
 10
4.92719164
 20
6.9465492563
 10
4.941695669
 20
7.0465807751
 10
4.9633347966
 20
7.1492938103
 10
4.9914075281
 20
7.2513627953
 10
5.0259928378
 20
7.3524225551
 10
5.0670117514
 20
7.4528382646
 10
5.1135258517
 20
7.5503798822
 10
5.165797541
 20
7.6452299475
 10
5.2235644171
 20
7.7372059208
 10
5.285100856
 20
7.8235301408
 10
5.3504050051
 20
7.903888679
 10
5.4194787172
 20
7.9785954638
 10
5.4906019265
 20
8.0458146193
 10
5.5632012778
 20
8.1049341867
 10
5.6378501264
 20
8.1565661248
 10
5.7145484722
 20
8.2007104335
  0
LINE
  5
403
100
AcDbEntity
  8
RACCORDO
100
AcDbLine
 62
7
  6
CONTINUOUS
 10
4.2164628715
 20
10.8186453296
 11
3.2566935497
 21
12.4740025451
  0
LINE
  5
404
100
AcDbEntity
  8
ASSI
100
AcDbLine
 62
7
  6
CONTINUOUS
 10
4.2164628715
 20
10.8186453296
 11
3.2566935497
 21
12.4740025451
  0
LINE
  5
405
100
AcDbEntity
  8
0
100
AcDbLine
 62
7
  6
CONTINUOUS
 10
12.146653016
 20
17.8642183647
 11
12.146653016
 21
17.618068338
  0
LINE
  5
406
100
AcDbEntity
  8
RACCORDO
100
AcDbLine
 62
7
  6
CONTINUOUS
 10
24.3116157656
 20
0.4006952763
 11
5.7145484722
 21
-9.1197976422
  0
LINE
  5
407
100
AcDbEntity
  8
ASSI
100
AcDbLine
 62
7
  6
CONTINUOUS
 10
24.3116157656
 20
0.4006952763
 11
5.7145484722
 21
-9.1197976422
  0
LINE
  5
408
100
AcDbEntity
  8
RACCORDO
100
AcDbLine
 62
7
  6
CONTINUOUS
 10
12.7952769093
 20
-6.3101399543
 11
4.9331079427
 21
-10.333155209
  0
LINE
  5
409
100
AcDbEntity
  8
ASSI
100
AcDbLine
 62
7
  6
CONTINUOUS
 10
12.7952769093
 20
-6.3101399543
 11
4.9331079427
 21
-10.333155209
  0
LINE
  5
40A
100
AcDbEntity
  8
RACCORDO
100
AcDbLine
 62
7
  6
CONTINUOUS
 10
24.3088896524
 20
-0.431109296
 11
23.5310721931
 21
-0.8200180257
  0
LINE
  5
40B
100
AcDbEntity
  8
ASSI
100
AcDbLine
 62
7
  6
CONTINUOUS
 10
24.3088896524
 20
-0.431109296
 11
23.5310721931
 21
-0.8200180257
  0
LWPOLYLINE
  5
40C
100
AcDbEntity
  8
RACCORDO
100
AcDbPolyline
 62
253
  6
CONTINUOUS
 90
3
 70
0
 10
-14.9091533443
 20
-17.163205009
 10
-14.6140278969
 20
-17.0278503693
 10
-14.2542276567
 20
-16.8043018795
  0
LWPOLYLINE
  5
40D
100
AcDbEntity
  8
RACCORDO
100
AcDbPolyline
 62
253
  6
CONTINUOUS
 90
21
 70
0
 10
-22.8206065511
 20
-20.2735105852
 10
-22.6761301437
 20
-20.2116591089
 10
-22.4905639643
 20
-20.1167748396
 10
-22.3125253179
 20
-20.007536584
 10
-22.142406269
 20
-19.8841893425
 10
-21.9805778437
 20
-19.7470024692
 10
-21.8273987586
 20
-19.5962756712
 10
-21.6832283255
 20
-19.4323578721
 10
-21.548408394
 20
-19.2556387223
 10
-21.4232525491
 20
-19.066537174
 10
-21.3080318632
 20
-18.8654713125
 10
-21.2029925774
 20
-18.6528708244
 10
-21.1083388507
 20
-18.4291229889
 10
-21.0243324331
 20
-18.1948177714
 10
-20.9512396501
 20
-17.9507554904
 10
-20.8892323293
 20
-17.6976991656
 10
-20.8383620132
 20
-17.436081487
 10
-20.7986748663
 20
-17.1662415999
 10
-20.7702523316
 20
-16.8886933754
 10
-20.7531734134
 20
-16.6041527669
 10
-20.7474762658
 20
-16.3132618759
  0
LWPOLYLINE
  5
40E
100
AcDbEntity
  8
0
100
AcDbPolyline
 62
7
  6
CONTINUOUS
 90
25
 70
0
 10
-15.1173615804
 20
-17.2386465422
 10
-15.055257377
 20
-17.2133524348
 10
-14.8785292501
 20
-17.1321412072
 10
-14.7077840201
 20
-17.0396674684
 10
-14.5430507683
 20
-16.9358764741
 10
-14.3843004133
 20
-16.8208229685
 10
-14.2323033529
 20
-16.6950652934
 10
-14.087092413
 20
-16.5585514185
 10
-13.9486347677
 20
-16.4113333741
 10
-13.8176023362
 20
-16.2541255929
 10
-13.6940312108
 20
-16.0868795172
 10
-13.5778852993
 20
-15.9096437046
 10
-13.4697282448
 20
-15.7232782607
 10
-13.3695988791
 20
-15.5277388085
 10
-13.2774583704
 20
-15.323069725
 10
-13.1937538662
 20
-15.1102642462
 10
-13.1185263718
 20
-14.8892828231
 10
-13.051734882
 20
-14.6601650047
 10
-12.9937035282
 20
-14.4240226741
 10
-12.9444748915
 20
-14.1808216868
 10
-12.9040063908
 20
-13.9305961873
 10
-12.8724944154
 20
-13.6745604919
 10
-12.8500044282
 20
-13.4131193725
 10
-12.8364709662
 20
-13.1458680571
 10
-12.8318940294
 20
-12.8728065457
  0
LINE
  5
40F
100
AcDbEntity
  8
0
100
AcDbLine
 62
7
  6
CONTINUOUS
 10
-22.8206065633
 20
-20.27351059
 11
-15.1173539386
 21
-17.2386631819
  0
LINE
  5
410
100
AcDbEntity
  8
RACCORDO
100
AcDbLine
 62
253
  6
CONTINUOUS
 10
-14.9093316198
 20
-17.1632752507
 11
-14.9091533443
 21
-17.163205009
  0
LINE
  5
411
100
AcDbEntity
  8
0
100
AcDbLine
 62
7
  6
CONTINUOUS
 10
-14.9093308078
 20
-17.1632749308
 11
-13.8631612044
 21
-16.7511159034
  0
LINE
  5
412
100
AcDbEntity
  8
RACCORDO
100
AcDbLine
 62
7
  6
CONTINUOUS
 10
-14.9091525326
 20
-17.1632046892
 11
-15.0406759745
 21
-17.2117083016
  0
LWPOLYLINE
  5
413
100
AcDbEntity
  8
RACCORDO
100
AcDbPolyline
 62
7
  6
CONTINUOUS
 90
46
 70
0
 10
-22.8206065503
 20
-20.2735105849
 10
-23.0268630957
 20
-20.3462631872
 10
-23.2403075699
 20
-20.4046629884
 10
-23.4604776119
 20
-20.4483068452
 10
-23.6870303683
 20
-20.4768469128
 10
-23.9193350764
 20
-20.4899346146
 10
-24.1564795672
 20
-20.4873134889
 10
-24.3978831684
 20
-20.4688368487
 10
-24.6431174718
 20
-20.4343843808
 10
-24.8915110209
 20
-20.3839043728
 10
-25.1428251324
 20
-20.3172871657
 10
-25.396305718
 20
-20.2345680347
 10
-25.6504991837
 20
-20.1361589397
 10
-25.904751511
 20
-20.0223404469
 10
-26.1586942259
 20
-19.8932945323
 10
-26.4112810597
 20
-19.7495949026
 10
-26.6618965573
 20
-19.5916815484
 10
-26.9101394185
 20
-19.4198869368
 10
-27.1552705189
 20
-19.2348042716
 10
-27.3967760984
 20
-19.0369171594
 10
-27.6341735693
 20
-18.8267079944
 10
-27.8667683545
 20
-18.6048899501
 10
-28.093999383
 20
-18.3721191088
 10
-28.3154920025
 20
-18.1288935656
 10
-28.5308336062
 20
-17.875759791
 10
-28.7395733184
 20
-17.6133302093
 10
-28.9412772948
 20
-17.3422266909
 10
-29.1355572642
 20
-17.0630363128
 10
-29.3220079119
 20
-16.7763941802
 10
-29.5002191996
 20
-16.4829770878
 10
-29.6698076309
 20
-16.1834577197
 10
-29.830386132
 20
-15.878557778
 10
-29.9816238079
 20
-15.5689365626
 10
-30.1232354101
 20
-15.2551844353
 10
-30.2549147685
 20
-14.9379568015
 10
-30.376331615
 20
-14.6180134037
 10
-30.4871867906
 20
-14.2961026621
 10
-30.5872053338
 20
-13.9729752028
 10
-30.6761528054
 20
-13.6493196451
 10
-30.7538196573
 20
-13.3257831188
 10
-30.8199933798
 20
-13.0030802455
 10
-30.874479888
 20
-12.6819300833
 10
-30.9171149464
 20
-12.3629658401
 10
-30.9477385984
 20
-12.0468632358
 10
-30.9662025501
 20
-11.734354822
 10
-30.9723817032
 20
-11.4261465199
  0
LWPOLYLINE
  5
414
100
AcDbEntity
  8
RACCORDO
100
AcDbPolyline
 62
7
  6
CONTINUOUS
 90
13
 70
0
 10
-2.5691923752
 20
10.9107131736
 10
-2.5722175896
 20
10.9101789392
 10
-2.5757241212
 20
10.909856541
 10
-2.5796987649
 20
10.9097188141
 10
-2.5841263611
 20
10.9097747568
 10
-2.5889908453
 20
10.9100339496
 10
-2.594277919
 20
10.9104695948
 10
-2.5999711332
 20
10.9110892587
 10
-2.6060532274
 20
10.9119012028
 10
-2.6125088717
 20
10.9128791936
 10
-2.6193212418
 20
10.9140189197
 10
-2.6264716098
 20
10.9153378373
 10
-2.6339416249
 20
10.9168417619
  0
LWPOLYLINE
  5
415
100
AcDbEntity
  8
ASSI
100
AcDbPolyline
 62
7
  6
CONTINUOUS
 90
5
 70
0
 10
18.6994369691
 20
14.0105241991
 10
18.8085666916
 20
14.0262746087
 10
18.9191957217
 20
14.0539528758
 10
19.0320102078
 20
14.0935833692
 10
19.1470101498
 20
14.1451660892
  0
LWPOLYLINE
  5
416
100
AcDbEntity
  8
ASSI
100
AcDbPolyline
 62
7
  6
CONTINUOUS
 90
3
 70
0
 10
18.4897923371
 20
9.6848261472
 10
18.5924927025
 20
9.6765989971
 10
18.6994369691
 20
9.6803971802
  0
LINE
  5
417
100
AcDbEntity
  8
RACCORDO
100
AcDbLine
 62
7
  6
CONTINUOUS
 10
-6.9976834849
 20
15.482953573
 11
-7.0730617484
 21
15.5111296557
  0
LINE
  5
418
100
AcDbEntity
  8
ASSI
100
AcDbLine
 62
7
  6
CONTINUOUS
 10
-6.9962821623
 20
15.4823746486
 11
-7.0718044465
 21
15.5107044097
  0
LINE
  5
419
100
AcDbEntity
  8
RACCORDO
100
AcDbLine
 62
7
  6
CONTINUOUS
 10
-8.1657958566
 20
15.4648026992
 11
-8.1473331432
 21
15.4570581972
  0
LINE
  5
41A
100
AcDbEntity
  8
ASSI
100
AcDbLine
 62
7
  6
CONTINUOUS
 10
-8.1657958566
 20
15.4648026992
 11
-8.1473331432
 21
15.4570581972
  0
LWPOLYLINE
  5
41B
100
AcDbEntity
  8
RACCORDO
100
AcDbPolyline
 62
253
  6
CONTINUOUS
 90
14
 70
0
 10
-4.0372665296
 20
12.2445157888
 10
-4.044693952
 20
12.2478353074
 10
-4.0522768946
 20
12.2504730075
 10
-4.0601233129
 20
12.2524858781
 10
-4.0682116042
 20
12.253868403
 10
-4.076519572
 20
12.2546168633
 10
-4.0850247443
 20
12.2547293076
 10
-4.0937042071
 20
12.2542054587
 10
-4.1025362976
 20
12.2530464167
 10
-4.1114950806
 20
12.2512553813
 10
-4.1205504175
 20
12.248838951
 10
-4.1296755862
 20
12.2458055796
 10
-4.1388475908
 20
12.2421642223
 10
-4.1480414892
 20
12.2379258977
  0
LWPOLYLINE
  5
41C
100
AcDbEntity
  8
RACCORDO
100
AcDbPolyline
 62
253
  6
CONTINUOUS
 90
14
 70
0
 10
-16.0642585335
 20
18.2580117908
 10
-16.0716566142
 20
18.2613196846
 10
-16.0792368315
 20
18.2639593381
 10
-16.0870804779
 20
18.26597445
 10
-16.0951662135
 20
18.267359538
 10
-16.1034720395
 20
18.2681108337
 10
-16.1119753587
 20
18.268226293
 10
-16.1206530362
 20
18.2677056019
 10
-16.1294814631
 20
18.2665501769
 10
-16.13843662
 20
18.2647631616
 10
-16.1474941429
 20
18.2623494178
 10
-16.1566293894
 20
18.2593155126
 10
-16.1658175053
 20
18.2556697002
 10
-16.175033493
 20
18.2514218996
  0
LWPOLYLINE
  5
41D
100
AcDbEntity
  8
RACCORDO
100
AcDbPolyline
 62
253
  6
CONTINUOUS
 90
14
 70
0
 10
-17.401584694
 20
18.926674871
 10
-17.4089827748
 20
18.9299827649
 10
-17.4165629921
 20
18.9326224184
 10
-17.4244066385
 20
18.9346375303
 10
-17.432492374
 20
18.9360226183
 10
-17.4407982001
 20
18.936773914
 10
-17.4493015192
 20
18.9368893733
 10
-17.4579791968
 20
18.9363686822
 10
-17.4668076236
 20
18.9352132572
 10
-17.4757627805
 20
18.9334262418
 10
-17.4848203035
 20
18.9310124981
 10
-17.4939555499
 20
18.9279785929
 10
-17.5031436659
 20
18.9243327805
 10
-17.5123596536
 20
18.9200849799
  0
LWPOLYLINE
  5
41E
100
AcDbEntity
  8
RACCORDO
100
AcDbPolyline
 62
253
  6
CONTINUOUS
 90
14
 70
0
 10
-2.6999474711
 20
11.5758562592
 10
-2.7073189483
 20
11.5791528699
 10
-2.7149000907
 20
11.5817946477
 10
-2.722744842
 20
11.5838116368
 10
-2.7308318482
 20
11.585198343
 10
-2.7391391004
 20
11.5859509887
 10
-2.7476439872
 20
11.5860675216
 10
-2.7563233522
 20
11.5855476221
 10
-2.7651535782
 20
11.5843927026
 10
-2.7741106245
 20
11.5826059054
 10
-2.7831700838
 20
11.5801921006
 10
-2.7923072873
 20
11.5771578658
 10
-2.8014973736
 20
11.5735114617
 10
-2.8107153286
 20
11.5692628174
  0
LINE
  5
41F
100
AcDbEntity
  8
RACCORDO
100
AcDbLine
 62
7
  6
CONTINUOUS
 10
-6.9261267903
 20
15.4504219235
 11
-6.9976834849
 21
15.482953573
  0
LINE
  5
420
100
AcDbEntity
  8
ASSI
100
AcDbLine
 62
7
  6
CONTINUOUS
 10
-6.9261224271
 20
15.4504197202
 11
-6.9962821623
 21
15.4823746486
  0
LWPOLYLINE
  5
421
100
AcDbEntity
  8
RACCORDO
100
AcDbPolyline
 62
7
  6
CONTINUOUS
 90
18
 70
0
 10
-17.401584694
 20
18.926674871
 10
-17.4137905063
 20
18.9323720586
 10
-17.426412785
 20
18.9374508666
 10
-17.4394129748
 20
18.9418727673
 10
-17.4527675561
 20
18.94560704
 10
-17.4664105439
 20
18.9486146264
 10
-17.4802348334
 20
18.9508600453
 10
-17.4941659673
 20
18.9523279974
 10
-17.5081746561
 20
18.9530137072
 10
-17.5222241526
 20
18.9529118726
 10
-17.5362564649
 20
18.9520199511
 10
-17.550229011
 20
18.9503386671
 10
-17.5641348702
 20
18.9478634258
 10
-17.5779797762
 20
18.9445797998
 10
-17.5916620349
 20
18.9404984631
 10
-17.6050329645
 20
18.9356647575
 10
-17.6180556857
 20
18.9301026408
 10
-17.6228784041
 20
18.9278165364
  0
LWPOLYLINE
  5
422
100
AcDbEntity
  8
RACCORDO
100
AcDbPolyline
 62
253
  6
CONTINUOUS
 90
14
 70
0
 10
-17.5123596536
 20
18.9200849799
 10
-17.5215367611
 20
18.9244301569
 10
-17.5306973796
 20
18.9281736674
 10
-17.5398164241
 20
18.9313041393
 10
-17.5488707293
 20
18.9338123045
 10
-17.5578334196
 20
18.9356893909
 10
-17.5666742076
 20
18.9369284808
 10
-17.5753669661
 20
18.9375261164
 10
-17.5838898088
 20
18.9374810008
 10
-17.5922196007
 20
18.9367932306
 10
-17.6003336427
 20
18.9354646068
 10
-17.6082095059
 20
18.9334987272
 10
-17.6158253498
 20
18.9309010175
 10
-17.6228717647
 20
18.927819771
  0
LWPOLYLINE
  5
423
100
AcDbEntity
  8
RACCORDO
100
AcDbPolyline
 62
253
  6
CONTINUOUS
 90
7
 70
0
 10
-6.9263903228
 20
15.4505543213
 10
-6.9286033647
 20
15.451615945
 10
-6.9437021238
 20
15.4567165423
 10
-6.9600078274
 20
15.4587207945
 10
-6.9772476372
 20
15.4575951649
 10
-6.995133085
 20
15.4533584882
 10
-7.013364899
 20
15.4460816554
  0
LWPOLYLINE
  5
424
100
AcDbEntity
  8
ASSI
100
AcDbPolyline
 62
253
  6
CONTINUOUS
 90
7
 70
0
 10
-6.9263903228
 20
15.4505543213
 10
-6.9286033647
 20
15.451615945
 10
-6.9437021238
 20
15.4567165423
 10
-6.9600078274
 20
15.4587207945
 10
-6.9772476372
 20
15.4575951649
 10
-6.995133085
 20
15.4533584882
 10
-7.013364899
 20
15.4460816554
  0
LWPOLYLINE
  5
425
100
AcDbEntity
  8
0
100
AcDbPolyline
 62
7
  6
CONTINUOUS
 90
40
 70
0
 10
-7.4402048228
 20
15.9520221745
 10
-7.4693312432
 20
15.9660044006
 10
-7.4994571511
 20
15.9793491873
 10
-7.5305825465
 20
15.9920565345
 10
-7.5627611264
 20
16.0041450047
 10
-7.5959391938
 20
16.0155960354
 10
-7.629955658
 20
16.0263539393
 10
-7.6648146195
 20
16.0364153339
 10
-7.7005119778
 20
16.0457836017
 10
-7.7368743409
 20
16.0544132029
 10
-7.7739046137
 20
16.0623004993
 10
-7.8115998912
 20
16.0694491291
 10
-7.8497780667
 20
16.0758244674
 10
-7.8884419521
 20
16.0814228353
 10
-7.9275887353
 20
16.0862479118
 10
-7.9670278739
 20
16.0902761081
 10
-8.0067606899
 20
16.093503505
 10
-8.0467858613
 20
16.0959340218
 10
-8.0869088782
 20
16.0975558281
 10
-8.1271301322
 20
16.0983649793
 10
-8.1674492319
 20
16.09836542
 10
-8.2076704933
 20
16.0975571539
 10
-8.24779344
 20
16.0959362495
 10
-8.2878185484
 20
16.0935066384
 10
-8.3275515642
 20
16.0902801188
 10
-8.3669910664
 20
16.0862528168
 10
-8.4061384759
 20
16.0814286065
 10
-8.4448038014
 20
16.0758309086
 10
-8.4829846981
 20
16.0694559631
 10
-8.5206835108
 20
16.06230753
 10
-8.5577172821
 20
16.0544203107
 10
-8.5940827779
 20
16.045790714
 10
-8.6297832323
 20
16.0364223311
 10
-8.6646453905
 20
16.0263606375
 10
-8.6986651757
 20
16.0156022631
 10
-8.7318466647
 20
16.0041505781
 10
-8.7640288326
 20
15.9920611682
 10
-8.7951580045
 20
15.9793525619
 10
-8.8252878554
 20
15.9660062307
 10
-8.8544183852
 20
15.9520221745
  0
LINE
  5
426
100
AcDbEntity
  8
0
100
AcDbLine
 62
7
  6
CONTINUOUS
 10
6.2933588596
 20
7.6833834674
 11
5.9326919853
 21
7.8637169046
  0
LINE
  5
427
100
AcDbEntity
  8
RACCORDO
100
AcDbLine
 62
7
  6
CONTINUOUS
 10
-8.4750156162
 20
15.2812417646
 11
-6.1899525691
 21
14.138710241
  0
LINE
  5
428
100
AcDbEntity
  8
ASSI
100
AcDbLine
 62
7
  6
CONTINUOUS
 10
-8.4750156162
 20
15.2812417646
 11
-6.1899525691
 21
14.138710241
  0
LINE
  5
429
100
AcDbEntity
  8
RACCORDO
100
AcDbLine
 62
7
  6
CONTINUOUS
 10
-8.1473331432
 20
15.4570581972
 11
-5.8478573493
 21
14.3073203003
  0
LINE
  5
42A
100
AcDbEntity
  8
ASSI
100
AcDbLine
 62
7
  6
CONTINUOUS
 10
-8.1473331432
 20
15.4570581972
 11
-5.8478573493
 21
14.3073203003
  0
LINE
  5
42B
100
AcDbEntity
  8
RACCORDO
100
AcDbLine
 62
253
  6
CONTINUOUS
 10
-7.013364899
 20
15.4460816554
 11
-5.2878595849
 21
14.5833289983
  0
LINE
  5
42C
100
AcDbEntity
  8
ASSI
100
AcDbLine
 62
253
  6
CONTINUOUS
 10
-7.013364899
 20
15.4460816554
 11
-5.2878595849
 21
14.5833289983
  0
LINE
  5
42D
100
AcDbEntity
  8
RACCORDO
100
AcDbLine
 62
7
  6
CONTINUOUS
 10
-6.9263903228
 20
15.4505543213
 11
-5.2395554467
 21
14.6071368832
  0
LINE
  5
42E
100
AcDbEntity
  8
ASSI
100
AcDbLine
 62
7
  6
CONTINUOUS
 10
-6.9263903228
 20
15.4505543213
 11
-5.2395554467
 21
14.6071368832
  0
LINE
  5
42F
100
AcDbEntity
  8
ASSI
100
AcDbLine
 62
7
  6
CONTINUOUS
 10
-4.9932397562
 20
14.7285396412
 11
-7.4402048228
 21
15.9520221745
  0
LINE
  5
430
100
AcDbEntity
  8
0
100
AcDbLine
 62
7
  6
CONTINUOUS
 10
-7.7937582134
 20
16.1287988698
 11
-8.147311604
 21
16.3055755651
  0
LINE
  5
431
100
AcDbEntity
  8
DRAFT
100
AcDbLine
 62
7
  6
CONTINUOUS
 10
-7.7937582134
 20
16.6813570591
 11
-8.147311604
 21
16.8581337544
  0
LINE
  5
432
100
AcDbEntity
  8
0
100
AcDbLine
 62
7
  6
CONTINUOUS
 10
-3.58542406
 20
15.4224162995
 11
-6.3959737069
 21
16.827691123
  0
LINE
  5
433
100
AcDbEntity
  8
RACCORDO
100
AcDbLine
 62
7
  6
CONTINUOUS
 10
24.3116157656
 20
-1.3561340084
 11
5.7145484722
 21
-11.0934680198
  0
LINE
  5
434
100
AcDbEntity
  8
ASSI
100
AcDbLine
 62
7
  6
CONTINUOUS
 10
24.3116157656
 20
-1.3561340084
 11
5.7145484722
 21
-11.0934680198
  0
LINE
  5
435
100
AcDbEntity
  8
RACCORDO
100
AcDbLine
 62
7
  6
CONTINUOUS
 10
7.2407441788
 20
-12.7986937804
 11
5.7119813072
 21
-13.5830363889
  0
LINE
  5
436
100
AcDbEntity
  8
ASSI
100
AcDbLine
 62
7
  6
CONTINUOUS
 10
7.2407441788
 20
-12.7986937804
 11
5.7119813072
 21
-13.5830363889
  0
LINE
  5
437
100
AcDbEntity
  8
RACCORDO
100
AcDbLine
 62
7
  6
CONTINUOUS
 10
24.3116157656
 20
-3.9294317426
 11
5.7145484722
 21
-13.4499246611
  0
LINE
  5
438
100
AcDbEntity
  8
ASSI
100
AcDbLine
 62
7
  6
CONTINUOUS
 10
24.3116157656
 20
-3.9294317426
 11
5.7145484722
 21
-13.4499246611
  0
LINE
  5
439
100
AcDbEntity
  8
RACCORDO
100
AcDbLine
 62
7
  6
CONTINUOUS
 10
24.3088896524
 20
-4.7612363149
 11
23.5310721931
 21
-5.1501450446
  0
LINE
  5
43A
100
AcDbEntity
  8
ASSI
100
AcDbLine
 62
7
  6
CONTINUOUS
 10
24.3088896524
 20
-4.7612363149
 11
23.5310721931
 21
-5.1501450446
  0
LWPOLYLINE
  5
43B
100
AcDbEntity
  8
RACCORDO
100
AcDbPolyline
 62
7
  6
CONTINUOUS
 90
11
 70
0
 10
5.7145484722
 20
-11.0934680198
 10
5.6378501264
 20
-11.1287471732
 10
5.5632012778
 20
-11.1544163807
 10
5.4906019265
 20
-11.1704756423
 10
5.4194787172
 20
-11.1769067261
 10
5.3504050051
 20
-11.173727864
 10
5.285100856
 20
-11.1609937519
 10
5.2235644171
 20
-11.1383923798
 10
5.165797541
 20
-11.1062357578
 10
5.1135258517
 20
-11.0655146112
 10
5.0952079722
 20
-11.0477848593
  0
LWPOLYLINE
  5
43C
100
AcDbEntity
  8
ASSI
100
AcDbPolyline
 62
7
  6
CONTINUOUS
 90
11
 70
0
 10
5.7145484722
 20
-11.0934680198
 10
5.6378501264
 20
-11.1287471732
 10
5.5632012778
 20
-11.1544163807
 10
5.4906019265
 20
-11.1704756423
 10
5.4194787172
 20
-11.1769067261
 10
5.3504050051
 20
-11.173727864
 10
5.285100856
 20
-11.1609937519
 10
5.2235644171
 20
-11.1383923798
 10
5.165797541
 20
-11.1062357578
 10
5.1135258517
 20
-11.0655146112
 10
5.0952079722
 20
-11.0477848593
  0
LWPOLYLINE
  5
43D
100
AcDbEntity
  8
RACCORDO
100
AcDbPolyline
 62
7
  6
CONTINUOUS
 90
18
 70
0
 10
-8.2215268678
 20
12.570333649
 10
-8.2388215358
 20
12.5688413133
 10
-8.256015934
 20
12.5668477355
 10
-8.2730742718
 20
12.5644405525
 10
-8.2899651052
 20
12.5617295989
 10
-8.306669368
 20
12.5587725864
 10
-8.3231761879
 20
12.5555617383
 10
-8.3394695948
 20
12.5521515104
 10
-8.3555393878
 20
12.5486069807
 10
-8.3713825416
 20
12.5449130247
 10
-8.3869913533
 20
12.5411097424
 10
-8.402360436
 20
12.5372461542
 10
-8.417487164
 20
12.5333058805
 10
-8.4323681816
 20
12.5293198332
 10
-8.4470007076
 20
12.5253257472
 10
-8.4613793324
 20
12.5213086178
 10
-8.4755028854
 20
12.5172934572
 10
-8.5029726311
 20
12.509345845
  0
LINE
  5
43E
100
AcDbEntity
  8
DRAFT
100
AcDbLine
 62
7
  6
CONTINUOUS
 10
19.4841683311
 20
13.3811518445
 11
19.4383931735
 21
13.3790585788
  0
LINE
  5
43F
100
AcDbEntity
  8
ASSI
100
AcDbLine
 62
7
  6
CONTINUOUS
 10
19.4841683311
 20
13.3811518445
 11
19.4383931735
 21
13.3790585788
  0
LWPOLYLINE
  5
440
100
AcDbEntity
  8
ASSI
100
AcDbPolyline
 62
7
  6
CONTINUOUS
 90
3
 70
0
 10
19.6644973183
 20
13.4162656083
 10
19.5945833304
 20
13.4137825754
 10
19.4854536079
 20
13.3980321658
  0
LINE
  5
441
100
AcDbEntity
  8
RACCORDO
100
AcDbLine
 62
253
  6
CONTINUOUS
 10
-8.1881221812
 20
15.4770882882
 11
-8.170812627
 21
15.4755169605
  0
LINE
  5
442
100
AcDbEntity
  8
ASSI
100
AcDbLine
 62
253
  6
CONTINUOUS
 10
-8.1881221812
 20
15.4770882882
 11
-8.170812627
 21
15.4755169605
  0
LINE
  5
443
100
AcDbEntity
  8
RACCORDO
100
AcDbLine
 62
7
  6
CONTINUOUS
 10
-8.5276948828
 20
15.2952675046
 11
-8.5108593586
 21
15.2934470632
  0
LINE
  5
444
100
AcDbEntity
  8
ASSI
100
AcDbLine
 62
7
  6
CONTINUOUS
 10
-8.5276948828
 20
15.2952675046
 11
-8.5108593586
 21
15.2934470632
  0
LINE
  5
445
100
AcDbEntity
  8
RACCORDO
100
AcDbLine
 62
7
  6
CONTINUOUS
 10
-18.3546512454
 20
16.3845764424
 11
-17.7290445518
 21
16.253955046
  0
LINE
  5
446
100
AcDbEntity
  8
RACCORDO
100
AcDbLine
 62
253
  6
CONTINUOUS
 10
-18.1278077519
 20
16.5403976032
 11
-17.4165871438
 21
16.3918940803
  0
LWPOLYLINE
  5
447
100
AcDbEntity
  8
RACCORDO
100
AcDbPolyline
 62
7
  6
CONTINUOUS
 90
11
 70
0
 10
-7.151685239
 20
15.5350429175
 10
-7.2330760395
 20
15.5547757531
 10
-7.3168274739
 20
15.5703804547
 10
-7.4023102042
 20
15.5818418539
 10
-7.4889224034
 20
15.5891547703
 10
-7.5761797821
 20
15.5923197159
 10
-7.6634581444
 20
15.5913253814
 10
-7.7501327175
 20
15.5861710197
 10
-7.8357205566
 20
15.576847702
 10
-7.9196191594
 20
15.5633499772
 10
-8.001211375
 20
15.5456797347
  0
LWPOLYLINE
  5
448
100
AcDbEntity
  8
ASSI
100
AcDbPolyline
 62
7
  6
CONTINUOUS
 90
11
 70
0
 10
-7.1506055931
 20
15.534748403
 10
-7.2322038782
 20
15.5545890696
 10
-7.3161863949
 20
15.57027791
 10
-7.4019186871
 20
15.5817991452
 10
-7.4887935433
 20
15.5891470057
 10
-7.5763175558
 20
15.5923214235
 10
-7.6638607511
 20
15.5913111192
 10
-7.7507926442
 20
15.5861155068
 10
-7.8366213717
 20
15.576726312
 10
-7.9207391659
 20
15.56313887
 10
-8.0025243256
 20
15.5453558154
  0
LWPOLYLINE
  5
449
100
AcDbEntity
  8
RACCORDO
100
AcDbPolyline
 62
253
  6
CONTINUOUS
 90
3
 70
0
 10
-8.170812627
 20
15.4755169605
 10
-8.152928948
 20
15.4707460076
 10
-8.1347770203
 20
15.4628570309
  0
LWPOLYLINE
  5
44A
100
AcDbEntity
  8
ASSI
100
AcDbPolyline
 62
253
  6
CONTINUOUS
 90
3
 70
0
 10
-8.170812627
 20
15.4755169605
 10
-8.152928948
 20
15.4707460076
 10
-8.1347770203
 20
15.4628570309
  0
LWPOLYLINE
  5
44B
100
AcDbEntity
  8
RACCORDO
100
AcDbPolyline
 62
7
  6
CONTINUOUS
 90
3
 70
0
 10
-8.5108593586
 20
15.2934470632
 10
-8.4928797116
 20
15.2886002737
 10
-8.4740769364
 20
15.2807724247
  0
LWPOLYLINE
  5
44C
100
AcDbEntity
  8
ASSI
100
AcDbPolyline
 62
7
  6
CONTINUOUS
 90
3
 70
0
 10
-8.5108593586
 20
15.2934470632
 10
-8.4928797116
 20
15.2886002737
 10
-8.4740769364
 20
15.2807724247
  0
LINE
  5
44D
100
AcDbEntity
  8
RACCORDO
100
AcDbLine
 62
7
  6
CONTINUOUS
 10
-7.0730617484
 20
15.5111296557
 11
-7.151685239
 21
15.5350429175
  0
LINE
  5
44E
100
AcDbEntity
  8
ASSI
100
AcDbLine
 62
7
  6
CONTINUOUS
 10
-7.0718044465
 20
15.5107044097
 11
-7.1506055931
 21
15.534748403
  0
LWPOLYLINE
  5
44F
100
AcDbEntity
  8
ASSI
100
AcDbPolyline
 62
7
  6
CONTINUOUS
 90
16
 70
0
 10
-7.6947317988
 20
18.2703111722
 10
-7.6968244695
 20
18.2712002894
 10
-7.7010299097
 20
18.2723125502
 10
-7.7059841706
 20
18.27294131
 10
-7.7116432983
 20
18.2731045475
 10
-7.7179708549
 20
18.2728090917
 10
-7.7249714141
 20
18.272087277
 10
-7.7326348085
 20
18.2709511506
 10
-7.7409186169
 20
18.2694123243
 10
-7.7497905306
 20
18.267503395
 10
-7.7592236544
 20
18.265227098
 10
-7.7691854028
 20
18.2625981986
 10
-7.7796314531
 20
18.2596650172
 10
-7.7905244375
 20
18.2564467665
 10
-7.8018365937
 20
18.2529344638
 10
-7.8135359814
 20
18.2491319902
  0
LWPOLYLINE
  5
450
100
AcDbEntity
  8
ASSI
100
AcDbPolyline
 62
7
  6
CONTINUOUS
 90
16
 70
0
 10
-2.1397433561
 20
15.4928170973
 10
-2.1415479036
 20
15.4935998629
 10
-2.1456782716
 20
15.4947471191
 10
-2.1505533175
 20
15.4954130202
 10
-2.1561282274
 20
15.4956149463
 10
-2.1623666702
 20
15.495359989
 10
-2.1692725069
 20
15.4946815542
 10
-2.1768345526
 20
15.4935918684
 10
-2.1850108155
 20
15.492101867
 10
-2.193770905
 20
15.4902439998
 10
-2.2030885344
 20
15.4880212877
 10
-2.2129311279
 20
15.4854479898
 10
-2.2232560645
 20
15.4825713059
 10
-2.2340269738
 20
15.4794101177
 10
-2.2452161423
 20
15.4759558066
 10
-2.2567921089
 20
15.4722122844
  0
LWPOLYLINE
  5
451
100
AcDbEntity
  8
ASSI
100
AcDbPolyline
 62
7
  6
CONTINUOUS
 90
4
 70
0
 10
18.2526050234
 20
5.4281526723
 10
18.2972877365
 20
5.4076953405
 10
18.3914180862
 20
5.3751845678
 10
18.4897923371
 20
5.3546991283
  0
LWPOLYLINE
  5
452
100
AcDbEntity
  8
RACCORDO
100
AcDbPolyline
 62
7
  6
CONTINUOUS
 90
18
 70
0
 10
-5.2959393383
 20
17.71310463
 10
-5.3154873228
 20
17.7221873168
 10
-5.338383103
 20
17.7311727315
 10
-5.3618923893
 20
17.7386749643
 10
-5.3860337114
 20
17.7447091341
 10
-5.4107234647
 20
17.7492549185
 10
-5.435984891
 20
17.7523089019
 10
-5.4617947485
 20
17.7538744999
 10
-5.4879997073
 20
17.7539416365
 10
-5.5145836699
 20
17.7525028605
 10
-5.541562734
 20
17.7495656232
 10
-5.5688318626
 20
17.7451422019
 10
-5.5964060422
 20
17.7392238163
 10
-5.6242702865
 20
17.7318192467
 10
-5.6522745996
 20
17.7229671121
 10
-5.6803689828
 20
17.7126802854
 10
-5.7086034348
 20
17.7009458937
 10
-5.7369779556
 20
17.6877639369
  0
LINE
  5
453
100
AcDbEntity
  8
DRAFT
100
AcDbLine
 62
7
  6
CONTINUOUS
 10
2.5692083025
 20
12.8177451687
 11
3.2566935497
 21
12.4740025451
  0
LINE
  5
454
100
AcDbEntity
  8
ASSI
100
AcDbLine
 62
7
  6
CONTINUOUS
 10
2.5692083025
 20
12.8177451687
 11
3.2566935497
 21
12.4740025451
  0
LINE
  5
455
100
AcDbEntity
  8
ASSI
100
AcDbLine
 62
7
  6
CONTINUOUS
 10
-8.4638288987
 20
18.5336451968
 11
-7.8583222576
 21
18.2308918762
  0
LINE
  5
456
100
AcDbEntity
  8
ASSI
100
AcDbLine
 62
7
  6
CONTINUOUS
 10
-2.9085747893
 20
15.7560181421
 11
-2.3030681481
 21
15.4532648215
  0
LINE
  5
457
100
AcDbEntity
  8
0
100
AcDbLine
 62
7
  6
CONTINUOUS
 10
-5.0360417668
 20
16.9014393104
 11
-2.8014592552
 21
15.7841480546
  0
LINE
  5
458
100
AcDbEntity
  8
0
100
AcDbLine
 62
7
  6
CONTINUOUS
 10
-2.133198045
 20
15.4500174495
 11
-1.9349026455
 21
15.3508697498
  0
LINE
  5
459
100
AcDbEntity
  8
ASSI
100
AcDbLine
 62
7
  6
CONTINUOUS
 10
-8.1907209976
 20
18.5183018652
 11
-7.6947321621
 21
18.2703074475
  0
LINE
  5
45A
100
AcDbEntity
  8
ASSI
100
AcDbLine
 62
7
  6
CONTINUOUS
 10
-2.6357325684
 20
15.7408076506
 11
-2.139743733
 21
15.4928132329
  0
LINE
  5
45B
100
AcDbEntity
  8
RACCORDO
100
AcDbLine
 62
253
  6
CONTINUOUS
 10
-8.8039438995
 20
19.2212469089
 11
-5.7369779556
 21
17.6877639369
  0
LINE
  5
45C
100
AcDbEntity
  8
RACCORDO
100
AcDbLine
 62
253
  6
CONTINUOUS
 10
-1.4943372684
 20
15.5664435933
 11
1.5726286755
 21
14.0329606214
  0
LINE
  5
45D
100
AcDbEntity
  8
RACCORDO
100
AcDbLine
 62
253
  6
CONTINUOUS
 10
3.236106451
 20
13.3123087624
 11
3.0208700495
 21
13.4199269631
  0
LINE
  5
45E
100
AcDbEntity
  8
RACCORDO
100
AcDbLine
 62
253
  6
CONTINUOUS
 10
-3.8349613609
 20
16.8478426683
 11
-4.0501977624
 21
16.9554608691
  0
LINE
  5
45F
100
AcDbEntity
  8
0
100
AcDbLine
 62
7
  6
CONTINUOUS
 10
23.1068081244
 20
3.396097045
 11
23.2054286718
 21
3.3467867713
  0
LINE
  5
460
100
AcDbEntity
  8
0
100
AcDbLine
 62
7
  6
CONTINUOUS
 10
23.2309089726
 20
3.3340466209
 11
23.5310721931
 21
3.1839650106
  0
LINE
  5
461
100
AcDbEntity
  8
RACCORDO
100
AcDbLine
 62
7
  6
CONTINUOUS
 10
3.2745528465
 20
13.3308868523
 11
3.0591690773
 21
13.438578737
  0
LINE
  5
462
100
AcDbEntity
  8
RACCORDO
100
AcDbLine
 62
7
  6
CONTINUOUS
 10
-3.7965149653
 20
16.8664207583
 11
-4.0143655729
 21
16.975346062
  0
LINE
  5
463
100
AcDbEntity
  8
RACCORDO
100
AcDbLine
 62
7
  6
CONTINUOUS
 10
-1.0532942654
 20
15.5917930599
 11
2.1730289778
 21
13.9786314384
  0
LINE
  5
464
100
AcDbEntity
  8
DRAFT
100
AcDbLine
 62
253
  6
CONTINUOUS
 10
19.941184615
 20
4.8627113449
 11
20.6867166894
 21
4.4870348849
  0
LINE
  5
465
100
AcDbEntity
  8
ASSI
100
AcDbLine
 62
253
  6
CONTINUOUS
 10
19.941184615
 20
4.8627113449
 11
20.6867166894
 21
4.4870348849
  0
LWPOLYLINE
  5
466
100
AcDbEntity
  8
DRAFT
100
AcDbPolyline
 62
7
  6
CONTINUOUS
 90
10
 70
0
 10
19.4220690068
 20
4.7439771207
 10
19.3295490012
 20
4.8046876375
 10
19.2368825208
 20
4.8660068639
 10
19.1440695656
 20
4.9279347998
 10
19.0511099509
 20
4.9904737217
 10
18.9580038613
 20
5.0536213531
 10
18.8647518512
 20
5.1173708646
 10
18.7713541054
 20
5.1817199799
 10
18.6778104391
 20
5.2466709754
 10
18.5841208522
 20
5.3122238511
  0
LWPOLYLINE
  5
467
100
AcDbEntity
  8
ASSI
100
AcDbPolyline
 62
7
  6
CONTINUOUS
 90
10
 70
0
 10
19.4220690068
 20
4.7439771207
 10
19.3295490012
 20
4.8046876375
 10
19.2368825208
 20
4.8660068639
 10
19.1440695656
 20
4.9279347998
 10
19.0511099509
 20
4.9904737217
 10
18.9580038613
 20
5.0536213531
 10
18.8647518512
 20
5.1173708646
 10
18.7713541054
 20
5.1817199799
 10
18.6778104391
 20
5.2466709754
 10
18.5841208522
 20
5.3122238511
  0
LWPOLYLINE
  5
468
100
AcDbEntity
  8
RACCORDO
100
AcDbPolyline
 62
253
  6
CONTINUOUS
 90
3
 70
0
 10
18.1428962949
 20
0.9141411302
 10
17.97637073
 20
1.1248261252
 10
17.8742179436
 20
1.2344635968
  0
LINE
  5
469
100
AcDbEntity
  8
RACCORDO
100
AcDbLine
 62
7
  6
CONTINUOUS
 10
16.7428470937
 20
13.4730538407
 11
16.7428470937
 21
13.6462589215
  0
LINE
  5
46A
100
AcDbEntity
  8
0
100
AcDbLine
 62
7
  6
CONTINUOUS
 10
17.8742179436
 20
1.4352919081
 11
17.8742179436
 21
0.3555378859
  0
LWPOLYLINE
  5
46B
100
AcDbEntity
  8
RACCORDO
100
AcDbPolyline
 62
253
  6
CONTINUOUS
 90
4
 70
0
 10
24.5611486768
 20
19.1420522276
 10
24.5815488489
 20
19.1927922904
 10
24.5913495656
 20
19.2443148475
 10
24.5922758125
 20
19.2655555127
  0
LWPOLYLINE
  5
46C
100
AcDbEntity
  8
ASSI
100
AcDbPolyline
 62
253
  6
CONTINUOUS
 90
4
 70
0
 10
24.5611486768
 20
19.1420522276
 10
24.5815488489
 20
19.1927922904
 10
24.5913495656
 20
19.2443148475
 10
24.5922758041
 20
19.2655480126
  0
LINE
  5
46D
100
AcDbEntity
  8
RACCORDO
100
AcDbLine
 62
253
  6
CONTINUOUS
 10
-4.4053051674
 20
-30.4640993033
 11
-5.0276231995
 21
-31.2091587208
  0
LINE
  5
46E
100
AcDbEntity
  8
RACCORDO
100
AcDbLine
 62
253
  6
CONTINUOUS
 10
-4.0522689794
 20
-30.5898691413
 11
-4.7634895875
 21
-31.4413656184
  0
LINE
  5
46F
100
AcDbEntity
  8
RACCORDO
100
AcDbLine
 62
7
  6
CONTINUOUS
 10
24.3116157656
 20
-5.6862610273
 11
5.7145484722
 21
-15.4235950387
  0
LINE
  5
470
100
AcDbEntity
  8
ASSI
100
AcDbLine
 62
7
  6
CONTINUOUS
 10
24.3116157656
 20
-5.6862610273
 11
5.7145484722
 21
-15.4235950387
  0
LWPOLYLINE
  5
471
100
AcDbEntity
  8
RACCORDO
100
AcDbPolyline
 62
7
  6
CONTINUOUS
 90
11
 70
0
 10
5.7145484722
 20
-15.4235950387
 10
5.6378501264
 20
-15.4588741921
 10
5.5632012778
 20
-15.4845433996
 10
5.4906019265
 20
-15.5006026613
 10
5.4194787172
 20
-15.507033745
 10
5.3504050051
 20
-15.5038548829
 10
5.285100856
 20
-15.4911207708
 10
5.2235644171
 20
-15.4685193987
 10
5.165797541
 20
-15.4363627767
 10
5.1135258517
 20
-15.3956416302
 10
5.0952079722
 20
-15.3779118782
  0
LWPOLYLINE
  5
472
100
AcDbEntity
  8
ASSI
100
AcDbPolyline
 62
7
  6
CONTINUOUS
 90
11
 70
0
 10
5.7145484722
 20
-15.4235950387
 10
5.6378501264
 20
-15.4588741921
 10
5.5632012778
 20
-15.4845433996
 10
5.4906019265
 20
-15.5006026613
 10
5.4194787172
 20
-15.507033745
 10
5.3504050051
 20
-15.5038548829
 10
5.285100856
 20
-15.4911207708
 10
5.2235644171
 20
-15.4685193987
 10
5.165797541
 20
-15.4363627767
 10
5.1135258517
 20
-15.3956416302
 10
5.0952079722
 20
-15.3779118782
  0
LWPOLYLINE
  5
473
100
AcDbEntity
  8
ASSI
100
AcDbPolyline
 62
7
  6
CONTINUOUS
 90
3
 70
0
 10
-8.0025243256
 20
15.5453558154
 10
-8.0815896375
 20
15.523312965
 10
-8.1574678516
 20
15.4969135365
  0
LWPOLYLINE
  5
474
100
AcDbEntity
  8
RACCORDO
100
AcDbPolyline
 62
7
  6
CONTINUOUS
 90
3
 70
0
 10
-8.001211375
 20
15.5456797347
 10
-8.0801151811
 20
15.5237721321
 10
-8.1558664852
 20
15.4975305098
  0
LINE
  5
475
100
AcDbEntity
  8
0
100
AcDbLine
 62
7
  6
CONTINUOUS
 10
-6.3959737069
 20
16.827691123
 11
-5.0360417668
 21
16.9014393104
  0
LWPOLYLINE
  5
476
100
AcDbEntity
  8
ASSI
100
AcDbPolyline
 62
7
  6
CONTINUOUS
 90
3
 70
0
 10
18.4897923371
 20
14.0149531661
 10
18.5924927025
 20
14.006726016
 10
18.6994369691
 20
14.0105241991
  0
LWPOLYLINE
  5
477
100
AcDbEntity
  8
ASSI
100
AcDbPolyline
 62
7
  6
CONTINUOUS
 90
4
 70
0
 10
18.2526050234
 20
9.7582796912
 10
18.2972877365
 20
9.7378223595
 10
18.3914180862
 20
9.7053115867
 10
18.4897923371
 20
9.6848261472
  0
LINE
  5
478
100
AcDbEntity
  8
DRAFT
100
AcDbLine
 62
253
  6
CONTINUOUS
 10
19.941184615
 20
9.1928383638
 11
20.6867166894
 21
8.8171619038
  0
LINE
  5
479
100
AcDbEntity
  8
ASSI
100
AcDbLine
 62
253
  6
CONTINUOUS
 10
19.941184615
 20
9.1928383638
 11
20.6867166894
 21
8.8171619038
  0
LINE
  5
47A
100
AcDbEntity
  8
DRAFT
100
AcDbLine
 62
7
  6
CONTINUOUS
 10
22.5472935269
 20
6.1713616629
 11
22.5411226995
 21
6.1745782878
  0
LINE
  5
47B
100
AcDbEntity
  8
ASSI
100
AcDbLine
 62
7
  6
CONTINUOUS
 10
22.5472935269
 20
6.1713616629
 11
22.5411226995
 21
6.1745782878
  0
LINE
  5
47C
100
AcDbEntity
  8
RACCORDO
100
AcDbLine
 62
7
  6
CONTINUOUS
 10
19.4298528622
 20
2.2316761439
 11
19.4298528622
 21
1.5576194139
  0
LINE
  5
47D
100
AcDbEntity
  8
ASSI
100
AcDbLine
 62
7
  6
CONTINUOUS
 10
19.4298528622
 20
2.2316761439
 11
19.4298528622
 21
1.5576194139
  0
LINE
  5
47E
100
AcDbEntity
  8
0
100
AcDbLine
 62
7
  6
CONTINUOUS
 10
19.5005635404
 20
21.4456010725
 11
19.5005635404
 21
21.1716293265
  0
LINE
  5
47F
100
AcDbEntity
  8
ASSI
100
AcDbLine
 62
7
  6
CONTINUOUS
 10
19.5005635404
 20
21.4456010725
 11
19.5005635404
 21
21.1716293265
  0
LINE
  5
480
100
AcDbEntity
  8
RACCORDO
100
AcDbLine
 62
7
  6
CONTINUOUS
 10
20.2063099976
 20
2.6291718642
 11
20.2063099976
 21
1.9458479815
  0
LINE
  5
481
100
AcDbEntity
  8
ASSI
100
AcDbLine
 62
7
  6
CONTINUOUS
 10
20.2063099976
 20
2.6291718642
 11
20.2063099976
 21
1.9458479815
  0
LINE
  5
482
100
AcDbEntity
  8
RACCORDO
100
AcDbLine
 62
7
  6
CONTINUOUS
 10
20.7026450684
 20
2.1940155169
 11
20.7026450684
 21
2.3465125231
  0
LINE
  5
483
100
AcDbEntity
  8
ASSI
100
AcDbLine
 62
7
  6
CONTINUOUS
 10
20.7026450684
 20
2.1940155169
 11
20.7026450684
 21
2.3465125231
  0
LINE
  5
484
100
AcDbEntity
  8
0
100
AcDbLine
 62
7
  6
CONTINUOUS
 10
20.9147771027
 20
16.9041658436
 11
20.9147771027
 21
14.0118521337
  0
LINE
  5
485
100
AcDbEntity
  8
0
100
AcDbLine
 62
7
  6
CONTINUOUS
 10
20.9147771027
 20
12.5740388247
 11
20.9147771027
 21
9.6817251148
  0
LINE
  5
486
100
AcDbEntity
  8
0
100
AcDbLine
 62
7
  6
CONTINUOUS
 10
20.9147771027
 20
8.2439118058
 11
20.9147771027
 21
5.6759752048
  0
LINE
  5
487
100
AcDbEntity
  8
RACCORDO
100
AcDbLine
 62
7
  6
CONTINUOUS
 10
3.2566935497
 20
-23.3369261997
 11
4.2164628715
 21
-22.641338306
  0
LINE
  5
488
100
AcDbEntity
  8
ASSI
100
AcDbLine
 62
7
  6
CONTINUOUS
 10
3.2566935497
 20
-23.3369261997
 11
4.2164628715
 21
-22.641338306
  0
LINE
  5
489
100
AcDbEntity
  8
RACCORDO
100
AcDbLine
 62
7
  6
CONTINUOUS
 10
24.3116157656
 20
-10.0163880462
 11
5.7145484722
 21
-19.7537220576
  0
LINE
  5
48A
100
AcDbEntity
  8
ASSI
100
AcDbLine
 62
7
  6
CONTINUOUS
 10
24.3116157656
 20
-10.0163880462
 11
5.7145484722
 21
-19.7537220576
  0
LINE
  5
48B
100
AcDbEntity
  8
RACCORDO
100
AcDbLine
 62
7
  6
CONTINUOUS
 10
24.3116157656
 20
-8.2595587615
 11
5.7145484722
 21
-17.78005168
  0
LINE
  5
48C
100
AcDbEntity
  8
ASSI
100
AcDbLine
 62
7
  6
CONTINUOUS
 10
24.3116157656
 20
-8.2595587615
 11
5.7145484722
 21
-17.78005168
  0
LINE
  5
48D
100
AcDbEntity
  8
RACCORDO
100
AcDbLine
 62
7
  6
CONTINUOUS
 10
24.3088896524
 20
-9.0913633339
 11
23.5310721931
 21
-9.4802720635
  0
LINE
  5
48E
100
AcDbEntity
  8
ASSI
100
AcDbLine
 62
7
  6
CONTINUOUS
 10
24.3088896524
 20
-9.0913633339
 11
23.5310721931
 21
-9.4802720635
  0
LINE
  5
48F
100
AcDbEntity
  8
0
100
AcDbLine
 62
7
  6
CONTINUOUS
 10
8.1161443633
 20
-18.3799053649
 11
23.5310721931
 21
-10.67244145
  0
LWPOLYLINE
  5
490
100
AcDbEntity
  8
RACCORDO
100
AcDbPolyline
 62
7
  6
CONTINUOUS
 90
11
 70
0
 10
5.7145484722
 20
-19.7537220576
 10
5.6378501264
 20
-19.789001211
 10
5.5632012778
 20
-19.8146704186
 10
5.4906019265
 20
-19.8307296802
 10
5.4194787172
 20
-19.837160764
 10
5.3504050051
 20
-19.8339819018
 10
5.285100856
 20
-19.8212477897
 10
5.2235644171
 20
-19.7986464177
 10
5.165797541
 20
-19.7664897956
 10
5.1135258517
 20
-19.7257686491
 10
5.0952079722
 20
-19.7080388971
  0
LWPOLYLINE
  5
491
100
AcDbEntity
  8
ASSI
100
AcDbPolyline
 62
7
  6
CONTINUOUS
 90
11
 70
0
 10
5.7145484722
 20
-19.7537220576
 10
5.6378501264
 20
-19.789001211
 10
5.5632012778
 20
-19.8146704186
 10
5.4906019265
 20
-19.8307296802
 10
5.4194787172
 20
-19.837160764
 10
5.3504050051
 20
-19.8339819018
 10
5.285100856
 20
-19.8212477897
 10
5.2235644171
 20
-19.7986464177
 10
5.165797541
 20
-19.7664897956
 10
5.1135258517
 20
-19.7257686491
 10
5.0952079722
 20
-19.7080388971
  0
LWPOLYLINE
  5
492
100
AcDbEntity
  8
ASSI
100
AcDbPolyline
 62
7
  6
CONTINUOUS
 90
16
 70
0
 10
-8.4170112563
 20
18.5523218582
 10
-8.4048405866
 20
18.5557605573
 10
-8.3921064844
 20
18.5584359392
 10
-8.3788167109
 20
18.5603322862
 10
-8.364975598
 20
18.5614464282
 10
-8.350599236
 20
18.5617495331
 10
-8.3357169776
 20
18.5611882122
 10
-8.3203493924
 20
18.559742575
 10
-8.3045100957
 20
18.5574028671
 10
-8.2882221634
 20
18.5541322406
 10
-8.2715427555
 20
18.5499271953
 10
-8.2544608697
 20
18.5447645208
 10
-8.2368953859
 20
18.5385717958
 10
-8.2188531716
 20
18.5313271342
 10
-8.200376095
 20
18.5230114948
 10
-8.1907188977
 20
18.5183048102
  0
LWPOLYLINE
  5
493
100
AcDbEntity
  8
ASSI
100
AcDbPolyline
 62
7
  6
CONTINUOUS
 90
4
 70
0
 10
18.2526050234
 20
14.0884067102
 10
18.2972877365
 20
14.0679493784
 10
18.3914180862
 20
14.0354386056
 10
18.4897923371
 20
14.0149531661
  0
LINE
  5
494
100
AcDbEntity
  8
RACCORDO
100
AcDbLine
 62
7
  6
CONTINUOUS
 10
16.7309789828
 20
13.6521929769
 11
16.7428470937
 21
13.6462589215
  0
LINE
  5
495
100
AcDbEntity
  8
RACCORDO
100
AcDbLine
 62
7
  6
CONTINUOUS
 10
11.3251822479
 20
17.2211167481
 11
11.0789398506
 21
17.3442379468
  0
LINE
  5
496
100
AcDbEntity
  8
RACCORDO
100
AcDbLine
 62
7
  6
CONTINUOUS
 10
7.789648342
 20
18.9888837011
 11
7.5434059446
 21
19.1120048998
  0
LINE
  5
497
100
AcDbEntity
  8
0
100
AcDbLine
 62
7
  6
CONTINUOUS
 10
17.6630101277
 20
14.3175482544
 11
17.8742179436
 21
14.2119443464
  0
LINE
  5
498
100
AcDbEntity
  8
DRAFT
100
AcDbLine
 62
253
  6
CONTINUOUS
 10
19.941184615
 20
13.5229653827
 11
20.6867166894
 21
13.1472889228
  0
LINE
  5
499
100
AcDbEntity
  8
ASSI
100
AcDbLine
 62
253
  6
CONTINUOUS
 10
19.941184615
 20
13.5229653827
 11
20.6867166894
 21
13.1472889228
  0
LINE
  5
49A
100
AcDbEntity
  8
DRAFT
100
AcDbLine
 62
7
  6
CONTINUOUS
 10
22.5472935269
 20
10.5014886818
 11
22.5411226995
 21
10.5047053067
  0
LINE
  5
49B
100
AcDbEntity
  8
ASSI
100
AcDbLine
 62
7
  6
CONTINUOUS
 10
22.5472935269
 20
10.5014886818
 11
22.5411226995
 21
10.5047053067
  0
LWPOLYLINE
  5
49C
100
AcDbEntity
  8
DRAFT
100
AcDbPolyline
 62
7
  6
CONTINUOUS
 90
10
 70
0
 10
19.4220690068
 20
9.0741041396
 10
19.3295490012
 20
9.1348146565
 10
19.2368825208
 20
9.1961338828
 10
19.1440695656
 20
9.2580618187
 10
19.0511099509
 20
9.3206007406
 10
18.9580038613
 20
9.383748372
 10
18.8647518512
 20
9.4474978836
 10
18.7713541054
 20
9.5118469989
 10
18.6778104391
 20
9.5767979943
 10
18.5841208522
 20
9.64235087
  0
LWPOLYLINE
  5
49D
100
AcDbEntity
  8
ASSI
100
AcDbPolyline
 62
7
  6
CONTINUOUS
 90
10
 70
0
 10
19.4220690068
 20
9.0741041396
 10
19.3295490012
 20
9.1348146565
 10
19.2368825208
 20
9.1961338828
 10
19.1440695656
 20
9.2580618187
 10
19.0511099509
 20
9.3206007406
 10
18.9580038613
 20
9.383748372
 10
18.8647518512
 20
9.4474978836
 10
18.7713541054
 20
9.5118469989
 10
18.6778104391
 20
9.5767979943
 10
18.5841208522
 20
9.64235087
  0
LWPOLYLINE
  5
49E
100
AcDbEntity
  8
ASSI
100
AcDbPolyline
 62
7
  6
CONTINUOUS
 90
7
 70
0
 10
17.9004401044
 20
5.7788429735
 10
17.9224660299
 20
5.738457197
 10
17.983135205
 20
5.6511083832
 10
18.0514655485
 20
5.5740667547
 10
18.1273114676
 20
5.507136434
 10
18.209213093
 20
5.4516056846
 10
18.2526050234
 20
5.4281526723
  0
LWPOLYLINE
  5
49F
100
AcDbEntity
  8
ASSI
100
AcDbPolyline
 62
7
  6
CONTINUOUS
 90
7
 70
0
 10
17.9004401044
 20
10.1089699924
 10
17.9224660299
 20
10.0685842159
 10
17.983135205
 20
9.9812354021
 10
18.0514655485
 20
9.9041937736
 10
18.1273114676
 20
9.8372634529
 10
18.209213093
 20
9.7817327036
 10
18.2526050234
 20
9.7582796912
  0
LWPOLYLINE
  5
4A0
100
AcDbEntity
  8
RACCORDO
100
AcDbPolyline
 62
7
  6
CONTINUOUS
 90
10
 70
0
 10
20.5968544428
 20
2.8291053035
 10
20.6135875128
 20
2.7886416968
 10
20.634161979
 20
2.7324230736
 10
20.6521144666
 20
2.67615
 10
20.6674042904
 20
2.6198012039
 10
20.6800721355
 20
2.5633979574
 10
20.6899472146
 20
2.5077831746
 10
20.6969725985
 20
2.453237827
 10
20.7012052165
 20
2.3994809432
 10
20.7026450684
 20
2.3465125231
  0
LWPOLYLINE
  5
4A1
100
AcDbEntity
  8
ASSI
100
AcDbPolyline
 62
7
  6
CONTINUOUS
 90
10
 70
0
 10
20.5968544428
 20
2.8291053035
 10
20.6135875128
 20
2.7886416968
 10
20.634161979
 20
2.7324230736
 10
20.6521144666
 20
2.67615
 10
20.6674042904
 20
2.6198012039
 10
20.6800721355
 20
2.5633979574
 10
20.6899472146
 20
2.5077831746
 10
20.6969725985
 20
2.453237827
 10
20.7012052165
 20
2.3994809432
 10
20.7026450684
 20
2.3465125231
  0
LWPOLYLINE
  5
4A2
100
AcDbEntity
  8
RACCORDO
100
AcDbPolyline
 62
7
  6
CONTINUOUS
 90
4
 70
0
 10
19.1027199366
 20
1.3940529511
 10
19.0705605412
 20
1.4819967529
 10
18.8956407202
 20
1.8778505242
 10
18.8623976252
 20
1.9411758473
  0
LINE
  5
4A3
100
AcDbEntity
  8
RACCORDO
100
AcDbLine
 62
7
  6
CONTINUOUS
 10
16.6991000376
 20
13.8240887727
 11
16.7172318438
 21
13.7390825085
  0
LINE
  5
4A4
100
AcDbEntity
  8
RACCORDO
100
AcDbLine
 62
7
  6
CONTINUOUS
 10
13.5023799499
 20
25.6459776263
 11
13.5255112393
 21
25.5286832504
  0
LINE
  5
4A5
100
AcDbEntity
  8
ASSI
100
AcDbLine
 62
7
  6
CONTINUOUS
 10
13.5023799499
 20
25.6459776263
 11
13.5255112393
 21
25.5286832504
  0
LINE
  5
4A6
100
AcDbEntity
  8
RACCORDO
100
AcDbLine
 62
7
  6
CONTINUOUS
 10
16.7172318438
 20
13.7390825085
 11
16.7309789828
 21
13.6521929769
  0
LWPOLYLINE
  5
4A7
100
AcDbEntity
  8
RACCORDO
100
AcDbPolyline
 62
7
  6
CONTINUOUS
 90
7
 70
0
 10
16.7309789828
 20
13.6521929769
 10
16.7345908919
 20
13.6218571329
 10
16.7375492447
 20
13.5917130173
 10
16.7398540413
 20
13.5617606304
 10
16.7415052817
 20
13.5319999719
 10
16.7425029658
 20
13.5024310421
 10
16.7428470937
 20
13.4730538407
  0
LINE
  5
4A8
100
AcDbEntity
  8
0
100
AcDbLine
 62
7
  6
CONTINUOUS
 10
21.8340159183
 20
17.3861152988
 11
21.8340159183
 21
14.4734453399
  0
LINE
  5
4A9
100
AcDbEntity
  8
ASSI
100
AcDbLine
 62
7
  6
CONTINUOUS
 10
21.8340159183
 20
17.3861152988
 11
21.8340159183
 21
14.4734453399
  0
LINE
  5
4AA
100
AcDbEntity
  8
0
100
AcDbLine
 62
7
  6
CONTINUOUS
 10
21.8340159183
 20
13.0559882799
 11
21.8340159183
 21
10.143318321
  0
LINE
  5
4AB
100
AcDbEntity
  8
ASSI
100
AcDbLine
 62
7
  6
CONTINUOUS
 10
21.8340159183
 20
13.0559882799
 11
21.8340159183
 21
10.143318321
  0
LINE
  5
4AC
100
AcDbEntity
  8
0
100
AcDbLine
 62
7
  6
CONTINUOUS
 10
21.8340159183
 20
8.725861261
 11
21.8340159183
 21
5.8131913021
  0
LINE
  5
4AD
100
AcDbEntity
  8
ASSI
100
AcDbLine
 62
7
  6
CONTINUOUS
 10
21.8340159183
 20
8.725861261
 11
21.8340159183
 21
5.8131913021
  0
LINE
  5
4AE
100
AcDbEntity
  8
DRAFT
100
AcDbLine
 62
7
  6
CONTINUOUS
 10
22.5411226995
 20
6.1745782878
 11
22.5411226995
 21
9.0965916112
  0
LINE
  5
4AF
100
AcDbEntity
  8
ASSI
100
AcDbLine
 62
7
  6
CONTINUOUS
 10
22.5411226995
 20
6.1745782878
 11
22.5411226995
 21
9.0965916112
  0
LINE
  5
4B0
100
AcDbEntity
  8
DRAFT
100
AcDbLine
 62
7
  6
CONTINUOUS
 10
22.5411226995
 20
10.5047053067
 11
22.5411226995
 21
13.4267186301
  0
LINE
  5
4B1
100
AcDbEntity
  8
ASSI
100
AcDbLine
 62
7
  6
CONTINUOUS
 10
22.5411226995
 20
10.5047053067
 11
22.5411226995
 21
13.4267186301
  0
LINE
  5
4B2
100
AcDbEntity
  8
DRAFT
100
AcDbLine
 62
7
  6
CONTINUOUS
 10
22.5411226995
 20
14.8348323256
 11
22.5411226995
 21
17.756845649
  0
LINE
  5
4B3
100
AcDbEntity
  8
ASSI
100
AcDbLine
 62
7
  6
CONTINUOUS
 10
22.5411226995
 20
14.8348323256
 11
22.5411226995
 21
17.756845649
  0
LINE
  5
4B4
100
AcDbEntity
  8
DRAFT
100
AcDbLine
 62
7
  6
CONTINUOUS
 10
23.2482294807
 20
4.1864374502
 11
23.2482294807
 21
3.368687637
  0
LINE
  5
4B5
100
AcDbEntity
  8
ASSI
100
AcDbLine
 62
7
  6
CONTINUOUS
 10
23.2482294807
 20
4.1864374502
 11
23.2482294807
 21
3.368687637
  0
LINE
  5
4B6
100
AcDbEntity
  8
0
100
AcDbLine
 62
7
  6
CONTINUOUS
 10
23.5310721931
 20
-10.67244145
 11
23.5310721931
 21
-8.6591464727
  0
LINE
  5
4B7
100
AcDbEntity
  8
RACCORDO
100
AcDbLine
 62
253
  6
CONTINUOUS
 10
23.89746529
 20
-12.2311705518
 11
23.8845550705
 21
-12.2405271672
  0
LINE
  5
4B8
100
AcDbEntity
  8
ASSI
100
AcDbLine
 62
253
  6
CONTINUOUS
 10
23.89746529
 20
-12.2311705518
 11
23.8845550705
 21
-12.2405271672
  0
LINE
  5
4B9
100
AcDbEntity
  8
RACCORDO
100
AcDbLine
 62
7
  6
CONTINUOUS
 10
23.973183419
 20
-12.1839725562
 11
23.9591226645
 21
-12.1941650344
  0
LINE
  5
4BA
100
AcDbEntity
  8
ASSI
100
AcDbLine
 62
7
  6
CONTINUOUS
 10
23.9731943219
 20
-12.1839646159
 11
23.9591226645
 21
-12.1941650344
  0
LINE
  5
4BB
100
AcDbEntity
  8
RACCORDO
100
AcDbLine
 62
253
  6
CONTINUOUS
 10
23.9591226645
 20
-12.1941650344
 11
23.9590252885
 21
-12.1942355927
  0
LINE
  5
4BC
100
AcDbEntity
  8
ASSI
100
AcDbLine
 62
253
  6
CONTINUOUS
 10
23.9591226645
 20
-12.1941650344
 11
23.95902529
 21
-12.1942355917
  0
LINE
  5
4BD
100
AcDbEntity
  8
ASSI
100
AcDbLine
 62
7
  6
CONTINUOUS
 10
23.9407335637
 20
-12.2071790343
 11
23.95902529
 21
-12.1942355917
  0
LINE
  5
4BE
100
AcDbEntity
  8
RACCORDO
100
AcDbLine
 62
7
  6
CONTINUOUS
 10
23.9407338113
 20
-12.2071788633
 11
23.9590252885
 21
-12.1942355927
  0
LINE
  5
4BF
100
AcDbEntity
  8
RACCORDO
100
AcDbLine
 62
253
  6
CONTINUOUS
 10
23.9590252885
 20
-12.1942355927
 11
23.9428378471
 21
-12.2055728321
  0
LINE
  5
4C0
100
AcDbEntity
  8
ASSI
100
AcDbLine
 62
253
  6
CONTINUOUS
 10
23.95902529
 20
-12.1942355917
 11
23.9428378471
 21
-12.2055728321
  0
LINE
  5
4C1
100
AcDbEntity
  8
ASSI
100
AcDbLine
 62
7
  6
CONTINUOUS
 10
23.8702260218
 20
-12.2516704873
 11
23.9407335637
 21
-12.2071790343
  0
LINE
  5
4C2
100
AcDbEntity
  8
RACCORDO
100
AcDbLine
 62
7
  6
CONTINUOUS
 10
23.8702260218
 20
-12.2516704873
 11
23.9407338113
 21
-12.2071788633
  0
LINE
  5
4C3
100
AcDbEntity
  8
RACCORDO
100
AcDbLine
 62
253
  6
CONTINUOUS
 10
23.8397671405
 20
-12.2684618612
 11
23.8845550705
 21
-12.2405271672
  0
LINE
  5
4C4
100
AcDbEntity
  8
ASSI
100
AcDbLine
 62
253
  6
CONTINUOUS
 10
23.8397671405
 20
-12.2684618612
 11
23.8845550705
 21
-12.2405271672
  0
LINE
  5
4C5
100
AcDbEntity
  8
RACCORDO
100
AcDbLine
 62
253
  6
CONTINUOUS
 10
23.9720328837
 20
-12.1848084193
 11
23.89746529
 21
-12.2311705518
  0
LINE
  5
4C6
100
AcDbEntity
  8
ASSI
100
AcDbLine
 62
253
  6
CONTINUOUS
 10
23.9720328837
 20
-12.1848084193
 11
23.89746529
 21
-12.2311705518
  0
LINE
  5
4C7
100
AcDbEntity
  8
RACCORDO
100
AcDbLine
 62
253
  6
CONTINUOUS
 10
23.9428378471
 20
-12.2055728321
 11
23.8845550705
 21
-12.2405271672
  0
LINE
  5
4C8
100
AcDbEntity
  8
ASSI
100
AcDbLine
 62
253
  6
CONTINUOUS
 10
23.9428378471
 20
-12.2055728321
 11
23.8845550705
 21
-12.2405271672
  0
LINE
  5
4C9
100
AcDbEntity
  8
RACCORDO
100
AcDbLine
 62
7
  6
CONTINUOUS
 10
23.8396813718
 20
-12.2685072027
 11
23.8702260218
 21
-12.2516704873
  0
LINE
  5
4CA
100
AcDbEntity
  8
ASSI
100
AcDbLine
 62
7
  6
CONTINUOUS
 10
23.839681373
 20
-12.2685072021
 11
23.8702260218
 21
-12.2516704873
  0
LINE
  5
4CB
100
AcDbEntity
  8
RACCORDO
100
AcDbLine
 62
253
  6
CONTINUOUS
 10
23.8845550705
 20
-12.2405271672
 11
4.2164628715
 21
-22.641338306
  0
LINE
  5
4CC
100
AcDbEntity
  8
ASSI
100
AcDbLine
 62
253
  6
CONTINUOUS
 10
23.8845550705
 20
-12.2405271672
 11
4.2164628715
 21
-22.641338306
  0
LINE
  5
4CD
100
AcDbEntity
  8
RACCORDO
100
AcDbLine
 62
7
  6
CONTINUOUS
 10
23.8397671405
 20
-12.2684618612
 11
4.1947707692
 21
-22.6570595458
  0
LINE
  5
4CE
100
AcDbEntity
  8
ASSI
100
AcDbLine
 62
7
  6
CONTINUOUS
 10
23.8397671405
 20
-12.2684618612
 11
4.1947707692
 21
-22.6570595458
  0
LINE
  5
4CF
100
AcDbEntity
  8
DRAFT
100
AcDbLine
 62
7
  6
CONTINUOUS
 10
-2.1015486249
 20
-26.1704529256
 11
3.2566935497
 21
-23.3369261997
  0
LINE
  5
4D0
100
AcDbEntity
  8
ASSI
100
AcDbLine
 62
7
  6
CONTINUOUS
 10
-2.1015486249
 20
-26.1704529256
 11
3.2566935497
 21
-23.3369261997
  0
LINE
  5
4D1
100
AcDbEntity
  8
RACCORDO
100
AcDbLine
 62
253
  6
CONTINUOUS
 10
-2.1015486249
 20
-25.1275488561
 11
24.3116157656
 21
-11.2136874528
  0
LINE
  5
4D2
100
AcDbEntity
  8
ASSI
100
AcDbLine
 62
253
  6
CONTINUOUS
 10
-2.1015486249
 20
-25.1275488561
 11
24.3116157656
 21
-11.2136874528
  0
LINE
  5
4D3
100
AcDbEntity
  8
RACCORDO
100
AcDbLine
 62
253
  6
CONTINUOUS
 10
-2.1015486249
 20
-25.9268667919
 11
23.89746529
 21
-12.2311705518
  0
LINE
  5
4D4
100
AcDbEntity
  8
ASSI
100
AcDbLine
 62
253
  6
CONTINUOUS
 10
-2.1015486249
 20
-25.9268667919
 11
23.89746529
 21
-12.2311705518
  0
LWPOLYLINE
  5
4D5
100
AcDbEntity
  8
RACCORDO
100
AcDbPolyline
 62
253
  6
CONTINUOUS
 90
34
 70
0
 10
-9.0053648257
 20
-30.9470459223
 10
-9.0223132708
 20
-30.9556734072
 10
-9.0399782228
 20
-30.9638913568
 10
-9.0583205483
 20
-30.9716815658
 10
-9.0772996133
 20
-30.9790267765
 10
-9.0968733733
 20
-30.9859107169
 10
-9.1169984664
 20
-30.992318137
 10
-9.1376303091
 20
-30.9982348424
 10
-9.1587231956
 20
-31.0036477257
 10
-9.1802303986
 20
-31.0085447957
 10
-9.2021042729
 20
-31.0129152039
 10
-9.224296361
 20
-31.0167492684
 10
-9.2467575007
 20
-31.0200384956
 10
-9.2694379335
 20
-31.0227755989
 10
-9.2922874151
 20
-31.0249545147
 10
-9.315255327
 20
-31.026570416
 10
-9.338290788
 20
-31.0276197232
 10
-9.3613427673
 20
-31.0281001116
 10
-9.3843601978
 20
-31.028010517
 10
-9.4072920887
 20
-31.0273511381
 10
-9.4300876386
 20
-31.0261234354
 10
-9.4526963484
 20
-31.0243301287
 10
-9.4750681327
 20
-31.0219751907
 10
-9.4971534311
 20
-31.0190638384
 10
-9.5189033177
 20
-31.0156025213
 10
-9.5402696099
 20
-31.0115989074
 10
-9.5612049746
 20
-31.0070618658
 10
-9.5816630335
 20
-31.0020014475
 10
-9.6015984656
 20
-30.9964288629
 10
-9.6209671077
 20
-30.9903564571
 10
-9.6397260524
 20
-30.9837976822
 10
-9.6578337426
 20
-30.9767670681
 10
-9.6752500643
 20
-30.9692801897
 10
-9.6919364348
 20
-30.9613536327
  0
LINE
  5
4D6
100
AcDbEntity
  8
RACCORDO
100
AcDbLine
 62
7
  6
CONTINUOUS
 10
1.5726286755
 20
-24.6136917792
 11
-2.1015486249
 21
-26.4579243186
  0
LINE
  5
4D7
100
AcDbEntity
  8
RACCORDO
100
AcDbLine
 62
7
  6
CONTINUOUS
 10
2.454164134
 20
-24.0542627352
 11
-2.1015486249
 21
-26.3139298488
  0
LINE
  5
4D8
100
AcDbEntity
  8
0
100
AcDbLine
 62
7
  6
CONTINUOUS
 10
9.1827729333
 20
19.6620701892
 11
8.9311905916
 21
19.7878613601
  0
LINE
  5
4D9
100
AcDbEntity
  8
0
100
AcDbLine
 62
7
  6
CONTINUOUS
 10
5.6472390274
 20
21.4298371422
 11
5.3956566856
 21
21.5556283131
  0
LINE
  5
4DA
100
AcDbEntity
  8
0
100
AcDbLine
 62
7
  6
CONTINUOUS
 10
13.7970679857
 20
18.4155828348
 11
13.5413506767
 21
18.5434414893
  0
LINE
  5
4DB
100
AcDbEntity
  8
DRAFT
100
AcDbLine
 62
7
  6
CONTINUOUS
 10
22.5472935269
 20
14.8316157008
 11
22.5411226995
 21
14.8348323256
  0
LINE
  5
4DC
100
AcDbEntity
  8
ASSI
100
AcDbLine
 62
7
  6
CONTINUOUS
 10
22.5472935269
 20
14.8316157008
 11
22.5411226995
 21
14.8348323256
  0
LWPOLYLINE
  5
4DD
100
AcDbEntity
  8
DRAFT
100
AcDbPolyline
 62
7
  6
CONTINUOUS
 90
10
 70
0
 10
19.4220690068
 20
13.4042311585
 10
19.3295490012
 20
13.4649416754
 10
19.2368825208
 20
13.5262609018
 10
19.1440695656
 20
13.5881888376
 10
19.0511099509
 20
13.6507277595
 10
18.9580038613
 20
13.7138753909
 10
18.8647518512
 20
13.7776249025
 10
18.7713541054
 20
13.8419740178
 10
18.6778104391
 20
13.9069250133
 10
18.5841208522
 20
13.9724778889
  0
LWPOLYLINE
  5
4DE
100
AcDbEntity
  8
ASSI
100
AcDbPolyline
 62
7
  6
CONTINUOUS
 90
10
 70
0
 10
19.4220690068
 20
13.4042311585
 10
19.3295490012
 20
13.4649416754
 10
19.2368825208
 20
13.5262609018
 10
19.1440695656
 20
13.5881888376
 10
19.0511099509
 20
13.6507277595
 10
18.9580038613
 20
13.7138753909
 10
18.8647518512
 20
13.7776249025
 10
18.7713541054
 20
13.8419740178
 10
18.6778104391
 20
13.9069250133
 10
18.5841208522
 20
13.9724778889
  0
LWPOLYLINE
  5
4DF
100
AcDbEntity
  8
ASSI
100
AcDbPolyline
 62
7
  6
CONTINUOUS
 90
5
 70
0
 10
17.983135205
 20
14.311362421
 10
18.0514655485
 20
14.2343207925
 10
18.1273114676
 20
14.1673904718
 10
18.209213093
 20
14.1118597225
 10
18.2526050234
 20
14.0884067102
  0
LWPOLYLINE
  5
4E0
100
AcDbEntity
  8
ASSI
100
AcDbPolyline
 62
7
  6
CONTINUOUS
 90
3
 70
0
 10
17.9004401044
 20
14.4390970113
 10
17.9224660299
 20
14.3987112349
 10
17.983135205
 20
14.311362421
  0
LINE
  5
4E1
100
AcDbEntity
  8
RACCORDO
100
AcDbLine
 62
7
  6
CONTINUOUS
 10
17.0379138558
 20
23.8782106734
 11
17.0610451453
 21
23.7609162975
  0
LINE
  5
4E2
100
AcDbEntity
  8
ASSI
100
AcDbLine
 62
7
  6
CONTINUOUS
 10
17.0379138558
 20
23.8782106734
 11
17.0610451453
 21
23.7609162975
  0
LWPOLYLINE
  5
4E3
100
AcDbEntity
  8
RACCORDO
100
AcDbPolyline
 62
253
  6
CONTINUOUS
 90
13
 70
0
 10
24.3116157656
 20
18.9185027586
 10
24.3088890114
 20
19.0334428974
 10
24.3000684245
 20
19.150889241
 10
24.2851911738
 20
19.2703382754
 10
24.2643204341
 20
19.3912768686
 10
24.2375456664
 20
19.5131881401
 10
24.2049817215
 20
19.6355537395
 10
24.1667685721
 20
19.7578501944
 10
24.1230691921
 20
19.8795537325
 10
24.0740685838
 20
20.0001461645
 10
24.0199758395
 20
20.1191123149
 10
23.9610237176
 20
20.2359423078
 10
23.89746529
 20
20.3501363333
  0
LWPOLYLINE
  5
4E4
100
AcDbEntity
  8
ASSI
100
AcDbPolyline
 62
253
  6
CONTINUOUS
 90
13
 70
0
 10
24.3116157656
 20
18.9185027586
 10
24.3088890114
 20
19.0334428974
 10
24.3000684245
 20
19.150889241
 10
24.2851911738
 20
19.2703382754
 10
24.2643204341
 20
19.3912768686
 10
24.2375456664
 20
19.5131881401
 10
24.2049817215
 20
19.6355537395
 10
24.1667685721
 20
19.7578501944
 10
24.1230691921
 20
19.8795537325
 10
24.0740685838
 20
20.0001461645
 10
24.0199758395
 20
20.1191123149
 10
23.9610237176
 20
20.2359423078
 10
23.89746529
 20
20.3501363333
  0
LWPOLYLINE
  5
4E5
100
AcDbEntity
  8
RACCORDO
100
AcDbPolyline
 62
7
  6
CONTINUOUS
 90
9
 70
0
 10
24.5922676211
 20
19.2655555194
 10
24.59139262
 20
19.3259019622
 10
24.5807737126
 20
19.4861387027
 10
24.5585348302
 20
19.6458015965
 10
24.5250374923
 20
19.8049324413
 10
24.4806473408
 20
19.9627954662
 10
24.4260807947
 20
20.1176203662
 10
24.3619037212
 20
20.2685385377
 10
24.2881770721
 20
20.4156126401
  0
LWPOLYLINE
  5
4E6
100
AcDbEntity
  8
ASSI
100
AcDbPolyline
 62
7
  6
CONTINUOUS
 90
9
 70
0
 10
24.5922676125
 20
19.2655480194
 10
24.5914488404
 20
19.3239244702
 10
24.5809270059
 20
19.4846477151
 10
24.5587091062
 20
19.6448052838
 10
24.5251590232
 20
19.8044378647
 10
24.4806449282
 20
19.9628030811
 10
24.4258885599
 20
20.1181149263
 10
24.361460051
 20
20.2694966728
 10
24.2874206967
 20
20.4170099358
  0
LINE
  5
4E7
100
AcDbEntity
  8
RACCORDO
100
AcDbLine
 62
7
  6
CONTINUOUS
 10
24.3088896524
 20
18.6851008035
 11
24.3088896524
 21
15.7067233468
  0
LINE
  5
4E8
100
AcDbEntity
  8
ASSI
100
AcDbLine
 62
7
  6
CONTINUOUS
 10
24.3088896524
 20
18.6851008035
 11
24.3088896524
 21
15.7067233468
  0
LINE
  5
4E9
100
AcDbEntity
  8
RACCORDO
100
AcDbLine
 62
7
  6
CONTINUOUS
 10
24.3088896524
 20
14.3549737845
 11
24.3088896524
 21
11.3765963278
  0
LINE
  5
4EA
100
AcDbEntity
  8
ASSI
100
AcDbLine
 62
7
  6
CONTINUOUS
 10
24.3088896524
 20
14.3549737845
 11
24.3088896524
 21
11.3765963278
  0
LINE
  5
4EB
100
AcDbEntity
  8
RACCORDO
100
AcDbLine
 62
7
  6
CONTINUOUS
 10
24.3088896524
 20
10.0248467656
 11
24.3088896524
 21
7.0464693089
  0
LINE
  5
4EC
100
AcDbEntity
  8
ASSI
100
AcDbLine
 62
7
  6
CONTINUOUS
 10
24.3088896524
 20
10.0248467656
 11
24.3088896524
 21
7.0464693089
  0
LINE
  5
4ED
100
AcDbEntity
  8
RACCORDO
100
AcDbLine
 62
7
  6
CONTINUOUS
 10
24.3088896524
 20
4.7308222952
 11
24.3088896524
 21
3.8990177229
  0
LINE
  5
4EE
100
AcDbEntity
  8
ASSI
100
AcDbLine
 62
7
  6
CONTINUOUS
 10
24.3088896524
 20
4.7308222952
 11
24.3088896524
 21
3.8990177229
  0
LINE
  5
4EF
100
AcDbEntity
  8
RACCORDO
100
AcDbLine
 62
7
  6
CONTINUOUS
 10
24.3088896524
 20
0.4006952763
 11
24.3088896524
 21
-0.431109296
  0
LINE
  5
4F0
100
AcDbEntity
  8
ASSI
100
AcDbLine
 62
7
  6
CONTINUOUS
 10
24.3088896524
 20
0.4006952763
 11
24.3088896524
 21
-0.431109296
  0
LINE
  5
4F1
100
AcDbEntity
  8
RACCORDO
100
AcDbLine
 62
7
  6
CONTINUOUS
 10
24.3088896524
 20
-3.9294317426
 11
24.3088896524
 21
-4.7612363149
  0
LINE
  5
4F2
100
AcDbEntity
  8
ASSI
100
AcDbLine
 62
7
  6
CONTINUOUS
 10
24.3088896524
 20
-3.9294317426
 11
24.3088896524
 21
-4.7612363149
  0
LINE
  5
4F3
100
AcDbEntity
  8
RACCORDO
100
AcDbLine
 62
7
  6
CONTINUOUS
 10
24.3088896524
 20
-8.2595587615
 11
24.3088896524
 21
-9.0913633339
  0
LINE
  5
4F4
100
AcDbEntity
  8
ASSI
100
AcDbLine
 62
7
  6
CONTINUOUS
 10
24.3088896524
 20
-8.2595587615
 11
24.3088896524
 21
-9.0913633339
  0
LINE
  5
4F5
100
AcDbEntity
  8
RACCORDO
100
AcDbLine
 62
253
  6
CONTINUOUS
 10
24.3116157656
 20
15.0004766159
 11
24.3116157656
 21
14.3549737845
  0
LINE
  5
4F6
100
AcDbEntity
  8
ASSI
100
AcDbLine
 62
253
  6
CONTINUOUS
 10
24.3116157656
 20
15.0004766159
 11
24.3116157656
 21
14.3549737845
  0
LINE
  5
4F7
100
AcDbEntity
  8
RACCORDO
100
AcDbLine
 62
253
  6
CONTINUOUS
 10
24.3116157656
 20
10.6703495969
 11
24.3116157656
 21
10.0248467656
  0
LINE
  5
4F8
100
AcDbEntity
  8
ASSI
100
AcDbLine
 62
253
  6
CONTINUOUS
 10
24.3116157656
 20
10.6703495969
 11
24.3116157656
 21
10.0248467656
  0
LINE
  5
4F9
100
AcDbEntity
  8
RACCORDO
100
AcDbLine
 62
253
  6
CONTINUOUS
 10
24.3116157656
 20
6.340222578
 11
24.3116157656
 21
4.7308222952
  0
LINE
  5
4FA
100
AcDbEntity
  8
ASSI
100
AcDbLine
 62
253
  6
CONTINUOUS
 10
24.3116157656
 20
6.340222578
 11
24.3116157656
 21
4.7308222952
  0
LINE
  5
4FB
100
AcDbEntity
  8
RACCORDO
100
AcDbLine
 62
253
  6
CONTINUOUS
 10
24.3116157656
 20
2.9739930106
 11
24.3116157656
 21
0.4006952763
  0
LINE
  5
4FC
100
AcDbEntity
  8
ASSI
100
AcDbLine
 62
253
  6
CONTINUOUS
 10
24.3116157656
 20
2.9739930106
 11
24.3116157656
 21
0.4006952763
  0
LINE
  5
4FD
100
AcDbEntity
  8
RACCORDO
100
AcDbLine
 62
253
  6
CONTINUOUS
 10
24.3116157656
 20
-1.3561340084
 11
24.3116157656
 21
-3.9294317426
  0
LINE
  5
4FE
100
AcDbEntity
  8
ASSI
100
AcDbLine
 62
253
  6
CONTINUOUS
 10
24.3116157656
 20
-1.3561340084
 11
24.3116157656
 21
-3.9294317426
  0
LINE
  5
4FF
100
AcDbEntity
  8
RACCORDO
100
AcDbLine
 62
253
  6
CONTINUOUS
 10
24.3116157656
 20
-5.6862610273
 11
24.3116157656
 21
-8.2595587615
  0
LINE
  5
500
100
AcDbEntity
  8
ASSI
100
AcDbLine
 62
253
  6
CONTINUOUS
 10
24.3116157656
 20
-5.6862610273
 11
24.3116157656
 21
-8.2595587615
  0
LINE
  5
501
100
AcDbEntity
  8
RACCORDO
100
AcDbLine
 62
253
  6
CONTINUOUS
 10
24.3116157656
 20
-10.0163880462
 11
24.3116157656
 21
-11.2136874528
  0
LINE
  5
502
100
AcDbEntity
  8
ASSI
100
AcDbLine
 62
253
  6
CONTINUOUS
 10
24.3116157656
 20
-10.0163880462
 11
24.3116157656
 21
-11.2136874528
  0
LINE
  5
503
100
AcDbEntity
  8
RACCORDO
100
AcDbLine
 62
253
  6
CONTINUOUS
 10
24.3116157656
 20
18.6851008035
 11
24.3116157656
 21
18.9185027586
  0
LINE
  5
504
100
AcDbEntity
  8
ASSI
100
AcDbLine
 62
253
  6
CONTINUOUS
 10
24.3116157656
 20
18.6851008035
 11
24.3116157656
 21
18.9185027586
  0
LINE
  5
505
100
AcDbEntity
  8
RACCORDO
100
AcDbLine
 62
7
  6
CONTINUOUS
 10
24.5922759653
 20
15.3488989912
 11
24.5922759653
 21
14.7012097797
  0
LINE
  5
506
100
AcDbEntity
  8
ASSI
100
AcDbLine
 62
7
  6
CONTINUOUS
 10
24.5922759653
 20
15.3488989912
 11
24.5922759653
 21
14.7012097797
  0
LINE
  5
507
100
AcDbEntity
  8
RACCORDO
100
AcDbLine
 62
7
  6
CONTINUOUS
 10
24.5922759653
 20
11.0187719722
 11
24.5922759653
 21
10.3710827608
  0
LINE
  5
508
100
AcDbEntity
  8
ASSI
100
AcDbLine
 62
7
  6
CONTINUOUS
 10
24.5922759653
 20
11.0187719722
 11
24.5922759653
 21
10.3710827608
  0
LINE
  5
509
100
AcDbEntity
  8
RACCORDO
100
AcDbLine
 62
7
  6
CONTINUOUS
 10
24.5922759653
 20
6.6886449533
 11
24.5922759653
 21
5.010220715
  0
LINE
  5
50A
100
AcDbEntity
  8
ASSI
100
AcDbLine
 62
7
  6
CONTINUOUS
 10
24.5922759653
 20
6.6886449533
 11
24.5922759653
 21
5.010220715
  0
LINE
  5
50B
100
AcDbEntity
  8
RACCORDO
100
AcDbLine
 62
7
  6
CONTINUOUS
 10
24.5922759653
 20
3.3892529613
 11
24.5922759653
 21
0.680093696
  0
LINE
  5
50C
100
AcDbEntity
  8
ASSI
100
AcDbLine
 62
7
  6
CONTINUOUS
 10
24.5922759653
 20
3.3892529613
 11
24.5922759653
 21
0.680093696
  0
LINE
  5
50D
100
AcDbEntity
  8
RACCORDO
100
AcDbLine
 62
7
  6
CONTINUOUS
 10
24.5922759653
 20
-0.9408740576
 11
24.5922759653
 21
-3.6500333229
  0
LINE
  5
50E
100
AcDbEntity
  8
ASSI
100
AcDbLine
 62
7
  6
CONTINUOUS
 10
24.5922759653
 20
-0.9408740576
 11
24.5922759653
 21
-3.6500333229
  0
LINE
  5
50F
100
AcDbEntity
  8
RACCORDO
100
AcDbLine
 62
7
  6
CONTINUOUS
 10
24.5922759653
 20
-5.2710010766
 11
24.5922759653
 21
-7.9801603418
  0
LINE
  5
510
100
AcDbEntity
  8
ASSI
100
AcDbLine
 62
7
  6
CONTINUOUS
 10
24.5922759653
 20
-5.2710010766
 11
24.5922759653
 21
-7.9801603418
  0
LINE
  5
511
100
AcDbEntity
  8
RACCORDO
100
AcDbLine
 62
7
  6
CONTINUOUS
 10
24.5922759653
 20
-9.6011280955
 11
24.5922759653
 21
-10.866358267
  0
LINE
  5
512
100
AcDbEntity
  8
ASSI
100
AcDbLine
 62
7
  6
CONTINUOUS
 10
24.5922759653
 20
-9.6011280955
 11
24.5922759653
 21
-10.866358267
  0
LINE
  5
513
100
AcDbEntity
  8
RACCORDO
100
AcDbLine
 62
7
  6
CONTINUOUS
 10
24.5922759653
 20
19.0313367986
 11
24.5922759653
 21
19.2658319406
  0
LINE
  5
514
100
AcDbEntity
  8
ASSI
100
AcDbLine
 62
7
  6
CONTINUOUS
 10
24.5922759653
 20
19.0313367986
 11
24.5922759653
 21
19.2658319406
  0
LWPOLYLINE
  5
515
100
AcDbEntity
  8
RACCORDO
100
AcDbPolyline
 62
253
  6
CONTINUOUS
 90
10
 70
0
 10
24.3116157656
 20
-11.2136874528
 10
24.3088889325
 20
-11.325289173
 10
24.3000681804
 20
-11.4334076765
 10
24.2851907302
 20
-11.5375809651
 10
24.264319824
 20
-11.6373631623
 10
24.2375449649
 20
-11.7323286332
 10
24.2049809857
 20
-11.822073348
 10
24.1667678752
 20
-11.9062128795
 10
24.1230686243
 20
-11.9843873978
 10
24.0740681665
 20
-12.0562645552
  0
LWPOLYLINE
  5
516
100
AcDbEntity
  8
ASSI
100
AcDbPolyline
 62
253
  6
CONTINUOUS
 90
10
 70
0
 10
24.3116157656
 20
-11.2136874528
 10
24.3088889325
 20
-11.325289173
 10
24.3000681804
 20
-11.4334076765
 10
24.2851907302
 20
-11.5375809651
 10
24.264319824
 20
-11.6373631623
 10
24.2375449649
 20
-11.7323286332
 10
24.2049809857
 20
-11.822073348
 10
24.1667678752
 20
-11.9062128795
 10
24.1230686243
 20
-11.9843873978
 10
24.0740681665
 20
-12.0562645552
  0
LINE
  5
517
100
AcDbEntity
  8
RACCORDO
100
AcDbLine
 62
7
  6
CONTINUOUS
 10
24.5879038685
 20
-10.9991215463
 11
24.592267726
 21
-10.8664943701
  0
LINE
  5
518
100
AcDbEntity
  8
ASSI
100
AcDbLine
 62
7
  6
CONTINUOUS
 10
24.5879081494
 20
-10.9989914415
 11
24.5922677245
 21
-10.8664971507
  0
LWPOLYLINE
  5
519
100
AcDbEntity
  8
RACCORDO
100
AcDbPolyline
 62
253
  6
CONTINUOUS
 90
9
 70
0
 10
24.5922759283
 20
-10.8664943765
 10
24.5913495644
 20
-10.8878753739
 10
24.5815488449
 20
-10.9393979301
 10
24.5611486705
 20
-10.9901379911
 10
24.5303675729
 20
-11.0395518972
 10
24.4895353359
 20
-11.0871101749
 10
24.4390894389
 20
-11.1323032509
 10
24.3795703512
 20
-11.1746469086
 10
24.3116157656
 20
-11.2136874509
  0
LWPOLYLINE
  5
51A
100
AcDbEntity
  8
ASSI
100
AcDbPolyline
 62
253
  6
CONTINUOUS
 90
9
 70
0
 10
24.5922759267
 20
-10.8664971571
 10
24.5913495644
 20
-10.8878753739
 10
24.5815488449
 20
-10.9393979301
 10
24.5611486705
 20
-10.9901379911
 10
24.5303675729
 20
-11.0395518972
 10
24.4895353359
 20
-11.0871101749
 10
24.4390894389
 20
-11.1323032509
 10
24.3795703512
 20
-11.1746469086
 10
24.3116157656
 20
-11.2136874509
  0
LWPOLYLINE
  5
51B
100
AcDbEntity
  8
RACCORDO
100
AcDbPolyline
 62
253
  6
CONTINUOUS
 90
3
 70
0
 10
24.0740681665
 20
-12.0562645552
 10
24.0199755578
 20
-12.1215366079
 10
23.9610235768
 20
-12.1799222957
  0
LWPOLYLINE
  5
51C
100
AcDbEntity
  8
ASSI
100
AcDbPolyline
 62
253
  6
CONTINUOUS
 90
3
 70
0
 10
24.0740681665
 20
-12.0562645552
 10
24.0199755578
 20
-12.1215366079
 10
23.9610235768
 20
-12.1799222957
  0
LWPOLYLINE
  5
51D
100
AcDbEntity
  8
ASSI
100
AcDbPolyline
 62
7
  6
CONTINUOUS
 90
10
 70
0
 10
24.0731309627
 20
-12.1040606912
 10
24.166208223
 20
-12.0145192899
 10
24.2516881355
 20
-11.9157224094
 10
24.328846475
 20
-11.8081843663
 10
24.3972987611
 20
-11.6920416111
 10
24.4564136117
 20
-11.5677195433
 10
24.5054814257
 20
-11.4359596234
 10
24.5440921776
 20
-11.2970131608
 10
24.5717590689
 20
-11.1511298982
 10
24.5879081494
 20
-10.9989914415
  0
LINE
  5
51E
100
AcDbEntity
  8
RACCORDO
100
AcDbLine
 62
253
  6
CONTINUOUS
 10
23.9610235768
 20
-12.1799222957
 11
23.89746529
 21
-12.2311705518
  0
LINE
  5
51F
100
AcDbEntity
  8
ASSI
100
AcDbLine
 62
253
  6
CONTINUOUS
 10
23.9610235768
 20
-12.1799222957
 11
23.89746529
 21
-12.2311705518
  0
LWPOLYLINE
  5
520
100
AcDbEntity
  8
RACCORDO
100
AcDbPolyline
 62
7
  6
CONTINUOUS
 90
11
 70
0
 10
23.9731719065
 20
-12.1839568156
 10
24.0749541783
 20
-12.1024583412
 10
24.1676906997
 20
-12.0129541946
 10
24.252853531
 20
-11.9142425664
 10
24.3297245771
 20
-11.8068349809
 10
24.3979218366
 20
-11.6908671107
 10
24.4568184346
 20
-11.5667612807
 10
24.5057103549
 20
-11.4352532253
 10
24.5441903949
 20
-11.2965918512
 10
24.5717745737
 20
-11.1510247453
 10
24.5879038685
 20
-10.9991215463
  0
LINE
  5
521
100
AcDbEntity
  8
ASSI
100
AcDbLine
 62
7
  6
CONTINUOUS
 10
23.9731828092
 20
-12.1839488756
 11
24.0731309627
 21
-12.1040606912
  0
LWPOLYLINE
  5
522
100
AcDbEntity
  8
RACCORDO
100
AcDbPolyline
 62
7
  6
CONTINUOUS
 90
19
 70
0
 10
-3.2232200069
 20
-31.134421622
 10
-3.2169943351
 20
-31.1306030122
 10
-3.2110449972
 20
-31.12629126
 10
-3.2053854729
 20
-31.1214961349
 10
-3.2000286123
 20
-31.1162285141
 10
-3.1949865423
 20
-31.1105003266
 10
-3.1902706417
 20
-31.1043245302
 10
-3.1858916444
 20
-31.0977151407
 10
-3.1818594842
 20
-31.0906871385
 10
-3.1781832071
 20
-31.0832564046
 10
-3.1748712121
 20
-31.0754398085
 10
-3.1719310378
 20
-31.0672550759
 10
-3.1693692133
 20
-31.0587206876
 10
-3.1671916319
 20
-31.0498560226
 10
-3.1654032837
 20
-31.040681191
 10
-3.1640080481
 20
-31.0312168962
 10
-3.1630090901
 20
-31.0214845817
 10
-3.1624088527
 20
-31.0115063827
 10
-3.1622087967
 20
-31.0013049529
  0
LWPOLYLINE
  5
523
100
AcDbEntity
  8
RACCORDO
100
AcDbPolyline
 62
253
  6
CONTINUOUS
 90
18
 70
0
 10
-2.6976241147
 20
-30.8648548582
 10
-2.6920330068
 20
-30.861741227
 10
-2.68531537
 20
-30.85729565
 10
-2.6789443252
 20
-30.8522608541
 10
-2.6729373765
 20
-30.8466506512
 10
-2.6673110228
 20
-30.8404804395
 10
-2.6620806997
 20
-30.8337671422
 10
-2.6572607445
 20
-30.8265291573
 10
-2.6528643778
 20
-30.818786331
 10
-2.6489036561
 20
-30.8105598904
 10
-2.645389443
 20
-30.8018723916
 10
-2.6423313795
 20
-30.7927476627
 10
-2.6397378506
 20
-30.7832107168
 10
-2.6376159711
 20
-30.7732877097
 10
-2.6359715644
 20
-30.76300588
 10
-2.6348091375
 20
-30.7523934335
 10
-2.634131873
 20
-30.7414794621
 10
-2.6339416249
 20
-30.7302938943
  0
LWPOLYLINE
  5
524
100
AcDbEntity
  8
RACCORDO
100
AcDbPolyline
 62
253
  6
CONTINUOUS
 90
18
 70
0
 10
-4.8297511801
 20
-31.9171901787
 10
-4.8224046463
 20
-31.9131962355
 10
-4.8156934908
 20
-31.9087514973
 10
-4.8093209389
 20
-31.9037138856
 10
-4.8033044567
 20
-31.8980972078
 10
-4.7976605342
 20
-31.8919168579
 10
-4.7924046404
 20
-31.8851897753
 10
-4.7875511806
 20
-31.8779343975
 10
-4.7831134574
 20
-31.8701706101
 10
-4.7791036335
 20
-31.8619196924
 10
-4.7755326993
 20
-31.8532042585
 10
-4.772410442
 20
-31.8440481957
 10
-4.7697454191
 20
-31.8344765991
 10
-4.767544935
 20
-31.8245157027
 10
-4.7658150207
 20
-31.8141928075
 10
-4.7645604176
 20
-31.8035362064
 10
-4.7637845644
 20
-31.7925751073
 10
-4.7634895875
 20
-31.7813395526
  0
LWPOLYLINE
  5
525
100
AcDbEntity
  8
RACCORDO
100
AcDbPolyline
 62
7
  6
CONTINUOUS
 90
22
 70
0
 10
-2.6976241147
 20
-30.8648548582
 10
-2.6878173824
 20
-30.8595439255
 10
-2.6768057578
 20
-30.8528772751
 10
-2.6661420942
 20
-30.8456456518
 10
-2.655855396
 20
-30.8378664347
 10
-2.6459667095
 20
-30.8295521438
 10
-2.6365035172
 20
-30.8207211626
 10
-2.627495256
 20
-30.8113960705
 10
-2.6189658987
 20
-30.8015963014
 10
-2.6109410738
 20
-30.7913449943
 10
-2.6034465605
 20
-30.7806684081
 10
-2.596505464
 20
-30.7695922985
 10
-2.5901404472
 20
-30.7581449341
 10
-2.5843727074
 20
-30.7463558609
 10
-2.5792214078
 20
-30.7342545461
 10
-2.5747042669
 20
-30.7218710888
 10
-2.5708388266
 20
-30.70924049
 10
-2.5676410372
 20
-30.6964014143
 10
-2.5651234493
 20
-30.6833897679
 10
-2.5632964984
 20
-30.6702412949
 10
-2.5621689724
 20
-30.6569959474
 10
-2.5617437679
 20
-30.6424209259
  0
LINE
  5
526
100
AcDbEntity
  8
RACCORDO
100
AcDbLine
 62
7
  6
CONTINUOUS
 10
-3.2263138944
 20
-31.136082723
 11
-3.2232200069
 21
-31.134421622
  0
LINE
  5
527
100
AcDbEntity
  8
RACCORDO
100
AcDbLine
 62
253
  6
CONTINUOUS
 10
-2.6339416249
 20
-30.7302938943
 11
-3.1622087967
 21
-31.0013049529
  0
LINE
  5
528
100
AcDbEntity
  8
RACCORDO
100
AcDbLine
 62
7
  6
CONTINUOUS
 10
-2.6976296625
 20
-30.8648577045
 11
-3.2263138964
 21
-31.136082724
  0
LINE
  5
529
100
AcDbEntity
  8
RACCORDO
100
AcDbLine
 62
7
  6
CONTINUOUS
 10
-3.228050311
 20
-31.1369509457
 11
-3.2263138944
 21
-31.136082723
  0
LINE
  5
52A
100
AcDbEntity
  8
RACCORDO
100
AcDbLine
 62
253
  6
CONTINUOUS
 10
-2.8194565069
 20
-29.1445659576
 11
-2.1015486249
 21
-28.79038667
  0
LINE
  5
52B
100
AcDbEntity
  8
RACCORDO
100
AcDbLine
 62
7
  6
CONTINUOUS
 10
-2.9514078768
 20
-29.4118853339
 11
-2.2298034473
 21
-29.0558823575
  0
LINE
  5
52C
100
AcDbEntity
  8
RACCORDO
100
AcDbLine
 62
253
  6
CONTINUOUS
 10
-3.1622087967
 20
-31.0013049529
 11
-4.7634895875
 21
-31.7813395526
  0
LINE
  5
52D
100
AcDbEntity
  8
RACCORDO
100
AcDbLine
 62
7
  6
CONTINUOUS
 10
-3.2280503102
 20
-31.1369509453
 11
-4.8297511801
 21
-31.9171901787
  0
LINE
  5
52E
100
AcDbEntity
  8
RACCORDO
100
AcDbLine
 62
7
  6
CONTINUOUS
 10
-2.9514078768
 20
-29.4118853339
 11
-2.9615894232
 21
-29.416528571
  0
LWPOLYLINE
  5
52F
100
AcDbEntity
  8
RACCORDO
100
AcDbPolyline
 62
7
  6
CONTINUOUS
 90
18
 70
0
 10
-4.8297511801
 20
-31.9171901787
 10
-4.8419721398
 20
-31.9227425449
 10
-4.8546012635
 20
-31.927676985
 10
-4.8676000627
 20
-31.931955614
 10
-4.8809453132
 20
-31.9355481879
 10
-4.8945710424
 20
-31.9384164151
 10
-4.9083700013
 20
-31.940525887
 10
-4.9222689834
 20
-31.9418621351
 10
-4.9362384046
 20
-31.9424205227
 10
-4.9502392562
 20
-31.9421961698
 10
-4.9642127204
 20
-31.9411875634
 10
-4.9781184758
 20
-31.939396096
 10
-4.9919519156
 20
-31.9368171037
 10
-5.0057199771
 20
-31.9334358415
 10
-5.019321026
 20
-31.929263743
 10
-5.0326068566
 20
-31.9243472319
 10
-5.0455410119
 20
-31.9187104417
 10
-5.0510442557
 20
-31.9160422761
  0
LINE
  5
530
100
AcDbEntity
  8
RACCORDO
100
AcDbLine
 62
253
  6
CONTINUOUS
 10
-8.3173652898
 20
-31.4523647472
 11
-2.8194565069
 21
-29.1445659576
  0
LINE
  5
531
100
AcDbEntity
  8
RACCORDO
100
AcDbLine
 62
7
  6
CONTINUOUS
 10
-8.4680963903
 20
-31.7279365316
 11
-2.9615894921
 21
-29.4165286024
  0
LWPOLYLINE
  5
532
100
AcDbEntity
  8
RACCORDO
100
AcDbPolyline
 62
7
  6
CONTINUOUS
 90
5
 70
0
 10
10.2767045152
 20
27.484766767
 10
10.1936823422
 20
27.4712066355
 10
10.1123559194
 20
27.4507943389
 10
10.0332481338
 20
27.4237273082
 10
9.9692500315
 20
27.3961907414
  0
LWPOLYLINE
  5
533
100
AcDbEntity
  8
ASSI
100
AcDbPolyline
 62
7
  6
CONTINUOUS
 90
5
 70
0
 10
10.2767045152
 20
27.484766767
 10
10.1936823422
 20
27.4712066355
 10
10.1123559194
 20
27.4507943389
 10
10.0332481338
 20
27.4237273082
 10
9.9692500315
 20
27.3961907414
  0
LINE
  5
534
100
AcDbEntity
  8
RACCORDO
100
AcDbLine
 62
7
  6
CONTINUOUS
 10
20.5734477617
 20
22.1104437204
 11
20.5965790512
 21
21.9931493445
  0
LINE
  5
535
100
AcDbEntity
  8
ASSI
100
AcDbLine
 62
7
  6
CONTINUOUS
 10
20.5734477617
 20
22.1104437204
 11
20.5965790512
 21
21.9931493445
  0
LWPOLYLINE
  5
536
100
AcDbEntity
  8
RACCORDO
100
AcDbPolyline
 62
7
  6
CONTINUOUS
 90
4
 70
0
 10
10.5281244849
 20
27.4832035559
 10
10.444589383
 20
27.4907684063
 10
10.3605934617
 20
27.4913018563
 10
10.2767045152
 20
27.484766767
  0
LWPOLYLINE
  5
537
100
AcDbEntity
  8
ASSI
100
AcDbPolyline
 62
7
  6
CONTINUOUS
 90
4
 70
0
 10
10.5281244849
 20
27.4832035559
 10
10.444589383
 20
27.4907684063
 10
10.3605934617
 20
27.4913018563
 10
10.2767045152
 20
27.484766767
  0
LWPOLYLINE
  5
538
100
AcDbEntity
  8
RACCORDO
100
AcDbPolyline
 62
253
  6
CONTINUOUS
 90
9
 70
0
 10
10.8434599875
 20
27.3863648151
 10
10.8079809812
 20
27.4018730561
 10
10.7569009659
 20
27.4171759242
 10
10.7031367706
 20
27.4255926847
 10
10.6470885364
 20
27.4270606957
 10
10.5891734038
 20
27.4215690316
 10
10.5298224074
 20
27.409158564
 10
10.4694772684
 20
27.3899216583
 10
10.4085871069
 20
27.3640014855
  0
LWPOLYLINE
  5
539
100
AcDbEntity
  8
ASSI
100
AcDbPolyline
 62
253
  6
CONTINUOUS
 90
9
 70
0
 10
10.8434599875
 20
27.3863648151
 10
10.8079809812
 20
27.4018730561
 10
10.7569009659
 20
27.4171759242
 10
10.7031367706
 20
27.4255926847
 10
10.6470885364
 20
27.4270606957
 10
10.5891734038
 20
27.4215690316
 10
10.5298224074
 20
27.409158564
 10
10.4694772684
 20
27.3899216583
 10
10.4085871069
 20
27.3640014855
  0
LWPOLYLINE
  5
53A
100
AcDbEntity
  8
RACCORDO
100
AcDbPolyline
 62
7
  6
CONTINUOUS
 90
5
 70
0
 10
10.8434599875
 20
27.3863648151
 10
10.7687373947
 20
27.4199731344
 10
10.6908722171
 20
27.4475501348
 10
10.6104596158
 20
27.468724548
 10
10.5281244849
 20
27.4832035559
  0
LWPOLYLINE
  5
53B
100
AcDbEntity
  8
ASSI
100
AcDbPolyline
 62
7
  6
CONTINUOUS
 90
5
 70
0
 10
10.8434599875
 20
27.3863648151
 10
10.7687373947
 20
27.4199731344
 10
10.6908722171
 20
27.4475501348
 10
10.6104596158
 20
27.468724548
 10
10.5281244849
 20
27.4832035559
  0
LWPOLYLINE
  5
53C
100
AcDbEntity
  8
RACCORDO
100
AcDbPolyline
 62
253
  6
CONTINUOUS
 90
9
 70
0
 10
10.4085871069
 20
27.3640014855
 10
10.3473685928
 20
27.3917057106
 10
10.2865219488
 20
27.4125643559
 10
10.226510106
 20
27.4264187254
 10
10.1677896441
 20
27.4331634129
 10
10.1108073177
 20
27.4327471036
 10
10.0559966575
 20
27.425172965
 10
10.0037746719
 20
27.4104986223
 10
9.9697023565
 20
27.3964044205
  0
LWPOLYLINE
  5
53D
100
AcDbEntity
  8
ASSI
100
AcDbPolyline
 62
253
  6
CONTINUOUS
 90
9
 70
0
 10
10.4085871069
 20
27.3640014855
 10
10.3473685928
 20
27.3917057106
 10
10.2865219488
 20
27.4125643559
 10
10.226510106
 20
27.4264187254
 10
10.1677896441
 20
27.4331634129
 10
10.1108073177
 20
27.4327471036
 10
10.0559966575
 20
27.425172965
 10
10.0037746719
 20
27.4104986223
 10
9.9697023565
 20
27.3964044205
  0
LINE
  5
53E
100
AcDbEntity
  8
DRAFT
100
AcDbLine
 62
7
  6
CONTINUOUS
 10
16.6359316226
 20
23.2635899345
 11
16.3547650982
 21
23.4031706952
  0
LINE
  5
53F
100
AcDbEntity
  8
ASSI
100
AcDbLine
 62
7
  6
CONTINUOUS
 10
16.6359316226
 20
23.2635899345
 11
16.3547650982
 21
23.4031706952
  0
LINE
  5
540
100
AcDbEntity
  8
DRAFT
100
AcDbLine
 62
7
  6
CONTINUOUS
 10
13.1003977166
 20
25.0313568875
 11
12.8192311923
 21
25.1709376482
  0
LINE
  5
541
100
AcDbEntity
  8
ASSI
100
AcDbLine
 62
7
  6
CONTINUOUS
 10
13.1003977166
 20
25.0313568875
 11
12.8192311923
 21
25.1709376482
  0
LINE
  5
542
100
AcDbEntity
  8
0
100
AcDbLine
 62
7
  6
CONTINUOUS
 10
16.014926861
 20
22.9635076467
 11
15.7371563932
 21
23.1023928806
  0
LINE
  5
543
100
AcDbEntity
  8
0
100
AcDbLine
 62
7
  6
CONTINUOUS
 10
12.479392955
 20
24.7312745997
 11
12.2016224872
 21
24.8701598336
  0
LINE
  5
544
100
AcDbEntity
  8
DRAFT
100
AcDbLine
 62
7
  6
CONTINUOUS
 10
19.8147022032
 20
21.3234275967
 11
19.5359188794
 21
21.4628192586
  0
LINE
  5
545
100
AcDbEntity
  8
ASSI
100
AcDbLine
 62
7
  6
CONTINUOUS
 10
19.8147022032
 20
21.3234275967
 11
19.5359188794
 21
21.4628192586
  0
LINE
  5
546
100
AcDbEntity
  8
DRAFT
100
AcDbLine
 62
7
  6
CONTINUOUS
 10
20.8934633497
 20
21.8447071953
 11
20.5965790512
 21
21.9931493445
  0
LINE
  5
547
100
AcDbEntity
  8
ASSI
100
AcDbLine
 62
7
  6
CONTINUOUS
 10
20.8934633497
 20
21.8447071953
 11
20.5965790512
 21
21.9931493445
  0
LINE
  5
548
100
AcDbEntity
  8
DRAFT
100
AcDbLine
 62
7
  6
CONTINUOUS
 10
17.3579294437
 20
23.6124741482
 11
17.0610451453
 21
23.7609162975
  0
LINE
  5
549
100
AcDbEntity
  8
ASSI
100
AcDbLine
 62
7
  6
CONTINUOUS
 10
17.3579294437
 20
23.6124741482
 11
17.0610451453
 21
23.7609162975
  0
LINE
  5
54A
100
AcDbEntity
  8
DRAFT
100
AcDbLine
 62
7
  6
CONTINUOUS
 10
13.8223955378
 20
25.3802411012
 11
13.5255112393
 21
25.5286832504
  0
LINE
  5
54B
100
AcDbEntity
  8
ASSI
100
AcDbLine
 62
7
  6
CONTINUOUS
 10
13.8223955378
 20
25.3802411012
 11
13.5255112393
 21
25.5286832504
  0
LINE
  5
54C
100
AcDbEntity
  8
RACCORDO
100
AcDbLine
 62
253
  6
CONTINUOUS
 10
10.4085871069
 20
27.3640014855
 11
12.6181740496
 21
26.2592080141
  0
LINE
  5
54D
100
AcDbEntity
  8
ASSI
100
AcDbLine
 62
253
  6
CONTINUOUS
 10
10.4085871069
 20
27.3640014855
 11
12.6181740496
 21
26.2592080141
  0
LINE
  5
54E
100
AcDbEntity
  8
RACCORDO
100
AcDbLine
 62
253
  6
CONTINUOUS
 10
23.3846312229
 20
20.8759794275
 11
21.1750442802
 21
21.9807728989
  0
LINE
  5
54F
100
AcDbEntity
  8
ASSI
100
AcDbLine
 62
253
  6
CONTINUOUS
 10
23.3846312229
 20
20.8759794275
 11
21.1750442802
 21
21.9807728989
  0
LINE
  5
550
100
AcDbEntity
  8
RACCORDO
100
AcDbLine
 62
253
  6
CONTINUOUS
 10
19.6892418615
 20
22.7236741082
 11
17.6395103743
 21
23.7485398518
  0
LINE
  5
551
100
AcDbEntity
  8
ASSI
100
AcDbLine
 62
253
  6
CONTINUOUS
 10
19.6892418615
 20
22.7236741082
 11
17.6395103743
 21
23.7485398518
  0
LINE
  5
552
100
AcDbEntity
  8
RACCORDO
100
AcDbLine
 62
253
  6
CONTINUOUS
 10
16.1537079556
 20
24.4914410612
 11
14.1039764683
 21
25.5163068048
  0
LINE
  5
553
100
AcDbEntity
  8
ASSI
100
AcDbLine
 62
253
  6
CONTINUOUS
 10
16.1537079556
 20
24.4914410612
 11
14.1039764683
 21
25.5163068048
  0
LINE
  5
554
100
AcDbEntity
  8
RACCORDO
100
AcDbLine
 62
7
  6
CONTINUOUS
 10
10.8434599875
 20
27.3863648151
 11
13.0957249472
 21
26.2602323352
  0
LINE
  5
555
100
AcDbEntity
  8
ASSI
100
AcDbLine
 62
7
  6
CONTINUOUS
 10
10.8434599875
 20
27.3863648151
 11
13.0957249472
 21
26.2602323352
  0
LINE
  5
556
100
AcDbEntity
  8
RACCORDO
100
AcDbLine
 62
7
  6
CONTINUOUS
 10
23.8195041035
 20
20.8983427571
 11
21.5672391437
 21
22.024475237
  0
LINE
  5
557
100
AcDbEntity
  8
ASSI
100
AcDbLine
 62
7
  6
CONTINUOUS
 10
23.8195041035
 20
20.8983427571
 11
21.5672391437
 21
22.024475237
  0
LINE
  5
558
100
AcDbEntity
  8
RACCORDO
100
AcDbLine
 62
7
  6
CONTINUOUS
 10
20.1667927591
 20
22.7246984293
 11
18.0317052378
 21
23.79224219
  0
LINE
  5
559
100
AcDbEntity
  8
ASSI
100
AcDbLine
 62
7
  6
CONTINUOUS
 10
20.1667927591
 20
22.7246984293
 11
18.0317052378
 21
23.79224219
  0
LINE
  5
55A
100
AcDbEntity
  8
RACCORDO
100
AcDbLine
 62
7
  6
CONTINUOUS
 10
16.6312588532
 20
24.4924653823
 11
14.4961713319
 21
25.5600091429
  0
LINE
  5
55B
100
AcDbEntity
  8
ASSI
100
AcDbLine
 62
7
  6
CONTINUOUS
 10
16.6312588532
 20
24.4924653823
 11
14.4961713319
 21
25.5600091429
  0
LWPOLYLINE
  5
55C
100
AcDbEntity
  8
RACCORDO
100
AcDbPolyline
 62
7
  6
CONTINUOUS
 90
8
 70
0
 10
23.8195041035
 20
20.8983427571
 10
23.898100152
 20
20.8545174055
 10
23.9729906577
 20
20.8033896781
 10
24.0433229045
 20
20.7453435956
 10
24.108181557
 20
20.681015517
 10
24.1669920781
 20
20.6109158654
 10
24.2194241251
 20
20.5352955006
 10
24.2373898156
 20
20.5055161472
  0
LWPOLYLINE
  5
55D
100
AcDbEntity
  8
ASSI
100
AcDbPolyline
 62
7
  6
CONTINUOUS
 90
8
 70
0
 10
23.8195041035
 20
20.8983427571
 10
23.898100152
 20
20.8545174055
 10
23.9729906577
 20
20.8033896781
 10
24.0433229045
 20
20.7453435956
 10
24.108181557
 20
20.681015517
 10
24.1669920781
 20
20.6109158654
 10
24.2194241251
 20
20.5352955006
 10
24.2373898156
 20
20.5055161472
  0
LINE
  5
55E
100
AcDbEntity
  8
0
100
AcDbLine
 62
7
  6
CONTINUOUS
 10
18.4933677784
 20
20.9550928628
 11
18.6755128141
 21
20.7729478271
  0
LINE
  5
55F
100
AcDbEntity
  8
RACCORDO
100
AcDbLine
 62
253
  6
CONTINUOUS
 10
24.2460475497
 20
20.4865813224
 11
24.2503085386
 21
20.483234691
  0
LINE
  5
560
100
AcDbEntity
  8
ASSI
100
AcDbLine
 62
253
  6
CONTINUOUS
 10
24.2460475497
 20
20.4865813224
 11
24.2503085386
 21
20.483234691
  0
LWPOLYLINE
  5
561
100
AcDbEntity
  8
RACCORDO
100
AcDbPolyline
 62
253
  6
CONTINUOUS
 90
10
 70
0
 10
23.8845550705
 20
20.3724031682
 10
23.8394764904
 20
20.4463668121
 10
23.7908434845
 20
20.516964216
 10
23.7390260605
 20
20.5836582636
 10
23.6844184535
 20
20.6459415357
 10
23.6274361271
 20
20.7033401713
 10
23.568512612
 20
20.7554174724
 10
23.5080962076
 20
20.8017772265
 10
23.4466465717
 20
20.8420667212
 10
23.3846312229
 20
20.8759794275
  0
LWPOLYLINE
  5
562
100
AcDbEntity
  8
ASSI
100
AcDbPolyline
 62
253
  6
CONTINUOUS
 90
10
 70
0
 10
23.8845550705
 20
20.3724031682
 10
23.8394764904
 20
20.4463668121
 10
23.7908434845
 20
20.516964216
 10
23.7390260605
 20
20.5836582636
 10
23.6844184535
 20
20.6459415357
 10
23.6274361271
 20
20.7033401713
 10
23.568512612
 20
20.7554174724
 10
23.5080962076
 20
20.8017772265
 10
23.4466465717
 20
20.8420667212
 10
23.3846312229
 20
20.8759794275
  0
LINE
  5
563
100
AcDbEntity
  8
RACCORDO
100
AcDbLine
 62
253
  6
CONTINUOUS
 10
23.89746529
 20
20.3501363333
 11
23.8845550705
 21
20.3724031682
  0
LINE
  5
564
100
AcDbEntity
  8
ASSI
100
AcDbLine
 62
253
  6
CONTINUOUS
 10
23.89746529
 20
20.3501363333
 11
23.8845550705
 21
20.3724031682
  0
LINE
  5
565
100
AcDbEntity
  8
RACCORDO
100
AcDbLine
 62
7
  6
CONTINUOUS
 10
24.2503085386
 20
20.483234691
 11
24.2373983193
 21
20.5055015257
  0
LINE
  5
566
100
AcDbEntity
  8
ASSI
100
AcDbLine
 62
7
  6
CONTINUOUS
 10
24.2503085386
 20
20.483234691
 11
24.2373983193
 21
20.5055015257
  0
LINE
  5
567
100
AcDbEntity
  8
ASSI
100
AcDbLine
 62
7
  6
CONTINUOUS
 10
24.2874206967
 20
20.4170099358
 11
24.2503068996
 21
20.4832252701
  0
LINE
  5
568
100
AcDbEntity
  8
RACCORDO
100
AcDbLine
 62
7
  6
CONTINUOUS
 10
24.2881770721
 20
20.4156126401
 11
24.2503068746
 21
20.4832253133
  0
ELLIPSE
  5
569
100
AcDbEntity
  8
ASSI
100
AcDbEllipse
 62
7
  6
CONTINUOUS
 10
-8.4679424476
 20
18.1011478065
 30
0.0
 11
0.2243888929
 21
0.4435680214
 31
0.0
 40
0.6159267166
 41
0.5430430465
 42
0.6759705412
  0
ELLIPSE
  5
56A
100
AcDbEntity
  8
RACCORDO
100
AcDbEllipse
 62
7
  6
CONTINUOUS
 10
-2.4480837266
 20
-28.61718375
 30
0.0
 11
-0.2191716667
 21
0.4382558376
 31
0.0
 40
0.6124778111
 41
-3.144909013
 42
-2.255529033
  0
ELLIPSE
  5
56B
100
AcDbEntity
  8
RACCORDO
100
AcDbEllipse
 62
7
  6
CONTINUOUS
 10
-2.4480837266
 20
9.3169017481
 30
0.0
 11
-0.2192305083
 21
0.4383081735
 31
0.0
 40
0.6122950388
 41
-2.2557482655
 42
-0.6847996396
  0
ELLIPSE
  5
56C
100
AcDbEntity
  8
RACCORDO
100
AcDbEllipse
 62
7
  6
CONTINUOUS
 10
2.2735379398
 20
-24.1043245756
 30
0.0
 11
0.9987332359
 21
0.6172510855
 31
0.0
 40
0.0815198604
 41
-2.3978073241
 42
-1.2985018509
  0
ELLIPSE
  5
56D
100
AcDbEntity
  8
RACCORDO
100
AcDbEllipse
 62
7
  6
CONTINUOUS
 10
-9.5171943486
 20
18.7057091128
 30
0.0
 11
0.9987332359
 21
0.6172510855
 31
0.0
 40
0.0815198604
 41
0.0503395054
 42
0.7263320369
  0
ELLIPSE
  5
56E
100
AcDbEntity
  8
RACCORDO
100
AcDbEllipse
 62
7
  6
CONTINUOUS
 10
-13.8021029567
 20
15.5750938581
 30
0.0
 11
0.4999985559
 21
0.0023864752
 31
0.0
 40
0.5035541159
 41
2.3596088132
 42
3.0002042076
  0
ELLIPSE
  5
56F
100
AcDbEntity
  8
DRAFT
100
AcDbEllipse
 62
7
  6
CONTINUOUS
 10
-8.1161564618
 20
17.1727643498
 30
0.0
 11
0.4279673669
 21
-0.0030279657
 31
0.0
 40
0.4946372042
 41
-0.7818985079
 42
0.0034996501
  0
ELLIPSE
  5
570
100
AcDbEntity
  8
RACCORDO
100
AcDbEllipse
 62
7
  6
CONTINUOUS
 10
2.2735379398
 20
12.8103429686
 30
0.0
 11
-0.7417913999
 21
1.2002436976
 31
0.0
 40
0.5587454355
 41
5.1248137075
 42
6.2241191807
  0
ELLIPSE
  5
571
100
AcDbEntity
  8
RACCORDO
100
AcDbEllipse
 62
7
  6
CONTINUOUS
 10
2.0944942339
 20
-24.3135448945
 30
0.0
 11
0.499366618
 21
0.3086255427
 31
0.0
 40
0.0815198604
 41
6.1080157147
 42
7.0007906979
  0
ELLIPSE
  5
572
100
AcDbEntity
  8
DRAFT
100
AcDbEllipse
 62
7
  6
CONTINUOUS
 10
-2.5611680327
 20
14.3952701352
 30
0.0
 11
0.4279673669
 21
-0.0030279657
 31
0.0
 40
0.4946372042
 41
-0.7760807437
 42
0.0034996507
  0
ELLIPSE
  5
573
100
AcDbEntity
  8
ASSI
100
AcDbEllipse
 62
7
  6
CONTINUOUS
 10
-2.3071341099
 20
15.0207436377
 30
0.0
 11
0.2202500223
 21
0.4456375722
 31
0.0
 40
0.6088015717
 41
0.5373422746
 42
0.6702697693
  0
ELLIPSE
  5
574
100
AcDbEntity
  8
RACCORDO
100
AcDbEllipse
 62
7
  6
CONTINUOUS
 10
2.0944942339
 20
13.9057137746
 30
0.0
 11
-0.3708957
 21
0.6001218488
 31
0.0
 40
0.5587454355
 41
-3.1744788413
 42
-2.2817038581
  0
ELLIPSE
  5
575
100
AcDbEntity
  8
RACCORDO
100
AcDbEllipse
 62
7
  6
CONTINUOUS
 10
-13.8021029567
 20
14.3424842529
 30
0.0
 11
0.4998587701
 21
0.0223649649
 31
0.0
 40
0.5313301283
 41
3.1178240551
 42
3.9032222197
  0
ELLIPSE
  5
576
100
AcDbEntity
  8
RACCORDO
100
AcDbEllipse
 62
7
  6
CONTINUOUS
 10
-8.2907958571
 20
11.5868307031
 30
0.0
 11
0.4998587701
 21
0.0223649649
 31
0.0
 40
0.5313301283
 41
-2.3799630874
 42
-0.8149845248
  0
ELLIPSE
  5
577
100
AcDbEntity
  8
RACCORDO
100
AcDbEllipse
 62
7
  6
CONTINUOUS
 10
-8.2907958571
 20
12.8194403083
 30
0.0
 11
0.4999985559
 21
0.0023864752
 31
0.0
 40
0.5035541159
 41
-1.4342147631
 42
-0.7936193687
  0
ELLIPSE
  5
578
100
AcDbEntity
  8
RACCORDO
100
AcDbEllipse
 62
7
  6
CONTINUOUS
 10
-18.9255447418
 20
16.3398352084
 30
0.0
 11
0.249929385
 21
0.0111824824
 31
0.0
 40
0.5313301283
 41
3.1178240558
 42
3.9032222197
  0
ELLIPSE
  5
579
100
AcDbEntity
  8
RACCORDO
100
AcDbEllipse
 62
7
  6
CONTINUOUS
 10
-4.2280142438
 20
8.9910699594
 30
0.0
 11
0.249929385
 21
0.0111824824
 31
0.0
 40
0.5313301283
 41
-2.3799630874
 42
-1.24594668
  0
ELLIPSE
  5
57A
100
AcDbEntity
  8
RACCORDO
100
AcDbEllipse
 62
7
  6
CONTINUOUS
 10
-5.5612265774
 20
9.6576761262
 30
0.0
 11
0.249929385
 21
0.0111824824
 31
0.0
 40
0.5313301283
 41
3.1178240563
 42
3.9032222197
  0
ELLIPSE
  5
57B
100
AcDbEntity
  8
RACCORDO
100
AcDbEllipse
 62
7
  6
CONTINUOUS
 10
-17.5923324082
 20
15.6732290416
 30
0.0
 11
0.249929385
 21
0.0111824824
 31
0.0
 40
0.5313301283
 41
-2.3799630874
 42
-0.8149845248
  0
ELLIPSE
  5
57C
100
AcDbEntity
  8
RACCORDO
100
AcDbEllipse
 62
7
  6
CONTINUOUS
 10
23.5922759653
 20
19.0173132519
 30
0.0
 11
0.9999583873
 21
0.0185182689
 31
0.0
 40
0.4926324725
 41
-0.777067698
 42
-0.0091228271
  0
ELLIPSE
  5
57D
100
AcDbEntity
  8
RACCORDO
100
AcDbEllipse
 62
7
  6
CONTINUOUS
 10
23.5922759653
 20
14.687186233
 30
0.0
 11
0.9999583873
 21
0.0185182689
 31
0.0
 40
0.4926324725
 41
-0.777067698
 42
-0.0091228271
  0
ELLIPSE
  5
57E
100
AcDbEntity
  8
RACCORDO
100
AcDbEllipse
 62
7
  6
CONTINUOUS
 10
23.5922759653
 20
10.357059214
 30
0.0
 11
0.9999583873
 21
0.0185182689
 31
0.0
 40
0.4926324725
 41
-0.777067698
 42
-0.0091228271
  0
ELLIPSE
  5
57F
100
AcDbEntity
  8
RACCORDO
100
AcDbEllipse
 62
7
  6
CONTINUOUS
 10
23.5922759653
 20
4.8461360154
 30
0.0
 11
0.9981999775
 21
0.1839353155
 31
0.0
 40
0.3260568428
 41
-0.8279542495
 42
-0.0600093786
  0
ELLIPSE
  5
580
100
AcDbEntity
  8
RACCORDO
100
AcDbEllipse
 62
7
  6
CONTINUOUS
 10
23.5922759653
 20
0.5160089964
 30
0.0
 11
0.9981999775
 21
0.1839353155
 31
0.0
 40
0.3260568428
 41
-0.8279542495
 42
-0.0600093786
  0
ELLIPSE
  5
581
100
AcDbEntity
  8
RACCORDO
100
AcDbEllipse
 62
7
  6
CONTINUOUS
 10
23.5922759653
 20
-3.8141180225
 30
0.0
 11
0.9981999775
 21
0.1839353155
 31
0.0
 40
0.3260568428
 41
-0.8279542495
 42
-0.0600093786
  0
ELLIPSE
  5
582
100
AcDbEntity
  8
RACCORDO
100
AcDbEllipse
 62
7
  6
CONTINUOUS
 10
23.5922759653
 20
-8.1442450414
 30
0.0
 11
0.9981999775
 21
0.1839353155
 31
0.0
 40
0.3260568428
 41
-0.8279542495
 42
-0.0600093786
  0
ELLIPSE
  5
583
100
AcDbEntity
  8
DRAFT
100
AcDbEllipse
 62
7
  6
CONTINUOUS
 10
20.6867166894
 20
14.9659422707
 30
0.0
 11
0.9134242373
 21
1.8910797574
 31
0.0
 40
0.6016116119
 41
0.6764898932
 42
1.7252144339
  0
ELLIPSE
  5
584
100
AcDbEntity
  8
DRAFT
100
AcDbEllipse
 62
7
  6
CONTINUOUS
 10
20.6867166894
 20
10.6358152518
 30
0.0
 11
0.9134242373
 21
1.8910797574
 31
0.0
 40
0.6016116119
 41
0.6764898932
 42
1.7252144339
  0
ELLIPSE
  5
585
100
AcDbEntity
  8
DRAFT
100
AcDbEllipse
 62
7
  6
CONTINUOUS
 10
20.6867166894
 20
6.3056882329
 30
0.0
 11
0.9134242373
 21
1.8910797574
 31
0.0
 40
0.6016116119
 41
0.6764898932
 42
1.7252144339
  0
ELLIPSE
  5
586
100
AcDbEntity
  8
RACCORDO
100
AcDbEllipse
 62
7
  6
CONTINUOUS
 10
13.9021959194
 20
24.7389628604
 30
0.0
 11
0.6326681553
 21
0.7964311705
 31
0.0
 40
0.4624115311
 41
0.0971206469
 42
0.7643865656
  0
ELLIPSE
  5
587
100
AcDbEntity
  8
RACCORDO
100
AcDbEllipse
 62
7
  6
CONTINUOUS
 10
17.4377298253
 20
22.9711959074
 30
0.0
 11
0.6326681553
 21
0.7964311705
 31
0.0
 40
0.4624115311
 41
0.0971206469
 42
0.7643865656
  0
ELLIPSE
  5
588
100
AcDbEntity
  8
RACCORDO
100
AcDbEllipse
 62
7
  6
CONTINUOUS
 10
20.9732637313
 20
21.2034289545
 30
0.0
 11
0.6326681553
 21
0.7964311705
 31
0.0
 40
0.4624115311
 41
0.0971206469
 42
0.7643865656
  0
ELLIPSE
  5
589
100
AcDbEntity
  8
RACCORDO
100
AcDbEllipse
 62
7
  6
CONTINUOUS
 10
12.7952731687
 20
25.2924242358
 30
0.0
 11
0.1329812707
 21
1.0194318102
 31
0.0
 40
0.7061493168
 41
5.1568583673
 42
6.7102014016
  0
ELLIPSE
  5
58A
100
AcDbEntity
  8
RACCORDO
100
AcDbEllipse
 62
7
  6
CONTINUOUS
 10
16.3308070746
 20
23.5246572828
 30
0.0
 11
0.1329812707
 21
1.0194318102
 31
0.0
 40
0.7061493168
 41
5.1568583673
 42
6.7102014016
  0
ELLIPSE
  5
58B
100
AcDbEntity
  8
RACCORDO
100
AcDbEllipse
 62
7
  6
CONTINUOUS
 10
19.8663409806
 20
21.7568903298
 30
0.0
 11
0.1329812707
 21
1.0194318102
 31
0.0
 40
0.7061493168
 41
5.1568583673
 42
6.7102014016
  0
ELLIPSE
  5
58C
100
AcDbEntity
  8
DRAFT
100
AcDbEllipse
 62
7
  6
CONTINUOUS
 10
20.6867166894
 20
14.9659422707
 30
0.0
 11
0.9134242373
 21
1.8910797574
 31
0.0
 40
0.6016116119
 41
2.7693580062
 42
3.8180825468
  0
ELLIPSE
  5
58D
100
AcDbEntity
  8
DRAFT
100
AcDbEllipse
 62
7
  6
CONTINUOUS
 10
20.6867166894
 20
10.6358152518
 30
0.0
 11
0.9134242373
 21
1.8910797574
 31
0.0
 40
0.6016116119
 41
2.7693580062
 42
3.8180825468
  0
ELLIPSE
  5
58E
100
AcDbEntity
  8
DRAFT
100
AcDbEllipse
 62
7
  6
CONTINUOUS
 10
20.6867166894
 20
6.3056882329
 30
0.0
 11
0.9134242373
 21
1.8910797574
 31
0.0
 40
0.6016116119
 41
2.7693580062
 42
3.8180825468
  0
ELLIPSE
  5
58F
100
AcDbEntity
  8
RACCORDO
100
AcDbEllipse
 62
7
  6
CONTINUOUS
 10
23.5922759653
 20
6.7026685001
 30
0.0
 11
0.9999541714
 21
-0.0188790458
 31
0.0
 40
0.5071053267
 41
-0.7583710599
 42
0.7815267739
  0
ELLIPSE
  5
590
100
AcDbEntity
  8
RACCORDO
100
AcDbEllipse
 62
7
  6
CONTINUOUS
 10
23.5922759653
 20
11.032795519
 30
0.0
 11
0.9999541714
 21
-0.0188790458
 31
0.0
 40
0.5071053267
 41
-0.7583710599
 42
0.7815267739
  0
ELLIPSE
  5
591
100
AcDbEntity
  8
RACCORDO
100
AcDbEllipse
 62
7
  6
CONTINUOUS
 10
23.5922759653
 20
15.3629225379
 30
0.0
 11
0.9999541714
 21
-0.0188790458
 31
0.0
 40
0.5071053267
 41
-0.7583710599
 42
0.7815267739
  0
ELLIPSE
  5
592
100
AcDbEntity
  8
RACCORDO
100
AcDbEllipse
 62
7
  6
CONTINUOUS
 10
23.5922759653
 20
3.5533376609
 30
0.0
 11
0.9841913157
 21
-0.2791058438
 31
0.0
 40
0.6345570966
 41
-0.5898970505
 42
0.9500007834
  0
ELLIPSE
  5
593
100
AcDbEntity
  8
RACCORDO
100
AcDbEllipse
 62
7
  6
CONTINUOUS
 10
23.5922759653
 20
-0.776789358
 30
0.0
 11
0.9841913157
 21
-0.2791058438
 31
0.0
 40
0.6345570966
 41
-0.5898970505
 42
0.9500007834
  0
ELLIPSE
  5
594
100
AcDbEntity
  8
RACCORDO
100
AcDbEllipse
 62
7
  6
CONTINUOUS
 10
23.5922759653
 20
-5.1069163769
 30
0.0
 11
0.9841913157
 21
-0.2791058438
 31
0.0
 40
0.6345570966
 41
-0.5898970505
 42
0.9500007834
  0
ELLIPSE
  5
595
100
AcDbEntity
  8
RACCORDO
100
AcDbEllipse
 62
7
  6
CONTINUOUS
 10
23.5922759653
 20
-9.4370433959
 30
0.0
 11
0.9841913157
 21
-0.2791058438
 31
0.0
 40
0.6345570966
 41
-0.5898970505
 42
0.9500007834
  0
ELLIPSE
  5
596
100
AcDbEntity
  8
ASSI
100
AcDbEllipse
 62
7
  6
CONTINUOUS
 10
23.5922759653
 20
19.0173132519
 30
0.0
 11
0.9999583873
 21
0.0185182689
 31
0.0
 40
0.4926324725
 41
-0.777067698
 42
-0.0091228271
  0
ELLIPSE
  5
597
100
AcDbEntity
  8
ASSI
100
AcDbEllipse
 62
7
  6
CONTINUOUS
 10
23.5922759653
 20
14.687186233
 30
0.0
 11
0.9999583873
 21
0.0185182689
 31
0.0
 40
0.4926324725
 41
-0.777067698
 42
-0.0091228271
  0
ELLIPSE
  5
598
100
AcDbEntity
  8
ASSI
100
AcDbEllipse
 62
7
  6
CONTINUOUS
 10
23.5922759653
 20
10.357059214
 30
0.0
 11
0.9999583873
 21
0.0185182689
 31
0.0
 40
0.4926324725
 41
-0.777067698
 42
-0.0091228271
  0
ELLIPSE
  5
599
100
AcDbEntity
  8
ASSI
100
AcDbEllipse
 62
7
  6
CONTINUOUS
 10
23.5922759653
 20
4.8461360154
 30
0.0
 11
0.9981999775
 21
0.1839353155
 31
0.0
 40
0.3260568428
 41
-0.8279542495
 42
-0.0600093786
  0
ELLIPSE
  5
59A
100
AcDbEntity
  8
ASSI
100
AcDbEllipse
 62
7
  6
CONTINUOUS
 10
23.5922759653
 20
0.5160089964
 30
0.0
 11
0.9981999775
 21
0.1839353155
 31
0.0
 40
0.3260568428
 41
-0.8279542495
 42
-0.0600093786
  0
ELLIPSE
  5
59B
100
AcDbEntity
  8
ASSI
100
AcDbEllipse
 62
7
  6
CONTINUOUS
 10
23.5922759653
 20
-3.8141180225
 30
0.0
 11
0.9981999775
 21
0.1839353155
 31
0.0
 40
0.3260568428
 41
-0.8279542495
 42
-0.0600093786
  0
ELLIPSE
  5
59C
100
AcDbEntity
  8
ASSI
100
AcDbEllipse
 62
7
  6
CONTINUOUS
 10
23.5922759653
 20
-8.1442450414
 30
0.0
 11
0.9981999775
 21
0.1839353155
 31
0.0
 40
0.3260568428
 41
-0.8279542495
 42
-0.0600093786
  0
ELLIPSE
  5
59D
100
AcDbEntity
  8
ASSI
100
AcDbEllipse
 62
7
  6
CONTINUOUS
 10
20.6867166894
 20
14.9659422707
 30
0.0
 11
0.9134242373
 21
1.8910797574
 31
0.0
 40
0.6016116119
 41
0.6764898932
 42
1.7252144339
  0
ELLIPSE
  5
59E
100
AcDbEntity
  8
ASSI
100
AcDbEllipse
 62
7
  6
CONTINUOUS
 10
20.6867166894
 20
10.6358152518
 30
0.0
 11
0.9134242373
 21
1.8910797574
 31
0.0
 40
0.6016116119
 41
0.6764898932
 42
1.7252144339
  0
ELLIPSE
  5
59F
100
AcDbEntity
  8
ASSI
100
AcDbEllipse
 62
7
  6
CONTINUOUS
 10
20.6867166894
 20
6.3056882329
 30
0.0
 11
0.9134242373
 21
1.8910797574
 31
0.0
 40
0.6016116119
 41
0.6764898932
 42
1.7252144339
  0
ELLIPSE
  5
5A0
100
AcDbEntity
  8
ASSI
100
AcDbEllipse
 62
7
  6
CONTINUOUS
 10
13.9021959194
 20
24.7389628604
 30
0.0
 11
0.6326681553
 21
0.7964311705
 31
0.0
 40
0.4624115311
 41
0.0971206469
 42
0.7643865656
  0
ELLIPSE
  5
5A1
100
AcDbEntity
  8
ASSI
100
AcDbEllipse
 62
7
  6
CONTINUOUS
 10
17.4377298253
 20
22.9711959074
 30
0.0
 11
0.6326681553
 21
0.7964311705
 31
0.0
 40
0.4624115311
 41
0.0971206469
 42
0.7643865656
  0
ELLIPSE
  5
5A2
100
AcDbEntity
  8
ASSI
100
AcDbEllipse
 62
7
  6
CONTINUOUS
 10
20.9732637313
 20
21.2034289545
 30
0.0
 11
0.6326681553
 21
0.7964311705
 31
0.0
 40
0.4624115311
 41
0.0971206469
 42
0.7643865656
  0
ELLIPSE
  5
5A3
100
AcDbEntity
  8
ASSI
100
AcDbEllipse
 62
7
  6
CONTINUOUS
 10
16.3308070746
 20
23.5246572828
 30
0.0
 11
0.1329812707
 21
1.0194318102
 31
0.0
 40
0.7061493168
 41
5.1568583673
 42
6.7102014016
  0
ELLIPSE
  5
5A4
100
AcDbEntity
  8
ASSI
100
AcDbEllipse
 62
7
  6
CONTINUOUS
 10
19.8663409806
 20
21.7568903298
 30
0.0
 11
0.1329812707
 21
1.0194318102
 31
0.0
 40
0.7061493168
 41
5.1568583673
 42
6.7102014016
  0
ELLIPSE
  5
5A5
100
AcDbEntity
  8
ASSI
100
AcDbEllipse
 62
7
  6
CONTINUOUS
 10
12.7952731687
 20
25.2924242358
 30
0.0
 11
0.1329812707
 21
1.0194318102
 31
0.0
 40
0.7061493168
 41
5.1568583673
 42
6.7102014016
  0
ELLIPSE
  5
5A6
100
AcDbEntity
  8
ASSI
100
AcDbEllipse
 62
7
  6
CONTINUOUS
 10
20.6867166894
 20
14.9659422707
 30
0.0
 11
0.9134242373
 21
1.8910797574
 31
0.0
 40
0.6016116119
 41
2.7693580062
 42
3.8180825468
  0
ELLIPSE
  5
5A7
100
AcDbEntity
  8
ASSI
100
AcDbEllipse
 62
7
  6
CONTINUOUS
 10
20.6867166894
 20
10.6358152518
 30
0.0
 11
0.9134242373
 21
1.8910797574
 31
0.0
 40
0.6016116119
 41
2.7693580062
 42
3.8180825468
  0
ELLIPSE
  5
5A8
100
AcDbEntity
  8
ASSI
100
AcDbEllipse
 62
7
  6
CONTINUOUS
 10
20.6867166894
 20
6.3056882329
 30
0.0
 11
0.9134242373
 21
1.8910797574
 31
0.0
 40
0.6016116119
 41
2.7693580062
 42
3.8180825468
  0
ELLIPSE
  5
5A9
100
AcDbEntity
  8
ASSI
100
AcDbEllipse
 62
7
  6
CONTINUOUS
 10
23.5922759653
 20
6.7026685001
 30
0.0
 11
0.9999541714
 21
-0.0188790458
 31
0.0
 40
0.5071053267
 41
-0.7583710599
 42
0.7815267739
  0
ELLIPSE
  5
5AA
100
AcDbEntity
  8
ASSI
100
AcDbEllipse
 62
7
  6
CONTINUOUS
 10
23.5922759653
 20
11.032795519
 30
0.0
 11
0.9999541714
 21
-0.0188790458
 31
0.0
 40
0.5071053267
 41
-0.7583710599
 42
0.7815267739
  0
ELLIPSE
  5
5AB
100
AcDbEntity
  8
ASSI
100
AcDbEllipse
 62
7
  6
CONTINUOUS
 10
23.5922759653
 20
15.3629225379
 30
0.0
 11
0.9999541714
 21
-0.0188790458
 31
0.0
 40
0.5071053267
 41
-0.7583710599
 42
0.7815267739
  0
ELLIPSE
  5
5AC
100
AcDbEntity
  8
ASSI
100
AcDbEllipse
 62
7
  6
CONTINUOUS
 10
23.5922759653
 20
3.5533376609
 30
0.0
 11
0.9841913157
 21
-0.2791058438
 31
0.0
 40
0.6345570966
 41
-0.5898970505
 42
0.9500007834
  0
ELLIPSE
  5
5AD
100
AcDbEntity
  8
ASSI
100
AcDbEllipse
 62
7
  6
CONTINUOUS
 10
23.5922759653
 20
-0.776789358
 30
0.0
 11
0.9841913157
 21
-0.2791058438
 31
0.0
 40
0.6345570966
 41
-0.5898970505
 42
0.9500007834
  0
ELLIPSE
  5
5AE
100
AcDbEntity
  8
ASSI
100
AcDbEllipse
 62
7
  6
CONTINUOUS
 10
23.5922759653
 20
-9.4370433959
 30
0.0
 11
0.9841913157
 21
-0.2791058438
 31
0.0
 40
0.6345570966
 41
-0.5898970505
 42
0.9500007834
  0
ELLIPSE
  5
5AF
100
AcDbEntity
  8
ASSI
100
AcDbEllipse
 62
7
  6
CONTINUOUS
 10
23.5922759653
 20
-5.1069163769
 30
0.0
 11
0.9841913157
 21
-0.2791058438
 31
0.0
 40
0.6345570966
 41
-0.5898970505
 42
0.9500007834
  0
ENDSEC
  0
SECTION
  2
OBJECTS
  0
DICTIONARY
  5
C
100
AcDbDictionary
280
0
281
1
  3
ACAD_GROUP
350
D
  3
ACAD_MLINESTYLE
350
17
  3
ACAD_LAYOUT
350
1A
  3
ACAD_PLOTSETTINGS
350
19
  3
ACAD_PLOTSTYLENAME
350
E
  0
DICTIONARY
  5
D
102
{ACAD_REACTORS
330
C
102
}
100
AcDbDictionary
280
0
281
1
  0
ACDBDICTIONARYWDFLT
  5
E
102
{ACAD_REACTORS
330
C
102
}
100
AcDbDictionary
281
1
  3
Normal
350
F
100
AcDbDictionaryWithDefault
340
F
  0
DICTIONARY
  5
17
102
{ACAD_REACTORS
330
C
102
}
100
AcDbDictionary
280
0
281
1
  3
Standard
350
18
  0
DICTIONARY
  5
19
102
{ACAD_REACTORS
330
C
102
}
100
AcDbDictionary
281
1
  0
DICTIONARY
  5
1A
102
{ACAD_REACTORS
330
C
102
}
100
AcDbDictionary
281
1
  3
Model
350
5B0
  3
Layout1
350
5B1
  0
ACDBPLACEHOLDER
  5
F
102
{ACAD_REACTORS
330
E
102
}
  0
MLINESTYLE
  5
18
102
{ACAD_REACTORS
330
17
102
}
100
AcDbMlineStyle
  2
STANDARD
 70
0
  3

 62
256
 51
90.0
 52
90.0
 71
2
 49
0.5
 62
256
  6
BYLAYER
 49
-0.5
 62
256
  6
BYLAYER
  0
LAYOUT
  5
5B0
102
{ACAD_REACTORS
330
1A
102
}
100
AcDbPlotSettings
  1

  2
none_device
  4
ANSI_A_(11.00_x_8.50_Inches)
  6

 40
0.0
 41
0.0
 42
0.0
 43
0.0
 44
279.4
 45
215.9
 46
0.0
 47
0.0
 48
0.0
 49
0.0
140
0.0
141
0.0
142
1.0
143
1.0
 70
1024
 72
1
 73
0
 74
0
  7

 75
0
147
1.0
148
0.0
149
0.0
100
AcDbLayout
  1
Model
 70
0
 71
0
 10
0.0
 20
0.0
 11
279.4
 21
215.9
 12
0.0
 22
0.0
 32
0.0
 14
0.0
 24
0.0
 34
0.0
 15
0.0
 25
0.0
 35
0.0
146
0.0
 13
0.0
 23
0.0
 33
0.0
 16
1.0
 26
0.0
 36
0.0
 17
0.0
 27
1.0
 37
0.0
 76
0
330
215
345
0
346
0
  0
LAYOUT
  5
5B1
102
{ACAD_REACTORS
330
1A
102
}
100
AcDbPlotSettings
  1

  2
none_device
  4
ANSI_A_(11.00_x_8.50_Inches)
  6

 40
0.0
 41
0.0
 42
0.0
 43
0.0
 44
279.4
 45
215.9
 46
0.0
 47
0.0
 48
0.0
 49
0.0
140
0.0
141
0.0
142
1.0
143
1.0
 70
0
 72
1
 73
0
 74
0
  7

 75
0
147
1.0
148
0.0
149
0.0
100
AcDbLayout
  1
Layout1
 70
0
 71
1
 10
0.0
 20
0.0
 11
279.4
 21
215.9
 12
0.0
 22
0.0
 32
0.0
 14
0.0
 24
0.0
 34
0.0
 15
0.0
 25
0.0
 35
0.0
146
0.0
 13
0.0
 23
0.0
 33
0.0
 16
1.0
 26
0.0
 36
0.0
 17
0.0
 27
1.0
 37
0.0
 76
0
330
216
345
0
346
0
  0
ENDSEC
  0
EOF
