  0
SECTION
  2
HEADER
  9
$ACADVER
  1
AC1015
  9
$DWGCODEPAGE
  3
ANSI_1252
  9
$EXTMAX
 10
297.0
 20
210.0
 30
0.0
  9
$EXTMIN
 10
0.0
 20
0.0
 30
0.0
  9
$LIMMIN
 10
0.0
 20
0.0
  9
$LIMMAX
 10
297.0
 20
210.0
  9
$VIEWCTR
 10
148.5
 20
105.0
  9
$VIEWSIZE
 40
210.0
  9
$CLAYER
  8
0
  9
$LTSCALE
 40
16.335
  9
$CELTYPE
  6
BYLAYER
  9
$DIMSCALE
 40
1.0
  9
$DIMASZ
 40
3.0
  9
$DIMEXO
 40
0.5
  9
$DIMDLI
 40
11.286
  9
$DIMEXE
 40
1.5
  9
$DIMCEN
 40
2.673
  9
$DIMLFAC
 40
1.0
  9
$DIMBLK
  1
_FILLED
  9
$DIMTXT
 40
3.0
  9
$DIMTOL
 70
1
  9
$DIMLIM
 70
0
  9
$DIMTFAC
 40
1.0
  9
$DIMTP
 40
0.01
  9
$DIMTM
 40
0.01
  9
$DIMGAP
 40
0.625
  9
$DIMDSEP
 70
44
  9
$PDMODE
 70
3
  9
$PDSIZE
 40
3.0
  9
$HANDSEED
  5
4F1
  9
$TILEMODE
 70
1
  9
$MEASUREMENT
 70
1
  9
$INSUNITS
 70
4
  0
ENDSEC
  0
SECTION
  2
CLASSES
  0
CLASS
  1
ACDBDICTIONARYWDFLT
  2
AcDbDictionaryWithDefault
  3
AutoCAD 2000
 90
0
280
0
281
0
  0
CLASS
  1
ACDBPLACEHOLDER
  2
AcDbPlaceHolder
  3
AutoCAD 2000
 90
0
280
0
281
0
  0
CLASS
  1
LAYOUT
  2
AcDbLayout
  3
AutoCAD 2000
 90
0
280
0
281
0
  0
ENDSEC
  0
SECTION
  2
TABLES
  0
TABLE
  2
VPORT
  5
8
100
AcDbSymbolTable
 70
2
  0
VPORT
  5
1F4
100
AcDbSymbolTableRecord
100
AcDbViewportTableRecord
  2
*ACTIVE
 70
0
 10
0.0
 20
0.0
 11
1.0
 21
1.0
 12
148.5
 22
105.0
 13
0.0
 23
0.0
 14
1.0
 24
1.0
 15
0.0
 25
0.0
 16
0.0
 26
0.0
 36
1.0
 17
0.0
 27
0.0
 37
0.0
 40
210.0
 41
1.4142857143
 42
50.0
 43
0.0
 44
0.0
 50
0.0
 51
0.0
 71
0
 72
100
 73
1
 74
1
 75
0
 76
0
 77
0
 78
0
  0
ENDTAB
  0
TABLE
  2
LTYPE
  5
5
100
AcDbSymbolTable
 70
6
  0
LTYPE
  5
14
100
AcDbSymbolTableRecord
100
AcDbLinetypeTableRecord
  2
BYBLOCK
 70
0
  3

 72
65
 73
0
 40
0.0
  0
LTYPE
  5
15
100
AcDbSymbolTableRecord
100
AcDbLinetypeTableRecord
  2
BYLAYER
 70
0
  3

 72
65
 73
0
 40
0.0
  0
LTYPE
  5
16
100
AcDbSymbolTableRecord
100
AcDbLinetypeTableRecord
  2
CONTINUOUS
 70
64
  3
Solid line
 72
65
 73
0
 40
0.0
  0
LTYPE
  5
1F5
100
AcDbSymbolTableRecord
100
AcDbLinetypeTableRecord
  2
CENTER
 70
64
  3
____ _ ____ _ ____ _ ____ _ ____ _ ____ _ ____
 72
65
 73
4
 40
0.6
 49
0.375
 74
0
 49
-0.075
 74
0
 49
0.075
 74
0
 49
-0.075
 74
0
  0
LTYPE
  5
1F6
100
AcDbSymbolTableRecord
100
AcDbLinetypeTableRecord
  2
HIDDEN
 70
64
  3
- - - - - - - - - - - - - - - - - - - -
 72
65
 73
2
 40
0.2
 49
0.1
 74
0
 49
-0.1
 74
0
  0
LTYPE
  5
1F7
100
AcDbSymbolTableRecord
100
AcDbLinetypeTableRecord
  2
PHANTOM
 70
64
  3
_____ _ _ _____ _ _ _____ _ _ _____
 72
65
 73
6
 40
0.8
 49
0.45
 74
0
 49
-0.05
 74
0
 49
0.1
 74
0
 49
-0.05
 74
0
 49
0.1
 74
0
 49
-0.05
 74
0
  0
LTYPE
  5
1F8
100
AcDbSymbolTableRecord
100
AcDbLinetypeTableRecord
  2
DOT
 70
64
  3
. . . . . . . . . . . . . . . . . . . .
 72
65
 73
2
 40
0.2
 49
0.1
 74
0
 49
-0.1
 74
0
  0
LTYPE
  5
1F9
100
AcDbSymbolTableRecord
100
AcDbLinetypeTableRecord
  2
DASHED
 70
64
  3
- - - - - - - - - - - - - - - - - - - -
 72
65
 73
2
 40
0.2
 49
0.1
 74
0
 49
-0.1
 74
0
  0
ENDTAB
  0
TABLE
  2
LAYER
  5
2
100
AcDbSymbolTable
 70
36
  0
LAYER
  5
10
100
AcDbSymbolTableRecord
100
AcDbLayerTableRecord
  2
0
 70
0
 62
7
  6
CONTINUOUS
370
-3
390
F
  0
LAYER
  5
1FA
100
AcDbSymbolTableRecord
100
AcDbLayerTableRecord
  2
DEFAULT_1
 70
0
 62
7
  6
CENTER
370
-3
390
F
  0
LAYER
  5
1FB
100
AcDbSymbolTableRecord
100
AcDbLayerTableRecord
  2
DEFAULT_2
 70
0
 62
7
  6
HIDDEN
370
-3
390
F
  0
LAYER
  5
1FC
100
AcDbSymbolTableRecord
100
AcDbLayerTableRecord
  2
DEFAULT_3
 70
0
 62
7
  6
PHANTOM
370
-3
390
F
  0
LAYER
  5
1FD
100
AcDbSymbolTableRecord
100
AcDbLayerTableRecord
  2
ASSI
 70
0
 62
7
  6
CONTINUOUS
370
-3
390
F
  0
LAYER
  5
1FE
100
AcDbSymbolTableRecord
100
AcDbLayerTableRecord
  2
COORDINATE
 70
0
 62
7
  6
CONTINUOUS
370
-3
390
F
  0
LAYER
  5
1FF
100
AcDbSymbolTableRecord
100
AcDbLayerTableRecord
  2
COORD_ORIGINE
 70
0
 62
7
  6
CONTINUOUS
370
-3
390
F
  0
LAYER
  5
200
100
AcDbSymbolTableRecord
100
AcDbLayerTableRecord
  2
COPY_PUBLISH
 70
0
 62
7
  6
CONTINUOUS
370
-3
390
F
  0
LAYER
  5
201
100
AcDbSymbolTableRecord
100
AcDbLayerTableRecord
  2
COSMETIC
 70
0
 62
7
  6
CONTINUOUS
370
-3
390
F
  0
LAYER
  5
202
100
AcDbSymbolTableRecord
100
AcDbLayerTableRecord
  2
CURVE
 70
0
 62
7
  6
CONTINUOUS
370
-3
390
F
  0
LAYER
  5
203
100
AcDbSymbolTableRecord
100
AcDbLayerTableRecord
  2
DRAFT
 70
0
 62
7
  6
CONTINUOUS
370
-3
390
F
  0
LAYER
  5
204
100
AcDbSymbolTableRecord
100
AcDbLayerTableRecord
  2
IMPORT_IGES
 70
0
 62
7
  6
CONTINUOUS
370
-3
390
F
  0
LAYER
  5
205
100
AcDbSymbolTableRecord
100
AcDbLayerTableRecord
  2
IMPORT_SCRITTE
 70
0
 62
7
  6
CONTINUOUS
370
-3
390
F
  0
LAYER
  5
206
100
AcDbSymbolTableRecord
100
AcDbLayerTableRecord
  2
NOTE
 70
0
 62
7
  6
CONTINUOUS
370
-3
390
F
  0
LAYER
  5
207
100
AcDbSymbolTableRecord
100
AcDbLayerTableRecord
  2
PIANI
 70
0
 62
7
  6
CONTINUOUS
370
-3
390
F
  0
LAYER
  5
208
100
AcDbSymbolTableRecord
100
AcDbLayerTableRecord
  2
PIANI_ORIGINE
 70
0
 62
7
  6
CONTINUOUS
370
-3
390
F
  0
LAYER
  5
209
100
AcDbSymbolTableRecord
100
AcDbLayerTableRecord
  2
PIANI_RIFERIMENTO
 70
0
 62
7
  6
CONTINUOUS
370
-3
390
F
  0
LAYER
  5
20A
100
AcDbSymbolTableRecord
100
AcDbLayerTableRecord
  2
PUNTI
 70
0
 62
7
  6
CONTINUOUS
370
-3
390
F
  0
LAYER
  5
20B
100
AcDbSymbolTableRecord
100
AcDbLayerTableRecord
  2
RACCORDO
 70
0
 62
7
  6
CONTINUOUS
370
-3
390
F
  0
LAYER
  5
20C
100
AcDbSymbolTableRecord
100
AcDbLayerTableRecord
  2
SMUSSO
 70
0
 62
7
  6
CONTINUOUS
370
-3
390
F
  0
LAYER
  5
20D
100
AcDbSymbolTableRecord
100
AcDbLayerTableRecord
  2
SNAPLINE
 70
0
 62
7
  6
CONTINUOUS
370
-3
390
F
  0
LAYER
  5
20E
100
AcDbSymbolTableRecord
100
AcDbLayerTableRecord
  2
SUPERFICI
 70
0
 62
7
  6
CONTINUOUS
370
-3
390
F
  0
LAYER
  5
20F
100
AcDbSymbolTableRecord
100
AcDbLayerTableRecord
  2
TRASH
 70
0
 62
7
  6
CONTINUOUS
370
-3
390
F
  0
LAYER
  5
210
100
AcDbSymbolTableRecord
100
AcDbLayerTableRecord
  2
XSEC_DATUMS
 70
0
 62
7
  6
CONTINUOUS
370
-3
390
F
  0
ENDTAB
  0
TABLE
  2
STYLE
  5
3
100
AcDbSymbolTable
 70
1
  0
STYLE
  5
11
100
AcDbSymbolTableRecord
100
AcDbTextStyleTableRecord
  2
STANDARD
 70
0
 40
0.0
 41
0.8
 50
0.0
 71
0
 42
0.2
  3
txt
  4

  0
STYLE
  5
211
100
AcDbSymbolTableRecord
100
AcDbTextStyleTableRecord
  2
TEXTSTYLE_1
 70
0
 40
0.0
 41
0.8
 50
0.0
 71
0
 42
0.2
  3
gdt
  4

  0
ENDTAB
  0
TABLE
  2
VIEW
  5
6
100
AcDbSymbolTable
 70
0
  0
ENDTAB
  0
TABLE
  2
UCS
  5
7
100
AcDbSymbolTable
 70
0
  0
ENDTAB
  0
TABLE
  2
APPID
  5
9
100
AcDbSymbolTable
 70
1
  0
APPID
  5
212
100
AcDbSymbolTableRecord
100
AcDbRegAppTableRecord
  2
ACAD
 70
0
  0
ENDTAB
  0
TABLE
  2
BLOCK_RECORD
  5
1
100
AcDbSymbolTable
 70
0
  0
BLOCK_RECORD
  5
213
100
AcDbSymbolTableRecord
100
AcDbBlockTableRecord
  2
*Model_Space
  0
BLOCK_RECORD
  5
214
100
AcDbSymbolTableRecord
100
AcDbBlockTableRecord
  2
*Paper_Space
  0
ENDTAB
  0
TABLE
  2
DIMSTYLE
  5
A
100
AcDbSymbolTable
 70
1
100
AcDbDimStyleTable
 71
0
  0
DIMSTYLE
105
215
100
AcDbSymbolTableRecord
100
AcDbDimStyleTableRecord
  2
STANDARD
 70
0
  3

  4

 40
1.0
 41
3.0
 42
0.5
 43
0.38
 44
1.5
 45
0.0
 46
0.0
 47
0.01
 48
0.01
140
3.0
141
0.09
142
0.0
143
25.4
144
1.0
145
0.0
146
1.0
147
0.625
 71
1.0
 72
0.0
 73
0
 74
0
 75
0
 76
0
 77
1
 78
8
170
0
171
2
172
0
173
0
174
0
175
0
176
0
177
0
178
0
270
2
271
2
272
2
273
2
274
2
275
0
280
0
281
0
282
0
283
1
284
8
285
0
286
0
287
3
288
0
340
11
278
44
  0
ENDTAB
  0
ENDSEC
  0
SECTION
  2
BLOCKS
  0
BLOCK
  5
20
100
AcDbEntity
  8
0
100
AcDbBlockBegin
  2
*Model_Space
 70
0
 10
0.0
 20
0.0
 30
0.0
  3
*Model_Space
  1

  0
ENDBLK
  5
21
100
AcDbEntity
  8
0
100
AcDbBlockEnd
  0
BLOCK
  5
1C
100
AcDbEntity
  8
0
100
AcDbBlockBegin
  2
*Paper_Space
 70
0
 10
0.0
 20
0.0
 30
0.0
  3
*Paper_Space
  1

  0
ENDBLK
  5
1D
100
AcDbEntity
  8
0
100
AcDbBlockEnd
  0
ENDSEC
  0
SECTION
  2
ENTITIES
  0
LINE
  5
216
100
AcDbEntity
  8
RACCORDO
100
AcDbLine
 62
7
  6
CONTINUOUS
 10
-11.117473943
 20
24.8959605948
 11
-12.700645638
 21
24.0837635476
  0
LINE
  5
217
100
AcDbEntity
  8
RACCORDO
100
AcDbLine
 62
253
  6
CONTINUOUS
 10
-11.0048033687
 20
24.8892996697
 11
-12.5875599718
 21
24.0773155724
  0
LINE
  5
218
100
AcDbEntity
  8
RACCORDO
100
AcDbLine
 62
7
  6
CONTINUOUS
 10
-11.1157355575
 20
24.8968298276
 11
-11.1174719693
 21
24.8959616074
  0
LINE
  5
219
100
AcDbEntity
  8
RACCORDO
100
AcDbLine
 62
7
  6
CONTINUOUS
 10
-10.5808656011
 20
25.1573819274
 11
-11.1157327919
 21
24.8968311748
  0
LINE
  5
21A
100
AcDbEntity
  8
RACCORDO
100
AcDbLine
 62
253
  6
CONTINUOUS
 10
-10.47035349
 20
25.1496471363
 11
-11.0048033687
 21
24.8892996697
  0
LWPOLYLINE
  5
21B
100
AcDbEntity
  8
RACCORDO
100
AcDbPolyline
 62
253
  6
CONTINUOUS
 90
3
 70
0
 10
-15.689685681
 20
19.4794577728
 10
-15.6270900903
 20
19.5216549545
 10
-15.5646704588
 20
19.5591389845
  0
LWPOLYLINE
  5
21C
100
AcDbEntity
  8
RACCORDO
100
AcDbPolyline
 62
7
  6
CONTINUOUS
 90
37
 70
0
 10
-16.7225005246
 20
20.0599247931
 10
-16.753090075
 20
20.0415519421
 10
-16.7960112018
 20
20.0139313614
 10
-16.8381137547
 20
19.984686703
 10
-16.8793842722
 20
19.9538769797
 10
-16.919811932
 20
19.9215560686
 10
-16.9593811422
 20
19.8877785437
 10
-16.9980769776
 20
19.8525958565
 10
-17.0358847876
 20
19.8160564554
 10
-17.0727800797
 20
19.7782162308
 10
-17.1087452074
 20
19.739122734
 10
-17.143761571
 20
19.6988221784
 10
-17.1777961543
 20
19.6573763515
 10
-17.2108277712
 20
19.6148327559
 10
-17.2428353162
 20
19.5712368094
 10
-17.2737817723
 20
19.5266551954
 10
-17.3036439863
 20
19.4811356472
 10
-17.3323984014
 20
19.4347247504
 10
-17.3600061456
 20
19.3874940467
 10
-17.386443103
 20
19.3394916372
 10
-17.4116842111
 20
19.2907655974
 10
-17.4356904934
 20
19.2413916613
 10
-17.4584373013
 20
19.1914186869
 10
-17.4798993144
 20
19.140895053
 10
-17.5000397517
 20
19.089896956
 10
-17.5188341329
 20
19.0384722334
 10
-17.5362566618
 20
18.9866696348
 10
-17.5522728715
 20
18.9345644477
 10
-17.5668579736
 20
18.8822033297
 10
-17.5799857412
 20
18.8296338619
 10
-17.5916240233
 20
18.7769269033
 10
-17.6017466978
 20
18.724127897
 10
-17.6103261719
 20
18.671282206
 10
-17.6173313757
 20
18.6184515615
 10
-17.6227328804
 20
18.5656827376
 10
-17.6265000707
 20
18.5130153333
 10
-17.628208087
 20
18.47438014
  0
LINE
  5
21D
100
AcDbEntity
  8
RACCORDO
100
AcDbLine
 62
253
  6
CONTINUOUS
 10
-14.9740916928
 20
20.9468140203
 11
-14.2737798501
 21
21.3654236145
  0
LWPOLYLINE
  5
21E
100
AcDbEntity
  8
RACCORDO
100
AcDbPolyline
 62
253
  6
CONTINUOUS
 90
4
 70
0
 10
-14.2737798501
 20
21.3654236145
 10
-13.5926389631
 20
21.7716148178
 10
-13.2550264747
 20
21.9718501957
 10
-12.9175276733
 20
22.170555448
  0
LWPOLYLINE
  5
21F
100
AcDbEntity
  8
RACCORDO
100
AcDbPolyline
 62
7
  6
CONTINUOUS
 90
3
 70
0
 10
-15.11978231
 20
21.0028636471
 10
-15.6731833314
 20
20.6758255528
 10
-16.208735552
 20
20.3605587681
  0
LWPOLYLINE
  5
220
100
AcDbEntity
  8
RACCORDO
100
AcDbPolyline
 62
253
  6
CONTINUOUS
 90
4
 70
0
 10
-16.0913582325
 20
20.2849125582
 10
-15.7090126105
 20
20.5104402858
 10
-15.3360819612
 20
20.7312552552
 10
-14.9740916928
 20
20.9468140203
  0
LWPOLYLINE
  5
221
100
AcDbEntity
  8
RACCORDO
100
AcDbPolyline
 62
253
  6
CONTINUOUS
 90
3
 70
0
 10
-12.9175276733
 20
22.170555448
 10
-12.2411203267
 20
22.5664056521
 10
-12.1335385782
 20
22.6292528962
  0
LWPOLYLINE
  5
222
100
AcDbEntity
  8
RACCORDO
100
AcDbPolyline
 62
7
  6
CONTINUOUS
 90
5
 70
0
 10
-12.1335385782
 20
22.7595067665
 10
-12.7184905142
 20
22.41825675
 10
-13.3479711665
 20
22.0498044728
 10
-13.9577763746
 20
21.6905682151
 10
-15.11978231
 20
21.0028636471
  0
LINE
  5
223
100
AcDbEntity
  8
RACCORDO
100
AcDbLine
 62
7
  6
CONTINUOUS
 10
-16.208735552
 20
20.3605587681
 11
-16.7225134191
 21
20.0599172751
  0
LINE
  5
224
100
AcDbEntity
  8
RACCORDO
100
AcDbLine
 62
253
  6
CONTINUOUS
 10
-16.0913582325
 20
20.2849125582
 11
-16.5001250553
 21
20.0447543722
  0
LWPOLYLINE
  5
225
100
AcDbEntity
  8
RACCORDO
100
AcDbPolyline
 62
253
  6
CONTINUOUS
 90
3
 70
0
 10
-16.7225005246
 20
20.0599247931
 10
-16.7200547568
 20
20.0613247418
 10
-16.7074182855
 20
20.0677765017
  0
LINE
  5
226
100
AcDbEntity
  8
RACCORDO
100
AcDbLine
 62
7
  6
CONTINUOUS
 10
-15.6782627857
 20
19.5652920641
 11
-13.8076939771
 21
20.6206410952
  0
LINE
  5
227
100
AcDbEntity
  8
RACCORDO
100
AcDbLine
 62
253
  6
CONTINUOUS
 10
-15.5646704588
 20
19.5591389845
 11
-13.6918061456
 21
20.6157831075
  0
LINE
  5
228
100
AcDbEntity
  8
RACCORDO
100
AcDbLine
 62
253
  6
CONTINUOUS
 10
-15.8764280575
 20
19.7447842402
 11
-13.9814071651
 21
20.796481973
  0
LINE
  5
229
100
AcDbEntity
  8
RACCORDO
100
AcDbLine
 62
253
  6
CONTINUOUS
 10
-15.8026364201
 20
19.6244882186
 11
-13.9107260901
 21
20.6744596531
  0
LINE
  5
22A
100
AcDbEntity
  8
RACCORDO
100
AcDbLine
 62
253
  6
CONTINUOUS
 10
-9.6612945012
 20
24.217545236
 11
-11.262575292
 21
23.4148232325
  0
LINE
  5
22B
100
AcDbEntity
  8
RACCORDO
100
AcDbLine
 62
253
  6
CONTINUOUS
 10
-9.4845207975
 20
23.9126556972
 11
-11.0858015883
 21
23.1099336937
  0
LINE
  5
22C
100
AcDbEntity
  8
RACCORDO
100
AcDbLine
 62
253
  6
CONTINUOUS
 10
-9.1330273294
 20
24.480984056
 11
-9.6612945012
 21
24.217545236
  0
LINE
  5
22D
100
AcDbEntity
  8
RACCORDO
100
AcDbLine
 62
253
  6
CONTINUOUS
 10
-8.9562536258
 20
24.1760945172
 11
-9.4845207975
 21
23.9126556972
  0
LWPOLYLINE
  5
22E
100
AcDbEntity
  8
RACCORDO
100
AcDbPolyline
 62
253
  6
CONTINUOUS
 90
15
 70
0
 10
-16.7074182855
 20
20.0677765017
 10
-16.6942460943
 20
20.0732331447
 10
-16.680567988
 20
20.0776823239
 10
-16.6664149156
 20
20.0811139724
 10
-16.6518189013
 20
20.0835203254
 10
-16.6368129713
 20
20.084895938
 10
-16.6214310793
 20
20.0852376976
 10
-16.6057080298
 20
20.0845448311
 10
-16.589679399
 20
20.082818906
 10
-16.5733814549
 20
20.0800638278
 10
-16.5568510745
 20
20.0762858301
 10
-16.540125661
 20
20.0714934615
 10
-16.5232430587
 20
20.0656975656
 10
-16.5062414678
 20
20.0589112567
 10
-16.4891593575
 20
20.0511498902
  0
LWPOLYLINE
  5
22F
100
AcDbEntity
  8
RACCORDO
100
AcDbPolyline
 62
7
  6
CONTINUOUS
 90
30
 70
0
 10
-10.3745809802
 20
22.6214562367
 10
-10.3824601032
 20
22.6123218335
 10
-10.3906803523
 20
22.6033243925
 10
-10.3992382135
 20
22.5944854059
 10
-10.408136644
 20
22.5858288761
 10
-10.4173630791
 20
22.5773741968
 10
-10.4268896534
 20
22.5691363041
 10
-10.4367098416
 20
22.5611375505
 10
-10.4468157399
 20
22.5533996737
 10
-10.4571765229
 20
22.5459371339
 10
-10.4677830441
 20
22.538772356
 10
-10.4786249555
 20
22.5319270507
 10
-10.4896687326
 20
22.5254150791
 10
-10.5009025811
 20
22.51925856
 10
-10.5123135319
 20
22.5134788961
 10
-10.5238653523
 20
22.5080893726
 10
-10.5355434842
 20
22.5031114149
 10
-10.5473322157
 20
22.4985657176
 10
-10.5591925297
 20
22.4944649325
 10
-10.5711069774
 20
22.490829307
 10
-10.5830569907
 20
22.4876783219
 10
-10.5950006683
 20
22.4850237857
 10
-10.6069175179
 20
22.4828841533
 10
-10.6187860851
 20
22.4812770158
 10
-10.6305616637
 20
22.480212855
 10
-10.6422204842
 20
22.4797075497
 10
-10.6537384214
 20
22.4797759158
 10
-10.6650687741
 20
22.4804263142
 10
-10.6761740364
 20
22.481669707
 10
-10.6870383882
 20
22.4835172024
  0
LINE
  5
230
100
AcDbEntity
  8
RACCORDO
100
AcDbLine
 62
7
  6
CONTINUOUS
 10
-9.4845207975
 20
22.3105050362
 11
-10.3745809802
 21
21.8138241149
  0
LINE
  5
231
100
AcDbEntity
  8
RACCORDO
100
AcDbLine
 62
7
  6
CONTINUOUS
 10
-7.1157010792
 20
21.9803866229
 11
-6.7621596899
 21
22.1617600477
  0
LINE
  5
232
100
AcDbEntity
  8
RACCORDO
100
AcDbLine
 62
7
  6
CONTINUOUS
 10
-1.7619377359
 20
25.4508090652
 11
-8.0764780625
 21
22.3060327607
  0
LINE
  5
233
100
AcDbEntity
  8
ASSI
100
AcDbLine
 62
7
  6
CONTINUOUS
 10
-6.7621596899
 20
22.1617600477
 11
-1.425936284
 21
24.7612035132
  0
LWPOLYLINE
  5
234
100
AcDbEntity
  8
RACCORDO
100
AcDbPolyline
 62
253
  6
CONTINUOUS
 90
8
 70
0
 10
-15.6782627857
 20
19.5652920641
 10
-15.666810261
 20
19.5706834516
 10
-15.6518193033
 20
19.5749863111
 10
-15.6357721602
 20
19.5767973882
 10
-15.6188446476
 20
19.5760968403
 10
-15.6012222269
 20
19.5728923428
 10
-15.5830979729
 20
19.5672190047
 10
-15.5646704588
 20
19.5591389845
  0
LWPOLYLINE
  5
235
100
AcDbEntity
  8
ASSI
100
AcDbPolyline
 62
7
  6
CONTINUOUS
 90
7
 70
0
 10
-0.7715298178
 20
24.478366863
 10
-0.7796060701
 20
24.4756541409
 10
-0.7877102236
 20
24.4726979366
 10
-0.7958422782
 20
24.4694982499
 10
-0.8040022341
 20
24.4660550809
 10
-0.8121900911
 20
24.4623684295
 10
-0.8204058493
 20
24.4584382959
  0
LINE
  5
236
100
AcDbEntity
  8
RACCORDO
100
AcDbLine
 62
253
  6
CONTINUOUS
 10
4.4080645387
 20
-24.1532002211
 11
3.8797973669
 21
-24.044697944
  0
LWPOLYLINE
  5
237
100
AcDbEntity
  8
RACCORDO
100
AcDbPolyline
 62
7
  6
CONTINUOUS
 90
34
 70
0
 10
2.9897371842
 20
-24.3603069849
 10
2.9818580612
 20
-24.358630656
 10
2.9736378121
 20
-24.3567627499
 10
2.9650799509
 20
-24.3547133445
 10
2.9561815204
 20
-24.3525029321
 10
2.9469550854
 20
-24.3501330934
 10
2.9374285111
 20
-24.3475863995
 10
2.9276083228
 20
-24.3448759913
 10
2.9175024245
 20
-24.3420143577
 10
2.9071416416
 20
-24.3389838626
 10
2.8965351203
 20
-24.3357993308
 10
2.8856932089
 20
-24.3324750597
 10
2.8746494318
 20
-24.3289934067
 10
2.8634155834
 20
-24.3253707999
 10
2.8520046326
 20
-24.3216233302
 10
2.8404528121
 20
-24.3177336761
 10
2.8287746802
 20
-24.3137197745
 10
2.8169859487
 20
-24.3095994868
 10
2.8051256347
 20
-24.3053562662
 10
2.7932111871
 20
-24.3010094005
 10
2.7812611737
 20
-24.296578491
 10
2.7693174962
 20
-24.2920483976
 10
2.7574006465
 20
-24.2874395115
 10
2.7455320793
 20
-24.2827730868
 10
2.7337565007
 20
-24.2780362003
 10
2.7220976802
 20
-24.273250033
 10
2.7105797431
 20
-24.2684372225
 10
2.6992493904
 20
-24.2635878455
 10
2.688144128
 20
-24.2587300079
 10
2.6772797762
 20
-24.2538800735
 10
2.6666730906
 20
-24.249014062
 10
2.6563510323
 20
-24.2441428545
 10
2.6463493357
 20
-24.239308485
 10
2.6367009962
 20
-24.2345371469
  0
LWPOLYLINE
  5
238
100
AcDbEntity
  8
RACCORDO
100
AcDbPolyline
 62
7
  6
CONTINUOUS
 90
21
 70
0
 10
-2.2577404805
 20
-25.4917266177
 10
-2.2216883057
 20
-25.5084428534
 10
-2.1847355827
 20
-25.523605842
 10
-2.1469547145
 20
-25.5371629559
 10
-2.1083867431
 20
-25.5490784363
 10
-2.0690367536
 20
-25.559326244
 10
-2.0289591282
 20
-25.567865265
 10
-1.9882186849
 20
-25.5746563972
 10
-1.946830807
 20
-25.5796705339
 10
-1.9048538038
 20
-25.5828722782
 10
-1.8623495043
 20
-25.5842298562
 10
-1.8193308003
 20
-25.5837139603
 10
-1.7758576731
 20
-25.5812944186
 10
-1.7319849392
 20
-25.5769441117
 10
-1.6877079528
 20
-25.5706288584
 10
-1.6430748127
 20
-25.5623177416
 10
-1.5981440672
 20
-25.5519838524
 10
-1.5529168956
 20
-25.5395864015
 10
-1.5074248946
 20
-25.5250876775
 10
-1.4617361899
 20
-25.5084619975
 10
-1.4291520305
 20
-25.4953278895
  0
LINE
  5
239
100
AcDbEntity
  8
RACCORDO
100
AcDbLine
 62
7
  6
CONTINUOUS
 10
-17.0971909554
 20
-18.0720265791
 11
-17.0973089096
 21
-18.0719676197
  0
LINE
  5
23A
100
AcDbEntity
  8
RACCORDO
100
AcDbLine
 62
7
  6
CONTINUOUS
 10
-2.2577404805
 20
-25.4917266177
 11
-17.097309763
 21
-18.071967193
  0
LINE
  5
23B
100
AcDbEntity
  8
RACCORDO
100
AcDbLine
 62
7
  6
CONTINUOUS
 10
-2.2635295578
 20
-25.4888572785
 11
-2.2634109696
 21
-25.4889165897
  0
LINE
  5
23C
100
AcDbEntity
  8
RACCORDO
100
AcDbLine
 62
253
  6
CONTINUOUS
 10
-2.6568792899
 20
-24.7283171721
 11
-17.4817253675
 21
-17.3158941333
  0
LINE
  5
23D
100
AcDbEntity
  8
RACCORDO
100
AcDbLine
 62
253
  6
CONTINUOUS
 10
-17.0973089096
 20
-18.0719676197
 11
-17.1053661484
 21
-18.0678557658
  0
LWPOLYLINE
  5
23E
100
AcDbEntity
  8
RACCORDO
100
AcDbPolyline
 62
253
  6
CONTINUOUS
 90
78
 70
0
 10
-17.1139492116
 20
-18.0632892829
 10
-17.1224543695
 20
-18.0585696058
 10
-17.1308806754
 20
-18.0536972616
 10
-17.1392271553
 20
-18.0486728126
 10
-17.1474928383
 20
-18.0434968418
 10
-17.1556767962
 20
-18.0381699337
 10
-17.1637780805
 20
-18.0326927044
 10
-17.1717957518
 20
-18.0270657873
 10
-17.1797289099
 20
-18.021289819
 10
-17.1875766356
 20
-18.0153654671
 10
-17.1953380188
 20
-18.0092934163
 10
-17.2030121888
 20
-18.0030743546
 10
-17.2105982562
 20
-17.9967090002
 10
-17.2180953416
 20
-17.9901980886
 10
-17.225502604
 20
-17.9835423584
 10
-17.2328191835
 20
-17.9767425795
 10
-17.2400442339
 20
-17.9697995355
 10
-17.2471769497
 20
-17.96271401
 10
-17.2542165037
 20
-17.9554868214
 10
-17.2611620807
 20
-17.9481188021
 10
-17.2680129104
 20
-17.9406107804
 10
-17.2747682013
 20
-17.9329636186
 10
-17.2814271675
 20
-17.9251782004
 10
-17.2879890631
 20
-17.91725541
 10
-17.2944531282
 20
-17.9091961593
 10
-17.3008186128
 20
-17.9010013769
 10
-17.3070848033
 20
-17.8926719953
 10
-17.313250974
 20
-17.8842089728
 10
-17.3193164095
 20
-17.8756132843
 10
-17.3252804293
 20
-17.8668859098
 10
-17.3311423425
 20
-17.8580278537
 10
-17.3369014694
 20
-17.8490401354
 10
-17.3425571639
 20
-17.839923781
 10
-17.3481087703
 20
-17.8306798402
 10
-17.3535556457
 20
-17.8213093758
 10
-17.3588971809
 20
-17.8118134547
 10
-17.3641327567
 20
-17.8021931704
 10
-17.369261767
 20
-17.7924496282
 10
-17.3742836405
 20
-17.7825839334
 10
-17.3791977955
 20
-17.7725972206
 10
-17.3840036622
 20
-17.7624906375
 10
-17.3887007066
 20
-17.7522653289
 10
-17.3932883851
 20
-17.741922468
 10
-17.3977661647
 20
-17.7314632448
 10
-17.4021335453
 20
-17.7208888499
 10
-17.4063900217
 20
-17.710200496
 10
-17.4105350992
 20
-17.6993994126
 10
-17.4145683125
 20
-17.6884868355
 10
-17.4184891948
 20
-17.6774640177
 10
-17.422297291
 20
-17.6663322254
 10
-17.4259921737
 20
-17.655092733
 10
-17.4295734154
 20
-17.6437468311
 10
-17.4330406006
 20
-17.6322958226
 10
-17.4363933404
 20
-17.620741019
 10
-17.4396312469
 20
-17.6090837469
 10
-17.4427539446
 20
-17.5973253447
 10
-17.4457610836
 20
-17.5854671593
 10
-17.4486523148
 20
-17.573510557
 10
-17.4514273045
 20
-17.5614569053
 10
-17.4540857451
 20
-17.5493075699
 10
-17.456627329
 20
-17.5370639444
 10
-17.4590517611
 20
-17.5247274339
 10
-17.4613587726
 20
-17.5122994367
 10
-17.4635480971
 20
-17.4997813719
 10
-17.4656194789
 20
-17.4871746815
 10
-17.4675726852
 20
-17.474480813
 10
-17.4694074899
 20
-17.4617012218
 10
-17.4711236798
 20
-17.4488373739
 10
-17.472721062
 20
-17.4358907469
 10
-17.4741994517
 20
-17.4228628253
 10
-17.4755586773
 20
-17.4097551032
 10
-17.4767985862
 20
-17.3965690871
 10
-17.4779190354
 20
-17.3833062886
 10
-17.4789198947
 20
-17.3699682287
 10
-17.479801052
 20
-17.356556441
 10
-17.4805624068
 20
-17.3430724647
 10
-17.4812038699
 20
-17.3295178442
 10
-17.4817253675
 20
-17.3158941333
  0
LWPOLYLINE
  5
23F
100
AcDbEntity
  8
RACCORDO
100
AcDbPolyline
 62
7
  6
CONTINUOUS
 90
14
 70
0
 10
-8.9408930534
 20
23.7577278339
 10
-8.9324076857
 20
23.7686586042
 10
-8.9245243671
 20
23.7800663127
 10
-8.9172722257
 20
23.7919169775
 10
-8.9106750501
 20
23.804181214
 10
-8.9047616004
 20
23.8168154322
 10
-8.89956149
 20
23.8297613388
 10
-8.8950925315
 20
23.8429742739
 10
-8.8913669904
 20
23.8564176615
 10
-8.888397737
 20
23.8700445622
 10
-8.8861928647
 20
23.8838169142
 10
-8.8847594515
 20
23.8976914021
 10
-8.8841022554
 20
23.9116147268
 10
-8.8840557688
 20
23.9164372894
  0
LINE
  5
240
100
AcDbEntity
  8
RACCORDO
100
AcDbLine
 62
253
  6
CONTINUOUS
 10
-9.4845207975
 20
23.1856108447
 11
-8.9562536258
 21
23.8285630005
  0
LINE
  5
241
100
AcDbEntity
  8
RACCORDO
100
AcDbLine
 62
7
  6
CONTINUOUS
 10
-9.4845207975
 20
23.0960803784
 11
-8.9408930534
 21
23.7577278339
  0
LWPOLYLINE
  5
242
100
AcDbEntity
  8
RACCORDO
100
AcDbPolyline
 62
7
  6
CONTINUOUS
 90
4
 70
0
 10
-17.0082010781
 20
13.4640527707
 10
-17.0117941327
 20
13.4615904616
 10
-17.0152327759
 20
13.4591966229
 10
-17.0216797376
 20
13.4546471664
  0
LWPOLYLINE
  5
243
100
AcDbEntity
  8
RACCORDO
100
AcDbPolyline
 62
7
  6
CONTINUOUS
 90
3
 70
0
 10
-16.9965743507
 20
13.4718278796
 10
-17.0005826184
 20
13.4691748566
 10
-17.0082010781
 20
13.4640527707
  0
LINE
  5
244
100
AcDbEntity
  8
DRAFT
100
AcDbLine
 62
7
  6
CONTINUOUS
 10
-9.3145320123
 20
18.4630443966
 11
-8.5299266429
 21
18.8984842862
  0
LINE
  5
245
100
AcDbEntity
  8
ASSI
100
AcDbLine
 62
7
  6
CONTINUOUS
 10
-0.8204058493
 20
24.4584382959
 11
-5.4186568057
 21
22.1920769984
  0
LINE
  5
246
100
AcDbEntity
  8
RACCORDO
100
AcDbLine
 62
7
  6
CONTINUOUS
 10
0.9514748174
 20
24.0941027886
 11
-0.7715298178
 21
23.251016266
  0
LINE
  5
247
100
AcDbEntity
  8
RACCORDO
100
AcDbLine
 62
253
  6
CONTINUOUS
 10
4.3186507433
 20
-23.8336334151
 11
3.8797973669
 21
-23.7434960884
  0
LWPOLYLINE
  5
248
100
AcDbEntity
  8
RACCORDO
100
AcDbPolyline
 62
253
  6
CONTINUOUS
 90
31
 70
0
 10
1.9259946164
 20
-25.5512646723
 10
1.9354547658
 20
-25.5557541658
 10
1.9453703524
 20
-25.5599908679
 10
1.9557143902
 20
-25.563963245
 10
1.9664587385
 20
-25.5676604866
 10
1.977574144
 20
-25.5710725228
 10
1.9890303175
 20
-25.574190055
 10
2.0007960668
 20
-25.5770045962
 10
2.0128393741
 20
-25.5795084885
 10
2.0251274467
 20
-25.5816949156
 10
2.0376268343
 20
-25.5835579275
 10
2.0503035161
 20
-25.5850924554
 10
2.063122982
 20
-25.5862943237
 10
2.0760503535
 20
-25.5871602641
 10
2.0890504287
 20
-25.58768792
 10
2.102087772
 20
-25.5878758574
 10
2.1151268434
 20
-25.5877235722
 10
2.1281322083
 20
-25.5872314863
 10
2.1410685827
 20
-25.5864009366
 10
2.1539009218
 20
-25.5852341636
 10
2.1665941289
 20
-25.5837343488
 10
2.1791132782
 20
-25.5819056321
 10
2.1914240748
 20
-25.5797530627
 10
2.2034932796
 20
-25.5772824927
 10
2.2152883974
 20
-25.5745005889
 10
2.2267798199
 20
-25.5714142096
 10
2.2379336364
 20
-25.5680323349
 10
2.248712792
 20
-25.5643665758
 10
2.259086558
 20
-25.56042829
 10
2.269029862
 20
-25.5562279375
 10
2.2785165761
 20
-25.5517773962
  0
LWPOLYLINE
  5
249
100
AcDbEntity
  8
RACCORDO
100
AcDbPolyline
 62
253
  6
CONTINUOUS
 90
31
 70
0
 10
1.9259946164
 20
-25.2112907382
 10
1.9354535868
 20
-25.2157797006
 10
1.9453678631
 20
-25.2200159251
 10
1.9557104669
 20
-25.2239878839
 10
1.9664532374
 20
-25.2276847633
 10
1.9775669565
 20
-25.2310965094
 10
1.9890214339
 20
-25.2342138514
 10
2.0007855393
 20
-25.2370283103
 10
2.0128272297
 20
-25.2395322132
 10
2.0251136839
 20
-25.2417187329
 10
2.0376114483
 20
-25.2435819168
 10
2.0502865311
 20
-25.245116698
 10
2.0631044395
 20
-25.2463189
 10
2.0760303029
 20
-25.2471852518
 10
2.089028936
 20
-25.2477133948
 10
2.1020649344
 20
-25.2479018916
 10
2.1151028022
 20
-25.2477502323
 10
2.1281070815
 20
-25.2472588326
 10
2.1410424159
 20
-25.24642903
 10
2.1538737215
 20
-25.2452630702
 10
2.1665659628
 20
-25.2437641323
 10
2.1790842918
 20
-25.2419363448
 10
2.1913944562
 20
-25.2397847441
 10
2.2034631869
 20
-25.2373151808
 10
2.2152579578
 20
-25.2345343242
 10
2.2267478203
 20
-25.2314494141
 10
2.2379003021
 20
-25.2280691105
 10
2.248682112
 20
-25.2244036693
 10
2.2590633011
 20
-25.2204636714
 10
2.2690170132
 20
-25.2162597239
 10
2.2785165761
 20
-25.211803462
  0
LINE
  5
24A
100
AcDbEntity
  8
RACCORDO
100
AcDbLine
 62
7
  6
CONTINUOUS
 10
0.665983233
 20
-25.0239907825
 11
1.9909679129
 21
-25.6864831224
  0
LINE
  5
24B
100
AcDbEntity
  8
RACCORDO
100
AcDbLine
 62
253
  6
CONTINUOUS
 10
0.6010099366
 20
-24.8887723324
 11
1.9259946164
 21
-25.5512646723
  0
LINE
  5
24C
100
AcDbEntity
  8
RACCORDO
100
AcDbLine
 62
253
  6
CONTINUOUS
 10
1.9259946164
 20
-25.2112907382
 11
0.7159413796
 21
-24.6062641198
  0
LINE
  5
24D
100
AcDbEntity
  8
RACCORDO
100
AcDbLine
 62
253
  6
CONTINUOUS
 10
2.0143829641
 20
-24.9795965644
 11
1.0183621987
 21
-24.4815861817
  0
LWPOLYLINE
  5
24E
100
AcDbEntity
  8
RACCORDO
100
AcDbPolyline
 62
253
  6
CONTINUOUS
 90
16
 70
0
 10
0.6010099366
 20
-24.8887723324
 10
0.5920532353
 20
-24.8840546268
 10
0.5835944533
 20
-24.8791072306
 10
0.5756574754
 20
-24.8739431516
 10
0.5682633818
 20
-24.8685749073
 10
0.5614349924
 20
-24.8630177777
 10
0.5551956144
 20
-24.8572901332
 10
0.5495633711
 20
-24.8514088396
 10
0.544552192
 20
-24.8453886957
 10
0.5401756064
 20
-24.8392459217
 10
0.5364455123
 20
-24.8329971108
 10
0.5333721976
 20
-24.8266593738
 10
0.5309641374
 20
-24.8202501383
 10
0.5292278978
 20
-24.8137869295
 10
0.5281681647
 20
-24.80728726
 10
0.5277866323
 20
-24.8003907708
  0
LWPOLYLINE
  5
24F
100
AcDbEntity
  8
RACCORDO
100
AcDbPolyline
 62
7
  6
CONTINUOUS
 90
22
 70
0
 10
0.665983233
 20
-25.0239907825
 10
0.6543266671
 20
-25.0177721982
 10
0.6429712844
 20
-25.0109185922
 10
0.6319604389
 20
-25.0034473282
 10
0.6213318768
 20
-24.9953760603
 10
0.6111303883
 20
-24.9867323048
 10
0.6014054645
 20
-24.9775553249
 10
0.5922309459
 20
-24.9679223009
 10
0.5835926769
 20
-24.9578282848
 10
0.5754221822
 20
-24.9471784993
 10
0.5677213863
 20
-24.9359295212
 10
0.5605878623
 20
-24.9241769344
 10
0.5541008583
 20
-24.9120292922
 10
0.5482972263
 20
-24.8995536002
 10
0.5431865828
 20
-24.8867715813
 10
0.5387875445
 20
-24.8737286248
 10
0.5351159532
 20
-24.8604750954
 10
0.5321809677
 20
-24.8470515067
 10
0.5299873178
 20
-24.8334823218
 10
0.5285415458
 20
-24.8197975609
 10
0.5278508613
 20
-24.8060505989
 10
0.5277866323
 20
-24.8003907708
  0
LWPOLYLINE
  5
250
100
AcDbEntity
  8
RACCORDO
100
AcDbPolyline
 62
253
  6
CONTINUOUS
 90
17
 70
0
 10
-17.6279998732
 20
-17.1421952416
 10
-17.6266778537
 20
-17.1545084228
 10
-17.6242521506
 20
-17.1667483899
 10
-17.6207281377
 20
-17.1788880276
 10
-17.6161136217
 20
-17.1909004428
 10
-17.6104188253
 20
-17.2027590243
 10
-17.6036563642
 20
-17.2144375015
 10
-17.5958412193
 20
-17.2259100031
 10
-17.5869907036
 20
-17.2371511138
 10
-17.5771244239
 20
-17.248135931
 10
-17.5662642369
 20
-17.25884012
 10
-17.5544342014
 20
-17.2692399677
 10
-17.5416605247
 20
-17.2793124351
 10
-17.5279715043
 20
-17.2890352085
 10
-17.5133974658
 20
-17.2983867491
 10
-17.4979706951
 20
-17.3073463401
 10
-17.4817253675
 20
-17.3158941333
  0
LWPOLYLINE
  5
251
100
AcDbEntity
  8
RACCORDO
100
AcDbPolyline
 62
253
  6
CONTINUOUS
 90
27
 70
0
 10
-11.0858015883
 20
22.7699597596
 10
-11.0906800881
 20
22.7580038579
 10
-11.0960257297
 20
22.7463195838
 10
-11.1018243199
 20
22.7349390354
 10
-11.108061005
 20
22.723892522
 10
-11.1147185992
 20
22.7132115602
 10
-11.1217772483
 20
22.7029284348
 10
-11.129216904
 20
22.6930722038
 10
-11.1370179401
 20
22.6836687276
 10
-11.1451592595
 20
22.6747434699
 10
-11.1536187949
 20
22.6663207072
 10
-11.1623733317
 20
22.6584236346
 10
-11.1713987519
 20
22.6510740374
 10
-11.1806703183
 20
22.6442920491
 10
-11.1901627876
 20
22.6380961247
 10
-11.1998502559
 20
22.6325031748
 10
-11.2097062805
 20
22.6275284728
 10
-11.2197039264
 20
22.6231856205
 10
-11.2298158623
 20
22.6194864928
 10
-11.2400144603
 20
22.6164411957
 10
-11.2502718721
 20
22.614058044
 10
-11.2605600801
 20
22.612343547
 10
-11.2708509987
 20
22.6113023866
 10
-11.2811165036
 20
22.6109374096
 10
-11.2913285095
 20
22.6112496101
 10
-11.3014590947
 20
22.6122381221
 10
-11.3114806204
 20
22.6139002364
  0
LWPOLYLINE
  5
252
100
AcDbEntity
  8
RACCORDO
100
AcDbPolyline
 62
7
  6
CONTINUOUS
 90
3
 70
0
 10
-16.9837862605
 20
13.4801038488
 10
-16.9881682316
 20
13.4772949153
 10
-16.9965743507
 20
13.4718278796
  0
LWPOLYLINE
  5
253
100
AcDbEntity
  8
RACCORDO
100
AcDbPolyline
 62
7
  6
CONTINUOUS
 90
3
 70
0
 10
-16.9699623856
 20
13.4887765883
 10
-16.9746757793
 20
13.4858467649
 10
-16.9837862605
 20
13.4801038488
  0
LWPOLYLINE
  5
254
100
AcDbEntity
  8
RACCORDO
100
AcDbPolyline
 62
7
  6
CONTINUOUS
 90
3
 70
0
 10
-16.9552329373
 20
13.4977377697
 10
-16.960233587
 20
13.4947239623
 10
-16.9699623856
 20
13.4887765883
  0
LWPOLYLINE
  5
255
100
AcDbEntity
  8
RACCORDO
100
AcDbPolyline
 62
7
  6
CONTINUOUS
 90
3
 70
0
 10
-16.9397422249
 20
13.5068659544
 10
-16.9449791964
 20
13.5038109533
 10
-16.9552329373
 20
13.4977377697
  0
LWPOLYLINE
  5
256
100
AcDbEntity
  8
RACCORDO
100
AcDbPolyline
 62
7
  6
CONTINUOUS
 90
3
 70
0
 10
-16.9236756134
 20
13.5160073454
 10
-16.9290800336
 20
13.5129673413
 10
-16.9397422249
 20
13.5068659544
  0
LWPOLYLINE
  5
257
100
AcDbEntity
  8
RACCORDO
100
AcDbPolyline
 62
7
  6
CONTINUOUS
 90
3
 70
0
 10
-16.9073204071
 20
13.5249373748
 10
-16.9127782554
 20
13.5219982677
 10
-16.9236756134
 20
13.5160073454
  0
LINE
  5
258
100
AcDbEntity
  8
RACCORDO
100
AcDbLine
 62
7
  6
CONTINUOUS
 10
-16.8787080774
 20
13.5393636152
 11
-16.7674654394
 21
13.5952012289
  0
LINE
  5
259
100
AcDbEntity
  8
ASSI
100
AcDbLine
 62
7
  6
CONTINUOUS
 10
-1.8124122216
 20
21.5753665482
 11
1.6524110062
 21
23.3077781621
  0
LINE
  5
25A
100
AcDbEntity
  8
RACCORDO
100
AcDbLine
 62
7
  6
CONTINUOUS
 10
-16.8809453341
 20
13.5382744172
 11
-16.8787080339
 21
13.539363637
  0
LINE
  5
25B
100
AcDbEntity
  8
SMUSSO
100
AcDbLine
 62
7
  6
CONTINUOUS
 10
-8.5299266429
 20
18.1228635681
 11
-8.6196742346
 21
18.079717152
  0
LWPOLYLINE
  5
25C
100
AcDbEntity
  8
RACCORDO
100
AcDbPolyline
 62
7
  6
CONTINUOUS
 90
5
 70
0
 10
-16.8809453341
 20
13.5382744172
 10
-16.8860205467
 20
13.5358772575
 10
-16.8912077315
 20
13.5333057264
 10
-16.8964899557
 20
13.5305967725
 10
-16.9073204071
 20
13.5249373748
  0
LWPOLYLINE
  5
25D
100
AcDbEntity
  8
0
100
AcDbPolyline
 62
253
  6
CONTINUOUS
 90
7
 70
0
 10
-0.7238085195
 20
21.1650744215
 10
-0.6870413724
 20
21.1786647889
 10
-0.6508840195
 20
21.1872736071
 10
-0.6157319178
 20
21.1908067202
 10
-0.5819695301
 20
21.1892254863
 10
-0.5499661195
 20
21.1825471995
 10
-0.5191891277
 20
21.1704065047
  0
LWPOLYLINE
  5
25E
100
AcDbEntity
  8
ASSI
100
AcDbPolyline
 62
7
  6
CONTINUOUS
 90
7
 70
0
 10
4.1782176505
 20
22.0034931288
 10
4.1701413982
 20
22.0007804068
 10
4.1620372447
 20
21.9978242024
 10
4.1539051901
 20
21.9946245157
 10
4.1457452342
 20
21.9911813467
 10
4.1375573772
 20
21.9874946954
 10
4.129341619
 20
21.9835645617
  0
LWPOLYLINE
  5
25F
100
AcDbEntity
  8
ASSI
100
AcDbPolyline
 62
7
  6
CONTINUOUS
 90
16
 70
0
 10
4.1782176505
 20
22.0034931288
 10
4.1903754884
 20
22.006982898
 10
4.2031054675
 20
22.0097057239
 10
4.2164000482
 20
22.0116455642
 10
4.2302557615
 20
22.0127993846
 10
4.2446560126
 20
22.0131374955
 10
4.2595693544
 20
22.0126048067
 10
4.2749758336
 20
22.0111805605
 10
4.2908609266
 20
22.0088553685
 10
4.3071966288
 20
22.0055929531
 10
4.3239240539
 20
22.0013897199
 10
4.34105488
 20
21.9962227758
 10
4.3586686466
 20
21.9900212461
 10
4.3767559737
 20
21.9827645121
 10
4.3952766635
 20
21.9744327296
 10
4.4047862983
 20
21.969801058
  0
LWPOLYLINE
  5
260
100
AcDbEntity
  8
RACCORDO
100
AcDbPolyline
 62
253
  6
CONTINUOUS
 90
5
 70
0
 10
4.3420594686
 20
-23.8417176285
 10
4.3404857692
 20
-23.8409492135
 10
4.3334580693
 20
-23.837943008
 10
4.3261736877
 20
-23.835502385
 10
4.3186507433
 20
-23.8336334151
  0
LINE
  5
261
100
AcDbEntity
  8
RACCORDO
100
AcDbLine
 62
7
  6
CONTINUOUS
 10
2.6372152245
 20
-24.234794261
 11
2.1741641635
 21
-24.0032687305
  0
LINE
  5
262
100
AcDbEntity
  8
RACCORDO
100
AcDbLine
 62
253
  6
CONTINUOUS
 10
3.8797973669
 20
-23.6142067269
 11
4.3186507433
 21
-23.8336334151
  0
LINE
  5
263
100
AcDbEntity
  8
RACCORDO
100
AcDbLine
 62
7
  6
CONTINUOUS
 10
3.8797973669
 20
-23.6105865774
 11
4.3420657945
 21
-23.8417207912
  0
LWPOLYLINE
  5
264
100
AcDbEntity
  8
RACCORDO
100
AcDbPolyline
 62
7
  6
CONTINUOUS
 90
27
 70
0
 10
-17.6281892553
 20
-17.1382446047
 10
-17.6265176531
 20
-17.1748053735
 10
-17.6226858094
 20
-17.225620801
 10
-17.61714258
 20
-17.2755410688
 10
-17.6098975616
 20
-17.3245660355
 10
-17.6009670726
 20
-17.372635146
 10
-17.5903852026
 20
-17.4196305309
 10
-17.5781728278
 20
-17.4655283026
 10
-17.5643528206
 20
-17.5102954932
 10
-17.548984033
 20
-17.5538051951
 10
-17.5321020776
 20
-17.5960293898
 10
-17.5137430036
 20
-17.6369417483
 10
-17.4939934432
 20
-17.6764220283
 10
-17.472922841
 20
-17.7144176251
 10
-17.4505711274
 20
-17.7509367798
 10
-17.4270004015
 20
-17.7859503641
 10
-17.4022958099
 20
-17.819406249
 10
-17.3765004836
 20
-17.8513173928
 10
-17.3496133545
 20
-17.8817395232
 10
-17.3216980457
 20
-17.910644328
 10
-17.2928154729
 20
-17.9380120449
 10
-17.2629498347
 20
-17.9638905929
 10
-17.2321636666
 20
-17.9882499538
 10
-17.2005178951
 20
-18.0110669089
 10
-17.1679833937
 20
-18.0323788362
 10
-17.134588077
 20
-18.0521730898
 10
-17.0971911752
 20
-18.0720264674
  0
LWPOLYLINE
  5
265
100
AcDbEntity
  8
RACCORDO
100
AcDbPolyline
 62
253
  6
CONTINUOUS
 90
67
 70
0
 10
-17.4817253675
 20
-17.3158941333
 10
-17.4992644661
 20
-16.7856407904
 10
-17.5162641827
 20
-16.2550813525
 10
-17.5327244905
 20
-15.7242166444
 10
-17.5486453628
 20
-15.1930474915
 10
-17.5640267751
 20
-14.6615747191
 10
-17.5788687043
 20
-14.1297991527
 10
-17.5931711269
 20
-13.5977216187
 10
-17.6069340203
 20
-13.0653429443
 10
-17.6201573639
 20
-12.5326639562
 10
-17.6328411368
 20
-11.9996854824
 10
-17.644985319
 20
-11.4664083513
 10
-17.6565898922
 20
-10.9328333911
 10
-17.6676548381
 20
-10.3989614312
 10
-17.6781801392
 20
-9.8647933014
 10
-17.6881657797
 20
-9.3303298312
 10
-17.697611744
 20
-8.7955718514
 10
-17.7065180169
 20
-8.260520193
 10
-17.7148845853
 20
-7.7251756863
 10
-17.7227114358
 20
-7.1895391628
 10
-17.7299985562
 20
-6.6536114554
 10
-17.7367459355
 20
-6.1173933963
 10
-17.742953563
 20
-5.5808858188
 10
-17.7486214289
 20
-5.0440895566
 10
-17.7537495247
 20
-4.5070054436
 10
-17.7583378424
 20
-3.9696343143
 10
-17.7623863747
 20
-3.431977004
 10
-17.7658951154
 20
-2.8940343477
 10
-17.7688640591
 20
-2.3558071814
 10
-17.7712932011
 20
-1.8172963414
 10
-17.7731825377
 20
-1.2785026642
 10
-17.774532066
 20
-0.7394269871
 10
-17.7753417837
 20
-0.2000701478
 10
-17.7756116898
 20
0.3395670162
 10
-17.7753417837
 20
0.8794836664
 10
-17.774532066
 20
1.4196789637
 10
-17.7731825377
 20
1.9601520693
 10
-17.7712932011
 20
2.5009021435
 10
-17.7688640591
 20
3.0419283459
 10
-17.7658951154
 20
3.5832298361
 10
-17.7623863747
 20
4.1248057729
 10
-17.7583378424
 20
4.6666553148
 10
-17.7537495247
 20
5.2087776201
 10
-17.7486214289
 20
5.7511718463
 10
-17.742953563
 20
6.2938371507
 10
-17.7367459355
 20
6.8367726901
 10
-17.7299985562
 20
7.3799776209
 10
-17.7227114359
 20
7.9234510991
 10
-17.7148845853
 20
8.4671922804
 10
-17.7065180169
 20
9.0112003197
 10
-17.697611744
 20
9.555474372
 10
-17.6881657797
 20
10.1000135922
 10
-17.6781801392
 20
10.6448171347
 10
-17.6676548381
 20
11.1898841527
 10
-17.6565898922
 20
11.7352137992
 10
-17.644985319
 20
12.2808052268
 10
-17.6328411368
 20
12.826657588
 10
-17.6201573639
 20
13.3727700343
 10
-17.6069340203
 20
13.9191417171
 10
-17.5931711269
 20
14.4657717878
 10
-17.5788687043
 20
15.0126593964
 10
-17.5640267751
 20
15.5598036935
 10
-17.5486453628
 20
16.1072038289
 10
-17.5327244905
 20
16.6548589518
 10
-17.5162641827
 20
17.202768211
 10
-17.4992644661
 20
17.7509307557
 10
-17.4817253675
 20
18.2993457343
  0
LWPOLYLINE
  5
266
100
AcDbEntity
  8
RACCORDO
100
AcDbPolyline
 62
253
  6
CONTINUOUS
 90
18
 70
0
 10
-17.628208087
 20
18.47438014
 10
-17.6279998738
 20
18.4629874235
 10
-17.6266778543
 20
18.4518134225
 10
-17.6242521512
 20
18.4406534928
 10
-17.6207281383
 20
18.4295323572
 10
-17.6161136223
 20
18.4184746523
 10
-17.6104188258
 20
18.4075048746
 10
-17.6036563646
 20
18.3966473254
 10
-17.5958412197
 20
18.3859260576
 10
-17.586990704
 20
18.3753648222
 10
-17.5771244243
 20
18.3649870156
 10
-17.5662642372
 20
18.354815628
 10
-17.5544342017
 20
18.344873192
 10
-17.5416605249
 20
18.3351817333
 10
-17.5279715045
 20
18.3257627215
 10
-17.5133974659
 20
18.3166370226
 10
-17.4979706952
 20
18.307824853
 10
-17.4817253675
 20
18.2993457343
  0
LWPOLYLINE
  5
267
100
AcDbEntity
  8
RACCORDO
100
AcDbPolyline
 62
253
  6
CONTINUOUS
 90
10
 70
0
 10
-16.6947409124
 20
13.4878531392
 10
-16.6824542689
 20
13.9676627667
 10
-16.6697443919
 20
14.4476661795
 10
-16.6566112996
 20
14.9278628013
 10
-16.643055022
 20
15.4082516545
 10
-16.6290755677
 20
15.8888325632
 10
-16.6146729195
 20
16.3696061546
 10
-16.5998470819
 20
16.8505722546
 10
-16.5845980842
 20
17.331729886
 10
-16.5689259444
 20
17.8130784726
  0
LWPOLYLINE
  5
268
100
AcDbEntity
  8
RACCORDO
100
AcDbPolyline
 62
253
  6
CONTINUOUS
 90
7
 70
0
 10
-17.021679741
 20
13.4546471682
 10
-17.0021994486
 20
14.2115032495
 10
-16.9816565271
 20
14.9688376398
 10
-16.9600510453
 20
15.7266480773
 10
-16.9373830747
 20
16.4849322991
 10
-16.9136526904
 20
17.2436880405
 10
-16.8888599702
 20
18.0029130356
  0
LWPOLYLINE
  5
269
100
AcDbEntity
  8
RACCORDO
100
AcDbPolyline
 62
253
  6
CONTINUOUS
 90
7
 70
0
 10
-16.8787080774
 20
13.5393636152
 10
-16.8594977137
 20
14.2814793242
 10
-16.8392655026
 20
15.0240588031
 10
-16.8180114444
 20
15.7671020519
 10
-16.7957355388
 20
16.5106090707
 10
-16.7724377861
 20
17.2545798594
 10
-16.7481181861
 20
17.999014418
  0
LWPOLYLINE
  5
26A
100
AcDbEntity
  8
RACCORDO
100
AcDbPolyline
 62
7
  6
CONTINUOUS
 90
22
 70
0
 10
-17.6282077905
 20
18.4743892839
 10
-17.6811285226
 20
16.7647180128
 10
-17.7291745768
 20
15.0433669259
 10
-17.7718843794
 20
13.3245506411
 10
-17.8092572356
 20
11.6082956166
 10
-17.8412925354
 20
9.8946281504
 10
-17.867989751
 20
8.183574426
 10
-17.8893484332
 20
6.475160703
 10
-17.9053682142
 20
4.7694132252
 10
-17.9160488086
 20
3.0663580857
 10
-17.9213900112
 20
1.3660213754
 10
-17.9213916983
 20
-0.3315707382
 10
-17.9160538282
 20
-2.0263921114
 10
-17.9053764421
 20
-3.718416662
 10
-17.8893596622
 20
-5.4076184691
 10
-17.8680036911
 20
-7.0939716958
 10
-17.8413088135
 20
-8.7774504366
 10
-17.8092753957
 20
-10.4580288547
 10
-17.7719038825
 20
-12.1356812786
 10
-17.7291948005
 20
-13.8103820028
 10
-17.6811487614
 20
-15.4821052432
 10
-17.6281891685
 20
-17.1382471902
  0
LWPOLYLINE
  5
26B
100
AcDbEntity
  8
RACCORDO
100
AcDbPolyline
 62
7
  6
CONTINUOUS
 90
10
 70
0
 10
-16.6421623062
 20
17.9007482794
 10
-16.658059058
 20
17.4124063108
 10
-16.6735202695
 20
16.92426054
 10
-16.6885459213
 20
16.4363115686
 10
-16.7031359945
 20
15.9485599986
 10
-16.7172904706
 20
15.46100643
 10
-16.7310093319
 20
14.9736514607
 10
-16.744292561
 20
14.4864956901
 10
-16.7571401412
 20
13.9995397194
 10
-16.7685304543
 20
13.5534952667
  0
LWPOLYLINE
  5
26C
100
AcDbEntity
  8
RACCORDO
100
AcDbPolyline
 62
253
  6
CONTINUOUS
 90
141
 70
0
 10
-17.4817253675
 20
18.2993457343
 10
-17.4812162152
 20
18.3132014295
 10
-17.4805921466
 20
18.3271085958
 10
-17.4798532306
 20
18.3410657072
 10
-17.4789995499
 20
18.3550712352
 10
-17.4780311977
 20
18.3691236406
 10
-17.4769482779
 20
18.3832213727
 10
-17.4757509111
 20
18.3973628853
 10
-17.4744392294
 20
18.4115466267
 10
-17.4730133738
 20
18.4257710316
 10
-17.471473503
 20
18.4400345396
 10
-17.4698197874
 20
18.454335586
 10
-17.4680524051
 20
18.4686725921
 10
-17.4661715529
 20
18.4830439857
 10
-17.4641774392
 20
18.4974481901
 10
-17.4620702789
 20
18.5118836141
 10
-17.4598503074
 20
18.5263486709
 10
-17.4575177704
 20
18.5408417776
 10
-17.4550729174
 20
18.5553613445
 10
-17.4525160218
 20
18.5699057727
 10
-17.449847366
 20
18.584473474
 10
-17.4470672315
 20
18.5990628709
 10
-17.4441759251
 20
18.613672373
 10
-17.4411737687
 20
18.6283003695
 10
-17.4380610839
 20
18.6429452497
 10
-17.4348382162
 20
18.65760541
 10
-17.4315055228
 20
18.6722792415
 10
-17.4280633621
 20
18.6869651232
 10
-17.4245121165
 20
18.7016614453
 10
-17.4208521798
 20
18.7163665969
 10
-17.4170839454
 20
18.7310789531
 10
-17.4132078323
 20
18.7457969015
 10
-17.4092242703
 20
18.760518829
 10
-17.405133688
 20
18.7752431082
 10
-17.4009365402
 20
18.7899681254
 10
-17.3966332926
 20
18.8046922671
 10
-17.3922244079
 20
18.8194139064
 10
-17.3877103784
 20
18.8341314239
 10
-17.3830917031
 20
18.8488432133
 10
-17.3783688725
 20
18.8635476683
 10
-17.3735424109
 20
18.8782431796
 10
-17.368612854
 20
18.8929281355
 10
-17.3635807267
 20
18.9076009279
 10
-17.3584465865
 20
18.9222599527
 10
-17.3532110041
 20
18.9369036006
 10
-17.34787454
 20
18.9515302579
 10
-17.3424377864
 20
18.9661383239
 10
-17.3369013467
 20
18.980726197
 10
-17.3312658157
 20
18.9952922648
 10
-17.3255318187
 20
19.009834933
 10
-17.3196999924
 20
19.0243526079
 10
-17.313770964
 20
19.0388436819
 10
-17.3077453921
 20
19.0533065687
 10
-17.3016239456
 20
19.067739684
 10
-17.2954072832
 20
19.0821414287
 10
-17.289096097
 20
19.0965102235
 10
-17.2826910863
 20
19.1108444976
 10
-17.2761929374
 20
19.1251426697
 10
-17.2696023737
 20
19.1394031719
 10
-17.2629201253
 20
19.1536244457
 10
-17.2561469042
 20
19.1678049302
 10
-17.2492834625
 20
19.1819430738
 10
-17.2423305622
 20
19.1960373282
 10
-17.2352889446
 20
19.2100861445
 10
-17.2281593908
 20
19.224087987
 10
-17.2209426928
 20
19.2380413211
 10
-17.2136396233
 20
19.2519446066
 10
-17.2062509923
 20
19.2657963238
 10
-17.1987776208
 20
19.2795949547
 10
-17.1912203117
 20
19.2933389707
 10
-17.183579904
 20
19.3070268685
 10
-17.1758572461
 20
19.3206571494
 10
-17.1680531692
 20
19.3342283006
 10
-17.1601685408
 20
19.3477388367
 10
-17.1522042356
 20
19.36118728
 10
-17.1441611096
 20
19.3745721401
 10
-17.1360400572
 20
19.3878919512
 10
-17.1278419791
 20
19.4011452579
 10
-17.1195677536
 20
19.4143305952
 10
-17.1112183007
 20
19.4274465198
 10
-17.1027945465
 20
19.4404915984
 10
-17.0942973904
 20
19.4534643935
 10
-17.0857277763
 20
19.4663634862
 10
-17.0770866553
 20
19.479187466
 10
-17.0683749494
 20
19.4919349201
 10
-17.0595936246
 20
19.5046044564
 10
-17.0507436572
 20
19.5171946875
 10
-17.0418259951
 20
19.5297042198
 10
-17.0328416276
 20
19.5421316876
 10
-17.0237915534
 20
19.5544757299
 10
-17.0146767461
 20
19.5667349747
 10
-17.0054982183
 20
19.5789080815
 10
-16.996256989
 20
19.5909937199
 10
-16.9869540517
 20
19.6029905469
 10
-16.9775904403
 20
19.614897251
 10
-16.968167194
 20
19.6267125314
 10
-16.9586853247
 20
19.6384350764
 10
-16.9491458864
 20
19.6500636044
 10
-16.9395499378
 20
19.6615968456
 10
-16.9298985076
 20
19.6730335211
 10
-16.920192669
 20
19.6843723805
 10
-16.9104334988
 20
19.6956121863
 10
-16.9006220397
 20
19.7067516955
 10
-16.8907593823
 20
19.7177896909
 10
-16.8808466211
 20
19.7287249675
 10
-16.8708848135
 20
19.7395563173
 10
-16.8608750632
 20
19.7502825603
 10
-16.8508184843
 20
19.7609025221
 10
-16.8407161576
 20
19.7714150205
 10
-16.8305692051
 20
19.7818189078
 10
-16.8203787537
 20
19.792113048
 10
-16.8101458985
 20
19.8022962947
 10
-16.7998717764
 20
19.8123675361
 10
-16.7895575283
 20
19.8223256732
 10
-16.779204262
 20
19.8321695971
 10
-16.7688131278
 20
19.8418982334
 10
-16.7583852795
 20
19.8515105209
 10
-16.7479218371
 20
19.8610053888
 10
-16.7374239631
 20
19.8703818012
 10
-16.7268928232
 20
19.8796387357
 10
-16.7163295469
 20
19.8887751618
 10
-16.7057353094
 20
19.8977900819
 10
-16.6951112856
 20
19.9066825146
 10
-16.6844586093
 20
19.9154514738
 10
-16.6737784624
 20
19.9240960049
 10
-16.6630720325
 20
19.9326151643
 10
-16.6523404672
 20
19.9410080027
 10
-16.6415849574
 20
19.9492736063
 10
-16.6308066987
 20
19.9574110737
 10
-16.6200068488
 20
19.9654194954
 10
-16.6091866077
 20
19.973297999
 10
-16.5983471769
 20
19.9810457266
 10
-16.58748972
 20
19.9886618123
 10
-16.5766154435
 20
19.9961454271
 10
-16.5657255547
 20
20.0034957562
 10
-16.5548212217
 20
20.010711978
 10
-16.5439036558
 20
20.0177933069
 10
-16.5329740695
 20
20.0247389729
 10
-16.522033635
 20
20.0315481992
 10
-16.5110835535
 20
20.0382202385
 10
-16.5001250553
 20
20.0447543722
  0
LWPOLYLINE
  5
26D
100
AcDbEntity
  8
RACCORDO
100
AcDbPolyline
 62
253
  6
CONTINUOUS
 90
43
 70
0
 10
-16.8888599702
 20
18.0029130356
 10
-16.8866639032
 20
18.0494252859
 10
-16.8831560726
 20
18.0964962109
 10
-16.878337773
 20
18.1440690791
 10
-16.8722112276
 20
18.1920907872
 10
-16.8647814169
 20
18.2404985654
 10
-16.8560572803
 20
18.2892197429
 10
-16.8460474417
 20
18.3381951921
 10
-16.8347625349
 20
18.3873637905
 10
-16.8222192288
 20
18.4366487631
 10
-16.808432803
 20
18.4859873121
 10
-16.7934192793
 20
18.5353199244
 10
-16.7772007989
 20
18.5845744539
 10
-16.7597990641
 20
18.6336855384
 10
-16.7412344049
 20
18.6825965276
 10
-16.7215297812
 20
18.7312486302
 10
-16.7007096985
 20
18.7795810459
 10
-16.678799724
 20
18.8275342888
 10
-16.6558261548
 20
18.8750520455
 10
-16.6318164645
 20
18.9220765432
 10
-16.6068007263
 20
18.9685480976
 10
-16.5808109194
 20
19.0144083927
 10
-16.5538789551
 20
19.0596004557
 10
-16.5260379571
 20
19.1040681717
 10
-16.4973235746
 20
19.1477558266
 10
-16.4677719227
 20
19.1906080475
 10
-16.437418632
 20
19.232572838
 10
-16.4063000784
 20
19.2736009841
 10
-16.3744540883
 20
19.3136417471
 10
-16.3419200303
 20
19.3526448484
 10
-16.3087377437
 20
19.3905633157
 10
-16.2749449321
 20
19.4273528601
 10
-16.2405858785
 20
19.4629641513
 10
-16.205711738
 20
19.4973454477
 10
-16.1703644111
 20
19.5304556183
 10
-16.1345887355
 20
19.5622528926
 10
-16.0984418588
 20
19.5926891
 10
-16.0619692813
 20
19.6217278936
 10
-16.0252156099
 20
19.6493357399
 10
-15.98823772
 20
19.6754739085
 10
-15.9510852034
 20
19.7001112932
 10
-15.9138000563
 20
19.7232231076
 10
-15.8764280575
 20
19.7447842402
  0
LWPOLYLINE
  5
26E
100
AcDbEntity
  8
RACCORDO
100
AcDbPolyline
 62
253
  6
CONTINUOUS
 90
43
 70
0
 10
-16.7481181861
 20
17.999014418
 10
-16.7460653314
 20
18.0424894965
 10
-16.7427919958
 20
18.0863853867
 10
-16.7382981792
 20
18.1307020887
 10
-16.7325768532
 20
18.1755011897
 10
-16.7256350462
 20
18.2207211024
 10
-16.7174938435
 20
18.266177065
 10
-16.7081472392
 20
18.3118690848
 10
-16.6976012392
 20
18.3577971544
 10
-16.6858949465
 20
18.4037764909
 10
-16.6730231367
 20
18.4498059391
 10
-16.6589910342
 20
18.495886654
 10
-16.6438534143
 20
18.5418373179
 10
-16.627607091
 20
18.5876534718
 10
-16.6102552504
 20
18.6333395745
 10
-16.5918622257
 20
18.6787276852
 10
-16.572424521
 20
18.7238163178
 10
-16.5519456322
 20
18.7686069583
 10
-16.5305003807
 20
18.8129361242
 10
-16.5080846636
 20
18.8568033197
 10
-16.4847025837
 20
18.9002090406
 10
-16.4604412716
 20
18.9429912914
 10
-16.4352973818
 20
18.9851477114
 10
-16.4092742598
 20
19.0266806613
 10
-16.382469072
 20
19.0674352278
 10
-16.3548797033
 20
19.1074074948
 10
-16.3265082689
 20
19.1466013784
 10
-16.2974582814
 20
19.1848737143
 10
-16.2677270471
 20
19.2222216238
 10
-16.2373172597
 20
19.2586479855
 10
-16.2063405121
 20
19.2940182706
 10
-16.1747918021
 20
19.3283311286
 10
-16.1426761319
 20
19.3615879099
 10
-16.1101201015
 20
19.3936581366
 10
-16.077120602
 20
19.424537025
 10
-16.0436807423
 20
19.4542293588
 10
-16.0099364489
 20
19.4826190105
 10
-15.9758853646
 20
19.5096998684
 10
-15.9415298466
 20
19.5354780443
 10
-15.9070128933
 20
19.5598557464
 10
-15.8723821709
 20
19.5828003775
 10
-15.8375900131
 20
19.6043445349
 10
-15.8026364201
 20
19.6244882186
  0
LWPOLYLINE
  5
26F
100
AcDbEntity
  8
RACCORDO
100
AcDbPolyline
 62
253
  6
CONTINUOUS
 90
23
 70
0
 10
-16.5689259444
 20
17.8130784726
 10
-16.564518953
 20
17.8916703316
 10
-16.5563488945
 20
17.9724214113
 10
-16.5443381823
 20
18.0550818565
 10
-16.5284064385
 20
18.139463336
 10
-16.5085161083
 20
18.2251944108
 10
-16.4847099393
 20
18.3117171619
 10
-16.4570018175
 20
18.39871913
 10
-16.4254322395
 20
18.4858451456
 10
-16.3901792029
 20
18.5724574251
 10
-16.3513565261
 20
18.6581943846
 10
-16.3090824088
 20
18.7427201579
 10
-16.2636296052
 20
18.8254530458
 10
-16.2151781631
 20
18.9060637963
 10
-16.1639196559
 20
18.9842322445
 10
-16.1102126208
 20
19.0594386554
 10
-16.0542805438
 20
19.1314212458
 10
-15.996370271
 20
19.1999112042
 10
-15.9369269151
 20
19.26445935
 10
-15.8762217948
 20
19.3248746436
 10
-15.814505506
 20
19.3810078511
 10
-15.7522198044
 20
19.4325758466
 10
-15.689685681
 20
19.4794577728
  0
LWPOLYLINE
  5
270
100
AcDbEntity
  8
RACCORDO
100
AcDbPolyline
 62
7
  6
CONTINUOUS
 90
22
 70
0
 10
-16.6421623062
 20
17.9007482795
 10
-16.6365889598
 20
17.9928441172
 10
-16.6259894365
 20
18.085882201
 10
-16.6104926396
 20
18.1794972094
 10
-16.5902268567
 20
18.273355014
 10
-16.5653315193
 20
18.3670878735
 10
-16.535974218
 20
18.4602707419
 10
-16.50233559
 20
18.5524985874
 10
-16.4645693964
 20
18.6434685726
 10
-16.4228221194
 20
18.7328898661
 10
-16.3772683517
 20
18.820414082
 10
-16.3280896516
 20
18.9056972962
 10
-16.2754389122
 20
18.988453472
 10
-16.2194867351
 20
19.0683672797
 10
-16.1604406486
 20
19.1450817551
 10
-16.0984998297
 20
19.218268121
 10
-16.0338236263
 20
19.2876487716
 10
-15.966652196
 20
19.3528634244
 10
-15.8972934949
 20
19.4135174963
 10
-15.8259823665
 20
19.4693126413
 10
-15.7528977457
 20
19.5199988207
 10
-15.6782627857
 20
19.5652920641
  0
LINE
  5
271
100
AcDbEntity
  8
DRAFT
100
AcDbLine
 62
7
  6
CONTINUOUS
 10
-5.058315505
 20
16.3349361429
 11
-4.2872859558
 21
16.7771639427
  0
LINE
  5
272
100
AcDbEntity
  8
RACCORDO
100
AcDbLine
 62
7
  6
CONTINUOUS
 10
-0.8972991648
 20
18.8711856657
 11
-0.5396200155
 21
19.0504902105
  0
LINE
  5
273
100
AcDbEntity
  8
ASSI
100
AcDbLine
 62
7
  6
CONTINUOUS
 10
-0.5396200155
 20
19.0504902105
 11
4.7348720536
 21
21.6807993444
  0
LINE
  5
274
100
AcDbEntity
  8
ASSI
100
AcDbLine
 62
7
  6
CONTINUOUS
 10
4.129341619
 20
21.9835645617
 11
-0.4689093374
 21
19.7172032642
  0
LINE
  5
275
100
AcDbEntity
  8
RACCORDO
100
AcDbLine
 62
7
  6
CONTINUOUS
 10
4.9088081186
 20
21.1336290786
 11
5.9012222857
 21
21.6192290544
  0
LWPOLYLINE
  5
276
100
AcDbEntity
  8
RACCORDO
100
AcDbPolyline
 62
7
  6
CONTINUOUS
 90
18
 70
0
 10
5.9012222857
 20
21.6192290544
 10
5.9295968065
 20
21.6324110112
 10
5.9578312585
 20
21.644145403
 10
5.9859256417
 20
21.6544322297
 10
6.0139299548
 20
21.6632843643
 10
6.041794199
 20
21.6706889338
 10
6.0693683787
 20
21.6766073194
 10
6.0966375073
 20
21.6810307407
 10
6.1236165714
 20
21.683967978
 10
6.150200534
 20
21.685406754
 10
6.1764054928
 20
21.6853396174
 10
6.2022153503
 20
21.6837740195
 10
6.2274767766
 20
21.680720036
 10
6.2521665299
 20
21.6761742516
 10
6.276307852
 20
21.6701400818
 10
6.2998171383
 20
21.662637849
 10
6.3227129185
 20
21.6536524344
 10
6.3422750028
 20
21.6445627013
  0
LINE
  5
277
100
AcDbEntity
  8
0
100
AcDbLine
 62
7
  6
CONTINUOUS
 10
7.251503498
 20
22.8732659157
 11
4.7650811538
 21
21.7896495361
  0
LINE
  5
278
100
AcDbEntity
  8
0
100
AcDbLine
 62
253
  6
CONTINUOUS
 10
7.5511257604
 20
22.8612102659
 11
4.9091060323
 21
21.7097814653
  0
LWPOLYLINE
  5
279
100
AcDbEntity
  8
0
100
AcDbPolyline
 62
253
  6
CONTINUOUS
 90
9
 70
0
 10
7.2515326758
 20
22.87327863
 10
7.2554314811
 20
22.8749451505
 10
7.2936495682
 20
22.8880762677
 10
7.3336982319
 20
22.8962119376
 10
7.3752933707
 20
22.899294612
 10
7.4181413402
 20
22.8973033096
 10
7.4619381455
 20
22.8902525073
 10
7.506371607
 20
22.8781920422
 10
7.5511257605
 20
22.8612077034
  0
LWPOLYLINE
  5
27A
100
AcDbEntity
  8
0
100
AcDbPolyline
 62
7
  6
CONTINUOUS
 90
10
 70
0
 10
10.308795012
 20
21.6662001967
 10
10.4518950892
 20
21.7225878833
 10
10.593866876
 20
21.7665740247
 10
10.7340575788
 20
21.7979466662
 10
10.8718374918
 20
21.8165529348
 10
11.0065548483
 20
21.8222926423
 10
11.1375427111
 20
21.8151337576
 10
11.2641821852
 20
21.7951159889
 10
11.3859112966
 20
21.7623342592
 10
11.4711469198
 20
21.7305156066
  0
LINE
  5
27B
100
AcDbEntity
  8
RACCORDO
100
AcDbLine
 62
7
  6
CONTINUOUS
 10
-1.4609664675
 20
18.7389080014
 11
-1.559924831
 21
18.7095963434
  0
LWPOLYLINE
  5
27C
100
AcDbEntity
  8
RACCORDO
100
AcDbPolyline
 62
7
  6
CONTINUOUS
 90
4
 70
0
 10
-1.559924831
 20
18.7095963434
 10
-1.5817443877
 20
18.7032689921
 10
-1.5921938202
 20
18.7003088568
 10
-1.6023430841
 20
18.6975062409
  0
LWPOLYLINE
  5
27D
100
AcDbEntity
  8
RACCORDO
100
AcDbPolyline
 62
253
  6
CONTINUOUS
 90
9
 70
0
 10
-16.6421623062
 20
17.9007482795
 10
-16.6418449307
 20
17.8926231194
 10
-16.6390998624
 20
17.8802011365
 10
-16.6336507731
 20
17.8679139476
 10
-16.6255573594
 20
17.8558961751
 10
-16.6149082936
 20
17.8442794925
 10
-16.6018202485
 20
17.8331911769
 10
-16.586436617
 20
17.8227527144
 10
-16.5689259445
 20
17.8130784724
  0
LWPOLYLINE
  5
27E
100
AcDbEntity
  8
RACCORDO
100
AcDbPolyline
 62
7
  6
CONTINUOUS
 90
4
 70
0
 10
-16.7685250638
 20
13.5534939027
 10
-16.7677340026
 20
13.5274499424
 10
-16.7646560305
 20
13.5017272408
 10
-16.7593217146
 20
13.4770684332
  0
LWPOLYLINE
  5
27F
100
AcDbEntity
  8
RACCORDO
100
AcDbPolyline
 62
253
  6
CONTINUOUS
 90
26
 70
0
 10
-11.4323564654
 20
23.1692073227
 10
-11.4297485099
 20
23.1813470266
 10
-11.4266833379
 20
23.1935317274
 10
-11.4231687836
 20
23.2057308528
 10
-11.4192143024
 20
23.2179115248
 10
-11.4148305386
 20
23.2300408127
 10
-11.4100294589
 20
23.2420854765
 10
-11.4048242535
 20
23.2540123873
 10
-11.3992291645
 20
23.2657889388
 10
-11.3932593616
 20
23.2773832285
 10
-11.3869310397
 20
23.288763799
 10
-11.3802613886
 20
23.2998997166
 10
-11.3732685811
 20
23.3107606201
 10
-11.3659716723
 20
23.3213169047
 10
-11.3583905299
 20
23.3315398249
 10
-11.3505457786
 20
23.3414015653
 10
-11.3424587724
 20
23.3508752777
 10
-11.3341515202
 20
23.3599351756
 10
-11.3256466335
 20
23.3685565952
 10
-11.3169672684
 20
23.3767160608
 10
-11.3081370424
 20
23.3843913673
 10
-11.2991799961
 20
23.3915616164
 10
-11.2901205369
 20
23.3982072708
 10
-11.2809833333
 20
23.4043102395
 10
-11.271793247
 20
23.4098539218
 10
-11.262575292
 20
23.4148232325
  0
LWPOLYLINE
  5
280
100
AcDbEntity
  8
0
100
AcDbPolyline
 62
7
  6
CONTINUOUS
 90
4
 70
0
 10
-0.8446280983
 20
21.1601181564
 10
-0.8396733473
 20
21.1656931096
 10
-0.8295001911
 20
21.1738957469
 10
-0.8190229071
 20
21.1792300207
  0
LINE
  5
281
100
AcDbEntity
  8
RACCORDO
100
AcDbLine
 62
7
  6
CONTINUOUS
 10
-0.5396200155
 20
17.8380546452
 11
-0.8972991648
 21
17.6384586934
  0
LWPOLYLINE
  5
282
100
AcDbEntity
  8
RACCORDO
100
AcDbPolyline
 62
7
  6
CONTINUOUS
 90
22
 70
0
 10
0.6636669787
 20
17.401601619
 10
0.6538602448
 20
17.3962906854
 10
0.6428486203
 20
17.389624035
 10
0.6321849568
 20
17.3823924116
 10
0.6218982587
 20
17.3746131945
 10
0.6120095723
 20
17.3662989036
 10
0.6025463802
 20
17.3574679224
 10
0.5935381191
 20
17.3481428302
 10
0.5850087618
 20
17.3383430612
 10
0.5769839371
 20
17.3280917542
 10
0.5694894238
 20
17.3174151679
 10
0.5625483274
 20
17.3063390584
 10
0.5561833108
 20
17.294891694
 10
0.550415571
 20
17.2831026208
 10
0.5452642715
 20
17.2710013061
 10
0.5407471306
 20
17.2586178488
 10
0.5368816904
 20
17.2459872501
 10
0.533683901
 20
17.2331481744
 10
0.5311663132
 20
17.2201365281
 10
0.5293393623
 20
17.2069880552
 10
0.5282118364
 20
17.1937427078
 10
0.5277866319
 20
17.1791676867
  0
LINE
  5
283
100
AcDbEntity
  8
RACCORDO
100
AcDbLine
 62
7
  6
CONTINUOUS
 10
2.2468442214
 20
18.2138015126
 11
0.6636725264
 21
17.4016044653
  0
LINE
  5
284
100
AcDbEntity
  8
RACCORDO
100
AcDbLine
 62
253
  6
CONTINUOUS
 10
2.3595147957
 20
18.2071405875
 11
0.7767581926
 21
17.3951564902
  0
LINE
  5
285
100
AcDbEntity
  8
RACCORDO
100
AcDbLine
 62
7
  6
CONTINUOUS
 10
2.2485826069
 20
18.2146707454
 11
2.2468461951
 21
18.2138025252
  0
LINE
  5
286
100
AcDbEntity
  8
DRAFT
100
AcDbLine
 62
7
  6
CONTINUOUS
 10
-0.5396200155
 20
17.8380546452
 11
4.7852140547
 21
20.4743860771
  0
LINE
  5
287
100
AcDbEntity
  8
RACCORDO
100
AcDbLine
 62
7
  6
CONTINUOUS
 10
2.7834525633
 20
18.4752228451
 11
2.2485853725
 21
18.2146720926
  0
LINE
  5
288
100
AcDbEntity
  8
RACCORDO
100
AcDbLine
 62
253
  6
CONTINUOUS
 10
2.8939646744
 20
18.4674880541
 11
2.3595147957
 21
18.2071405875
  0
LINE
  5
289
100
AcDbEntity
  8
RACCORDO
100
AcDbLine
 62
7
  6
CONTINUOUS
 10
8.6146348391
 20
20.2625227778
 11
3.9310979595
 21
18.0108987825
  0
LWPOLYLINE
  5
28A
100
AcDbEntity
  8
RACCORDO
100
AcDbPolyline
 62
7
  6
CONTINUOUS
 90
18
 70
0
 10
2.7834525633
 20
18.4752228451
 10
2.7956735231
 20
18.4807752113
 10
2.8083026467
 20
18.4857096514
 10
2.8213014459
 20
18.4899882804
 10
2.8346466964
 20
18.4935808543
 10
2.8482724257
 20
18.4964490815
 10
2.8620713845
 20
18.4985585534
 10
2.8759703666
 20
18.4998948015
 10
2.8899397879
 20
18.5004531891
 10
2.9039406395
 20
18.5002288362
 10
2.9179141037
 20
18.4992202299
 10
2.931819859
 20
18.4974287624
 10
2.9456532989
 20
18.4948497701
 10
2.9594213603
 20
18.4914685079
 10
2.9730224093
 20
18.4872964094
 10
2.9863082398
 20
18.4823798983
 10
2.9992423952
 20
18.4767431081
 10
3.0047456389
 20
18.4740749425
  0
LINE
  5
28B
100
AcDbEntity
  8
0
100
AcDbLine
 62
7
  6
CONTINUOUS
 10
8.1663897935
 20
20.7325162686
 11
10.3087470345
 21
21.6662300091
  0
LWPOLYLINE
  5
28C
100
AcDbEntity
  8
0
100
AcDbPolyline
 62
253
  6
CONTINUOUS
 90
6
 70
0
 10
6.1233318296
 20
-15.1060272388
 10
6.0615900889
 20
-15.1030188606
 10
5.9978543499
 20
-15.1070405557
 10
5.9326096802
 20
-15.1180617167
 10
5.8663526311
 20
-15.1359984657
 10
5.7995874587
 20
-15.1607142934
  0
LWPOLYLINE
  5
28D
100
AcDbEntity
  8
RACCORDO
100
AcDbPolyline
 62
253
  6
CONTINUOUS
 90
19
 70
0
 10
-12.7633082278
 20
23.4329648233
 10
-12.7630893566
 20
23.4223038311
 10
-12.7624328009
 20
23.4118824146
 10
-12.7613394633
 20
23.4017268372
 10
-12.7598110134
 20
23.3918609831
 10
-12.7578506948
 20
23.3823117864
 10
-12.7554641118
 20
23.3731085503
 10
-12.752657779
 20
23.3642758237
 10
-12.7494382619
 20
23.3558337829
 10
-12.7458134927
 20
23.3478032684
 10
-12.7417924096
 20
23.3402041831
 10
-12.7373850365
 20
23.3330555613
 10
-12.7326024086
 20
23.3263753337
 10
-12.7274564357
 20
23.3201801327
 10
-12.7219599069
 20
23.3144853524
 10
-12.7161265636
 20
23.3093052161
 10
-12.7099709747
 20
23.3046526247
 10
-12.7035084195
 20
23.3005390922
 10
-12.6983349293
 20
23.2977463722
  0
LINE
  5
28E
100
AcDbEntity
  8
SMUSSO
100
AcDbLine
 62
7
  6
CONTINUOUS
 10
-13.9107260901
 20
20.5625118032
 11
-13.9107260901
 21
20.6744596531
  0
LINE
  5
28F
100
AcDbEntity
  8
RACCORDO
100
AcDbLine
 62
7
  6
CONTINUOUS
 10
-12.8365315325
 20
23.8613271051
 11
-12.8365315325
 21
23.521353171
  0
LINE
  5
290
100
AcDbEntity
  8
RACCORDO
100
AcDbLine
 62
253
  6
CONTINUOUS
 10
-12.7633082278
 20
23.7729387574
 11
-12.7633082278
 21
23.4329648233
  0
LWPOLYLINE
  5
291
100
AcDbEntity
  8
0
100
AcDbPolyline
 62
7
  6
CONTINUOUS
 90
16
 70
0
 10
-13.6604912897
 20
-1.7033036475
 10
-13.6561235583
 20
-1.4954433175
 10
-13.6390786574
 20
-1.2498518047
 10
-13.6092089214
 20
-1.0119844677
 10
-13.566583917
 20
-0.7825615
 10
-13.5113279203
 20
-0.5624315919
 10
-13.4438060576
 20
-0.352942785
 10
-13.3643541763
 20
-0.1548300883
 10
-13.2732529572
 20
0.0314374824
 10
-13.170984624
 20
0.205086776
 10
-13.0579925992
 20
0.3656009552
 10
-12.9347467041
 20
0.5125179713
 10
-12.8019322411
 20
0.6452466067
 10
-12.6602341771
 20
0.7633695105
 10
-12.5102765505
 20
0.8666258486
 10
-12.3527753812
 20
0.9547643309
  0
LWPOLYLINE
  5
292
100
AcDbEntity
  8
RACCORDO
100
AcDbPolyline
 62
253
  6
CONTINUOUS
 90
31
 70
0
 10
-12.7633082278
 20
23.7729387574
 10
-12.7630688729
 20
23.7843212576
 10
-12.7623508677
 20
23.7959194833
 10
-12.7611552776
 20
23.8077023442
 10
-12.7594840801
 20
23.8196406116
 10
-12.7573411452
 20
23.8316996626
 10
-12.7547331897
 20
23.8438393665
 10
-12.7516680177
 20
23.8560240673
 10
-12.7481534634
 20
23.8682231927
 10
-12.7441989822
 20
23.8804038647
 10
-12.7398152184
 20
23.8925331526
 10
-12.7350141388
 20
23.9045778164
 10
-12.7298089333
 20
23.9165047272
 10
-12.7242138443
 20
23.9282812787
 10
-12.7182440414
 20
23.9398755684
 10
-12.7119157195
 20
23.9512561389
 10
-12.7052460684
 20
23.9623920565
 10
-12.6982532609
 20
23.97325296
 10
-12.6909563522
 20
23.9838092446
 10
-12.6833752097
 20
23.9940321648
 10
-12.6755304584
 20
24.0038939052
 10
-12.6674434522
 20
24.0133676176
 10
-12.6591362
 20
24.0224275155
 10
-12.6506313133
 20
24.0310489351
 10
-12.6419519482
 20
24.0392084007
 10
-12.6331217222
 20
24.0468837072
 10
-12.6241646759
 20
24.0540539563
 10
-12.6151052167
 20
24.0606996107
 10
-12.6059680132
 20
24.0668025794
 10
-12.5967779268
 20
24.0723462618
 10
-12.5875599718
 20
24.0773155724
  0
LWPOLYLINE
  5
293
100
AcDbEntity
  8
RACCORDO
100
AcDbPolyline
 62
7
  6
CONTINUOUS
 90
20
 70
0
 10
-12.8365315325
 20
23.8613271051
 10
-12.8361276604
 20
23.875531717
 10
-12.8349090488
 20
23.889763141
 10
-12.8328686613
 20
23.9039653388
 10
-12.8300039099
 20
23.9180827337
 10
-12.8263175876
 20
23.9320565029
 10
-12.8218182952
 20
23.9458264501
 10
-12.8165197018
 20
23.9593344615
 10
-12.8104379602
 20
23.9725292253
 10
-12.8035904788
 20
23.9853650582
 10
-12.7959998083
 20
23.9977933695
 10
-12.7876934218
 20
24.0097652883
 10
-12.7786970139
 20
24.0212409187
 10
-12.7690357056
 20
24.0321844336
 10
-12.7587464331
 20
24.042550801
 10
-12.7478721622
 20
24.0522962157
 10
-12.7364379986
 20
24.0613972211
 10
-12.7244858425
 20
24.0698183719
 10
-12.712083211
 20
24.0775140058
 10
-12.70063848
 20
24.0837672194
  0
LWPOLYLINE
  5
294
100
AcDbEntity
  8
RACCORDO
100
AcDbPolyline
 62
253
  6
CONTINUOUS
 90
15
 70
0
 10
-8.8843600853
 20
23.9102698874
 10
-8.8853428846
 20
23.9037677478
 10
-8.8870024899
 20
23.8973000806
 10
-8.8893344094
 20
23.8908844278
 10
-8.8923322852
 20
23.8845383071
 10
-8.8959878602
 20
23.8782791426
 10
-8.9002910617
 20
23.8721240604
 10
-8.9052301883
 20
23.866089695
 10
-8.9107919014
 20
23.8601923096
 10
-8.9169617216
 20
23.8544473783
 10
-8.9237223288
 20
23.8488711375
 10
-8.9310532112
 20
23.8434802325
 10
-8.9389332071
 20
23.838289638
 10
-8.9473411021
 20
23.8333127819
 10
-8.9562536258
 20
23.8285630005
  0
LINE
  5
295
100
AcDbEntity
  8
0
100
AcDbLine
 62
7
  6
CONTINUOUS
 10
-1.5561735336
 20
20.2608353623
 11
-0.8449269399
 21
21.1597404809
  0
LINE
  5
296
100
AcDbEntity
  8
0
100
AcDbLine
 62
253
  6
CONTINUOUS
 10
-1.4724127995
 20
20.2189549953
 11
-0.7238085195
 21
21.1650744215
  0
LWPOLYLINE
  5
297
100
AcDbEntity
  8
RACCORDO
100
AcDbPolyline
 62
253
  6
CONTINUOUS
 90
25
 70
0
 10
-2.553905685
 20
13.0537565976
 10
-2.6163253164
 20
13.0162725676
 10
-2.6789209072
 20
12.9740753858
 10
-2.7414550306
 20
12.9271934597
 10
-2.8037407321
 20
12.8756254642
 10
-2.865457021
 20
12.8194922567
 10
-2.9261621413
 20
12.7590769631
 10
-2.9856054971
 20
12.6945288173
 10
-3.04351577
 20
12.6260388589
 10
-3.099447847
 20
12.5540562685
 10
-3.1531548821
 20
12.4788498576
 10
-3.2044133893
 20
12.4006814094
 10
-3.2528648314
 20
12.3200706589
 10
-3.298317635
 20
12.237337771
 10
-3.3405917523
 20
12.1528119977
 10
-3.3794144291
 20
12.0670750382
 10
-3.4146674657
 20
11.9804627587
 10
-3.4462370437
 20
11.893336743
 10
-3.4739451655
 20
11.806334775
 10
-3.4977513345
 20
11.7198120239
 10
-3.5176416647
 20
11.6340809491
 10
-3.5335734084
 20
11.5496994696
 10
-3.5455841207
 20
11.4670390244
 10
-3.5537541792
 20
11.3862879447
 10
-3.5581611706
 20
11.3076960857
  0
LWPOLYLINE
  5
298
100
AcDbEntity
  8
RACCORDO
100
AcDbPolyline
 62
253
  6
CONTINUOUS
 90
43
 70
0
 10
-2.2536721967
 20
12.9334063098
 10
-2.2904390856
 20
12.9115426222
 10
-2.3271220055
 20
12.8881296942
 10
-2.3636751778
 20
12.8631926374
 10
-2.400055811
 20
12.8367558405
 10
-2.4362151085
 20
12.8088508073
 10
-2.47209858
 20
12.7795174606
 10
-2.5076616298
 20
12.7487893397
 10
-2.5428587463
 20
12.716702786
 10
-2.5776351336
 20
12.6833071456
 10
-2.6119460081
 20
12.6486442161
 10
-2.6457494152
 20
12.6127551016
 10
-2.6789963897
 20
12.5756926387
 10
-2.711642735
 20
12.5375062008
 10
-2.7436506612
 20
12.4982400335
 10
-2.7749822591
 20
12.4579420744
 10
-2.8055982071
 20
12.4166626256
 10
-2.835460632
 20
12.3744524021
 10
-2.8645349484
 20
12.3313615136
 10
-2.8927855625
 20
12.2874419744
 10
-2.9201763224
 20
12.2427491394
 10
-2.9466732595
 20
12.1973395627
 10
-2.9722433076
 20
12.1512693882
 10
-2.9968544978
 20
12.1045955598
 10
-3.0204763581
 20
12.0573771471
 10
-3.0430788862
 20
12.0096738699
 10
-3.0646345376
 20
11.9615434655
 10
-3.0851183098
 20
11.9130428944
 10
-3.1045046958
 20
11.8642316731
 10
-3.12276913
 20
11.8151705713
 10
-3.1398897652
 20
11.765918937
 10
-3.1558463267
 20
11.7165334481
 10
-3.1706170571
 20
11.6670794392
 10
-3.1841807629
 20
11.6176295302
 10
-3.1965215126
 20
11.5682432793
 10
-3.2076239364
 20
11.5189834394
 10
-3.2174720419
 20
11.4699271237
 10
-3.2260553006
 20
11.4211355072
 10
-3.2333649834
 20
11.3726676652
 10
-3.2393925121
 20
11.3245964487
 10
-3.2441330265
 20
11.2769846878
 10
-3.2475841831
 20
11.2298854258
 10
-3.2497446872
 20
11.1833553941
  0
LWPOLYLINE
  5
299
100
AcDbEntity
  8
RACCORDO
100
AcDbPolyline
 62
7
  6
CONTINUOUS
 90
43
 70
0
 10
-2.2997223207
 20
12.9355185668
 10
-2.3258165512
 20
12.9201530094
 10
-2.3633275631
 20
12.8966598152
 10
-2.4005792054
 20
12.8716683797
 10
-2.4375275824
 20
12.8452152716
 10
-2.4741348867
 20
12.8173369406
 10
-2.5103640103
 20
12.7880698923
 10
-2.5461783225
 20
12.7574503476
 10
-2.5815396033
 20
12.7255188993
 10
-2.6164068322
 20
12.6923191633
 10
-2.6507421338
 20
12.6578924301
 10
-2.6845088602
 20
12.6222826398
 10
-2.717666761
 20
12.5855383752
 10
-2.7501787194
 20
12.5477057251
 10
-2.7820109163
 20
12.5088309027
 10
-2.8131272735
 20
12.4689634086
 10
-2.8434920204
 20
12.4281531599
 10
-2.8730737769
 20
12.3864485658
 10
-2.9018421521
 20
12.343896877
 10
-2.9297644712
 20
12.3005489125
 10
-2.9568103777
 20
12.2564565881
 10
-2.9829519019
 20
12.2116683841
 10
-3.0081582596
 20
12.1662377994
 10
-3.0324018766
 20
12.1202178092
 10
-3.0556583982
 20
12.0736555333
 10
-3.0778998397
 20
12.0266051096
 10
-3.0991005531
 20
11.9791216311
 10
-3.1192382999
 20
11.9312529947
 10
-3.138288406
 20
11.8830523385
 10
-3.1562268541
 20
11.834577917
 10
-3.1730313877
 20
11.7858847831
 10
-3.188679987
 20
11.7370277618
 10
-3.2031522154
 20
11.6880648638
 10
-3.2164278972
 20
11.6390554064
 10
-3.2284881116
 20
11.5900557439
 10
-3.2393164452
 20
11.5411232549
 10
-3.2488964845
 20
11.4923180138
 10
-3.2572125363
 20
11.4436985546
 10
-3.2642523597
 20
11.3953173228
 10
-3.2700041331
 20
11.3472242686
 10
-3.2744556556
 20
11.2994729317
 10
-3.2775970727
 20
11.2521255628
 10
-3.2790401115
 20
11.2183921729
  0
LINE
  5
29A
100
AcDbEntity
  8
RACCORDO
100
AcDbLine
 62
7
  6
CONTINUOUS
 10
-0.4380124563
 20
14.003311602
 11
-2.2997243633
 21
12.9355175579
  0
LINE
  5
29B
100
AcDbEntity
  8
RACCORDO
100
AcDbLine
 62
253
  6
CONTINUOUS
 10
-0.3914403522
 20
14.0014985666
 11
-2.2536721967
 21
12.9334063098
  0
LINE
  5
29C
100
AcDbEntity
  8
RACCORDO
100
AcDbLine
 62
253
  6
CONTINUOUS
 10
-0.6810413717
 20
14.1104007206
 11
-2.553905685
 21
13.0537565976
  0
LINE
  5
29D
100
AcDbEntity
  8
RACCORDO
100
AcDbLine
 62
7
  6
CONTINUOUS
 10
9.4961702976
 20
19.5286645864
 11
4.0046269694
 21
16.5658509755
  0
LINE
  5
29E
100
AcDbEntity
  8
RACCORDO
100
AcDbLine
 62
7
  6
CONTINUOUS
 10
9.4961702976
 20
19.0313346295
 11
4.1380189605
 21
16.1987842492
  0
LINE
  5
29F
100
AcDbEntity
  8
RACCORDO
100
AcDbLine
 62
7
  6
CONTINUOUS
 10
9.232392631
 20
18.5350724706
 11
4.3708796156
 21
16.0823539216
  0
LINE
  5
2A0
100
AcDbEntity
  8
RACCORDO
100
AcDbLine
 62
253
  6
CONTINUOUS
 10
3.7030236632
 20
17.5353861538
 11
2.1017428724
 21
16.7326641503
  0
LINE
  5
2A1
100
AcDbEntity
  8
RACCORDO
100
AcDbLine
 62
253
  6
CONTINUOUS
 10
3.8797973669
 20
17.230496615
 11
2.2785165761
 21
16.4277746115
  0
LINE
  5
2A2
100
AcDbEntity
  8
RACCORDO
100
AcDbLine
 62
253
  6
CONTINUOUS
 10
4.231290835
 20
17.7988249738
 11
3.7030236632
 21
17.5353861538
  0
LINE
  5
2A3
100
AcDbEntity
  8
RACCORDO
100
AcDbLine
 62
253
  6
CONTINUOUS
 10
4.4080645387
 20
17.493935435
 11
3.8797973669
 21
17.230496615
  0
LINE
  5
2A4
100
AcDbEntity
  8
RACCORDO
100
AcDbLine
 62
253
  6
CONTINUOUS
 10
4.622162548
 20
15.9567124554
 11
3.9027131721
 21
15.6168880514
  0
LINE
  5
2A5
100
AcDbEntity
  8
0
100
AcDbLine
 62
253
  6
CONTINUOUS
 10
9.2693371243
 20
18.4628346691
 11
13.0513593098
 21
20.1110909287
  0
LINE
  5
2A6
100
AcDbEntity
  8
0
100
AcDbLine
 62
253
  6
CONTINUOUS
 10
13.5261416715
 20
19.19817219
 11
6.6552278229
 21
16.2037352975
  0
LWPOLYLINE
  5
2A7
100
AcDbEntity
  8
0
100
AcDbPolyline
 62
253
  6
CONTINUOUS
 90
11
 70
0
 10
13.0513599788
 20
20.1110879727
 10
13.1847531249
 20
20.1636498502
 10
13.3170943244
 20
20.2046498441
 10
13.4477748974
 20
20.233890318
 10
13.5762077227
 20
20.2512287338
 10
13.7017850454
 20
20.2565716747
 10
13.823884911
 20
20.2498893042
 10
13.9419302061
 20
20.2312187223
 10
14.0553970133
 20
20.2006484847
 10
14.1637734214
 20
20.1583180586
 10
14.2590233068
 20
20.1088797861
  0
LWPOLYLINE
  5
2A8
100
AcDbEntity
  8
0
100
AcDbPolyline
 62
253
  6
CONTINUOUS
 90
3
 70
0
 10
6.2389725004
 20
-15.132989304
 10
6.1826096802
 20
-15.1160427947
 10
6.1233318296
 20
-15.1060272388
  0
LWPOLYLINE
  5
2A9
100
AcDbEntity
  8
RACCORDO
100
AcDbPolyline
 62
253
  6
CONTINUOUS
 90
133
 70
0
 10
-10.3234982014
 20
-10.2428196191
 10
-10.4563551541
 20
-10.174517378
 10
-10.5892473351
 20
-10.1023710562
 10
-10.7221746178
 20
-10.026380588
 10
-10.8552409624
 20
-9.9464946812
 10
-10.9883419004
 20
-9.8627643639
 10
-11.1211645336
 20
-9.7753429845
 10
-11.2537074089
 20
-9.6842146553
 10
-11.3859709582
 20
-9.5893947338
 10
-11.5176449911
 20
-9.4910833737
 10
-11.6487246711
 20
-9.3892671776
 10
-11.7792133224
 20
-9.2839587586
 10
-11.9088128994
 20
-9.1753972361
 10
-12.0374961315
 20
-9.0635929093
 10
-12.1652883336
 20
-8.9485344657
 10
-12.2919702704
 20
-8.8304285721
 10
-12.4175225698
 20
-8.70928779
 10
-12.541962245
 20
-8.5850983375
 10
-12.6651245866
 20
-8.458027339
 10
-12.7870163779
 20
-8.3280628829
 10
-12.9076280962
 20
-8.1952154658
 10
-13.0267705408
 20
-8.0596858099
 10
-13.1444516901
 20
-7.9214548566
 10
-13.2606604981
 20
-7.7805400834
 10
-13.3751792428
 20
-7.6371970246
 10
-13.4880008395
 20
-7.4914218695
 10
-13.5991290632
 20
-7.3432167272
 10
-13.7083625486
 20
-7.1928460478
 10
-13.8156911145
 20
-7.0403122061
 10
-13.9211214605
 20
-6.8856110423
 10
-14.0244776468
 20
-6.7289972605
 10
-14.125754763
 20
-6.5704671369
 10
-14.2249541201
 20
-6.4100225557
 10
-14.3219092519
 20
-6.2479267072
 10
-14.4166170416
 20
-6.0841719693
 10
-14.5090769581
 20
-5.9187641063
 10
-14.5991266039
 20
-5.7519864881
 10
-14.6867602465
 20
-5.5838350013
 10
-14.7719800084
 20
-5.4143119286
 10
-14.8546355184
 20
-5.2437103611
 10
-14.9347191454
 20
-5.072030762
 10
-15.0122350271
 20
-4.899270905
 10
-15.0870507324
 20
-4.725719995
 10
-15.1591599774
 20
-4.5513769584
 10
-15.2285657279
 20
-4.3762412029
 10
-15.2951497485
 20
-4.200602822
 10
-15.3589071035
 20
-4.0244569754
 10
-15.4198396463
 20
-3.8478069654
 10
-15.4778396916
 20
-3.6709552873
 10
-15.5329014089
 20
-3.4938979607
 10
-15.5850278588
 20
-3.3166375943
 10
-15.6341251097
 20
-3.1394867802
 10
-15.6801856243
 20
-2.9624480565
 10
-15.7232145571
 20
-2.7855177165
 10
-15.7631374658
 20
-2.6089992152
 10
-15.7999475532
 20
-2.4328963021
 10
-15.8336496562
 20
-2.2572042787
 10
-15.8641872484
 20
-2.0822141649
 10
-15.8915550289
 20
-1.9079227102
 10
-15.915756779
 20
-1.7343324432
 10
-15.9367500847
 20
-1.5617433
 10
-15.9545287057
 20
-1.3901467815
 10
-15.9690978545
 20
-1.2195509161
 10
-15.9804328397
 20
-1.0502807042
 10
-15.988526683
 20
-0.8823633846
 10
-15.9933859303
 20
-0.7157715488
 10
-15.9950066897
 20
-0.5507484848
 10
-15.9933864785
 20
-0.3872955548
 10
-15.9885277803
 20
-0.2254114443
 10
-15.9804346015
 20
-0.0653356509
 10
-15.9691004677
 20
0.0929520583
 10
-15.9545322868
 20
0.2494311874
 10
-15.9367546508
 20
0.4038008894
 10
-15.915762331
 20
0.5560472848
 10
-15.8915615825
 20
0.7061836969
 10
-15.8641947663
 20
0.8539498145
 10
-15.8336580781
 20
0.9993377894
 10
-15.7999568411
 20
1.1423546725
 10
-15.7631475969
 20
1.2827622604
 10
-15.7232255156
 20
1.4205583815
 10
-15.6801973871
 20
1.5557441962
 10
-15.6341376475
 20
1.6880862712
 10
-15.5850411374
 20
1.8175807676
 10
-15.5329153988
 20
1.9442303102
 10
-15.4778543712
 20
2.0678109397
 10
-15.4198549819
 20
2.1883141508
 10
-15.3589230734
 20
2.3057470507
 10
-15.2951663756
 20
2.4199088965
 10
-15.2285830501
 20
2.5307913235
 10
-15.1591780179
 20
2.6384011519
 10
-15.0870695134
 20
2.742560238
 10
-15.0122545895
 20
2.8432628153
 10
-14.9347395115
 20
2.9405129982
 10
-14.8546566541
 20
3.0341473084
 10
-14.7720018673
 20
3.1241603096
 10
-14.6867827944
 20
3.210555708
 10
-14.5991497859
 20
3.2931836029
 10
-14.5091006913
 20
3.3720358708
 10
-14.4166412711
 20
3.4471188558
 10
-14.3219339861
 20
3.5183042403
 10
-14.224979372
 20
3.5855829471
 10
-14.1257805412
 20
3.6489622632
 10
-14.0245040107
 20
3.7083383265
 10
-13.9211485206
 20
3.763704183
 10
-13.8157189303
 20
3.8150650269
 10
-13.7083910779
 20
3.862335152
 10
-13.5991582836
 20
3.9055084752
 10
-13.4880307087
 20
3.944589383
 10
-13.3752095567
 20
3.979507825
 10
-13.2606909457
 20
4.0102544491
 10
-13.1444820671
 20
4.0368369995
 10
-13.026800802
 20
4.0592110385
 10
-12.9076581043
 20
4.0773666587
 10
-12.7870460878
 20
4.0913122811
 10
-12.6651543891
 20
4.101030955
 10
-12.5419927042
 20
4.106518691
 10
-12.4175540767
 20
4.1077781539
 10
-12.2920031332
 20
4.1048023897
 10
-12.1653231028
 20
4.0975859027
 10
-12.0375331154
 20
4.0861330502
 10
-11.9088515955
 20
4.0704516844
 10
-11.7792531541
 20
4.050525785
 10
-11.648765136
 20
4.02637043
 10
-11.5176849982
 20
3.9980401518
 10
-11.3860092265
 20
3.9655170148
 10
-11.2537428474
 20
3.9288182269
 10
-11.1211960332
 20
3.8880510819
 10
-10.9883677734
 20
3.8431979784
 10
-10.8552600999
 20
3.7942760267
 10
-10.7221876283
 20
3.7414446457
 10
-10.5892554
 20
3.6847568939
 10
-10.4563588821
 20
3.6241594684
 10
-10.3234982014
 20
3.5596523085
  0
LWPOLYLINE
  5
2AA
100
AcDbEntity
  8
RACCORDO
100
AcDbPolyline
 62
253
  6
CONTINUOUS
 90
105
 70
0
 10
-9.7677571981
 20
-9.2611923368
 10
-9.8871584631
 20
-9.199792454
 10
-10.0067282331
 20
-9.1348999465
 10
-10.126399386
 20
-9.066535202
 10
-10.2461291928
 20
-8.9947058766
 10
-10.3658244095
 20
-8.9194503836
 10
-10.4853419345
 20
-8.8408447269
 10
-10.604614368
 20
-8.7589241457
 10
-10.7235723205
 20
-8.6737261107
 10
-10.842070996
 20
-8.5853452636
 10
-10.9600416241
 20
-8.4938306213
 10
-11.0774183494
 20
-8.399229918
 10
-11.1940632651
 20
-8.3016500128
 10
-11.3098903288
 20
-8.2011678673
 10
-11.4248561215
 20
-8.0978252654
 10
-11.5388888289
 20
-7.9916842654
 10
-11.6519103374
 20
-7.8828226969
 10
-11.7638732455
 20
-7.7712907439
 10
-11.8747516802
 20
-7.6571084409
 10
-11.984491366
 20
-7.540331556
 10
-12.093022173
 20
-7.4210340265
 10
-12.2002935938
 20
-7.299261223
 10
-12.3062552773
 20
-7.1750683105
 10
-12.4108358846
 20
-7.0485362758
 10
-12.5139545092
 20
-6.9197512506
 10
-12.6155514451
 20
-6.78878829
 10
-12.7155709426
 20
-6.6557192144
 10
-12.8139404021
 20
-6.5206288137
 10
-12.9106003604
 20
-6.3836006728
 10
-13.0055013784
 20
-6.2447064714
 10
-13.0985875676
 20
-6.1040151382
 10
-13.1898066685
 20
-5.9616066951
 10
-13.2791074877
 20
-5.8175619297
 10
-13.3664367738
 20
-5.6719519257
 10
-13.451747262
 20
-5.5248556431
 10
-13.5349886426
 20
-5.3763599763
 10
-13.6161046465
 20
-5.2265491005
 10
-13.6950498576
 20
-5.0755074731
 10
-13.7717795293
 20
-4.9233215257
 10
-13.8462406048
 20
-4.7700797032
 10
-13.9183899401
 20
-4.6158720764
 10
-13.9881886567
 20
-4.460783554
 10
-14.0555921343
 20
-4.3048957499
 10
-14.1205619648
 20
-4.1482981926
 10
-14.1830621779
 20
-3.9910790927
 10
-14.2430534168
 20
-3.8333186057
 10
-14.3005024903
 20
-3.6751034611
 10
-14.3553758597
 20
-3.5165266019
 10
-14.4076356054
 20
-3.3576778898
 10
-14.4572526932
 20
-3.1986449976
 10
-14.5041983565
 20
-3.0395211744
 10
-14.5484379299
 20
-2.8804048564
 10
-14.5899458962
 20
-2.7213890765
 10
-14.6287002109
 20
-2.5625618755
 10
-14.6646743674
 20
-2.4040140975
 10
-14.6978476216
 20
-2.24583891
 10
-14.7282027571
 20
-2.0881232527
 10
-14.7557206882
 20
-1.9309483401
 10
-14.7803862047
 20
-1.7743997298
 10
-14.8021850918
 20
-1.6185703502
 10
-14.8211020279
 20
-1.4635519307
 10
-14.8371271571
 20
-1.3094228824
 10
-14.8502508028
 20
-1.1562805585
 10
-14.8604624051
 20
-1.004243568
 10
-14.8677570467
 20
-0.8534195706
 10
-14.8721347306
 20
-0.7038708671
 10
-14.8735945686
 20
-0.5556470783
 10
-14.8721354676
 20
-0.4088321837
 10
-14.8677585681
 20
-0.2635094721
 10
-14.8604647889
 20
-0.1197282989
 10
-14.850254177
 20
0.0224495379
 10
-14.8371316673
 20
0.1629208372
 10
-14.8211077299
 20
0.3015754389
 10
-14.8021919582
 20
0.4383266851
 10
-14.7803942171
 20
0.5731049588
 10
-14.7557298276
 20
0.7058285877
 10
-14.72821298
 20
0.8364194717
 10
-14.6978588698
 20
0.964806622
 10
-14.6646866197
 20
1.09092078
 10
-14.6287134592
 20
1.2146927583
 10
-14.5899601117
 20
1.3360495913
 10
-14.5484530862
 20
1.4549182058
 10
-14.504214422
 20
1.5712331637
 10
-14.4572696345
 20
1.6849263838
 10
-14.4076533999
 20
1.7959236775
 10
-14.3553944775
 20
1.9041610077
 10
-14.3005219064
 20
2.0095792867
 10
-14.2430736432
 20
2.1121148208
 10
-14.183083247
 20
2.2117085174
 10
-14.1205838976
 20
2.3083065367
 10
-14.0556149449
 20
2.4018554131
 10
-13.9882123745
 20
2.4923031828
 10
-13.9184145846
 20
2.5795984565
 10
-13.8462661447
 20
2.6636907478
 10
-13.7718059153
 20
2.7445342695
 10
-13.6950770518
 20
2.8220818431
 10
-13.6161325981
 20
2.8962838375
 10
-13.5350172742
 20
2.9670986687
 10
-13.4517765149
 20
3.0344871817
 10
-13.3664666485
 20
3.0984069113
 10
-13.2791379946
 20
3.1588212125
 10
-13.1898378113
 20
3.215698455
 10
-13.0986193909
 20
3.269006447
 10
-13.005533975
 20
3.3187154813
 10
-12.9327578151
 20
3.3544557138
  0
LWPOLYLINE
  5
2AB
100
AcDbEntity
  8
RACCORDO
100
AcDbPolyline
 62
253
  6
CONTINUOUS
 90
31
 70
0
 10
-11.0858015883
 20
23.1099336937
 10
-11.0860952903
 20
23.1213319121
 10
-11.0868682188
 20
23.1329488931
 10
-11.0881191631
 20
23.1447532772
 10
-11.0898460082
 20
23.1567156072
 10
-11.0920447004
 20
23.1688009105
 10
-11.0947082741
 20
23.1809685791
 10
-11.0978286926
 20
23.1931825714
 10
-11.1013979316
 20
23.2054120521
 10
-11.1054063235
 20
23.2176238348
 10
-11.1098430041
 20
23.2297846712
 10
-11.1146957702
 20
23.2418609767
 10
-11.1199511854
 20
23.2538192727
 10
-11.1255947611
 20
23.2656266201
 10
-11.1316110854
 20
23.2772508006
 10
-11.1379837158
 20
23.2886600415
 10
-11.1446952142
 20
23.2998231017
 10
-11.1517271579
 20
23.3107093198
 10
-11.1590602419
 20
23.3212888002
 10
-11.1666743517
 20
23.3315325204
 10
-11.1745486194
 20
23.3414124021
 10
-11.182661452
 20
23.3509013489
 10
-11.1909906068
 20
23.3599733413
 10
-11.1995132444
 20
23.3686034996
 10
-11.208205988
 20
23.3767681497
 10
-11.2170450078
 20
23.3844449074
 10
-11.2260060615
 20
23.391612716
 10
-11.2350645513
 20
23.3982519014
 10
-11.2441956291
 20
23.4043442564
 10
-11.2533742655
 20
23.4098730857
 10
-11.262575292
 20
23.4148232325
  0
LWPOLYLINE
  5
2AC
100
AcDbEntity
  8
RACCORDO
100
AcDbPolyline
 62
7
  6
CONTINUOUS
 90
23
 70
0
 10
-12.8365315325
 20
23.521353171
 10
-12.8362131245
 20
23.5087396187
 10
-12.8352545079
 20
23.4961166705
 10
-12.8336527336
 20
23.4835231303
 10
-12.8314085737
 20
23.4710020569
 10
-12.8285245336
 20
23.4585886319
 10
-12.8250027094
 20
23.4463098649
 10
-12.8208493442
 20
23.4342029381
 10
-12.8160744894
 20
23.4223075708
 10
-12.8106866945
 20
23.4106532914
 10
-12.804698334
 20
23.3992743165
 10
-12.7981262928
 20
23.3882079217
 10
-12.790986859
 20
23.3774851082
 10
-12.783297066
 20
23.3671347389
 10
-12.7750797462
 20
23.3571899257
 10
-12.7663607124
 20
23.3476826033
 10
-12.7571594964
 20
23.3386345406
 10
-12.7475030469
 20
23.3300728229
 10
-12.7374286451
 20
23.3220291598
 10
-12.7269560953
 20
23.3145176273
 10
-12.7161134052
 20
23.3075576185
 10
-12.7049496555
 20
23.3011779041
 10
-12.6983286055
 20
23.2977432106
  0
LWPOLYLINE
  5
2AD
100
AcDbEntity
  8
RACCORDO
100
AcDbPolyline
 62
253
  6
CONTINUOUS
 90
19
 70
0
 10
-11.438323548
 20
22.7704724834
 10
-11.4381046768
 20
22.7598114912
 10
-11.4374481211
 20
22.7493900747
 10
-11.4363547834
 20
22.7392344973
 10
-11.4348263336
 20
22.7293686432
 10
-11.432866015
 20
22.7198194465
 10
-11.4304794319
 20
22.7106162104
 10
-11.4276730992
 20
22.7017834838
 10
-11.4244535821
 20
22.693341443
 10
-11.4208288129
 20
22.6853109285
 10
-11.4168077298
 20
22.6777118432
 10
-11.4124003567
 20
22.6705632214
 10
-11.4076177288
 20
22.6638829938
 10
-11.4024717559
 20
22.6576877927
 10
-11.396975227
 20
22.6519930125
 10
-11.3911418837
 20
22.6468128762
 10
-11.3849862949
 20
22.6421602848
 10
-11.3785237397
 20
22.6380467523
 10
-11.3733502495
 20
22.6352540323
  0
LINE
  5
2AE
100
AcDbEntity
  8
RACCORDO
100
AcDbLine
 62
7
  6
CONTINUOUS
 10
-12.1335385782
 20
22.5613760037
 11
-12.1335385782
 21
23.0153481966
  0
LINE
  5
2AF
100
AcDbEntity
  8
RACCORDO
100
AcDbLine
 62
253
  6
CONTINUOUS
 10
-12.0603152735
 20
22.4696624001
 11
-12.0603152735
 21
22.9787365443
  0
LINE
  5
2B0
100
AcDbEntity
  8
RACCORDO
100
AcDbLine
 62
253
  6
CONTINUOUS
 10
-11.438323548
 20
22.7704724834
 11
-11.438323548
 21
23.1104464175
  0
LINE
  5
2B1
100
AcDbEntity
  8
RACCORDO
100
AcDbLine
 62
253
  6
CONTINUOUS
 10
-11.0858015883
 20
22.7699597596
 11
-11.0858015883
 21
23.1099336937
  0
LINE
  5
2B2
100
AcDbEntity
  8
RACCORDO
100
AcDbLine
 62
253
  6
CONTINUOUS
 10
-10.7271029399
 20
22.4918768562
 11
-10.7271029399
 21
21.8030562333
  0
LINE
  5
2B3
100
AcDbEntity
  8
RACCORDO
100
AcDbLine
 62
253
  6
CONTINUOUS
 10
-10.3745809802
 20
22.6214562367
 11
-10.3745809802
 21
21.8138241149
  0
LWPOLYLINE
  5
2B4
100
AcDbEntity
  8
RACCORDO
100
AcDbPolyline
 62
253
  6
CONTINUOUS
 90
6
 70
0
 10
-11.438323548
 20
23.1104464175
 10
-11.4380841931
 20
23.1218289177
 10
-11.4373661879
 20
23.1334271434
 10
-11.4361705978
 20
23.1452100043
 10
-11.4344994003
 20
23.1571482717
 10
-11.4323564654
 20
23.1692073227
  0
LWPOLYLINE
  5
2B5
100
AcDbEntity
  8
RACCORDO
100
AcDbPolyline
 62
7
  6
CONTINUOUS
 90
5
 70
0
 10
-7.255275354
 20
21.8377731302
 10
-7.2573118973
 20
21.8286517322
 10
-7.2588262562
 20
21.8188181347
 10
-7.2597826399
 20
21.8083599748
 10
-7.2601143867
 20
21.7966862185
  0
LWPOLYLINE
  5
2B6
100
AcDbEntity
  8
RACCORDO
100
AcDbPolyline
 62
253
  6
CONTINUOUS
 90
138
 70
0
 10
-1.2827982295
 20
12.0197903439
 10
-1.290481771
 20
12.0154466494
 10
-1.2981587812
 20
12.0110071307
 10
-1.305830289
 20
12.0064711559
 10
-1.3134952655
 20
12.0018393568
 10
-1.3211506246
 20
11.9971136291
 10
-1.3287962959
 20
11.9922939919
 10
-1.3364323497
 20
11.9873804261
 10
-1.3440559105
 20
11.9823747709
 10
-1.3516668821
 20
11.9772770371
 10
-1.3592653608
 20
11.9720872137
 10
-1.3668487596
 20
11.966807107
 10
-1.3744170188
 20
11.9614367332
 10
-1.3819701981
 20
11.9559760759
 10
-1.3895058903
 20
11.9504268927
 10
-1.3970240971
 20
11.9447891558
 10
-1.4045248168
 20
11.939062893
 10
-1.4120056364
 20
11.9332499446
 10
-1.4194665896
 20
11.9273502554
 10
-1.4269076427
 20
11.9213638806
 10
-1.4343262829
 20
11.9152928265
 10
-1.4417225478
 20
11.9091370253
 10
-1.4490963998
 20
11.9028965448
 10
-1.4564452121
 20
11.896573595
 10
-1.4637689739
 20
11.8901681449
 10
-1.471067696
 20
11.8836802255
 10
-1.4783387855
 20
11.87711214
 10
-1.4855822176
 20
11.8704638711
 10
-1.492798017
 20
11.8637354362
 10
-1.4999836644
 20
11.8569291904
 10
-1.5071391294
 20
11.8500451258
 10
-1.5142644424
 20
11.8430832503
 10
-1.5213571754
 20
11.8360459443
 10
-1.5284173177
 20
11.8289331821
 10
-1.53544488
 20
11.8217449894
 10
-1.5424374658
 20
11.8144838225
 10
-1.5493950652
 20
11.8071496549
 10
-1.5563176882
 20
11.7997425133
 10
-1.5632029676
 20
11.7922649336
 10
-1.5700508852
 20
11.7847168989
 10
-1.5768614592
 20
11.7770984262
 10
-1.5836323774
 20
11.7694121024
 10
-1.590363625
 20
11.7616579076
 10
-1.5970552168
 20
11.7538358618
 10
-1.6037048842
 20
11.7459486125
 10
-1.6103126151
 20
11.7379961366
 10
-1.6168784217
 20
11.7299784573
 10
-1.6234000714
 20
11.7218982916
 10
-1.6298775637
 20
11.7137556
 10
-1.6363108991
 20
11.7055504221
 10
-1.6426978464
 20
11.6972855933
 10
-1.6490384105
 20
11.6889610623
 10
-1.6553325864
 20
11.6805768803
 10
-1.6615781283
 20
11.6721360372
 10
-1.6677750254
 20
11.6636384977
 10
-1.6739232884
 20
11.6550842971
 10
-1.6800207034
 20
11.6464765303
 10
-1.6860672126
 20
11.6378152325
 10
-1.6920628738
 20
11.6291003686
 10
-1.6980056466
 20
11.6203349286
 10
-1.7038954585
 20
11.611518984
 10
-1.7097323819
 20
11.6026524634
 10
-1.7155145934
 20
11.593738142
 10
-1.7212420976
 20
11.5847759814
 10
-1.7269148898
 20
11.57576602
 10
-1.7325311336
 20
11.5667111485
 10
-1.7380909086
 20
11.5576111878
 10
-1.7435941352
 20
11.5484663169
 10
-1.7490387376
 20
11.5392799643
 10
-1.7544246887
 20
11.5300521094
 10
-1.7597520158
 20
11.5207827727
 10
-1.7650187246
 20
11.5114754435
 10
-1.7702247161
 20
11.502130242
 10
-1.7753700895
 20
11.4927470479
 10
-1.780453148
 20
11.4833289899
 10
-1.7854738073
 20
11.4738761927
 10
-1.7904321517
 20
11.4643885315
 10
-1.7953267373
 20
11.4548687599
 10
-1.8001576398
 20
11.4453166917
 10
-1.8049247836
 20
11.4357325131
 10
-1.809626498
 20
11.4261195372
 10
-1.8142627977
 20
11.4164776666
 10
-1.8188336681
 20
11.4068069987
 10
-1.8233373946
 20
11.3971111374
 10
-1.8277739409
 20
11.3873900837
 10
-1.8321433433
 20
11.3776438368
 10
-1.8364439953
 20
11.367875998
 10
-1.8406758365
 20
11.3580866346
 10
-1.8448389274
 20
11.3482756793
 10
-1.8489318433
 20
11.3384465323
 10
-1.852954534
 20
11.3285992562
 10
-1.8569070497
 20
11.3187337883
 10
-1.860788116
 20
11.3088533401
 10
-1.8645977172
 20
11.2989578971
 10
-1.868335869
 20
11.2890474737
 10
-1.8720013442
 20
11.2791253247
 10
-1.8755941342
 20
11.2691914097
 10
-1.8791142477
 20
11.259245769
 10
-1.8825604833
 20
11.2492917792
 10
-1.8859328337
 20
11.2393293815
 10
-1.8892313062
 20
11.2293586346
 10
-1.8924547225
 20
11.2193830911
 10
-1.8956030433
 20
11.2094027844
 10
-1.8986763079
 20
11.199417681
 10
-1.9016734554
 20
11.1894312333
 10
-1.9045944532
 20
11.1794434649
 10
-1.9074393339
 20
11.1694543521
 10
-1.9102071354
 20
11.1594672765
 10
-1.9128978301
 20
11.1494822496
 10
-1.9155114455
 20
11.1394992599
 10
-1.9180471015
 20
11.1295216539
 10
-1.920504796
 20
11.1195493246
 10
-1.9228845312
 20
11.1095823789
 10
-1.9251854326
 20
11.0996244847
 10
-1.9274074616
 20
11.0896756674
 10
-1.9295506569
 20
11.0797359016
 10
-1.9316142603
 20
11.0698087785
 10
-1.933598219
 20
11.059894428
 10
-1.9355025857
 20
11.0499927201
 10
-1.9373267601
 20
11.0401068564
 10
-1.9390707054
 20
11.0302369582
 10
-1.9407344583
 20
11.0203829042
 10
-1.9423175286
 20
11.010547532
 10
-1.9438199198
 20
11.0007307231
 10
-1.9452416285
 20
10.990932596
 10
-1.9465821539
 20
10.981156344
 10
-1.947841489
 20
10.9714017998
 10
-1.9490196409
 20
10.9616691307
 10
-1.95011613
 20
10.9519620321
 10
-1.9511309235
 20
10.9422804033
 10
-1.9520640542
 20
10.932624345
 10
-1.9529151416
 20
10.9229978552
 10
-1.9536841398
 20
10.9134008064
 10
-1.9543710947
 20
10.9038333262
 10
-1.954975764
 20
10.8942997943
 10
-1.9554980669
 20
10.884801671
 10
-1.9559380843
 20
10.8753374961
 10
-1.956295816
 20
10.8659072698
  0
LINE
  5
2B7
100
AcDbEntity
  8
RACCORDO
100
AcDbLine
 62
253
  6
CONTINUOUS
 10
1.5357319807
 20
13.5913234486
 11
0.2017665133
 21
12.8428634606
  0
LWPOLYLINE
  5
2B8
100
AcDbEntity
  8
RACCORDO
100
AcDbPolyline
 62
253
  6
CONTINUOUS
 90
139
 70
0
 10
-1.6409408967
 20
12.6270406598
 10
-1.6524089228
 20
12.6206363604
 10
-1.6638695512
 20
12.6140870504
 10
-1.6753214827
 20
12.6073934742
 10
-1.6867635801
 20
12.6005563286
 10
-1.6981943843
 20
12.5935764529
 10
-1.7096121156
 20
12.5864548457
 10
-1.7210154509
 20
12.5791923258
 10
-1.7324031276
 20
12.5717897414
 10
-1.7437734618
 20
12.5642481879
 10
-1.755125043
 20
12.5565686483
 10
-1.7664567115
 20
12.5487519324
 10
-1.7777671649
 20
12.5407989114
 10
-1.7890550387
 20
12.5327105764
 10
-1.8003191422
 20
12.5244878187
 10
-1.8115584358
 20
12.5161313724
 10
-1.8227716572
 20
12.5076421988
 10
-1.8339575269
 20
12.4990212883
 10
-1.84511498
 20
12.4902694225
 10
-1.8562428092
 20
12.4813875595
 10
-1.8673396949
 20
12.4723767648
 10
-1.8784044059
 20
12.4632379921
 10
-1.8894357547
 20
12.453972231
 10
-1.9004324214
 20
12.444580599
 10
-1.9113929825
 20
12.4350642661
 10
-1.9223161932
 20
12.4254243291
 10
-1.9332008174
 20
12.4156618955
 10
-1.9440454538
 20
12.405778181
 10
-1.954848853
 20
12.3957743466
 10
-1.9656098129
 20
12.3856515282
 10
-1.9763270123
 20
12.3754109308
 10
-1.9869992087
 20
12.3650537673
 10
-1.9976252242
 20
12.3545812067
 10
-2.0082038424
 20
12.3439944103
 10
-2.0187338664
 20
12.3332945999
 10
-2.0292141037
 20
12.3224830114
 10
-2.0396433528
 20
12.3115608451
 10
-2.0500204357
 20
12.3005293575
 10
-2.0603441746
 20
12.2893898242
 10
-2.0706133768
 20
12.2781434912
 10
-2.0808268705
 20
12.2667916642
 10
-2.0909835082
 20
12.2553356424
 10
-2.1010821418
 20
12.2437766774
 10
-2.1111216243
 20
12.2321161029
 10
-2.121100821
 20
12.2203552584
 10
-2.1310186105
 20
12.2084954191
 10
-2.1408738703
 20
12.1965379458
 10
-2.1506654807
 20
12.1844842164
 10
-2.1603923334
 20
12.1723355458
 10
-2.1700533456
 20
12.1600933022
 10
-2.1796473993
 20
12.147758919
 10
-2.189173344
 20
12.1353338249
 10
-2.1986301315
 20
12.1228194041
 10
-2.2080166556
 20
12.1102171382
 10
-2.2173316937
 20
12.0975286221
 10
-2.2265742045
 20
12.0847552985
 10
-2.2357431288
 20
12.0718986571
 10
-2.2448372358
 20
12.0589603854
 10
-2.2538554426
 20
12.0459420603
 10
-2.2627967911
 20
12.032845103
 10
-2.2716602538
 20
12.0196709846
 10
-2.2804447461
 20
12.006421354
 10
-2.2891493646
 20
11.9930976124
 10
-2.2977733596
 20
11.9797008635
 10
-2.306315777
 20
11.9662326051
 10
-2.3147756208
 20
11.952694424
 10
-2.3231520789
 20
11.9390875597
 10
-2.3314443419
 20
11.9254133245
 10
-2.3396513117
 20
11.911673528
 10
-2.34777176
 20
11.8978701688
 10
-2.3558047668
 20
11.8840048327
 10
-2.3637494217
 20
11.8700791155
 10
-2.3716045422
 20
11.8560950527
 10
-2.3793691349
 20
11.8420544606
 10
-2.3870424432
 20
11.8279587572
 10
-2.3946236607
 20
11.813809394
 10
-2.4021118297
 20
11.7996081998
 10
-2.4095062148
 20
11.7853566118
 10
-2.4168063415
 20
11.7710554929
 10
-2.4240115071
 20
11.7567062132
 10
-2.431120749
 20
11.742310684
 10
-2.438133205
 20
11.7278705806
 10
-2.4450481322
 20
11.7133874302
 10
-2.4518646764
 20
11.6988630213
 10
-2.4585818342
 20
11.6842994322
 10
-2.4651988356
 20
11.6696983544
 10
-2.4717149395
 20
11.6550614479
 10
-2.4781292192
 20
11.6403907566
 10
-2.4844409065
 20
11.6256880819
 10
-2.4906493443
 20
11.6109550024
 10
-2.4967537982
 20
11.5961932351
 10
-2.5027535435
 20
11.5814045804
 10
-2.5086479519
 20
11.5665906369
 10
-2.5144364468
 20
11.5517528222
 10
-2.520118381
 20
11.536892825
 10
-2.5256931076
 20
11.5220123681
 10
-2.5311600587
 20
11.5071129217
 10
-2.536518632
 20
11.4921961406
 10
-2.5417681984
 20
11.4772637927
 10
-2.5469081611
 20
11.4623175201
 10
-2.5519379615
 20
11.4473589545
 10
-2.5568569979
 20
11.4323898967
 10
-2.5616646297
 20
11.4174122446
 10
-2.5663602961
 20
11.4024277702
 10
-2.5709434833
 20
11.3874381412
 10
-2.5754136455
 20
11.3724450998
 10
-2.579770267
 20
11.3574504028
 10
-2.5840128666
 20
11.3424557355
 10
-2.5881409695
 20
11.3274627328
 10
-2.5921541027
 20
11.3124731317
 10
-2.5960518162
 20
11.2974886361
 10
-2.5998336841
 20
11.2825108306
 10
-2.6034993135
 20
11.2675412702
 10
-2.6070482442
 20
11.2525818374
 10
-2.6104799747
 20
11.2376346053
 10
-2.6137941135
 20
11.2227013205
 10
-2.6169902983
 20
11.2077836636
 10
-2.6200681057
 20
11.1928836053
 10
-2.6230271613
 20
11.1780030407
 10
-2.6258671814
 20
11.1631434863
 10
-2.6285878981
 20
11.148306342
 10
-2.6311889767
 20
11.1334934853
 10
-2.6336701607
 20
11.1187064364
 10
-2.6360312922
 20
11.1039460596
 10
-2.6382721149
 20
11.0892138689
 10
-2.6403923296
 20
11.0745117409
 10
-2.642391708
 20
11.0598410853
 10
-2.644270033
 20
11.0452033289
 10
-2.646027033
 20
11.0306004208
 10
-2.6476624237
 20
11.0160345469
 10
-2.6491760263
 20
11.0015072091
 10
-2.6505676397
 20
10.9870202506
 10
-2.6518370056
 20
10.9725763501
 10
-2.6529840018
 20
10.9581770627
 10
-2.6540085059
 20
10.9438241308
 10
-2.6549103381
 20
10.9295204838
 10
-2.6556894221
 20
10.9152681705
 10
-2.656345748
 20
10.9010683724
 10
-2.6568792899
 20
10.8869226955
  0
LWPOLYLINE
  5
2B9
100
AcDbEntity
  8
RACCORDO
100
AcDbPolyline
 62
253
  6
CONTINUOUS
 90
7
 70
0
 10
0.2017665133
 20
12.8428634606
 10
-0.2241707011
 20
12.6046907736
 10
-0.4308282335
 20
12.4895295453
 10
-0.6387705477
 20
12.374130626
 10
-0.8495983022
 20
12.2576708463
 10
-1.0617108386
 20
12.1409733757
 10
-1.2827982295
 20
12.0197903439
  0
LINE
  5
2BA
100
AcDbEntity
  8
RACCORDO
100
AcDbLine
 62
7
  6
CONTINUOUS
 10
3.8797973669
 20
15.628345954
 11
2.9897371842
 21
15.1316650327
  0
LINE
  5
2BB
100
AcDbEntity
  8
RACCORDO
100
AcDbLine
 62
253
  6
CONTINUOUS
 10
1.9564238026
 20
13.8262300691
 11
1.5357319807
 21
13.5913234486
  0
LWPOLYLINE
  5
2BC
100
AcDbEntity
  8
RACCORDO
100
AcDbPolyline
 62
253
  6
CONTINUOUS
 90
4
 70
0
 10
2.7148131545
 20
14.2453896135
 10
2.5326109737
 20
14.145301611
 10
2.3455505986
 20
14.0420807237
 10
1.9564238026
 20
13.8262300691
  0
LINE
  5
2BD
100
AcDbEntity
  8
RACCORDO
100
AcDbLine
 62
253
  6
CONTINUOUS
 10
3.9030607188
 20
15.616714278
 11
2.7500224347
 21
14.9871348104
  0
LINE
  5
2BE
100
AcDbEntity
  8
RACCORDO
100
AcDbLine
 62
253
  6
CONTINUOUS
 10
4.2222100001
 20
15.0685199192
 11
2.7148131545
 21
14.2453896135
  0
LWPOLYLINE
  5
2BF
100
AcDbEntity
  8
RACCORDO
100
AcDbPolyline
 62
253
  6
CONTINUOUS
 90
3
 70
0
 10
2.7500224347
 20
14.9871348104
 10
2.3914791709
 20
14.7916504744
 10
2.2085368514
 20
14.6922949316
  0
LWPOLYLINE
  5
2C0
100
AcDbEntity
  8
DRAFT
100
AcDbPolyline
 62
7
  6
CONTINUOUS
 90
37
 70
0
 10
9.205294524
 20
17.8855852797
 10
9.2122557607
 20
17.889345892
 10
9.2249543776
 20
17.8971887594
 10
9.2370687977
 20
17.9059918266
 10
9.248588821
 20
17.9157549194
 10
9.2595246474
 20
17.9264782122
 10
9.2698168375
 20
17.938104906
 10
9.2794695228
 20
17.9506523337
 10
9.2884785717
 20
17.9641031625
 10
9.29677215
 20
17.9783485947
 10
9.3043371406
 20
17.9933769606
 10
9.3111866606
 20
18.0091999299
 10
9.3172882268
 20
18.0257437151
 10
9.3226440006
 20
18.0430348457
 10
9.3272518208
 20
18.0610467921
 10
9.3310727197
 20
18.0796261776
 10
9.3340970243
 20
18.0987510789
 10
9.3363344076
 20
18.1184434193
 10
9.3377749222
 20
18.1386155918
 10
9.3384148807
 20
18.1592983507
 10
9.3382579705
 20
18.1804609416
 10
9.3373053055
 20
18.2019234953
 10
9.3355531321
 20
18.2236605571
 10
9.333005204
 20
18.2456975817
 10
9.3296738965
 20
18.2679310632
 10
9.3255503763
 20
18.2903871934
 10
9.3206434767
 20
18.3130397805
 10
9.3149920729
 20
18.3357067439
 10
9.3085961171
 20
18.35836792
 10
9.301455657
 20
18.3810434724
 10
9.2936097108
 20
18.4036118107
 10
9.2850492188
 20
18.4260862824
 10
9.2757832407
 20
18.4484535401
 10
9.2658779732
 20
18.470551951
 10
9.2553554819
 20
18.4923276376
 10
9.2441937011
 20
18.5138344775
 10
9.232392631
 20
18.5350724706
  0
LINE
  5
2C1
100
AcDbEntity
  8
RACCORDO
100
AcDbLine
 62
253
  6
CONTINUOUS
 10
2.2085368514
 20
14.6922949316
 11
1.8279418339
 21
14.4867123122
  0
LWPOLYLINE
  5
2C2
100
AcDbEntity
  8
RACCORDO
100
AcDbPolyline
 62
253
  6
CONTINUOUS
 90
5
 70
0
 10
-0.7912858833
 20
13.0869778915
 10
-1.0011881906
 20
12.973992194
 10
-1.2135472186
 20
12.8592252224
 10
-1.4267981206
 20
12.743574711
 10
-1.6409408967
 20
12.6270406598
  0
LINE
  5
2C3
100
AcDbEntity
  8
RACCORDO
100
AcDbLine
 62
253
  6
CONTINUOUS
 10
1.8279418339
 20
14.4867123122
 11
1.4190946865
 21
14.2671877171
  0
LINE
  5
2C4
100
AcDbEntity
  8
RACCORDO
100
AcDbLine
 62
253
  6
CONTINUOUS
 10
-0.3694623511
 20
13.3129918698
 11
-0.7912858833
 21
13.0869778915
  0
LINE
  5
2C5
100
AcDbEntity
  8
RACCORDO
100
AcDbLine
 62
253
  6
CONTINUOUS
 10
1.4190946865
 20
14.2671877171
 11
0.9819543121
 21
14.0335658075
  0
LINE
  5
2C6
100
AcDbEntity
  8
RACCORDO
100
AcDbLine
 62
253
  6
CONTINUOUS
 10
0.9819543121
 20
14.0335658075
 11
-0.3694623511
 21
13.3129918698
  0
LINE
  5
2C7
100
AcDbEntity
  8
DRAFT
100
AcDbLine
 62
7
  6
CONTINUOUS
 10
9.2053077532
 20
17.8855899275
 11
4.8813225393
 21
15.6636007751
  0
LINE
  5
2C8
100
AcDbEntity
  8
0
100
AcDbLine
 62
253
  6
CONTINUOUS
 10
6.0456363873
 20
15.8989395796
 11
6.6552278229
 21
16.2037352975
  0
LINE
  5
2C9
100
AcDbEntity
  8
0
100
AcDbLine
 62
253
  6
CONTINUOUS
 10
5.8119281736
 20
15.7348029999
 11
4.9404575387
 21
15.2990676824
  0
LINE
  5
2CA
100
AcDbEntity
  8
RACCORDO
100
AcDbLine
 62
253
  6
CONTINUOUS
 10
4.9404575387
 20
15.4077793339
 11
4.2222100001
 21
15.0685199192
  0
LWPOLYLINE
  5
2CB
100
AcDbEntity
  8
0
100
AcDbPolyline
 62
253
  6
CONTINUOUS
 90
8
 70
0
 10
5.4144686427
 20
13.9603901397
 10
5.3523750815
 20
13.9318578246
 10
5.2856941977
 20
13.9060428962
 10
5.2149002245
 20
13.88312895
 10
5.1404966474
 20
13.8632789495
 10
5.0630126233
 20
13.8466340676
 10
4.9829992173
 20
13.8333126823
 10
4.9404575387
 20
13.8281732738
  0
LWPOLYLINE
  5
2CC
100
AcDbEntity
  8
RACCORDO
100
AcDbPolyline
 62
253
  6
CONTINUOUS
 90
34
 70
0
 10
-1.956295816
 20
10.8659072698
 10
-1.9735901473
 20
10.8587798031
 10
-1.9916156088
 20
10.8520665166
 10
-2.0103322685
 20
10.8457822823
 10
-2.0296986632
 20
10.8399410216
 10
-2.0496718902
 20
10.8345556748
 10
-2.0702077026
 20
10.8296381722
 10
-2.0912606073
 20
10.8251994075
 10
-2.1127839653
 20
10.8212492139
 10
-2.1347300959
 20
10.8177963425
 10
-2.1570503813
 20
10.8148484423
 10
-2.1796953753
 20
10.8124120439
 10
-2.2026149122
 20
10.8104925447
 10
-2.2257582179
 20
10.809094197
 10
-2.2490740228
 20
10.8082200985
 10
-2.2725106752
 20
10.8078721857
 10
-2.2960162555
 20
10.8080512292
 10
-2.3195386916
 20
10.8087568325
 10
-2.3430258738
 20
10.8099874324
 10
-2.3664257709
 20
10.8117403028
 10
-2.3896865446
 20
10.8140115604
 10
-2.4127566652
 20
10.8167961738
 10
-2.435585025
 20
10.8200879742
 10
-2.4581210522
 20
10.8238796692
 10
-2.4803148224
 20
10.828162859
 10
-2.5021171695
 20
10.8329280549
 10
-2.5234797945
 20
10.8381647007
 10
-2.5443553725
 20
10.8438611955
 10
-2.5646976576
 20
10.8500049198
 10
-2.5844615852
 20
10.8565822634
 10
-2.6036033721
 20
10.8635786552
 10
-2.6220806133
 20
10.8709785963
 10
-2.6398523759
 20
10.8787656933
 10
-2.6568792899
 20
10.8869226955
  0
LINE
  5
2CD
100
AcDbEntity
  8
RACCORDO
100
AcDbLine
 62
7
  6
CONTINUOUS
 10
9.490053788
 20
-16.9806422286
 11
9.232392631
 21
-16.8518116501
  0
LWPOLYLINE
  5
2CE
100
AcDbEntity
  8
0
100
AcDbPolyline
 62
253
  6
CONTINUOUS
 90
52
 70
0
 10
-10.6372555685
 20
-7.1529140777
 10
-10.4405619192
 20
-7.2612942082
 10
-10.2450971033
 20
-7.3543994324
 10
-10.0508611208
 20
-7.4322297501
 10
-9.8570742381
 20
-7.4949844764
 10
-9.6645161888
 20
-7.5424642964
 10
-9.4755261734
 20
-7.5740712647
 10
-9.2901292892
 20
-7.5895583867
 10
-9.108300439
 20
-7.589172657
 10
-8.9323035318
 20
-7.5730571144
 10
-8.7625113614
 20
-7.541179782
 10
-8.598551134
 20
-7.4935726368
 10
-8.441568377
 20
-7.4304746485
 10
-8.2912402232
 20
-7.3515940759
 10
-8.1478895399
 20
-7.2572226603
 10
-8.0136304558
 20
-7.1484745955
 10
-7.8887068714
 20
-7.0251620755
 10
-7.7728748863
 20
-6.8874729064
 10
-7.6675169275
 20
-6.7370846999
 10
-7.5727882363
 20
-6.5738562381
 10
-7.4885335715
 20
-6.3979287391
 10
-7.4156696362
 20
-6.2114034688
 10
-7.3543384001
 20
-6.0141893063
 10
-7.3043978934
 20
-5.8063773725
 10
-7.2663389102
 20
-5.5903422962
 10
-7.2402883432
 20
-5.3660121648
 10
-7.2261192996
 20
-5.133458891
 10
-7.2239418946
 20
-4.8952728417
 10
-7.2338787487
 20
-4.6514017104
 10
-7.2558072413
 20
-4.4018978037
 10
-7.2894696255
 20
-4.1495084087
 10
-7.3349834402
 20
-3.8942091745
 10
-7.3922311464
 20
-3.636024452
 10
-7.4606023802
 20
-3.3777745811
 10
-7.5402241272
 20
-3.1194279215
 10
-7.6309694016
 20
-2.8610161135
 10
-7.7318468824
 20
-2.6054544174
 10
-7.8430944714
 20
-2.3526011046
 10
-7.9644742668
 20
-2.1025979037
 10
-8.0942812417
 20
-1.8587852621
 10
-8.2322728589
 20
-1.6217455856
 10
-8.3786916556
 20
-1.3908964684
 10
-8.5325602171
 20
-1.1678311399
 10
-8.6942421201
 20
-0.9521425045
 10
-8.8633737878
 20
-0.7442376578
 10
-9.0378870749
 20
-0.5469311167
 10
-9.2178527882
 20
-0.3604163517
 10
-9.403200121
 20
-0.1844998922
 10
-9.5916485078
 20
-0.0214158437
 10
-9.7824377602
 20
0.1280910918
 10
-9.9763280667
 20
0.2647656163
 10
-10.1733194272
 20
0.3886077297
  0
LWPOLYLINE
  5
2CF
100
AcDbEntity
  8
0
100
AcDbPolyline
 62
253
  6
CONTINUOUS
 90
19
 70
0
 10
5.7995874587
 20
-15.1607142934
 10
5.8612162059
 20
-15.1948241905
 10
5.922376072
 20
-15.2352656467
 10
5.9826015808
 20
-15.2817309205
 10
6.0414344104
 20
-15.3338664675
 10
6.098426731
 20
-15.3912754986
 10
6.1531446302
 20
-15.4535209564
 10
6.2051716608
 20
-15.520129104
 10
6.2541118491
 20
-15.5905929931
 10
6.299592599
 20
-15.6643761274
 10
6.3412677969
 20
-15.740916937
 10
6.3788202916
 20
-15.8196328627
 10
6.411964226
 20
-15.8999245679
 10
6.4404474371
 20
-15.9811809814
 10
6.4640532221
 20
-16.0627836632
 10
6.4826019542
 20
-16.1441112753
 10
6.4959526015
 20
-16.2245448043
 10
6.5040037367
 20
-16.3034722718
 10
6.5066942398
 20
-16.3802930877
  0
LWPOLYLINE
  5
2D0
100
AcDbEntity
  8
0
100
AcDbPolyline
 62
253
  6
CONTINUOUS
 90
40
 70
0
 10
-10.4370031817
 20
-6.7315248145
 10
-10.6147933155
 20
-6.6199536876
 10
-10.7911064444
 20
-6.4957593355
 10
-10.9652737521
 20
-6.3594128699
 10
-11.1366345624
 20
-6.2114314997
 10
-11.3045388451
 20
-6.0523765688
 10
-11.4683496817
 20
-5.8828514271
 10
-11.6274456817
 20
-5.7034991415
 10
-11.7812233393
 20
-5.5150000567
 10
-11.9290993234
 20
-5.3180692143
 10
-12.0705126895
 20
-5.1134536403
 10
-12.2049270084
 20
-4.9019295119
 10
-12.3318324005
 20
-4.6842992124
 10
-12.4507474702
 20
-4.4613882881
 10
-12.5612211319
 20
-4.2340423165
 10
-12.6628343212
 20
-4.0031236987
 10
-12.7552015844
 20
-3.7695083882
 10
-12.8379725408
 20
-3.5340825678
 10
-12.910833212
 20
-3.2977392884
 10
-12.9735072124
 20
-3.0613750809
 10
-13.025756798
 20
-2.8258865557
 10
-13.0673837682
 20
-2.5921670015
 10
-13.0982302178
 20
-2.3611029966
 10
-13.1181791356
 20
-2.1335710459
 10
-13.1271548484
 20
-1.910434256
 10
-13.1251233084
 20
-1.6925390613
 10
-13.1120922218
 20
-1.4807120127
 10
-13.0881110201
 20
-1.275756643
 10
-13.0532706721
 20
-1.0784504179
 10
-13.0077033392
 20
-0.8895417876
 10
-12.951581874
 20
-0.7097473472
 10
-12.8851191643
 20
-0.5397491187
 10
-12.808567326
 20
-0.3801919635
 10
-12.7222167465
 20
-0.2316811365
 10
-12.626394983
 20
-0.0947799903
 10
-12.5214655203
 20
0.0299921623
 10
-12.4078263918
 20
0.1421620177
 10
-12.2859086697
 20
0.2413040773
 10
-12.1561748297
 20
0.3270422612
 10
-12.0912148383
 20
0.3633670338
  0
LWPOLYLINE
  5
2D1
100
AcDbEntity
  8
0
100
AcDbPolyline
 62
7
  6
CONTINUOUS
 90
3
 70
0
 10
-10.5874398393
 20
-7.2798880134
 10
-10.7949066021
 20
-7.1496630551
 10
-11.0172231415
 20
-6.9922051599
  0
LWPOLYLINE
  5
2D2
100
AcDbEntity
  8
0
100
AcDbPolyline
 62
253
  6
CONTINUOUS
 90
52
 70
0
 10
-10.629750208
 20
-7.0309105625
 10
-10.8192129916
 20
-6.9118849456
 10
-11.0058089075
 20
-6.7804731699
 10
-11.1895379559
 20
-6.6366752353
 10
-11.3711196335
 20
-6.4798171929
 10
-11.5498344436
 20
-6.3105729916
 10
-11.7235238951
 20
-6.1309644783
 10
-11.8921477903
 20
-5.9407847319
 10
-12.0557463269
 20
-5.7402406735
 10
-12.2122816068
 20
-5.5319749129
 10
-12.3614087378
 20
-5.3163718286
 10
-12.5034726119
 20
-5.0930470422
 10
-12.6374700079
 20
-4.8634900288
 10
-12.7636484895
 20
-4.6271087538
 10
-12.8817604928
 20
-4.3844952518
 10
-12.9900601047
 20
-4.1389151011
 10
-13.0883223407
 20
-3.8904362531
 10
-13.1767721853
 20
-3.6389907564
 10
-13.2543386779
 20
-3.3876403358
 10
-13.3208603839
 20
-3.13643621
 10
-13.3764987381
 20
-2.8853271602
 10
-13.4206670837
 20
-2.6372212545
 10
-13.4532261519
 20
-2.3921951931
 10
-13.4743152116
 20
-2.1501722759
 10
-13.4837654128
 20
-1.9138304701
 10
-13.4814545195
 20
-1.6832455649
 10
-13.4675047677
 20
-1.4583417711
 10
-13.442114016
 20
-1.2415696892
 10
-13.4051661821
 20
-1.0330164411
 10
-13.3567773482
 20
-0.8325949048
 10
-13.2974936198
 20
-0.6424943146
 10
-13.2272055717
 20
-0.4628209137
 10
-13.146022629
 20
-0.2934684588
 10
-13.0548191723
 20
-0.1363074546
 10
-12.9534714682
 20
0.0085521835
 10
-12.84210325
 20
0.141220371
 10
-12.7219600981
 20
0.2601563505
 10
-12.592828657
 20
0.3652155387
 10
-12.4549222821
 20
0.4565425188
 10
-12.3101266207
 20
0.5330302826
 10
-12.1587136984
 20
0.5944338292
 10
-12.0004114894
 20
0.6409981595
 10
-11.8362895642
 20
0.6723512687
 10
-11.6659683603
 20
0.6884536471
 10
-11.48982744
 20
0.6893448044
 10
-11.310075061
 20
0.6747712648
 10
-11.1266810823
 20
0.6444803966
 10
-10.9396756449
 20
0.5987248315
 10
-10.7513574287
 20
0.5380089889
 10
-10.5624926605
 20
0.4625010084
 10
-10.3723151135
 20
0.3720327503
 10
-10.1808247877
 20
0.2666042146
  0
LWPOLYLINE
  5
2D3
100
AcDbEntity
  8
0
100
AcDbPolyline
 62
253
  6
CONTINUOUS
 90
3
 70
0
 10
-11.0281372355
 20
-6.8923974398
 10
-10.834246929
 20
-7.0290719643
 10
-10.6372555685
 20
-7.1529140777
  0
LWPOLYLINE
  5
2D4
100
AcDbEntity
  8
0
100
AcDbPolyline
 62
7
  6
CONTINUOUS
 90
25
 70
0
 10
-11.0149069056
 20
-6.9939433932
 10
-11.200783666
 20
-6.8477264482
 10
-11.3833593535
 20
-6.6904368199
 10
-11.5621097926
 20
-6.522597876
 10
-11.7365415836
 20
-6.3447364964
 10
-11.9061376543
 20
-6.157436838
 10
-12.0703542014
 20
-5.9613594187
 10
-12.2286885026
 20
-5.757170716
 10
-12.3807154951
 20
-5.5454801338
 10
-12.526022392
 20
-5.326909373
 10
-12.6641824807
 20
-5.1021370026
 10
-12.7947875181
 20
-4.8718583582
 10
-12.9174693505
 20
-4.6367432317
 10
-13.0318573874
 20
-4.3975108708
 10
-13.1376032966
 20
-4.1548908899
 10
-13.2343971657
 20
-3.9095804193
 10
-13.3219339867
 20
-3.6623201408
 10
-13.399930987
 20
-3.4138613714
 10
-13.4681415732
 20
-3.1649160129
 10
-13.5263336521
 20
-2.9162185155
 10
-13.5742920582
 20
-2.6685365294
 10
-13.6118327415
 20
-2.4226156557
 10
-13.6387977207
 20
-2.179191127
 10
-13.6550532234
 20
-1.9389998751
 10
-13.6604913179
 20
-1.7027745687
  0
LWPOLYLINE
  5
2D5
100
AcDbEntity
  8
RACCORDO
100
AcDbPolyline
 62
253
  6
CONTINUOUS
 90
31
 70
0
 10
2.2785165761
 20
-25.211803462
 10
2.2736325589
 20
-25.2041823649
 10
2.2682819555
 20
-25.1963393092
 10
2.2624793772
 20
-25.1882957126
 10
2.2562406695
 20
-25.1800735406
 10
2.2495828692
 20
-25.1716952461
 10
2.2425241572
 20
-25.1631837085
 10
2.2350838095
 20
-25.1545621711
 10
2.227282144
 20
-25.1458541775
 10
2.2191404655
 20
-25.1370835073
 10
2.2106810073
 20
-25.1282741115
 10
2.2019268702
 20
-25.1194500466
 10
2.1929019601
 20
-25.1106354093
 10
2.183630922
 20
-25.1018542707
 10
2.1741390733
 20
-25.09313061
 10
2.1644523342
 20
-25.0844882498
 10
2.1545971571
 20
-25.0759507906
 10
2.1446004544
 20
-25.0675415464
 10
2.1344895251
 20
-25.059283481
 10
2.1242919801
 20
-25.0511991456
 10
2.1140356666
 20
-25.0433106168
 10
2.1037485925
 20
-25.0356394364
 10
2.0934588496
 20
-25.0282065528
 10
2.0831945371
 20
-25.0210322638
 10
2.0729836847
 20
-25.0141361608
 10
2.0628541761
 20
-25.0075370755
 10
2.0528336728
 20
-25.0012530288
 10
2.0429495388
 20
-24.9953011811
 10
2.0332287655
 20
-24.9896977855
 10
2.0236978983
 20
-24.9844581438
 10
2.0143829641
 20
-24.9795965644
  0
LWPOLYLINE
  5
2D6
100
AcDbEntity
  8
0
100
AcDbPolyline
 62
253
  6
CONTINUOUS
 90
19
 70
0
 10
-9.4372469513
 20
-3.3672787982
 10
-9.4390321931
 20
-3.3163078806
 10
-9.4443743315
 20
-3.2639396408
 10
-9.4532327097
 20
-3.2105726327
 10
-9.4655399101
 20
-3.1566130114
 10
-9.4812022674
 20
-3.1024714422
 10
-9.5001005818
 20
-3.0485599751
 10
-9.5220910254
 20
-2.995288909
 10
-9.547006238
 20
-2.9430636688
 10
-9.5746565995
 20
-2.8922817202
 10
-9.6048316741
 20
-2.8433295444
 10
-9.6373018112
 20
-2.7965796971
 10
-9.6718198935
 20
-2.7523879728
 10
-9.7081232175
 20
-2.7110906973
 10
-9.7459354931
 20
-2.6730021677
 10
-9.7849689459
 20
-2.6384122607
 10
-9.8249265078
 20
-2.6075842265
 10
-9.8655040776
 20
-2.5807526849
 10
-9.9063928357
 20
-2.5581218403
  0
LWPOLYLINE
  5
2D7
100
AcDbEntity
  8
0
100
AcDbPolyline
 62
253
  6
CONTINUOUS
 90
19
 70
0
 10
-8.1079349547
 20
-3.0678630216
 10
-8.1111100457
 20
-2.977210142
 10
-8.1206111545
 20
-2.8840720944
 10
-8.1363659718
 20
-2.7891577157
 10
-8.158254594
 20
-2.6931893617
 10
-8.1861104354
 20
-2.5968974094
 10
-8.2197214964
 20
-2.5010146987
 10
-8.2588319763
 20
-2.406270955
 10
-8.3031442208
 20
-2.3133872354
 10
-8.352320987
 20
-2.223070441
 10
-8.4059880101
 20
-2.1360079372
 10
-8.4637368515
 20
-2.0528623223
 10
-8.5251280078
 20
-1.9742663845
 10
-8.589694255
 20
-1.9008182864
 10
-8.6569442052
 20
-1.8330770124
 10
-8.7263660456
 20
-1.7715581144
 10
-8.797431434
 20
-1.7167297885
 10
-8.86959952
 20
-1.6690093113
 10
-8.9423210608
 20
-1.6287598644
  0
LWPOLYLINE
  5
2D8
100
AcDbEntity
  8
RACCORDO
100
AcDbPolyline
 62
7
  6
CONTINUOUS
 90
34
 70
0
 10
-9.4845207975
 20
23.9126556972
 10
-9.4847208536
 20
23.9230575058
 10
-9.485321091
 20
23.9336358739
 10
-9.486320049
 20
23.944366892
 10
-9.4877152845
 20
23.9552263451
 10
-9.4895036328
 20
23.9661896376
 10
-9.4916812141
 20
23.9772318485
 10
-9.4942430386
 20
23.9883279954
 10
-9.4971832129
 20
23.9994529888
 10
-9.5004952079
 20
24.0105815593
 10
-9.504171485
 20
24.0216885171
 10
-9.5082036452
 20
24.0327487383
 10
-9.5125826426
 20
24.0437371195
 10
-9.5172985431
 20
24.0546287771
 10
-9.5223406131
 20
24.0653990642
 10
-9.5276974738
 20
24.0760235555
 10
-9.533356998
 20
24.08647818
 10
-9.539306336
 20
24.0967392701
 10
-9.5455320077
 20
24.1067835765
 10
-9.5520199402
 20
24.1165883314
 10
-9.5587554291
 20
24.1261313285
 10
-9.5657231683
 20
24.1353909688
 10
-9.5729074254
 20
24.1443462512
 10
-9.580291941
 20
24.1529768831
 10
-9.5878598954
 20
24.1612633559
 10
-9.5955942169
 20
24.1691868632
 10
-9.6034774228
 20
24.1767294393
 10
-9.6114915223
 20
24.183874063
 10
-9.6196184526
 20
24.1906045058
 10
-9.6278398637
 20
24.1969054943
 10
-9.6361369604
 20
24.2027628416
 10
-9.6444909538
 20
24.2081632784
 10
-9.6528831029
 20
24.213094483
 10
-9.6612945012
 20
24.217545236
  0
LWPOLYLINE
  5
2D9
100
AcDbEntity
  8
RACCORDO
100
AcDbPolyline
 62
253
  6
CONTINUOUS
 90
31
 70
0
 10
-8.9562536258
 20
24.1760945172
 10
-8.9564438739
 20
24.1875751796
 10
-8.9571211384
 20
24.1992653344
 10
-8.9582835652
 20
24.2111329284
 10
-8.9599279719
 20
24.2231454325
 10
-8.9620498514
 20
24.2352698974
 10
-8.9646433803
 20
24.2474730426
 10
-8.9677014438
 20
24.2597213983
 10
-8.971215657
 20
24.2719813865
 10
-8.9751763787
 20
24.2842193784
 10
-8.9795727453
 20
24.2964018149
 10
-8.9843927005
 20
24.3084952939
 10
-8.9896230236
 20
24.3204666512
 10
-8.9952493774
 20
24.3322830757
 10
-9.001256326
 20
24.3439121536
 10
-9.0076273708
 20
24.3553219558
 10
-9.0143450076
 20
24.3664811552
 10
-9.021390837
 20
24.3773592071
 10
-9.0287455996
 20
24.3879263805
 10
-9.036389232
 20
24.3981538284
 10
-9.0443006851
 20
24.4080133662
 10
-9.0524580193
 20
24.417477678
 10
-9.0608386855
 20
24.4265206773
 10
-9.0694198452
 20
24.4351177942
 10
-9.0781782048
 20
24.4432457176
 10
-9.0870917149
 20
24.4508837768
 10
-9.0961340354
 20
24.4580091957
 10
-9.1052746041
 20
24.4645984675
 10
-9.114486277
 20
24.4706333543
 10
-9.1237456408
 20
24.476099835
 10
-9.1330273294
 20
24.480984056
  0
LINE
  5
2DA
100
AcDbEntity
  8
RACCORDO
100
AcDbLine
 62
7
  6
CONTINUOUS
 10
-9.4845207975
 20
22.3105050362
 11
-9.4845207975
 21
23.9126556972
  0
LINE
  5
2DB
100
AcDbEntity
  8
SMUSSO
100
AcDbLine
 62
7
  6
CONTINUOUS
 10
-9.3145320123
 20
18.4271460409
 11
-9.3145320123
 21
18.4630443966
  0
LINE
  5
2DC
100
AcDbEntity
  8
RACCORDO
100
AcDbLine
 62
253
  6
CONTINUOUS
 10
-8.9562536258
 20
24.1760945172
 11
-8.9562536258
 21
23.8285630005
  0
LINE
  5
2DD
100
AcDbEntity
  8
RACCORDO
100
AcDbLine
 62
7
  6
CONTINUOUS
 10
-8.8840557688
 20
24.2639671494
 11
-8.8840557688
 21
23.9164356327
  0
LINE
  5
2DE
100
AcDbEntity
  8
DRAFT
100
AcDbLine
 62
7
  6
CONTINUOUS
 10
-8.5299266429
 20
18.1228635681
 11
-8.5299266429
 21
18.8984842862
  0
LWPOLYLINE
  5
2DF
100
AcDbEntity
  8
0
100
AcDbPolyline
 62
253
  6
CONTINUOUS
 90
8
 70
0
 10
-8.2669242562
 20
-3.1212826332
 10
-8.2700001239
 20
-3.2060266913
 10
-8.2792043176
 20
-3.2870499283
 10
-8.2944667879
 20
-3.3637357085
 10
-8.3156713783
 20
-3.4355004067
 10
-8.3426567089
 20
-3.5017978503
 10
-8.375217405
 20
-3.5621234756
 10
-8.4131056603
 20
-3.6160181684
  0
LWPOLYLINE
  5
2E0
100
AcDbEntity
  8
RACCORDO
100
AcDbPolyline
 62
253
  6
CONTINUOUS
 90
16
 70
0
 10
-8.8840557688
 20
24.2639671527
 10
-8.8843570393
 20
24.2578323205
 10
-8.8853367579
 20
24.2513293724
 10
-8.8869934469
 20
24.2448608081
 10
-8.8893225984
 20
24.2384442414
 10
-8.8923178786
 20
24.2320971303
 10
-8.8959711375
 20
24.2258367535
 10
-8.9002724356
 20
24.2196801503
 10
-8.9052100682
 20
24.2136440799
 10
-8.9107705935
 20
24.2077449774
 10
-8.9169388826
 20
24.201998896
 10
-8.9236981439
 20
24.1964214803
 10
-8.9310299577
 20
24.191027928
 10
-8.9389143559
 20
24.1858329236
 10
-8.9473298816
 20
24.1808506001
 10
-8.9562536258
 20
24.1760945172
  0
LINE
  5
2E1
100
AcDbEntity
  8
RACCORDO
100
AcDbLine
 62
253
  6
CONTINUOUS
 10
-8.8840557688
 20
23.9164356314
 11
-8.8841022554
 21
23.9116147268
  0
LWPOLYLINE
  5
2E2
100
AcDbEntity
  8
RACCORDO
100
AcDbPolyline
 62
7
  6
CONTINUOUS
 90
31
 70
0
 10
2.9897371842
 20
15.9392971545
 10
2.9818437218
 20
15.9301114911
 10
2.9735963415
 20
15.9210936994
 10
2.9650066745
 20
15.9122529547
 10
2.9560883713
 20
15.9035879902
 10
2.9468540709
 20
15.8951178488
 10
2.937315091
 20
15.8868820879
 10
2.9274870099
 20
15.8788888652
 10
2.9173859047
 20
15.8711468777
 10
2.9070247988
 20
15.863696584
 10
2.89642205
 20
15.8565456147
 10
2.8855964581
 20
15.8497019512
 10
2.8745627206
 20
15.8432067096
 10
2.8633419724
 20
15.8370668102
 10
2.8519558421
 20
15.8312893898
 10
2.8404208963
 20
15.82591605
 10
2.8287610657
 20
15.8209528281
 10
2.8170009238
 20
15.8164058089
 10
2.8051593126
 20
15.8123168106
 10
2.7932629783
 20
15.8086908129
 10
2.7813395375
 20
15.8055325307
 10
2.7694106607
 20
15.8028834411
 10
2.7575058995
 20
15.8007472761
 10
2.7456559216
 20
15.7991269267
 10
2.7338857734
 20
15.7980624758
 10
2.7222277745
 20
15.7975561748
 10
2.7107154007
 20
15.7976085092
 10
2.6993772015
 20
15.798256501
 10
2.688236409
 20
15.7995039833
 10
2.6773411747
 20
15.8013456304
 10
2.67592261
 20
15.80163468
  0
LWPOLYLINE
  5
2E3
100
AcDbEntity
  8
RACCORDO
100
AcDbPolyline
 62
7
  6
CONTINUOUS
 90
5
 70
0
 10
4.4792073216
 20
17.1434652466
 10
4.478861489
 20
17.1430794329
 10
4.4773630646
 20
17.1419360876
 10
4.4753431422
 20
17.1410104816
 10
4.4728137883
 20
17.14027533
  0
LWPOLYLINE
  5
2E4
100
AcDbEntity
  8
0
100
AcDbPolyline
 62
7
  6
CONTINUOUS
 90
5
 70
0
 10
14.8982323506
 20
18.1231148815
 10
14.9410280293
 20
18.1472538237
 10
14.9797470982
 20
18.1731148448
 10
15.0141143029
 20
18.2005107972
 10
15.0438853829
 20
18.2292407417
  0
LWPOLYLINE
  5
2E5
100
AcDbEntity
  8
0
100
AcDbPolyline
 62
253
  6
CONTINUOUS
 90
8
 70
0
 10
6.5066942398
 20
14.5215264628
 10
6.562506589
 20
14.5518328888
 10
6.6131395289
 20
14.5843338178
 10
6.6582493158
 20
14.618808603
 10
6.6975297021
 20
14.6550231974
 10
6.7307140159
 20
14.6927317424
 10
6.757576971
 20
14.7316782371
 10
6.7779361964
 20
14.7715982762
  0
LWPOLYLINE
  5
2E6
100
AcDbEntity
  8
0
100
AcDbPolyline
 62
253
  6
CONTINUOUS
 90
12
 70
0
 10
5.1549026316
 20
13.4196801261
 10
5.1618831138
 20
13.4232707797
 10
5.2073637159
 20
13.4515724385
 10
5.2490389262
 20
13.4864372905
 10
5.2865915793
 20
13.5275999717
 10
5.3197358555
 20
13.5747471371
 10
5.3482195366
 20
13.627519938
 10
5.3718258701
 20
13.685516705
 10
5.3903752076
 20
13.7482959336
 10
5.4037264259
 20
13.8153797656
 10
5.4117779783
 20
13.8862576491
 10
5.4144686427
 20
13.9603901397
  0
LINE
  5
2E7
100
AcDbEntity
  8
0
100
AcDbLine
 62
253
  6
CONTINUOUS
 10
5.4144686427
 20
13.9754136643
 11
6.5066942398
 21
14.5215264628
  0
LINE
  5
2E8
100
AcDbEntity
  8
0
100
AcDbLine
 62
253
  6
CONTINUOUS
 10
6.5066942398
 20
14.5065029382
 11
5.4144686427
 21
13.9603901397
  0
LINE
  5
2E9
100
AcDbEntity
  8
0
100
AcDbLine
 62
7
  6
CONTINUOUS
 10
6.2468010542
 20
13.9656291378
 11
5.154575457
 21
13.4195163393
  0
LINE
  5
2EA
100
AcDbEntity
  8
RACCORDO
100
AcDbLine
 62
7
  6
CONTINUOUS
 10
-12.9327578151
 20
3.3544557138
 11
-12.932361296
 21
3.3546431873
  0
LINE
  5
2EB
100
AcDbEntity
  8
DRAFT
100
AcDbLine
 62
7
  6
CONTINUOUS
 10
5.5160170395
 20
12.7055292491
 11
4.9404575387
 21
12.4336697259
  0
LWPOLYLINE
  5
2EC
100
AcDbEntity
  8
RACCORDO
100
AcDbPolyline
 62
7
  6
CONTINUOUS
 90
28
 70
0
 10
-12.9327543418
 20
3.3544568319
 10
-12.8858913125
 20
3.3759656567
 10
-12.7908627619
 20
3.4156910292
 10
-12.6945218977
 20
3.4509218873
 10
-12.5969792584
 20
3.4817286064
 10
-12.4982647191
 20
3.5082046822
 10
-12.3983270385
 20
3.5304539598
 10
-12.2972196424
 20
3.5485404987
 10
-12.1950396246
 20
3.562519642
 10
-12.0918057858
 20
3.5724594221
 10
-11.9876031233
 20
3.57841453
 10
-11.8825231127
 20
3.5804428396
 10
-11.7765988239
 20
3.5786038452
 10
-11.6699783997
 20
3.5729573182
 10
-11.5627090664
 20
3.5635649959
 10
-11.4546654115
 20
3.5504610598
 10
-11.3459512636
 20
3.5336914382
 10
-11.2366525381
 20
3.5133056228
 10
-11.1266003184
 20
3.4892954743
 10
-11.0158853454
 20
3.4616916088
 10
-10.9045974456
 20
3.4305306375
 10
-10.7925496186
 20
3.395762076
 10
-10.679829376
 20
3.3574025043
 10
-10.5665186519
 20
3.3154720938
 10
-10.4524083762
 20
3.2698730397
 10
-10.3374815101
 20
3.2205611285
 10
-10.2219267173
 20
3.1675835937
 10
-10.1156564303
 20
3.1158757697
  0
LINE
  5
2ED
100
AcDbEntity
  8
0
100
AcDbLine
 62
253
  6
CONTINUOUS
 10
15.046298028
 20
16.5320987625
 11
15.038985331
 21
16.5287640184
  0
LWPOLYLINE
  5
2EE
100
AcDbEntity
  8
RACCORDO
100
AcDbPolyline
 62
7
  6
CONTINUOUS
 90
15
 70
0
 10
7.0761925865
 20
-14.3444992445
 10
7.0584831043
 20
-14.3360296005
 10
7.0372317629
 20
-14.3268676995
 10
7.0145400404
 20
-14.3181640101
 10
6.9904432185
 20
-14.3100001498
 10
6.9650016655
 20
-14.3024566901
 10
6.9381372595
 20
-14.2956150925
 10
6.909965777
 20
-14.2895777644
 10
6.8808605898
 20
-14.2844407651
 10
6.8508793103
 20
-14.2802934347
 10
6.8200593698
 20
-14.2771936468
 10
6.7887660197
 20
-14.275152714
 10
6.7571630023
 20
-14.2742011756
 10
6.7252071027
 20
-14.274406069
 10
6.692960081
 20
-14.2758116447
  0
LINE
  5
2EF
100
AcDbEntity
  8
RACCORDO
100
AcDbLine
 62
253
  6
CONTINUOUS
 10
6.1543445047
 20
-14.0065038565
 11
6.692960081
 21
-14.2758116447
  0
LINE
  5
2F0
100
AcDbEntity
  8
RACCORDO
100
AcDbLine
 62
7
  6
CONTINUOUS
 10
6.1543445047
 20
-13.8835683725
 11
7.0751777462
 21
-14.3439849932
  0
LWPOLYLINE
  5
2F1
100
AcDbEntity
  8
0
100
AcDbPolyline
 62
253
  6
CONTINUOUS
 90
3
 70
0
 10
6.3114763962
 20
-15.1676880598
 10
6.2919913352
 20
-15.1567377934
 10
6.2389725004
 20
-15.132989304
  0
LINE
  5
2F2
100
AcDbEntity
  8
0
100
AcDbLine
 62
7
  6
CONTINUOUS
 10
6.3114763962
 20
-15.1676880598
 11
6.1443524417
 21
-15.0681027732
  0
LWPOLYLINE
  5
2F3
100
AcDbEntity
  8
0
100
AcDbPolyline
 62
7
  6
CONTINUOUS
 90
16
 70
0
 10
6.3114763962
 20
-15.1676880598
 10
6.3810254251
 20
-15.2131489579
 10
6.4437006406
 20
-15.2618094991
 10
6.4998814612
 20
-15.3128851531
 10
6.5503798714
 20
-15.3662014833
 10
6.5954151874
 20
-15.4212166428
 10
6.6348174846
 20
-15.4768389754
 10
6.6694720768
 20
-15.5334844379
 10
6.6999293275
 20
-15.5915563983
 10
6.7258737181
 20
-15.6499190958
 10
6.7478091485
 20
-15.7091304611
 10
6.7661105021
 20
-15.7701598852
 10
6.7804647649
 20
-15.8321125917
 10
6.7908651661
 20
-15.8949501028
 10
6.7973382652
 20
-15.959707465
 10
6.7995874587
 20
-16.0267396971
  0
LINE
  5
2F4
100
AcDbEntity
  8
0
100
AcDbLine
 62
7
  6
CONTINUOUS
 10
-10.0526461362
 20
-3.6338636261
 11
-10.0997781933
 21
-3.5950617639
  0
LWPOLYLINE
  5
2F5
100
AcDbEntity
  8
0
100
AcDbPolyline
 62
7
  6
CONTINUOUS
 90
19
 70
0
 10
-10.0997781933
 20
-3.5950617639
 10
-10.1445970142
 20
-3.5516833715
 10
-10.1867254179
 20
-3.5041716587
 10
-10.22539021
 20
-3.4535969982
 10
-10.2603090139
 20
-3.4006751405
 10
-10.2915886187
 20
-3.3455188999
 10
-10.3190886729
 20
-3.2885066298
 10
-10.3426939018
 20
-3.2298946211
 10
-10.3621872383
 20
-3.1701137101
 10
-10.3773155098
 20
-3.1097831237
 10
-10.3879665969
 20
-3.0489349371
 10
-10.3938765791
 20
-2.9881494816
 10
-10.3948490158
 20
-2.928746251
 10
-10.3908687048
 20
-2.8708695428
 10
-10.381892618
 20
-2.8148692739
 10
-10.3682317481
 20
-2.7622121821
 10
-10.3503302803
 20
-2.7134614903
 10
-10.3284014998
 20
-2.6683831133
 10
-10.3027593409
 20
-2.6271349305
  0
LWPOLYLINE
  5
2F6
100
AcDbEntity
  8
RACCORDO
100
AcDbPolyline
 62
7
  6
CONTINUOUS
 90
27
 70
0
 10
-7.2601143867
 20
21.7966862185
 10
-7.2598383898
 20
21.7859223354
 10
-7.2590472057
 20
21.7740624854
 10
-7.2577354353
 20
21.7618496688
 10
-7.2558826775
 20
21.7493438637
 10
-7.2535598478
 20
21.736566916
 10
-7.2507653115
 20
21.7235619597
 10
-7.2474876135
 20
21.7103749811
 10
-7.2437798637
 20
21.6970174685
 10
-7.2396418486
 20
21.6835219049
 10
-7.2350676448
 20
21.669924454
 10
-7.2300981526
 20
21.6562332661
 10
-7.2247336847
 20
21.642474095
 10
-7.21897164
 20
21.6286760907
 10
-7.2128450859
 20
21.6148473106
 10
-7.2063545408
 20
21.6010089906
 10
-7.1994994951
 20
21.5871854566
 10
-7.1923084835
 20
21.5733864965
 10
-7.1847821853
 20
21.5596302103
 10
-7.1769215459
 20
21.545937583
 10
-7.1687531064
 20
21.5323212183
 10
-7.1602775782
 20
21.5187965608
 10
-7.151497307
 20
21.5053825814
 10
-7.1424396221
 20
21.4920964304
 10
-7.1331147804
 20
21.4789541884
 10
-7.1235171831
 20
21.4659705383
 10
-7.1136501837
 20
21.4531597907
  0
LINE
  5
2F7
100
AcDbEntity
  8
RACCORDO
100
AcDbLine
 62
7
  6
CONTINUOUS
 10
-7.2600967932
 20
21.7962296217
 11
-7.2600967932
 21
20.5560405891
  0
LINE
  5
2F8
100
AcDbEntity
  8
RACCORDO
100
AcDbLine
 62
253
  6
CONTINUOUS
 10
-7.1136501837
 20
21.4531597907
 11
-7.1136501837
 21
20.3725764799
  0
LWPOLYLINE
  5
2F9
100
AcDbEntity
  8
0
100
AcDbPolyline
 62
7
  6
CONTINUOUS
 90
15
 70
0
 10
-7.4001154317
 20
-4.9072318256
 10
-7.4082206046
 20
-5.104727183
 10
-7.4271186485
 20
-5.3088006167
 10
-7.4564164601
 20
-5.5047747112
 10
-7.4959283467
 20
-5.6920743522
 10
-7.5456042172
 20
-5.8706028876
 10
-7.6052374246
 20
-6.0395303803
 10
-7.6745699657
 20
-6.1980987073
 10
-7.7535994085
 20
-6.346130416
 10
-7.8420713505
 20
-6.482863981
 10
-7.9396780784
 20
-6.6075923351
 10
-8.0464918061
 20
-6.7200868041
 10
-8.1624307397
 20
-6.8198089484
 10
-8.2871484328
 20
-6.9060280165
 10
-8.4204277359
 20
-6.978207171
  0
LINE
  5
2FA
100
AcDbEntity
  8
0
100
AcDbLine
 62
7
  6
CONTINUOUS
 10
-10.3027593409
 20
-2.6271349305
 11
-9.7581517537
 21
-1.8460578059
  0
LWPOLYLINE
  5
2FB
100
AcDbEntity
  8
0
100
AcDbPolyline
 62
253
  6
CONTINUOUS
 90
3
 70
0
 10
-9.7581517537
 20
-1.8460578059
 10
-9.737364986
 20
-1.8182360312
 10
-9.6944375242
 20
-1.7711824422
  0
LINE
  5
2FC
100
AcDbEntity
  8
RACCORDO
100
AcDbLine
 62
253
  6
CONTINUOUS
 10
3.8797973669
 20
16.5034517625
 11
4.4080645387
 21
17.1464039183
  0
LINE
  5
2FD
100
AcDbEntity
  8
RACCORDO
100
AcDbLine
 62
7
  6
CONTINUOUS
 10
3.8797973669
 20
16.4139212962
 11
4.4791575687
 21
17.143400534
  0
LWPOLYLINE
  5
2FE
100
AcDbEntity
  8
RACCORDO
100
AcDbPolyline
 62
7
  6
CONTINUOUS
 90
8
 70
0
 10
-3.4010105973
 20
7.0106670103
 10
-3.4154249511
 20
6.9950294199
 10
-3.4362397948
 20
6.9745764346
 10
-3.4580323788
 20
6.9554301534
 10
-3.4807895143
 20
6.9377665855
 10
-3.5043253058
 20
6.9218189277
 10
-3.5286113263
 20
6.9078886043
 10
-3.5321112468
 20
6.906097675
  0
LWPOLYLINE
  5
2FF
100
AcDbEntity
  8
0
100
AcDbPolyline
 62
253
  6
CONTINUOUS
 90
11
 70
0
 10
14.9219520866
 20
17.8147453693
 10
14.96450348
 20
17.8436650591
 10
15.0029807421
 20
17.8742612626
 10
15.0371100775
 20
17.9063182307
 10
15.0666484638
 20
17.939611516
 10
15.0913858452
 20
17.9739043951
 10
15.1111466156
 20
18.0089495417
 10
15.1257901253
 20
18.0444991674
 10
15.135212081
 20
18.0803022653
 10
15.1393457426
 20
18.1161012123
 10
15.1386856294
 20
18.1462529123
  0
LWPOLYLINE
  5
300
100
AcDbEntity
  8
0
100
AcDbPolyline
 62
7
  6
CONTINUOUS
 90
6
 70
0
 10
14.8990495515
 20
18.0820346197
 10
14.9418098027
 20
18.1087319128
 10
14.9804891424
 20
18.137096119
 10
15.0148128433
 20
18.1669396131
 10
15.0445362218
 20
18.1980766726
 10
15.069449767
 20
18.2302868094
  0
LINE
  5
301
100
AcDbEntity
  8
RACCORDO
100
AcDbLine
 62
7
  6
CONTINUOUS
 10
-3.5318042308
 20
6.9062494798
 11
-3.4020027803
 21
6.9711502051
  0
LINE
  5
302
100
AcDbEntity
  8
0
100
AcDbLine
 62
7
  6
CONTINUOUS
 10
-12.3527753812
 20
0.9547643309
 11
-9.1829406476
 21
2.5396816977
  0
LWPOLYLINE
  5
303
100
AcDbEntity
  8
RACCORDO
100
AcDbPolyline
 62
7
  6
CONTINUOUS
 90
3
 70
0
 10
-3.5321112468
 20
6.906097675
 10
-3.5537107839
 20
6.8962546174
 10
-3.5795876483
 20
6.8872014001
  0
LWPOLYLINE
  5
304
100
AcDbEntity
  8
0
100
AcDbPolyline
 62
253
  6
CONTINUOUS
 90
31
 70
0
 10
-10.0163801225
 20
-3.5618246357
 10
-9.9835200991
 20
-3.57591754
 10
-9.9517805102
 20
-3.5855737372
 10
-9.9211613558
 20
-3.5907932271
 10
-9.8913535975
 20
-3.5914904235
 10
-9.8626662737
 20
-3.5877509127
 10
-9.8360265
 20
-3.5798314534
 10
-9.8115528759
 20
-3.5676487558
 10
-9.7891268018
 20
-3.5512861096
 10
-9.769319595
 20
-3.531250143
 10
-9.7521624734
 20
-3.507450376
 10
-9.737624219
 20
-3.4799772884
 10
-9.7261824952
 20
-3.4496089486
 10
-9.7179258902
 20
-3.4161940239
 10
-9.7127658158
 20
-3.3798838468
 10
-9.7109141711
 20
-3.3419104838
 10
-9.7125044349
 20
-3.3022222442
 10
-9.7174031283
 20
-3.2608708185
 10
-9.7254217137
 20
-3.2192433453
 10
-9.7366373355
 20
-3.1773928892
 10
-9.7509728492
 20
-3.1352663855
 10
-9.7680082837
 20
-3.0940917779
 10
-9.7878012123
 20
-3.0538816913
 10
-9.8102940618
 20
-3.0146235008
 10
-9.8348941411
 20
-2.9775072757
 10
-9.8617439213
 20
-2.9425073716
 10
-9.8907009313
 20
-2.9096494329
 10
-9.9207450669
 20
-2.8802004624
 10
-9.9515362932
 20
-2.8545827944
 10
-9.9834146451
 20
-2.8323740947
 10
-10.0163801225
 20
-2.8135743632
  0
LWPOLYLINE
  5
305
100
AcDbEntity
  8
0
100
AcDbPolyline
 62
253
  6
CONTINUOUS
 90
31
 70
0
 10
-10.0163801225
 20
-2.8135743632
 10
-10.0492401459
 20
-2.7994814588
 10
-10.0809797348
 20
-2.7898252617
 10
-10.1115988891
 20
-2.7846057718
 10
-10.1414066474
 20
-2.7839085754
 10
-10.1700939712
 20
-2.7876480862
 10
-10.1967337449
 20
-2.7955675455
 10
-10.2212073691
 20
-2.8077502431
 10
-10.2436334431
 20
-2.8241128892
 10
-10.2634406499
 20
-2.8441488558
 10
-10.2805977716
 20
-2.8679486229
 10
-10.295136026
 20
-2.8954217104
 10
-10.3065777498
 20
-2.9257900502
 10
-10.3148343548
 20
-2.959204975
 10
-10.3199944291
 20
-2.995515152
 10
-10.3218460739
 20
-3.033488515
 10
-10.3202558101
 20
-3.0731767547
 10
-10.3153571166
 20
-3.1145281803
 10
-10.3073385312
 20
-3.1561556536
 10
-10.2961229095
 20
-3.1980061096
 10
-10.2817873957
 20
-3.2401326133
 10
-10.2647519612
 20
-3.2813072209
 10
-10.2449590326
 20
-3.3215173075
 10
-10.2224661831
 20
-3.360775498
 10
-10.1978661039
 20
-3.3978917231
 10
-10.1710163237
 20
-3.4328916273
 10
-10.1420593136
 20
-3.465749566
 10
-10.1120151781
 20
-3.4951985365
 10
-10.0812239517
 20
-3.5208162045
 10
-10.0493455999
 20
-3.5430249042
 10
-10.0163801225
 20
-3.5618246357
  0
LWPOLYLINE
  5
306
100
AcDbEntity
  8
0
100
AcDbPolyline
 62
253
  6
CONTINUOUS
 90
13
 70
0
 10
-9.9063928357
 20
-2.5581218403
 10
-9.9472815937
 20
-2.5398639269
 10
-9.9878591635
 20
-2.5261178986
 10
-10.0278167254
 20
-2.5169883709
 10
-10.0668501782
 20
-2.5125448251
 10
-10.1046624538
 20
-2.5128210792
 10
-10.1409657778
 20
-2.5178150307
 10
-10.1754838601
 20
-2.5274886727
 10
-10.2079539972
 20
-2.5417683829
 10
-10.2381290718
 20
-2.560545484
 10
-10.2657794333
 20
-2.5836770711
 10
-10.2906946459
 20
-2.6109870988
 10
-10.3027593409
 20
-2.6271349305
  0
LWPOLYLINE
  5
307
100
AcDbEntity
  8
0
100
AcDbPolyline
 62
7
  6
CONTINUOUS
 90
3
 70
0
 10
-9.9514068261
 20
-3.6970430858
 10
-10.0031321767
 20
-3.6679860674
 10
-10.0526461362
 20
-3.6338636261
  0
LINE
  5
308
100
AcDbEntity
  8
SMUSSO
100
AcDbLine
 62
7
  6
CONTINUOUS
 10
-5.058315505
 20
16.2990377872
 11
-5.058315505
 21
16.3349361429
  0
LWPOLYLINE
  5
309
100
AcDbEntity
  8
RACCORDO
100
AcDbPolyline
 62
253
  6
CONTINUOUS
 90
27
 70
0
 10
2.2785165761
 20
16.0878006773
 10
2.2736380763
 20
16.0758447757
 10
2.2682924347
 20
16.0641605016
 10
2.2624938446
 20
16.0527799532
 10
2.2562571594
 20
16.0417334397
 10
2.2495995652
 20
16.0310524779
 10
2.2425409162
 20
16.0207693526
 10
2.2351012604
 20
16.0109131215
 10
2.2273002243
 20
16.0015096454
 10
2.2191589049
 20
15.9925843877
 10
2.2106993695
 20
15.984161625
 10
2.2019448327
 20
15.9762645524
 10
2.1929194125
 20
15.9689149552
 10
2.1836478461
 20
15.9621329669
 10
2.1741553768
 20
15.9559370425
 10
2.1644679085
 20
15.9503440926
 10
2.1546118839
 20
15.9453693906
 10
2.1446142381
 20
15.9410265383
 10
2.1345023021
 20
15.9373274106
 10
2.1243037041
 20
15.9342821135
 10
2.1140462924
 20
15.9318989618
 10
2.1037580843
 20
15.9301844647
 10
2.0934671658
 20
15.9291433043
 10
2.0832016608
 20
15.9287783274
 10
2.0729896549
 20
15.9290905279
 10
2.0628590698
 20
15.9300790399
 10
2.052837544
 20
15.9317411541
  0
LWPOLYLINE
  5
30A
100
AcDbEntity
  8
0
100
AcDbPolyline
 62
7
  6
CONTINUOUS
 90
10
 70
0
 10
-9.6249542201
 20
-1.6983110697
 10
-9.6412040105
 20
-1.7126704887
 10
-9.6571227719
 20
-1.7275561875
 10
-9.6726953435
 20
-1.7429621729
 10
-9.687902818
 20
-1.7588775171
 10
-9.7027348998
 20
-1.7752991419
 10
-9.7171891213
 20
-1.7922334398
 10
-9.7312547434
 20
-1.8096785187
 10
-9.744913572
 20
-1.8276225741
 10
-9.7581517537
 20
-1.8460578059
  0
LWPOLYLINE
  5
30B
100
AcDbEntity
  8
0
100
AcDbPolyline
 62
253
  6
CONTINUOUS
 90
4
 70
0
 10
-9.6944375242
 20
-1.7711824422
 10
-9.6467975598
 20
-1.7313280633
 10
-9.5948076617
 20
-1.6989762103
 10
-9.5388635043
 20
-1.6743731004
  0
LWPOLYLINE
  5
30C
100
AcDbEntity
  8
0
100
AcDbPolyline
 62
7
  6
CONTINUOUS
 90
12
 70
0
 10
-12.0912148383
 20
0.3633670338
 10
-11.950418494
 20
0.427897976
 10
-11.8035481694
 20
0.4764073314
 10
-11.6512394363
 20
0.5091403368
 10
-11.494394064
 20
0.5263573091
 10
-11.3335310649
 20
0.5284270253
 10
-11.1687443946
 20
0.5156331724
 10
-11.0009529188
 20
0.4882578786
 10
-10.8308510538
 20
0.4466336541
 10
-10.6581352949
 20
0.3907684161
 10
-10.4832010105
 20
0.3207116006
 10
-10.3072221791
 20
0.2368706408
  0
LWPOLYLINE
  5
30D
100
AcDbEntity
  8
0
100
AcDbPolyline
 62
7
  6
CONTINUOUS
 90
10
 70
0
 10
-8.7881297464
 20
-3.7861018205
 10
-8.7654465012
 20
-3.7865723608
 10
-8.7429047098
 20
-3.7864121346
 10
-8.7205189042
 20
-3.7856276218
 10
-8.6983132442
 20
-3.7842266656
 10
-8.6762918102
 20
-3.7822167157
 10
-8.6544395356
 20
-3.7796021296
 10
-8.6327613957
 20
-3.7763877972
 10
-8.6112814603
 20
-3.772581811
 10
-8.5900138373
 20
-3.7681918354
  0
LINE
  5
30E
100
AcDbEntity
  8
0
100
AcDbLine
 62
7
  6
CONTINUOUS
 10
-9.7397559984
 20
-3.7531416155
 11
-8.7881297464
 21
-3.7861018205
  0
LWPOLYLINE
  5
30F
100
AcDbEntity
  8
0
100
AcDbPolyline
 62
7
  6
CONTINUOUS
 90
10
 70
0
 10
-9.7397559984
 20
-3.7531416155
 10
-9.7623767543
 20
-3.7517963365
 10
-9.7853268027
 20
-3.7492921133
 10
-9.8085686799
 20
-3.7455957087
 10
-9.8320860318
 20
-3.7406707018
 10
-9.8558150652
 20
-3.7344915205
 10
-9.8796521206
 20
-3.7270528733
 10
-9.9035425743
 20
-3.7183455576
 10
-9.9274727916
 20
-3.7083472866
 10
-9.9514068261
 20
-3.6970430858
  0
LWPOLYLINE
  5
310
100
AcDbEntity
  8
0
100
AcDbPolyline
 62
253
  6
CONTINUOUS
 90
9
 70
0
 10
-8.9423210608
 20
-1.6287598644
 10
-9.0150426016
 20
-1.5962877704
 10
-9.0872106876
 20
-1.5718401617
 10
-9.158276076
 20
-1.5556030992
 10
-9.2276979164
 20
-1.5477001568
 10
-9.2949478666
 20
-1.5481914806
 10
-9.3595141138
 20
-1.5570733314
 10
-9.4209052701
 20
-1.574278113
 10
-9.4700331695
 20
-1.5952457513
  0
LWPOLYLINE
  5
311
100
AcDbEntity
  8
0
100
AcDbPolyline
 62
253
  6
CONTINUOUS
 90
50
 70
0
 10
-10.1733194272
 20
0.3886077297
 10
-10.3700130765
 20
0.4969878603
 10
-10.5654778924
 20
0.5900930844
 10
-10.759713875
 20
0.6679234021
 10
-10.9535007577
 20
0.7306781285
 10
-11.146058807
 20
0.7781579484
 10
-11.3350488223
 20
0.8097649168
 10
-11.5204457065
 20
0.8252520387
 10
-11.7022745567
 20
0.824866309
 10
-11.8782714639
 20
0.8087507665
 10
-12.0480636343
 20
0.776873434
 10
-12.2120238618
 20
0.7292662888
 10
-12.3690066188
 20
0.6661683005
 10
-12.5193347725
 20
0.5872877279
 10
-12.6626854558
 20
0.4929163123
 10
-12.7969445399
 20
0.3841682476
 10
-12.9218681243
 20
0.2608557276
 10
-13.0377001094
 20
0.1231665584
 10
-13.1430580682
 20
-0.0272216481
 10
-13.2377867594
 20
-0.1904501098
 10
-13.3220414242
 20
-0.3663776089
 10
-13.3949053596
 20
-0.5529028792
 10
-13.4562365957
 20
-0.7501170417
 10
-13.5061771023
 20
-0.9579289755
 10
-13.5442360856
 20
-1.1739640518
 10
-13.5702866525
 20
-1.3982941832
 10
-13.5844556961
 20
-1.630847457
 10
-13.5866331012
 20
-1.8690335063
 10
-13.5766962471
 20
-2.1129046376
 10
-13.5547677544
 20
-2.3624085443
 10
-13.5211053703
 20
-2.6147979393
 10
-13.4755915556
 20
-2.8700971735
 10
-13.4183438493
 20
-3.1282818959
 10
-13.3499726156
 20
-3.3865317669
 10
-13.2703508686
 20
-3.6448784265
 10
-13.1796055941
 20
-3.9032902345
 10
-13.0787281133
 20
-4.1588519305
 10
-12.9674805243
 20
-4.4117052434
 10
-12.846100729
 20
-4.6617084443
 10
-12.7162937541
 20
-4.9055210859
 10
-12.5783021369
 20
-5.1425607623
 10
-12.4318833401
 20
-5.3734098796
 10
-12.2780147786
 20
-5.596475208
 10
-12.1163328757
 20
-5.8121638435
 10
-11.947201208
 20
-6.0200686901
 10
-11.7726879208
 20
-6.2173752312
 10
-11.5927222075
 20
-6.4038899963
 10
-11.4073748747
 20
-6.5798064558
 10
-11.2189264879
 20
-6.7428905043
 10
-11.0281372355
 20
-6.8923974398
  0
LINE
  5
312
100
AcDbEntity
  8
0
100
AcDbLine
 62
7
  6
CONTINUOUS
 10
-10.3072221791
 20
0.2368706408
 11
-10.1310090585
 21
0.1396302789
  0
LWPOLYLINE
  5
313
100
AcDbEntity
  8
0
100
AcDbPolyline
 62
253
  6
CONTINUOUS
 90
14
 70
0
 10
-9.9836556169
 20
0.6864827943
 10
-10.1903379988
 20
0.8005037595
 10
-10.3971651832
 20
0.8989937617
 10
-10.6033526038
 20
0.9815791944
 10
-10.808118121
 20
1.0479467828
 10
-11.0106849891
 20
1.0978447719
 10
-11.2102848027
 20
1.1310838816
 10
-11.4061604111
 20
1.1475380245
 10
-11.5975687913
 20
1.1471447844
 10
-11.7837838655
 20
1.1299056531
 10
-11.9640992563
 20
1.0958860244
 10
-12.1378309656
 20
1.0452149464
 10
-12.3043199695
 20
0.978084632
 10
-12.3527753812
 20
0.9547643309
  0
LWPOLYLINE
  5
314
100
AcDbEntity
  8
0
100
AcDbPolyline
 62
253
  6
CONTINUOUS
 90
19
 70
0
 10
-9.0752353231
 20
-1.7271522661
 10
-9.0047863717
 20
-1.7661438949
 10
-8.9348735794
 20
-1.8123730802
 10
-8.8660290247
 20
-1.8654879898
 10
-8.7987766562
 20
-1.9250843873
 10
-8.7336283051
 20
-1.9907087081
 10
-8.6710797897
 20
-2.0618615114
 10
-8.6116071419
 20
-2.1380012816
 10
-8.5556629846
 20
-2.2185485489
 10
-8.5036730864
 20
-2.3028903
 10
-8.456033122
 20
-2.3903846433
 10
-8.4131056603
 20
-2.480365694
 10
-8.375217405
 20
-2.572148642
 10
-8.3426567089
 20
-2.6650349635
 10
-8.3156713783
 20
-2.7583177377
 10
-8.2944667879
 20
-2.8512870262
 10
-8.2792043176
 20
-2.9432352767
 10
-8.2700001239
 20
-3.0334627075
 10
-8.2669242562
 20
-3.1212826332
  0
LWPOLYLINE
  5
315
100
AcDbEntity
  8
0
100
AcDbPolyline
 62
7
  6
CONTINUOUS
 90
3
 70
0
 10
-10.1310090585
 20
0.1396302789
 10
-9.956940226
 20
0.0304995829
 10
-9.8201010754
 20
-0.0645220858
  0
LWPOLYLINE
  5
316
100
AcDbEntity
  8
0
100
AcDbPolyline
 62
253
  6
CONTINUOUS
 90
3
 70
0
 10
-10.1808247877
 20
0.2666042146
 10
-9.9913620042
 20
0.1475785977
 10
-9.8047660882
 20
0.0161668219
  0
LWPOLYLINE
  5
317
100
AcDbEntity
  8
0
100
AcDbPolyline
 62
7
  6
CONTINUOUS
 90
25
 70
0
 10
-9.8224933283
 20
-0.0627902493
 10
-9.6552112113
 20
-0.1900574473
 10
-9.4897031374
 20
-0.3285846702
 10
-9.326619428
 20
-0.4779160059
 10
-9.1666161809
 20
-0.6375308542
 10
-9.010312478
 20
-0.8068844101
 10
-8.8582799884
 20
-0.9854299836
 10
-8.7110845453
 20
-1.1725796199
 10
-8.5693314075
 20
-1.3676349857
 10
-8.4336080977
 20
-1.569842778
 10
-8.3044362054
 20
-1.7784687919
 10
-8.1823092052
 20
-1.9927527962
 10
-8.0677174044
 20
-2.2118586224
 10
-7.9610889422
 20
-2.4349776218
 10
-7.8628190914
 20
-2.6612836566
 10
-7.7732883049
 20
-2.8898831054
 10
-7.6928152942
 20
-3.119922255
 10
-7.6216792957
 20
-3.3505450672
 10
-7.5601347559
 20
-3.580835073
 10
-7.5083782986
 20
-3.8099157783
 10
-7.4665567467
 20
-4.036947193
 10
-7.4347813414
 20
-4.2610582656
 10
-7.4131146782
 20
-4.4813981665
 10
-7.4015710498
 20
-4.6971554091
 10
-7.4001206564
 20
-4.9075355931
  0
LWPOLYLINE
  5
318
100
AcDbEntity
  8
0
100
AcDbPolyline
 62
253
  6
CONTINUOUS
 90
50
 70
0
 10
-9.8047660882
 20
0.0161668219
 10
-9.6210370399
 20
-0.1276311127
 10
-9.4394553622
 20
-0.2844891551
 10
-9.2607405521
 20
-0.4537333563
 10
-9.0870511007
 20
-0.6333418696
 10
-8.9184272054
 20
-0.8235216161
 10
-8.7548286688
 20
-1.0240656745
 10
-8.5982933889
 20
-1.2323314351
 10
-8.449166258
 20
-1.4479345194
 10
-8.3071023838
 20
-1.6712593057
 10
-8.1731049879
 20
-1.9008163192
 10
-8.0469265063
 20
-2.1371975941
 10
-7.9288145029
 20
-2.3798110962
 10
-7.8205148911
 20
-2.6253912469
 10
-7.722252655
 20
-2.8738700949
 10
-7.6338028105
 20
-3.1253155916
 10
-7.5562363179
 20
-3.3766660122
 10
-7.4897146118
 20
-3.627870138
 10
-7.4340762577
 20
-3.8789791878
 10
-7.3899079121
 20
-4.1270850935
 10
-7.3573488439
 20
-4.3721111548
 10
-7.3362597841
 20
-4.6141340721
 10
-7.3268095829
 20
-4.8504758778
 10
-7.3291204762
 20
-5.0810607831
 10
-7.343070228
 20
-5.3059645768
 10
-7.3684609798
 20
-5.5227366588
 10
-7.4054088137
 20
-5.7312899069
 10
-7.4537976475
 20
-5.9317114432
 10
-7.513081376
 20
-6.1218120334
 10
-7.583369424
 20
-6.3014854343
 10
-7.6645523667
 20
-6.4708378891
 10
-7.7557558234
 20
-6.6279988934
 10
-7.8571035276
 20
-6.7728585315
 10
-7.9684717457
 20
-6.905526719
 10
-8.0886148976
 20
-7.0244626984
 10
-8.2177463388
 20
-7.1295218866
 10
-8.3556527136
 20
-7.2208488667
 10
-8.500448375
 20
-7.2973366306
 10
-8.6518612974
 20
-7.3587401772
 10
-8.8101635063
 20
-7.4053045075
 10
-8.9742854315
 20
-7.4366576167
 10
-9.1446066355
 20
-7.4527599951
 10
-9.3207475557
 20
-7.4536511524
 10
-9.5004999348
 20
-7.4390776128
 10
-9.6838939134
 20
-7.4087867446
 10
-9.8708993509
 20
-7.3630311795
 10
-10.059217567
 20
-7.3023153368
 10
-10.2480823353
 20
-7.2268073563
 10
-10.4382598823
 20
-7.1363390982
 10
-10.629750208
 20
-7.0309105625
  0
LWPOLYLINE
  5
319
100
AcDbEntity
  8
RACCORDO
100
AcDbPolyline
 62
253
  6
CONTINUOUS
 90
139
 70
0
 10
-1.956295816
 20
-24.713717358
 10
-1.9559378568
 20
-24.7228062114
 10
-1.9554976474
 20
-24.7318485235
 10
-1.9549751876
 20
-24.7408442943
 10
-1.9543703937
 20
-24.7497946862
 10
-1.9536833495
 20
-24.7586985368
 10
-1.9529143065
 20
-24.7675523589
 10
-1.9520632329
 20
-24.7763560512
 10
-1.9511301605
 20
-24.785109715
 10
-1.9501154357
 20
-24.7938101673
 10
-1.9490190231
 20
-24.8024573862
 10
-1.9478409582
 20
-24.8110513934
 10
-1.9465816928
 20
-24.819589071
 10
-1.9452412118
 20
-24.8280703062
 10
-1.9438195303
 20
-24.8364952116
 10
-1.9423171461
 20
-24.8448610071
 10
-1.9407340593
 20
-24.8531675802
 10
-1.9390702697
 20
-24.8614150433
 10
-1.9373262751
 20
-24.8696009535
 10
-1.935502041
 20
-24.8777253768
 10
-1.9335976018
 20
-24.8857882471
 10
-1.9316135587
 20
-24.8937869236
 10
-1.9295498564
 20
-24.9017214902
 10
-1.92740655
 20
-24.909591863
 10
-1.925184406
 20
-24.9173951483
 10
-1.9228833853
 20
-24.9251313309
 10
-1.9205035269
 20
-24.932800426
 10
-1.9180457145
 20
-24.9403995868
 10
-1.9155099448
 20
-24.9479287039
 10
-1.912896221
 20
-24.9553878866
 10
-1.9102054365
 20
-24.9627746156
 10
-1.9074375709
 20
-24.9700888574
 10
-1.9045926445
 20
-24.9773306453
 10
-1.9016716119
 20
-24.9844975601
 10
-1.8986744431
 20
-24.9915895919
 10
-1.895601168
 20
-24.9986067504
 10
-1.8924528318
 20
-25.0055466453
 10
-1.8892293961
 20
-25.0124092749
 10
-1.8859308992
 20
-25.0191946408
 10
-1.8825585008
 20
-25.0259003585
 10
-1.8791121842
 20
-25.03252638
 10
-1.875591966
 20
-25.0390727532
 10
-1.8719990558
 20
-25.0455372362
 10
-1.8683334389
 20
-25.0519197862
 10
-1.8645951301
 20
-25.058220446
 10
-1.8607853827
 20
-25.0644371016
 10
-1.8569041791
 20
-25.070569721
 10
-1.852951537
 20
-25.0766183361
 10
-1.8489287633
 20
-25.0825809287
 10
-1.8448358191
 20
-25.0884574949
 10
-1.8406727434
 20
-25.0942480386
 10
-1.8364409598
 20
-25.0999505532
 10
-1.8321404227
 20
-25.1055650323
 10
-1.8277711777
 20
-25.1110914823
 10
-1.823334786
 20
-25.1165279158
 10
-1.8188312158
 20
-25.1218743011
 10
-1.814260499
 20
-25.1271306699
 10
-1.8096242915
 20
-25.1322951293
 10
-1.8049225865
 20
-25.1373676233
 10
-1.800155391
 20
-25.142348208
 10
-1.7953243818
 20
-25.1472351595
 10
-1.7904295864
 20
-25.1520284023
 10
-1.7854709773
 20
-25.1567280119
 10
-1.7804501496
 20
-25.1613324916
 10
-1.7753670786
 20
-25.1658418241
 10
-1.7702217889
 20
-25.1702560268
 10
-1.765015949
 20
-25.1745736546
 10
-1.7597494834
 20
-25.1787947205
 10
-1.7544224675
 20
-25.1829192115
 10
-1.7490367959
 20
-25.1869456446
 10
-1.7435924255
 20
-25.1908739923
 10
-1.7380893993
 20
-25.194704282
 10
-1.7325297412
 20
-25.1984351122
 10
-1.7269135039
 20
-25.2020663988
 10
-1.7212406346
 20
-25.2055982259
 10
-1.715512999
 20
-25.2090294435
 10
-1.709730593
 20
-25.2123600182
 10
-1.7038934206
 20
-25.2155899834
 10
-1.6980033591
 20
-25.2187182899
 10
-1.6920603433
 20
-25.2217449316
 10
-1.6860644384
 20
-25.2246699146
 10
-1.6800177171
 20
-25.227492207
 10
-1.6739201334
 20
-25.2302117815
 10
-1.6677717333
 20
-25.2328286655
 10
-1.6615747281
 20
-25.2353419087
 10
-1.6553291105
 20
-25.2377514651
 10
-1.6490348878
 20
-25.2400573807
 10
-1.6426942925
 20
-25.2422588436
 10
-1.6363073315
 20
-25.2443558078
 10
-1.6298739979
 20
-25.2463483193
 10
-1.6233965045
 20
-25.2482357039
 10
-1.6168748485
 20
-25.2500179236
 10
-1.6103090326
 20
-25.2516950165
 10
-1.6037012774
 20
-25.253266423
 10
-1.5970515696
 20
-25.2547321093
 10
-1.5903599225
 20
-25.2560921092
 10
-1.5836285965
 20
-25.2573459647
 10
-1.5768575742
 20
-25.2584936421
 10
-1.5700468729
 20
-25.2595351751
 10
-1.5631988052
 20
-25.2604702062
 10
-1.5563133441
 20
-25.2612987011
 10
-1.5493905166
 20
-25.2620206942
 10
-1.5424327158
 20
-25.2626359312
 10
-1.5354399306
 20
-25.2631443745
 10
-1.5284121723
 20
-25.2635460617
 10
-1.521351868
 20
-25.2638408516
 10
-1.5142590081
 20
-25.2640287067
 10
-1.5071336023
 20
-25.2641096644
 10
-1.499978107
 20
-25.2640836956
 10
-1.4927925105
 20
-25.2639507629
 10
-1.4855768246
 20
-25.2637109037
 10
-1.4783335412
 20
-25.263364201
 10
-1.4710626501
 20
-25.2629106171
 10
-1.4637641615
 20
-25.2623501896
 10
-1.4564405987
 20
-25.2616831139
 10
-1.4490919554
 20
-25.2609093532
 10
-1.4417182379
 20
-25.2600289443
 10
-1.4343219883
 20
-25.2590421939
 10
-1.4269032179
 20
-25.2579490691
 10
-1.4194619154
 20
-25.2567496027
 10
-1.4120005894
 20
-25.2554441996
 10
-1.4045192225
 20
-25.2540328233
 10
-1.3970178321
 20
-25.2525155103
 10
-1.3894989784
 20
-25.2508927742
 10
-1.3819626433
 20
-25.2491645756
 10
-1.3744088449
 20
-25.247330954
 10
-1.3668401976
 20
-25.2453925416
 10
-1.3592566929
 20
-25.2433493022
 10
-1.3516583393
 20
-25.2412012719
 10
-1.344047777
 20
-25.2389491915
 10
-1.336424999
 20
-25.236593015
 10
-1.3287900122
 20
-25.2341327884
 10
-1.3211454773
 20
-25.2315693899
 10
-1.3134913526
 20
-25.2289027832
 10
-1.3058276798
 20
-25.2261330047
 10
-1.2981572452
 20
-25.223261041
 10
-1.2904809775
 20
-25.2202872212
 10
-1.282797948
 20
-25.2172112162
 10
-1.0612513473
 20
-25.1247041344
  0
LWPOLYLINE
  5
31A
100
AcDbEntity
  8
RACCORDO
100
AcDbPolyline
 62
253
  6
CONTINUOUS
 90
80
 70
0
 10
-2.6568792899
 20
-24.7283171721
 10
-2.6563454817
 20
-24.7419476492
 10
-2.6556888604
 20
-24.7555107274
 10
-2.6549094923
 20
-24.7690048484
 10
-2.654007449
 20
-24.7824285604
 10
-2.6529828313
 20
-24.7957802204
 10
-2.6518357777
 20
-24.8090579996
 10
-2.6505664181
 20
-24.8222603696
 10
-2.6491748963
 20
-24.8353858251
 10
-2.6476614073
 20
-24.848432595
 10
-2.6460261291
 20
-24.8613991922
 10
-2.644269255
 20
-24.8742841339
 10
-2.6423910389
 20
-24.8870856799
 10
-2.6403917301
 20
-24.899802238
 10
-2.6382715506
 20
-24.9124325015
 10
-2.6360307374
 20
-24.924975175
 10
-2.6336695831
 20
-24.937428684
 10
-2.6311883402
 20
-24.9497917603
 10
-2.6285871846
 20
-24.9620635679
 10
-2.6258663774
 20
-24.9742428157
 10
-2.6230262455
 20
-24.9863279854
 10
-2.6200670608
 20
-24.9983178987
 10
-2.6169891034
 20
-25.0102113318
 10
-2.6137927489
 20
-25.0220067523
 10
-2.6104784335
 20
-25.0337025364
 10
-2.607046521
 20
-25.0452973631
 10
-2.603497402
 20
-25.05678988
 10
-2.5998315904
 20
-25.0681784489
 10
-2.5960495474
 20
-25.0794616501
 10
-2.5921516675
 20
-25.0906383211
 10
-2.5881383924
 20
-25.1017072355
 10
-2.5840101852
 20
-25.1126671153
 10
-2.5797675114
 20
-25.1235167258
 10
-2.5754108307
 20
-25.1342549196
 10
-2.5709406271
 20
-25.1448804902
 10
-2.5663574158
 20
-25.1553922013
 10
-2.5616617185
 20
-25.1657888758
 10
-2.5568540476
 20
-25.1760693622
 10
-2.5519349639
 20
-25.1862324456
 10
-2.5469050828
 20
-25.1962768756
 10
-2.5417649899
 20
-25.2062014782
 10
-2.5365152548
 20
-25.2160051497
 10
-2.53115649
 20
-25.2256867693
 10
-2.525689317
 20
-25.2352452089
 10
-2.5201143433
 20
-25.2446794023
 10
-2.5144321762
 20
-25.2539883387
 10
-2.5086434635
 20
-25.2631709443
 10
-2.5027488537
 20
-25.2722261782
 10
-2.4967489676
 20
-25.2811530941
 10
-2.4906444546
 20
-25.2899507019
 10
-2.4844360255
 20
-25.298617955
 10
-2.4781244072
 20
-25.30715384
 10
-2.4717102792
 20
-25.3155574161
 10
-2.4651943932
 20
-25.3238276775
 10
-2.4585776065
 20
-25.3319635432
 10
-2.4518606614
 20
-25.3399640925
 10
-2.4450443254
 20
-25.3478284045
 10
-2.43812952
 20
-25.3555554339
 10
-2.4311170609
 20
-25.3631442771
 10
-2.4240077207
 20
-25.3705941066
 10
-2.4168023787
 20
-25.3779040254
 10
-2.4095019281
 20
-25.3850731417
 10
-2.4021071335
 20
-25.3921007193
 10
-2.3946186924
 20
-25.3989861115
 10
-2.38703744
 20
-25.4057285451
 10
-2.3793642472
 20
-25.4123272404
 10
-2.3715998699
 20
-25.4187815483
 10
-2.3637450988
 20
-25.4250907915
 10
-2.3558009001
 20
-25.431254175
 10
-2.3477683068
 20
-25.4372708951
 10
-2.3396481988
 20
-25.4431402849
 10
-2.3314415221
 20
-25.4488616534
 10
-2.3231494336
 20
-25.4544342022
 10
-2.3147729867
 20
-25.4598572361
 10
-2.3063130269
 20
-25.4651302208
 10
-2.2977704157
 20
-25.4702526281
 10
-2.289146137
 20
-25.4752238684
 10
-2.2804411525
 20
-25.4800433883
 10
-2.2716562942
 20
-25.484710723
 10
-2.2635295578
 20
-25.4888572785
  0
LWPOLYLINE
  5
31B
100
AcDbEntity
  8
RACCORDO
100
AcDbPolyline
 62
7
  6
CONTINUOUS
 90
19
 70
0
 10
-3.4080181457
 20
6.7318294609
 10
-3.4080511055
 20
6.7297161521
 10
-3.4079599007
 20
6.7241012515
 10
-3.4076389064
 20
6.718426622
 10
-3.4070900219
 20
6.7127052394
 10
-3.406311086
 20
6.7069509385
 10
-3.4053302934
 20
6.701174022
 10
-3.4041492119
 20
6.6953845456
 10
-3.4027672911
 20
6.6895943641
 10
-3.4012083837
 20
6.6838149913
 10
-3.3994739861
 20
6.6780544605
 10
-3.3975648081
 20
6.6723231083
 10
-3.3955029562
 20
6.6666350254
 10
-3.393290077
 20
6.6609962952
 10
-3.3909281379
 20
6.6554163007
 10
-3.3884399319
 20
6.6499133612
 10
-3.3858350104
 20
6.6444977401
 10
-3.3831095477
 20
6.6391716722
 10
-3.3802667649
 20
6.6339406801
  0
LWPOLYLINE
  5
31C
100
AcDbEntity
  8
RACCORDO
100
AcDbPolyline
 62
253
  6
CONTINUOUS
 90
7
 70
0
 10
-3.2497446872
 20
11.1833553941
 10
-3.2741085094
 20
10.42391595
 10
-3.2974283753
 20
9.6649549494
 10
-3.3197042067
 20
8.9064746581
 10
-3.3409359288
 20
8.1484773406
 10
-3.3611234699
 20
7.3909652602
 10
-3.3802667614
 20
6.6339406784
  0
LWPOLYLINE
  5
31D
100
AcDbEntity
  8
RACCORDO
100
AcDbPolyline
 62
7
  6
CONTINUOUS
 90
10
 70
0
 10
-3.2790402169
 20
11.2183933693
 10
-3.2950428717
 20
10.7232144138
 10
-3.3110408287
 20
10.2140663924
 10
-3.3265692404
 20
9.7051341607
 10
-3.3416280818
 20
9.1964185832
 10
-3.3562173334
 20
8.6879203416
 10
-3.3703369802
 20
8.1796399346
 10
-3.3839870016
 20
7.6715780442
 10
-3.3971673718
 20
7.1637355354
 10
-3.4080115792
 20
6.7318309146
  0
LWPOLYLINE
  5
31E
100
AcDbEntity
  8
RACCORDO
100
AcDbPolyline
 62
253
  6
CONTINUOUS
 90
10
 70
0
 10
-3.5581611706
 20
11.3076960857
 10
-3.5738333104
 20
10.8263474991
 10
-3.5890823081
 20
10.3451898677
 10
-3.6039081457
 20
9.8642237677
 10
-3.6183107938
 20
9.3834501762
 10
-3.6322902482
 20
8.9028692676
 10
-3.6458465257
 20
8.4224804143
 10
-3.658979618
 20
7.9422837926
 10
-3.671689495
 20
7.4622803798
 10
-3.6839761386
 20
6.9824707523
  0
LWPOLYLINE
  5
31F
100
AcDbEntity
  8
RACCORDO
100
AcDbPolyline
 62
253
  6
CONTINUOUS
 90
67
 70
0
 10
-2.6568792899
 20
10.8869226955
 10
-2.6750412472
 20
10.3388091169
 10
-2.6926445327
 20
9.7909423071
 10
-2.7096891312
 20
9.2433231123
 10
-2.7261749728
 20
8.6959542721
 10
-2.7421021034
 20
8.1488347364
 10
-2.7574706663
 20
7.6019596744
 10
-2.7722806974
 20
7.0553275015
 10
-2.7865320989
 20
6.508941509
 10
-2.8002248023
 20
5.9628041846
 10
-2.8133587744
 20
5.4169168695
 10
-2.8259340075
 20
4.8712799197
 10
-2.8379504774
 20
4.3258943426
 10
-2.8494081646
 20
3.780761044
 10
-2.8603070531
 20
3.235880813
 10
-2.8706471257
 20
2.6912544812
 10
-2.8804283666
 20
2.1468828911
 10
-2.8896507608
 20
1.6027668927
 10
-2.8983142936
 20
1.0589073292
 10
-2.9064189517
 20
0.5153050447
 10
-2.9139647228
 20
-0.0280391149
 10
-2.9209515947
 20
-0.5711243043
 10
-2.9273795568
 20
-1.1139496787
 10
-2.9332485992
 20
-1.6565143953
 10
-2.9385587126
 20
-2.1988176124
 10
-2.9433098887
 20
-2.740858488
 10
-2.9475021205
 20
-3.2826361791
 10
-2.9511354012
 20
-3.8241498431
 10
-2.9542097251
 20
-4.365398635
 10
-2.9567250876
 20
-4.9063817173
 10
-2.9586814848
 20
-5.4470982591
 10
-2.9600789136
 20
-5.9875474269
 10
-2.9609173719
 20
-6.5277283742
 10
-2.9611968582
 20
-7.0676402514
 10
-2.9609173722
 20
-7.6072822161
 10
-2.9600789143
 20
-8.1466534332
 10
-2.9586814858
 20
-8.6857530644
 10
-2.956725089
 20
-9.2245802707
 10
-2.9542097267
 20
-9.7631342161
 10
-2.9511354031
 20
-10.3014140685
 10
-2.9475021228
 20
-10.8394189931
 10
-2.9433098913
 20
-11.3771481522
 10
-2.9385587155
 20
-11.9146007104
 10
-2.9332486024
 20
-12.4517758334
 10
-2.9273795603
 20
-12.9886726858
 10
-2.9209515986
 20
-13.5252904314
 10
-2.9139647271
 20
-14.0616282313
 10
-2.9064189566
 20
-14.5976852573
 10
-2.8983142988
 20
-15.1334606908
 10
-2.8896507659
 20
-15.668953713
 10
-2.8804283713
 20
-16.2041634782
 10
-2.8706471302
 20
-16.7390891276
 10
-2.8603070579
 20
-17.2737298156
 10
-2.8494081701
 20
-17.8080847263
 10
-2.8379504838
 20
-18.3421530466
 10
-2.8259340167
 20
-18.87593394
 10
-2.813358787
 20
-19.4094265841
 10
-2.8002248139
 20
-19.9426301874
 10
-2.7865321168
 20
-20.4755439425
 10
-2.7722807169
 20
-21.0081670004
 10
-2.7574706379
 20
-21.5404985083
 10
-2.7421019007
 20
-22.0725376865
 10
-2.7261745301
 20
-22.604283661
 10
-2.709688557
 20
-23.1357354387
 10
-2.6926440092
 20
-23.6668921384
 10
-2.675040911
 20
-24.197752991
 10
-2.6568792899
 20
-24.7283171721
  0
LWPOLYLINE
  5
320
100
AcDbEntity
  8
RACCORDO
100
AcDbPolyline
 62
253
  6
CONTINUOUS
 90
67
 70
0
 10
-1.956295816
 20
10.8659072698
 10
-1.9744399453
 20
10.31834059
 10
-1.9920259233
 20
9.7710221073
 10
-2.0090537501
 20
9.2239518216
 10
-2.0255233922
 20
8.6771307727
 10
-2.041434883
 20
8.1305579208
 10
-2.056788323
 20
7.5842301464
 10
-2.0715837849
 20
7.0381450146
 10
-2.0858211959
 20
6.4923049604
 10
-2.0995004381
 20
5.9467141682
 10
-2.1126214933
 20
5.4013731327
 10
-2.1251843797
 20
4.8562813594
 10
-2.1371890345
 20
4.3114415491
 10
-2.1486354537
 20
3.7668537612
 10
-2.1595236413
 20
3.2225179363
 10
-2.1698535469
 20
2.6784365975
 10
-2.1796251682
 20
2.1346097416
 10
-2.1888385076
 20
1.5910373716
 10
-2.1974935221
 20
1.0477220195
 10
-2.2055902093
 20
0.5046636852
 10
-2.2131285717
 20
-0.0381376314
 10
-2.2201085742
 20
-0.5806793986
 10
-2.2265302141
 20
-1.1229616144
 10
-2.232393494
 20
-1.664984281
 10
-2.2376983868
 20
-2.2067448727
 10
-2.2424448897
 20
-2.7482433891
 10
-2.2466330054
 20
-3.2894798306
 10
-2.2502627144
 20
-3.8304516735
 10
-2.253334014
 20
-4.3711589131
 10
-2.2558469069
 20
-4.911601554
 10
-2.2578013813
 20
-5.4517770867
 10
-2.2591974347
 20
-5.9916855165
 10
-2.2600350698
 20
-6.531326838
 10
-2.2603142824
 20
-7.0706985255
 10
-2.2600350701
 20
-7.6098005742
 10
-2.2591974353
 20
-8.1486329888
 10
-2.2578013822
 20
-8.6871932574
 10
-2.255846908
 20
-9.2254813771
 10
-2.2533340154
 20
-9.7634973508
 10
-2.2502627161
 20
-10.3012386751
 10
-2.2466330074
 20
-10.8387053502
 10
-2.242444892
 20
-11.3758973759
 10
-2.2376983893
 20
-11.9128122481
 10
-2.2323934968
 20
-12.4494499662
 10
-2.2265302171
 20
-12.9858105309
 10
-2.2201085775
 20
-13.5218914402
 10
-2.2131285755
 20
-14.0576926873
 10
-2.2055902136
 20
-14.593214279
 10
-2.1974935267
 20
-15.1284537332
 10
-2.1888385119
 20
-15.6634110622
 10
-2.1796251721
 20
-16.1980862537
 10
-2.1698535507
 20
-16.7324767884
 10
-2.1595236453
 20
-17.2665826504
 10
-2.1486354583
 20
-17.8004038557
 10
-2.1371890401
 20
-18.3339379334
 10
-2.1251843884
 20
-18.8671848754
 10
-2.1126215055
 20
-19.4001446899
 10
-2.0995004488
 20
-19.9328149301
 10
-2.0858212152
 20
-20.4651956156
 10
-2.0715838079
 20
-20.997286727
 10
-2.0567882936
 20
-21.5290857587
 10
-2.0414346677
 20
-22.0605927613
 10
-2.0255229349
 20
-22.5918076843
 10
-2.0090531752
 20
-23.1227278712
 10
-1.9920254156
 20
-23.6533524363
 10
-1.9744396292
 20
-24.1836822652
 10
-1.956295816
 20
-24.713717358
  0
LWPOLYLINE
  5
321
100
AcDbEntity
  8
0
100
AcDbPolyline
 62
253
  6
CONTINUOUS
 90
3
 70
0
 10
-8.4131056603
 20
-3.6160181684
 10
-8.456033122
 20
-3.6630717573
 10
-8.5036730864
 20
-3.7029261362
  0
LWPOLYLINE
  5
322
100
AcDbEntity
  8
0
100
AcDbPolyline
 62
253
  6
CONTINUOUS
 90
5
 70
0
 10
15.1881399854
 20
16.6260393471
 10
15.159264126
 20
16.6003588757
 10
15.1258382477
 20
16.5760134909
 10
15.0880954178
 20
16.5532020228
 10
15.046298028
 20
16.5320987625
  0
LWPOLYLINE
  5
323
100
AcDbEntity
  8
0
100
AcDbPolyline
 62
253
  6
CONTINUOUS
 90
12
 70
0
 10
15.0175512344
 20
16.9992493124
 10
15.0591739149
 20
17.0338575044
 10
15.0969902014
 20
17.0703824361
 10
15.1305072851
 20
17.108439826
 10
15.1592145675
 20
17.1473784861
 10
15.182988066
 20
17.1869179879
 10
15.2019370022
 20
17.2271876289
 10
15.2158330293
 20
17.2677956174
 10
15.2245189231
 20
17.3082567305
 10
15.228012847
 20
17.3485886903
 10
15.2262061344
 20
17.38836257
 10
15.2225398519
 20
17.4121008252
  0
LWPOLYLINE
  5
324
100
AcDbEntity
  8
0
100
AcDbPolyline
 62
7
  6
CONTINUOUS
 90
10
 70
0
 10
-9.4700331695
 20
-1.5952457513
 10
-9.4883290033
 20
-1.6047084497
 10
-9.5063810724
 20
-1.6146799669
 10
-9.5241758706
 20
-1.6251547633
 10
-9.5416947234
 20
-1.6361232656
 10
-9.5589302381
 20
-1.6475820567
 10
-9.5758854798
 20
-1.6595354444
 10
-9.5925524384
 20
-1.671981158
 10
-9.608912882
 20
-1.6849087883
 10
-9.6249542201
 20
-1.6983110697
  0
LINE
  5
325
100
AcDbEntity
  8
0
100
AcDbLine
 62
7
  6
CONTINUOUS
 10
-8.6880614513
 20
-1.2042598922
 11
-9.4700331695
 21
-1.5952457513
  0
LWPOLYLINE
  5
326
100
AcDbEntity
  8
0
100
AcDbPolyline
 62
253
  6
CONTINUOUS
 90
15
 70
0
 10
-9.7397559984
 20
-3.7531416155
 10
-9.7081232175
 20
-3.7525906329
 10
-9.6718198935
 20
-3.7475966813
 10
-9.6373018112
 20
-3.7379230394
 10
-9.6048316741
 20
-3.7236433292
 10
-9.5746565995
 20
-3.704866228
 10
-9.547006238
 20
-3.6817346409
 10
-9.5220910254
 20
-3.6544246133
 10
-9.5001005818
 20
-3.6231439908
 10
-9.4812022674
 20
-3.5881308381
 10
-9.4655399101
 20
-3.5496516262
 10
-9.4532327097
 20
-3.5079992053
 10
-9.4443743315
 20
-3.4634905754
 10
-9.4390321931
 20
-3.416464474
 10
-9.4372469513
 20
-3.3672787982
  0
LWPOLYLINE
  5
327
100
AcDbEntity
  8
RACCORDO
100
AcDbPolyline
 62
253
  6
CONTINUOUS
 90
34
 70
0
 10
-1.2751081609
 20
12.0240382162
 10
-1.2763957278
 20
12.0443731464
 10
-1.2784663704
 20
12.0650689211
 10
-1.28131541
 20
12.0860787084
 10
-1.2849364309
 20
12.1073549518
 10
-1.2893212239
 20
12.1288495191
 10
-1.2944598003
 20
12.1505138142
 10
-1.3003405263
 20
12.1722988216
 10
-1.3069501079
 20
12.1941552417
 10
-1.3142735437
 20
12.216033647
 10
-1.3222942559
 20
12.2378845379
 10
-1.3309941036
 20
12.2596584684
 10
-1.3403533744
 20
12.2813061865
 10
-1.3503508841
 20
12.3027787145
 10
-1.3609640161
 20
12.3240274641
 10
-1.3721687448
 20
12.3450043622
 10
-1.3839397109
 20
12.3656619484
 10
-1.3962502836
 20
12.3859534793
 10
-1.4090726107
 20
12.4058330394
 10
-1.4223776738
 20
12.4252556506
 10
-1.4361353706
 20
12.4441773641
 10
-1.4503145878
 20
12.4625553568
 10
-1.4648832376
 20
12.4803480474
 10
-1.479808359
 20
12.4975151751
 10
-1.4950562104
 20
12.5140178799
 10
-1.5105922867
 20
12.5298188234
 10
-1.5263814389
 20
12.5448822512
 10
-1.5423879836
 20
12.5591740566
 10
-1.5585756993
 20
12.5726619036
 10
-1.5749079634
 20
12.585315271
 10
-1.5913478784
 20
12.5971054982
 10
-1.6078582656
 20
12.6080058973
 10
-1.624401749
 20
12.6179918133
 10
-1.6409408963
 20
12.6270406511
  0
LWPOLYLINE
  5
328
100
AcDbEntity
  8
RACCORDO
100
AcDbPolyline
 62
253
  6
CONTINUOUS
 90
18
 70
0
 10
0.6010099366
 20
-24.8887723324
 10
0.6012504121
 20
-24.8999412328
 10
0.6019711843
 20
-24.9108392708
 10
0.6031702922
 20
-24.9214367965
 10
0.6048444735
 20
-24.9317049776
 10
0.6069891732
 20
-24.9416158775
 10
0.6095985563
 20
-24.9511425322
 10
0.6126655237
 20
-24.9602590227
 10
0.6161817309
 20
-24.9689405461
 10
0.6201376118
 20
-24.9771634828
 10
0.6245224034
 20
-24.9849054609
 10
0.6293241764
 20
-24.992145417
 10
0.6345298667
 20
-24.9988636537
 10
0.6401253113
 20
-25.0050418927
 10
0.6460952868
 20
-25.0106633253
 10
0.652423551
 20
-25.0157126572
 10
0.6590928867
 20
-25.0201761511
 10
0.665983233
 20
-25.0239907825
  0
LINE
  5
329
100
AcDbEntity
  8
DRAFT
100
AcDbLine
 62
253
  6
CONTINUOUS
 10
-1.8124122216
 20
21.5753665482
 11
-1.8124122216
 21
20.3889547064
  0
LINE
  5
32A
100
AcDbEntity
  8
RACCORDO
100
AcDbLine
 62
253
  6
CONTINUOUS
 10
-1.6023430841
 20
17.6169229301
 11
-1.6023430841
 21
18.6975062409
  0
LINE
  5
32B
100
AcDbEntity
  8
RACCORDO
100
AcDbLine
 62
253
  6
CONTINUOUS
 10
-0.8972991648
 20
17.6384586934
 11
-0.8972991648
 21
18.8711856657
  0
LINE
  5
32C
100
AcDbEntity
  8
ASSI
100
AcDbLine
 62
253
  6
CONTINUOUS
 10
-0.7715298178
 20
23.251016266
 11
-0.7715298178
 21
24.478366863
  0
LINE
  5
32D
100
AcDbEntity
  8
ASSI
100
AcDbLine
 62
7
  6
CONTINUOUS
 10
-0.6461803106
 20
23.4000444244
 11
-0.6461803106
 21
24.4876784821
  0
LINE
  5
32E
100
AcDbEntity
  8
DRAFT
100
AcDbLine
 62
7
  6
CONTINUOUS
 10
-0.5396200155
 20
19.0504902105
 11
-0.5396200155
 21
17.8380546452
  0
LINE
  5
32F
100
AcDbEntity
  8
DRAFT
100
AcDbLine
 62
253
  6
CONTINUOUS
 10
-0.3981986593
 20
21.5753665482
 11
-0.3981986593
 21
21.1099112705
  0
LINE
  5
330
100
AcDbEntity
  8
DRAFT
100
AcDbLine
 62
7
  6
CONTINUOUS
 10
-0.3566993565
 20
21.0891616191
 11
-0.3566993565
 21
21.3814118161
  0
LWPOLYLINE
  5
331
100
AcDbEntity
  8
0
100
AcDbPolyline
 62
7
  6
CONTINUOUS
 90
6
 70
0
 10
15.0438853829
 20
18.2292407417
 10
15.0688487025
 20
18.2591002327
 10
15.0888267174
 20
18.289882801
 10
15.1036774342
 20
18.3213671092
 10
15.1132953356
 20
18.3533261244
 10
15.1176119661
 20
18.385537614
  0
LWPOLYLINE
  5
332
100
AcDbEntity
  8
0
100
AcDbPolyline
 62
253
  6
CONTINUOUS
 90
6
 70
0
 10
-8.5036730864
 20
-3.7029261362
 10
-8.5556629846
 20
-3.7352779892
 10
-8.6116071419
 20
-3.7598810992
 10
-8.6710797897
 20
-3.7765482215
 10
-8.7336283051
 20
-3.7851525095
 10
-8.7881297464
 20
-3.7861018205
  0
LWPOLYLINE
  5
333
100
AcDbEntity
  8
0
100
AcDbPolyline
 62
253
  6
CONTINUOUS
 90
10
 70
0
 10
14.6540984011
 20
9.2613071587
 10
14.6973153078
 20
9.2847855919
 10
14.7363156246
 20
9.309703533
 10
14.7708515825
 20
9.3359101006
 10
14.800681164
 20
9.3632446901
 10
14.8256662251
 20
9.3915355188
 10
14.8457180396
 20
9.4206147274
 10
14.8606944864
 20
9.4503413874
 10
14.8704452741
 20
9.4805052996
 10
14.8746096401
 20
9.5069566527
  0
LWPOLYLINE
  5
334
100
AcDbEntity
  8
0
100
AcDbPolyline
 62
253
  6
CONTINUOUS
 90
12
 70
0
 10
-8.4146089521
 20
-3.7060941859
 10
-8.4059880101
 20
-3.7016650506
 10
-8.352320987
 20
-3.6682695699
 10
-8.3031442208
 20
-3.6271295418
 10
-8.2588319763
 20
-3.5785580667
 10
-8.2197214964
 20
-3.5229248029
 10
-8.1861104354
 20
-3.4606531532
 10
-8.158254594
 20
-3.3922170423
 10
-8.1363659718
 20
-3.3181373104
 10
-8.1206111545
 20
-3.2389777491
 10
-8.1111100457
 20
-3.1553408103
 10
-8.1079349547
 20
-3.0678630216
  0
LINE
  5
335
100
AcDbEntity
  8
0
100
AcDbLine
 62
7
  6
CONTINUOUS
 10
-7.6326134818
 20
-3.3150964507
 11
-8.4146089521
 21
-3.7060941859
  0
LWPOLYLINE
  5
336
100
AcDbEntity
  8
0
100
AcDbPolyline
 62
7
  6
CONTINUOUS
 90
10
 70
0
 10
-8.5900138373
 20
-3.7681918354
 10
-8.5696865295
 20
-3.7634049625
 10
-8.549543322
 20
-3.7580779826
 10
-8.529597637
 20
-3.7522162834
 10
-8.5098700289
 20
-3.7458282939
 10
-8.4903659703
 20
-3.7389183957
 10
-8.4710767071
 20
-3.7314849759
 10
-8.4520084726
 20
-3.723530789
 10
-8.4331816077
 20
-3.7150648888
 10
-8.4146089521
 20
-3.7060941859
  0
LWPOLYLINE
  5
337
100
AcDbEntity
  8
0
100
AcDbPolyline
 62
253
  6
CONTINUOUS
 90
13
 70
0
 10
10.4401289228
 20
-0.8136580667
 10
10.6327167004
 20
-0.8105739887
 10
10.8254120528
 20
-0.8012546493
 10
11.0173955523
 20
-0.7856509902
 10
11.2079964092
 20
-0.7637184143
 10
11.3961957571
 20
-0.7354750712
 10
11.580662427
 20
-0.7010563798
 10
11.7605103449
 20
-0.6605915172
 10
11.9349976957
 20
-0.6142063427
 10
12.1030834709
 20
-0.5621466511
 10
12.263948435
 20
-0.5046589707
 10
12.4169678617
 20
-0.4419611216
 10
12.5614636115
 20
-0.3743179515
  0
LWPOLYLINE
  5
338
100
AcDbEntity
  8
RACCORDO
100
AcDbPolyline
 62
7
  6
CONTINUOUS
 90
103
 70
0
 10
-10.11565424
 20
3.1158746955
 10
-10.0099560478
 20
3.0616168528
 10
-9.8931597913
 20
2.9983928148
 10
-9.77605758
 20
2.9315609445
 10
-9.6587405078
 20
2.8611460115
 10
-9.5412955064
 20
2.7871765244
 10
-9.4238088446
 20
2.7096836718
 10
-9.3063635606
 20
2.6286991108
 10
-9.1890443731
 20
2.5442605851
 10
-9.0719369348
 20
2.4564090305
 10
-8.9551250206
 20
2.3651863915
 10
-8.8386918028
 20
2.2706395427
 10
-8.7227190005
 20
2.1728168766
 10
-8.60728843
 20
2.0717690389
 10
-8.4924804
 20
1.9675505264
 10
-8.378371694
 20
1.8602151749
 10
-8.2650420775
 20
1.7498214798
 10
-8.1525691515
 20
1.6364310276
 10
-8.041024213
 20
1.5201015551
 10
-7.9304839383
 20
1.4008979022
 10
-7.8210236222
 20
1.2788885756
 10
-7.7127107172
 20
1.1541359281
 10
-7.6056159249
 20
1.0267071837
 10
-7.4998149129
 20
0.8966805462
 10
-7.395380836
 20
0.7641347012
 10
-7.2923818267
 20
0.629143942
 10
-7.1908892321
 20
0.4917919389
 10
-7.0909788157
 20
0.3521724896
 10
-6.9927171491
 20
0.2103694257
 10
-6.8961688078
 20
0.0664690813
 10
-6.8014040974
 20
-0.0794295599
 10
-6.7084851515
 20
-0.2272371993
 10
-6.6174719431
 20
-0.3768624293
 10
-6.5284291058
 20
-0.5282017925
 10
-6.4414139534
 20
-0.6811613123
 10
-6.3564815196
 20
-0.8356452462
 10
-6.2736905953
 20
-0.9915462742
 10
-6.1930933639
 20
-1.1487664261
 10
-6.1147395402
 20
-1.3072064655
 10
-6.0386817729
 20
-1.466756039
 10
-5.9649666978
 20
-1.6273141348
 10
-5.8936384911
 20
-1.788778615
 10
-5.8247436168
 20
-1.9510363643
 10
-5.7583227584
 20
-2.1139843124
 10
-5.69441432
 20
-2.2775179697
 10
-5.633058694
 20
-2.4415210561
 10
-5.5742903256
 20
-2.6058890737
 10
-5.5181414071
 20
-2.7705160843
 10
-5.464646023
 20
-2.9352826557
 10
-5.4138321608
 20
-3.1000831305
 10
-5.3657252233
 20
-3.2648114606
 10
-5.3203521714
 20
-3.4293467249
 10
-5.2777340804
 20
-3.5935832357
 10
-5.2378893423
 20
-3.7574154107
 10
-5.2008373283
 20
-3.9207217175
 10
-5.1665923528
 20
-4.0833948684
 10
-5.1351649037
 20
-4.2453331033
 10
-5.1065650665
 20
-4.4064224929
 10
-5.0807997841
 20
-4.5665576975
 10
-5.0578724852
 20
-4.7256387928
 10
-5.0377847602
 20
-4.8835592114
 10
-5.0205360004
 20
-5.0402186173
 10
-5.0061229418
 20
-5.1955171763
 10
-4.9945397705
 20
-5.3493483067
 10
-4.9857784357
 20
-5.5016127558
 10
-4.979827939
 20
-5.6522164177
 10
-4.9766742689
 20
-5.8010597142
 10
-4.976301556
 20
-5.9480330535
 10
-4.9786908877
 20
-6.0930613209
 10
-4.983822258
 20
-6.2360942659
 10
-4.9916742215
 20
-6.3770350002
 10
-5.0022233175
 20
-6.5158017791
 10
-5.0154480604
 20
-6.6523619502
 10
-5.0313224709
 20
-6.7866255014
 10
-5.0498184539
 20
-6.9185089997
 10
-5.0709132739
 20
-7.0479830941
 10
-5.0945735449
 20
-7.1749489179
 10
-5.1207682345
 20
-7.2993381934
 10
-5.1494816806
 20
-7.4211580875
 10
-5.1806789238
 20
-7.5403203723
 10
-5.2143246708
 20
-7.6567485127
 10
-5.2504081971
 20
-7.7704546595
 10
-5.2888852329
 20
-7.8813355206
 10
-5.3297232156
 20
-7.9893338355
 10
-5.3729379333
 20
-8.094513042
 10
-5.4184574202
 20
-8.1967111005
 10
-5.4662759625
 20
-8.295930192
 10
-5.5165361231
 20
-8.3924365348
 10
-5.5692366711
 20
-8.4861552002
 10
-5.6243385739
 20
-8.5769500869
 10
-5.6819627237
 20
-8.6649397182
 10
-5.7421311478
 20
-8.75004845
 10
-5.8048028227
 20
-8.8321160299
 10
-5.8700246971
 20
-8.9111050082
 10
-5.9377806786
 20
-8.986890858
 10
-6.0080772349
 20
-9.0593826278
 10
-6.0810167781
 20
-9.1285763649
 10
-6.1565933481
 20
-9.1943467862
 10
-6.2348406027
 20
-9.2566094306
 10
-6.3159585485
 20
-9.3153871944
 10
-6.4000518137
 20
-9.3705967254
 10
-6.4871094105
 20
-9.4220735153
 10
-6.5334355685
 20
-9.4472551547
  0
LWPOLYLINE
  5
339
100
AcDbEntity
  8
RACCORDO
100
AcDbPolyline
 62
253
  6
CONTINUOUS
 90
133
 70
0
 10
-10.3234982014
 20
3.5596523085
 10
-10.1906907118
 20
3.491325391
 10
-10.0579488096
 20
3.4191039884
 10
-9.9252723682
 20
3.3429881616
 10
-9.7925569804
 20
3.2629268421
 10
-9.659906545
 20
3.1789713428
 10
-9.5276332665
 20
3.091275358
 10
-9.3957380836
 20
2.9998232575
 10
-9.2642190363
 20
2.9046311626
 10
-9.133383861
 20
2.8059004534
 10
-9.003236354
 20
2.7036182525
 10
-8.8737712067
 20
2.597798165
 10
-8.7452824025
 20
2.4886813407
 10
-8.6177953958
 20
2.3762789867
 10
-8.4912827764
 20
2.2605808382
 10
-8.3659591632
 20
2.1417958708
 10
-8.2418415446
 20
2.0199378378
 10
-8.1189105734
 20
1.8949941243
 10
-7.9973263117
 20
1.7671341795
 10
-7.8770794806
 20
1.6363473405
 10
-7.7581766197
 20
1.5026455947
 10
-7.6408014884
 20
1.3662323834
 10
-7.5249434218
 20
1.2270899926
 10
-7.4106100172
 20
1.0852376226
 10
-7.2980124435
 20
0.9409340802
 10
-7.1871546625
 20
0.7941771144
 10
-7.0780294025
 20
0.644970584
 10
-6.9708310494
 20
0.4935824284
 10
-6.8655663771
 20
0.3400167226
 10
-6.76222513
 20
0.1842710882
 10
-6.6609762539
 20
0.0266037353
 10
-6.5618211975
 20
-0.1329873275
 10
-6.4647549126
 20
-0.2944983489
 10
-6.3699367406
 20
-0.4576625713
 10
-6.2773663337
 20
-0.6224858767
 10
-6.1870403918
 20
-0.7889605928
 10
-6.0991140179
 20
-0.9567997208
 10
-6.0135894602
 20
-1.1260056317
 10
-5.9304608606
 20
-1.2965741753
 10
-5.849871407
 20
-1.4682086875
 10
-5.771825289
 20
-1.6409069973
 10
-5.6963148236
 20
-1.8146695456
 10
-5.6234656765
 20
-1.9892037242
 10
-5.5532808748
 20
-2.1645089835
 10
-5.4857540732
 20
-2.3405842209
 10
-5.4209972006
 20
-2.5171361546
 10
-5.3590122073
 20
-2.6941681213
 10
-5.2997940606
 20
-2.8716752399
 10
-5.2434445806
 20
-3.0493520803
 10
-5.1899669051
 20
-3.2272012676
 10
-5.1393551264
 20
-3.4052187785
 10
-5.0916979136
 20
-3.5830894138
 10
-5.0470004327
 20
-3.7608094379
 10
-5.0052551349
 20
-3.9383813723
 10
-4.966532068
 20
-4.1154996236
 10
-4.9308360638
 20
-4.2921594485
 10
-4.8981603302
 20
-4.4683645791
 10
-4.8685579445
 20
-4.6438223642
 10
-4.8420327129
 20
-4.8185353282
 10
-4.8185793092
 20
-4.9925001487
 10
-4.7982376008
 20
-5.1654156451
 10
-4.7810128397
 20
-5.3372898599
 10
-4.7668987459
 20
-5.5081141934
 10
-4.7559184328
 20
-5.6775627716
 10
-4.7480784089
 20
-5.8456081628
 10
-4.743371733
 20
-6.0122775361
 10
-4.7418018583
 20
-6.1773271743
 10
-4.7433712866
 20
-6.3407557319
 10
-4.7480775169
 20
-6.5025645076
 10
-4.7559169465
 20
-6.6625139759
 10
-4.766896427
 20
-6.820624374
 10
-4.7810095409
 20
-6.9768756355
 10
-4.7982332943
 20
-7.1309680357
 10
-4.8185739773
 20
-7.2828883105
 10
-4.8420263262
 20
-7.4326501943
 10
-4.868550558
 20
-7.5799947332
 10
-4.8981520326
 20
-7.7249148882
 10
-4.9308269091
 20
-7.86741842
 10
-4.9665220931
 20
-8.0072688225
 10
-5.0052443727
 20
-8.1444648988
 10
-5.0469889199
 20
-8.2790087948
 10
-5.0916856808
 20
-8.4106692558
 10
-5.1393422081
 20
-8.5394436366
 10
-5.1899533317
 20
-8.6653357511
 10
-5.2434303649
 20
-8.7881242636
 10
-5.2997792252
 20
-8.90780209
 10
-5.3589967649
 20
-9.0243776862
 10
-5.4209811167
 20
-9.1376532406
 10
-5.4857372939
 20
-9.2476219757
 10
-5.5532633658
 20
-9.3542922071
 10
-5.6234474145
 20
-9.4574889517
 10
-5.6962957675
 20
-9.5572081335
 10
-5.7718054157
 20
-9.6534554946
 10
-5.8498507582
 20
-9.7460709445
 10
-5.9304394948
 20
-9.8350508221
 10
-6.013567419
 20
-9.9204005519
 10
-6.0990913575
 20
-10.0019738212
 10
-6.1870171966
 20
-10.0797643748
 10
-6.27734266
 20
-10.1537802988
 10
-6.3699125744
 20
-10.2238969193
 10
-6.4647302327
 20
-10.2901070733
 10
-6.56179599
 20
-10.3524197816
 10
-6.6609504564
 20
-10.410734746
 10
-6.7621986291
 20
-10.465046881
 10
-6.8655391104
 20
-10.5153631118
 10
-6.9708030589
 20
-10.5616012305
 10
-7.0780007118
 20
-10.6037569326
 10
-7.1871253134
 20
-10.6418363078
 10
-7.297982638
 20
-10.6757727944
 10
-7.4105800633
 20
-10.7055587881
 10
-7.5249135211
 20
-10.7312035949
 10
-7.6407716849
 20
-10.7526660545
 10
-7.7581470487
 20
-10.7699379831
 10
-7.8770501861
 20
-10.7830291457
 10
-7.997296906
 20
-10.7919253141
 10
-8.1188804981
 20
-10.7966239918
 10
-8.2418104123
 20
-10.7971290904
 10
-8.3659266668
 20
-10.7934359781
 10
-8.4912483677
 20
-10.7855403268
 10
-8.6177587676
 20
-10.7734476852
 10
-8.7452440515
 20
-10.7571682101
 10
-8.8737317006
 20
-10.7366869275
 10
-9.0031961892
 20
-10.7120198247
 10
-9.1333441231
 20
-10.6832234655
 10
-9.2641809987
 20
-10.6502809054
 10
-9.3957028317
 20
-10.6132098734
 10
-9.5276019107
 20
-10.5721188935
 10
-9.6598807743
 20
-10.5269911282
 10
-9.7925379054
 20
-10.4778439453
 10
-9.925259389
 20
-10.4248371138
 10
-10.0579407565
 20
-10.3680239781
 10
-10.190686985
 20
-10.3073514579
 10
-10.3234982014
 20
-10.2428196191
  0
LWPOLYLINE
  5
33A
100
AcDbEntity
  8
ASSI
100
AcDbPolyline
 62
7
  6
CONTINUOUS
 90
6
 70
0
 10
-0.6461803418
 20
24.4879639713
 10
-0.6462371515
 20
24.4892472655
 10
-0.6470473779
 20
24.4926849394
 10
-0.6487750576
 20
24.4955069008
 10
-0.6513752244
 20
24.497764189
 10
-0.6529921078
 20
24.4986903234
  0
LWPOLYLINE
  5
33B
100
AcDbEntity
  8
RACCORDO
100
AcDbPolyline
 62
7
  6
CONTINUOUS
 90
23
 70
0
 10
0.5277866319
 20
16.8391940888
 10
0.5281050399
 20
16.8265805365
 10
0.5290636566
 20
16.8139575883
 10
0.5306654308
 20
16.8013640481
 10
0.5329095908
 20
16.7888429747
 10
0.5357936308
 20
16.7764295496
 10
0.539315455
 20
16.7641507827
 10
0.5434688202
 20
16.7520438559
 10
0.548243675
 20
16.7401484886
 10
0.5536314699
 20
16.7284942092
 10
0.5596198305
 20
16.7171152343
 10
0.5661918716
 20
16.7060488395
 10
0.5733313054
 20
16.695326026
 10
0.5810210985
 20
16.6849756567
 10
0.5892384183
 20
16.6750308435
 10
0.597957452
 20
16.6655235211
 10
0.607158668
 20
16.6564754584
 10
0.6168151175
 20
16.6479137407
 10
0.6268895194
 20
16.6398700776
 10
0.6373620691
 20
16.6323585451
 10
0.6482047592
 20
16.6253985363
 10
0.659368509
 20
16.6190188218
 10
0.6659895589
 20
16.6155841284
  0
LWPOLYLINE
  5
33C
100
AcDbEntity
  8
RACCORDO
100
AcDbPolyline
 62
253
  6
CONTINUOUS
 90
18
 70
0
 10
1.9259946164
 20
-25.5512646723
 10
1.9262351977
 20
-25.5624360005
 10
1.9269562889
 20
-25.5733363659
 10
1.9281559307
 20
-25.5839360972
 10
1.9298308632
 20
-25.5942063514
 10
1.9319765297
 20
-25.6041191599
 10
1.9345870843
 20
-25.6136475091
 10
1.9376554178
 20
-25.6227654577
 10
1.9411731791
 20
-25.6314481959
 10
1.9451307883
 20
-25.6396720836
 10
1.9495174702
 20
-25.6474147373
 10
1.9543212832
 20
-25.6546550864
 10
1.9595291478
 20
-25.6613734237
 10
1.9651268932
 20
-25.6675514731
 10
1.9710992748
 20
-25.6731724139
 10
1.9774300091
 20
-25.6782209318
 10
1.98410183
 20
-25.6826832786
 10
1.9909619079
 20
-25.6864801197
  0
LWPOLYLINE
  5
33D
100
AcDbEntity
  8
RACCORDO
100
AcDbPolyline
 62
253
  6
CONTINUOUS
 90
19
 70
0
 10
0.6010099366
 20
16.7508057411
 10
0.6012288078
 20
16.7401447489
 10
0.6018853635
 20
16.7297233323
 10
0.6029787012
 20
16.719567755
 10
0.604507151
 20
16.7097019009
 10
0.6064674696
 20
16.7001527042
 10
0.6088540527
 20
16.6909494681
 10
0.6116603854
 20
16.6821167415
 10
0.6148799025
 20
16.6736747007
 10
0.6185046717
 20
16.6656441862
 10
0.6225257548
 20
16.6580451009
 10
0.6269331279
 20
16.6508964791
 10
0.6317157558
 20
16.6442162515
 10
0.6368617287
 20
16.6380210504
 10
0.6423582576
 20
16.6323262702
 10
0.6481916009
 20
16.6271461339
 10
0.6543471897
 20
16.6224935425
 10
0.6608097449
 20
16.61838001
 10
0.6659832351
 20
16.61558729
  0
LWPOLYLINE
  5
33E
100
AcDbEntity
  8
RACCORDO
100
AcDbPolyline
 62
253
  6
CONTINUOUS
 90
19
 70
0
 10
1.9259946164
 20
16.0883134012
 10
1.9262134876
 20
16.077652409
 10
1.9268700433
 20
16.0672309924
 10
1.927963381
 20
16.0570754151
 10
1.9294918308
 20
16.047209561
 10
1.9314521494
 20
16.0376603643
 10
1.9338387325
 20
16.0284571282
 10
1.9366450653
 20
16.0196244016
 10
1.9398645823
 20
16.0111823608
 10
1.9434893515
 20
16.0031518463
 10
1.9475104346
 20
15.995552761
 10
1.9519178078
 20
15.9884041392
 10
1.9567004356
 20
15.9817239116
 10
1.9618464085
 20
15.9755287105
 10
1.9673429374
 20
15.9698339303
 10
1.9731762807
 20
15.964653794
 10
1.9793318695
 20
15.9600012026
 10
1.9857944247
 20
15.9558876701
 10
1.990967915
 20
15.95309495
  0
LWPOLYLINE
  5
33F
100
AcDbEntity
  8
RACCORDO
100
AcDbPolyline
 62
7
  6
CONTINUOUS
 90
24
 70
0
 10
1.6524110062
 20
23.5785784548
 10
1.6518378217
 20
23.6130508609
 10
1.6501387088
 20
23.6468007819
 10
1.6473136672
 20
23.6798282177
 10
1.6433532326
 20
23.7121897751
 10
1.6382668695
 20
23.7438288473
 10
1.6320829712
 20
23.7745756138
 10
1.6248003557
 20
23.8044111412
 10
1.6164202051
 20
23.833354363
 10
1.6069744578
 20
23.8612922589
 10
1.5964505993
 20
23.8882384217
 10
1.5848611443
 20
23.9141792587
 10
1.5722755755
 20
23.9389609716
 10
1.5587003896
 20
23.962558273
 10
1.5441290901
 20
23.9849964503
 10
1.5286116701
 20
24.0061975675
 10
1.5121283827
 20
24.0261746575
 10
1.4946989748
 20
24.0449146873
 10
1.4764326802
 20
24.0623006229
 10
1.4573440243
 20
24.0783095492
 10
1.4374184816
 20
24.0929643813
 10
1.4167217091
 20
24.1062168296
 10
1.3952291945
 20
24.1180726909
 10
-1.4811074792
 20
25.556264905
  0
LINE
  5
340
100
AcDbEntity
  8
RACCORDO
100
AcDbLine
 62
7
  6
CONTINUOUS
 10
0.5277866319
 20
17.1791680229
 11
0.5277866319
 21
16.8391940888
  0
LINE
  5
341
100
AcDbEntity
  8
RACCORDO
100
AcDbLine
 62
7
  6
CONTINUOUS
 10
0.5277866319
 20
-24.6837871894
 11
0.5277866319
 21
-24.8003839848
  0
LINE
  5
342
100
AcDbEntity
  8
RACCORDO
100
AcDbLine
 62
253
  6
CONTINUOUS
 10
0.6010099366
 20
17.0907796752
 11
0.6010099366
 21
16.7508057411
  0
LINE
  5
343
100
AcDbEntity
  8
RACCORDO
100
AcDbLine
 62
253
  6
CONTINUOUS
 10
0.6010099366
 20
-24.6536178984
 11
0.6010099366
 21
-24.8887723324
  0
LINE
  5
344
100
AcDbEntity
  8
RACCORDO
100
AcDbLine
 62
7
  6
CONTINUOUS
 10
1.2307795862
 20
15.8792169215
 11
1.2307795862
 21
16.3331891144
  0
LINE
  5
345
100
AcDbEntity
  8
RACCORDO
100
AcDbLine
 62
253
  6
CONTINUOUS
 10
1.3040028909
 20
15.7875033179
 11
1.3040028909
 21
16.2965774621
  0
LINE
  5
346
100
AcDbEntity
  8
RACCORDO
100
AcDbLine
 62
7
  6
CONTINUOUS
 10
1.6524110062
 20
23.5785784548
 11
1.6524110062
 21
23.3077781621
  0
LINE
  5
347
100
AcDbEntity
  8
RACCORDO
100
AcDbLine
 62
253
  6
CONTINUOUS
 10
1.9259946164
 20
-25.5512646723
 11
1.9259946164
 21
-25.2112907382
  0
LINE
  5
348
100
AcDbEntity
  8
RACCORDO
100
AcDbLine
 62
253
  6
CONTINUOUS
 10
1.9259946164
 20
16.0883134012
 11
1.9259946164
 21
16.4282873353
  0
LINE
  5
349
100
AcDbEntity
  8
RACCORDO
100
AcDbLine
 62
253
  6
CONTINUOUS
 10
2.2785165761
 20
-25.5517773962
 11
2.2785165761
 21
-25.211803462
  0
LINE
  5
34A
100
AcDbEntity
  8
RACCORDO
100
AcDbLine
 62
253
  6
CONTINUOUS
 10
2.2785165761
 20
16.0878006773
 11
2.2785165761
 21
16.4277746115
  0
LWPOLYLINE
  5
34B
100
AcDbEntity
  8
RACCORDO
100
AcDbPolyline
 62
253
  6
CONTINUOUS
 90
31
 70
0
 10
0.6010099366
 20
17.0907796752
 10
0.6012504121
 20
17.1021890511
 10
0.6019711843
 20
17.1138078613
 10
0.6031702922
 20
17.125604495
 10
0.6048444735
 20
17.1375468572
 10
0.6069891732
 20
17.1496024569
 10
0.6095985563
 20
17.1617384948
 10
0.6126655237
 20
17.1739219526
 10
0.6161817309
 20
17.1861196833
 10
0.6201376118
 20
17.1982985008
 10
0.6245224034
 20
17.2104252705
 10
0.6293241764
 20
17.2224669997
 10
0.6345298667
 20
17.2343909266
 10
0.6401253113
 20
17.2461646103
 10
0.6460952868
 20
17.2577560183
 10
0.652423551
 20
17.2691336145
 10
0.6590928867
 20
17.280266444
 10
0.6660851488
 20
17.2911242181
 10
0.6733813138
 20
17.3016773963
 10
0.6809615311
 20
17.3118972671
 10
0.6888051775
 20
17.3217560255
 10
0.696890913
 20
17.331226849
 10
0.7051967391
 20
17.3402839708
 10
0.7137000582
 20
17.3489027492
 10
0.7223777358
 20
17.3570597356
 10
0.7312061626
 20
17.3647327375
 10
0.7401613195
 20
17.3719008791
 10
0.7492188425
 20
17.3785446582
 10
0.7583540889
 20
17.3846459995
 10
0.7675422049
 20
17.3901883031
 10
0.7767581926
 20
17.3951564902
  0
LWPOLYLINE
  5
34C
100
AcDbEntity
  8
RACCORDO
100
AcDbPolyline
 62
253
  6
CONTINUOUS
 90
31
 70
0
 10
1.9259946164
 20
16.4282873353
 10
1.9262351977
 20
16.4396992447
 10
1.9269562889
 20
16.4513207014
 10
1.9281559307
 20
16.4631200745
 10
1.9298308632
 20
16.4750652611
 10
1.9319765297
 20
16.4871237362
 10
1.9345870843
 20
16.4992626399
 10
1.9376554178
 20
16.5114489221
 10
1.9411731791
 20
16.5236494215
 10
1.9451307883
 20
16.5358309184
 10
1.9495174702
 20
16.547960254
 10
1.9543212832
 20
16.5600044162
 10
1.9595291478
 20
16.5719306182
 10
1.9651268932
 20
16.5837064129
 10
1.9710992748
 20
16.5952997353
 10
1.9774300091
 20
16.6066789875
 10
1.98410183
 20
16.6178131552
 10
1.9910965984
 20
16.6286719868
 10
1.9983953352
 20
16.6392260228
 10
2.0059782778
 20
16.6494466656
 10
2.0138246962
 20
16.6593059544
 10
2.0219129875
 20
16.6687767707
 10
2.0302209552
 20
16.6778331987
 10
2.0387261276
 20
16.6864508153
 10
2.0474055903
 20
16.6946064292
 10
2.0562376808
 20
16.7022794777
 10
2.0651964638
 20
16.7094472253
 10
2.0742518007
 20
16.7160861318
 10
2.0833769695
 20
16.7221779292
 10
2.0925489741
 20
16.7277085765
 10
2.1017428724
 20
16.7326641503
  0
LWPOLYLINE
  5
34D
100
AcDbEntity
  8
RACCORDO
100
AcDbPolyline
 62
253
  6
CONTINUOUS
 90
21
 70
0
 10
-1.2751074098
 20
-25.2140334129
 10
-1.2764180805
 20
-25.2348332102
 10
-1.2785106578
 20
-25.2551784872
 10
-1.2813803952
 20
-25.2750232269
 10
-1.2850208057
 20
-25.294322547
 10
-1.2894236245
 20
-25.3130327983
 10
-1.2945788305
 20
-25.3311116608
 10
-1.3004747517
 20
-25.3485182462
 10
-1.3070980441
 20
-25.3652131896
 10
-1.3144336746
 20
-25.381158731
 10
-1.3224650399
 20
-25.3963188065
 10
-1.3311739714
 20
-25.4106591336
 10
-1.3405407355
 20
-25.4241472803
 10
-1.3505441358
 20
-25.4367527393
 10
-1.3611615477
 20
-25.4484470053
 10
-1.3723689425
 20
-25.459203634
 10
-1.3841409618
 20
-25.4689982938
 10
-1.3964509834
 20
-25.4778088348
 10
-1.4092711746
 20
-25.4856153377
 10
-1.4225725299
 20
-25.4924001403
 10
-1.4291608715
 20
-25.4953067869
  0
LWPOLYLINE
  5
34E
100
AcDbEntity
  8
0
100
AcDbPolyline
 62
253
  6
CONTINUOUS
 90
4
 70
0
 10
6.7779361964
 20
14.7715982762
 10
6.7916534747
 20
14.8122208451
 10
6.7986356802
 20
14.8532701598
 10
6.7995874587
 20
14.8750798534
  0
LWPOLYLINE
  5
34F
100
AcDbEntity
  8
0
100
AcDbPolyline
 62
7
  6
CONTINUOUS
 90
10
 70
0
 10
14.4830776364
 20
7.2886540352
 10
14.5274351978
 20
7.3160958768
 10
14.5671123563
 20
7.3452383128
 10
14.602109112
 20
7.3760813432
 10
14.6325998591
 20
7.4088448965
 10
14.6584102034
 20
7.4433090443
 10
14.6790169616
 20
7.4788140014
 10
14.6943402778
 20
7.5154255778
 10
14.7044600079
 20
7.5530779635
 10
14.7082914584
 20
7.5795480986
  0
LINE
  5
350
100
AcDbEntity
  8
0
100
AcDbLine
 62
7
  6
CONTINUOUS
 10
12.0651086145
 20
5.9244692605
 11
14.4830484869
 21
7.288637591
  0
LWPOLYLINE
  5
351
100
AcDbEntity
  8
0
100
AcDbPolyline
 62
253
  6
CONTINUOUS
 90
13
 70
0
 10
10.086589568
 20
3.8942072192
 10
9.9466307239
 20
3.8185669234
 10
9.8079421468
 20
3.7323719775
 10
9.6711095504
 20
3.6361477638
 10
9.5370636929
 20
3.5307568343
 10
9.4059628079
 20
3.4165331376
 10
9.2772621459
 20
3.2930258919
 10
9.1511445888
 20
3.1602348488
 10
9.0285963613
 20
3.019017075
 10
8.9103218408
 20
2.8700774737
 10
8.796905364
 20
2.7140714878
 10
8.6888253335
 20
2.551572998
 10
8.586589568
 20
2.3832483149
  0
LINE
  5
352
100
AcDbEntity
  8
0
100
AcDbLine
 62
253
  6
CONTINUOUS
 10
15.446807909
 20
6.5596545002
 11
13.0147852202
 21
5.2464698064
  0
LINE
  5
353
100
AcDbEntity
  8
0
100
AcDbLine
 62
7
  6
CONTINUOUS
 10
12.0651086154
 20
5.6612843694
 11
9.3087719415
 21
4.2831160325
  0
LINE
  5
354
100
AcDbEntity
  8
0
100
AcDbLine
 62
253
  6
CONTINUOUS
 10
12.8700882343
 20
5.2859565523
 11
10.086589568
 21
3.8942072192
  0
LWPOLYLINE
  5
355
100
AcDbEntity
  8
0
100
AcDbPolyline
 62
253
  6
CONTINUOUS
 90
8
 70
0
 10
-9.5388635043
 20
-1.6743731004
 10
-9.4793908566
 20
-1.657705978
 10
-9.4168423412
 20
-1.64910169
 10
-9.3516939901
 20
-1.6486257203
 10
-9.2844416216
 20
-1.6562816913
 10
-9.2155970669
 20
-1.6720113364
 10
-9.1456842745
 20
-1.6956949435
 10
-9.0752353231
 20
-1.7271522661
  0
LINE
  5
356
100
AcDbEntity
  8
0
100
AcDbLine
 62
253
  6
CONTINUOUS
 10
8.8349943454
 20
-2.2607863998
 11
8.7109839843
 21
-2.2141414846
  0
LWPOLYLINE
  5
357
100
AcDbEntity
  8
0
100
AcDbPolyline
 62
253
  6
CONTINUOUS
 90
22
 70
0
 10
8.1472497398
 20
-1.4799335426
 10
8.2323585525
 20
-1.5183554077
 10
8.3159329986
 20
-1.5485521796
 10
8.3979730782
 20
-1.5705238582
 10
8.4788945178
 20
-1.584267995
 10
8.5582815909
 20
-1.5897870385
 10
8.6348871179
 20
-1.5870883341
 10
8.7086654242
 20
-1.5760565387
 10
8.7796621845
 20
-1.5568069952
 10
8.8467672435
 20
-1.529693078
 10
8.9099241339
 20
-1.4946053099
 10
8.969189323
 20
-1.451653168
 10
9.0236220582
 20
-1.4015184581
 10
9.0731560046
 20
-1.3440988543
 10
9.117857497
 20
-1.2794966825
 10
9.1569847876
 20
-1.2087007256
 10
9.1904622607
 20
-1.1316181587
 10
9.2183655321
 20
-1.0483418067
 10
9.2401797014
 20
-0.9601389274
 10
9.2557331352
 20
-0.8674319401
 10
9.2651974669
 20
-0.7697984256
 10
9.2685726966
 20
-0.6672383838
  0
LINE
  5
358
100
AcDbEntity
  8
0
100
AcDbLine
 62
253
  6
CONTINUOUS
 10
8.7109839843
 20
-2.2141414846
 11
8.586589568
 21
-2.1570622975
  0
LWPOLYLINE
  5
359
100
AcDbEntity
  8
0
100
AcDbPolyline
 62
253
  6
CONTINUOUS
 90
25
 70
0
 10
8.354356521
 20
-1.9887525877
 10
8.4603959652
 20
-2.0375207648
 10
8.5659813322
 20
-2.077577019
 10
8.6706604893
 20
-2.1087498233
 10
8.7739851842
 20
-2.130905691
 10
8.8755129647
 20
-2.1439497472
 10
8.9748090734
 20
-2.1478261354
 10
9.071448309
 20
-2.1425182561
 10
9.1650168474
 20
-2.1280488386
 10
9.2551140139
 20
-2.1044798431
 10
9.3413539985
 20
-2.0719121958
 10
9.4233675084
 20
-2.0304853561
 10
9.5008033491
 20
-1.9803767203
 10
9.5733299285
 20
-1.9218008612
 10
9.6406366767
 20
-1.8550086097
 10
9.7024353757
 20
-1.7802859803
 10
9.7584613941
 20
-1.697952947
 10
9.8084748199
 20
-1.6083620723
 10
9.8522614879
 20
-1.5118969981
 10
9.8896330115
 20
-1.4089735541
 10
9.9204305867
 20
-1.3000300353
 10
9.9445239522
 20
-1.1855238117
 10
9.9618087078
 20
-1.0659408636
 10
9.9722085033
 20
-0.9417952024
 10
9.9756771722
 20
-0.8136176866
  0
LINE
  5
35A
100
AcDbEntity
  8
0
100
AcDbLine
 62
7
  6
CONTINUOUS
 10
8.7449487815
 20
-2.2532265634
 11
7.967131155
 21
-1.8643177501
  0
LINE
  5
35B
100
AcDbEntity
  8
0
100
AcDbLine
 62
253
  6
CONTINUOUS
 10
8.586589568
 20
-2.1570622975
 11
7.8087719415
 21
-1.7681534842
  0
LINE
  5
35C
100
AcDbEntity
  8
0
100
AcDbLine
 62
253
  6
CONTINUOUS
 10
7.5765388944
 20
-1.5998437744
 11
8.354356521
 21
-1.9887525877
  0
LWPOLYLINE
  5
35D
100
AcDbEntity
  8
0
100
AcDbPolyline
 62
7
  6
CONTINUOUS
 90
3
 70
0
 10
7.9679381624
 20
-1.8646099259
 10
7.9108823577
 20
-1.834014773
 10
7.808771942
 20
-1.7681534845
  0
LWPOLYLINE
  5
35E
100
AcDbEntity
  8
RACCORDO
100
AcDbPolyline
 62
7
  6
CONTINUOUS
 90
15
 70
0
 10
7.2244391419
 20
-14.4826256711
 10
7.2196849659
 20
-14.4722070822
 10
7.2139422162
 20
-14.4616538507
 10
7.2071941832
 20
-14.4509898441
 10
7.1994458289
 20
-14.4402405956
 10
7.1906631398
 20
-14.4294364969
 10
7.180769994
 20
-14.4186121161
 10
7.1697482096
 20
-14.4078011577
 10
7.1575896079
 20
-14.3970419362
 10
7.1442307752
 20
-14.3863800209
 10
7.1296817303
 20
-14.3758751376
 10
7.1139165532
 20
-14.3655592227
 10
7.0968105174
 20
-14.3554434614
 10
7.0783266581
 20
-14.3455755071
 10
7.0761925865
 20
-14.3444992445
  0
LWPOLYLINE
  5
35F
100
AcDbEntity
  8
RACCORDO
100
AcDbPolyline
 62
253
  6
CONTINUOUS
 90
31
 70
0
 10
2.2785165761
 20
16.4277746115
 10
2.2782215992
 20
16.4392003192
 10
2.277445746
 20
16.4508383723
 10
2.2761911429
 20
16.4626568731
 10
2.2744612286
 20
16.4746234294
 10
2.2722607444
 20
16.486705243
 10
2.2695957215
 20
16.4988692
 10
2.2664734642
 20
16.5110819612
 10
2.26290253
 20
16.5233100537
 10
2.2588927062
 20
16.5355199627
 10
2.2544549829
 20
16.547678223
 10
2.2496015232
 20
16.5597515112
 10
2.2443456293
 20
16.5717067366
 10
2.2387017069
 20
16.5835111322
 10
2.2326852247
 20
16.5951323444
 10
2.2263126728
 20
16.6065385216
 10
2.2196015173
 20
16.6176984016
 10
2.2125701521
 20
16.6285813973
 10
2.2052378488
 20
16.6391576805
 10
2.197624704
 20
16.6493982634
 10
2.1897515839
 20
16.6592750787
 10
2.1816400671
 20
16.6687610558
 10
2.1733123859
 20
16.6778301954
 10
2.1647913648
 20
16.6864576407
 10
2.1561003584
 20
16.6946197455
 10
2.1472631871
 20
16.702294139
 10
2.1383040719
 20
16.7094597872
 10
2.129247568
 20
16.7160970503
 10
2.1201184977
 20
16.7221877368
 10
2.1109418821
 20
16.7277151533
 10
2.1017428724
 20
16.7326641503
  0
LWPOLYLINE
  5
360
100
AcDbEntity
  8
RACCORDO
100
AcDbPolyline
 62
7
  6
CONTINUOUS
 90
23
 70
0
 10
4.4802623957
 20
-24.0653275889
 10
4.4799439877
 20
-24.0527140366
 10
4.478985371
 20
-24.0400910885
 10
4.4773835967
 20
-24.0274975483
 10
4.4751394368
 20
-24.0149764749
 10
4.4722553968
 20
-24.0025630498
 10
4.4687335726
 20
-23.9902842829
 10
4.4645802074
 20
-23.9781773561
 10
4.4598053525
 20
-23.9662819888
 10
4.4544175577
 20
-23.9546277093
 10
4.4484291971
 20
-23.9432487345
 10
4.4418571559
 20
-23.9321823397
 10
4.4347177221
 20
-23.9214595262
 10
4.4270279291
 20
-23.9111091568
 10
4.4188106093
 20
-23.9011643436
 10
4.4100915756
 20
-23.8916570213
 10
4.4008903595
 20
-23.8826089585
 10
4.39123391
 20
-23.8740472409
 10
4.3811595082
 20
-23.8660035778
 10
4.3706869584
 20
-23.8584920453
 10
4.3598442684
 20
-23.8515320365
 10
4.3486805186
 20
-23.845152322
 10
4.3420594686
 20
-23.8417176285
  0
LWPOLYLINE
  5
361
100
AcDbEntity
  8
RACCORDO
100
AcDbPolyline
 62
7
  6
CONTINUOUS
 90
34
 70
0
 10
3.8797973669
 20
17.230496615
 10
3.8795973109
 20
17.2408984236
 10
3.8789970734
 20
17.2514767916
 10
3.8779981154
 20
17.2622078097
 10
3.8766028799
 20
17.2730672629
 10
3.8748145316
 20
17.2840305553
 10
3.8726369503
 20
17.2950727663
 10
3.8700751258
 20
17.3061689132
 10
3.8671349515
 20
17.3172939066
 10
3.8638229565
 20
17.328422477
 10
3.8601466794
 20
17.3395294349
 10
3.8561145192
 20
17.350589656
 10
3.8517355219
 20
17.3615780373
 10
3.8470196213
 20
17.3724696949
 10
3.8419775513
 20
17.383239982
 10
3.8366206907
 20
17.3938644733
 10
3.8309611664
 20
17.4043190978
 10
3.8250118285
 20
17.4145801879
 10
3.8187861567
 20
17.4246244943
 10
3.8122982242
 20
17.4344292492
 10
3.8055627353
 20
17.4439722463
 10
3.7985949961
 20
17.4532318865
 10
3.7914107391
 20
17.4621871689
 10
3.7840262234
 20
17.4708178009
 10
3.7764582691
 20
17.4791042737
 10
3.7687239476
 20
17.487027781
 10
3.7608407416
 20
17.494570357
 10
3.7528266421
 20
17.5017149808
 10
3.7446997118
 20
17.5084454236
 10
3.7364783007
 20
17.5147464121
 10
3.728181204
 20
17.5206037594
 10
3.7198272107
 20
17.5260041962
 10
3.7114350615
 20
17.5309354008
 10
3.7030236632
 20
17.5353861538
  0
LINE
  5
362
100
AcDbEntity
  8
RACCORDO
100
AcDbLine
 62
253
  6
CONTINUOUS
 10
2.6372152245
 20
15.809717774
 11
2.6372152245
 21
15.1208971511
  0
LINE
  5
363
100
AcDbEntity
  8
RACCORDO
100
AcDbLine
 62
253
  6
CONTINUOUS
 10
2.6372152245
 20
-23.8099141482
 11
2.6372152245
 21
-24.234794261
  0
LINE
  5
364
100
AcDbEntity
  8
RACCORDO
100
AcDbLine
 62
253
  6
CONTINUOUS
 10
2.9897371842
 20
15.9392971545
 11
2.9897371842
 21
15.1316650327
  0
LINE
  5
365
100
AcDbEntity
  8
RACCORDO
100
AcDbLine
 62
253
  6
CONTINUOUS
 10
2.9897371842
 20
-23.6621387367
 11
2.9897371842
 21
-24.3603069849
  0
LINE
  5
366
100
AcDbEntity
  8
RACCORDO
100
AcDbLine
 62
7
  6
CONTINUOUS
 10
3.8797973669
 20
-23.2885014144
 11
3.8797973669
 21
-24.7717427965
  0
LINE
  5
367
100
AcDbEntity
  8
RACCORDO
100
AcDbLine
 62
7
  6
CONTINUOUS
 10
3.8797973669
 20
15.628345954
 11
3.8797973669
 21
17.230496615
  0
LWPOLYLINE
  5
368
100
AcDbEntity
  8
RACCORDO
100
AcDbPolyline
 62
253
  6
CONTINUOUS
 90
22
 70
0
 10
1.9259946164
 20
-25.2112907382
 10
1.9262144711
 20
-25.200386227
 10
1.9268734884
 20
-25.1892889833
 10
1.9279700291
 20
-25.17802661
 10
1.92950136
 20
-25.1666271606
 10
1.9314636753
 20
-25.1551189507
 10
1.9338521211
 20
-25.1435304844
 10
1.9366607912
 20
-25.1318905024
 10
1.9398826967
 20
-25.1202280398
 10
1.9435097943
 20
-25.1085722339
 10
1.9475330739
 20
-25.0969520434
 10
1.9519425165
 20
-25.08539641
 10
1.956727053
 20
-25.0739343081
 10
1.9618746865
 20
-25.0625943974
 10
1.9673726544
 20
-25.051404717
 10
1.9732073882
 20
-25.0403928571
 10
1.9793656046
 20
-25.0295841256
 10
1.9858308788
 20
-25.0190075777
 10
1.9925832457
 20
-25.0086952566
 10
1.9996041045
 20
-24.9986741885
 10
2.0068768254
 20
-24.9889667833
 10
2.0143829641
 20
-24.9795965644
  0
LWPOLYLINE
  5
369
100
AcDbEntity
  8
RACCORDO
100
AcDbPolyline
 62
7
  6
CONTINUOUS
 90
4
 70
0
 10
4.480262388
 20
17.1463886646
 10
4.4802442868
 20
17.1459705769
 10
4.479825759
 20
17.1444282614
 10
4.4792073216
 20
17.1434652466
  0
LWPOLYLINE
  5
36A
100
AcDbEntity
  8
RACCORDO
100
AcDbPolyline
 62
253
  6
CONTINUOUS
 90
16
 70
0
 10
4.4802623957
 20
17.5818080672
 10
4.4799591746
 20
17.5756534229
 10
4.4789776688
 20
17.5691519137
 10
4.477319491
 20
17.5626848376
 10
4.4749891525
 20
17.5562697896
 10
4.4719929933
 20
17.5499242228
 10
4.4683391651
 20
17.5436654013
 10
4.4640376087
 20
17.5375103535
 10
4.4591000272
 20
17.5314758251
 10
4.4535398541
 20
17.5255782341
 10
4.4473722169
 20
17.5198336258
 10
4.4406138956
 20
17.5142576296
 10
4.4332832774
 20
17.5088654158
 10
4.4254003064
 20
17.5036716548
 10
4.4169864297
 20
17.4986904771
 10
4.4080645387
 20
17.493935435
  0
LWPOLYLINE
  5
36B
100
AcDbEntity
  8
0
100
AcDbPolyline
 62
253
  6
CONTINUOUS
 90
10
 70
0
 10
6.7986356802
 20
14.8382466351
 10
6.7916534747
 20
14.7971973205
 10
6.7779361964
 20
14.7565747516
 10
6.757576971
 20
14.7166547125
 10
6.7307140159
 20
14.6777082178
 10
6.6975297021
 20
14.6399996728
 10
6.6582493158
 20
14.6037850784
 10
6.6131395289
 20
14.5693102932
 10
6.562506589
 20
14.5368093642
 10
6.5066942398
 20
14.5065029382
  0
LWPOLYLINE
  5
36C
100
AcDbEntity
  8
0
100
AcDbPolyline
 62
7
  6
CONTINUOUS
 90
3
 70
0
 10
15.069449767
 20
18.2302868094
 10
15.0893792371
 20
18.2633165384
 10
15.1041831527
 20
18.2969444981
  0
LWPOLYLINE
  5
36D
100
AcDbEntity
  8
0
100
AcDbPolyline
 62
253
  6
CONTINUOUS
 90
3
 70
0
 10
15.2314801316
 20
16.6807089628
 10
15.2122669812
 20
16.6528754773
 10
15.1881399854
 20
16.6260393471
  0
LWPOLYLINE
  5
36E
100
AcDbEntity
  8
0
100
AcDbPolyline
 62
253
  6
CONTINUOUS
 90
40
 70
0
 10
-8.1042462239
 20
-7.5422939836
 10
-7.9940868869
 20
-7.482279382
 10
-7.8439480734
 20
-7.383056009
 10
-7.7028547231
 20
-7.2683205538
 10
-7.5713420514
 20
-7.1385082473
 10
-7.449908931
 20
-6.9941115122
 10
-7.3390159992
 20
-6.8356780946
 10
-7.2390839109
 20
-6.6638089867
 10
-7.1504917428
 20
-6.4791561471
 10
-7.0735755552
 20
-6.2824200271
 10
-7.0086271177
 20
-6.0743469142
 10
-6.955892802
 20
-5.855726101
 10
-6.9155726472
 20
-5.6273868912
 10
-6.8878196016
 20
-5.3901954536
 10
-6.8727389421
 20
-5.1450515365
 10
-6.8703878746
 20
-4.8928850548
 10
-6.8807753177
 20
-4.6346525623
 10
-6.9038618681
 20
-4.3713336234
 10
-6.9395599507
 20
-4.1039270969
 10
-6.9877341505
 20
-3.8334473474
 10
-7.0482017261
 20
-3.5609203973
 10
-7.1207333034
 20
-3.2873800346
 10
-7.2050537453
 20
-3.0138638916
 10
-7.3008431954
 20
-2.7414095087
 10
-7.4077382915
 20
-2.4710503987
 10
-7.5253335439
 20
-2.2038121264
 10
-7.6531828736
 20
-1.9407084179
 10
-7.7908013043
 20
-1.6827373159
 10
-7.937666802
 20
-1.4308773931
 10
-8.0932222558
 20
-1.1860840404
 10
-8.2568775903
 20
-0.9492858428
 10
-8.428012005
 20
-0.721381057
 10
-8.6059763283
 20
-0.5032342041
 10
-8.7900954807
 20
-0.2956727895
 10
-8.9796710351
 20
-0.0994841651
 10
-9.1739838664
 20
0.0845874588
 10
-9.3722968797
 20
0.2558438352
 10
-9.5738578056
 20
0.4136353301
 10
-9.7779020546
 20
0.5573633864
 10
-9.9836556169
 20
0.6864827943
  0
LINE
  5
36F
100
AcDbEntity
  8
0
100
AcDbLine
 62
7
  6
CONTINUOUS
 10
-8.1042462239
 20
-7.5422939836
 11
-4.9768047034
 21
-5.9785732233
  0
LWPOLYLINE
  5
370
100
AcDbEntity
  8
0
100
AcDbPolyline
 62
7
  6
CONTINUOUS
 90
16
 70
0
 10
-8.1042462239
 20
-7.5422939836
 10
-8.2433728672
 20
-7.6051386
 10
-8.3880358989
 20
-7.6572317288
 10
-8.5378600991
 20
-7.6982960375
 10
-8.6924071231
 20
-7.7280839811
 10
-8.8513173044
 20
-7.746407006
 10
-9.0143417076
 20
-7.7531007783
 10
-9.1812591595
 20
-7.7479893582
 10
-9.3515075206
 20
-7.7309252164
 10
-9.5243422008
 20
-7.7018714606
 10
-9.699407738
 20
-7.6608038326
 10
-9.87624513
 20
-7.6077420993
 10
-10.0539380938
 20
-7.542922316
 10
-10.2318969837
 20
-7.4665797746
 10
-10.4098701551
 20
-7.3788362078
 10
-10.5874398393
 20
-7.2798880134
  0
LWPOLYLINE
  5
371
100
AcDbEntity
  8
0
100
AcDbPolyline
 62
253
  6
CONTINUOUS
 90
13
 70
0
 10
-8.4204277359
 20
-6.978207171
 10
-8.57559617
 20
-7.0415026182
 10
-8.7257164571
 20
-7.0852871225
 10
-8.8815256548
 20
-7.1146832324
 10
-9.0424327254
 20
-7.1295794385
 10
-9.2078272932
 20
-7.1299192344
 10
-9.3770819601
 20
-7.115701331
 10
-9.5495546851
 20
-7.0869796617
 10
-9.72459122
 20
-7.0438631778
 10
-9.9015275914
 20
-6.9865154347
 10
-10.079692619
 20
-6.9151539722
 10
-10.2584104617
 20
-6.8300494886
 10
-10.4370031817
 20
-6.7315248145
  0
LINE
  5
372
100
AcDbEntity
  8
0
100
AcDbLine
 62
253
  6
CONTINUOUS
 10
8.1472497398
 20
-1.4799335426
 11
7.3694321133
 21
-1.0910247293
  0
LWPOLYLINE
  5
373
100
AcDbEntity
  8
RACCORDO
100
AcDbPolyline
 62
7
  6
CONTINUOUS
 90
3
 70
0
 10
-16.7593217146
 20
13.4770684332
 10
-16.7453221142
 20
13.4693399079
 10
-16.7417736879
 20
13.4675400114
  0
LWPOLYLINE
  5
374
100
AcDbEntity
  8
RACCORDO
100
AcDbPolyline
 62
7
  6
CONTINUOUS
 90
5
 70
0
 10
-3.5795876483
 20
6.8872014001
 10
-3.5931321864
 20
6.8956984924
 10
-3.6061961608
 20
6.9048803176
 10
-3.6187724276
 20
6.9146704986
 10
-3.6308676525
 20
6.9249801332
  0
LWPOLYLINE
  5
375
100
AcDbEntity
  8
0
100
AcDbPolyline
 62
253
  6
CONTINUOUS
 90
3
 70
0
 10
8.586589568
 20
-2.1570622975
 10
8.6861891838
 20
-2.2216364445
 10
8.7444657709
 20
-2.2529849132
  0
LINE
  5
376
100
AcDbEntity
  8
0
100
AcDbLine
 62
7
  6
CONTINUOUS
 10
7.808771942
 20
-1.7681534845
 11
7.576538895
 21
-1.5998437747
  0
LINE
  5
377
100
AcDbEntity
  8
0
100
AcDbLine
 62
253
  6
CONTINUOUS
 10
8.354356521
 20
-1.9887525877
 11
8.586589568
 21
-2.1570622975
  0
LWPOLYLINE
  5
378
100
AcDbEntity
  8
0
100
AcDbPolyline
 62
7
  6
CONTINUOUS
 90
10
 70
0
 10
7.576538895
 20
-1.5998437747
 10
7.5344490672
 20
-1.5643891632
 10
7.4969942443
 20
-1.5233339376
 10
7.4641744261
 20
-1.476678098
 10
7.4358102982
 20
-1.4239811049
 10
7.4120811751
 20
-1.3656834978
 10
7.3935250007
 20
-1.3031068949
 10
7.3803210897
 20
-1.2366918356
 10
7.3722901274
 20
-1.1659977805
 10
7.3694321138
 20
-1.0910247296
  0
LWPOLYLINE
  5
379
100
AcDbEntity
  8
RACCORDO
100
AcDbPolyline
 62
7
  6
CONTINUOUS
 90
6
 70
0
 10
-3.6308676525
 20
6.9249801332
 10
-3.6424848746
 20
6.9357416728
 10
-3.6536056076
 20
6.9469263447
 10
-3.6642191347
 20
6.9584902922
 10
-3.6743394408
 20
6.9703587198
 10
-3.6839761386
 20
6.9824707523
  0
LWPOLYLINE
  5
37A
100
AcDbEntity
  8
RACCORDO
100
AcDbPolyline
 62
253
  6
CONTINUOUS
 90
11
 70
0
 10
-2.3973127493
 20
12.8738597845
 10
-2.4070762944
 20
12.8950303347
 10
-2.4194735054
 20
12.9180640366
 10
-2.433242235
 20
12.9402662842
 10
-2.44823163
 20
12.9613938152
 10
-2.4642774661
 20
12.9812151488
 10
-2.481203943
 20
12.9995131127
 10
-2.4988256046
 20
13.0160872192
 10
-2.5169493815
 20
13.030755873
 10
-2.5353767066
 20
13.0433583592
 10
-2.5539056847
 20
13.0537565977
  0
LWPOLYLINE
  5
37B
100
AcDbEntity
  8
RACCORDO
100
AcDbPolyline
 62
7
  6
CONTINUOUS
 90
34
 70
0
 10
4.2222098831
 20
15.06852255
 10
4.2215179938
 20
15.0870923546
 10
4.2201233075
 20
15.105986847
 10
4.2180281189
 20
15.1251626405
 10
4.2152359633
 20
15.1445754068
 10
4.2117526849
 20
15.1641809622
 10
4.2075863708
 20
15.1839353814
 10
4.2027448766
 20
15.2037930807
 10
4.197239006
 20
15.2237089829
 10
4.1910834699
 20
15.2436396189
 10
4.1842914465
 20
15.2635395018
 10
4.1768773091
 20
15.2833630923
 10
4.168859645
 20
15.3030669706
 10
4.160255818
 20
15.3226061889
 10
4.1510843659
 20
15.3419360903
 10
4.1413675718
 20
15.3610142497
 10
4.131126696
 20
15.379797166
 10
4.1203840241
 20
15.3982419187
 10
4.1091651265
 20
15.4163079309
 10
4.0974947494
 20
15.433954008
 10
4.0853984831
 20
15.4511398086
 10
4.0729046921
 20
15.4678274139
 10
4.0600411248
 20
15.4839787503
 10
4.0468361741
 20
15.4995568515
 10
4.0333204452
 20
15.5145272156
 10
4.019524147
 20
15.5288556428
 10
4.005477917
 20
15.5425092767
 10
3.9912140007
 20
15.5554577271
 10
3.9767705699
 20
15.5676664777
 10
3.9621739413
 20
15.5791129597
 10
3.9474386901
 20
15.5897841632
 10
3.9325914928
 20
15.5996564985
 10
3.9176717208
 20
15.6086992058
 10
3.9027131721
 20
15.6168880514
  0
LWPOLYLINE
  5
37C
100
AcDbEntity
  8
ASSI
100
AcDbPolyline
 62
7
  6
CONTINUOUS
 90
6
 70
0
 10
4.9088080968
 20
21.7104650956
 10
4.9087696344
 20
21.7115253927
 10
4.9080213971
 20
21.7149880842
 10
4.9063595296
 20
21.7178382856
 10
4.9038288118
 20
21.720126151
 10
4.9019922559
 20
21.7211981326
  0
LWPOLYLINE
  5
37D
100
AcDbEntity
  8
0
100
AcDbPolyline
 62
253
  6
CONTINUOUS
 90
16
 70
0
 10
5.4144686427
 20
13.9754136643
 10
5.4118373998
 20
14.0513705877
 10
5.4039632193
 20
14.129393719
 10
5.3909046524
 20
14.2089024018
 10
5.3727588267
 20
14.289304949
 10
5.3496607467
 20
14.3700029421
 10
5.3217823107
 20
14.4503956845
 10
5.28933098
 20
14.5298848413
 10
5.2525482459
 20
14.6078788122
 10
5.2117078846
 20
14.6837970363
 10
5.1671138434
 20
14.7570744777
 10
5.1190980064
 20
14.8271657553
 10
5.0680177768
 20
14.8935491362
 10
5.0142533258
 20
14.9557305535
 10
4.9582048
 20
15.0132472161
 10
4.9404575387
 20
15.0293116595
  0
LWPOLYLINE
  5
37E
100
AcDbEntity
  8
RACCORDO
100
AcDbPolyline
 62
7
  6
CONTINUOUS
 90
20
 70
0
 10
4.4802623957
 20
17.5818080672
 10
4.4798569283
 20
17.5960406829
 10
4.4786337443
 20
17.6102979237
 10
4.476586157
 20
17.6245234577
 10
4.4737121593
 20
17.6386606178
 10
4.470014854
 20
17.6526512647
 10
4.4655024136
 20
17.6664374589
 10
4.4601884106
 20
17.6799611494
 10
4.4540892359
 20
17.6931702938
 10
4.4472218574
 20
17.7060199505
 10
4.4396087755
 20
17.7184612528
 10
4.4312777226
 20
17.7304446652
 10
4.4222543077
 20
17.7419302259
 10
4.4125641445
 20
17.7528813623
 10
4.4022443548
 20
17.7632528403
 10
4.3913372862
 20
17.7730013716
 10
4.3798685757
 20
17.782102827
 10
4.3678805462
 20
17.7905213744
 10
4.355439727
 20
17.798211939
 10
4.3420586924
 20
17.8054184156
  0
LWPOLYLINE
  5
37F
100
AcDbEntity
  8
RACCORDO
100
AcDbPolyline
 62
253
  6
CONTINUOUS
 90
31
 70
0
 10
4.4080645387
 20
17.493935435
 10
4.4078754179
 20
17.505385944
 10
4.4072012346
 20
17.5170522977
 10
4.4060429186
 20
17.5289029959
 10
4.4044023372
 20
17.5409084577
 10
4.402283275
 20
17.5530335761
 10
4.3996924235
 20
17.5652376057
 10
4.3966376062
 20
17.5774843986
 10
4.3931266841
 20
17.5897430378
 10
4.3891691666
 20
17.6019802576
 10
4.3847757782
 20
17.6141627402
 10
4.3799586019
 20
17.6262568406
 10
4.3747309752
 20
17.6382290309
 10
4.3691073103
 20
17.6500463336
 10
4.363102965
 20
17.6616765036
 10
4.356734349
 20
17.6730877517
 10
4.3500188892
 20
17.6842488312
 10
4.342975019
 20
17.6951290861
 10
4.3356220761
 20
17.705698637
 10
4.3279802293
 20
17.7159284887
 10
4.3200704227
 20
17.725790601
 10
4.3119143465
 20
17.735257926
 10
4.3035343621
 20
17.7443045036
 10
4.2949534482
 20
17.7529055237
 10
4.2861951413
 20
17.7610373922
 10
4.2772834511
 20
17.7686778147
 10
4.2682428192
 20
17.7758058342
 10
4.2590980617
 20
17.7824018857
 10
4.2498742633
 20
17.7884478804
 10
4.2405967079
 20
17.7939272502
 10
4.231290835
 20
17.7988249738
  0
LINE
  5
380
100
AcDbEntity
  8
RACCORDO
100
AcDbLine
 62
253
  6
CONTINUOUS
 10
4.4080645387
 20
17.493935435
 11
4.4080645387
 21
17.1464039183
  0
LINE
  5
381
100
AcDbEntity
  8
RACCORDO
100
AcDbLine
 62
253
  6
CONTINUOUS
 10
4.4080645387
 20
-24.1532002211
 11
4.4080645387
 21
-24.5007317379
  0
LINE
  5
382
100
AcDbEntity
  8
RACCORDO
100
AcDbLine
 62
7
  6
CONTINUOUS
 10
4.4802623957
 20
17.5818080672
 11
4.4802623957
 21
17.1465635882
  0
LINE
  5
383
100
AcDbEntity
  8
RACCORDO
100
AcDbLine
 62
7
  6
CONTINUOUS
 10
4.4802623957
 20
-24.0653275889
 11
4.4802623957
 21
-24.4128591057
  0
LINE
  5
384
100
AcDbEntity
  8
ASSI
100
AcDbLine
 62
253
  6
CONTINUOUS
 10
4.7852140547
 20
20.4743860771
 11
4.7852140547
 21
21.7014360444
  0
LINE
  5
385
100
AcDbEntity
  8
ASSI
100
AcDbLine
 62
7
  6
CONTINUOUS
 10
4.9088081186
 20
20.6225496979
 11
4.9088081186
 21
21.710226187
  0
LINE
  5
386
100
AcDbEntity
  8
RACCORDO
100
AcDbLine
 62
7
  6
CONTINUOUS
 10
4.9404575387
 20
-22.5954721248
 11
4.9404575387
 21
-19.6213625168
  0
LINE
  5
387
100
AcDbEntity
  8
RACCORDO
100
AcDbLine
 62
7
  6
CONTINUOUS
 10
4.9404575387
 20
12.4336697259
 11
4.9404575387
 21
15.4077793339
  0
LINE
  5
388
100
AcDbEntity
  8
0
100
AcDbLine
 62
253
  6
CONTINUOUS
 10
5.4144686427
 20
13.9603901397
 11
5.4144686427
 21
13.9754136643
  0
LINE
  5
389
100
AcDbEntity
  8
DRAFT
100
AcDbLine
 62
7
  6
CONTINUOUS
 10
5.5160170395
 20
-19.3374106909
 11
5.5160170395
 21
12.7055292491
  0
LINE
  5
38A
100
AcDbEntity
  8
0
100
AcDbLine
 62
253
  6
CONTINUOUS
 10
5.8614512859
 20
13.7729542537
 11
5.8614512859
 21
-15.1330778679
  0
LINE
  5
38B
100
AcDbEntity
  8
0
100
AcDbLine
 62
7
  6
CONTINUOUS
 10
6.1543445047
 20
-15.0740568117
 11
6.1543445047
 21
13.9194008631
  0
LINE
  5
38C
100
AcDbEntity
  8
0
100
AcDbLine
 62
7
  6
CONTINUOUS
 10
6.7995874587
 20
14.8600563288
 11
6.7971918518
 21
14.7908805734
  0
LWPOLYLINE
  5
38D
100
AcDbEntity
  8
0
100
AcDbPolyline
 62
253
  6
CONTINUOUS
 90
11
 70
0
 10
6.5066942398
 20
14.5065029382
 10
6.5040037372
 20
14.4323726324
 10
6.4959526038
 20
14.3614963082
 10
6.4826019601
 20
14.2944134356
 10
6.464053234
 20
14.2316345654
 10
6.4404474574
 20
14.1736376781
 10
6.4119642568
 20
14.1208644821
 10
6.3788203342
 20
14.0737167148
 10
6.3412678527
 20
14.0325532841
 10
6.2995926677
 20
13.9976876684
 10
6.2541119295
 20
13.9693852767
  0
LWPOLYLINE
  5
38E
100
AcDbEntity
  8
RACCORDO
100
AcDbPolyline
 62
7
  6
CONTINUOUS
 90
20
 70
0
 10
4.2222092242
 20
-22.9498193645
 10
4.2215173558
 20
-22.9683485898
 10
4.2201226857
 20
-22.9864656138
 10
4.2180275087
 20
-23.0041300337
 10
4.2152353578
 20
-23.0213025433
 10
4.2117520795
 20
-23.0379448541
 10
4.2075857675
 20
-23.0540197398
 10
4.2027442797
 20
-23.0694917593
 10
4.1972384175
 20
-23.0843261815
 10
4.191082891
 20
-23.0984888074
 10
4.184290878
 20
-23.111948087
 10
4.176876752
 20
-23.12467418
 10
4.1688591005
 20
-23.1366377203
 10
4.1602552872
 20
-23.1478120763
 10
4.1510838497
 20
-23.1581724746
 10
4.1413670713
 20
-23.1676948753
 10
4.1311262123
 20
-23.1763580635
 10
4.1203835582
 20
-23.1841428453
 10
4.1091646797
 20
-23.1910309733
 10
4.1011305481
 20
-23.195266847
  0
LINE
  5
38F
100
AcDbEntity
  8
0
100
AcDbLine
 62
253
  6
CONTINUOUS
 10
6.7995874587
 20
14.8600563288
 11
6.7986356802
 21
14.8382466351
  0
LWPOLYLINE
  5
390
100
AcDbEntity
  8
RACCORDO
100
AcDbPolyline
 62
253
  6
CONTINUOUS
 90
16
 70
0
 10
4.4802623957
 20
-24.4128591024
 10
4.4799611251
 20
-24.4189939345
 10
4.4789814065
 20
-24.4254968827
 10
4.4773247175
 20
-24.431965447
 10
4.474995566
 20
-24.4383820137
 10
4.4720002858
 20
-24.4447291248
 10
4.4683470269
 20
-24.4509895016
 10
4.4640457288
 20
-24.4571461048
 10
4.4591080963
 20
-24.4631821752
 10
4.453547571
 20
-24.4690812777
 10
4.4473792819
 20
-24.4748273591
 10
4.4406200206
 20
-24.4804047748
 10
4.4332882067
 20
-24.485798327
 10
4.4254038086
 20
-24.4909933315
 10
4.4169882828
 20
-24.495975655
 10
4.4080645387
 20
-24.5007317379
  0
LWPOLYLINE
  5
391
100
AcDbEntity
  8
RACCORDO
100
AcDbPolyline
 62
253
  6
CONTINUOUS
 90
16
 70
0
 10
4.4802623957
 20
-24.0653275889
 10
4.4799591746
 20
-24.0714822332
 10
4.4789776688
 20
-24.0779837424
 10
4.477319491
 20
-24.0844508185
 10
4.4749891525
 20
-24.0908658665
 10
4.4719929933
 20
-24.0972114334
 10
4.4683391651
 20
-24.1034702548
 10
4.4640376087
 20
-24.1096253026
 10
4.4591000272
 20
-24.115659831
 10
4.4535398541
 20
-24.1215574221
 10
4.4473722169
 20
-24.1273020303
 10
4.4406138956
 20
-24.1328780265
 10
4.4332832774
 20
-24.1382702404
 10
4.4254003064
 20
-24.1434640013
 10
4.4169864297
 20
-24.148445179
 10
4.4080645387
 20
-24.1532002211
  0
LWPOLYLINE
  5
392
100
AcDbEntity
  8
0
100
AcDbPolyline
 62
7
  6
CONTINUOUS
 90
15
 70
0
 10
6.7971918518
 20
14.7908805734
 10
6.7897158841
 20
14.7198937087
 10
6.7767059845
 20
14.6473608038
 10
6.7575180075
 20
14.5730562451
 10
6.7317857144
 20
14.4981085591
 10
6.7000277219
 20
14.425076637
 10
6.6629471656
 20
14.355467505
 10
6.6204986013
 20
14.2890003845
 10
6.5725892414
 20
14.2256524797
 10
6.5194687136
 20
14.1659591287
 10
6.4615487776
 20
14.1105183358
 10
6.3988819316
 20
14.0595276693
 10
6.3317571942
 20
14.013418851
 10
6.2607733855
 20
13.9727531171
 10
6.2463296364
 20
13.9653938427
  0
LWPOLYLINE
  5
393
100
AcDbEntity
  8
0
100
AcDbPolyline
 62
253
  6
CONTINUOUS
 90
10
 70
0
 10
8.354356521
 20
1.9827055581
 10
8.3126813006
 20
1.9061659114
 10
8.2751285556
 20
1.8274509046
 10
8.2419840853
 20
1.7471596064
 10
8.2135001389
 20
1.6659030821
 10
8.1898934966
 20
1.5842997429
 10
8.1713438191
 20
1.5029706395
 10
8.1579922807
 20
1.4225347354
 10
8.1499404946
 20
1.3436041965
 10
8.1472497398
 20
1.2667797318
  0
LINE
  5
394
100
AcDbEntity
  8
0
100
AcDbLine
 62
7
  6
CONTINUOUS
 10
7.5765388949
 20
2.3716143711
 11
7.8087719418
 21
2.772157128
  0
LINE
  5
395
100
AcDbEntity
  8
0
100
AcDbLine
 62
253
  6
CONTINUOUS
 10
8.586589568
 20
2.3832483149
 11
8.354356521
 21
1.9827055581
  0
LWPOLYLINE
  5
396
100
AcDbEntity
  8
0
100
AcDbPolyline
 62
7
  6
CONTINUOUS
 90
13
 70
0
 10
7.8087719418
 20
2.772157128
 10
7.9108823575
 20
2.9401288323
 10
8.0180290704
 20
3.1013980112
 10
8.1302120805
 20
3.2559646647
 10
8.2479546315
 20
3.4044334991
 10
8.3707334797
 20
3.5461998081
 10
8.4969788941
 20
3.6794494723
 10
8.6267356925
 20
3.8040723598
 10
8.7599590571
 20
3.9201786025
 10
8.8949448035
 20
4.0262844764
 10
9.03112487
 20
4.1218954067
 10
9.1690673182
 20
4.2075059682
 10
9.3087721481
 20
4.2831161608
  0
LINE
  5
397
100
AcDbEntity
  8
RACCORDO
100
AcDbLine
 62
7
  6
CONTINUOUS
 10
-6.5330099077
 20
-9.4470307011
 11
-6.5334476938
 21
-9.4472617596
  0
LWPOLYLINE
  5
398
100
AcDbEntity
  8
RACCORDO
100
AcDbPolyline
 62
253
  6
CONTINUOUS
 90
31
 70
0
 10
-6.5334476938
 20
-9.4472617596
 10
-6.5662744979
 20
-9.4642888377
 10
-6.6590865749
 20
-9.5093271724
 10
-6.7536862954
 20
-9.5507262108
 10
-6.8500243146
 20
-9.5884636536
 10
-6.9480410791
 20
-9.6225154311
 10
-7.0476778645
 20
-9.6528625165
 10
-7.1488793057
 20
-9.6794887028
 10
-7.2515853301
 20
-9.7023787326
 10
-7.3557277792
 20
-9.7215208883
 10
-7.4612359438
 20
-9.7369052491
 10
-7.5680588449
 20
-9.7485272644
 10
-7.6761568164
 20
-9.7563864386
 10
-7.7854600549
 20
-9.7604787494
 10
-7.8959139318
 20
-9.7608030045
 10
-8.007502389
 20
-9.7573602117
 10
-8.1201780857
 20
-9.7501474968
 10
-8.2338628338
 20
-9.7391653033
 10
-8.3484944529
 20
-9.7244188523
 10
-8.4640300819
 20
-9.7059094863
 10
-8.5803831443
 20
-9.6836464846
 10
-8.6974237526
 20
-9.6576569774
 10
-8.8150870786
 20
-9.6279585265
 10
-8.9333033525
 20
-9.5945712522
 10
-9.0519327609
 20
-9.5575427344
 10
-9.170906978
 20
-9.5169042954
 10
-9.2901575467
 20
-9.4726885103
 10
-9.4095431593
 20
-9.424961461
 10
-9.5289711626
 20
-9.3737776279
 10
-9.64839822
 20
-9.3191723555
 10
-9.7677571981
 20
-9.2611923368
  0
LINE
  5
399
100
AcDbEntity
  8
RACCORDO
100
AcDbLine
 62
253
  6
CONTINUOUS
 10
-3.3802667614
 20
6.6339406784
 11
-17.021679741
 21
13.4546471682
  0
LINE
  5
39A
100
AcDbEntity
  8
RACCORDO
100
AcDbLine
 62
7
  6
CONTINUOUS
 10
-3.5850205498
 20
6.8891632589
 11
-16.7417867411
 21
13.4675463546
  0
LINE
  5
39B
100
AcDbEntity
  8
RACCORDO
100
AcDbLine
 62
253
  6
CONTINUOUS
 10
-3.4062763982
 20
6.8009399492
 11
-3.5794299786
 21
6.8875167394
  0
LINE
  5
39C
100
AcDbEntity
  8
RACCORDO
100
AcDbLine
 62
253
  6
CONTINUOUS
 10
-16.7591640449
 20
13.4773837726
 11
-16.8809453341
 21
13.5382744172
  0
LINE
  5
39D
100
AcDbEntity
  8
RACCORDO
100
AcDbLine
 62
253
  6
CONTINUOUS
 10
-3.6839761386
 20
6.9824707523
 11
-16.6947409124
 21
13.4878531392
  0
LINE
  5
39E
100
AcDbEntity
  8
0
100
AcDbLine
 62
253
  6
CONTINUOUS
 10
7.3694321133
 20
1.6556885451
 11
8.1472497398
 21
1.2667797318
  0
LINE
  5
39F
100
AcDbEntity
  8
0
100
AcDbLine
 62
253
  6
CONTINUOUS
 10
8.354356521
 20
1.9827055581
 11
7.5765388944
 21
2.3716143714
  0
LINE
  5
3A0
100
AcDbEntity
  8
0
100
AcDbLine
 62
253
  6
CONTINUOUS
 10
7.8087719415
 20
2.7721571282
 11
8.586589568
 21
2.3832483149
  0
LWPOLYLINE
  5
3A1
100
AcDbEntity
  8
0
100
AcDbPolyline
 62
253
  6
CONTINUOUS
 90
25
 70
0
 10
8.586589568
 20
2.3832483149
 10
8.7077987546
 20
2.3177847253
 10
8.827871271
 20
2.2432917475
 10
8.9463102426
 20
2.1602271747
 10
9.0625943753
 20
2.0691121308
 10
9.1763139369
 20
1.9704243539
 10
9.2871637547
 20
1.8645648063
 10
9.3944524547
 20
1.7523527306
 10
9.4980737775
 20
1.6340616299
 10
9.5985339266
 20
1.5091039231
 10
9.6956162698
 20
1.3775552737
 10
9.7885997446
 20
1.2401895965
 10
9.8771329837
 20
1.097336482
 10
9.9607531477
 20
0.9495201912
 10
10.0390136555
 20
0.7972917819
 10
10.1115627835
 20
0.6410486998
 10
10.1780351316
 20
0.4812007584
 10
10.2378962146
 20
0.3186151826
 10
10.2905995578
 20
0.1544308542
 10
10.3358553529
 20
-0.0107847883
 10
10.3733046906
 20
-0.176115819
 10
10.4025351645
 20
-0.339877549
 10
10.4234189479
 20
-0.5010292463
 10
10.4359612978
 20
-0.6591596516
 10
10.4401432665
 20
-0.8135681077
  0
LWPOLYLINE
  5
3A2
100
AcDbEntity
  8
RACCORDO
100
AcDbPolyline
 62
253
  6
CONTINUOUS
 90
14
 70
0
 10
-8.9562536258
 20
23.8285630005
 10
-8.9519060647
 20
23.8212101314
 10
-8.9480559163
 20
23.8141173032
 10
-8.9447136946
 20
23.8073038849
 10
-8.9418885265
 20
23.8007884826
 10
-8.9395881268
 20
23.7945888885
 10
-8.9378187776
 20
23.7887220323
 10
-8.9365853105
 20
23.7832039352
 10
-8.9358910939
 20
23.778049666
 10
-8.9357380236
 20
23.7732732999
 10
-8.9361265175
 20
23.7688878802
 10
-8.9370555147
 20
23.7649053824
 10
-8.9385224784
 20
23.7613366821
 10
-8.940479371
 20
23.7582607356
  0
LWPOLYLINE
  5
3A3
100
AcDbEntity
  8
0
100
AcDbPolyline
 62
253
  6
CONTINUOUS
 90
10
 70
0
 10
8.1472497398
 20
-1.4799335426
 10
8.1499404946
 20
-1.5540672525
 10
8.1579922807
 20
-1.6249460053
 10
8.1713438191
 20
-1.692030371
 10
8.1898934966
 20
-1.7548097969
 10
8.2135001389
 20
-1.8128064938
 10
8.2419840853
 20
-1.8655790717
 10
8.2751285556
 20
-1.9127258995
 10
8.3126813006
 20
-1.9538881614
 10
8.354356521
 20
-1.9887525877
  0
LWPOLYLINE
  5
3A4
100
AcDbEntity
  8
0
100
AcDbPolyline
 62
7
  6
CONTINUOUS
 90
7
 70
0
 10
6.6552278231
 20
16.2037352976
 10
6.6545249691
 20
16.2600076467
 10
6.6500380382
 20
16.3177563042
 10
6.6418075466
 20
16.3765744359
 10
6.6299083346
 20
16.4360506236
 10
6.614425551
 20
16.4957626704
 10
6.5984198871
 20
16.5459746713
  0
LINE
  5
3A5
100
AcDbEntity
  8
0
100
AcDbLine
 62
253
  6
CONTINUOUS
 10
6.5066942398
 20
14.5215264628
 11
6.5066942398
 21
14.5065029382
  0
LINE
  5
3A6
100
AcDbEntity
  8
0
100
AcDbLine
 62
253
  6
CONTINUOUS
 10
6.5066942398
 20
-16.3802930877
 11
6.5066942398
 21
-16.3953166123
  0
LINE
  5
3A7
100
AcDbEntity
  8
0
100
AcDbLine
 62
7
  6
CONTINUOUS
 10
6.7995874587
 20
14.8750798534
 11
6.7995874587
 21
14.8600563288
  0
LINE
  5
3A8
100
AcDbEntity
  8
0
100
AcDbLine
 62
7
  6
CONTINUOUS
 10
6.7995874587
 20
-16.0417632218
 11
6.7995874587
 21
-16.0267396971
  0
LINE
  5
3A9
100
AcDbEntity
  8
RACCORDO
100
AcDbLine
 62
7
  6
CONTINUOUS
 10
7.2524936436
 20
-15.6833017562
 11
7.2524936436
 21
-14.6381065457
  0
LINE
  5
3AA
100
AcDbEntity
  8
0
100
AcDbLine
 62
7
  6
CONTINUOUS
 10
7.3694321138
 20
-1.0910247296
 11
7.3694321137
 21
1.6556885448
  0
LINE
  5
3AB
100
AcDbEntity
  8
0
100
AcDbLine
 62
7
  6
CONTINUOUS
 10
6.7995874587
 20
-16.0417632218
 11
6.7971994
 21
-16.110830059
  0
LWPOLYLINE
  5
3AC
100
AcDbEntity
  8
0
100
AcDbPolyline
 62
253
  6
CONTINUOUS
 90
12
 70
0
 10
6.5066942398
 20
-16.3953166123
 10
6.5040631513
 20
-16.4686401849
 10
6.4961893702
 20
-16.53878763
 10
6.4831313506
 20
-16.605236818
 10
6.4649861065
 20
-16.667493191
 10
6.4418885553
 20
-16.7250932171
 10
6.4140105744
 20
-16.7776079004
 10
6.3815595774
 20
-16.8246463023
 10
6.3447770027
 20
-16.8658582582
 10
6.3039366611
 20
-16.9009368534
 10
6.2593424858
 20
-16.9296209573
 10
6.2468011356
 20
-16.936190372
  0
LWPOLYLINE
  5
3AD
100
AcDbEntity
  8
0
100
AcDbPolyline
 62
7
  6
CONTINUOUS
 90
10
 70
0
 10
7.3694321137
 20
1.6556885448
 10
7.3722901273
 20
1.7335196093
 10
7.3803210896
 20
1.8122446267
 10
7.3935250006
 20
1.891863597
 10
7.412081175
 20
1.9729963743
 10
7.4358102981
 20
2.0550231045
 10
7.464174426
 20
2.1360842255
 10
7.4969942441
 20
2.2155598833
 10
7.5344490671
 20
2.2940699318
 10
7.5765388949
 20
2.3716143711
  0
LINE
  5
3AE
100
AcDbEntity
  8
0
100
AcDbLine
 62
253
  6
CONTINUOUS
 10
6.7995874587
 20
-16.0417632218
 11
6.7986356802
 21
-16.0635729154
  0
LWPOLYLINE
  5
3AF
100
AcDbEntity
  8
0
100
AcDbPolyline
 62
7
  6
CONTINUOUS
 90
15
 70
0
 10
6.7971994
 20
-16.110830059
 10
6.7897469557
 20
-16.1817061807
 10
6.7767777955
 20
-16.2541285804
 10
6.7576492746
 20
-16.3283248051
 10
6.731995662
 20
-16.4031698064
 10
6.70033333
 20
-16.4761097139
 10
6.6633616052
 20
-16.5456422646
 10
6.6210343286
 20
-16.6120482693
 10
6.5732602197
 20
-16.6753486216
 10
6.5202882295
 20
-16.7350094576
 10
6.4625273363
 20
-16.7904358535
 10
6.4000292871
 20
-16.8414316597
 10
6.3330811992
 20
-16.8875670275
 10
6.2622785793
 20
-16.9282824713
 10
6.2463375235
 20
-16.936421778
  0
LWPOLYLINE
  5
3B0
100
AcDbEntity
  8
0
100
AcDbPolyline
 62
253
  6
CONTINUOUS
 90
3
 70
0
 10
11.9635620501
 20
-2.1818392775
 10
11.9307778757
 20
-2.2036243131
 10
11.9174847086
 20
-2.2107220545
  0
LWPOLYLINE
  5
3B1
100
AcDbEntity
  8
0
100
AcDbPolyline
 62
7
  6
CONTINUOUS
 90
14
 70
0
 10
14.5591255453
 20
-0.8112287703
 10
14.6813215642
 20
-0.7328434448
 10
14.7956905593
 20
-0.6415293941
 10
14.902325882
 20
-0.5374543462
 10
14.9998608236
 20
-0.4219566196
 10
15.0881741606
 20
-0.2948947615
 10
15.1673871165
 20
-0.1564102245
 10
15.2364966536
 20
-0.0082656856
 10
15.295375357
 20
0.1496668376
 10
15.3441506415
 20
0.3172593628
 10
15.3822017132
 20
0.4923652664
 10
15.4093216405
 20
0.6742690074
 10
15.425717355
 20
0.8636861268
 10
15.4313888565
 20
1.0606166247
  0
LWPOLYLINE
  5
3B2
100
AcDbEntity
  8
0
100
AcDbPolyline
 62
253
  6
CONTINUOUS
 90
14
 70
0
 10
16.5678208102
 20
0.1853135052
 10
16.700221538
 20
0.267631763
 10
16.8258057487
 20
0.3628563131
 10
16.9445486001
 20
0.4709943165
 10
17.0564578135
 20
0.5922966225
 10
17.1607492091
 20
0.7261813817
 10
17.2560538254
 20
0.8710588684
 10
17.3421299214
 20
1.0263397475
 10
17.4188311413
 20
1.1917061287
 10
17.4861594217
 20
1.3675168662
 10
17.5437349586
 20
1.5533186966
 10
17.5905853133
 20
1.7462716026
 10
17.6266017283
 20
1.9456972906
 10
17.6517948266
 20
2.1515860219
  0
LINE
  5
3B3
100
AcDbEntity
  8
0
100
AcDbLine
 62
7
  6
CONTINUOUS
 10
14.4899277235
 20
-0.8482497268
 11
14.5591255453
 21
-0.8112287703
  0
LWPOLYLINE
  5
3B4
100
AcDbEntity
  8
0
100
AcDbPolyline
 62
7
  6
CONTINUOUS
 90
17
 70
0
 10
16.4895312027
 20
0.144384019
 10
16.6107424416
 20
0.2090744434
 10
16.7382045975
 20
0.2896471373
 10
16.8601058707
 20
0.3801710698
 10
16.9763465154
 20
0.4805746018
 10
17.086437011
 20
0.5905240719
 10
17.1903586953
 20
0.7100570345
 10
17.2876891028
 20
0.8388807151
 10
17.3776429275
 20
0.9760498541
 10
17.4600444418
 20
1.1212455074
 10
17.5348487334
 20
1.2744753737
 10
17.6018816811
 20
1.4357302222
 10
17.6609873136
 20
1.6052613518
 10
17.7115054389
 20
1.7817474289
 10
17.752988278
 20
1.9640149298
 10
17.7853779715
 20
2.1523785313
 10
17.8013954496
 20
2.2773767697
  0
LINE
  5
3B5
100
AcDbEntity
  8
0
100
AcDbLine
 62
253
  6
CONTINUOUS
 10
16.4926644301
 20
0.1459184346
 11
16.5678208102
 21
0.1853135052
  0
LWPOLYLINE
  5
3B6
100
AcDbEntity
  8
0
100
AcDbPolyline
 62
253
  6
CONTINUOUS
 90
3
 70
0
 10
11.6518373479
 20
-2.2674274694
 10
11.6915194852
 20
-2.2467334796
 10
11.8097295027
 20
-2.1742053138
  0
LINE
  5
3B7
100
AcDbEntity
  8
0
100
AcDbLine
 62
253
  6
CONTINUOUS
 10
10.547947126
 20
-2.5872954237
 11
6.1543445047
 21
-4.7840967355
  0
LINE
  5
3B8
100
AcDbEntity
  8
0
100
AcDbLine
 62
7
  6
CONTINUOUS
 10
11.6518373479
 20
-2.2674274694
 11
14.4897313091
 21
-0.8484804888
  0
LINE
  5
3B9
100
AcDbEntity
  8
0
100
AcDbLine
 62
7
  6
CONTINUOUS
 10
11.9174847087
 20
-2.2107220545
 11
6.1543445047
 21
-5.0922921313
  0
LINE
  5
3BA
100
AcDbEntity
  8
0
100
AcDbLine
 62
7
  6
CONTINUOUS
 10
14.6099852983
 20
-0.7786036625
 11
16.4926644301
 21
0.1459184346
  0
LWPOLYLINE
  5
3BB
100
AcDbEntity
  8
0
100
AcDbPolyline
 62
7
  6
CONTINUOUS
 90
16
 70
0
 10
11.6518373479
 20
-2.2674274694
 10
11.4758095464
 20
-2.3488446402
 10
11.294037025
 20
-2.4198068991
 10
11.1072529914
 20
-2.4798151199
 10
10.9163981366
 20
-2.5284052352
 10
10.7221609143
 20
-2.5652763053
 10
10.5249321484
 20
-2.5902043181
 10
10.3256494682
 20
-2.6029167882
 10
10.1251876906
 20
-2.6032416017
 10
9.9238142822
 20
-2.5910339274
 10
9.7223225076
 20
-2.5661590132
 10
9.5218370125
 20
-2.5286133586
 10
9.3230135303
 20
-2.4784052737
 10
9.1266186406
 20
-2.4156081212
 10
8.9336374569
 20
-2.3404478399
 10
8.7449487815
 20
-2.2532265634
  0
LINE
  5
3BC
100
AcDbEntity
  8
0
100
AcDbLine
 62
253
  6
CONTINUOUS
 10
10.086589568
 20
3.8942072192
 11
9.3087719415
 21
4.2831160325
  0
LWPOLYLINE
  5
3BD
100
AcDbEntity
  8
RACCORDO
100
AcDbPolyline
 62
253
  6
CONTINUOUS
 90
12
 70
0
 10
-3.2497446867
 20
11.1833553943
 10
-3.2548043338
 20
11.1860683519
 10
-3.2594452624
 20
11.1889419764
 10
-3.2636418056
 20
11.1919603752
 10
-3.2673707545
 20
11.1951068548
 10
-3.270611486
 20
11.1983640137
 10
-3.2733460771
 20
11.2017138381
 10
-3.2755594042
 20
11.2051378017
 10
-3.2772392264
 20
11.2086169681
 10
-3.2783762533
 20
11.2121320958
 10
-3.2789641968
 20
11.2156637443
 10
-3.2790402559
 20
11.2183921777
  0
LWPOLYLINE
  5
3BE
100
AcDbEntity
  8
0
100
AcDbPolyline
 62
253
  6
CONTINUOUS
 90
22
 70
0
 10
9.2685726966
 20
-0.6672383838
 10
9.2651974669
 20
-0.5613031123
 10
9.2557331352
 20
-0.454205266
 10
9.2401797014
 20
-0.345944845
 10
9.2183655321
 20
-0.2359277964
 10
9.1904622607
 20
-0.124748173
 10
9.1569847876
 20
-0.014188133
 10
9.117857497
 20
0.0957351145
 10
9.0731560046
 20
0.2050387788
 10
9.0236220582
 20
0.3119923288
 10
8.969189323
 20
0.416559774
 10
8.9099241339
 20
0.518777105
 10
8.8467672435
 20
0.6170217635
 10
8.7796621845
 20
0.7112407398
 10
8.7086654242
 20
0.8014870435
 10
8.6348871179
 20
0.8862971452
 10
8.5582815909
 20
0.9656013767
 10
8.4788945178
 20
1.0394694062
 10
8.3979730782
 20
1.1066467089
 10
8.3159329986
 20
1.16671511
 10
8.2323585525
 20
1.2200927843
 10
8.1472497398
 20
1.2667797318
  0
LWPOLYLINE
  5
3BF
100
AcDbEntity
  8
0
100
AcDbPolyline
 62
253
  6
CONTINUOUS
 90
25
 70
0
 10
9.9756771735
 20
-0.8136143939
 10
9.9722035227
 20
-0.6820082499
 10
9.9618022005
 20
-0.5474945652
 10
9.9445177455
 20
-0.4106493318
 10
9.9204241704
 20
-0.2720585252
 10
9.8896246445
 20
-0.1323155955
 10
9.8522510525
 20
0.0079810736
 10
9.8084634293
 20
0.1482307274
 10
9.7584492747
 20
0.2878328125
 10
9.702422751
 20
0.4261895485
 10
9.6406237656
 20
0.5627084873
 10
9.5733169435
 20
0.6968050507
 10
9.5007904947
 20
0.827905033
 10
9.4233549798
 20
0.9554470599
 10
9.34134198
 20
1.0788849926
 10
9.2551026775
 20
1.1976902658
 10
9.1650063519
 20
1.3113541517
 10
9.0714387983
 20
1.4193899381
 10
8.9748006759
 20
1.5213350122
 10
8.8755057922
 20
1.616752842
 10
8.773979331
 20
1.7052348456
 10
8.6706560319
 20
1.78640214
 10
8.5659783283
 20
1.8599071645
 10
8.4603944535
 20
1.9254351681
 10
8.354356521
 20
1.9827055581
  0
LINE
  5
3C0
100
AcDbEntity
  8
DRAFT
100
AcDbLine
 62
7
  6
CONTINUOUS
 10
9.232392631
 20
-16.8518116501
 11
9.232392631
 21
-15.8725647301
  0
LINE
  5
3C1
100
AcDbEntity
  8
DRAFT
100
AcDbLine
 62
7
  6
CONTINUOUS
 10
9.232392631
 20
18.5350724706
 11
9.232392631
 21
18.8918903542
  0
LINE
  5
3C2
100
AcDbEntity
  8
RACCORDO
100
AcDbLine
 62
253
  6
CONTINUOUS
 10
9.4961702976
 20
19.5286645864
 11
9.4961702976
 21
19.0313346295
  0
LINE
  5
3C3
100
AcDbEntity
  8
RACCORDO
100
AcDbLine
 62
253
  6
CONTINUOUS
 10
9.4961702976
 20
-17.3273706218
 11
9.4961702976
 21
-17.8247005788
  0
LINE
  5
3C4
100
AcDbEntity
  8
RACCORDO
100
AcDbLine
 62
7
  6
CONTINUOUS
 10
9.6365003975
 20
19.8291690951
 11
9.6365003975
 21
19.2075987031
  0
LINE
  5
3C5
100
AcDbEntity
  8
RACCORDO
100
AcDbLine
 62
7
  6
CONTINUOUS
 10
9.6365003975
 20
-17.1563055102
 11
9.6365003975
 21
-17.7778759022
  0
LWPOLYLINE
  5
3C6
100
AcDbEntity
  8
0
100
AcDbPolyline
 62
253
  6
CONTINUOUS
 90
23
 70
0
 10
10.440143266
 20
-0.8136046416
 10
10.4361849506
 20
-0.9600109522
 10
10.4243945254
 20
-1.1011331962
 10
10.4049391593
 20
-1.2364464872
 10
10.3780250402
 20
-1.365427821
 10
10.343872857
 20
-1.4876712907
 10
10.3026943907
 20
-1.602870289
 10
10.2548890205
 20
-1.7103527733
 10
10.2006315151
 20
-1.8101046951
 10
10.1396304238
 20
-1.9026408334
 10
10.0718365564
 20
-1.9876990093
 10
9.9975992088
 20
-2.0645337609
 10
9.9170796673
 20
-2.1327420865
 10
9.8305528767
 20
-2.1918648134
 10
9.7382633345
 20
-2.241522087
 10
9.6403379197
 20
-2.2814017577
 10
9.5369185382
 20
-2.3111485363
 10
9.4285269021
 20
-2.3303259192
 10
9.3159275047
 20
-2.338606206
 10
9.1995009461
 20
-2.3358164637
 10
9.0798199612
 20
-2.321829
 10
8.958056265
 20
-2.2967405081
 10
8.8349943454
 20
-2.2607863998
  0
LWPOLYLINE
  5
3C7
100
AcDbEntity
  8
0
100
AcDbPolyline
 62
253
  6
CONTINUOUS
 90
10
 70
0
 10
6.7986356802
 20
-16.0635729154
 10
6.7916534747
 20
-16.1046222301
 10
6.7779361964
 20
-16.145244799
 10
6.757576971
 20
-16.1851648381
 10
6.7307140159
 20
-16.2241113328
 10
6.6975297021
 20
-16.2618198778
 10
6.6582493158
 20
-16.2980344722
 10
6.6131395289
 20
-16.3325092574
 10
6.562506589
 20
-16.3650101864
 10
6.5066942398
 20
-16.3953166123
  0
LWPOLYLINE
  5
3C8
100
AcDbEntity
  8
0
100
AcDbPolyline
 62
7
  6
CONTINUOUS
 90
4
 70
0
 10
15.1041831527
 20
18.2969444981
 10
15.1137541189
 20
18.3309436179
 10
15.1180240192
 20
18.3650447171
 10
15.1182230972
 20
18.3796108899
  0
LWPOLYLINE
  5
3C9
100
AcDbEntity
  8
0
100
AcDbPolyline
 62
7
  6
CONTINUOUS
 90
5
 70
0
 10
12.4118755299
 20
-1.8874083785
 10
12.3705036133
 20
-1.9218728528
 10
12.2236534133
 20
-2.0296381932
 10
12.0725127988
 20
-2.1261347192
 10
11.9174778035
 20
-2.2107255167
  0
LWPOLYLINE
  5
3CA
100
AcDbEntity
  8
0
100
AcDbPolyline
 62
253
  6
CONTINUOUS
 90
13
 70
0
 10
11.8097295027
 20
-2.1742053138
 10
11.9213795581
 20
-2.0884903286
 10
12.0258733743
 20
-1.9897280218
 10
12.1227413279
 20
-1.8779794414
 10
12.2114955349
 20
-1.7533038886
 10
12.2914223482
 20
-1.6161456391
 10
12.3617921121
 20
-1.4672956778
 10
12.4222166602
 20
-1.3071283297
 10
12.4722184616
 20
-1.1363841127
 10
12.5112490863
 20
-0.9567496337
 10
12.5391361656
 20
-0.7694379949
 10
12.5558835164
 20
-0.5750079668
 10
12.5614636115
 20
-0.3743689314
  0
LINE
  5
3CB
100
AcDbEntity
  8
0
100
AcDbLine
 62
7
  6
CONTINUOUS
 10
12.8700882343
 20
5.2859565523
 11
12.0651086154
 21
5.6612843694
  0
LWPOLYLINE
  5
3CC
100
AcDbEntity
  8
RACCORDO
100
AcDbPolyline
 62
253
  6
CONTINUOUS
 90
22
 70
0
 10
-16.8888598207
 20
18.0029131029
 10
-16.8834096001
 20
18.0003711261
 10
-16.8775987869
 20
17.9980188782
 10
-16.871459518
 20
17.9958693683
 10
-16.8650257465
 20
17.9939344843
 10
-16.8583330545
 20
17.9922249271
 10
-16.8514184559
 20
17.9907501514
 10
-16.844320192
 20
17.9895183135
 10
-16.8370775198
 20
17.988536226
 10
-16.829730495
 20
17.9878093204
 10
-16.8223197502
 20
17.9873416168
 10
-16.8148862707
 20
17.987135702
 10
-16.8074711674
 20
17.9871927146
 10
-16.8001154496
 20
17.9875123395
 10
-16.7928597981
 20
17.9880928088
 10
-16.7857443403
 20
17.9889309123
 10
-16.7788084284
 20
17.990022015
 10
-16.7720904214
 20
17.9913600823
 10
-16.7656274733
 20
17.9929377142
 10
-16.7594553275
 20
17.9947461855
 10
-16.7536081191
 20
17.9967754945
 10
-16.7481181861
 20
17.999014418
  0
LINE
  5
3CD
100
AcDbEntity
  8
RACCORDO
100
AcDbLine
 62
253
  6
CONTINUOUS
 10
-3.5581611706
 20
11.3076960857
 11
-16.5689259444
 21
17.8130784726
  0
LINE
  5
3CE
100
AcDbEntity
  8
RACCORDO
100
AcDbLine
 62
253
  6
CONTINUOUS
 10
-2.6568792899
 20
10.8869226955
 11
-3.2497446872
 21
11.1833553941
  0
LINE
  5
3CF
100
AcDbEntity
  8
RACCORDO
100
AcDbLine
 62
253
  6
CONTINUOUS
 10
-16.8888599702
 20
18.0029130356
 11
-17.4817253675
 21
18.2993457343
  0
LINE
  5
3D0
100
AcDbEntity
  8
RACCORDO
100
AcDbLine
 62
253
  6
CONTINUOUS
 10
-2.553905685
 20
13.0537565976
 11
-15.5646704588
 21
19.5591389845
  0
LINE
  5
3D1
100
AcDbEntity
  8
RACCORDO
100
AcDbLine
 62
253
  6
CONTINUOUS
 10
-1.6409408967
 20
12.6270406598
 11
-2.2536721967
 21
12.9334063098
  0
LINE
  5
3D2
100
AcDbEntity
  8
RACCORDO
100
AcDbLine
 62
253
  6
CONTINUOUS
 10
-15.8764280575
 20
19.7447842402
 11
-16.4891593575
 21
20.0511498902
  0
LWPOLYLINE
  5
3D3
100
AcDbEntity
  8
RACCORDO
100
AcDbPolyline
 62
253
  6
CONTINUOUS
 90
22
 70
0
 10
-15.8764280575
 20
19.7447842402
 10
-15.8711812074
 20
19.7418805471
 10
-15.8659429988
 20
19.7385200534
 10
-15.8607427091
 20
19.7347215414
 10
-15.8556094033
 20
19.7305062416
 10
-15.8505717724
 20
19.7258977139
 10
-15.8456579725
 20
19.7209217162
 10
-15.8408954675
 20
19.7156060601
 10
-15.8363108758
 20
19.7099804555
 10
-15.8319298214
 20
19.704076345
 10
-15.8277767908
 20
19.6979267273
 10
-15.8238749958
 20
19.6915659739
 10
-15.8202462442
 20
19.6850296358
 10
-15.8169108176
 20
19.6783542456
 10
-15.8138873584
 20
19.6715771133
 10
-15.8111927649
 20
19.6647361172
 10
-15.8088420978
 20
19.6578694927
 10
-15.8068484954
 20
19.6510156184
 10
-15.8052231
 20
19.6442128018
 10
-15.8039749964
 20
19.6374990648
 10
-15.8031111604
 20
19.6309119316
 10
-15.8026364201
 20
19.6244882186
  0
LWPOLYLINE
  5
3D4
100
AcDbEntity
  8
0
100
AcDbPolyline
 62
253
  6
CONTINUOUS
 90
25
 70
0
 10
12.5614636112
 20
-0.3743689312
 10
12.5561758039
 20
-0.1736397601
 10
12.5404337078
 20
0.0304999317
 10
12.514458912
 20
0.237127104
 10
12.478524432
 20
0.4452724049
 10
12.4329237418
 20
0.6540961686
 10
12.3779411926
 20
0.8628956911
 10
12.3141112264
 20
1.0702368005
 10
12.2416663377
 20
1.2758709474
 10
12.1602173796
 20
1.4808746138
 10
12.0696986735
 20
1.6849634158
 10
11.9705766007
 20
1.886675628
 10
11.8630665117
 20
2.0852578099
 10
11.747535514
 20
2.2797297641
 10
11.6243100621
 20
2.4692578527
 10
11.4935595652
 20
2.6532558827
 10
11.3554734969
 20
2.8310599964
 10
11.2107484496
 20
3.00139078
 10
11.0604051788
 20
3.1627899305
 10
10.9049518635
 20
3.3145183682
 10
10.745153222
 20
3.4556408792
 10
10.5825737342
 20
3.5847220888
 10
10.4182608521
 20
3.7010288682
 10
10.2526816063
 20
3.8043275931
 10
10.086589568
 20
3.8942072192
  0
LINE
  5
3D5
100
AcDbEntity
  8
0
100
AcDbLine
 62
7
  6
CONTINUOUS
 10
12.0651086154
 20
5.9244692601
 11
12.0651086154
 21
5.6612844195
  0
LWPOLYLINE
  5
3D6
100
AcDbEntity
  8
0
100
AcDbPolyline
 62
253
  6
CONTINUOUS
 90
9
 70
0
 10
15.1954361876
 20
17.5147843955
 10
15.1870431481
 20
17.4774291865
 10
15.1732573504
 20
17.4399048401
 10
15.1541946435
 20
17.4027385018
 10
15.1300178602
 20
17.3662349761
 10
15.1005184935
 20
17.3302667064
 10
15.0657569493
 20
17.2951224195
 10
15.0262472516
 20
17.2614666365
 10
14.9824974649
 20
17.2297005278
  0
LWPOLYLINE
  5
3D7
100
AcDbEntity
  8
0
100
AcDbPolyline
 62
253
  6
CONTINUOUS
 90
4
 70
0
 10
6.7779361964
 20
-16.1302212744
 10
6.7916534747
 20
-16.0895987055
 10
6.7986356802
 20
-16.0485493908
 10
6.7995874587
 20
-16.0267396971
  0
LWPOLYLINE
  5
3D8
100
AcDbEntity
  8
RACCORDO
100
AcDbPolyline
 62
253
  6
CONTINUOUS
 90
31
 70
0
 10
4.4080645387
 20
-24.1532002211
 10
4.41240768
 20
-24.1409766402
 10
4.416255489
 20
-24.1285434498
 10
4.4195970577
 20
-24.1159343907
 10
4.422423082
 20
-24.1031825468
 10
4.4247250819
 20
-24.0903237879
 10
4.4264959143
 20
-24.0773967542
 10
4.4277306453
 20
-24.0644380608
 10
4.4284261082
 20
-24.051481798
 10
4.428580401
 20
-24.0385630271
 10
4.4281930512
 20
-24.0257168218
 10
4.4272650694
 20
-24.0129784898
 10
4.4257989931
 20
-24.0003831444
 10
4.4237988474
 20
-23.9879653
 10
4.4212700845
 20
-23.9757587595
 10
4.4182196033
 20
-23.9637968349
 10
4.414655726
 20
-23.9521121819
 10
4.4105881876
 20
-23.9407367375
 10
4.4060281064
 20
-23.9297016012
 10
4.4009879418
 20
-23.9190369228
 10
4.3954814571
 20
-23.9087718229
 10
4.389523693
 20
-23.8989343398
 10
4.3831309126
 20
-23.8895513299
 10
4.3763205858
 20
-23.8806484371
 10
4.3691113479
 20
-23.8722500157
 10
4.3615229185
 20
-23.8643790204
 10
4.3535760084
 20
-23.8570569167
 10
4.3452922915
 20
-23.8503036682
 10
4.3366943809
 20
-23.8441377111
 10
4.3278057722
 20
-23.8385758966
 10
4.3186507433
 20
-23.8336334151
  0
LWPOLYLINE
  5
3D9
100
AcDbEntity
  8
0
100
AcDbPolyline
 62
253
  6
CONTINUOUS
 90
5
 70
0
 10
12.0572105558
 20
-2.0647408655
 10
12.0444080157
 20
-2.0892611191
 10
12.0205845771
 20
-2.1244488851
 10
11.9935704006
 20
-2.1553833008
 10
11.9635620501
 20
-2.1818392775
  0
LWPOLYLINE
  5
3DA
100
AcDbEntity
  8
0
100
AcDbPolyline
 62
7
  6
CONTINUOUS
 90
5
 70
0
 10
4.9404575387
 20
13.3422633306
 10
4.9748781075
 20
13.3503901803
 10
5.0495962806
 20
13.3743290701
 10
5.122441384
 20
13.4041586274
 10
5.1549026316
 20
13.4196801261
  0
LWPOLYLINE
  5
3DB
100
AcDbEntity
  8
RACCORDO
100
AcDbPolyline
 62
253
  6
CONTINUOUS
 90
13
 70
0
 10
-3.2759443251
 20
11.2770357377
 10
-3.2918808863
 20
11.2740700478
 10
-3.3167542158
 20
11.2708626999
 10
-3.3423372805
 20
11.268929118
 10
-3.368349787
 20
11.2682904866
 10
-3.3945067367
 20
11.2689538027
 10
-3.4205215487
 20
11.270911799
 10
-3.4461091993
 20
11.2741430232
 10
-3.4709893447
 20
11.2786120734
 10
-3.494889393
 20
11.2842699857
 10
-3.5175474902
 20
11.2910547708
 10
-3.5387153893
 20
11.2988920933
 10
-3.5581611706
 20
11.3076960857
  0
LWPOLYLINE
  5
3DC
100
AcDbEntity
  8
RACCORDO
100
AcDbPolyline
 62
7
  6
CONTINUOUS
 90
9
 70
0
 10
-16.7593217146
 20
13.4770684332
 10
-16.7546335845
 20
13.4764491915
 10
-16.7493071418
 20
13.4764358081
 10
-16.7433352422
 20
13.4769519059
 10
-16.7366947852
 20
13.4778936995
 10
-16.7294185763
 20
13.4792085237
 10
-16.7215774281
 20
13.480912255
 10
-16.71319039
 20
13.4829759199
 10
-16.7042416805
 20
13.4853098397
  0
LWPOLYLINE
  5
3DD
100
AcDbEntity
  8
0
100
AcDbPolyline
 62
253
  6
CONTINUOUS
 90
8
 70
0
 10
15.6821472234
 20
6.5797473309
 10
15.6610768281
 20
6.588751826
 10
15.6294778229
 20
6.5971076768
 10
15.5956776796
 20
6.6003130704
 10
15.5601052961
 20
6.5982067876
 10
15.523174121
 20
6.5907240706
 10
15.4852637583
 20
6.5778549281
 10
15.4468079091
 20
6.5596545001
  0
LWPOLYLINE
  5
3DE
100
AcDbEntity
  8
RACCORDO
100
AcDbPolyline
 62
253
  6
CONTINUOUS
 90
11
 70
0
 10
-2.2536721967
 20
12.9334063098
 10
-2.2589903134
 20
12.9357850997
 10
-2.2642580221
 20
12.9376775636
 10
-2.269445881
 20
12.9390731243
 10
-2.2745248941
 20
12.9399639818
 10
-2.2794666741
 20
12.940345157
 10
-2.2842436003
 20
12.9402145196
 10
-2.2888289739
 20
12.9395727996
 10
-2.2931971665
 20
12.9384235841
 10
-2.2973237634
 20
12.9367732961
 10
-2.2997223908
 20
12.9355186891
  0
LINE
  5
3DF
100
AcDbEntity
  8
RACCORDO
100
AcDbLine
 62
7
  6
CONTINUOUS
 10
-13.6918061456
 20
20.6157831075
 11
-0.6810413717
 21
14.1104007206
  0
LINE
  5
3E0
100
AcDbEntity
  8
RACCORDO
100
AcDbLine
 62
7
  6
CONTINUOUS
 10
-13.9814071651
 20
20.796481973
 11
-9.3145320123
 21
18.4630443966
  0
LINE
  5
3E1
100
AcDbEntity
  8
RACCORDO
100
AcDbLine
 62
7
  6
CONTINUOUS
 10
-5.058315505
 20
16.3349361429
 11
-0.3914403522
 21
14.0014985666
  0
LINE
  5
3E2
100
AcDbEntity
  8
0
100
AcDbLine
 62
7
  6
CONTINUOUS
 10
12.0651086154
 20
5.75703051
 11
13.0147852202
 21
5.2464698064
  0
LWPOLYLINE
  5
3E3
100
AcDbEntity
  8
0
100
AcDbPolyline
 62
7
  6
CONTINUOUS
 90
6
 70
0
 10
13.0113849618
 20
5.2486887286
 10
13.165268722
 20
5.1596268605
 10
13.3174286493
 20
5.0593047876
 10
13.4678647438
 20
4.9477225099
 10
13.6171654662
 20
4.8243862932
 10
13.7647423558
 20
4.6897898717
  0
LWPOLYLINE
  5
3E4
100
AcDbEntity
  8
0
100
AcDbPolyline
 62
253
  6
CONTINUOUS
 90
19
 70
0
 10
13.5261612946
 20
19.198180742
 10
13.5266187761
 20
19.2549469248
 10
13.5233012403
 20
19.3131952135
 10
13.5162323136
 20
19.3725113618
 10
13.50546233
 20
19.4324735512
 10
13.4910678864
 20
19.4926553226
 10
13.4731513034
 20
19.5526286088
 10
13.4518400413
 20
19.6119668718
 10
13.4272856957
 20
19.6702481356
 10
13.3996628301
 20
19.7270579167
 10
13.3691679058
 20
19.7819922087
 10
13.3360178369
 20
19.8346603146
 10
13.3004483538
 20
19.8846876262
 10
13.2627124502
 20
19.9317183424
 10
13.2230785163
 20
19.9754180089
 10
13.1818283753
 20
20.015475847
 10
13.1392553838
 20
20.0516069665
 10
13.0956623492
 20
20.0835543984
 10
13.0513593098
 20
20.1110909287
  0
LINE
  5
3E5
100
AcDbEntity
  8
0
100
AcDbLine
 62
7
  6
CONTINUOUS
 10
15.1176119661
 20
18.385537614
 11
15.1178631656
 21
18.3968840756
  0
LINE
  5
3E6
100
AcDbEntity
  8
0
100
AcDbLine
 62
253
  6
CONTINUOUS
 10
15.0274840371
 20
16.0656876178
 11
15.0388694766
 21
16.4689706228
  0
LWPOLYLINE
  5
3E7
100
AcDbEntity
  8
0
100
AcDbPolyline
 62
7
  6
CONTINUOUS
 90
22
 70
0
 10
14.4829587102
 20
15.3497081613
 10
14.4843589987
 20
15.3968170192
 10
14.4891275112
 20
15.4443382969
 10
14.4972642475
 20
15.4922719946
 10
14.508918002
 20
15.5410401102
 10
14.5239399803
 20
15.5902206456
 10
14.5418837998
 20
15.6385476073
 10
14.5628117629
 20
15.6859909811
 10
14.5866615672
 20
15.7325807811
 10
14.6127999231
 20
15.7771410556
 10
14.6412765445
 20
15.8196227524
 10
14.6720417174
 20
15.8600749238
 10
14.7043130106
 20
15.8974687749
 10
14.7381268806
 20
15.9317378219
 10
14.7734468708
 20
15.9629485487
 10
14.8093811801
 20
15.9902716125
 10
14.8459518042
 20
16.0136240014
 10
14.8831367475
 20
16.0330887272
 10
14.9199782213
 20
16.0480854825
 10
14.9561569627
 20
16.0584208314
 10
14.9919922347
 20
16.0642882099
 10
15.0274840371
 20
16.0656876178
  0
LINE
  5
3E8
100
AcDbEntity
  8
0
100
AcDbLine
 62
7
  6
CONTINUOUS
 10
15.2353146425
 20
15.9393385558
 11
15.2584186733
 21
16.7210424918
  0
LINE
  5
3E9
100
AcDbEntity
  8
0
100
AcDbLine
 62
253
  6
CONTINUOUS
 10
14.9723412742
 20
14.5131157696
 11
14.9958936216
 21
15.1185031164
  0
LWPOLYLINE
  5
3EA
100
AcDbEntity
  8
0
100
AcDbPolyline
 62
7
  6
CONTINUOUS
 90
11
 70
0
 10
15.25841827
 20
16.7210467227
 10
15.2582250064
 20
16.7162141613
 10
15.2539141594
 20
16.6854383466
 10
15.2443120809
 20
16.6550121974
 10
15.2294831954
 20
16.6251362694
 10
15.2095299361
 20
16.5960292895
 10
15.1845906084
 20
16.5679025062
 10
15.1548307372
 20
16.540938917
 10
15.1204520123
 20
16.5153301661
 10
15.0816953058
 20
16.4912741565
 10
15.0388308563
 20
16.4689505134
  0
LWPOLYLINE
  5
3EB
100
AcDbEntity
  8
0
100
AcDbPolyline
 62
253
  6
CONTINUOUS
 90
5
 70
0
 10
14.8389637718
 20
11.897671632
 10
14.8771297592
 20
12.5535772185
 10
14.9120788774
 20
13.2081266833
 10
14.9438185104
 20
13.8612992873
 10
14.9723412742
 20
14.5131157696
  0
LINE
  5
3EC
100
AcDbEntity
  8
0
100
AcDbLine
 62
253
  6
CONTINUOUS
 10
14.7975587633
 20
11.2404721408
 11
14.8389637718
 21
11.897671632
  0
LWPOLYLINE
  5
3ED
100
AcDbEntity
  8
0
100
AcDbPolyline
 62
7
  6
CONTINUOUS
 90
9
 70
0
 10
14.8746258993
 20
9.5071602701
 10
14.9338452887
 20
10.2811162141
 10
14.9914081481
 20
11.0933635749
 10
15.0441252458
 20
11.9037353397
 10
15.0919932197
 20
12.712185476
 10
15.1350089796
 20
13.518668116
 10
15.1731697067
 20
14.3231375778
 10
15.206472846
 20
15.1255482335
 10
15.2173685821
 20
15.432120872
  0
LWPOLYLINE
  5
3EE
100
AcDbEntity
  8
0
100
AcDbPolyline
 62
253
  6
CONTINUOUS
 90
4
 70
0
 10
14.6538874592
 20
9.2611724564
 10
14.705016915
 20
9.9222329225
 10
14.7529073497
 20
10.581999484
 10
14.7975587633
 20
11.2404721408
  0
LINE
  5
3EF
100
AcDbEntity
  8
0
100
AcDbLine
 62
253
  6
CONTINUOUS
 10
14.6181582157
 20
8.8236319865
 11
14.6538874592
 21
9.2611724564
  0
LINE
  5
3F0
100
AcDbEntity
  8
0
100
AcDbLine
 62
253
  6
CONTINUOUS
 10
14.5811908122
 20
8.3856511267
 11
14.6181582157
 21
8.8236319865
  0
LINE
  5
3F1
100
AcDbEntity
  8
0
100
AcDbLine
 62
253
  6
CONTINUOUS
 10
14.5429588517
 20
7.9472182915
 11
14.5811908122
 21
8.3856511267
  0
LINE
  5
3F2
100
AcDbEntity
  8
0
100
AcDbLine
 62
7
  6
CONTINUOUS
 10
14.445301753
 20
7.198170222
 11
14.4515778027
 21
7.270882265
  0
LWPOLYLINE
  5
3F3
100
AcDbEntity
  8
0
100
AcDbPolyline
 62
7
  6
CONTINUOUS
 90
7
 70
0
 10
14.7418363406
 20
7.9462882865
 10
14.7645612096
 20
8.2006273719
 10
14.7862511792
 20
8.4482548775
 10
14.8069444851
 20
8.6892188
 10
14.8266834901
 20
8.9236304912
 10
14.8455033541
 20
9.1515321458
 10
14.8741241699
 20
9.5069795436
  0
LINE
  5
3F4
100
AcDbEntity
  8
0
100
AcDbLine
 62
7
  6
CONTINUOUS
 10
14.7082986196
 20
7.5795477287
 11
14.7418363406
 21
7.9462882865
  0
LINE
  5
3F5
100
AcDbEntity
  8
0
100
AcDbLine
 62
253
  6
CONTINUOUS
 10
14.4830484869
 20
7.288637591
 11
14.4999019172
 21
7.4709204966
  0
LINE
  5
3F6
100
AcDbEntity
  8
0
100
AcDbLine
 62
253
  6
CONTINUOUS
 10
14.4999019172
 20
7.4709204966
 11
14.5429588517
 21
7.9472182915
  0
LWPOLYLINE
  5
3F7
100
AcDbEntity
  8
0
100
AcDbPolyline
 62
7
  6
CONTINUOUS
 90
8
 70
0
 10
15.1854757531
 20
-0.1176350737
 10
15.1733516997
 20
-0.1460458113
 10
15.1031942319
 20
-0.2788351054
 10
15.0245634394
 20
-0.400163771
 10
14.9372545169
 20
-0.5099094437
 10
14.8414722696
 20
-0.6081944878
 10
14.738704348
 20
-0.6936364977
 10
14.6910114228
 20
-0.7251069054
  0
LWPOLYLINE
  5
3F8
100
AcDbEntity
  8
0
100
AcDbPolyline
 62
253
  6
CONTINUOUS
 90
8
 70
0
 10
4.9404575387
 20
13.8431967984
 10
4.9829992173
 20
13.8483362069
 10
5.0630126233
 20
13.8616575922
 10
5.1404966474
 20
13.8783024741
 10
5.2149002245
 20
13.8981524746
 10
5.2856941977
 20
13.9210664208
 10
5.3523750815
 20
13.9468813492
 10
5.4144686427
 20
13.9754136643
  0
LINE
  5
3F9
100
AcDbEntity
  8
0
100
AcDbLine
 62
253
  6
CONTINUOUS
 10
14.2508491051
 20
7.1576339021
 11
15.446807909
 21
6.5596545002
  0
LINE
  5
3FA
100
AcDbEntity
  8
DRAFT
100
AcDbLine
 62
7
  6
CONTINUOUS
 10
-8.5299266429
 20
18.8984842862
 11
-4.2872859558
 21
16.7771639427
  0
LINE
  5
3FB
100
AcDbEntity
  8
DRAFT
100
AcDbLine
 62
7
  6
CONTINUOUS
 10
5.5160170395
 20
12.7055292491
 11
4.9404575387
 21
12.9933089995
  0
LINE
  5
3FC
100
AcDbEntity
  8
RACCORDO
100
AcDbLine
 62
7
  6
CONTINUOUS
 10
2.6372152245
 20
15.1208971511
 11
1.3040028909
 21
15.7875033179
  0
LINE
  5
3FD
100
AcDbEntity
  8
RACCORDO
100
AcDbLine
 62
7
  6
CONTINUOUS
 10
-10.7271029399
 20
21.8030562333
 11
-12.0603152735
 21
22.4696624001
  0
LINE
  5
3FE
100
AcDbEntity
  8
0
100
AcDbLine
 62
7
  6
CONTINUOUS
 10
15.6826008265
 20
6.5795190684
 11
14.3803026186
 21
7.2306697891
  0
LINE
  5
3FF
100
AcDbEntity
  8
0
100
AcDbLine
 62
7
  6
CONTINUOUS
 10
13.7647423558
 20
4.6897898717
 11
13.9088300304
 21
4.5454144479
  0
LWPOLYLINE
  5
400
100
AcDbEntity
  8
0
100
AcDbPolyline
 62
7
  6
CONTINUOUS
 90
19
 70
0
 10
13.8502547523
 20
4.5982185838
 10
14.0042924634
 20
4.4435330773
 10
14.1521490156
 20
4.2810265924
 10
14.2938244088
 20
4.1106991289
 10
14.4298454644
 20
3.9317683925
 10
14.5596853612
 20
3.7450166776
 10
14.6817636347
 20
3.5527908674
 10
14.7959918514
 20
3.3550250361
 10
14.9024584449
 20
3.1517851096
 10
14.9998482522
 20
2.9456157483
 10
15.0880524834
 20
2.7364925316
 10
15.1671799284
 20
2.5244398801
 10
15.2362417938
 20
2.3120757165
 10
15.295125866
 20
2.0993826153
 10
15.3439443585
 20
1.8863780021
 10
15.382045119
 20
1.6757320765
 10
15.4092107635
 20
1.468334905
 10
15.425658676
 20
1.2632964211
 10
15.4313888565
 20
1.0606166247
  0
LINE
  5
401
100
AcDbEntity
  8
0
100
AcDbLine
 62
253
  6
CONTINUOUS
 10
14.9661459229
 20
17.3726518232
 11
14.9559119226
 21
17.4693227034
  0
LINE
  5
402
100
AcDbEntity
  8
0
100
AcDbLine
 62
253
  6
CONTINUOUS
 10
14.9559119226
 20
17.4693227034
 11
14.9411075308
 21
17.6160831361
  0
LINE
  5
403
100
AcDbEntity
  8
0
100
AcDbLine
 62
7
  6
CONTINUOUS
 10
15.163279675
 20
17.8932166068
 11
15.1475677131
 21
18.0532271661
  0
LINE
  5
404
100
AcDbEntity
  8
0
100
AcDbLine
 62
7
  6
CONTINUOUS
 10
15.2440103896
 20
17.260228206
 11
15.2429812351
 21
17.2708296228
  0
LINE
  5
405
100
AcDbEntity
  8
0
100
AcDbLine
 62
7
  6
CONTINUOUS
 10
15.1475677131
 20
18.0532271661
 11
15.1384743426
 21
18.1484919935
  0
LINE
  5
406
100
AcDbEntity
  8
0
100
AcDbLine
 62
253
  6
CONTINUOUS
 10
14.9411075308
 20
17.6160831361
 11
14.9219520866
 21
17.8147453693
  0
LINE
  5
407
100
AcDbEntity
  8
0
100
AcDbLine
 62
7
  6
CONTINUOUS
 10
15.2449949296
 20
17.2494813029
 11
15.2440103896
 21
17.260228206
  0
LINE
  5
408
100
AcDbEntity
  8
0
100
AcDbLine
 62
253
  6
CONTINUOUS
 10
14.9219520866
 20
17.8147453693
 11
14.8986572097
 21
18.0861552009
  0
LINE
  5
409
100
AcDbEntity
  8
0
100
AcDbLine
 62
7
  6
CONTINUOUS
 10
15.1386869031
 20
18.1462380468
 11
15.1186929865
 21
18.3795816023
  0
LINE
  5
40A
100
AcDbEntity
  8
0
100
AcDbLine
 62
7
  6
CONTINUOUS
 10
15.2459351142
 20
17.2385947058
 11
15.2449949296
 21
17.2494813029
  0
LINE
  5
40B
100
AcDbEntity
  8
0
100
AcDbLine
 62
7
  6
CONTINUOUS
 10
15.2468316608
 20
17.2275633349
 11
15.2459351142
 21
17.2385947058
  0
LINE
  5
40C
100
AcDbEntity
  8
0
100
AcDbLine
 62
7
  6
CONTINUOUS
 10
15.2476837477
 20
17.2163987431
 11
15.2468316608
 21
17.2275633349
  0
LINE
  5
40D
100
AcDbEntity
  8
0
100
AcDbLine
 62
7
  6
CONTINUOUS
 10
15.2484917156
 20
17.2051073929
 11
15.2476837477
 21
17.2163987431
  0
LINE
  5
40E
100
AcDbEntity
  8
0
100
AcDbLine
 62
7
  6
CONTINUOUS
 10
15.2496234398
 20
17.1879444837
 11
15.2484917156
 21
17.2051073929
  0
LINE
  5
40F
100
AcDbEntity
  8
0
100
AcDbLine
 62
7
  6
CONTINUOUS
 10
15.2506651907
 20
17.1704589649
 11
15.2496234398
 21
17.1879444837
  0
LWPOLYLINE
  5
410
100
AcDbEntity
  8
0
100
AcDbPolyline
 62
253
  6
CONTINUOUS
 90
3
 70
0
 10
15.1967488161
 20
17.5847669476
 10
15.1985147277
 20
17.5518341978
 10
15.1954361876
 20
17.5147843955
  0
LINE
  5
411
100
AcDbEntity
  8
0
100
AcDbLine
 62
7
  6
CONTINUOUS
 10
15.251618362
 20
17.1526971637
 11
15.2506651907
 21
17.1704589649
  0
LINE
  5
412
100
AcDbEntity
  8
0
100
AcDbLine
 62
7
  6
CONTINUOUS
 10
15.2524875333
 20
17.1346895283
 11
15.251618362
 21
17.1526971637
  0
LINE
  5
413
100
AcDbEntity
  8
0
100
AcDbLine
 62
7
  6
CONTINUOUS
 10
15.2532764155
 20
17.1164934074
 11
15.2524875333
 21
17.1346895283
  0
LINE
  5
414
100
AcDbEntity
  8
0
100
AcDbLine
 62
7
  6
CONTINUOUS
 10
15.2542145575
 20
17.0920276645
 11
15.2532764155
 21
17.1164934074
  0
LINE
  5
415
100
AcDbEntity
  8
0
100
AcDbLine
 62
7
  6
CONTINUOUS
 10
15.2552350563
 20
17.0611259704
 11
15.2542145575
 21
17.0920276645
  0
LWPOLYLINE
  5
416
100
AcDbEntity
  8
0
100
AcDbPolyline
 62
253
  6
CONTINUOUS
 90
6
 70
0
 10
15.0365940812
 20
16.7536892643
 10
15.0350937451
 20
16.8063956375
 10
15.0325053466
 20
16.8573422581
 10
15.0286085089
 20
16.9064042106
 10
15.0236236088
 20
16.9537064104
 10
15.0175506464
 20
16.9992488575
  0
LINE
  5
417
100
AcDbEntity
  8
0
100
AcDbLine
 62
7
  6
CONTINUOUS
 10
15.2561157803
 20
17.0294257306
 11
15.2552350563
 21
17.0611259704
  0
LWPOLYLINE
  5
418
100
AcDbEntity
  8
0
100
AcDbPolyline
 62
253
  6
CONTINUOUS
 90
10
 70
0
 10
14.8984364357
 20
18.1232314803
 10
14.8972628039
 20
18.1803245679
 10
14.8945894002
 20
18.2364730893
 10
14.8904162247
 20
18.2916770445
 10
14.8847431282
 20
18.3459973724
 10
14.8775702598
 20
18.3993731341
 10
14.8688980672
 20
18.4516215129
 10
14.8587266996
 20
18.5026815701
 10
14.8470560076
 20
18.5526142444
 10
14.8338859914
 20
18.6014195359
  0
LINE
  5
419
100
AcDbEntity
  8
0
100
AcDbLine
 62
7
  6
CONTINUOUS
 10
15.2569234087
 20
16.9937531652
 11
15.2561157803
 21
17.0294257306
  0
LINE
  5
41A
100
AcDbEntity
  8
0
100
AcDbLine
 62
7
  6
CONTINUOUS
 10
15.1182244784
 20
18.3795414584
 11
15.1163492368
 21
18.4721687391
  0
LINE
  5
41B
100
AcDbEntity
  8
0
100
AcDbLine
 62
7
  6
CONTINUOUS
 10
15.2576031865
 20
16.9548751791
 11
15.2569234087
 21
16.9937531652
  0
LINE
  5
41C
100
AcDbEntity
  8
0
100
AcDbLine
 62
7
  6
CONTINUOUS
 10
14.9012825604
 20
16.0069944452
 11
14.9130729613
 21
15.0603711525
  0
LINE
  5
41D
100
AcDbEntity
  8
0
100
AcDbLine
 62
7
  6
CONTINUOUS
 10
15.2581104959
 20
16.9148453014
 11
15.2576031865
 21
16.9548751791
  0
LWPOLYLINE
  5
41E
100
AcDbEntity
  8
0
100
AcDbPolyline
 62
253
  6
CONTINUOUS
 90
3
 70
0
 10
15.0389742542
 20
16.5875099366
 10
15.0385343358
 20
16.6442464138
 10
15.0365940812
 20
16.7536892643
  0
LINE
  5
41F
100
AcDbEntity
  8
0
100
AcDbLine
 62
253
  6
CONTINUOUS
 10
14.8984364357
 20
18.1232314803
 11
14.8986572097
 21
18.0861552009
  0
LINE
  5
420
100
AcDbEntity
  8
0
100
AcDbLine
 62
7
  6
CONTINUOUS
 10
15.2585312068
 20
16.8615997418
 11
15.2581104959
 21
16.9148453014
  0
LINE
  5
421
100
AcDbEntity
  8
0
100
AcDbLine
 62
7
  6
CONTINUOUS
 10
15.2587418519
 20
16.7748980979
 11
15.2585312068
 21
16.8615997418
  0
LINE
  5
422
100
AcDbEntity
  8
0
100
AcDbLine
 62
253
  6
CONTINUOUS
 10
15.0389742542
 20
16.5875099366
 11
15.0388694766
 21
16.4689706228
  0
LINE
  5
423
100
AcDbEntity
  8
0
100
AcDbLine
 62
7
  6
CONTINUOUS
 10
15.2584806401
 20
16.7253525488
 11
15.2586080508
 21
16.774869906
  0
LINE
  5
424
100
AcDbEntity
  8
0
100
AcDbLine
 62
7
  6
CONTINUOUS
 10
15.2584805897
 20
16.7253330443
 11
15.25841827
 21
16.7210467227
  0
LWPOLYLINE
  5
425
100
AcDbEntity
  8
0
100
AcDbPolyline
 62
253
  6
CONTINUOUS
 90
5
 70
0
 10
15.2586074929
 20
16.774470692
 10
15.2584725816
 20
16.7681409441
 10
15.2546645479
 20
16.7385414643
 10
15.2456460863
 20
16.7093362231
 10
15.2314801316
 20
16.6807089628
  0
LINE
  5
426
100
AcDbEntity
  8
0
100
AcDbLine
 62
7
  6
CONTINUOUS
 10
5.7995874587
 20
-15.1607142934
 11
5.5160170395
 21
-15.302499503
  0
LINE
  5
427
100
AcDbEntity
  8
RACCORDO
100
AcDbLine
 62
253
  6
CONTINUOUS
 10
6.1543445047
 20
-14.5440537358
 11
6.692960081
 21
-14.2758116447
  0
LINE
  5
428
100
AcDbEntity
  8
RACCORDO
100
AcDbLine
 62
253
  6
CONTINUOUS
 10
6.1543445047
 20
-15.0155557158
 11
7.2244391419
 21
-14.4826256711
  0
LWPOLYLINE
  5
429
100
AcDbEntity
  8
0
100
AcDbPolyline
 62
7
  6
CONTINUOUS
 90
19
 70
0
 10
5.8614512859
 20
-15.1330778679
 10
5.8843594619
 20
-15.1241717604
 10
5.9066227658
 20
-15.115801004
 10
5.9282002078
 20
-15.107971654
 10
5.9490253331
 20
-15.1006822843
 10
5.9690844521
 20
-15.0939500303
 10
5.9884053756
 20
-15.087806426
 10
6.0069402686
 20
-15.0822479285
 10
6.0246320326
 20
-15.0772918749
 10
6.0414745029
 20
-15.0729966382
 10
6.0574031146
 20
-15.0693643756
 10
6.0723562794
 20
-15.0664106716
 10
6.0863109489
 20
-15.0642114249
 10
6.0991953884
 20
-15.0627747289
 10
6.110926931
 20
-15.062117063
 10
6.1214460249
 20
-15.062326608
 10
6.1306664579
 20
-15.0634240772
 10
6.1385017156
 20
-15.0654267293
 10
6.1444307409
 20
-15.0681477343
  0
LWPOLYLINE
  5
42A
100
AcDbEntity
  8
RACCORDO
100
AcDbPolyline
 62
7
  6
CONTINUOUS
 90
13
 70
0
 10
4.4728137883
 20
17.14027533
 10
4.469788574
 20
17.1397410956
 10
4.4662820424
 20
17.1394186974
 10
4.4623073987
 20
17.1392809704
 10
4.4578798025
 20
17.1393369132
 10
4.4530153183
 20
17.139596106
 10
4.4477282446
 20
17.1400317512
 10
4.4420350304
 20
17.1406514151
 10
4.4359529362
 20
17.1414633592
 10
4.4294972919
 20
17.1424413499
 10
4.4226849218
 20
17.1435810761
 10
4.4155345538
 20
17.1448999937
 10
4.4080645387
 20
17.1464039183
  0
LINE
  5
42B
100
AcDbEntity
  8
RACCORDO
100
AcDbLine
 62
7
  6
CONTINUOUS
 10
2.0516730826
 20
15.9319795166
 11
2.676078332
 21
15.8016031211
  0
LINE
  5
42C
100
AcDbEntity
  8
RACCORDO
100
AcDbLine
 62
253
  6
CONTINUOUS
 10
2.2785165761
 20
16.0878006773
 11
2.9897371842
 21
15.9392971545
  0
LWPOLYLINE
  5
42D
100
AcDbEntity
  8
RACCORDO
100
AcDbPolyline
 62
253
  6
CONTINUOUS
 90
15
 70
0
 10
0.7767581926
 20
17.3951564902
 10
0.7674765039
 20
17.3994493766
 10
0.7582171401
 20
17.4031435145
 10
0.7490054673
 20
17.4062276722
 10
0.7398648985
 20
17.4086927056
 10
0.7308225781
 20
17.410529977
 10
0.721909068
 20
17.4117327058
 10
0.7131507083
 20
17.4122975408
 10
0.7045695486
 20
17.4122232667
 10
0.6961888824
 20
17.4115100593
 10
0.6880315482
 20
17.4101597894
 10
0.6801200951
 20
17.4081761149
 10
0.6724764627
 20
17.4055645109
 10
0.6651217002
 20
17.4023321892
 10
0.6636725324
 20
17.4016044684
  0
LWPOLYLINE
  5
42E
100
AcDbEntity
  8
RACCORDO
100
AcDbPolyline
 62
253
  6
CONTINUOUS
 90
15
 70
0
 10
-12.5875599718
 20
24.0773155724
 10
-12.5968658448
 20
24.0816188753
 10
-12.6061434002
 20
24.0853181419
 10
-12.6153671985
 20
24.088403225
 10
-12.6245119561
 20
24.0908656633
 10
-12.633552588
 20
24.0926986975
 10
-12.6424642782
 20
24.0938972948
 10
-12.6512225851
 20
24.0944581699
 10
-12.659803499
 20
24.0943797874
 10
-12.6681834833
 20
24.0936623645
 10
-12.6763395596
 20
24.0923078722
 10
-12.6842493662
 20
24.0903200276
 10
-12.6918912129
 20
24.0877042858
 10
-12.6992441559
 20
24.0844678188
 10
-12.70063848
 20
24.0837672194
  0
LWPOLYLINE
  5
42F
100
AcDbEntity
  8
RACCORDO
100
AcDbPolyline
 62
253
  6
CONTINUOUS
 90
31
 70
0
 10
1.9259946164
 20
16.0883134012
 10
1.9354526346
 20
16.0838248676
 10
1.9453658716
 20
16.0795890213
 10
1.9557073568
 20
16.0756173866
 10
1.9664489544
 20
16.0719207691
 10
1.97756144
 20
16.068509226
 10
1.9890145804
 20
16.0653920389
 10
2.0007772152
 20
16.0625776889
 10
2.0128173423
 20
16.0600738326
 10
2.0251022043
 20
16.0578872824
 10
2.0375983784
 20
16.0560239871
 10
2.0502718664
 20
16.054489016
 10
2.0630881881
 20
16.0532865455
 10
2.0760124745
 20
16.0524198469
 10
2.0890095628
 20
16.0518912783
 10
2.1020440922
 20
16.0517022777
 10
2.1150806002
 20
16.0518533594
 10
2.1280836187
 20
16.0523441123
 10
2.1410177708
 20
16.0531732012
 10
2.1538478669
 20
16.0543383704
 10
2.1665390006
 20
16.05583645
 10
2.1790566434
 20
16.0576633641
 10
2.1913667391
 20
16.0598141423
 10
2.2034357959
 20
16.0622829331
 10
2.215230978
 20
16.0650630196
 10
2.2267201944
 20
16.0681468382
 10
2.2378721869
 20
16.0715259989
 10
2.2486566146
 20
16.075191308
 10
2.2590441365
 20
16.0791327935
 10
2.2690064918
 20
16.0833397318
 10
2.2785165761
 20
16.0878006773
  0
LWPOLYLINE
  5
430
100
AcDbEntity
  8
RACCORDO
100
AcDbPolyline
 62
253
  6
CONTINUOUS
 90
31
 70
0
 10
-11.438323548
 20
22.7704724834
 10
-11.4288655298
 20
22.7659839498
 10
-11.4189522928
 20
22.7617481035
 10
-11.4086108076
 20
22.7577764688
 10
-11.3978692101
 20
22.7540798513
 10
-11.3867567244
 20
22.7506683082
 10
-11.375303584
 20
22.7475511212
 10
-11.3635409492
 20
22.7447367711
 10
-11.3515008222
 20
22.7422329148
 10
-11.3392159601
 20
22.7400463646
 10
-11.3267197861
 20
22.7381830693
 10
-11.314046298
 20
22.7366480983
 10
-11.3012299763
 20
22.7354456277
 10
-11.28830569
 20
22.7345789291
 10
-11.2753086017
 20
22.7340503605
 10
-11.2622740722
 20
22.7338613599
 10
-11.2492375642
 20
22.7340124416
 10
-11.2362345457
 20
22.7345031945
 10
-11.2233003936
 20
22.7353322834
 10
-11.2104702975
 20
22.7364974526
 10
-11.1977791639
 20
22.7379955322
 10
-11.185261521
 20
22.7398224463
 10
-11.1729514253
 20
22.7419732245
 10
-11.1608823685
 20
22.7444420153
 10
-11.1490871865
 20
22.7472221018
 10
-11.13759797
 20
22.7503059204
 10
-11.1264459775
 20
22.7536850811
 10
-11.1156615499
 20
22.7573503902
 10
-11.1052740279
 20
22.7612918757
 10
-11.0953116726
 20
22.765498814
 10
-11.0858015883
 20
22.7699597596
  0
LWPOLYLINE
  5
431
100
AcDbEntity
  8
RACCORDO
100
AcDbPolyline
 62
253
  6
CONTINUOUS
 90
31
 70
0
 10
1.9259946164
 20
16.4282873353
 10
1.9354547658
 20
16.4237978419
 10
1.9453703524
 20
16.4195611398
 10
1.9557143902
 20
16.4155887626
 10
1.9664587385
 20
16.411891521
 10
1.977574144
 20
16.4084794848
 10
1.9890303175
 20
16.4053619526
 10
2.0007960668
 20
16.4025474115
 10
2.0128393741
 20
16.4000435191
 10
2.0251274467
 20
16.397857092
 10
2.0376268343
 20
16.3959940801
 10
2.0503035161
 20
16.3944595523
 10
2.063122982
 20
16.3932576839
 10
2.0760503535
 20
16.3923917435
 10
2.0890504287
 20
16.3918640876
 10
2.102087772
 20
16.3916761502
 10
2.1151268434
 20
16.3918284355
 10
2.1281322083
 20
16.3923205213
 10
2.1410685827
 20
16.393151071
 10
2.1539009218
 20
16.3943178441
 10
2.1665941289
 20
16.3958176588
 10
2.1791132782
 20
16.3976463755
 10
2.1914240748
 20
16.3997989449
 10
2.2034932796
 20
16.4022695149
 10
2.2152883974
 20
16.4050514188
 10
2.2267798199
 20
16.408137798
 10
2.2379336364
 20
16.4115196727
 10
2.248712792
 20
16.4151854318
 10
2.259086558
 20
16.4191237176
 10
2.269029862
 20
16.4233240702
 10
2.2785165761
 20
16.4277746115
  0
LWPOLYLINE
  5
432
100
AcDbEntity
  8
RACCORDO
100
AcDbPolyline
 62
253
  6
CONTINUOUS
 90
31
 70
0
 10
-11.438323548
 20
23.1104464175
 10
-11.4288655298
 20
23.1059578839
 10
-11.4189522928
 20
23.1017220376
 10
-11.4086108076
 20
23.0977504029
 10
-11.3978692101
 20
23.0940537854
 10
-11.3867567244
 20
23.0906422423
 10
-11.375303584
 20
23.0875250553
 10
-11.3635409492
 20
23.0847107052
 10
-11.3515008222
 20
23.082206849
 10
-11.3392159601
 20
23.0800202987
 10
-11.3267197861
 20
23.0781570034
 10
-11.314046298
 20
23.0766220324
 10
-11.3012299763
 20
23.0754195618
 10
-11.28830569
 20
23.0745528632
 10
-11.2753086017
 20
23.0740242946
 10
-11.2622740722
 20
23.073835294
 10
-11.2492375642
 20
23.0739863757
 10
-11.2362345457
 20
23.0744771286
 10
-11.2233003936
 20
23.0753062175
 10
-11.2104702975
 20
23.0764713868
 10
-11.1977791639
 20
23.0779694663
 10
-11.185261521
 20
23.0797963804
 10
-11.1729514253
 20
23.0819471587
 10
-11.1608823685
 20
23.0844159494
 10
-11.1490871865
 20
23.0871960359
 10
-11.13759797
 20
23.0902798546
 10
-11.1264459775
 20
23.0936590152
 10
-11.1156615499
 20
23.0973243243
 10
-11.1052740279
 20
23.1012658098
 10
-11.0953116726
 20
23.1054727481
 10
-11.0858015883
 20
23.1099336937
  0
LWPOLYLINE
  5
433
100
AcDbEntity
  8
RACCORDO
100
AcDbPolyline
 62
7
  6
CONTINUOUS
 90
7
 70
0
 10
1.9909679854
 20
15.9530949148
 10
1.9996184544
 20
15.9489749651
 10
2.0114547606
 20
15.9439759714
 10
2.0235532602
 20
15.9395846885
 10
2.0358847966
 20
15.9358154809
 10
2.0484158761
 20
15.9326823098
 10
2.051673163
 20
15.9319794998
  0
LWPOLYLINE
  5
434
100
AcDbEntity
  8
RACCORDO
100
AcDbPolyline
 62
7
  6
CONTINUOUS
 90
7
 70
0
 10
-11.373350179
 20
22.635253997
 10
-11.36469971
 20
22.6311340473
 10
-11.3528634039
 20
22.6261350536
 10
-11.3407649042
 20
22.6217437707
 10
-11.3284333678
 20
22.6179745631
 10
-11.3159022884
 20
22.614841392
 10
-11.3126450014
 20
22.614138582
  0
LINE
  5
435
100
AcDbEntity
  8
RACCORDO
100
AcDbLine
 62
7
  6
CONTINUOUS
 10
-7.1136501837
 20
20.3725764799
 11
-1.6023430841
 21
17.6169229301
  0
LINE
  5
436
100
AcDbEntity
  8
RACCORDO
100
AcDbLine
 62
7
  6
CONTINUOUS
 10
-12.6983349314
 20
23.2977463732
 11
-11.3733502516
 21
22.6352540333
  0
LINE
  5
437
100
AcDbEntity
  8
RACCORDO
100
AcDbLine
 62
7
  6
CONTINUOUS
 10
0.665983233
 20
16.615587291
 11
1.9909679129
 21
15.9530949511
  0
LINE
  5
438
100
AcDbEntity
  8
RACCORDO
100
AcDbLine
 62
253
  6
CONTINUOUS
 10
-12.7633082278
 20
23.4329648233
 11
-11.438323548
 21
22.7704724834
  0
LINE
  5
439
100
AcDbEntity
  8
RACCORDO
100
AcDbLine
 62
253
  6
CONTINUOUS
 10
0.6010099366
 20
16.7508057411
 11
1.9259946164
 21
16.0883134012
  0
LINE
  5
43A
100
AcDbEntity
  8
RACCORDO
100
AcDbLine
 62
253
  6
CONTINUOUS
 10
1.9259946164
 20
16.4282873353
 11
0.6010099366
 21
17.0907796752
  0
LINE
  5
43B
100
AcDbEntity
  8
RACCORDO
100
AcDbLine
 62
253
  6
CONTINUOUS
 10
-11.438323548
 20
23.1104464175
 11
-12.7633082278
 21
23.7729387574
  0
LINE
  5
43C
100
AcDbEntity
  8
DRAFT
100
AcDbLine
 62
7
  6
CONTINUOUS
 10
-9.4845207975
 20
22.3105050362
 11
-7.2600967932
 21
21.198293034
  0
LINE
  5
43D
100
AcDbEntity
  8
DRAFT
100
AcDbLine
 62
7
  6
CONTINUOUS
 10
-0.5396200155
 20
17.8380546452
 11
0.5543205858
 21
17.2910843446
  0
LINE
  5
43E
100
AcDbEntity
  8
RACCORDO
100
AcDbLine
 62
7
  6
CONTINUOUS
 10
3.8797973669
 20
15.628345954
 11
3.9030607188
 21
15.616714278
  0
LINE
  5
43F
100
AcDbEntity
  8
RACCORDO
100
AcDbLine
 62
253
  6
CONTINUOUS
 10
2.1017428724
 20
16.7326641503
 11
0.7767581926
 21
17.3951564902
  0
LINE
  5
440
100
AcDbEntity
  8
RACCORDO
100
AcDbLine
 62
253
  6
CONTINUOUS
 10
-11.262575292
 20
23.4148232325
 11
-12.5875599718
 21
24.0773155724
  0
LINE
  5
441
100
AcDbEntity
  8
RACCORDO
100
AcDbLine
 62
253
  6
CONTINUOUS
 10
-1.6023430841
 20
18.6975062409
 11
-7.1136501837
 21
21.4531597907
  0
LINE
  5
442
100
AcDbEntity
  8
RACCORDO
100
AcDbLine
 62
253
  6
CONTINUOUS
 10
-1.1795207043
 20
18.7998958053
 11
-7.255275354
 21
21.8377731302
  0
LINE
  5
443
100
AcDbEntity
  8
RACCORDO
100
AcDbLine
 62
7
  6
CONTINUOUS
 10
-9.4845207975
 20
23.0100541282
 11
-8.0764780625
 21
22.3060327607
  0
LINE
  5
444
100
AcDbEntity
  8
RACCORDO
100
AcDbLine
 62
7
  6
CONTINUOUS
 10
3.8797973669
 20
16.327895046
 11
4.622162548
 21
15.9567124554
  0
LINE
  5
445
100
AcDbEntity
  8
DRAFT
100
AcDbLine
 62
7
  6
CONTINUOUS
 10
-6.7621596899
 20
22.1617600477
 11
-0.5396200155
 21
19.0504902105
  0
LWPOLYLINE
  5
446
100
AcDbEntity
  8
RACCORDO
100
AcDbPolyline
 62
253
  6
CONTINUOUS
 90
16
 70
0
 10
-12.7633082278
 20
23.4329648233
 10
-12.772285295
 20
23.4376938324
 10
-12.7807569876
 20
23.4426504509
 10
-12.788700257
 20
23.4478211935
 10
-12.796093492
 20
23.4531919923
 10
-12.8029165783
 20
23.4587482351
 10
-12.8091509523
 20
23.4644748053
 10
-12.8147796525
 20
23.4703561227
 10
-12.819787365
 20
23.4763761862
 10
-12.8241604654
 20
23.4825186173
 10
-12.8278870561
 20
23.4887667043
 10
-12.8309569981
 20
23.4951034483
 10
-12.8333619393
 20
23.5015116092
 10
-12.8350953365
 20
23.5079737523
 10
-12.8361524737
 20
23.5144722965
 10
-12.8365315325
 20
23.521353171
  0
LWPOLYLINE
  5
447
100
AcDbEntity
  8
RACCORDO
100
AcDbPolyline
 62
253
  6
CONTINUOUS
 90
16
 70
0
 10
-12.7633082278
 20
23.7729387574
 10
-12.772285295
 20
23.7776677665
 10
-12.7807569876
 20
23.782624385
 10
-12.788700257
 20
23.7877951276
 10
-12.796093492
 20
23.7931659264
 10
-12.8029165783
 20
23.7987221692
 10
-12.8091509523
 20
23.8044487394
 10
-12.8147796525
 20
23.8103300568
 10
-12.819787365
 20
23.8163501204
 10
-12.8241604654
 20
23.8224925514
 10
-12.8278870561
 20
23.8287406384
 10
-12.8309569981
 20
23.8350773824
 10
-12.8333619393
 20
23.8414855433
 10
-12.8350953365
 20
23.8479476865
 10
-12.8361524737
 20
23.8544462306
 10
-12.8365315325
 20
23.8613271051
  0
LWPOLYLINE
  5
448
100
AcDbEntity
  8
RACCORDO
100
AcDbPolyline
 62
253
  6
CONTINUOUS
 90
16
 70
0
 10
0.6010099366
 20
16.7508057411
 10
0.5920328694
 20
16.7555347502
 10
0.5835611768
 20
16.7604913687
 10
0.5756179074
 20
16.7656621113
 10
0.5682246724
 20
16.7710329101
 10
0.5614015861
 20
16.7765891529
 10
0.5551672121
 20
16.7823157231
 10
0.5495385119
 20
16.7881970405
 10
0.5445307995
 20
16.794217104
 10
0.540157699
 20
16.8003595351
 10
0.5364311083
 20
16.8066076221
 10
0.5333611663
 20
16.8129443661
 10
0.5309562252
 20
16.8193525269
 10
0.529222828
 20
16.8258146701
 10
0.5281656908
 20
16.8323132143
 10
0.5277866319
 20
16.8391940888
  0
LWPOLYLINE
  5
449
100
AcDbEntity
  8
RACCORDO
100
AcDbPolyline
 62
253
  6
CONTINUOUS
 90
16
 70
0
 10
0.6010099366
 20
17.0907796752
 10
0.5920532353
 20
17.0954973808
 10
0.5835944533
 20
17.100444777
 10
0.5756574754
 20
17.1056088561
 10
0.5682633818
 20
17.1109771003
 10
0.5614349924
 20
17.11653423
 10
0.5551956144
 20
17.1222618744
 10
0.5495633711
 20
17.1281431681
 10
0.544552192
 20
17.1341633119
 10
0.5401756064
 20
17.1403060859
 10
0.5364455123
 20
17.1465548968
 10
0.5333721976
 20
17.1528926338
 10
0.5309641374
 20
17.1593018693
 10
0.5292278978
 20
17.1657650781
 10
0.5281681647
 20
17.1722647476
 10
0.5277866319
 20
17.1791676867
  0
LWPOLYLINE
  5
44A
100
AcDbEntity
  8
0
100
AcDbPolyline
 62
253
  6
CONTINUOUS
 90
10
 70
0
 10
6.3260999211
 20
15.7252472645
 10
6.3010419188
 20
15.7396212374
 10
6.2487040916
 20
15.7630543223
 10
6.192954828
 20
15.7797424589
 10
6.1342175927
 20
15.7895588861
 10
6.0729385468
 20
15.7924290396
 10
6.0095831586
 20
15.7883311179
 10
5.9446326681
 20
15.7772962484
 10
5.8785804315
 20
15.7594082507
 10
5.8119281736
 20
15.7348029999
  0
LWPOLYLINE
  5
44B
100
AcDbEntity
  8
0
100
AcDbPolyline
 62
253
  6
CONTINUOUS
 90
19
 70
0
 10
5.8119281736
 20
15.7348029999
 10
5.8728186455
 20
15.6998328164
 10
5.9331642388
 20
15.6587242154
 10
5.9925158172
 20
15.6117831079
 10
6.0504316848
 20
15.5593587724
 10
6.1064807271
 20
15.5018413855
 10
6.1602456372
 20
15.4396591594
 10
6.2113262585
 20
15.3732748974
 10
6.2593424063
 20
15.3031826849
 10
6.303936593
 20
15.2299044016
 10
6.344776947
 20
15.1539854562
 10
6.3815595347
 20
15.0759909124
 10
6.4140105435
 20
14.9965014984
 10
6.4418885346
 20
14.9161088176
 10
6.4649860943
 20
14.8354112225
 10
6.4831313444
 20
14.7550095895
 10
6.4961893677
 20
14.675502369
 10
6.5040631507
 20
14.5974811321
 10
6.5066942398
 20
14.5215264628
  0
LINE
  5
44C
100
AcDbEntity
  8
0
100
AcDbLine
 62
253
  6
CONTINUOUS
 10
5.8119281736
 20
15.7348029999
 11
5.4527503662
 21
15.957243415
  0
LINE
  5
44D
100
AcDbEntity
  8
0
100
AcDbLine
 62
7
  6
CONTINUOUS
 10
6.3260999211
 20
15.7252472645
 11
5.725322409
 21
16.0973114523
  0
LWPOLYLINE
  5
44E
100
AcDbEntity
  8
0
100
AcDbPolyline
 62
7
  6
CONTINUOUS
 90
16
 70
0
 10
6.3260999211
 20
15.7252472645
 10
6.3936403077
 20
15.6795058626
 10
6.454398839
 20
15.6308721845
 10
6.5087920854
 20
15.5800825466
 10
6.5576235876
 20
15.5272924088
 10
6.6011677876
 20
15.4729669132
 10
6.6393326
 20
15.4180606059
 10
6.6729734487
 20
15.36210851
 10
6.7025804097
 20
15.3047351983
 10
6.7278255119
 20
15.2470665689
 10
6.7491738366
 20
15.1885853726
 10
6.7669849404
 20
15.1283427735
 10
6.7809629374
 20
15.0671792281
 10
6.7910952818
 20
15.0051268759
 10
6.7973987346
 20
14.9412058733
 10
6.7995874587
 20
14.8750798534
  0
LINE
  5
44F
100
AcDbEntity
  8
0
100
AcDbLine
 62
253
  6
CONTINUOUS
 10
14.976920622
 20
17.2770816403
 11
14.9661459229
 21
17.3726518232
  0
LINE
  5
450
100
AcDbEntity
  8
0
100
AcDbLine
 62
7
  6
CONTINUOUS
 10
15.2419089654
 20
17.2812699837
 11
15.240795402
 21
17.2915393563
  0
LWPOLYLINE
  5
451
100
AcDbEntity
  8
0
100
AcDbPolyline
 62
7
  6
CONTINUOUS
 90
3
 70
0
 10
15.1861968312
 20
17.6753693653
 10
15.1714947947
 20
17.8126833978
 10
15.163279675
 20
17.8932166068
  0
LINE
  5
452
100
AcDbEntity
  8
0
100
AcDbLine
 62
7
  6
CONTINUOUS
 10
15.2429812351
 20
17.2708296228
 11
15.2419089654
 21
17.2812699837
  0
LWPOLYLINE
  5
453
100
AcDbEntity
  8
0
100
AcDbPolyline
 62
253
  6
CONTINUOUS
 90
10
 70
0
 10
17.662108932
 20
2.7911352386
 10
17.6572071262
 20
2.8647513316
 10
17.6510972134
 20
2.9385748585
 10
17.6437756767
 20
3.0126073514
 10
17.6352347108
 20
3.086885697
 10
17.6254733114
 20
3.1613747355
 10
17.6145032158
 20
3.2359665318
 10
17.6023317312
 20
3.3106249061
 10
17.5889557934
 20
3.3853861629
 10
17.5743769309
 20
3.4602504439
  0
LWPOLYLINE
  5
454
100
AcDbEntity
  8
0
100
AcDbPolyline
 62
7
  6
CONTINUOUS
 90
9
 70
0
 10
17.8219630403
 20
2.9059183994
 10
17.8178146669
 20
2.9865423599
 10
17.8119762813
 20
3.0699267611
 10
17.8042669288
 20
3.1564059016
 10
17.7945361628
 20
3.2457787238
 10
17.7826922902
 20
3.3375289155
 10
17.7686303929
 20
3.4314621456
 10
17.7521953698
 20
3.5277388451
 10
17.7472445091
 20
3.5546100056
  0
LWPOLYLINE
  5
455
100
AcDbEntity
  8
0
100
AcDbPolyline
 62
253
  6
CONTINUOUS
 90
11
 70
0
 10
17.8219630481
 20
2.9059184035
 10
17.8219841801
 20
2.9033397984
 10
17.8196565127
 20
2.8903535518
 10
17.813356514
 20
2.8772503361
 10
17.8031259161
 20
2.8640799533
 10
17.7890909873
 20
2.8510623793
 10
17.7713036895
 20
2.8383298407
 10
17.7495055149
 20
2.8258266201
 10
17.723737177
 20
2.8136390945
 10
17.6944563697
 20
2.8020134894
 10
17.6621116475
 20
2.7911360795
  0
LWPOLYLINE
  5
456
100
AcDbEntity
  8
0
100
AcDbPolyline
 62
253
  6
CONTINUOUS
 90
11
 70
0
 10
17.7472468553
 20
3.5545974808
 10
17.7467994691
 20
3.5481989735
 10
17.742547247
 20
3.5404342181
 10
17.7344376106
 20
3.5320124137
 10
17.7225099869
 20
3.5229679219
 10
17.7069157381
 20
3.513446492
 10
17.6877154437
 20
3.5035288175
 10
17.6646416572
 20
3.4931377096
 10
17.6377411451
 20
3.482326167
 10
17.6074970888
 20
3.4713053147
 10
17.5743750132
 20
3.4602498298
  0
LWPOLYLINE
  5
457
100
AcDbEntity
  8
0
100
AcDbPolyline
 62
253
  6
CONTINUOUS
 90
10
 70
0
 10
17.6517948266
 20
2.1515860219
 10
17.657774032
 20
2.2214127568
 10
17.6625210104
 20
2.2917246493
 10
17.666046778
 20
2.3624263597
 10
17.6683609279
 20
2.4333702484
 10
17.6694781091
 20
2.5045162997
 10
17.6694090961
 20
2.5759353886
 10
17.6681560794
 20
2.6475951364
 10
17.6657215945
 20
2.719356618
 10
17.662108932
 20
2.7911352386
  0
LWPOLYLINE
  5
458
100
AcDbEntity
  8
0
100
AcDbPolyline
 62
7
  6
CONTINUOUS
 90
10
 70
0
 10
17.8014214857
 20
2.2776136749
 10
17.8033171127
 20
2.2949960983
 10
17.8118537901
 20
2.3850663067
 10
17.8182355919
 20
2.4740153979
 10
17.8225916874
 20
2.5615838081
 10
17.8250640042
 20
2.6478855386
 10
17.8257699301
 20
2.7326728949
 10
17.8248201875
 20
2.8157814587
 10
17.8223223952
 20
2.8972051788
 10
17.8219579946
 20
2.9060411959
  0
LWPOLYLINE
  5
459
100
AcDbEntity
  8
0
100
AcDbPolyline
 62
253
  6
CONTINUOUS
 90
10
 70
0
 10
17.8013954496
 20
2.2773767697
 10
17.8004671464
 20
2.2711629903
 10
17.7951509939
 20
2.2533984813
 10
17.7859529904
 20
2.2360782499
 10
17.7729832894
 20
2.2194887747
 10
17.7562891969
 20
2.2038094453
 10
17.7356296295
 20
2.1890054841
 10
17.7110433766
 20
2.1751941471
 10
17.6829575567
 20
2.1626546061
 10
17.651792859
 20
2.1515854011
  0
LINE
  5
45A
100
AcDbEntity
  8
RACCORDO
100
AcDbLine
 62
253
  6
CONTINUOUS
 10
2.6367009962
 20
-24.2345371469
 11
2.0143829641
 21
-24.9795965644
  0
LINE
  5
45B
100
AcDbEntity
  8
RACCORDO
100
AcDbLine
 62
253
  6
CONTINUOUS
 10
2.9897371842
 20
-24.3603069849
 11
2.2785165761
 21
-25.211803462
  0
LWPOLYLINE
  5
45C
100
AcDbEntity
  8
DRAFT
100
AcDbPolyline
 62
7
  6
CONTINUOUS
 90
66
 70
0
 10
9.232392631
 20
-15.8725647301
 10
9.2441937011
 20
-15.8631278071
 10
9.2553554819
 20
-15.852782748
 10
9.2658779732
 20
-15.8415295527
 10
9.2757832407
 20
-15.8293364093
 10
9.2850492188
 20
-15.8162351298
 10
9.2936097108
 20
-15.80232115
 10
9.301455657
 20
-15.7875987579
 10
9.3085961171
 20
-15.7720636657
 10
9.3149920729
 20
-15.7557984453
 10
9.3206434767
 20
-15.7387828858
 10
9.3255503763
 20
-15.7210371982
 10
9.3296738965
 20
-15.7027045883
 10
9.333005204
 20
-15.6838024142
 10
9.3355531321
 20
-15.6643133178
 10
9.3373053055
 20
-15.6443284293
 10
9.3382579705
 20
-15.6238185406
 10
9.3384148807
 20
-15.6028128599
 10
9.3377749222
 20
-15.5814901426
 10
9.3363344076
 20
-15.5598774555
 10
9.3340970243
 20
-15.5379477317
 10
9.3310727197
 20
-15.5157985259
 10
9.3272518208
 20
-15.4933982414
 10
9.3226440006
 20
-15.4707784748
 10
9.3172882268
 20
-15.4481315703
 10
9.3111866606
 20
-15.425486219
 10
9.3043371406
 20
-15.4028137297
 10
9.29677215
 20
-15.3802203733
 10
9.2884785717
 20
-15.3576813627
 10
9.2794695228
 20
-15.3352214851
 10
9.2698168375
 20
-15.3130213721
 10
9.2595246474
 20
-15.2911024882
 10
9.248588821
 20
-15.2694433689
 10
9.2370687977
 20
-15.2481602528
 10
9.2249543776
 20
-15.2272427655
 10
9.2122557607
 20
-15.2067012813
 10
9.1990629869
 20
-15.1866831615
 10
9.1853753204
 20
-15.167196943
 10
9.171193497
 20
-15.1482340889
 10
9.1566097632
 20
-15.1299163494
 10
9.1416241412
 20
-15.1122499047
 10
9.1262366087
 20
-15.0952285746
 10
9.110539346
 20
-15.0789555686
 10
9.0945221535
 20
-15.0634286268
 10
9.0781952307
 20
-15.048650009
 10
9.0616813559
 20
-15.0347297048
 10
9.0449927109
 20
-15.0216833803
 10
9.0281171139
 20
-15.0094953693
 10
9.0111407987
 20
-14.9982286632
 10
8.9940455207
 20
-14.9878786964
 10
8.9768495244
 20
-14.9784500343
 10
8.9596937776
 20
-14.9700193642
 10
8.9425990122
 20
-14.9626022675
 10
8.9255444963
 20
-14.9561831627
 10
8.9086090019
 20
-14.9507919927
 10
8.8917714418
 20
-14.9464293469
 10
8.8750529032
 20
-14.943094636
 10
8.858595419
 20
-14.940816034
 10
8.842422428
 20
-14.9396027391
 10
8.8265104914
 20
-14.9394455532
 10
8.8109313263
 20
-14.9403450561
 10
8.7956668947
 20
-14.9423098303
 10
8.7807352346
 20
-14.9453312933
 10
8.7662621763
 20
-14.9493842781
 10
8.7522682486
 20
-14.9544702853
 10
8.7404675898
 20
-14.9597336571
  0
LWPOLYLINE
  5
45D
100
AcDbEntity
  8
0
100
AcDbPolyline
 62
253
  6
CONTINUOUS
 90
8
 70
0
 10
6.5066942398
 20
-16.3802930877
 10
6.562506589
 20
-16.3499866618
 10
6.6131395289
 20
-16.3174857328
 10
6.6582493158
 20
-16.2830109475
 10
6.6975297021
 20
-16.2467963531
 10
6.7307140159
 20
-16.2090878082
 10
6.757576971
 20
-16.1701413135
 10
6.7779361964
 20
-16.1302212744
  0
LINE
  5
45E
100
AcDbEntity
  8
DRAFT
100
AcDbLine
 62
7
  6
CONTINUOUS
 10
9.232392631
 20
-15.8725647301
 11
5.5160170395
 21
-17.7795045269
  0
LINE
  5
45F
100
AcDbEntity
  8
0
100
AcDbLine
 62
253
  6
CONTINUOUS
 10
5.5160170395
 20
-16.8756316879
 11
6.5066942398
 21
-16.3802930877
  0
LINE
  5
460
100
AcDbEntity
  8
0
100
AcDbLine
 62
253
  6
CONTINUOUS
 10
6.5066942398
 20
-16.3953166123
 11
5.5160170395
 21
-16.8906552125
  0
LINE
  5
461
100
AcDbEntity
  8
0
100
AcDbLine
 62
7
  6
CONTINUOUS
 10
6.2468010542
 20
-16.9361904128
 11
5.5160170395
 21
-17.3015824201
  0
LINE
  5
462
100
AcDbEntity
  8
DRAFT
100
AcDbLine
 62
7
  6
CONTINUOUS
 10
8.7404730994
 20
-14.9597315126
 11
6.7920882884
 21
-15.907186309
  0
LINE
  5
463
100
AcDbEntity
  8
RACCORDO
100
AcDbLine
 62
7
  6
CONTINUOUS
 10
-16.7042416805
 20
13.4853098397
 11
-16.6947409124
 21
13.4878531392
  0
LWPOLYLINE
  5
464
100
AcDbEntity
  8
RACCORDO
100
AcDbPolyline
 62
7
  6
CONTINUOUS
 90
19
 70
0
 10
-1.1795207043
 20
18.7998958053
 10
-1.1968153722
 20
18.7984034697
 10
-1.2140097704
 20
18.7964098918
 10
-1.2310681082
 20
18.7940027089
 10
-1.2479589416
 20
18.7912917553
 10
-1.2646632044
 20
18.7883347428
 10
-1.2811700244
 20
18.7851238947
 10
-1.2974634312
 20
18.7817136668
 10
-1.3135332242
 20
18.7781691371
 10
-1.329376378
 20
18.7744751811
 10
-1.3449851897
 20
18.7706718988
 10
-1.3603542724
 20
18.7668083106
 10
-1.3754810004
 20
18.7628680369
 10
-1.390362018
 20
18.7588819896
 10
-1.404994544
 20
18.7548879036
 10
-1.4193731689
 20
18.7508707742
 10
-1.4334967218
 20
18.7468556136
 10
-1.4473640855
 20
18.7428723135
 10
-1.4609664675
 20
18.7389080014
  0
LWPOLYLINE
  5
465
100
AcDbEntity
  8
RACCORDO
100
AcDbPolyline
 62
253
  6
CONTINUOUS
 90
14
 70
0
 10
3.0047396322
 20
18.4740779461
 10
2.9973122116
 20
18.4773974638
 10
2.989729269
 20
18.4800351639
 10
2.9818828507
 20
18.4820480345
 10
2.9737945594
 20
18.4834305594
 10
2.9654865916
 20
18.4841790197
 10
2.9569814192
 20
18.484291464
 10
2.9483019565
 20
18.4837676151
 10
2.939469866
 20
18.4826085731
 10
2.930511083
 20
18.4808175377
 10
2.9214557461
 20
18.4784011073
 10
2.9123305773
 20
18.4753677359
 10
2.9031585728
 20
18.4717263787
 10
2.8939646744
 20
18.4674880541
  0
LWPOLYLINE
  5
466
100
AcDbEntity
  8
RACCORDO
100
AcDbPolyline
 62
253
  6
CONTINUOUS
 90
14
 70
0
 10
-9.0222523699
 20
24.4875739471
 10
-9.0296504506
 20
24.490881841
 10
-9.0372306679
 20
24.4935214945
 10
-9.0450743143
 20
24.4955366064
 10
-9.0531600499
 20
24.4969216944
 10
-9.0614658759
 20
24.4976729901
 10
-9.0699691951
 20
24.4977884494
 10
-9.0786468726
 20
24.4972677583
 10
-9.0874752995
 20
24.4961123333
 10
-9.0964304564
 20
24.494325318
 10
-9.1054879793
 20
24.4919115742
 10
-9.1146232258
 20
24.488877669
 10
-9.1238113418
 20
24.4852318566
 10
-9.1330273294
 20
24.480984056
  0
LWPOLYLINE
  5
467
100
AcDbEntity
  8
RACCORDO
100
AcDbPolyline
 62
253
  6
CONTINUOUS
 90
14
 70
0
 10
-10.3595785304
 20
25.1562370274
 10
-10.3669766112
 20
25.1595449213
 10
-10.3745568285
 20
25.1621845748
 10
-10.3824004749
 20
25.1641996867
 10
-10.3904862104
 20
25.1655847747
 10
-10.3987920365
 20
25.1663360704
 10
-10.4072953556
 20
25.1664515297
 10
-10.4159730332
 20
25.1659308386
 10
-10.42480146
 20
25.1647754136
 10
-10.4337566169
 20
25.1629883982
 10
-10.4428141399
 20
25.1605746545
 10
-10.4519493863
 20
25.1575407493
 10
-10.4611375023
 20
25.1538949369
 10
-10.47035349
 20
25.1496471363
  0
LWPOLYLINE
  5
468
100
AcDbEntity
  8
RACCORDO
100
AcDbPolyline
 62
253
  6
CONTINUOUS
 90
14
 70
0
 10
4.3420586924
 20
17.8054184156
 10
4.3346872153
 20
17.8087150263
 10
4.3271060728
 20
17.8113568041
 10
4.3192613216
 20
17.8133737932
 10
4.3111743154
 20
17.8147604994
 10
4.3028670632
 20
17.8155131451
 10
4.2943621764
 20
17.815629678
 10
4.2856828113
 20
17.8151097785
 10
4.2768525854
 20
17.813954859
 10
4.267895539
 20
17.8121680618
 10
4.2588360798
 20
17.809754257
 10
4.2496988763
 20
17.8067200222
 10
4.2405087899
 20
17.8030736181
 10
4.231290835
 20
17.7988249738
  0
LWPOLYLINE
  5
469
100
AcDbEntity
  8
RACCORDO
100
AcDbPolyline
 62
7
  6
CONTINUOUS
 90
18
 70
0
 10
-10.3595785304
 20
25.1562370274
 10
-10.3717843427
 20
25.161934215
 10
-10.3844066214
 20
25.167013023
 10
-10.3974068112
 20
25.1714349237
 10
-10.4107613925
 20
25.1751691964
 10
-10.4244043803
 20
25.1781767828
 10
-10.4382286698
 20
25.1804222017
 10
-10.4521598038
 20
25.1818901538
 10
-10.4661684925
 20
25.1825758636
 10
-10.480217989
 20
25.182474029
 10
-10.4942503013
 20
25.1815821075
 10
-10.5082228474
 20
25.1799008234
 10
-10.5221287066
 20
25.1774255822
 10
-10.5359736126
 20
25.1741419562
 10
-10.5496558713
 20
25.1700606195
 10
-10.563026801
 20
25.1652269139
 10
-10.5760495221
 20
25.1596647972
 10
-10.5808722405
 20
25.1573786928
  0
LWPOLYLINE
  5
46A
100
AcDbEntity
  8
RACCORDO
100
AcDbPolyline
 62
7
  6
CONTINUOUS
 90
16
 70
0
 10
2.3595147957
 20
18.2071405875
 10
2.3511037203
 20
18.2111010714
 10
2.3427115027
 20
18.2145620501
 10
2.334357255
 20
18.2175157339
 10
2.326060081
 20
18.219955522
 10
2.3178387826
 20
18.2218758882
 10
2.3097118168
 20
18.2232723935
 10
2.3016976515
 20
18.2241419021
 10
2.2938145321
 20
18.2244824887
 10
2.2860801899
 20
18.2242933133
 10
2.2785121824
 20
18.2235748215
 10
2.2711277254
 20
18.2223286758
 10
2.2639434629
 20
18.2205576532
 10
2.2569756842
 20
18.2182657719
 10
2.250240225
 20
18.2154582488
 10
2.2485826069
 20
18.2146707454
  0
LWPOLYLINE
  5
46B
100
AcDbEntity
  8
RACCORDO
100
AcDbPolyline
 62
7
  6
CONTINUOUS
 90
16
 70
0
 10
-11.0048033687
 20
24.8892996697
 10
-11.0132144441
 20
24.8932601536
 10
-11.0216066617
 20
24.8967211323
 10
-11.0299609094
 20
24.8996748161
 10
-11.0382580834
 20
24.9021146042
 10
-11.0464793818
 20
24.9040349704
 10
-11.0546063476
 20
24.9054314757
 10
-11.062620513
 20
24.9063009843
 10
-11.0705036323
 20
24.9066415709
 10
-11.0782379745
 20
24.9064523955
 10
-11.0858059821
 20
24.9057339037
 10
-11.093190439
 20
24.904487758
 10
-11.1003747016
 20
24.9027167354
 10
-11.1073424802
 20
24.9004248541
 10
-11.1140779394
 20
24.897617331
 10
-11.1157355575
 20
24.8968298276
  0
LWPOLYLINE
  5
46C
100
AcDbEntity
  8
RACCORDO
100
AcDbPolyline
 62
253
  6
CONTINUOUS
 90
14
 70
0
 10
2.8939646744
 20
18.4674880541
 10
2.8847656648
 20
18.4718428908
 10
2.8755890491
 20
18.4755909891
 10
2.8664599788
 20
18.4787220761
 10
2.857403475
 20
18.4812275702
 10
2.8484443598
 20
18.4831006042
 10
2.8396071885
 20
18.4843360445
 10
2.830916182
 20
18.484930505
 10
2.822395161
 20
18.4848823563
 10
2.8140674797
 20
18.4841917306
 10
2.805955963
 20
18.4828605205
 10
2.7980828428
 20
18.4808923748
 10
2.790469698
 20
18.4782926877
 10
2.7834525633
 20
18.4752228451
  0
LWPOLYLINE
  5
46D
100
AcDbEntity
  8
RACCORDO
100
AcDbPolyline
 62
253
  6
CONTINUOUS
 90
14
 70
0
 10
-10.47035349
 20
25.1496471363
 10
-10.4795305975
 20
25.1539923133
 10
-10.488691216
 20
25.1577358238
 10
-10.4978102606
 20
25.1608662957
 10
-10.5068645658
 20
25.1633744609
 10
-10.5158272561
 20
25.1652515473
 10
-10.524668044
 20
25.1664906372
 10
-10.5333608025
 20
25.1670882728
 10
-10.5418836452
 20
25.1670431572
 10
-10.5502134371
 20
25.166355387
 10
-10.5583274791
 20
25.1650267632
 10
-10.5662033423
 20
25.1630608836
 10
-10.5738191862
 20
25.1604631739
 10
-10.5808656006
 20
25.1573819276
  0
LINE
  5
46E
100
AcDbEntity
  8
RACCORDO
100
AcDbLine
 62
7
  6
CONTINUOUS
 10
-11.0048033687
 20
24.8892996697
 11
-9.6612945012
 21
24.217545236
  0
LINE
  5
46F
100
AcDbEntity
  8
RACCORDO
100
AcDbLine
 62
7
  6
CONTINUOUS
 10
2.3595147957
 20
18.2071405875
 11
3.7030236632
 21
17.5353861538
  0
LINE
  5
470
100
AcDbEntity
  8
DRAFT
100
AcDbLine
 62
7
  6
CONTINUOUS
 10
-5.4186568057
 20
22.1920769984
 11
-0.4689093374
 21
19.7172032642
  0
LINE
  5
471
100
AcDbEntity
  8
RACCORDO
100
AcDbLine
 62
253
  6
CONTINUOUS
 10
-10.47035349
 20
25.1496471363
 11
-9.1330273294
 21
24.480984056
  0
LINE
  5
472
100
AcDbEntity
  8
RACCORDO
100
AcDbLine
 62
253
  6
CONTINUOUS
 10
2.8939646744
 20
18.4674880541
 11
4.231290835
 21
17.7988249738
  0
LINE
  5
473
100
AcDbEntity
  8
RACCORDO
100
AcDbLine
 62
7
  6
CONTINUOUS
 10
-10.3595785304
 20
25.1562370274
 11
-9.0222523699
 21
24.4875739471
  0
LINE
  5
474
100
AcDbEntity
  8
RACCORDO
100
AcDbLine
 62
7
  6
CONTINUOUS
 10
3.004739634
 20
18.4740779452
 11
4.3420657945
 21
17.8054148649
  0
LINE
  5
475
100
AcDbEntity
  8
0
100
AcDbLine
 62
7
  6
CONTINUOUS
 10
-0.7238085195
 20
21.1650744215
 11
0.860988224
 21
20.3726760497
  0
LINE
  5
476
100
AcDbEntity
  8
0
100
AcDbLine
 62
7
  6
CONTINUOUS
 10
-0.5191891277
 20
21.1704065047
 11
0.9694024935
 21
20.4261106941
  0
LWPOLYLINE
  5
477
100
AcDbEntity
  8
RACCORDO
100
AcDbPolyline
 62
7
  6
CONTINUOUS
 90
22
 70
0
 10
-9.0222523699
 20
24.4875739471
 10
-9.010595804
 20
24.4813553628
 10
-8.9992404213
 20
24.4745017569
 10
-8.9882295758
 20
24.4670304928
 10
-8.9776010137
 20
24.458959225
 10
-8.9673995251
 20
24.4503154694
 10
-8.9576746013
 20
24.4411384896
 10
-8.9485000828
 20
24.4315054655
 10
-8.9398618137
 20
24.4214114495
 10
-8.9316913191
 20
24.4107616639
 10
-8.9239905231
 20
24.3995126858
 10
-8.9168569992
 20
24.3877600991
 10
-8.9103699951
 20
24.3756124568
 10
-8.9045663632
 20
24.3631367648
 10
-8.8994557196
 20
24.3503547459
 10
-8.8950566814
 20
24.3373117894
 10
-8.89138509
 20
24.3240582601
 10
-8.8884501046
 20
24.3106346714
 10
-8.8862564546
 20
24.2970654865
 10
-8.8848106827
 20
24.2833807256
 10
-8.8841199982
 20
24.2696337636
 10
-8.8840557691
 20
24.2639739354
  0
LWPOLYLINE
  5
478
100
AcDbEntity
  8
ASSI
100
AcDbPolyline
 62
7
  6
CONTINUOUS
 90
9
 70
0
 10
-0.3566993565
 20
21.3814118161
 10
-0.1631697292
 20
21.2494878098
 10
0.0358667688
 20
21.1198238858
 10
0.2404101375
 20
20.9924200441
 10
0.4505627585
 20
20.8672179195
 10
0.6662222501
 20
20.7442758772
 10
0.8870814682
 20
20.6237690124
 10
1.1131478217
 20
20.5057007949
 10
1.1219522298
 20
20.5012985909
  0
LWPOLYLINE
  5
479
100
AcDbEntity
  8
0
100
AcDbPolyline
 62
253
  6
CONTINUOUS
 90
19
 70
0
 10
17.5743769309
 20
3.4602504439
 10
17.5239980196
 20
3.6827826141
 10
17.4634066346
 20
3.9039781683
 10
17.3931698159
 20
4.1219491609
 10
17.3133953848
 20
4.3367931854
 10
17.2240408775
 20
4.548409702
 10
17.1250715522
 20
4.7565294214
 10
17.0174544974
 20
4.9589683613
 10
16.9023427245
 20
5.1536085951
 10
16.780155224
 20
5.3400532545
 10
16.6510143203
 20
5.5182871834
 10
16.5147684905
 20
5.6883523206
 10
16.372552868
 20
5.8487143289
 10
16.2265123264
 20
5.9971450131
 10
16.0768517984
 20
6.133735445
 10
15.9237314111
 20
6.2585151292
 10
15.7671069187
 20
6.3715171405
 10
15.6077142406
 20
6.4721711891
 10
15.446807909
 20
6.5596545002
  0
LWPOLYLINE
  5
47A
100
AcDbEntity
  8
0
100
AcDbPolyline
 62
7
  6
CONTINUOUS
 90
6
 70
0
 10
15.221681605
 20
17.4163022065
 10
15.2211064342
 20
17.4190140658
 10
15.2196444799
 20
17.426136951
 10
15.2179833149
 20
17.4346476613
 10
15.2160490456
 20
17.4451411112
 10
15.213943161
 20
17.4573238162
  0
LINE
  5
47B
100
AcDbEntity
  8
0
100
AcDbLine
 62
7
  6
CONTINUOUS
 10
15.2225398519
 20
17.4121008252
 11
15.221681605
 21
17.4163022065
  0
LWPOLYLINE
  5
47C
100
AcDbEntity
  8
0
100
AcDbPolyline
 62
7
  6
CONTINUOUS
 90
19
 70
0
 10
17.7472468869
 20
3.5545974903
 10
17.7180117934
 20
3.698467683
 10
17.663935607
 20
3.9201723881
 10
17.5996820343
 20
4.1386701242
 10
17.5253588013
 20
4.354052051
 10
17.4407643315
 20
4.5666339932
 10
17.3458909075
 20
4.7758464232
 10
17.2411947847
 20
4.9803531901
 10
17.128124676
 20
5.177192781
 10
17.0070006799
 20
5.3660177963
 10
16.8775711003
 20
5.5471858924
 10
16.7396567786
 20
5.7205068886
 10
16.5947327765
 20
5.8838706115
 10
16.4446188377
 20
6.0352992317
 10
16.2892722118
 20
6.1749196435
 10
16.1293132475
 20
6.3022348325
 10
15.964722984
 20
6.4171672922
 10
15.7962130954
 20
6.5191634369
 10
15.6832559624
 20
6.5790239647
  0
LWPOLYLINE
  5
47D
100
AcDbEntity
  8
0
100
AcDbPolyline
 62
253
  6
CONTINUOUS
 90
10
 70
0
 10
15.0175506464
 20
16.9992488575
 10
15.0127235012
 20
17.0233378927
 10
15.0081557848
 20
17.047826566
 10
15.0038474973
 20
17.0727148773
 10
14.999833837
 20
17.0980301596
 10
14.9960796056
 20
17.12374508
 10
14.9924792077
 20
17.1497776395
 10
14.9889974448
 20
17.176100505
 10
14.9856695154
 20
17.2027410096
 10
14.9824954195
 20
17.2296991533
  0
LINE
  5
47E
100
AcDbEntity
  8
0
100
AcDbLine
 62
7
  6
CONTINUOUS
 10
15.2239166429
 20
17.4050092454
 11
15.2225448739
 21
17.4120792686
  0
LINE
  5
47F
100
AcDbEntity
  8
0
100
AcDbLine
 62
7
  6
CONTINUOUS
 10
15.2252070745
 20
17.3981513595
 11
15.2239166429
 21
17.4050092454
  0
LINE
  5
480
100
AcDbEntity
  8
0
100
AcDbLine
 62
7
  6
CONTINUOUS
 10
15.2265394489
 20
17.3908471802
 11
15.2252070745
 21
17.3981513595
  0
LINE
  5
481
100
AcDbEntity
  8
0
100
AcDbLine
 62
7
  6
CONTINUOUS
 10
15.2278955821
 20
17.3831617825
 11
15.2265394489
 21
17.3908471802
  0
LINE
  5
482
100
AcDbEntity
  8
0
100
AcDbLine
 62
7
  6
CONTINUOUS
 10
15.2292636682
 20
17.3751288859
 11
15.2278955821
 21
17.3831617825
  0
LINE
  5
483
100
AcDbEntity
  8
0
100
AcDbLine
 62
7
  6
CONTINUOUS
 10
15.2306315647
 20
17.3667896845
 11
15.2292636682
 21
17.3751288859
  0
LWPOLYLINE
  5
484
100
AcDbEntity
  8
0
100
AcDbPolyline
 62
7
  6
CONTINUOUS
 90
5
 70
0
 10
15.213943161
 20
17.4573238162
 10
15.2119014395
 20
17.4699221438
 10
15.2099892113
 20
17.482441233
 10
15.2081262187
 20
17.4953050085
 10
15.206317364
 20
17.5084096998
  0
LINE
  5
485
100
AcDbEntity
  8
0
100
AcDbLine
 62
7
  6
CONTINUOUS
 10
15.2319908165
 20
17.3581708081
 11
15.2306315647
 21
17.3667896845
  0
LINE
  5
486
100
AcDbEntity
  8
0
100
AcDbLine
 62
7
  6
CONTINUOUS
 10
15.2333324143
 20
17.3493112102
 11
15.2319908165
 21
17.3581708081
  0
LINE
  5
487
100
AcDbEntity
  8
0
100
AcDbLine
 62
7
  6
CONTINUOUS
 10
15.2346540334
 20
17.3402077253
 11
15.2333324143
 21
17.3493112102
  0
LINE
  5
488
100
AcDbEntity
  8
0
100
AcDbLine
 62
7
  6
CONTINUOUS
 10
15.2359506378
 20
17.3308712276
 11
15.2346540334
 21
17.3402077253
  0
LINE
  5
489
100
AcDbEntity
  8
0
100
AcDbLine
 62
7
  6
CONTINUOUS
 10
15.2372171772
 20
17.3213170478
 11
15.2359506378
 21
17.3308712276
  0
LINE
  5
48A
100
AcDbEntity
  8
0
100
AcDbLine
 62
7
  6
CONTINUOUS
 10
15.206317364
 20
17.5084096998
 11
15.2029416253
 21
17.5343141928
  0
LINE
  5
48B
100
AcDbEntity
  8
0
100
AcDbLine
 62
7
  6
CONTINUOUS
 10
15.2384487418
 20
17.3115663538
 11
15.2372171772
 21
17.3213170478
  0
LINE
  5
48C
100
AcDbEntity
  8
0
100
AcDbLine
 62
7
  6
CONTINUOUS
 10
15.2029416253
 20
17.5343141928
 11
15.1966389226
 21
17.5856757245
  0
LWPOLYLINE
  5
48D
100
AcDbEntity
  8
0
100
AcDbPolyline
 62
7
  6
CONTINUOUS
 90
3
 70
0
 10
15.1967488158
 20
17.5847669476
 10
15.1926456779
 20
17.619048278
 10
15.1861968312
 20
17.6753693653
  0
LINE
  5
48E
100
AcDbEntity
  8
0
100
AcDbLine
 62
7
  6
CONTINUOUS
 10
15.2396423377
 20
17.3016336894
 11
15.2384487418
 21
17.3115663538
  0
LINE
  5
48F
100
AcDbEntity
  8
0
100
AcDbLine
 62
253
  6
CONTINUOUS
 10
14.9824954195
 20
17.2296991533
 11
14.976920622
 21
17.2770816403
  0
LINE
  5
490
100
AcDbEntity
  8
0
100
AcDbLine
 62
7
  6
CONTINUOUS
 10
15.240795402
 20
17.2915393563
 11
15.2396423377
 21
17.3016336894
  0
LWPOLYLINE
  5
491
100
AcDbEntity
  8
RACCORDO
100
AcDbPolyline
 62
253
  6
CONTINUOUS
 90
34
 70
0
 10
-1.9562958201
 20
-24.7137173559
 10
-1.9735901514
 20
-24.722520919
 10
-1.9916156128
 20
-24.730906589
 10
-2.0103322725
 20
-24.7388557889
 10
-2.029698667
 20
-24.7463509087
 10
-2.0496718939
 20
-24.7533753445
 10
-2.0702077061
 20
-24.7599135349
 10
-2.0912606106
 20
-24.7659509958
 10
-2.1127839684
 20
-24.7714743524
 10
-2.1347300986
 20
-24.7764713686
 10
-2.1570503838
 20
-24.7809309745
 10
-2.1796953775
 20
-24.7848432908
 10
-2.2026149139
 20
-24.7881996503
 10
-2.2257582192
 20
-24.7909926178
 10
-2.2490740238
 20
-24.7932160059
 10
-2.2725106757
 20
-24.7948648891
 10
-2.2960162556
 20
-24.7959356147
 10
-2.3195386913
 20
-24.7964258106
 10
-2.3430258731
 20
-24.7963343909
 10
-2.3664257697
 20
-24.7956615582
 10
-2.389686543
 20
-24.7944088029
 10
-2.4127566631
 20
-24.7925789003
 10
-2.4355850225
 20
-24.7901759042
 10
-2.4581210492
 20
-24.7872051381
 10
-2.480314819
 20
-24.783673183
 10
-2.5021171656
 20
-24.7795878633
 10
-2.5234797902
 20
-24.7749582294
 10
-2.5443553677
 20
-24.7697945373
 10
-2.5646976524
 20
-24.7641082262
 10
-2.5844615796
 20
-24.757911893
 10
-2.6036033661
 20
-24.7512192646
 10
-2.6220806069
 20
-24.7440451672
 10
-2.6398523692
 20
-24.7364054936
 10
-2.6568792828
 20
-24.7283171682
  0
LINE
  5
492
100
AcDbEntity
  8
RACCORDO
100
AcDbLine
 62
7
  6
CONTINUOUS
 10
9.4961702976
 20
-17.3273706218
 11
4.9404575387
 21
-19.6366026188
  0
LINE
  5
493
100
AcDbEntity
  8
RACCORDO
100
AcDbLine
 62
7
  6
CONTINUOUS
 10
8.6146348391
 20
-18.3841296228
 11
4.9404575387
 21
-20.2283621622
  0
LINE
  5
494
100
AcDbEntity
  8
DRAFT
100
AcDbLine
 62
7
  6
CONTINUOUS
 10
9.232392631
 20
-16.8518116501
 11
5.5160170395
 21
-18.7026462785
  0
LINE
  5
495
100
AcDbEntity
  8
RACCORDO
100
AcDbLine
 62
7
  6
CONTINUOUS
 10
9.4961702976
 20
-17.8247005788
 11
4.9404575387
 21
-20.0843676924
  0
LINE
  5
496
100
AcDbEntity
  8
DRAFT
100
AcDbLine
 62
7
  6
CONTINUOUS
 10
5.5160170395
 20
-19.3374106909
 11
4.9404575387
 21
-19.6213625168
  0
LWPOLYLINE
  5
497
100
AcDbEntity
  8
0
100
AcDbPolyline
 62
7
  6
CONTINUOUS
 90
5
 70
0
 10
-0.7960957964
 20
21.1874456578
 10
-0.7592345266
 20
21.1976408515
 10
-0.7225812364
 20
21.2040926802
 10
-0.6865929472
 20
21.2068923769
 10
-0.6513808415
 20
21.2062106577
  0
LINE
  5
498
100
AcDbEntity
  8
0
100
AcDbLine
 62
7
  6
CONTINUOUS
 10
-0.8190229071
 20
21.1792300207
 11
-0.8047772219
 21
21.183058037
  0
LWPOLYLINE
  5
499
100
AcDbEntity
  8
0
100
AcDbPolyline
 62
7
  6
CONTINUOUS
 90
5
 70
0
 10
-0.6513808415
 20
21.2062106577
 10
-0.616766138
 20
21.2021394531
 10
-0.5829183439
 20
21.1947176821
 10
-0.5502967578
 20
21.1840828717
 10
-0.5191891277
 20
21.1704065047
  0
LINE
  5
49A
100
AcDbEntity
  8
RACCORDO
100
AcDbLine
 62
7
  6
CONTINUOUS
 10
-11.3126450819
 20
22.6141385988
 11
-10.6870383882
 21
22.4835172024
  0
LINE
  5
49B
100
AcDbEntity
  8
RACCORDO
100
AcDbLine
 62
253
  6
CONTINUOUS
 10
-11.0858015883
 20
22.7699597596
 11
-10.3745809802
 21
22.6214562367
  0
LWPOLYLINE
  5
49C
100
AcDbEntity
  8
0
100
AcDbPolyline
 62
7
  6
CONTINUOUS
 90
4
 70
0
 10
15.109686928
 20
16.0473469089
 10
15.084877756
 20
16.0571256594
 10
15.0572828708
 20
16.0632023032
 10
15.0274840361
 20
16.0656876178
  0
LWPOLYLINE
  5
49D
100
AcDbEntity
  8
ASSI
100
AcDbPolyline
 62
7
  6
CONTINUOUS
 90
40
 70
0
 10
-0.3981986593
 20
21.5753665482
 10
-0.4273287232
 20
21.5893503819
 10
-0.4574580261
 20
21.6026964985
 10
-0.4885865678
 20
21.6154048979
 10
-0.5207680225
 20
21.6274941046
 10
-0.553948716
 20
21.6389455941
 10
-0.5879676263
 20
21.6497037938
 10
-0.6228288276
 20
21.6597653336
 10
-0.6585282456
 20
21.6691335836
 10
-0.694892635
 20
21.6777630806
 10
-0.7319252281
 20
21.6856502338
 10
-0.7696227927
 20
21.692798634
 10
-0.8078023866
 20
21.6991735909
 10
-0.8464663529
 20
21.7047713449
 10
-0.8856123487
 20
21.7095956556
 10
-0.9250504026
 20
21.7136231111
 10
-0.9647819345
 20
21.7168498381
 10
-1.0048055246
 20
21.71927971
 10
-1.044926943
 20
21.7209009347
 10
-1.0851466652
 20
21.7217095818
 10
-1.1254642157
 20
21.7217095818
 10
-1.1656839379
 20
21.7209009347
 10
-1.2058053563
 20
21.71927971
 10
-1.2458289464
 20
21.7168498381
 10
-1.2855604783
 20
21.7136231111
 10
-1.3249985322
 20
21.7095956556
 10
-1.364144528
 20
21.7047713449
 10
-1.4028084943
 20
21.6991735909
 10
-1.4409880882
 20
21.692798634
 10
-1.4786856528
 20
21.6856502338
 10
-1.5157182459
 20
21.6777630806
 10
-1.5520826353
 20
21.6691335836
 10
-1.5877820533
 20
21.6597653336
 10
-1.6226432546
 20
21.6497037938
 10
-1.6566621649
 20
21.6389455941
 10
-1.6898428584
 20
21.6274941046
 10
-1.7220243131
 20
21.6154048979
 10
-1.7531528548
 20
21.6026964985
 10
-1.7832821577
 20
21.5893503819
 10
-1.8124122216
 20
21.5753665482
  0
LINE
  5
49E
100
AcDbEntity
  8
ASSI
100
AcDbLine
 62
7
  6
CONTINUOUS
 10
1.2637500218
 20
20.5711871269
 11
-0.3566993565
 21
21.3814118161
  0
LINE
  5
49F
100
AcDbEntity
  8
ASSI
100
AcDbLine
 62
7
  6
CONTINUOUS
 10
1.4381981075
 20
20.6571681648
 11
-0.3981986593
 21
21.5753665482
  0
LWPOLYLINE
  5
4A0
100
AcDbEntity
  8
0
100
AcDbPolyline
 62
7
  6
CONTINUOUS
 90
9
 70
0
 10
14.616292916
 20
15.0646334002
 10
14.5869458312
 20
15.0847780451
 10
14.5609475016
 20
15.1097303006
 10
14.5383926994
 20
15.1396369224
 10
14.5191866525
 20
15.1743511548
 10
14.5039756056
 20
15.2128206316
 10
14.4929749737
 20
15.2546945639
 10
14.4859693419
 20
15.3003237404
 10
14.4829587102
 20
15.3497081613
  0
LWPOLYLINE
  5
4A1
100
AcDbEntity
  8
0
100
AcDbPolyline
 62
253
  6
CONTINUOUS
 90
19
 70
0
 10
14.8338859914
 20
18.6014195359
 10
14.8015241017
 20
18.699975411
 10
14.7633657534
 20
18.7916545025
 10
14.7194109466
 20
18.8764568104
 10
14.6694024383
 20
18.9546897583
 10
14.6135974715
 20
19.0260459227
 10
14.5527677748
 20
19.0896030331
 10
14.4868532796
 20
19.145261937
 10
14.4159140546
 20
19.1931217869
 10
14.3409020342
 20
19.23255777
 10
14.2617669972
 20
19.2634660546
 10
14.1785591648
 20
19.2859504724
 10
14.0923811354
 20
19.2996977058
 10
14.0031931212
 20
19.3045996641
 10
13.9110349099
 20
19.3007644381
 10
13.8171284632
 20
19.2882029822
 10
13.7218811015
 20
19.266918948
 10
13.6248855043
 20
19.2369086839
 10
13.5261416715
 20
19.19817219
  0
LWPOLYLINE
  5
4A2
100
AcDbEntity
  8
0
100
AcDbPolyline
 62
7
  6
CONTINUOUS
 90
9
 70
0
 10
15.0241055445
 20
19.0746923627
 10
15.0432888617
 20
19.0038438582
 10
15.0603185929
 20
18.9315915633
 10
15.0751793428
 20
18.8579747492
 10
15.0878693607
 20
18.782942687
 10
15.0983540441
 20
18.7066200301
 10
15.1065920526
 20
18.6293202194
 10
15.1125846632
 20
18.5511844451
 10
15.1163492368
 20
18.4721687391
  0
LWPOLYLINE
  5
4A3
100
AcDbEntity
  8
RACCORDO
100
AcDbPolyline
 62
7
  6
CONTINUOUS
 90
19
 70
0
 10
3.8187861567
 20
-24.9048594656
 10
3.8250118285
 20
-24.9010408558
 10
3.8309611664
 20
-24.8967291036
 10
3.8366206907
 20
-24.8919339786
 10
3.8419775513
 20
-24.8866663577
 10
3.8470196213
 20
-24.8809381702
 10
3.8517355219
 20
-24.8747623738
 10
3.8561145192
 20
-24.8681529843
 10
3.8601466794
 20
-24.8611249821
 10
3.8638229565
 20
-24.8536942482
 10
3.8671349515
 20
-24.8458776521
 10
3.8700751258
 20
-24.8376929195
 10
3.8726369503
 20
-24.8291585312
 10
3.8748145316
 20
-24.8202938662
 10
3.8766028799
 20
-24.8111190346
 10
3.8779981154
 20
-24.8016547398
 10
3.8789970734
 20
-24.7919224253
 10
3.8795973109
 20
-24.7819442263
 10
3.8797973669
 20
-24.7717427965
  0
LINE
  5
4A4
100
AcDbEntity
  8
RACCORDO
100
AcDbLine
 62
253
  6
CONTINUOUS
 10
4.2222093442
 20
-22.9498165497
 11
4.9404575387
 21
-22.5954721248
  0
LINE
  5
4A5
100
AcDbEntity
  8
RACCORDO
100
AcDbLine
 62
7
  6
CONTINUOUS
 10
4.1011441384
 20
-23.1952601422
 11
4.8226703604
 21
-22.8392957495
  0
LWPOLYLINE
  5
4A6
100
AcDbEntity
  8
RACCORDO
100
AcDbPolyline
 62
7
  6
CONTINUOUS
 90
3
 70
0
 10
4.1011305481
 20
-23.195266847
 10
4.0974943227
 20
-23.1970070662
 10
4.0917859882
 20
-23.1995282448
  0
LINE
  5
4A7
100
AcDbEntity
  8
RACCORDO
100
AcDbLine
 62
7
  6
CONTINUOUS
 10
2.7414514874
 20
-23.7663885832
 11
4.0917859037
 21
-23.1995282866
  0
LWPOLYLINE
  5
4A8
100
AcDbEntity
  8
RACCORDO
100
AcDbPolyline
 62
7
  6
CONTINUOUS
 90
5
 70
0
 10
-1.4291883765
 20
-25.4953183217
 10
-0.9025793883
 20
-25.2752259799
 10
-0.3442748489
 20
-25.0435892304
 10
0.2342925553
 20
-24.8047119176
 10
1.4504439256
 20
-24.303385813
  0
LWPOLYLINE
  5
4A9
100
AcDbEntity
  8
RACCORDO
100
AcDbPolyline
 62
253
  6
CONTINUOUS
 90
4
 70
0
 10
-1.0612513473
 20
-25.1247041344
 10
-0.8491891256
 20
-25.0365862913
 10
-0.6389214916
 20
-24.9496794967
 10
-0.4322320925
 20
-24.8647819801
  0
LWPOLYLINE
  5
4AA
100
AcDbEntity
  8
RACCORDO
100
AcDbPolyline
 62
7
  6
CONTINUOUS
 90
3
 70
0
 10
1.4504439256
 20
-24.303385813
 10
2.0869937265
 20
-24.0396681795
 10
2.7414514874
 20
-23.7663885832
  0
LWPOLYLINE
  5
4AB
100
AcDbEntity
  8
RACCORDO
100
AcDbPolyline
 62
253
  6
CONTINUOUS
 90
4
 70
0
 10
2.3463068742
 20
-23.7353301423
 10
2.5337477491
 20
-23.6577499356
 10
2.7158093132
 20
-23.5819476992
 10
4.2222093442
 20
-22.9498165497
  0
LINE
  5
4AC
100
AcDbEntity
  8
RACCORDO
100
AcDbLine
 62
253
  6
CONTINUOUS
 10
1.9552818533
 20
-23.8960387144
 11
2.3463068742
 21
-23.7353301423
  0
LINE
  5
4AD
100
AcDbEntity
  8
RACCORDO
100
AcDbLine
 62
253
  6
CONTINUOUS
 10
-0.4322320925
 20
-24.8647819801
 11
-0.018886116
 21
-24.6962254046
  0
LINE
  5
4AE
100
AcDbEntity
  8
RACCORDO
100
AcDbLine
 62
253
  6
CONTINUOUS
 10
1.5306020903
 20
-24.069002048
 11
1.9552818533
 21
-23.8960387144
  0
LINE
  5
4AF
100
AcDbEntity
  8
RACCORDO
100
AcDbLine
 62
253
  6
CONTINUOUS
 10
-0.018886116
 20
-24.6962254046
 11
0.4127201164
 21
-24.5212808246
  0
LWPOLYLINE
  5
4B0
100
AcDbEntity
  8
RACCORDO
100
AcDbPolyline
 62
253
  6
CONTINUOUS
 90
3
 70
0
 10
0.4127201164
 20
-24.5212808246
 10
1.0865003997
 20
-24.2489428921
 10
1.5306020903
 20
-24.069002048
  0
LWPOLYLINE
  5
4B1
100
AcDbEntity
  8
0
100
AcDbPolyline
 62
7
  6
CONTINUOUS
 90
6
 70
0
 10
-0.8047772219
 20
21.183058037
 10
-0.7904714186
 20
21.184039684
 10
-0.775054784
 20
21.1826689847
 10
-0.7586865014
 20
21.1790008593
 10
-0.741542755
 20
21.1731069195
 10
-0.7238085195
 20
21.1650744215
  0
LWPOLYLINE
  5
4B2
100
AcDbEntity
  8
ASSI
100
AcDbPolyline
 62
7
  6
CONTINUOUS
 90
16
 70
0
 10
-0.6529921078
 20
24.4986903234
 10
-0.6548007011
 20
24.4994739822
 10
-0.6590042095
 20
24.5006523353
 10
-0.6639575305
 20
24.5013470721
 10
-0.6696169196
 20
24.5015760711
 10
-0.6759459272
 20
24.5013463511
 10
-0.6829487003
 20
24.5006906907
 10
-0.6906149852
 20
24.4996211349
 10
-0.698902313
 20
24.4981493294
 10
-0.7077777467
 20
24.4963083081
 10
-0.7172141115
 20
24.4941007157
 10
-0.7271787371
 20
24.4915413439
 10
-0.737626799
 20
24.4886790645
 10
-0.7485206067
 20
24.4855332187
 10
-0.7598323172
 20
24.4820945509
 10
-0.7715298178
 20
24.478366863
  0
LWPOLYLINE
  5
4B3
100
AcDbEntity
  8
ASSI
100
AcDbPolyline
 62
7
  6
CONTINUOUS
 90
16
 70
0
 10
4.9019922559
 20
21.7211981326
 10
4.9004757704
 20
21.7218684971
 10
4.8963474342
 20
21.7230816158
 10
4.8914734464
 20
21.7238132465
 10
4.8858984199
 20
21.7240806682
 10
4.8796586922
 20
21.7238911608
 10
4.8727507986
 20
21.7232785586
 10
4.8651859933
 20
21.7222550861
 10
4.8570063163
 20
21.7208317153
 10
4.8482427728
 20
21.7190413227
 10
4.8389219204
 20
21.7168868433
 10
4.8290764135
 20
21.7143825635
 10
4.8187493624
 20
21.7115762197
 10
4.8079774522
 20
21.7084868196
 10
4.7967884733
 20
21.7051054822
 10
4.7852140547
 20
21.7014360444
  0
LWPOLYLINE
  5
4B4
100
AcDbEntity
  8
RACCORDO
100
AcDbPolyline
 62
7
  6
CONTINUOUS
 90
18
 70
0
 10
1.3925275345
 20
24.1194364355
 10
1.3729654502
 20
24.1285261685
 10
1.35006967
 20
24.1375115832
 10
1.3265603837
 20
24.145013816
 10
1.3024190616
 20
24.1510479858
 10
1.2777293083
 20
24.1555937702
 10
1.252467882
 20
24.1586477536
 10
1.2266580245
 20
24.1602133516
 10
1.2004530656
 20
24.1602804882
 10
1.173869103
 20
24.1588417122
 10
1.146890039
 20
24.1559044749
 10
1.1196209104
 20
24.1514810536
 10
1.0920467307
 20
24.145562668
 10
1.0641824865
 20
24.1381580984
 10
1.0361781734
 20
24.1293059638
 10
1.0080837902
 20
24.1190191371
 10
0.9798493382
 20
24.1072847454
 10
0.9514748174
 20
24.0941027886
  0
LINE
  5
4B5
100
AcDbEntity
  8
ASSI
100
AcDbLine
 62
253
  6
CONTINUOUS
 10
-1.425936284
 20
24.7612035132
 11
-0.8204058493
 21
24.4584382959
  0
LINE
  5
4B6
100
AcDbEntity
  8
ASSI
100
AcDbLine
 62
253
  6
CONTINUOUS
 10
4.129341619
 20
21.9835645617
 11
4.7348720536
 21
21.6807993444
  0
LINE
  5
4B7
100
AcDbEntity
  8
0
100
AcDbLine
 62
7
  6
CONTINUOUS
 10
5.4606569087
 20
21.4036552109
 11
4.9088081186
 21
21.6795796059
  0
LINE
  5
4B8
100
AcDbEntity
  8
0
100
AcDbLine
 62
7
  6
CONTINUOUS
 10
4.2418252684
 20
22.013071031
 11
1.6524110062
 21
23.3077781621
  0
LINE
  5
4B9
100
AcDbEntity
  8
ASSI
100
AcDbLine
 62
7
  6
CONTINUOUS
 10
-1.1496642629
 20
24.7470222445
 11
-0.6532577783
 21
24.4988190022
  0
LINE
  5
4BA
100
AcDbEntity
  8
ASSI
100
AcDbLine
 62
7
  6
CONTINUOUS
 10
4.4052911291
 20
21.9695445484
 11
4.9016978991
 21
21.7213411635
  0
LINE
  5
4BB
100
AcDbEntity
  8
RACCORDO
100
AcDbLine
 62
253
  6
CONTINUOUS
 10
-1.7619377359
 20
25.4508090652
 11
0.9514748174
 21
24.0941027886
  0
LINE
  5
4BC
100
AcDbEntity
  8
RACCORDO
100
AcDbLine
 62
253
  6
CONTINUOUS
 10
5.9012222857
 20
21.6192290544
 11
8.6146348391
 21
20.2625227778
  0
LINE
  5
4BD
100
AcDbEntity
  8
RACCORDO
100
AcDbLine
 62
7
  6
CONTINUOUS
 10
6.3422652888
 20
21.644578521
 11
9.2158905885
 21
20.2077658712
  0
LWPOLYLINE
  5
4BE
100
AcDbEntity
  8
RACCORDO
100
AcDbPolyline
 62
253
  6
CONTINUOUS
 90
18
 70
0
 10
4.3443820489
 20
-24.6352927018
 10
4.3499731568
 20
-24.6321790706
 10
4.3566907936
 20
-24.6277334937
 10
4.3630618384
 20
-24.6226986977
 10
4.369068787
 20
-24.6170884948
 10
4.3746951408
 20
-24.6109182831
 10
4.3799254639
 20
-24.6042049858
 10
4.3847454191
 20
-24.5969670009
 10
4.3891417858
 20
-24.5892241746
 10
4.3931025075
 20
-24.580997734
 10
4.3966167206
 20
-24.5723102352
 10
4.3996747841
 20
-24.5631855063
 10
4.402268313
 20
-24.5536485604
 10
4.4043901925
 20
-24.5437255533
 10
4.4060345992
 20
-24.5334437236
 10
4.4071970261
 20
-24.5228312771
 10
4.4078742906
 20
-24.5119173057
 10
4.4080645387
 20
-24.5007317379
  0
LWPOLYLINE
  5
4BF
100
AcDbEntity
  8
RACCORDO
100
AcDbPolyline
 62
253
  6
CONTINUOUS
 90
18
 70
0
 10
2.2122549835
 20
-25.6876280224
 10
2.2196015173
 20
-25.6836340791
 10
2.2263126728
 20
-25.6791893409
 10
2.2326852247
 20
-25.6741517292
 10
2.2387017069
 20
-25.6685350514
 10
2.2443456293
 20
-25.6623547015
 10
2.2496015232
 20
-25.6556276189
 10
2.2544549829
 20
-25.6483722411
 10
2.2588927062
 20
-25.6406084538
 10
2.26290253
 20
-25.632357536
 10
2.2664734642
 20
-25.6236421021
 10
2.2695957215
 20
-25.6144860393
 10
2.2722607444
 20
-25.6049144427
 10
2.2744612286
 20
-25.5949535464
 10
2.2761911429
 20
-25.5846306511
 10
2.277445746
 20
-25.57397405
 10
2.2782215992
 20
-25.5630129509
 10
2.2785165761
 20
-25.5517773962
  0
LWPOLYLINE
  5
4C0
100
AcDbEntity
  8
RACCORDO
100
AcDbPolyline
 62
7
  6
CONTINUOUS
 90
22
 70
0
 10
4.3443820489
 20
-24.6352927018
 10
4.3541887828
 20
-24.6299817682
 10
4.3652004073
 20
-24.6233151178
 10
4.3758640708
 20
-24.6160834944
 10
4.3861507688
 20
-24.6083042773
 10
4.3960394552
 20
-24.5999899864
 10
4.4055026474
 20
-24.5911590052
 10
4.4145109085
 20
-24.5818339131
 10
4.4230402657
 20
-24.572034144
 10
4.4310650905
 20
-24.561782837
 10
4.4385596037
 20
-24.5511062507
 10
4.4455007002
 20
-24.5400301412
 10
4.4518657168
 20
-24.5285827768
 10
4.4576334566
 20
-24.5167937036
 10
4.4627847561
 20
-24.5046923889
 10
4.4673018969
 20
-24.4923089316
 10
4.4711673372
 20
-24.4796783329
 10
4.4743651266
 20
-24.4668392572
 10
4.4768827143
 20
-24.4538276109
 10
4.4787096652
 20
-24.440679138
 10
4.4798371912
 20
-24.4274337906
 10
4.4802623957
 20
-24.4128587695
  0
LINE
  5
4C1
100
AcDbEntity
  8
RACCORDO
100
AcDbLine
 62
7
  6
CONTINUOUS
 10
3.8156922679
 20
-24.9065205673
 11
3.8187861567
 21
-24.9048594656
  0
LINE
  5
4C2
100
AcDbEntity
  8
RACCORDO
100
AcDbLine
 62
253
  6
CONTINUOUS
 10
4.4080645387
 20
-24.5007317379
 11
3.8797973669
 21
-24.7717427965
  0
LINE
  5
4C3
100
AcDbEntity
  8
RACCORDO
100
AcDbLine
 62
7
  6
CONTINUOUS
 10
4.3443765011
 20
-24.6352955481
 11
3.8156942376
 21
-24.9065195567
  0
LINE
  5
4C4
100
AcDbEntity
  8
RACCORDO
100
AcDbLine
 62
7
  6
CONTINUOUS
 10
3.8139558504
 20
-24.9073887903
 11
3.8156922679
 21
-24.9065205673
  0
LINE
  5
4C5
100
AcDbEntity
  8
RACCORDO
100
AcDbLine
 62
253
  6
CONTINUOUS
 10
3.8797973669
 20
-24.7717427965
 11
2.2785165761
 21
-25.5517773962
  0
LINE
  5
4C6
100
AcDbEntity
  8
RACCORDO
100
AcDbLine
 62
7
  6
CONTINUOUS
 10
3.8139530865
 20
-24.9073901367
 11
2.2122549835
 21
-25.6876280224
  0
LWPOLYLINE
  5
4C7
100
AcDbEntity
  8
RACCORDO
100
AcDbPolyline
 62
7
  6
CONTINUOUS
 90
18
 70
0
 10
2.2122549835
 20
-25.6876280224
 10
2.2000340238
 20
-25.6931803885
 10
2.1874049001
 20
-25.6981148286
 10
2.1744061009
 20
-25.7023934576
 10
2.1610608504
 20
-25.7059860315
 10
2.1474351211
 20
-25.7088542587
 10
2.1336361623
 20
-25.7109637306
 10
2.1197371802
 20
-25.7122999787
 10
2.105767759
 20
-25.7128583663
 10
2.0917669074
 20
-25.7126340134
 10
2.0777934431
 20
-25.7116254071
 10
2.0638876878
 20
-25.7098339396
 10
2.050054248
 20
-25.7072549473
 10
2.0362861865
 20
-25.7038736851
 10
2.0226851376
 20
-25.6997015866
 10
2.009399307
 20
-25.6947850755
 10
1.9964651517
 20
-25.6891482853
 10
1.9909619079
 20
-25.6864801197
  0
LWPOLYLINE
  5
4C8
100
AcDbEntity
  8
ASSI
100
AcDbPolyline
 62
7
  6
CONTINUOUS
 90
16
 70
0
 10
-1.3750050927
 20
24.7815456181
 10
-1.3628360549
 20
24.7849103764
 10
-1.3501022672
 20
24.7875129332
 10
-1.3368113427
 20
24.7893374876
 10
-1.3229673323
 20
24.790380952
 10
-1.3085863382
 20
24.7906142183
 10
-1.29369806
 20
24.7899832935
 10
-1.2783228464
 20
24.7884681096
 10
-1.2624744171
 20
24.7860589157
 10
-1.2461768
 20
24.7827186131
 10
-1.2294871733
 20
24.7784436529
 10
-1.2123945858
 20
24.7732108151
 10
-1.1948190362
 20
24.7669476097
 10
-1.1767678103
 20
24.7596321646
 10
-1.1582825322
 20
24.7512455211
 10
-1.1502248992
 20
24.7473066477
  0
LWPOLYLINE
  5
4C9
100
AcDbEntity
  8
0
100
AcDbPolyline
 62
253
  6
CONTINUOUS
 90
10
 70
0
 10
8.6344772119
 20
22.921152231
 10
8.555243791
 20
22.9507390551
 10
8.4418276056
 20
22.9813079446
 10
8.3238067641
 20
22.9999900839
 10
8.2016927286
 20
23.0066882024
 10
8.076068543
 20
23.0013545447
 10
7.9475931629
 20
22.9840170895
 10
7.8168884497
 20
22.9547747459
 10
7.6845295627
 20
22.9137709103
 10
7.5511256547
 20
22.8612051867
  0
LWPOLYLINE
  5
4CA
100
AcDbEntity
  8
0
100
AcDbPolyline
 62
7
  6
CONTINUOUS
 90
13
 70
0
 10
8.6344614437
 20
22.9211235364
 10
8.5344129392
 20
22.9590416803
 10
8.4306672043
 20
22.9902228688
 10
8.3235592839
 20
23.0143504971
 10
8.2136060313
 20
23.0311260799
 10
8.1010111217
 20
23.040350988
 10
7.9856001928
 20
23.0418114103
 10
7.8675045461
 20
23.0352106713
 10
7.7472689722
 20
23.0202904763
 10
7.6252487789
 20
22.9968329763
 10
7.5017457615
 20
22.9646342924
 10
7.3770689015
 20
22.9235064077
 10
7.2515418885
 20
22.8732801747
  0
LINE
  5
4CB
100
AcDbEntity
  8
0
100
AcDbLine
 62
7
  6
CONTINUOUS
 10
8.6344831111
 20
22.9211497549
 11
11.471146617
 21
21.7305157337
  0
LINE
  5
4CC
100
AcDbEntity
  8
0
100
AcDbLine
 62
253
  6
CONTINUOUS
 10
10.3088439266
 20
21.6661841257
 11
7.5511257604
 21
22.8612102659
  0
LWPOLYLINE
  5
4CD
100
AcDbEntity
  8
0
100
AcDbPolyline
 62
7
  6
CONTINUOUS
 90
3
 70
0
 10
11.4711469198
 20
21.7305156066
 10
11.502180915
 20
21.7169381161
 10
11.6045164431
 20
21.6638310387
  0
LINE
  5
4CE
100
AcDbEntity
  8
0
100
AcDbLine
 62
253
  6
CONTINUOUS
 10
13.0513593098
 20
20.1110909287
 11
10.3087470345
 21
21.6662300091
  0
LINE
  5
4CF
100
AcDbEntity
  8
0
100
AcDbLine
 62
7
  6
CONTINUOUS
 10
14.2590256721
 20
20.1088784006
 11
11.6045189021
 21
21.6638296417
  0
LWPOLYLINE
  5
4D0
100
AcDbEntity
  8
0
100
AcDbPolyline
 62
7
  6
CONTINUOUS
 90
10
 70
0
 10
14.2590339675
 20
20.1088361803
 10
14.3711734352
 20
20.0363677573
 10
14.4784007958
 20
19.9528967953
 10
14.5798121423
 20
19.8585469647
 10
14.6744272371
 20
19.7536756306
 10
14.7615911435
 20
19.6384442037
 10
14.8409172851
 20
19.5125938385
 10
14.9117500225
 20
19.376099872
 10
14.9732256712
 20
19.2294034566
 10
15.0242833335
 20
19.0740738254
  0
ELLIPSE
  5
4D1
100
AcDbEntity
  8
RACCORDO
100
AcDbEllipse
 62
7
  6
CONTINUOUS
 10
-13.6918061456
 20
20.3989796349
 30
0.0
 11
-0.1116009943
 21
0.2239381218
 31
0.0
 40
0.6122032814
 41
-0.6832419393
 42
0.031533549
  0
ELLIPSE
  5
4D2
100
AcDbEntity
  8
RACCORDO
100
AcDbEllipse
 62
7
  6
CONTINUOUS
 10
-0.6810413717
 20
13.893597248
 30
0.0
 11
-0.1116009943
 21
0.2239381218
 31
0.0
 40
0.6122032814
 41
-1.6382418416
 42
-0.6832419393
  0
ELLIPSE
  5
4D3
100
AcDbEntity
  8
0
100
AcDbEllipse
 62
7
  6
CONTINUOUS
 10
12.870088232
 20
2.254867259
 30
0.0
 11
-1.656284165
 21
3.0843095121
 31
0.0
 40
0.633434323
 41
-1.0958939788
 42
-0.7031948971
  0
ELLIPSE
  5
4D4
100
AcDbEntity
  8
0
100
AcDbEllipse
 62
7
  6
CONTINUOUS
 10
14.9071777608
 20
15.5336827989
 30
0.0
 11
0.2324910688
 21
0.4985929535
 31
0.0
 40
0.5909678056
 41
3.8253192057
 42
6.9669118593
  0
ELLIPSE
  5
4D5
100
AcDbEntity
  8
0
100
AcDbEllipse
 62
7
  6
CONTINUOUS
 10
14.9071777608
 20
15.5336827989
 30
0.0
 11
0.2605279112
 21
0.4845461035
 31
0.0
 40
0.6331555215
 41
0.7186754531
 42
3.8602681067
  0
ELLIPSE
  5
4D6
100
AcDbEntity
  8
0
100
AcDbEllipse
 62
7
  6
CONTINUOUS
 10
5.7995874587
 20
-16.0267396971
 30
0.0
 11
0.4511806643
 21
0.8941510684
 31
0.0
 40
0.6128301338
 41
0.6015679319
 42
0.6888343945
  0
ELLIPSE
  5
4D7
100
AcDbEntity
  8
RACCORDO
100
AcDbEllipse
 62
7
  6
CONTINUOUS
 10
4.6222110167
 20
-22.4364082187
 30
0.0
 11
-0.2012801021
 21
0.4024798509
 31
0.0
 40
0.6124778111
 41
-3.1449381207
 42
-2.255529033
  0
ELLIPSE
  5
4D8
100
AcDbEntity
  8
RACCORDO
100
AcDbEllipse
 62
7
  6
CONTINUOUS
 10
4.6222110167
 20
15.5669619498
 30
0.0
 11
-0.2013341403
 21
0.4025279144
 31
0.0
 40
0.6122950388
 41
-2.2557482655
 42
-0.6847996396
  0
ELLIPSE
  5
4D9
100
AcDbEntity
  8
RACCORDO
100
AcDbEllipse
 62
7
  6
CONTINUOUS
 10
9.1365003975
 20
19.2049332721
 30
0.0
 11
0.499996712
 21
0.0035883639
 31
0.0
 40
0.5053247124
 41
-0.7715714568
 42
-0.0036478305
  0
ELLIPSE
  5
4DA
100
AcDbEntity
  8
RACCORDO
100
AcDbEllipse
 62
7
  6
CONTINUOUS
 10
6.9020256668
 20
-14.8164259479
 30
0.0
 11
0.2205149116
 21
0.4487546221
 31
0.0
 40
0.607010042
 41
-0.8902711325
 42
-0.4874310787
  0
ELLIPSE
  5
4DB
100
AcDbEntity
  8
ASSI
100
AcDbEllipse
 62
7
  6
CONTINUOUS
 10
-1.4280051292
 20
24.3271756832
 30
0.0
 11
0.2257019663
 21
0.4461636818
 31
0.0
 40
0.6159267166
 41
0.5380090616
 42
0.6817883054
  0
ELLIPSE
  5
4DC
100
AcDbEntity
  8
RACCORDO
100
AcDbEllipse
 62
7
  6
CONTINUOUS
 10
-6.7600967932
 20
21.8046560145
 30
0.0
 11
0.4999985559
 21
0.0023864752
 31
0.0
 40
0.5035541159
 41
2.3596088132
 42
3.0002042076
  0
ELLIPSE
  5
4DD
100
AcDbEntity
  8
RACCORDO
100
AcDbEllipse
 62
7
  6
CONTINUOUS
 10
9.3155441033
 20
-17.8747624192
 30
0.0
 11
0.9987332359
 21
0.6172510855
 31
0.0
 40
0.0815198604
 41
-2.3978073241
 42
-1.2985018509
  0
ELLIPSE
  5
4DE
100
AcDbEntity
  8
RACCORDO
100
AcDbEllipse
 62
7
  6
CONTINUOUS
 10
-2.4751881851
 20
24.9352712692
 30
0.0
 11
0.9987332359
 21
0.6172510855
 31
0.0
 40
0.0815198604
 41
0.0509898783
 42
0.7263320369
  0
ELLIPSE
  5
4DF
100
AcDbEntity
  8
RACCORDO
100
AcDbEllipse
 62
7
  6
CONTINUOUS
 10
9.3155441033
 20
19.039905125
 30
0.0
 11
-0.7417913999
 21
1.2002436976
 31
0.0
 40
0.5587454355
 41
5.1248137075
 42
6.2241191807
  0
ELLIPSE
  5
4E0
100
AcDbEntity
  8
ASSI
100
AcDbEllipse
 62
7
  6
CONTINUOUS
 10
4.7328271416
 20
21.2467595478
 30
0.0
 11
0.221538876
 21
0.4482453432
 31
0.0
 40
0.6088015717
 41
0.5323082896
 42
0.6760875334
  0
ELLIPSE
  5
4E1
100
AcDbEntity
  8
RACCORDO
100
AcDbEllipse
 62
7
  6
CONTINUOUS
 10
9.1365003975
 20
-18.0839827381
 30
0.0
 11
0.499366618
 21
0.3086255427
 31
0.0
 40
0.0815198604
 41
6.1080157147
 42
7.0007906979
  0
ELLIPSE
  5
4E2
100
AcDbEntity
  8
RACCORDO
100
AcDbEllipse
 62
7
  6
CONTINUOUS
 10
-0.3914080566
 20
13.9147610297
 30
0.0
 11
-0.0446624459
 21
0.0895909595
 31
0.0
 40
0.611934274
 41
-0.6831563312
 42
0.0357312133
  0
ELLIPSE
  5
4E3
100
AcDbEntity
  8
DRAFT
100
AcDbEllipse
 62
7
  6
CONTINUOUS
 10
-1.0741502982
 20
23.4023265062
 30
0.0
 11
0.4279673669
 21
-0.0030279657
 31
0.0
 40
0.4946372042
 41
-0.7818985079
 42
0.0034334386
  0
ELLIPSE
  5
4E4
100
AcDbEntity
  8
RACCORDO
100
AcDbEllipse
 62
7
  6
CONTINUOUS
 10
-6.7600967932
 20
20.5720464093
 30
0.0
 11
0.4998587701
 21
0.0223649649
 31
0.0
 40
0.5313301283
 41
3.1178197826
 42
3.9032222197
  0
ELLIPSE
  5
4E5
100
AcDbEntity
  8
RACCORDO
100
AcDbEllipse
 62
7
  6
CONTINUOUS
 10
-1.2487896935
 20
17.8163928595
 30
0.0
 11
0.4998587701
 21
0.0223649649
 31
0.0
 40
0.5313301283
 41
-2.3799630874
 42
-0.8149845248
  0
ELLIPSE
  5
4E6
100
AcDbEntity
  8
RACCORDO
100
AcDbEllipse
 62
7
  6
CONTINUOUS
 10
-1.2487896935
 20
19.0490024647
 30
0.0
 11
0.4999985559
 21
0.0023864752
 31
0.0
 40
0.5035541159
 41
-1.4342147631
 42
-0.7936193687
  0
ELLIPSE
  5
4E7
100
AcDbEntity
  8
RACCORDO
100
AcDbEllipse
 62
7
  6
CONTINUOUS
 10
-11.8835385782
 20
22.5693973648
 30
0.0
 11
0.249929385
 21
0.0111824824
 31
0.0
 40
0.5313301283
 41
3.1178369227
 42
3.9032222197
  0
ELLIPSE
  5
4E8
100
AcDbEntity
  8
DRAFT
100
AcDbEllipse
 62
7
  6
CONTINUOUS
 10
4.4808381309
 20
20.6248322916
 30
0.0
 11
0.4279673669
 21
-0.0030279657
 31
0.0
 40
0.4946372042
 41
-0.7760807437
 42
0.0034304302
  0
ELLIPSE
  5
4E9
100
AcDbEntity
  8
RACCORDO
100
AcDbEllipse
 62
7
  6
CONTINUOUS
 10
-10.5503262446
 20
21.902791198
 30
0.0
 11
0.249929385
 21
0.0111824824
 31
0.0
 40
0.5313301283
 41
-2.3799630874
 42
-0.8149845248
  0
ELLIPSE
  5
4EA
100
AcDbEntity
  8
RACCORDO
100
AcDbEllipse
 62
7
  6
CONTINUOUS
 10
-13.9814394607
 20
20.7097767318
 30
0.0
 11
-0.0446262308
 21
0.0895589985
 31
0.0
 40
0.6124818573
 41
-2.2537489731
 42
-0.6834093579
  0
ELLIPSE
  5
4EB
100
AcDbEntity
  8
RACCORDO
100
AcDbEllipse
 62
7
  6
CONTINUOUS
 10
9.1365003975
 20
-17.1536400793
 30
0.0
 11
0.4999969381
 21
-0.0035375912
 31
0.0
 40
0.4946372042
 41
-0.7644452153
 42
0.7888978189
  0
ELLIPSE
  5
4EC
100
AcDbEntity
  8
RACCORDO
100
AcDbEllipse
 62
7
  6
CONTINUOUS
 10
9.1365003975
 20
20.135275931
 30
0.0
 11
-0.3708957
 21
0.6001218488
 31
0.0
 40
0.5587454355
 41
-3.1744788413
 42
-2.2817038581
  0
ELLIPSE
  5
4ED
100
AcDbEntity
  8
RACCORDO
100
AcDbEllipse
 62
7
  6
CONTINUOUS
 10
1.4807795862
 20
15.8872382826
 30
0.0
 11
0.249929385
 21
0.0111824824
 31
0.0
 40
0.5313301283
 41
3.1178369227
 42
3.9032222197
  0
ELLIPSE
  5
4EE
100
AcDbEntity
  8
RACCORDO
100
AcDbEllipse
 62
7
  6
CONTINUOUS
 10
2.8139919198
 20
15.2206321158
 30
0.0
 11
0.249929385
 21
0.0111824824
 31
0.0
 40
0.5313301283
 41
-2.3799630874
 42
-0.8149845248
  0
ENDSEC
  0
SECTION
  2
OBJECTS
  0
DICTIONARY
  5
C
100
AcDbDictionary
280
0
281
1
  3
ACAD_GROUP
350
D
  3
ACAD_MLINESTYLE
350
17
  3
ACAD_LAYOUT
350
1A
  3
ACAD_PLOTSETTINGS
350
19
  3
ACAD_PLOTSTYLENAME
350
E
  0
DICTIONARY
  5
D
102
{ACAD_REACTORS
330
C
102
}
100
AcDbDictionary
280
0
281
1
  0
ACDBDICTIONARYWDFLT
  5
E
102
{ACAD_REACTORS
330
C
102
}
100
AcDbDictionary
281
1
  3
Normal
350
F
100
AcDbDictionaryWithDefault
340
F
  0
DICTIONARY
  5
17
102
{ACAD_REACTORS
330
C
102
}
100
AcDbDictionary
280
0
281
1
  3
Standard
350
18
  0
DICTIONARY
  5
19
102
{ACAD_REACTORS
330
C
102
}
100
AcDbDictionary
281
1
  0
DICTIONARY
  5
1A
102
{ACAD_REACTORS
330
C
102
}
100
AcDbDictionary
281
1
  3
Model
350
4EF
  3
Layout1
350
4F0
  0
ACDBPLACEHOLDER
  5
F
102
{ACAD_REACTORS
330
E
102
}
  0
MLINESTYLE
  5
18
102
{ACAD_REACTORS
330
17
102
}
100
AcDbMlineStyle
  2
STANDARD
 70
0
  3

 62
256
 51
90.0
 52
90.0
 71
2
 49
0.5
 62
256
  6
BYLAYER
 49
-0.5
 62
256
  6
BYLAYER
  0
LAYOUT
  5
4EF
102
{ACAD_REACTORS
330
1A
102
}
100
AcDbPlotSettings
  1

  2
none_device
  4
ISO_A4_(297.00_x_210.00_MM)
  6

 40
0.0
 41
0.0
 42
0.0
 43
0.0
 44
297.0
 45
210.0
 46
0.0
 47
0.0
 48
0.0
 49
0.0
140
0.0
141
0.0
142
1.0
143
1.0
 70
1024
 72
1
 73
0
 74
0
  7

 75
0
147
1.0
148
0.0
149
0.0
100
AcDbLayout
  1
Model
 70
0
 71
0
 10
0.0
 20
0.0
 11
297.0
 21
210.0
 12
0.0
 22
0.0
 32
0.0
 14
0.0
 24
0.0
 34
0.0
 15
0.0
 25
0.0
 35
0.0
146
0.0
 13
0.0
 23
0.0
 33
0.0
 16
1.0
 26
0.0
 36
0.0
 17
0.0
 27
1.0
 37
0.0
 76
0
330
213
345
0
346
0
  0
LAYOUT
  5
4F0
102
{ACAD_REACTORS
330
1A
102
}
100
AcDbPlotSettings
  1

  2
none_device
  4
ISO_A4_(297.00_x_210.00_MM)
  6

 40
0.0
 41
0.0
 42
0.0
 43
0.0
 44
297.0
 45
210.0
 46
0.0
 47
0.0
 48
0.0
 49
0.0
140
0.0
141
0.0
142
1.0
143
1.0
 70
0
 72
1
 73
0
 74
0
  7

 75
0
147
1.0
148
0.0
149
0.0
100
AcDbLayout
  1
Layout1
 70
0
 71
1
 10
0.0
 20
0.0
 11
297.0
 21
210.0
 12
0.0
 22
0.0
 32
0.0
 14
0.0
 24
0.0
 34
0.0
 15
0.0
 25
0.0
 35
0.0
146
0.0
 13
0.0
 23
0.0
 33
0.0
 16
1.0
 26
0.0
 36
0.0
 17
0.0
 27
1.0
 37
0.0
 76
0
330
214
345
0
346
0
  0
ENDSEC
  0
EOF
