  0
SECTION
  2
HEADER
  9
$ACADVER
  1
AC1024
  9
$DWGCODEPAGE
  3
ANSI_1252
  9
$EXTMAX
 10
558.8
 20
431.8
 30
0.0
  9
$EXTMIN
 10
0.0
 20
0.0
 30
0.0
  9
$LIMMIN
 10
0.0
 20
0.0
  9
$LIMMAX
 10
558.8
 20
431.8
  9
$VIEWCTR
 10
279.4
 20
215.9
  9
$VIEWSIZE
 40
431.8
  9
$CLAYER
  8
0
  9
$LTSCALE
 40
30.734
  9
$CELTYPE
  6
BYLAYER
  9
$DIMSCALE
 40
1.0
  9
$DIMASZ
 40
3.0
  9
$DIMEXO
 40
0.5
  9
$DIMDLI
 40
21.2344
  9
$DIMEXE
 40
1.5
  9
$DIMCEN
 40
5.0292
  9
$DIMLFAC
 40
1.0
  9
$DIMBLK
  1
_FILLED
  9
$DIMALT
 70
0
  9
$DIMALTF
 40
0.0393700787
  9
$DIMTXT
 40
3.0
  9
$DIMTOL
 70
1
  9
$DIMLIM
 70
0
  9
$DIMTFAC
 40
1.0
  9
$DIMTP
 40
0.01
  9
$DIMTM
 40
0.01
  9
$DIMGAP
 40
0.625
  9
$DIMDSEP
 70
44
  9
$AUNITS
 70
0
  9
$PDMODE
 70
3
  9
$PDSIZE
 40
3.0
  9
$HANDSEED
  5
43A
  9
$TILEMODE
 70
1
  9
$MEASUREMENT
 70
1
  9
$INSUNITS
 70
4
  0
ENDSEC
  0
SECTION
  2
CLASSES
  0
CLASS
  1
ACDBDICTIONARYWDFLT
  2
AcDbDictionaryWithDefault
  3
AutoCAD 2000
 90
0
 91
1
280
0
281
0
  0
CLASS
  1
ACDBPLACEHOLDER
  2
AcDbPlaceHolder
  3
AutoCAD 2000
 90
0
 91
1
280
0
281
0
  0
CLASS
  1
LAYOUT
  2
AcDbLayout
  3
AutoCAD 2000
 90
0
 91
0
280
0
281
0
  0
ENDSEC
  0
SECTION
  2
TABLES
  0
TABLE
  2
VPORT
  5
8
100
AcDbSymbolTable
 70
2
  0
VPORT
  5
1F4
100
AcDbSymbolTableRecord
100
AcDbViewportTableRecord
  2
*ACTIVE
 70
0
 10
0.0
 20
0.0
 11
1.0
 21
1.0
 12
279.4
 22
215.9
 13
0.0
 23
0.0
 14
1.0
 24
1.0
 15
0.0
 25
0.0
 16
0.0
 26
0.0
 36
1.0
 17
0.0
 27
0.0
 37
0.0
 40
431.8
 41
1.2941176471
 42
50.0
 43
0.0
 44
0.0
 50
0.0
 51
0.0
 71
0
 72
100
 73
1
 74
1
 75
0
 76
0
 77
0
 78
0
  0
ENDTAB
  0
TABLE
  2
LTYPE
  5
5
100
AcDbSymbolTable
 70
6
  0
LTYPE
  5
14
100
AcDbSymbolTableRecord
100
AcDbLinetypeTableRecord
  2
BYBLOCK
 70
0
  3

 72
65
 73
0
 40
0.0
  0
LTYPE
  5
15
100
AcDbSymbolTableRecord
100
AcDbLinetypeTableRecord
  2
BYLAYER
 70
0
  3

 72
65
 73
0
 40
0.0
  0
LTYPE
  5
16
100
AcDbSymbolTableRecord
100
AcDbLinetypeTableRecord
  2
CONTINUOUS
 70
64
  3
Solid line
 72
65
 73
0
 40
0.0
  0
LTYPE
  5
1F5
100
AcDbSymbolTableRecord
100
AcDbLinetypeTableRecord
  2
CENTER
 70
64
  3
____ _ ____ _ ____ _ ____ _ ____ _ ____ _ ____
 72
65
 73
4
 40
0.6
 49
0.375
 74
0
 49
-0.075
 74
0
 49
0.075
 74
0
 49
-0.075
 74
0
  0
LTYPE
  5
1F6
100
AcDbSymbolTableRecord
100
AcDbLinetypeTableRecord
  2
HIDDEN
 70
64
  3
- - - - - - - - - - - - - - - - - - - -
 72
65
 73
2
 40
0.2
 49
0.1
 74
0
 49
-0.1
 74
0
  0
LTYPE
  5
1F7
100
AcDbSymbolTableRecord
100
AcDbLinetypeTableRecord
  2
PHANTOM
 70
64
  3
_____ _ _ _____ _ _ _____ _ _ _____
 72
65
 73
6
 40
0.8
 49
0.45
 74
0
 49
-0.05
 74
0
 49
0.1
 74
0
 49
-0.05
 74
0
 49
0.1
 74
0
 49
-0.05
 74
0
  0
LTYPE
  5
1F8
100
AcDbSymbolTableRecord
100
AcDbLinetypeTableRecord
  2
DOT
 70
64
  3
. . . . . . . . . . . . . . . . . . . .
 72
65
 73
2
 40
0.2
 49
0.1
 74
0
 49
-0.1
 74
0
  0
LTYPE
  5
1F9
100
AcDbSymbolTableRecord
100
AcDbLinetypeTableRecord
  2
DASHED
 70
64
  3
- - - - - - - - - - - - - - - - - - - -
 72
65
 73
2
 40
0.2
 49
0.1
 74
0
 49
-0.1
 74
0
  0
ENDTAB
  0
TABLE
  2
LAYER
  5
2
100
AcDbSymbolTable
 70
36
  0
LAYER
  5
10
100
AcDbSymbolTableRecord
100
AcDbLayerTableRecord
  2
0
 70
0
 62
7
  6
CONTINUOUS
370
-3
390
F
  0
LAYER
  5
1FA
100
AcDbSymbolTableRecord
100
AcDbLayerTableRecord
  2
DEFAULT_1
 70
0
 62
7
  6
CENTER
370
-3
390
F
  0
LAYER
  5
1FB
100
AcDbSymbolTableRecord
100
AcDbLayerTableRecord
  2
DEFAULT_2
 70
0
 62
7
  6
HIDDEN
370
-3
390
F
  0
LAYER
  5
1FC
100
AcDbSymbolTableRecord
100
AcDbLayerTableRecord
  2
DEFAULT_3
 70
0
 62
7
  6
PHANTOM
370
-3
390
F
  0
LAYER
  5
1FD
100
AcDbSymbolTableRecord
100
AcDbLayerTableRecord
  2
ASSI
 70
0
 62
7
  6
CONTINUOUS
370
-3
390
F
  0
LAYER
  5
1FE
100
AcDbSymbolTableRecord
100
AcDbLayerTableRecord
  2
COORDINATE
 70
0
 62
7
  6
CONTINUOUS
370
-3
390
F
  0
LAYER
  5
1FF
100
AcDbSymbolTableRecord
100
AcDbLayerTableRecord
  2
COORD_ORIGINE
 70
0
 62
7
  6
CONTINUOUS
370
-3
390
F
  0
LAYER
  5
200
100
AcDbSymbolTableRecord
100
AcDbLayerTableRecord
  2
CURVE
 70
0
 62
7
  6
CONTINUOUS
370
-3
390
F
  0
LAYER
  5
201
100
AcDbSymbolTableRecord
100
AcDbLayerTableRecord
  2
DRAFT
 70
0
 62
7
  6
CONTINUOUS
370
-3
390
F
  0
LAYER
  5
202
100
AcDbSymbolTableRecord
100
AcDbLayerTableRecord
  2
IMPORT
 70
0
 62
7
  6
CONTINUOUS
370
-3
390
F
  0
LAYER
  5
203
100
AcDbSymbolTableRecord
100
AcDbLayerTableRecord
  2
INTF_1
 70
0
 62
7
  6
CONTINUOUS
370
-3
390
F
  0
LAYER
  5
204
100
AcDbSymbolTableRecord
100
AcDbLayerTableRecord
  2
INTF_11
 70
0
 62
7
  6
CONTINUOUS
370
-3
390
F
  0
LAYER
  5
205
100
AcDbSymbolTableRecord
100
AcDbLayerTableRecord
  2
NOTE
 70
0
 62
7
  6
CONTINUOUS
370
-3
390
F
  0
LAYER
  5
206
100
AcDbSymbolTableRecord
100
AcDbLayerTableRecord
  2
PIANI
 70
0
 62
7
  6
CONTINUOUS
370
-3
390
F
  0
LAYER
  5
207
100
AcDbSymbolTableRecord
100
AcDbLayerTableRecord
  2
PIANI_ORIGINE
 70
0
 62
7
  6
CONTINUOUS
370
-3
390
F
  0
LAYER
  5
208
100
AcDbSymbolTableRecord
100
AcDbLayerTableRecord
  2
PIANI_RIFERIMENTO
 70
0
 62
7
  6
CONTINUOUS
370
-3
390
F
  0
LAYER
  5
209
100
AcDbSymbolTableRecord
100
AcDbLayerTableRecord
  2
PIANI_SFORMO
 70
0
 62
7
  6
CONTINUOUS
370
-3
390
F
  0
LAYER
  5
20A
100
AcDbSymbolTableRecord
100
AcDbLayerTableRecord
  2
PUNTI
 70
0
 62
7
  6
CONTINUOUS
370
-3
390
F
  0
LAYER
  5
20B
100
AcDbSymbolTableRecord
100
AcDbLayerTableRecord
  2
RACCORDO
 70
0
 62
7
  6
CONTINUOUS
370
-3
390
F
  0
LAYER
  5
20C
100
AcDbSymbolTableRecord
100
AcDbLayerTableRecord
  2
SMUSSO
 70
0
 62
7
  6
CONTINUOUS
370
-3
390
F
  0
LAYER
  5
20D
100
AcDbSymbolTableRecord
100
AcDbLayerTableRecord
  2
SUPERFICI
 70
0
 62
7
  6
CONTINUOUS
370
-3
390
F
  0
LAYER
  5
20E
100
AcDbSymbolTableRecord
100
AcDbLayerTableRecord
  2
TRASH
 70
0
 62
7
  6
CONTINUOUS
370
-3
390
F
  0
LAYER
  5
20F
100
AcDbSymbolTableRecord
100
AcDbLayerTableRecord
  2
XSEC_DATUMS
 70
0
 62
7
  6
CONTINUOUS
370
-3
390
F
  0
ENDTAB
  0
TABLE
  2
STYLE
  5
3
100
AcDbSymbolTable
 70
1
  0
STYLE
  5
11
100
AcDbSymbolTableRecord
100
AcDbTextStyleTableRecord
  2
STANDARD
 70
0
 40
0.0
 41
0.8
 50
0.0
 71
0
 42
0.2
  3
txt
  4

  0
STYLE
  5
210
100
AcDbSymbolTableRecord
100
AcDbTextStyleTableRecord
  2
TEXTSTYLE_1
 70
0
 40
0.0
 41
0.8
 50
0.0
 71
0
 42
0.2
  3
gdt
  4

  0
ENDTAB
  0
TABLE
  2
VIEW
  5
6
100
AcDbSymbolTable
 70
0
  0
ENDTAB
  0
TABLE
  2
UCS
  5
7
100
AcDbSymbolTable
 70
0
  0
ENDTAB
  0
TABLE
  2
APPID
  5
9
100
AcDbSymbolTable
 70
1
  0
APPID
  5
211
100
AcDbSymbolTableRecord
100
AcDbRegAppTableRecord
  2
ACAD
 70
0
  0
ENDTAB
  0
TABLE
  2
BLOCK_RECORD
  5
1
100
AcDbSymbolTable
 70
0
  0
BLOCK_RECORD
  5
212
100
AcDbSymbolTableRecord
100
AcDbBlockTableRecord
  2
*Model_Space
  0
BLOCK_RECORD
  5
213
100
AcDbSymbolTableRecord
100
AcDbBlockTableRecord
  2
*Paper_Space
  0
BLOCK_RECORD
  5
214
100
AcDbSymbolTableRecord
100
AcDbBlockTableRecord
  2
_FILLED
  0
ENDTAB
  0
TABLE
  2
DIMSTYLE
  5
A
100
AcDbSymbolTable
 70
1
100
AcDbDimStyleTable
 71
0
  0
DIMSTYLE
105
215
100
AcDbSymbolTableRecord
100
AcDbDimStyleTableRecord
  2
STANDARD
 70
0
  3

  4

 40
1.0
 41
3.0
 42
0.5
 43
0.38
 44
1.5
 45
0.0
 46
0.0
 47
0.01
 48
0.01
140
3.0
141
0.09
142
0.0
143
25.4
144
1.0
145
0.0
146
1.0
147
0.625
 71
1
 72
0
 73
0
 74
0
 75
0
 76
0
 77
1
 78
8
 79
2
170
0
171
1
172
0
173
0
174
0
175
0
176
0
177
0
178
0
270
2
179
2
271
2
272
2
273
2
274
2
275
0
280
0
281
0
282
0
283
1
284
8
285
0
286
0
287
3
288
0
340
11
278
44
341
214
342
214
343
214
344
214
  0
ENDTAB
  0
ENDSEC
  0
SECTION
  2
BLOCKS
  0
BLOCK
  5
20
100
AcDbEntity
  8
0
100
AcDbBlockBegin
  2
*Model_Space
 70
0
 10
0.0
 20
0.0
 30
0.0
  3
*Model_Space
  1

  0
ENDBLK
  5
21
100
AcDbEntity
  8
0
100
AcDbBlockEnd
  0
BLOCK
  5
1C
100
AcDbEntity
  8
0
100
AcDbBlockBegin
  2
*Paper_Space
 70
0
 10
0.0
 20
0.0
 30
0.0
  3
*Paper_Space
  1

  0
ENDBLK
  5
1D
100
AcDbEntity
  8
0
100
AcDbBlockEnd
  0
BLOCK
  5
216
100
AcDbEntity
  8
0
100
AcDbBlockBegin
  2
_FILLED
 70
64
 10
0.0
 20
0.0
  3
_FILLED
  1

  0
SOLID
  5
217
100
AcDbEntity
  8
0
  6
BYBLOCK
 62
0
100
AcDbTrace
 10
0.0
 20
0.0
 11
-1.0
 21
0.1333333333
 12
-1.0
 22
-0.1333333333
 13
-1.0
 23
-0.1333333333
  0
ENDBLK
  5
218
100
AcDbEntity
  8
0
  6
BYBLOCK
 62
0
100
AcDbBlockEnd
  0
ENDSEC
  0
SECTION
  2
ENTITIES
  0
LINE
  5
219
100
AcDbEntity
  8
RACCORDO
100
AcDbLine
 62
7
  6
CONTINUOUS
 10
-15.4228844566
 20
26.207955125
 11
-17.0060581219
 21
25.3957570669
  0
LINE
  5
21A
100
AcDbEntity
  8
RACCORDO
100
AcDbLine
 62
250
  6
CONTINUOUS
 10
-15.3102158526
 20
26.2012931891
 11
-16.8929724558
 21
25.3893090918
  0
LINE
  5
21B
100
AcDbEntity
  8
RACCORDO
100
AcDbLine
 62
7
  6
CONTINUOUS
 10
-15.4211480435
 20
26.2088233459
 11
-15.4228844546
 21
26.2079551261
  0
LINE
  5
21C
100
AcDbEntity
  8
RACCORDO
100
AcDbLine
 62
7
  6
CONTINUOUS
 10
-14.886278085
 20
26.4693754467
 11
-15.4211480427
 21
26.2088233464
  0
LINE
  5
21D
100
AcDbEntity
  8
RACCORDO
100
AcDbLine
 62
250
  6
CONTINUOUS
 10
-14.7757659739
 20
26.4616406557
 11
-15.3102158526
 21
26.2012931891
  0
LWPOLYLINE
  5
21E
100
AcDbEntity
  8
RACCORDO
100
AcDbPolyline
 62
7
  6
CONTINUOUS
 90
37
 70
0
 10
-21.028134432
 20
21.3717889806
 10
-21.0596789485
 20
21.352817372
 10
-21.1026649154
 20
21.325093531
 10
-21.1448195276
 20
21.2957473713
 10
-21.1861293461
 20
21.2648393801
 10
-21.2265840398
 20
21.2324246957
 10
-21.266168874
 20
21.1985587561
 10
-21.3048689725
 20
21.1632944668
 10
-21.3426705449
 20
21.1266809613
 10
-21.3795510335
 20
21.0887736022
 10
-21.4154931507
 20
21.0496207643
 10
-21.4504787623
 20
21.0092693179
 10
-21.48447671
 20
20.9677800022
 10
-21.5174662909
 20
20.9252006679
 10
-21.5494266638
 20
20.8815773027
 10
-21.5803221589
 20
20.8369756477
 10
-21.6101299017
 20
20.7914438488
 10
-21.6388267842
 20
20.745028609
 10
-21.6663753602
 20
20.6977998832
 10
-21.6927517948
 20
20.6498058897
 10
-21.7179313359
 20
20.6010947429
 10
-21.7418762454
 20
20.5517402698
 10
-21.7645620399
 20
20.5017913346
 10
-21.7859636187
 20
20.4512961921
 10
-21.8060452336
 20
20.400328768
 10
-21.824782467
 20
20.3489366829
 10
-21.8421495293
 20
20.2971686206
 10
-21.8581125769
 20
20.2450977059
 10
-21.8726467136
 20
20.1927703268
 10
-21.8857255418
 20
20.1402340302
 10
-21.8973171173
 20
20.0875578039
 10
-21.9073950115
 20
20.0347869311
 10
-21.915931308
 20
19.9819667327
 10
-21.9228947976
 20
19.9291572226
 10
-21.9282555818
 20
19.8764046309
 10
-21.9319824657
 20
19.8237491261
 10
-21.9336205821
 20
19.7863731091
  0
LWPOLYLINE
  5
21F
100
AcDbEntity
  8
RACCORDO
100
AcDbPolyline
 62
7
  6
CONTINUOUS
 90
9
 70
0
 10
-16.4389510622
 20
24.0714733644
 10
-17.02629335
 20
23.7290469763
 10
-17.6565733252
 20
23.3599788885
 10
-18.2671403834
 20
23.0001502531
 10
-18.8582963137
 20
22.6504638701
 10
-19.4306794575
 20
22.3116345074
 10
-19.984701152
 20
21.9842109883
 10
-20.5206729912
 20
21.6687025097
 10
-21.028173208
 20
21.3717602932
  0
LINE
  5
220
100
AcDbEntity
  8
RACCORDO
100
AcDbLine
 62
250
  6
CONTINUOUS
 10
-13.9667069851
 20
25.5295387554
 11
-15.5679877759
 21
24.7268167519
  0
LINE
  5
221
100
AcDbEntity
  8
RACCORDO
100
AcDbLine
 62
250
  6
CONTINUOUS
 10
-13.7899332814
 20
25.2246492165
 11
-15.3912140723
 21
24.421927213
  0
LINE
  5
222
100
AcDbEntity
  8
RACCORDO
100
AcDbLine
 62
250
  6
CONTINUOUS
 10
-13.4384398134
 20
25.7929775754
 11
-13.9667069851
 21
25.5295387554
  0
LINE
  5
223
100
AcDbEntity
  8
RACCORDO
100
AcDbLine
 62
250
  6
CONTINUOUS
 10
-13.2616661097
 20
25.4880880366
 11
-13.7899332814
 21
25.2246492165
  0
LINE
  5
224
100
AcDbEntity
  8
RACCORDO
100
AcDbLine
 62
250
  6
CONTINUOUS
 10
-13.7899332814
 20
24.4976043641
 11
-13.2616661097
 21
25.1405565198
  0
LINE
  5
225
100
AcDbEntity
  8
RACCORDO
100
AcDbLine
 62
7
  6
CONTINUOUS
 10
-13.7899332814
 20
24.4080738977
 11
-13.2463055373
 21
25.0697213533
  0
LINE
  5
226
100
AcDbEntity
  8
RACCORDO
100
AcDbLine
 62
7
  6
CONTINUOUS
 10
-13.7899332814
 20
23.6224985556
 11
-14.6799934642
 21
23.1258176343
  0
LINE
  5
227
100
AcDbEntity
  8
RACCORDO
100
AcDbLine
 62
7
  6
CONTINUOUS
 10
-11.4211135631
 20
23.2923801423
 11
-11.0675721739
 21
23.4737535671
  0
LINE
  5
228
100
AcDbEntity
  8
RACCORDO
100
AcDbLine
 62
7
  6
CONTINUOUS
 10
-6.0673502198
 20
26.7628025846
 11
-12.3818905465
 21
23.6180262801
  0
LINE
  5
229
100
AcDbEntity
  8
ASSI
100
AcDbLine
 62
7
  6
CONTINUOUS
 10
-5.1258183333
 20
25.7704318152
 11
-9.7240692896
 21
23.5040705177
  0
LINE
  5
22A
100
AcDbEntity
  8
ASSI
100
AcDbLine
 62
7
  6
CONTINUOUS
 10
-11.0675721739
 20
23.4737535671
 11
-5.7313487679
 21
26.0731970326
  0
LINE
  5
22B
100
AcDbEntity
  8
0
100
AcDbLine
 62
7
  6
CONTINUOUS
 10
-6.1178247056
 20
23.4935778502
 11
-5.4107179244
 21
23.8471312408
  0
LINE
  5
22C
100
AcDbEntity
  8
0
100
AcDbLine
 62
7
  6
CONTINUOUS
 10
-3.6593800273
 20
24.3692467988
 11
-5.0571645338
 21
23.6703545455
  0
LINE
  5
22D
100
AcDbEntity
  8
RACCORDO
100
AcDbLine
 62
7
  6
CONTINUOUS
 10
-6.1320767482
 20
22.97831135
 11
-6.0705202301
 21
23.0090896091
  0
LINE
  5
22E
100
AcDbEntity
  8
RACCORDO
100
AcDbLine
 62
250
  6
CONTINUOUS
 10
-6.0471140274
 20
22.9703909934
 11
-5.981077511
 21
23.0034092516
  0
LINE
  5
22F
100
AcDbEntity
  8
DRAFT
100
AcDbLine
 62
7
  6
CONTINUOUS
 10
-5.4107179244
 20
24.3996894301
 11
-5.0769423017
 21
24.5630097853
  0
LINE
  5
230
100
AcDbEntity
  8
RACCORDO
100
AcDbLine
 62
7
  6
CONTINUOUS
 10
-3.0003842759
 20
25.2293196126
 11
-5.0571645338
 21
24.2229127348
  0
LWPOLYLINE
  5
231
100
AcDbEntity
  8
RACCORDO
100
AcDbPolyline
 62
7
  6
CONTINUOUS
 90
24
 70
0
 10
-6.5689072341
 20
-24.1768811698
 10
-6.5361878158
 20
-24.1924196319
 10
-6.5040860641
 20
-24.2061199077
 10
-6.4713295588
 20
-24.2186042917
 10
-6.4379462478
 20
-24.2298471213
 10
-6.4039429395
 20
-24.2398293952
 10
-6.369357095
 20
-24.2485222919
 10
-6.3342304374
 20
-24.255898527
 10
-6.2985735984
 20
-24.2619383062
 10
-6.2624240201
 20
-24.2666166387
 10
-6.2258252646
 20
-24.2699100815
 10
-6.1887932877
 20
-24.2717988971
 10
-6.1513690951
 20
-24.2722620124
 10
-6.1135911229
 20
-24.2712805674
 10
-6.0754662473
 20
-24.2688349611
 10
-6.0370327206
 20
-24.2649064517
 10
-5.9983271999
 20
-24.2594778606
 10
-5.9593482058
 20
-24.2525260271
 10
-5.9201268366
 20
-24.2440311516
 10
-5.8807018789
 20
-24.2339761374
 10
-5.8410777597
 20
-24.2223348452
 10
-5.8012768428
 20
-24.2090837198
 10
-5.7613427653
 20
-24.1942064433
 10
-5.7343373835
 20
-24.1832391882
  0
LINE
  5
232
100
AcDbEntity
  8
RACCORDO
100
AcDbLine
 62
250
  6
CONTINUOUS
 10
-6.9622917738
 20
-23.4163236528
 11
-21.7871378514
 21
-16.003900614
  0
LWPOLYLINE
  5
233
100
AcDbEntity
  8
RACCORDO
100
AcDbPolyline
 62
7
  6
CONTINUOUS
 90
28
 70
0
 10
-21.9336017087
 20
-15.826251738
 10
-21.9318657072
 20
-15.8639162247
 10
-21.9280093513
 20
-15.9145790676
 10
-21.9224521216
 20
-15.9643421092
 10
-21.9152045595
 20
-16.0132046765
 10
-21.9062837272
 20
-16.0611079355
 10
-21.8957238129
 20
-16.107937826
 10
-21.883546239
 20
-16.1536707993
 10
-21.8697743166
 20
-16.1982747243
 10
-21.8544660343
 20
-16.2416268804
 10
-21.8376570609
 20
-16.2836996359
 10
-21.8193833793
 20
-16.3244673425
 10
-21.7997295715
 20
-16.3638139765
 10
-21.7787635929
 20
-16.4016887112
 10
-21.7565254996
 20
-16.4380985082
 10
-21.733077252
 20
-16.4730137267
 10
-21.7085032593
 20
-16.5063826133
 10
-21.6828460377
 20
-16.5382183907
 10
-21.6561046551
 20
-16.5685763685
 10
-21.6283421014
 20
-16.5974285867
 10
-21.5996185501
 20
-16.6247556756
 10
-21.5699182868
 20
-16.6506054655
 10
-21.5393031475
 20
-16.6749483118
 10
-21.5078333097
 20
-16.6977613329
 10
-21.4754797504
 20
-16.7190819867
 10
-21.4422699479
 20
-16.7388979355
 10
-21.4082955762
 20
-16.7571617216
 10
-6.5688232917
 20
-24.1769231513
  0
LWPOLYLINE
  5
234
100
AcDbEntity
  8
RACCORDO
100
AcDbPolyline
 62
7
  6
CONTINUOUS
 90
22
 70
0
 10
-21.9336202745
 20
19.7863828032
 10
-21.9865755045
 20
18.0755396893
 10
-22.0346179285
 20
16.3541903366
 10
-22.0773241005
 20
14.635375797
 10
-22.1146933258
 20
12.9191225295
 10
-22.1467249946
 20
11.2054568329
 10
-22.1734185788
 20
9.4944048942
 10
-22.1947736293
 20
7.7859929733
 10
-22.2107897785
 20
6.0802473135
 10
-22.2214667408
 20
4.3771940103
 10
-22.2268043112
 20
2.6768591563
 10
-22.226802366
 20
0.979268917
 10
-22.2214608636
 20
-0.715550566
 10
-22.2107798452
 20
-2.4075732128
 10
-22.1947594331
 20
-4.0967731005
 10
-22.1733998298
 20
-5.7831243893
 10
-22.1467013203
 20
-7.4666011739
 10
-22.1146642707
 20
-9.1471776176
 10
-22.0772891261
 20
-10.8248280444
 10
-22.0345764134
 20
-12.4995267482
 10
-21.9865267442
 20
-14.171247944
 10
-21.933601653
 20
-15.8262536537
  0
LINE
  5
235
100
AcDbEntity
  8
RACCORDO
100
AcDbLine
 62
7
  6
CONTINUOUS
 10
-6.1437661084
 20
22.9705788567
 11
-7.0738055439
 21
22.1789386449
  0
LINE
  5
236
100
AcDbEntity
  8
0
100
AcDbLine
 62
250
  6
CONTINUOUS
 10
-6.0471140274
 20
22.9703909934
 11
-7.0127799694
 21
22.1484258576
  0
LINE
  5
237
100
AcDbEntity
  8
ASSI
100
AcDbLine
 62
7
  6
CONTINUOUS
 10
-0.176070865
 20
23.2955580811
 11
-4.7743218213
 21
21.0291967836
  0
LINE
  5
238
100
AcDbEntity
  8
RACCORDO
100
AcDbLine
 62
250
  6
CONTINUOUS
 10
0.1026520547
 20
-22.8412067018
 11
-0.425615117
 21
-22.7327044247
  0
LINE
  5
239
100
AcDbEntity
  8
RACCORDO
100
AcDbLine
 62
250
  6
CONTINUOUS
 10
0.0132382594
 20
-22.5216398958
 11
-0.425615117
 21
-22.4315025691
  0
LINE
  5
23A
100
AcDbEntity
  8
RACCORDO
100
AcDbLine
 62
7
  6
CONTINUOUS
 10
-3.6394292509
 20
-23.7119972632
 11
-2.3144445711
 21
-24.3744896031
  0
LINE
  5
23B
100
AcDbEntity
  8
RACCORDO
100
AcDbLine
 62
250
  6
CONTINUOUS
 10
-3.7044025473
 20
-23.576778813
 11
-2.3794178675
 21
-24.239271153
  0
LINE
  5
23C
100
AcDbEntity
  8
RACCORDO
100
AcDbLine
 62
250
  6
CONTINUOUS
 10
-2.3794178675
 20
-23.8992972188
 11
-3.5894723756
 21
-23.2942699648
  0
LINE
  5
23D
100
AcDbEntity
  8
RACCORDO
100
AcDbLine
 62
250
  6
CONTINUOUS
 10
-2.2910295198
 20
-23.667603045
 11
-3.2870505706
 21
-23.1695925196
  0
LINE
  5
23E
100
AcDbEntity
  8
RACCORDO
100
AcDbLine
 62
7
  6
CONTINUOUS
 10
-1.6681972594
 20
-22.9228007417
 11
-2.1312171468
 21
-22.691290798
  0
LINE
  5
23F
100
AcDbEntity
  8
RACCORDO
100
AcDbLine
 62
7
  6
CONTINUOUS
 10
-4.8450324994
 20
19.1500481646
 11
-5.2027116487
 21
18.9504522127
  0
LINE
  5
240
100
AcDbEntity
  8
RACCORDO
100
AcDbLine
 62
7
  6
CONTINUOUS
 10
-2.0585662921
 20
19.5257960428
 11
-3.6417399575
 21
18.7135979847
  0
LINE
  5
241
100
AcDbEntity
  8
RACCORDO
100
AcDbLine
 62
7
  6
CONTINUOUS
 10
-5.2027116487
 20
20.1831791851
 11
-4.8450324994
 21
20.3624837299
  0
LINE
  5
242
100
AcDbEntity
  8
RACCORDO
100
AcDbLine
 62
7
  6
CONTINUOUS
 10
-2.0568298791
 20
19.5266642637
 11
-2.0585662901
 21
19.5257960438
  0
LINE
  5
243
100
AcDbEntity
  8
ASSI
100
AcDbLine
 62
7
  6
CONTINUOUS
 10
-4.8450324994
 20
20.3624837299
 11
0.4294595697
 21
22.9927928638
  0
LINE
  5
244
100
AcDbEntity
  8
DRAFT
100
AcDbLine
 62
7
  6
CONTINUOUS
 10
-4.8450324994
 20
19.1500481646
 11
0.4798015708
 21
21.7863795965
  0
LINE
  5
245
100
AcDbEntity
  8
RACCORDO
100
AcDbLine
 62
7
  6
CONTINUOUS
 10
1.2422564112
 20
23.1079992691
 11
0.6033956347
 21
22.795397144
  0
LINE
  5
246
100
AcDbEntity
  8
RACCORDO
100
AcDbLine
 62
7
  6
CONTINUOUS
 10
-1.5219599206
 20
19.7872163645
 11
-2.0568298783
 21
19.5266642641
  0
LINE
  5
247
100
AcDbEntity
  8
RACCORDO
100
AcDbLine
 62
250
  6
CONTINUOUS
 10
-1.4114478095
 20
19.7794815735
 11
-1.9458976882
 21
19.5191341069
  0
LINE
  5
248
100
AcDbEntity
  8
RACCORDO
100
AcDbLine
 62
250
  6
CONTINUOUS
 10
-0.425615117
 20
-22.3022132076
 11
0.0132382594
 21
-22.5216398958
  0
LINE
  5
249
100
AcDbEntity
  8
RACCORDO
100
AcDbLine
 62
7
  6
CONTINUOUS
 10
-0.425615117
 20
-22.298593058
 11
0.0366533106
 21
-22.5297272718
  0
LINE
  5
24A
100
AcDbEntity
  8
DRAFT
100
AcDbLine
 62
7
  6
CONTINUOUS
 10
-17.8911526123
 20
-3.3823237929
 11
-17.8911526123
 21
2.6605499579
  0
LINE
  5
24B
100
AcDbEntity
  8
0
100
AcDbLine
 62
7
  6
CONTINUOUS
 10
-17.5022438827
 20
2.4660955931
 11
-17.5022438827
 21
1.0405658902
  0
LINE
  5
24C
100
AcDbEntity
  8
RACCORDO
100
AcDbLine
 62
7
  6
CONTINUOUS
 10
-17.1419440164
 20
25.1733206244
 11
-17.1419440164
 21
24.8333466903
  0
LINE
  5
24D
100
AcDbEntity
  8
RACCORDO
100
AcDbLine
 62
250
  6
CONTINUOUS
 10
-17.0687207117
 20
25.0849322768
 11
-17.0687207117
 21
24.7449583427
  0
LINE
  5
24E
100
AcDbEntity
  8
0
100
AcDbLine
 62
7
  6
CONTINUOUS
 10
-16.9895914663
 20
0.7842396821
 11
-16.9895914663
 21
-2.1169454206
  0
LINE
  5
24F
100
AcDbEntity
  8
RACCORDO
100
AcDbLine
 62
7
  6
CONTINUOUS
 10
-16.4389510622
 20
23.8733676143
 11
-16.4389510622
 21
24.327341716
  0
LINE
  5
250
100
AcDbEntity
  8
RACCORDO
100
AcDbLine
 62
250
  6
CONTINUOUS
 10
-16.3657277575
 20
23.7816559195
 11
-16.3657277575
 21
24.2907300636
  0
LINE
  5
251
100
AcDbEntity
  8
RACCORDO
100
AcDbLine
 62
250
  6
CONTINUOUS
 10
-1.9458976882
 20
19.5191341069
 11
-3.5286542913
 21
18.7071500096
  0
LINE
  5
252
100
AcDbEntity
  8
RACCORDO
100
AcDbLine
 62
250
  6
CONTINUOUS
 10
-0.6023888207
 20
18.8473796731
 11
-2.2036696115
 21
18.0446576696
  0
LINE
  5
253
100
AcDbEntity
  8
RACCORDO
100
AcDbLine
 62
250
  6
CONTINUOUS
 10
-0.425615117
 20
18.5424901343
 11
-2.0268959078
 21
17.7397681308
  0
LINE
  5
254
100
AcDbEntity
  8
RACCORDO
100
AcDbLine
 62
250
  6
CONTINUOUS
 10
-0.0741216489
 20
19.1108184932
 11
-0.6023888207
 21
18.8473796731
  0
LINE
  5
255
100
AcDbEntity
  8
RACCORDO
100
AcDbLine
 62
250
  6
CONTINUOUS
 10
0.1026520547
 20
18.8059289544
 11
-0.425615117
 21
18.5424901343
  0
LINE
  5
256
100
AcDbEntity
  8
RACCORDO
100
AcDbLine
 62
7
  6
CONTINUOUS
 10
4.3092223551
 20
21.5745162971
 11
-0.3743145244
 21
19.3228923018
  0
LINE
  5
257
100
AcDbEntity
  8
DRAFT
100
AcDbLine
 62
7
  6
CONTINUOUS
 10
-15.911253625
 20
2.5559299437
 11
-15.911253625
 21
3.2133987029
  0
LINE
  5
258
100
AcDbEntity
  8
0
100
AcDbLine
 62
7
  6
CONTINUOUS
 10
-15.8051876078
 20
-2.7091473499
 11
-15.8051876078
 21
-4.0947879959
  0
LINE
  5
259
100
AcDbEntity
  8
RACCORDO
100
AcDbLine
 62
250
  6
CONTINUOUS
 10
-15.7437360319
 20
24.0824660028
 11
-15.7437360319
 21
24.4224399369
  0
LINE
  5
25A
100
AcDbEntity
  8
RACCORDO
100
AcDbLine
 62
250
  6
CONTINUOUS
 10
-15.3912140723
 20
24.0819532789
 11
-15.3912140723
 21
24.421927213
  0
LINE
  5
25B
100
AcDbEntity
  8
DRAFT
100
AcDbLine
 62
7
  6
CONTINUOUS
 10
-15.1687915048
 20
3.5703395296
 11
-15.1687915048
 21
3.7446678491
  0
LINE
  5
25C
100
AcDbEntity
  8
RACCORDO
100
AcDbLine
 62
250
  6
CONTINUOUS
 10
-15.0325154238
 20
23.8038703756
 11
-15.0325154238
 21
23.1150497527
  0
LINE
  5
25D
100
AcDbEntity
  8
0
100
AcDbLine
 62
7
  6
CONTINUOUS
 10
-14.9142330635
 20
-4.5402652681
 11
-14.9142330635
 21
-4.8707835673
  0
LINE
  5
25E
100
AcDbEntity
  8
0
100
AcDbLine
 62
7
  6
CONTINUOUS
 10
-14.744527436
 20
-3.56445791
 11
-14.744527436
 21
-2.5685286957
  0
LINE
  5
25F
100
AcDbEntity
  8
RACCORDO
100
AcDbLine
 62
250
  6
CONTINUOUS
 10
-14.6799934642
 20
23.933449756
 11
-14.6799934642
 21
23.1258176343
  0
LINE
  5
260
100
AcDbEntity
  8
0
100
AcDbLine
 62
7
  6
CONTINUOUS
 10
-13.8535728917
 20
-4.0099351822
 11
-13.8535728917
 21
-4.7893580456
  0
LINE
  5
261
100
AcDbEntity
  8
RACCORDO
100
AcDbLine
 62
7
  6
CONTINUOUS
 10
-13.7899332814
 20
23.6224985556
 11
-13.7899332814
 21
25.2246492165
  0
LINE
  5
262
100
AcDbEntity
  8
RACCORDO
100
AcDbLine
 62
7
  6
CONTINUOUS
 10
-0.425615117
 20
16.9403394734
 11
-1.3156752997
 21
16.4436585521
  0
LINE
  5
263
100
AcDbEntity
  8
RACCORDO
100
AcDbLine
 62
250
  6
CONTINUOUS
 10
-5.9400982285
 20
13.9424490505
 11
-5.9463533806
 21
13.9390341791
  0
LINE
  5
264
100
AcDbEntity
  8
RACCORDO
100
AcDbLine
 62
250
  6
CONTINUOUS
 10
-5.5742654885
 20
13.3394466048
 11
-5.5805206406
 21
13.3360317334
  0
LINE
  5
265
100
AcDbEntity
  8
RACCORDO
100
AcDbLine
 62
7
  6
CONTINUOUS
 10
5.1907578137
 20
20.8406581058
 11
-0.3007855145
 21
17.8778444949
  0
LINE
  5
266
100
AcDbEntity
  8
RACCORDO
100
AcDbLine
 62
7
  6
CONTINUOUS
 10
5.1907578137
 20
20.3433281488
 11
-0.1673935234
 21
17.5107777685
  0
LINE
  5
267
100
AcDbEntity
  8
DRAFT
100
AcDbLine
 62
7
  6
CONTINUOUS
 10
0.3271127862
 20
17.2632191555
 11
5.9932872293
 21
20.0155582208
  0
LINE
  5
268
100
AcDbEntity
  8
RACCORDO
100
AcDbLine
 62
250
  6
CONTINUOUS
 10
0.3167500641
 20
17.2687059748
 11
-0.4026993119
 21
16.9288815708
  0
LINE
  5
269
100
AcDbEntity
  8
RACCORDO
100
AcDbLine
 62
250
  6
CONTINUOUS
 10
0.6350450548
 20
16.7197728532
 11
-0.0829886635
 21
16.3806171204
  0
LINE
  5
26A
100
AcDbEntity
  8
RACCORDO
100
AcDbLine
 62
7
  6
CONTINUOUS
 10
8.5434914095
 20
20.8967970435
 11
6.1289009496
 21
19.7816591523
  0
LINE
  5
26B
100
AcDbEntity
  8
RACCORDO
100
AcDbLine
 62
250
  6
CONTINUOUS
 10
8.9751108346
 20
20.8610033372
 11
6.2364342089
 21
19.5961917148
  0
LINE
  5
26C
100
AcDbEntity
  8
RACCORDO
100
AcDbLine
 62
250
  6
CONTINUOUS
 10
-13.2616661097
 20
25.4880880366
 11
-13.2616661097
 21
25.1405565198
  0
LINE
  5
26D
100
AcDbEntity
  8
RACCORDO
100
AcDbLine
 62
7
  6
CONTINUOUS
 10
-13.1894682527
 20
25.5759606688
 11
-13.1894682527
 21
25.228429152
  0
LINE
  5
26E
100
AcDbEntity
  8
0
100
AcDbLine
 62
7
  6
CONTINUOUS
 10
-12.0292373963
 20
-6.3132814009
 11
-12.0292373963
 21
-5.9827631017
  0
LINE
  5
26F
100
AcDbEntity
  8
RACCORDO
100
AcDbLine
 62
7
  6
CONTINUOUS
 10
-11.5655092771
 20
23.1088102791
 11
-11.5655092771
 21
21.867993389
  0
LINE
  5
270
100
AcDbEntity
  8
RACCORDO
100
AcDbLine
 62
250
  6
CONTINUOUS
 10
-11.4190626677
 20
22.7651533101
 11
-11.4190626677
 21
21.6845699993
  0
LINE
  5
271
100
AcDbEntity
  8
RACCORDO
100
AcDbLine
 62
7
  6
CONTINUOUS
 10
-12.0798358583
 20
0.2375590185
 11
-12.0827169791
 21
-0.2405790706
  0
LINE
  5
272
100
AcDbEntity
  8
RACCORDO
100
AcDbLine
 62
7
  6
CONTINUOUS
 10
-12.0754861435
 20
0.8554187637
 11
-12.0798358583
 21
0.2375590185
  0
LINE
  5
273
100
AcDbEntity
  8
RACCORDO
100
AcDbLine
 62
7
  6
CONTINUOUS
 10
-12.0731579667
 20
1.150724724
 11
-12.0754861435
 21
0.8554187637
  0
LINE
  5
274
100
AcDbEntity
  8
RACCORDO
100
AcDbLine
 62
7
  6
CONTINUOUS
 10
-12.8110332547
 20
2.0524601354
 11
-12.815620087
 21
1.5219557842
  0
LINE
  5
275
100
AcDbEntity
  8
RACCORDO
100
AcDbLine
 62
7
  6
CONTINUOUS
 10
-12.8060926946
 20
2.5666088413
 11
-12.8110332547
 21
2.0524601354
  0
LINE
  5
276
100
AcDbEntity
  8
RACCORDO
100
AcDbLine
 62
250
  6
CONTINUOUS
 10
-0.425615117
 20
17.8154452819
 11
0.1026520547
 21
18.4583974376
  0
LINE
  5
277
100
AcDbEntity
  8
RACCORDO
100
AcDbLine
 62
7
  6
CONTINUOUS
 10
-0.425615117
 20
17.7259148155
 11
0.1180126271
 21
18.387562271
  0
LINE
  5
278
100
AcDbEntity
  8
RACCORDO
100
AcDbLine
 62
250
  6
CONTINUOUS
 10
7.1685364432
 20
17.9885531666
 11
0.6350450548
 21
14.6646212116
  0
LINE
  5
279
100
AcDbEntity
  8
DRAFT
100
AcDbLine
 62
7
  6
CONTINUOUS
 10
11.5512056657
 20
19.0356571213
 11
10.5698953304
 21
18.5363627953
  0
LINE
  5
27A
100
AcDbEntity
  8
RACCORDO
100
AcDbLine
 62
250
  6
CONTINUOUS
 10
7.5826869189
 20
16.5569195919
 11
0.6350450548
 21
13.0222874281
  0
LINE
  5
27B
100
AcDbEntity
  8
0
100
AcDbLine
 62
7
  6
CONTINUOUS
 10
9.721367193
 20
17.7064954327
 11
7.5811983549
 21
16.6364110136
  0
LINE
  5
27C
100
AcDbEntity
  8
DRAFT
100
AcDbLine
 62
7
  6
CONTINUOUS
 10
10.5698953304
 20
18.5363627953
 11
7.5352954016
 21
17.0250670468
  0
LINE
  5
27D
100
AcDbEntity
  8
RACCORDO
100
AcDbLine
 62
7
  6
CONTINUOUS
 10
6.9280263116
 20
18.4033717827
 11
10.4542029935
 21
20.1214572577
  0
LINE
  5
27E
100
AcDbEntity
  8
SMUSSO
100
AcDbLine
 62
7
  6
CONTINUOUS
 10
7.4407437045
 20
17.3839407964
 11
11.5512056657
 21
19.3867119643
  0
LINE
  5
27F
100
AcDbEntity
  8
RACCORDO
100
AcDbLine
 62
250
  6
CONTINUOUS
 10
-9.9456947455
 20
-8.9128487091
 11
-19.3634824115
 21
-4.2039548761
  0
LINE
  5
280
100
AcDbEntity
  8
RACCORDO
100
AcDbLine
 62
250
  6
CONTINUOUS
 10
-10.0974578346
 20
-8.0490061115
 11
-18.6594936177
 21
-3.76798822
  0
LINE
  5
281
100
AcDbEntity
  8
0
100
AcDbLine
 62
7
  6
CONTINUOUS
 10
-11.138282852
 20
-6.4282403738
 11
-11.138282852
 21
-5.0425997278
  0
LWPOLYLINE
  5
282
100
AcDbEntity
  8
RACCORDO
100
AcDbPolyline
 62
7
  6
CONTINUOUS
 90
10
 70
0
 10
-10.1028179918
 20
-1.2305285647
 10
-10.1056166448
 20
-1.7824187197
 10
-10.1088895334
 20
-2.6557096188
 10
-10.1107422411
 20
-3.5282864889
 10
-10.1111747603
 20
-4.4001458298
 10
-10.1101870832
 20
-5.2712841208
 10
-10.1077792024
 20
-6.1416978199
 10
-10.1039511104
 20
-7.0113834063
 10
-10.0987028113
 20
-7.8803373677
 10
-10.0946311432
 20
-8.4319646876
  0
LINE
  5
283
100
AcDbEntity
  8
RACCORDO
100
AcDbLine
 62
250
  6
CONTINUOUS
 10
-9.9545625361
 20
-1.0989687749
 11
-9.9553652046
 21
-1.2613660221
  0
LINE
  5
284
100
AcDbEntity
  8
0
100
AcDbLine
 62
7
  6
CONTINUOUS
 10
-15.911253625
 20
2.7956517891
 11
-15.3441431991
 21
3.0792070021
  0
LINE
  5
285
100
AcDbEntity
  8
RACCORDO
100
AcDbLine
 62
7
  6
CONTINUOUS
 10
-15.1687915048
 20
3.5703395296
 11
-15.9356162262
 21
3.2016863115
  0
LINE
  5
286
100
AcDbEntity
  8
RACCORDO
100
AcDbLine
 62
7
  6
CONTINUOUS
 10
-15.911253625
 20
2.5559299437
 11
-16.6886094561
 21
2.1822138639
  0
LINE
  5
287
100
AcDbEntity
  8
RACCORDO
100
AcDbLine
 62
7
  6
CONTINUOUS
 10
7.5826869189
 20
15.2301567682
 11
14.104381647
 21
18.296367931
  0
LINE
  5
288
100
AcDbEntity
  8
DRAFT
100
AcDbLine
 62
7
  6
CONTINUOUS
 10
-10.1023484979
 20
-7.2767258501
 11
-17.8911526123
 21
-3.3823237929
  0
LINE
  5
289
100
AcDbEntity
  8
0
100
AcDbLine
 62
7
  6
CONTINUOUS
 10
-15.8051876078
 20
-4.0947879959
 11
-14.9142330635
 21
-4.5402652681
  0
LINE
  5
28A
100
AcDbEntity
  8
0
100
AcDbLine
 62
7
  6
CONTINUOUS
 10
-12.0292373963
 20
-5.9827631017
 11
-11.138282852
 21
-6.4282403738
  0
LINE
  5
28B
100
AcDbEntity
  8
0
100
AcDbLine
 62
7
  6
CONTINUOUS
 10
-13.8535728917
 20
-4.7893580456
 11
-11.7480000879
 21
-5.8421444475
  0
LINE
  5
28C
100
AcDbEntity
  8
0
100
AcDbLine
 62
7
  6
CONTINUOUS
 10
-14.744527436
 20
-3.56445791
 11
-13.8535728917
 21
-4.0099351822
  0
LINE
  5
28D
100
AcDbEntity
  8
0
100
AcDbLine
 62
7
  6
CONTINUOUS
 10
-16.9895914663
 20
-2.1169454206
 11
-15.8051876078
 21
-2.7091473499
  0
LINE
  5
28E
100
AcDbEntity
  8
0
100
AcDbLine
 62
7
  6
CONTINUOUS
 10
-11.138282852
 20
-5.0425997278
 11
-10.1093965706
 21
-5.5570428685
  0
LINE
  5
28F
100
AcDbEntity
  8
0
100
AcDbLine
 62
7
  6
CONTINUOUS
 10
-17.5022438827
 20
1.0405658902
 11
-14.384552429
 21
2.5994116171
  0
LINE
  5
290
100
AcDbEntity
  8
0
100
AcDbLine
 62
7
  6
CONTINUOUS
 10
-16.9895914663
 20
0.7842396821
 11
-13.8719000127
 21
2.3430854089
  0
LINE
  5
291
100
AcDbEntity
  8
DRAFT
100
AcDbLine
 62
7
  6
CONTINUOUS
 10
16.2267495799
 20
15.7079356706
 11
7.5826869189
 21
11.4030073583
  0
LINE
  5
292
100
AcDbEntity
  8
RACCORDO
100
AcDbLine
 62
7
  6
CONTINUOUS
 10
16.1110572429
 20
17.293030133
 11
7.5826869189
 21
13.1376883842
  0
LINE
  5
293
100
AcDbEntity
  8
SMUSSO
100
AcDbLine
 62
7
  6
CONTINUOUS
 10
17.2080599152
 20
16.5582848396
 11
7.5826869189
 21
11.8684422624
  0
LINE
  5
294
100
AcDbEntity
  8
0
100
AcDbLine
 62
7
  6
CONTINUOUS
 10
-17.5022438827
 20
1.0405658902
 11
-16.9895914663
 21
0.7842396821
  0
LINE
  5
295
100
AcDbEntity
  8
DRAFT
100
AcDbLine
 62
250
  6
CONTINUOUS
 10
-6.1178247056
 20
23.4935778502
 11
-6.1178247056
 21
22.9854373713
  0
LINE
  5
296
100
AcDbEntity
  8
RACCORDO
100
AcDbLine
 62
250
  6
CONTINUOUS
 10
-5.907755568
 20
18.9289164494
 11
-5.907755568
 21
20.0094997603
  0
LINE
  5
297
100
AcDbEntity
  8
DRAFT
100
AcDbLine
 62
7
  6
CONTINUOUS
 10
-5.4107179244
 20
23.8471312408
 11
-5.4107179244
 21
24.3996894301
  0
LINE
  5
298
100
AcDbEntity
  8
RACCORDO
100
AcDbLine
 62
250
  6
CONTINUOUS
 10
-5.2027116487
 20
18.9504522127
 11
-5.2027116487
 21
20.1831791851
  0
LINE
  5
299
100
AcDbEntity
  8
ASSI
100
AcDbLine
 62
250
  6
CONTINUOUS
 10
-5.0769423017
 20
24.5630097853
 11
-5.0769423017
 21
25.7903603823
  0
LINE
  5
29A
100
AcDbEntity
  8
DRAFT
100
AcDbLine
 62
7
  6
CONTINUOUS
 10
-5.0571645338
 20
23.6703545455
 11
-5.0571645338
 21
24.2229127348
  0
LINE
  5
29B
100
AcDbEntity
  8
ASSI
100
AcDbLine
 62
7
  6
CONTINUOUS
 10
-4.9515927945
 20
24.712032914
 11
-4.9515927945
 21
25.7999285224
  0
LINE
  5
29C
100
AcDbEntity
  8
DRAFT
100
AcDbLine
 62
7
  6
CONTINUOUS
 10
-4.8450324994
 20
20.3624837299
 11
-4.8450324994
 21
19.1500481646
  0
LINE
  5
29D
100
AcDbEntity
  8
DRAFT
100
AcDbLine
 62
250
  6
CONTINUOUS
 10
-4.7036111432
 20
23.4935778502
 11
-4.7036111432
 21
22.9854373713
  0
LINE
  5
29E
100
AcDbEntity
  8
DRAFT
100
AcDbLine
 62
7
  6
CONTINUOUS
 10
17.2080599152
 20
16.2072299966
 11
16.2267495799
 21
15.7079356706
  0
LINE
  5
29F
100
AcDbEntity
  8
RACCORDO
100
AcDbLine
 62
7
  6
CONTINUOUS
 10
-17.8911526123
 20
-3.3823237929
 11
-18.6594936177
 21
-3.76798822
  0
LINE
  5
2A0
100
AcDbEntity
  8
ASSI
100
AcDbLine
 62
7
  6
CONTINUOUS
 10
15.4489321206
 20
14.8427129689
 11
13.8431836851
 21
14.0398387511
  0
LINE
  5
2A1
100
AcDbEntity
  8
ASSI
100
AcDbLine
 62
7
  6
CONTINUOUS
 10
13.5191466502
 20
13.8778202336
 11
10.3076497792
 21
12.2720717981
  0
LINE
  5
2A2
100
AcDbEntity
  8
ASSI
100
AcDbLine
 62
7
  6
CONTINUOUS
 10
9.9836127443
 20
12.1100532807
 11
7.5826869189
 21
10.909590368
  0
LINE
  5
2A3
100
AcDbEntity
  8
0
100
AcDbLine
 62
7
  6
CONTINUOUS
 10
10.1456312617
 20
11.9789305051
 11
10.5698953304
 21
12.1910625394
  0
LINE
  5
2A4
100
AcDbEntity
  8
0
100
AcDbLine
 62
7
  6
CONTINUOUS
 10
-16.9895914663
 20
-2.1169454206
 11
-12.0791652404
 21
0.3382676923
  0
LINE
  5
2A5
100
AcDbEntity
  8
0
100
AcDbLine
 62
7
  6
CONTINUOUS
 10
-15.8051876078
 20
-2.7091473499
 11
-11.4784728023
 21
-0.5457899471
  0
LINE
  5
2A6
100
AcDbEntity
  8
RACCORDO
100
AcDbLine
 62
7
  6
CONTINUOUS
 10
19.7612358965
 20
15.4679408062
 11
7.5826869189
 21
9.742128057
  0
LINE
  5
2A7
100
AcDbEntity
  8
RACCORDO
100
AcDbLine
 62
7
  6
CONTINUOUS
 10
-18.9671149807
 20
3.1985311421
 11
-16.9872159934
 21
2.2085816484
  0
LINE
  5
2A8
100
AcDbEntity
  8
RACCORDO
100
AcDbLine
 62
7
  6
CONTINUOUS
 10
-12.0799801046
 20
-0.2450362959
 11
-10.1028336155
 21
-1.2336095405
  0
LINE
  5
2A9
100
AcDbEntity
  8
RACCORDO
100
AcDbLine
 62
250
  6
CONTINUOUS
 10
-19.3725061827
 20
3.6100030484
 11
-17.3926071963
 21
2.6200535552
  0
LINE
  5
2AA
100
AcDbEntity
  8
RACCORDO
100
AcDbLine
 62
250
  6
CONTINUOUS
 10
-11.9344615222
 20
-0.1090192819
 11
-9.9545625361
 21
-1.0989687749
  0
LINE
  5
2AB
100
AcDbEntity
  8
RACCORDO
100
AcDbLine
 62
7
  6
CONTINUOUS
 10
-16.9759844281
 20
3.5989349283
 11
-16.2335223079
 21
3.2277038682
  0
LINE
  5
2AC
100
AcDbEntity
  8
RACCORDO
100
AcDbLine
 62
7
  6
CONTINUOUS
 10
-12.8127937878
 20
1.5173396082
 11
-12.0731837247
 21
1.1475345766
  0
LINE
  5
2AD
100
AcDbEntity
  8
RACCORDO
100
AcDbLine
 62
7
  6
CONTINUOUS
 10
-3.777625852
 20
18.4911615422
 11
-3.777625852
 21
18.1511876081
  0
LINE
  5
2AE
100
AcDbEntity
  8
RACCORDO
100
AcDbLine
 62
7
  6
CONTINUOUS
 10
-3.777625852
 20
-23.3717937077
 11
-3.777625852
 21
-23.4883904654
  0
LINE
  5
2AF
100
AcDbEntity
  8
RACCORDO
100
AcDbLine
 62
250
  6
CONTINUOUS
 10
-3.7044025473
 20
18.4027731946
 11
-3.7044025473
 21
18.0627992605
  0
LINE
  5
2B0
100
AcDbEntity
  8
RACCORDO
100
AcDbLine
 62
250
  6
CONTINUOUS
 10
-3.7044025473
 20
-23.3416239508
 11
-3.7044025473
 21
-23.576778813
  0
LINE
  5
2B1
100
AcDbEntity
  8
RACCORDO
100
AcDbLine
 62
7
  6
CONTINUOUS
 10
-3.0746328977
 20
17.1912085321
 11
-3.0746328977
 21
17.6451826338
  0
LINE
  5
2B2
100
AcDbEntity
  8
RACCORDO
100
AcDbLine
 62
250
  6
CONTINUOUS
 10
-3.001409593
 20
17.0994968373
 11
-3.001409593
 21
17.6085709814
  0
LINE
  5
2B3
100
AcDbEntity
  8
RACCORDO
100
AcDbLine
 62
250
  6
CONTINUOUS
 10
-2.3794178675
 20
-24.239271153
 11
-2.3794178675
 21
-23.8992972188
  0
LINE
  5
2B4
100
AcDbEntity
  8
RACCORDO
100
AcDbLine
 62
250
  6
CONTINUOUS
 10
-2.3794178675
 20
17.4003069206
 11
-2.3794178675
 21
17.7402808547
  0
LINE
  5
2B5
100
AcDbEntity
  8
RACCORDO
100
AcDbLine
 62
7
  6
CONTINUOUS
 10
-2.2994480872
 20
24.7137952788
 11
-2.2994480872
 21
24.4429949862
  0
LINE
  5
2B6
100
AcDbEntity
  8
RACCORDO
100
AcDbLine
 62
250
  6
CONTINUOUS
 10
-2.0268959078
 20
-24.2397838768
 11
-2.0268959078
 21
-23.8998099427
  0
LINE
  5
2B7
100
AcDbEntity
  8
RACCORDO
100
AcDbLine
 62
250
  6
CONTINUOUS
 10
-2.0268959078
 20
17.3997941967
 11
-2.0268959078
 21
17.7397681308
  0
LINE
  5
2B8
100
AcDbEntity
  8
0
100
AcDbLine
 62
7
  6
CONTINUOUS
 10
-11.0887613706
 20
-0.7406456629
 11
-14.744527436
 21
-2.5685286957
  0
LINE
  5
2B9
100
AcDbEntity
  8
0
100
AcDbLine
 62
7
  6
CONTINUOUS
 10
-15.8051876078
 20
-4.0947879959
 11
-14.744527436
 21
-3.56445791
  0
LINE
  5
2BA
100
AcDbEntity
  8
0
100
AcDbLine
 62
7
  6
CONTINUOUS
 10
-14.9142330635
 20
-4.5402652681
 11
-13.8535728917
 21
-4.0099351822
  0
LINE
  5
2BB
100
AcDbEntity
  8
RACCORDO
100
AcDbLine
 62
250
  6
CONTINUOUS
 10
7.5826869189
 20
7.9541040376
 11
21.2403280553
 21
14.7283947268
  0
LINE
  5
2BC
100
AcDbEntity
  8
RACCORDO
100
AcDbLine
 62
250
  6
CONTINUOUS
 10
7.5826869189
 20
6.3840342326
 11
21.9473271407
 21
13.5090016802
  0
LINE
  5
2BD
100
AcDbEntity
  8
RACCORDO
100
AcDbLine
 62
250
  6
CONTINUOUS
 10
-17.3820656354
 20
4.0121492037
 11
-16.6396035157
 21
3.6409181438
  0
LINE
  5
2BE
100
AcDbEntity
  8
RACCORDO
100
AcDbLine
 62
250
  6
CONTINUOUS
 10
-12.6665643005
 20
1.6543985362
 11
-11.9241021834
 21
1.2831674777
  0
LINE
  5
2BF
100
AcDbEntity
  8
0
100
AcDbLine
 62
7
  6
CONTINUOUS
 10
-12.8131554383
 20
1.8137131217
 11
-15.7589588827
 21
3.2866148439
  0
LINE
  5
2C0
100
AcDbEntity
  8
RACCORDO
100
AcDbLine
 62
7
  6
CONTINUOUS
 10
-16.222701752
 20
4.2716229727
 11
-12.806125167
 21
2.5633346802
  0
LINE
  5
2C1
100
AcDbEntity
  8
RACCORDO
100
AcDbLine
 62
250
  6
CONTINUOUS
 10
-16.6292962092
 20
4.6861442528
 11
-12.6564351662
 21
2.6997137313
  0
LINE
  5
2C2
100
AcDbEntity
  8
RACCORDO
100
AcDbLine
 62
250
  6
CONTINUOUS
 10
-1.6681972594
 20
17.1217112934
 11
-1.6681972594
 21
16.4328906704
  0
LINE
  5
2C3
100
AcDbEntity
  8
RACCORDO
100
AcDbLine
 62
250
  6
CONTINUOUS
 10
-1.6681972594
 20
-22.4978637892
 11
-1.6681972594
 21
-22.9228007417
  0
LINE
  5
2C4
100
AcDbEntity
  8
RACCORDO
100
AcDbLine
 62
250
  6
CONTINUOUS
 10
-1.3156752997
 20
17.2512906738
 11
-1.3156752997
 21
16.4436585521
  0
LINE
  5
2C5
100
AcDbEntity
  8
RACCORDO
100
AcDbLine
 62
250
  6
CONTINUOUS
 10
-1.3156752997
 20
-22.350104135
 11
-1.3156752997
 21
-23.0483134655
  0
LINE
  5
2C6
100
AcDbEntity
  8
RACCORDO
100
AcDbLine
 62
7
  6
CONTINUOUS
 10
-0.425615117
 20
-21.9765067486
 11
-0.425615117
 21
-23.4597492772
  0
LINE
  5
2C7
100
AcDbEntity
  8
RACCORDO
100
AcDbLine
 62
7
  6
CONTINUOUS
 10
-0.425615117
 20
16.9403394734
 11
-0.425615117
 21
18.5424901343
  0
LINE
  5
2C8
100
AcDbEntity
  8
RACCORDO
100
AcDbLine
 62
250
  6
CONTINUOUS
 10
0.1026520547
 20
18.8059289544
 11
0.1026520547
 21
18.4583974376
  0
LINE
  5
2C9
100
AcDbEntity
  8
RACCORDO
100
AcDbLine
 62
250
  6
CONTINUOUS
 10
0.1026520547
 20
-22.8412067018
 11
0.1026520547
 21
-23.1887382185
  0
LINE
  5
2CA
100
AcDbEntity
  8
RACCORDO
100
AcDbLine
 62
7
  6
CONTINUOUS
 10
0.1748499117
 20
18.8938015865
 11
0.1748499117
 21
18.5462700698
  0
LINE
  5
2CB
100
AcDbEntity
  8
RACCORDO
100
AcDbLine
 62
7
  6
CONTINUOUS
 10
0.1748499117
 20
-22.7533340696
 11
0.1748499117
 21
-23.1008655863
  0
LINE
  5
2CC
100
AcDbEntity
  8
0
100
AcDbLine
 62
7
  6
CONTINUOUS
 10
-14.4653284994
 20
-5.0952358494
 11
-13.8535728917
 21
-4.7893580456
  0
LINE
  5
2CD
100
AcDbEntity
  8
0
100
AcDbLine
 62
7
  6
CONTINUOUS
 10
-11.138282852
 20
-5.0425997278
 11
-10.1110286993
 21
-4.5289726515
  0
LINE
  5
2CE
100
AcDbEntity
  8
0
100
AcDbLine
 62
7
  6
CONTINUOUS
 10
-12.0292373963
 20
-5.9827631017
 11
-11.138282852
 21
-5.5372858295
  0
LINE
  5
2CF
100
AcDbEntity
  8
ASSI
100
AcDbLine
 62
250
  6
CONTINUOUS
 10
0.4798015708
 20
21.7863795965
 11
0.4798015708
 21
23.0134295637
  0
LINE
  5
2D0
100
AcDbEntity
  8
ASSI
100
AcDbLine
 62
7
  6
CONTINUOUS
 10
0.6033956347
 20
21.9345386994
 11
0.6033956347
 21
23.0224343078
  0
LINE
  5
2D1
100
AcDbEntity
  8
RACCORDO
100
AcDbLine
 62
7
  6
CONTINUOUS
 10
0.6350450548
 20
-21.2834786055
 11
0.6350450548
 21
16.7197728532
  0
LINE
  5
2D2
100
AcDbEntity
  8
RACCORDO
100
AcDbLine
 62
7
  6
CONTINUOUS
 10
21.9473271407
 20
8.5482761721
 11
8.3633448975
 21
1.4463934201
  0
LINE
  5
2D3
100
AcDbEntity
  8
RACCORDO
100
AcDbLine
 62
7
  6
CONTINUOUS
 10
20.2926135718
 20
5.7508712301
 11
7.5826869189
 21
-0.8530284479
  0
LINE
  5
2D4
100
AcDbEntity
  8
0
100
AcDbLine
 62
7
  6
CONTINUOUS
 10
18.9471042949
 20
4.637790736
 11
7.5826869189
 21
-1.0547667105
  0
LINE
  5
2D5
100
AcDbEntity
  8
0
100
AcDbLine
 62
7
  6
CONTINUOUS
 10
9.0496157509
 20
0.4936405538
 11
11.2416467726
 21
1.5896560647
  0
LINE
  5
2D6
100
AcDbEntity
  8
0
100
AcDbLine
 62
7
  6
CONTINUOUS
 10
12.5851496568
 20
2.2614075068
 11
14.7771806785
 21
3.3574230176
  0
LINE
  5
2D7
100
AcDbEntity
  8
0
100
AcDbLine
 62
7
  6
CONTINUOUS
 10
16.1206835628
 20
4.0291744598
 11
18.3127145844
 21
5.1251899706
  0
LINE
  5
2D8
100
AcDbEntity
  8
0
100
AcDbLine
 62
7
  6
CONTINUOUS
 10
18.9471042949
 20
4.637790736
 11
20.7364798601
 21
5.5289380859
  0
LINE
  5
2D9
100
AcDbEntity
  8
0
100
AcDbLine
 62
7
  6
CONTINUOUS
 10
18.9471042949
 20
4.637790736
 11
21.7421824732
 21
6.0054555081
  0
LINE
  5
2DA
100
AcDbEntity
  8
0
100
AcDbLine
 62
7
  6
CONTINUOUS
 10
7.5826869189
 20
-0.4910201859
 11
7.9377410973
 21
-0.6685472751
  0
LINE
  5
2DB
100
AcDbEntity
  8
0
100
AcDbLine
 62
7
  6
CONTINUOUS
 10
9.4385244805
 20
0.6880949187
 11
10.0042994157
 21
0.4052074511
  0
LINE
  5
2DC
100
AcDbEntity
  8
0
100
AcDbLine
 62
7
  6
CONTINUOUS
 10
10.0183114348
 20
0.4124878997
 11
9.4528109387
 21
0.6952381477
  0
LINE
  5
2DD
100
AcDbEntity
  8
0
100
AcDbLine
 62
250
  6
CONTINUOUS
 10
8.3633448975
 20
-2.0445341559
 11
7.5826869189
 21
-1.3955967782
  0
LINE
  5
2DE
100
AcDbEntity
  8
RACCORDO
100
AcDbLine
 62
250
  6
CONTINUOUS
 10
5.1907578137
 20
20.8406581058
 11
5.1907578137
 21
20.3433281488
  0
LINE
  5
2DF
100
AcDbEntity
  8
RACCORDO
100
AcDbLine
 62
250
  6
CONTINUOUS
 10
5.1907578137
 20
-16.2197612986
 11
5.1907578137
 21
-16.5127070594
  0
LINE
  5
2E0
100
AcDbEntity
  8
RACCORDO
100
AcDbLine
 62
7
  6
CONTINUOUS
 10
5.3310879135
 20
21.1410832325
 11
5.3310879135
 21
20.5195988381
  0
LINE
  5
2E1
100
AcDbEntity
  8
RACCORDO
100
AcDbLine
 62
7
  6
CONTINUOUS
 10
5.3310879135
 20
-16.1455524302
 11
5.3310879135
 21
-16.4658030009
  0
LINE
  5
2E2
100
AcDbEntity
  8
RACCORDO
100
AcDbLine
 62
7
  6
CONTINUOUS
 10
21.9473271407
 20
4.9202084871
 11
8.3633448975
 21
-2.0445341559
  0
LINE
  5
2E3
100
AcDbEntity
  8
0
100
AcDbLine
 62
7
  6
CONTINUOUS
 10
10.1456312617
 20
1.0416483093
 11
10.6978228615
 21
0.7655525094
  0
LINE
  5
2E4
100
AcDbEntity
  8
0
100
AcDbLine
 62
7
  6
CONTINUOUS
 10
11.2416467726
 20
1.5896560647
 11
11.7727842025
 21
1.3240873497
  0
LINE
  5
2E5
100
AcDbEntity
  8
RACCORDO
100
AcDbLine
 62
7
  6
CONTINUOUS
 10
7.5826869189
 20
-13.9261315845
 11
7.5826869189
 21
16.5569195919
  0
LINE
  5
2E6
100
AcDbEntity
  8
0
100
AcDbLine
 62
7
  6
CONTINUOUS
 10
8.7314176994
 20
-0.2561640412
 11
8.7314176994
 21
1.6388266725
  0
LINE
  5
2E7
100
AcDbEntity
  8
DRAFT
100
AcDbLine
 62
7
  6
CONTINUOUS
 10
8.888592175
 20
17.6990378199
 11
8.888592175
 21
17.2901079236
  0
LINE
  5
2E8
100
AcDbEntity
  8
0
100
AcDbLine
 62
7
  6
CONTINUOUS
 10
9.0496157509
 20
-0.0908327952
 11
9.0496157509
 21
1.8051847561
  0
LINE
  5
2E9
100
AcDbEntity
  8
RACCORDO
100
AcDbLine
 62
250
  6
CONTINUOUS
 10
-6.9622917738
 20
12.1989162148
 11
-21.7871378514
 21
19.6113392536
  0
LINE
  5
2EA
100
AcDbEntity
  8
0
100
AcDbLine
 62
7
  6
CONTINUOUS
 10
12.9740583865
 20
2.4558618716
 11
13.4719166448
 21
2.2069327425
  0
LINE
  5
2EB
100
AcDbEntity
  8
0
100
AcDbLine
 62
7
  6
CONTINUOUS
 10
13.4859286638
 20
2.2142131911
 11
12.9883448446
 21
2.4630051007
  0
LINE
  5
2EC
100
AcDbEntity
  8
0
100
AcDbLine
 62
7
  6
CONTINUOUS
 10
13.6811651677
 20
2.8094152622
 11
14.1654400906
 21
2.5672778008
  0
LINE
  5
2ED
100
AcDbEntity
  8
0
100
AcDbLine
 62
7
  6
CONTINUOUS
 10
10.1639495948
 20
11.9697713385
 11
10.1639495948
 21
10.9636490827
  0
LINE
  5
2EE
100
AcDbEntity
  8
0
100
AcDbLine
 62
7
  6
CONTINUOUS
 10
10.5698953304
 20
12.1910625394
 11
10.5698953304
 21
11.1465807581
  0
LINE
  5
2EF
100
AcDbEntity
  8
0
100
AcDbLine
 62
7
  6
CONTINUOUS
 10
10.5882136635
 20
12.1819033729
 11
10.5882136635
 21
11.1551932246
  0
LINE
  5
2F0
100
AcDbEntity
  8
0
100
AcDbLine
 62
7
  6
CONTINUOUS
 10
11.2416467726
 20
2.9512071099
 11
11.2416467726
 21
1.5896560647
  0
LINE
  5
2F1
100
AcDbEntity
  8
SMUSSO
100
AcDbLine
 62
7
  6
CONTINUOUS
 10
11.5512056657
 20
19.0356571213
 11
11.5512056657
 21
19.3867119643
  0
LINE
  5
2F2
100
AcDbEntity
  8
0
100
AcDbLine
 62
7
  6
CONTINUOUS
 10
14.7771806785
 20
3.3574230176
 11
15.2404014316
 21
3.1258126411
  0
LINE
  5
2F3
100
AcDbEntity
  8
RACCORDO
100
AcDbLine
 62
250
  6
CONTINUOUS
 10
-5.9463533806
 20
13.9390341791
 11
-20.7945718414
 21
21.3631434095
  0
LINE
  5
2F4
100
AcDbEntity
  8
0
100
AcDbLine
 62
7
  6
CONTINUOUS
 10
16.5095922924
 20
4.2236288246
 11
16.9395338738
 21
4.0086580339
  0
LINE
  5
2F5
100
AcDbEntity
  8
0
100
AcDbLine
 62
7
  6
CONTINUOUS
 10
16.9535458929
 20
4.0159384825
 11
16.5238787506
 21
4.2307720537
  0
LINE
  5
2F6
100
AcDbEntity
  8
0
100
AcDbLine
 62
7
  6
CONTINUOUS
 10
17.2166990736
 20
4.5771822152
 11
17.6330573197
 21
4.3690030922
  0
LINE
  5
2F7
100
AcDbEntity
  8
0
100
AcDbLine
 62
7
  6
CONTINUOUS
 10
11.9487535537
 20
1.4155185572
 11
11.9487535537
 21
3.3208917402
  0
LINE
  5
2F8
100
AcDbEntity
  8
0
100
AcDbLine
 62
7
  6
CONTINUOUS
 10
12.5851496568
 20
1.7461810492
 11
12.5851496568
 21
3.6536079074
  0
LINE
  5
2F9
100
AcDbEntity
  8
RACCORDO
100
AcDbLine
 62
250
  6
CONTINUOUS
 10
-1.6687114878
 20
-22.9225436275
 11
-2.2910295198
 21
-23.667603045
  0
LINE
  5
2FA
100
AcDbEntity
  8
RACCORDO
100
AcDbLine
 62
250
  6
CONTINUOUS
 10
-1.3156752997
 20
-23.0483134655
 11
-2.0268959078
 21
-23.8998099427
  0
LINE
  5
2FB
100
AcDbEntity
  8
0
100
AcDbLine
 62
7
  6
CONTINUOUS
 10
18.3127145844
 20
5.1251899706
 11
18.7080186607
 21
4.9275379325
  0
LINE
  5
2FC
100
AcDbEntity
  8
RACCORDO
100
AcDbLine
 62
7
  6
CONTINUOUS
 10
-1.6681972594
 20
16.4328906704
 11
-3.001409593
 21
17.0994968373
  0
LINE
  5
2FD
100
AcDbEntity
  8
RACCORDO
100
AcDbLine
 62
7
  6
CONTINUOUS
 10
-15.0325154238
 20
23.1150497527
 11
-16.3657277575
 21
23.7816559195
  0
LINE
  5
2FE
100
AcDbEntity
  8
0
100
AcDbLine
 62
7
  6
CONTINUOUS
 10
20.7522329795
 20
5.5210615262
 11
20.7364798601
 21
5.5289380859
  0
LINE
  5
2FF
100
AcDbEntity
  8
DRAFT
100
AcDbLine
 62
7
  6
CONTINUOUS
 10
20.2926135718
 20
5.7508712301
 11
20.7364798601
 21
5.5289380859
  0
LINE
  5
300
100
AcDbEntity
  8
0
100
AcDbLine
 62
7
  6
CONTINUOUS
 10
14.7771806785
 20
4.7996302612
 11
14.7771806785
 21
3.3574230176
  0
LINE
  5
301
100
AcDbEntity
  8
0
100
AcDbLine
 62
7
  6
CONTINUOUS
 10
15.4842874597
 20
3.2525324017
 11
15.4842874597
 21
5.1693148915
  0
LINE
  5
302
100
AcDbEntity
  8
0
100
AcDbLine
 62
7
  6
CONTINUOUS
 10
16.1206835628
 20
3.5831948936
 11
16.1206835628
 21
5.5020310587
  0
LINE
  5
303
100
AcDbEntity
  8
RACCORDO
100
AcDbLine
 62
7
  6
CONTINUOUS
 10
5.9932872293
 20
-15.7953705239
 11
7.1685364432
 21
-14.9436146835
  0
LINE
  5
304
100
AcDbEntity
  8
RACCORDO
100
AcDbLine
 62
250
  6
CONTINUOUS
 10
21.9473271407
 20
-6.2758999282
 11
7.5801409275
 21
-14.0273264978
  0
LINE
  5
305
100
AcDbEntity
  8
RACCORDO
100
AcDbLine
 62
7
  6
CONTINUOUS
 10
21.7028111609
 20
-6.808651614
 11
7.4986458172
 21
-14.4721246845
  0
LINE
  5
306
100
AcDbEntity
  8
RACCORDO
100
AcDbLine
 62
250
  6
CONTINUOUS
 10
0.6350450548
 20
-17.5859931803
 11
7.5826869189
 21
-13.9261315845
  0
LINE
  5
307
100
AcDbEntity
  8
RACCORDO
100
AcDbLine
 62
250
  6
CONTINUOUS
 10
0.6350450548
 20
-18.3853111162
 11
7.1685364432
 21
-14.9436146835
  0
LINE
  5
308
100
AcDbEntity
  8
RACCORDO
100
AcDbLine
 62
7
  6
CONTINUOUS
 10
-2.2537394014
 20
17.2439730359
 11
-1.6295438043
 21
17.1136404161
  0
LINE
  5
309
100
AcDbEntity
  8
RACCORDO
100
AcDbLine
 62
7
  6
CONTINUOUS
 10
-11.4190626677
 20
21.6845699993
 11
-5.907755568
 21
18.9289164494
  0
LINE
  5
30A
100
AcDbEntity
  8
RACCORDO
100
AcDbLine
 62
7
  6
CONTINUOUS
 10
-17.0037474153
 20
24.6097398926
 11
-15.6787627355
 21
23.9472475527
  0
LINE
  5
30B
100
AcDbEntity
  8
RACCORDO
100
AcDbLine
 62
7
  6
CONTINUOUS
 10
-3.6394292509
 20
17.9275808104
 11
-2.3144445711
 21
17.2650884704
  0
LINE
  5
30C
100
AcDbEntity
  8
RACCORDO
100
AcDbLine
 62
250
  6
CONTINUOUS
 10
-17.0687207117
 20
24.7449583427
 11
-15.7437360319
 21
24.0824660028
  0
LINE
  5
30D
100
AcDbEntity
  8
RACCORDO
100
AcDbLine
 62
250
  6
CONTINUOUS
 10
-3.7044025473
 20
18.0627992605
 11
-2.3794178675
 21
17.4003069206
  0
LINE
  5
30E
100
AcDbEntity
  8
RACCORDO
100
AcDbLine
 62
250
  6
CONTINUOUS
 10
-2.3794178675
 20
17.7402808547
 11
-3.7044025473
 21
18.4027731946
  0
LINE
  5
30F
100
AcDbEntity
  8
RACCORDO
100
AcDbLine
 62
250
  6
CONTINUOUS
 10
-15.7437360319
 20
24.4224399369
 11
-17.0687207117
 21
25.0849322768
  0
LINE
  5
310
100
AcDbEntity
  8
DRAFT
100
AcDbLine
 62
7
  6
CONTINUOUS
 10
-13.7899332814
 20
23.6224985556
 11
-11.5655092771
 21
22.5102865534
  0
LINE
  5
311
100
AcDbEntity
  8
DRAFT
100
AcDbLine
 62
7
  6
CONTINUOUS
 10
-4.8450324994
 20
19.1500481646
 11
-3.7510918988
 21
18.6030778643
  0
LINE
  5
312
100
AcDbEntity
  8
RACCORDO
100
AcDbLine
 62
7
  6
CONTINUOUS
 10
-0.425615117
 20
16.9403394734
 11
-0.4023601605
 21
16.9287119951
  0
LINE
  5
313
100
AcDbEntity
  8
RACCORDO
100
AcDbLine
 62
250
  6
CONTINUOUS
 10
-2.2036696115
 20
18.0446576696
 11
-3.5286542913
 21
18.7071500096
  0
LINE
  5
314
100
AcDbEntity
  8
RACCORDO
100
AcDbLine
 62
250
  6
CONTINUOUS
 10
-15.5679877759
 20
24.7268167519
 11
-16.8929724558
 21
25.3893090918
  0
LINE
  5
315
100
AcDbEntity
  8
0
100
AcDbLine
 62
7
  6
CONTINUOUS
 10
10.1639495948
 20
11.9697713385
 11
10.1456312617
 21
11.9789305051
  0
LINE
  5
316
100
AcDbEntity
  8
RACCORDO
100
AcDbLine
 62
250
  6
CONTINUOUS
 10
-5.907755568
 20
20.0094997603
 11
-11.4190626677
 21
22.7651533101
  0
LINE
  5
317
100
AcDbEntity
  8
RACCORDO
100
AcDbLine
 62
250
  6
CONTINUOUS
 10
-5.4849331882
 20
20.1118893247
 11
-11.5606878379
 21
23.1497666496
  0
LINE
  5
318
100
AcDbEntity
  8
RACCORDO
100
AcDbLine
 62
7
  6
CONTINUOUS
 10
-13.7899332814
 20
24.3220476476
 11
-12.3818905465
 21
23.6180262801
  0
LINE
  5
319
100
AcDbEntity
  8
RACCORDO
100
AcDbLine
 62
7
  6
CONTINUOUS
 10
-0.425615117
 20
17.6398885653
 11
0.3167500641
 21
17.2687059748
  0
LINE
  5
31A
100
AcDbEntity
  8
0
100
AcDbLine
 62
7
  6
CONTINUOUS
 10
10.5698953304
 20
12.1910625394
 11
10.5882136635
 21
12.1819033729
  0
LINE
  5
31B
100
AcDbEntity
  8
DRAFT
100
AcDbLine
 62
7
  6
CONTINUOUS
 10
-11.0675721739
 20
23.4737535671
 11
-4.8450324994
 21
20.3624837299
  0
LINE
  5
31C
100
AcDbEntity
  8
RACCORDO
100
AcDbLine
 62
7
  6
CONTINUOUS
 10
7.1685364432
 20
17.9885531666
 11
5.9932872293
 21
20.0155582208
  0
LINE
  5
31D
100
AcDbEntity
  8
SMUSSO
100
AcDbLine
 62
7
  6
CONTINUOUS
 10
17.2080599152
 20
16.5582848396
 11
17.2080599152
 21
16.2072299966
  0
LINE
  5
31E
100
AcDbEntity
  8
0
100
AcDbLine
 62
7
  6
CONTINUOUS
 10
18.3127145844
 20
6.6480534125
 11
18.3127145844
 21
5.1251899706
  0
LINE
  5
31F
100
AcDbEntity
  8
DRAFT
100
AcDbLine
 62
7
  6
CONTINUOUS
 10
0.6350450548
 20
-18.6288972498
 11
5.9932872293
 21
-15.7953705239
  0
LINE
  5
320
100
AcDbEntity
  8
RACCORDO
100
AcDbLine
 62
7
  6
CONTINUOUS
 10
4.3092223551
 20
-17.0721361035
 11
0.6350450548
 21
-18.9163686428
  0
LINE
  5
321
100
AcDbEntity
  8
RACCORDO
100
AcDbLine
 62
7
  6
CONTINUOUS
 10
5.1907578137
 20
-16.5127070594
 11
0.6350450548
 21
-18.772374173
  0
LINE
  5
322
100
AcDbEntity
  8
RACCORDO
100
AcDbLine
 62
250
  6
CONTINUOUS
 10
-2.0268959078
 20
17.3997941967
 11
-1.3156752997
 21
17.2512906738
  0
LINE
  5
323
100
AcDbEntity
  8
RACCORDO
100
AcDbLine
 62
7
  6
CONTINUOUS
 10
-15.3102158526
 20
26.2012931891
 11
-13.9667069851
 21
25.5295387554
  0
LINE
  5
324
100
AcDbEntity
  8
RACCORDO
100
AcDbLine
 62
7
  6
CONTINUOUS
 10
-1.9458976882
 20
19.5191341069
 11
-0.6023888207
 21
18.8473796731
  0
LINE
  5
325
100
AcDbEntity
  8
DRAFT
100
AcDbLine
 62
7
  6
CONTINUOUS
 10
-9.7240692896
 20
23.5040705177
 11
-4.7743218213
 21
21.0291967836
  0
LINE
  5
326
100
AcDbEntity
  8
RACCORDO
100
AcDbLine
 62
250
  6
CONTINUOUS
 10
-14.7757659739
 20
26.4616406557
 11
-13.4384398134
 21
25.7929775754
  0
LINE
  5
327
100
AcDbEntity
  8
RACCORDO
100
AcDbLine
 62
250
  6
CONTINUOUS
 10
-1.4114478095
 20
19.7794815735
 11
-0.0741216489
 21
19.1108184932
  0
LINE
  5
328
100
AcDbEntity
  8
RACCORDO
100
AcDbLine
 62
7
  6
CONTINUOUS
 10
-14.6649910144
 20
26.4682305468
 11
-13.3276648538
 21
25.7995674665
  0
LINE
  5
329
100
AcDbEntity
  8
RACCORDO
100
AcDbLine
 62
7
  6
CONTINUOUS
 10
-1.30067285
 20
19.7860714646
 11
0.0366533106
 21
19.1174083843
  0
LINE
  5
32A
100
AcDbEntity
  8
RACCORDO
100
AcDbLine
 62
7
  6
CONTINUOUS
 10
-3.460159841
 20
21.6769139002
 11
-6.0471140274
 21
22.9703909934
  0
LINE
  5
32B
100
AcDbEntity
  8
RACCORDO
100
AcDbLine
 62
250
  6
CONTINUOUS
 10
-2.8191966462
 20
21.9928284059
 11
-4.9121088772
 21
23.0392845213
  0
LINE
  5
32C
100
AcDbEntity
  8
RACCORDO
100
AcDbLine
 62
7
  6
CONTINUOUS
 10
-2.7684332217
 20
22.0178484106
 11
-4.8278675129
 21
23.0475655562
  0
LINE
  5
32D
100
AcDbEntity
  8
ASSI
100
AcDbLine
 62
7
  6
CONTINUOUS
 10
-2.2566460766
 20
22.2700953169
 11
-4.7036111432
 21
23.4935778502
  0
LINE
  5
32E
100
AcDbEntity
  8
0
100
AcDbLine
 62
7
  6
CONTINUOUS
 10
-5.0571645338
 20
23.6703545455
 11
-5.4107179244
 21
23.8471312408
  0
LINE
  5
32F
100
AcDbEntity
  8
RACCORDO
100
AcDbLine
 62
7
  6
CONTINUOUS
 10
21.9350941216
 20
5.8456895735
 11
21.7421824732
 21
6.0054555081
  0
LINE
  5
330
100
AcDbEntity
  8
0
100
AcDbLine
 62
7
  6
CONTINUOUS
 10
13.6267700039
 20
13.9051671654
 11
13.4476172184
 21
14.3238682412
  0
LINE
  5
331
100
AcDbEntity
  8
RACCORDO
100
AcDbLine
 62
7
  6
CONTINUOUS
 10
11.5440798574
 20
19.4053913881
 11
11.5512056657
 21
19.3867119643
  0
LINE
  5
332
100
AcDbEntity
  8
0
100
AcDbLine
 62
7
  6
CONTINUOUS
 10
19.0198213656
 20
5.0895462461
 11
19.0198213656
 21
7.0177380428
  0
LINE
  5
333
100
AcDbEntity
  8
0
100
AcDbLine
 62
7
  6
CONTINUOUS
 10
19.3380194171
 20
5.2548774921
 11
19.3380194171
 21
7.1840961264
  0
LINE
  5
334
100
AcDbEntity
  8
0
100
AcDbLine
 62
7
  6
CONTINUOUS
 10
20.7522329795
 20
5.5210615262
 11
20.7522329795
 21
7.9234653869
  0
LINE
  5
335
100
AcDbEntity
  8
RACCORDO
100
AcDbLine
 62
250
  6
CONTINUOUS
 10
0.1026520547
 20
-23.1887382185
 11
-0.425615117
 21
-23.4597492772
  0
LINE
  5
336
100
AcDbEntity
  8
RACCORDO
100
AcDbLine
 62
7
  6
CONTINUOUS
 10
0.0389640172
 20
-23.3233020288
 11
-0.4897202167
 21
-23.5945270482
  0
LINE
  5
337
100
AcDbEntity
  8
RACCORDO
100
AcDbLine
 62
7
  6
CONTINUOUS
 10
-0.4914566314
 20
-23.5953952699
 11
-0.4897202147
 21
-23.5945270473
  0
LINE
  5
338
100
AcDbEntity
  8
RACCORDO
100
AcDbLine
 62
250
  6
CONTINUOUS
 10
-0.0829936594
 20
-21.637722439
 11
0.6350450548
 21
-21.2834786055
  0
LINE
  5
339
100
AcDbEntity
  8
RACCORDO
100
AcDbLine
 62
7
  6
CONTINUOUS
 10
-0.204170857
 20
-21.883218527
 11
0.5172600138
 21
-21.5273011757
  0
LINE
  5
33A
100
AcDbEntity
  8
RACCORDO
100
AcDbLine
 62
250
  6
CONTINUOUS
 10
-0.425615117
 20
-23.4597492772
 11
-2.0268959078
 21
-24.2397838768
  0
LINE
  5
33B
100
AcDbEntity
  8
RACCORDO
100
AcDbLine
 62
7
  6
CONTINUOUS
 10
-0.4914566306
 20
-23.5953952695
 11
-2.0931575004
 21
-24.375634503
  0
LINE
  5
33C
100
AcDbEntity
  8
RACCORDO
100
AcDbLine
 62
250
  6
CONTINUOUS
 10
-5.5805206406
 20
-23.9020395067
 11
-5.5742654885
 21
-23.899413848
  0
LINE
  5
33D
100
AcDbEntity
  8
RACCORDO
100
AcDbLine
 62
7
  6
CONTINUOUS
 10
-1.5624928626
 20
-22.4537056745
 11
-0.2135229381
 21
-21.8874834018
  0
LWPOLYLINE
  5
33E
100
AcDbEntity
  8
RACCORDO
100
AcDbPolyline
 62
7
  6
CONTINUOUS
 90
8
 70
0
 10
-5.734327886
 20
-24.1832352051
 10
-5.2021343643
 20
-23.9608058142
 10
-4.6442860421
 20
-23.729361842
 10
-4.0663253426
 20
-23.4907448189
 10
-3.4686946181
 20
-23.2445066333
 10
-2.8517635546
 20
-22.9900703088
 10
-2.2159836728
 20
-22.7267020968
 10
-1.5624928626
 20
-22.4537056745
  0
LINE
  5
33F
100
AcDbEntity
  8
RACCORDO
100
AcDbLine
 62
7
  6
CONTINUOUS
 10
-15.6180575658
 20
23.9261321181
 11
-14.9938619687
 21
23.7957994983
  0
LINE
  5
340
100
AcDbEntity
  8
RACCORDO
100
AcDbLine
 62
250
  6
CONTINUOUS
 10
-15.3912140723
 20
24.0819532789
 11
-14.6799934642
 21
23.933449756
  0
LWPOLYLINE
  5
341
100
AcDbEntity
  8
RACCORDO
100
AcDbPolyline
 62
7
  6
CONTINUOUS
 90
51
 70
0
 10
-4.8329985123
 20
23.0498661678
 10
-4.8435699555
 20
23.0540185128
 10
-4.8665313186
 20
23.0626331358
 10
-4.8898019098
 20
23.0708259643
 10
-4.9133678734
 20
23.0786019436
 10
-4.9372232209
 20
23.0859675382
 10
-4.9613499545
 20
23.0929245372
 10
-4.9857301899
 20
23.0994750777
 10
-5.0103573511
 20
23.1056236359
 10
-5.0352135525
 20
23.1113712759
 10
-5.0602814563
 20
23.1167194425
 10
-5.0855545743
 20
23.1216712454
 10
-5.1110155536
 20
23.1262273254
 10
-5.1366468681
 20
23.1303884747
 10
-5.1624410935
 20
23.1341566032
 10
-5.1883806816
 20
23.1375320252
 10
-5.2144485017
 20
23.1405151976
 10
-5.2406371709
 20
23.1431072504
 10
-5.2669291264
 20
23.1453082976
 10
-5.2933073903
 20
23.1471185005
 10
-5.3197650485
 20
23.1485383519
 10
-5.3462848767
 20
23.1495678027
 10
-5.3728496218
 20
23.1502067173
 10
-5.3994521267
 20
23.1504549614
 10
-5.4260752078
 20
23.1503123096
 10
-5.4527015117
 20
23.149778393
 10
-5.4793236549
 20
23.1488525039
 10
-5.5059245115
 20
23.1475342151
 10
-5.5324864784
 20
23.1458229373
 10
-5.5590017292
 20
23.1437174098
 10
-5.5854529646
 20
23.1412169775
 10
-5.6118224298
 20
23.1383208194
 10
-5.6381021297
 20
23.135027067
 10
-5.6642760481
 20
23.131334541
 10
-5.6903246566
 20
23.127242316
 10
-5.7162355321
 20
23.1227485738
 10
-5.7419922343
 20
23.1178518887
 10
-5.7675752905
 20
23.1125511876
 10
-5.7929689939
 20
23.1068449128
 10
-5.8181554462
 20
23.1007316939
 10
-5.8431165099
 20
23.094210054
 10
-5.8678377161
 20
23.0872776698
 10
-5.8923011706
 20
23.079932639
 10
-5.9164885634
 20
23.0721730938
 10
-5.9403864089
 20
23.0639955481
 10
-5.9639758678
 20
23.0553975774
 10
-5.9872393201
 20
23.0463761865
 10
-6.010166837
 20
23.0369248246
 10
-6.0327431207
 20
23.0270378885
 10
-6.0549448284
 20
23.0167132505
 10
-6.0705242893
 20
23.0090875512
  0
LINE
  5
342
100
AcDbEntity
  8
DRAFT
100
AcDbLine
 62
7
  6
CONTINUOUS
 10
-5.0571645338
 20
24.2229127348
 11
-5.4107179244
 21
24.3996894301
  0
LINE
  5
343
100
AcDbEntity
  8
0
100
AcDbLine
 62
7
  6
CONTINUOUS
 10
-0.8488303803
 20
22.9639719753
 11
-3.6593800273
 21
24.3692467988
  0
LINE
  5
344
100
AcDbEntity
  8
0
100
AcDbLine
 62
7
  6
CONTINUOUS
 10
16.8942939495
 20
14.1200320544
 11
15.4489321206
 21
14.8427129689
  0
LINE
  5
345
100
AcDbEntity
  8
0
100
AcDbLine
 62
7
  6
CONTINUOUS
 10
11.2374397
 20
16.9484591792
 11
9.721367193
 21
17.7064954327
  0
LINE
  5
346
100
AcDbEntity
  8
DRAFT
100
AcDbLine
 62
7
  6
CONTINUOUS
 10
5.2545136969
 20
20.3849449871
 11
5.9932872293
 21
20.0155582208
  0
LINE
  5
347
100
AcDbEntity
  8
ASSI
100
AcDbLine
 62
250
  6
CONTINUOUS
 10
-5.7313487679
 20
26.0731970326
 11
-5.1258183333
 21
25.7704318152
  0
LINE
  5
348
100
AcDbEntity
  8
ASSI
100
AcDbLine
 62
250
  6
CONTINUOUS
 10
-0.176070865
 20
23.2955580811
 11
0.4294595697
 21
22.9927928638
  0
LINE
  5
349
100
AcDbEntity
  8
0
100
AcDbLine
 62
7
  6
CONTINUOUS
 10
-2.2994480872
 20
24.4429949862
 11
-0.0635872155
 21
23.3250645504
  0
LINE
  5
34A
100
AcDbEntity
  8
0
100
AcDbLine
 62
7
  6
CONTINUOUS
 10
0.6033956347
 20
22.9915731253
 11
0.8016910342
 21
22.8924254255
  0
LINE
  5
34B
100
AcDbEntity
  8
ASSI
100
AcDbLine
 62
7
  6
CONTINUOUS
 10
-5.4554102895
 20
26.0591825351
 11
-4.9583674997
 21
25.8106611402
  0
LINE
  5
34C
100
AcDbEntity
  8
ASSI
100
AcDbLine
 62
7
  6
CONTINUOUS
 10
0.0995781397
 20
23.2816883205
 11
0.5966209295
 21
23.0331669256
  0
LINE
  5
34D
100
AcDbEntity
  8
RACCORDO
100
AcDbLine
 62
250
  6
CONTINUOUS
 10
-6.0673502198
 20
26.7628025846
 11
-3.0003842759
 21
25.2293196126
  0
LINE
  5
34E
100
AcDbEntity
  8
RACCORDO
100
AcDbLine
 62
250
  6
CONTINUOUS
 10
1.2422564112
 20
23.1079992691
 11
4.3092223551
 21
21.5745162971
  0
LINE
  5
34F
100
AcDbEntity
  8
0
100
AcDbLine
 62
7
  6
CONTINUOUS
 10
21.7421824732
 20
6.0054555081
 11
21.7421824732
 21
8.4410238693
  0
LINE
  5
350
100
AcDbEntity
  8
RACCORDO
100
AcDbLine
 62
250
  6
CONTINUOUS
 10
21.9473271407
 20
13.5090016802
 11
21.9473271407
 21
8.5482761721
  0
LINE
  5
351
100
AcDbEntity
  8
RACCORDO
100
AcDbLine
 62
250
  6
CONTINUOUS
 10
21.9473271407
 20
4.9202084871
 11
21.9473271407
 21
-6.2758999282
  0
LINE
  5
352
100
AcDbEntity
  8
RACCORDO
100
AcDbLine
 62
7
  6
CONTINUOUS
 10
22.2279873404
 20
13.8563308654
 11
22.2279873404
 21
8.8328841985
  0
LINE
  5
353
100
AcDbEntity
  8
RACCORDO
100
AcDbLine
 62
7
  6
CONTINUOUS
 10
22.2279873404
 20
5.3302588311
 11
22.2279873404
 21
-5.928570743
  0
LINE
  5
354
100
AcDbEntity
  8
DRAFT
100
AcDbLine
 62
7
  6
CONTINUOUS
 10
10.5698953304
 20
18.5363627953
 11
12.5301513621
 21
17.5562347795
  0
LINE
  5
355
100
AcDbEntity
  8
DRAFT
100
AcDbLine
 62
7
  6
CONTINUOUS
 10
18.1870056116
 20
14.7278076547
 11
16.2267495799
 21
15.7079356706
  0
LINE
  5
356
100
AcDbEntity
  8
RACCORDO
100
AcDbLine
 62
7
  6
CONTINUOUS
 10
-5.785664516
 20
26.8678307008
 11
-2.5593412728
 21
25.2546690792
  0
LINE
  5
357
100
AcDbEntity
  8
RACCORDO
100
AcDbLine
 62
7
  6
CONTINUOUS
 10
1.6832994143
 20
23.1333487357
 11
4.9096226574
 21
21.5201871141
  0
LINE
  5
358
100
AcDbEntity
  8
DRAFT
100
AcDbLine
 62
7
  6
CONTINUOUS
 10
11.5512056657
 20
19.0356571213
 11
13.550554187
 21
18.0359828607
  0
LINE
  5
359
100
AcDbEntity
  8
DRAFT
100
AcDbLine
 62
7
  6
CONTINUOUS
 10
19.2074084365
 20
15.207555736
 11
17.2080599152
 21
16.2072299966
  0
LINE
  5
35A
100
AcDbEntity
  8
RACCORDO
100
AcDbLine
 62
250
  6
CONTINUOUS
 10
8.9751108346
 20
20.8610033372
 11
10.4542029935
 21
20.1214572577
  0
LINE
  5
35B
100
AcDbEntity
  8
RACCORDO
100
AcDbLine
 62
250
  6
CONTINUOUS
 10
14.104381647
 20
18.296367931
 11
16.1110572429
 21
17.293030133
  0
LINE
  5
35C
100
AcDbEntity
  8
RACCORDO
100
AcDbLine
 62
250
  6
CONTINUOUS
 10
19.7612358965
 20
15.4679408062
 11
21.2403280553
 21
14.7283947268
  0
LINE
  5
35D
100
AcDbEntity
  8
RACCORDO
100
AcDbLine
 62
7
  6
CONTINUOUS
 10
9.4099837152
 20
20.8833666668
 11
10.972854327
 21
20.1019313609
  0
LINE
  5
35E
100
AcDbEntity
  8
RACCORDO
100
AcDbLine
 62
7
  6
CONTINUOUS
 10
14.4554760746
 20
18.3606204871
 11
16.6297085765
 21
17.2735042361
  0
LINE
  5
35F
100
AcDbEntity
  8
RACCORDO
100
AcDbLine
 62
7
  6
CONTINUOUS
 10
20.1123303241
 20
15.5321933623
 11
21.6752009359
 21
14.7507580564
  0
LINE
  5
360
100
AcDbEntity
  8
RACCORDO
100
AcDbLine
 62
7
  6
CONTINUOUS
 10
17.2009341069
 20
16.5769642633
 11
17.2080599152
 21
16.5582848396
  0
LINE
  5
361
100
AcDbEntity
  8
0
100
AcDbLine
 62
7
  6
CONTINUOUS
 10
-3.6593800273
 20
24.3692467988
 11
-2.2994480872
 21
24.4429949862
  0
ARC
  5
362
100
AcDbEntity
  8
RACCORDO
100
AcDbCircle
 62
7
  6
CONTINUOUS
 10
21.2279873404
 20
-5.928570743
 40
1.0
100
AcDbArc
 50
298.3477792289
 51
0.0000847839
  0
ARC
  5
363
100
AcDbEntity
  8
RACCORDO
100
AcDbCircle
 62
250
  6
CONTINUOUS
 10
-21.1565926427
 20
-16.2677490201
 40
0.5503317417
100
AcDbArc
 50
240.7838655321
 51
242.6378463043
  0
ARC
  5
364
100
AcDbEntity
  8
RACCORDO
100
AcDbCircle
 62
250
  6
CONTINUOUS
 10
-21.1569340351
 20
-16.2684006153
 40
0.549596139
100
AcDbArc
 50
242.6382336275
 51
243.4348918696
  0
ARC
  5
365
100
AcDbEntity
  8
RACCORDO
100
AcDbCircle
 62
250
  6
CONTINUOUS
 10
21.9779202713
 20
-5.9285718745
 40
0.250066963
100
AcDbArc
 50
359.34093698
 51
0.000259257
  0
ARC
  5
366
100
AcDbEntity
  8
RACCORDO
100
AcDbCircle
 62
7
  6
CONTINUOUS
 10
-0.0751500883
 20
-22.7533340696
 40
0.25
100
AcDbArc
 50
0.0
 51
63.4365697055
  0
ARC
  5
367
100
AcDbEntity
  8
RACCORDO
100
AcDbCircle
 62
7
  6
CONTINUOUS
 10
-0.0751500883
 20
-23.1008655863
 40
0.25
100
AcDbArc
 50
297.1601113093
 51
0.0000770393
  0
ARC
  5
368
100
AcDbEntity
  8
RACCORDO
100
AcDbCircle
 62
7
  6
CONTINUOUS
 10
-2.2026411722
 20
-24.1508828053
 40
0.25
100
AcDbArc
 50
243.433410125
 51
295.9721801256
  0
ARC
  5
369
100
AcDbEntity
  8
RACCORDO
100
AcDbCircle
 62
7
  6
CONTINUOUS
 10
-3.527625852
 20
-23.4883904654
 40
0.25
100
AcDbArc
 50
180.0015552359
 51
243.4349488229
  0
ARC
  5
36A
100
AcDbEntity
  8
RACCORDO
100
AcDbCircle
 62
250
  6
CONTINUOUS
 10
-5.8107628305
 20
-24.001206262
 40
0.1974249474
100
AcDbArc
 50
292.7778003922
 51
299.1875851524
  0
ARC
  5
36B
100
AcDbEntity
  8
RACCORDO
100
AcDbCircle
 62
7
  6
CONTINUOUS
 10
-0.2789034166
 20
-21.7317180452
 40
0.1689297537
100
AcDbArc
 50
292.7698297726
 51
296.2564442226
  0
ARC
  5
36C
100
AcDbEntity
  8
RACCORDO
100
AcDbCircle
 62
7
  6
CONTINUOUS
 10
-0.5325092435
 20
-23.5111136161
 40
0.0937479893
100
AcDbArc
 50
297.1567016102
 51
299.3030104152
  0
ARC
  5
36D
100
AcDbEntity
  8
ASSI
100
AcDbCircle
 62
7
  6
CONTINUOUS
 10
9.8992278866
 20
15.233091503
 40
1.6583963891
100
AcDbArc
 50
61.5313059234
 51
63.4457364067
  0
ARC
  5
36E
100
AcDbEntity
  8
RACCORDO
100
AcDbCircle
 62
7
  6
CONTINUOUS
 10
21.2279873404
 20
13.8563308654
 40
1.0
100
AcDbArc
 50
0.0
 51
63.4353677904
  0
ARC
  5
36F
100
AcDbEntity
  8
RACCORDO
100
AcDbCircle
 62
7
  6
CONTINUOUS
 10
8.9627701197
 20
19.9889394758
 40
1.0
100
AcDbArc
 50
63.4349488229
 51
114.7894524371
  0
ARC
  5
370
100
AcDbEntity
  8
RACCORDO
100
AcDbCircle
 62
7
  6
CONTINUOUS
 10
-16.1081449628
 20
3.5605463351
 40
0.3981792078
100
AcDbArc
 50
295.0901953822
 51
295.676799994
  0
ARC
  5
371
100
AcDbEntity
  8
RACCORDO
100
AcDbCircle
 62
250
  6
CONTINUOUS
 10
9.2422977116
 20
20.5479999885
 40
0.3749525022
100
AcDbArc
 50
63.4345846633
 51
64.7813239579
  0
ARC
  5
372
100
AcDbEntity
  8
RACCORDO
100
AcDbCircle
 62
7
  6
CONTINUOUS
 10
-16.8919440164
 20
24.8333466903
 40
0.25
100
AcDbArc
 50
180.0
 51
243.4365697055
  0
ARC
  5
373
100
AcDbEntity
  8
RACCORDO
100
AcDbCircle
 62
7
  6
CONTINUOUS
 10
-13.4394682527
 20
25.5759606688
 40
0.25
100
AcDbArc
 50
0.0015552359
 51
63.4349488229
  0
ARC
  5
374
100
AcDbEntity
  8
RACCORDO
100
AcDbCircle
 62
7
  6
CONTINUOUS
 10
-13.4394682527
 20
25.228429152
 40
0.25
100
AcDbArc
 50
320.5925343592
 51
0.000379699
  0
ARC
  5
375
100
AcDbEntity
  8
RACCORDO
100
AcDbCircle
 62
7
  6
CONTINUOUS
 10
-14.7767944133
 20
26.244623749
 40
0.25
100
AcDbArc
 50
63.4349488229
 51
115.9738727385
  0
ARC
  5
376
100
AcDbEntity
  8
RACCORDO
100
AcDbCircle
 62
7
  6
CONTINUOUS
 10
-16.8919440164
 20
25.1733206244
 40
0.25
100
AcDbArc
 50
117.1568384573
 51
180.0
  0
ARC
  5
377
100
AcDbEntity
  8
RACCORDO
100
AcDbCircle
 62
7
  6
CONTINUOUS
 10
-15.5669593366
 20
24.1708543504
 40
0.25
100
AcDbArc
 50
243.4349674159
 51
258.2060555493
  0
ARC
  5
378
100
AcDbEntity
  8
RACCORDO
100
AcDbCircle
 62
7
  6
CONTINUOUS
 10
-0.0751500883
 20
18.8938015865
 40
0.25
100
AcDbArc
 50
0.0
 51
63.4367685863
  0
ARC
  5
379
100
AcDbEntity
  8
RACCORDO
100
AcDbCircle
 62
7
  6
CONTINUOUS
 10
-0.0751500883
 20
18.5462700698
 40
0.25
100
AcDbArc
 50
320.5925343592
 51
0.0003796989
  0
ARC
  5
37A
100
AcDbEntity
  8
RACCORDO
100
AcDbCircle
 62
7
  6
CONTINUOUS
 10
-1.4124762488
 20
19.5624646668
 40
0.25
100
AcDbArc
 50
63.433410125
 51
115.9721801256
  0
ARC
  5
37B
100
AcDbEntity
  8
RACCORDO
100
AcDbCircle
 62
7
  6
CONTINUOUS
 10
-3.527625852
 20
18.4911615422
 40
0.25
100
AcDbArc
 50
117.1601113093
 51
180.0000770393
  0
ARC
  5
37C
100
AcDbEntity
  8
RACCORDO
100
AcDbCircle
 62
7
  6
CONTINUOUS
 10
-3.527625852
 20
18.1511876081
 40
0.25
100
AcDbArc
 50
180.0
 51
243.4365697055
  0
ARC
  5
37D
100
AcDbEntity
  8
RACCORDO
100
AcDbCircle
 62
7
  6
CONTINUOUS
 10
-2.2026411722
 20
17.4886952682
 40
0.25
100
AcDbArc
 50
243.4349674159
 51
258.2060555493
  0
ARC
  5
37E
100
AcDbEntity
  8
RACCORDO
100
AcDbCircle
 62
7
  6
CONTINUOUS
 10
-4.8577239777
 20
22.9878511184
 40
0.0667623717
100
AcDbArc
 50
63.4355260251
 51
68.2627782427
  0
ARC
  5
37F
100
AcDbEntity
  8
RACCORDO
100
AcDbCircle
 62
7
  6
CONTINUOUS
 10
-6.1059470294
 20
22.9261090518
 40
0.0583767192
100
AcDbArc
 50
116.5901308121
 51
130.379305658
  0
ARC
  5
380
100
AcDbEntity
  8
RACCORDO
100
AcDbCircle
 62
250
  6
CONTINUOUS
 10
-13.2618419779
 20
25.0824879667
 40
0.0201085158
100
AcDbArc
 50
320.5893497058
 51
322.5112512673
  0
ARC
  5
381
100
AcDbEntity
  8
RACCORDO
100
AcDbCircle
 62
250
  6
CONTINUOUS
 10
0.1024761865
 20
18.4003288845
 40
0.0201085158
100
AcDbArc
 50
320.5893497073
 51
322.5112512675
  0
ARC
  5
382
100
AcDbEntity
  8
RACCORDO
100
AcDbCircle
 62
250
  6
CONTINUOUS
 10
529.3242909087
 20
-3.4404236947
 40
541.2690045979
100
AcDbArc
 50
179.4999800997
 51
179.647353504
  0
ARC
  5
383
100
AcDbEntity
  8
RACCORDO
100
AcDbCircle
 62
250
  6
CONTINUOUS
 10
528.8864340936
 20
-4.4153899931
 40
538.8512022503
100
AcDbArc
 50
179.6646414711
 51
179.8211914622
  0
ARC
  5
384
100
AcDbEntity
  8
RACCORDO
100
AcDbCircle
 62
250
  6
CONTINUOUS
 10
525.7357233186
 20
-4.4057965223
 40
535.7004768791
100
AcDbArc
 50
179.8211658689
 51
180.1314721893
  0
ARC
  5
385
100
AcDbEntity
  8
RACCORDO
100
AcDbCircle
 62
250
  6
CONTINUOUS
 10
514.0641181927
 20
-0.7082829262
 40
531.4671474184
100
AcDbArc
 50
179.4910985637
 51
179.641180305
  0
ARC
  5
386
100
AcDbEntity
  8
RACCORDO
100
AcDbCircle
 62
250
  6
CONTINUOUS
 10
521.0631625227
 20
-4.4148234817
 40
531.0279076736
100
AcDbArc
 50
180.1316550534
 51
180.4853246691
  0
ARC
  5
387
100
AcDbEntity
  8
RACCORDO
100
AcDbCircle
 62
250
  6
CONTINUOUS
 10
513.4202626447
 20
-0.7042273513
 40
530.1192647616
100
AcDbArc
 50
179.5507558405
 51
179.6881600728
  0
ARC
  5
388
100
AcDbEntity
  8
RACCORDO
100
AcDbCircle
 62
250
  6
CONTINUOUS
 10
504.5035609194
 20
0.3080052131
 40
523.886473267
100
AcDbArc
 50
179.6388687201
 51
180.4934646715
  0
ARC
  5
389
100
AcDbEntity
  8
RACCORDO
100
AcDbCircle
 62
250
  6
CONTINUOUS
 10
504.710107325
 20
0.3047107518
 40
523.3890012623
100
AcDbArc
 50
179.6993929009
 51
180.4460427387
  0
SPLINE
  5
38A
100
AcDbEntity
  8
ASSI
100
AcDbSpline
 62
7
  6
CONTINUOUS
 70
0
 71
3
 72
11
 73
7
 74
0
 42
0.0000001
 43
0.0000001
 44
0.0000000001
 40
0.0
 40
0.0
 40
0.0
 40
0.0
 40
0.2079918771
 40
0.4364622675
 40
0.6988121558
 40
1.0
 40
1.0
 40
1.0
 40
1.0
 10
7.6531790801
 20
16.0978275057
 30
0.0
 10
7.6531786085
 20
16.0414186934
 30
0.0
 10
7.6773005931
 20
15.9221639086
 30
0.0
 10
7.7784778553
 20
15.7585012352
 30
0.0
 10
7.936799898
 20
15.6106426532
 30
0.0
 10
8.067651626
 20
15.5299834308
 30
0.0
 10
8.1400773424
 20
15.4922101208
 30
0.0
  0
SPLINE
  5
38B
100
AcDbEntity
  8
ASSI
100
AcDbSpline
 62
7
  6
CONTINUOUS
 70
0
 71
3
 72
11
 73
7
 74
0
 42
0.0000001
 43
0.0000001
 44
0.0000000001
 40
0.0
 40
0.0
 40
0.0
 40
0.0
 40
0.297188923
 40
0.5579404564
 40
0.7880350653
 40
1.0
 40
1.0
 40
1.0
 40
1.0
 10
13.8005363637
 20
12.6654936992
 30
0.0
 10
13.7374875285
 20
12.7023828969
 30
0.0
 10
13.6237175354
 20
12.7803458284
 30
0.0
 10
13.4873494024
 20
12.920145922
 30
0.0
 10
13.4010474935
 20
13.0725435572
 30
0.0
 10
13.3807435721
 20
13.1819450047
 30
0.0
 10
13.3807440077
 20
13.2340450419
 30
0.0
  0
SPLINE
  5
38C
100
AcDbEntity
  8
ASSI
100
AcDbSpline
 62
7
  6
CONTINUOUS
 70
0
 71
3
 72
9
 73
5
 74
0
 42
0.0000001
 43
0.0000001
 44
0.0000000001
 40
0.0
 40
0.0
 40
0.0
 40
0.0
 40
0.4364922142
 40
1.0
 40
1.0
 40
1.0
 40
1.0
 10
10.3076497792
 20
12.2720717981
 30
0.0
 10
10.2757292042
 20
12.2291100349
 30
0.0
 10
10.1699747092
 20
12.1570492906
 30
0.0
 10
10.0515475401
 20
12.122672163
 30
0.0
 10
9.9836127443
 20
12.1100532807
 30
0.0
  0
SPLINE
  5
38D
100
AcDbEntity
  8
ASSI
100
AcDbSpline
 62
7
  6
CONTINUOUS
 70
0
 71
3
 72
9
 73
5
 74
0
 42
0.0000001
 43
0.0000001
 44
0.0000000001
 40
0.0
 40
0.0
 40
0.0
 40
0.0
 40
0.4364922142
 40
1.0
 40
1.0
 40
1.0
 40
1.0
 10
13.8431836851
 20
14.0398387511
 30
0.0
 10
13.8112631101
 20
13.9968769878
 30
0.0
 10
13.7055086152
 20
13.9248162435
 30
0.0
 10
13.5870814461
 20
13.890439116
 30
0.0
 10
13.5191466502
 20
13.8778202336
 30
0.0
  0
SPLINE
  5
38E
100
AcDbEntity
  8
0
100
AcDbSpline
 62
7
  6
CONTINUOUS
 70
0
 71
3
 72
11
 73
7
 74
0
 42
0.0000001
 43
0.0000001
 44
0.0000000001
 40
0.0
 40
0.0
 40
0.0
 40
0.0
 40
0.2901366329
 40
0.5486805037
 40
0.7816448525
 40
1.0
 40
1.0
 40
1.0
 40
1.0
 10
10.1699033635
 20
10.958587778
 30
0.0
 10
10.1204221059
 20
10.9933095189
 30
0.0
 10
10.0313052559
 20
11.0659056571
 30
0.0
 10
9.9260662883
 20
11.1917989532
 30
0.0
 10
9.8603928393
 20
11.3262160098
 30
0.0
 10
9.8452085497
 20
11.4207850406
 30
0.0
 10
9.8452167515
 20
11.4662780624
 30
0.0
  0
SPLINE
  5
38F
100
AcDbEntity
  8
ASSI
100
AcDbSpline
 62
7
  6
CONTINUOUS
 70
0
 71
3
 72
10
 73
6
 74
0
 42
0.0000001
 43
0.0000001
 44
0.0000000001
 40
0.0
 40
0.0
 40
0.0
 40
0.0
 40
0.5124041748
 40
0.7636834541
 40
1.0
 40
1.0
 40
1.0
 40
1.0
 10
7.5824656466
 20
10.5403473815
 30
0.0
 10
7.8306251654
 20
10.5755030588
 30
0.0
 10
8.2080166147
 20
10.5861035867
 30
0.0
 10
8.6934294273
 20
10.5213278781
 30
0.0
 10
8.925278209
 20
10.461842475
 30
0.0
 10
9.0348600026
 20
10.4250551617
 30
0.0
  0
SPLINE
  5
390
100
AcDbEntity
  8
0
100
AcDbSpline
 62
7
  6
CONTINUOUS
 70
0
 71
3
 72
11
 73
7
 74
0
 42
0.0000001
 43
0.0000001
 44
0.0000000001
 40
0.0
 40
0.0
 40
0.0
 40
0.0
 40
0.2187748786
 40
0.4519134386
 40
0.7104667861
 40
1.0
 40
1.0
 40
1.0
 40
1.0
 10
9.8452167515
 20
11.4662780624
 30
0.0
 10
9.8452248738
 20
11.5113299783
 30
0.0
 10
9.8600607872
 20
11.6049194629
 30
0.0
 10
9.9244850766
 20
11.7381373542
 30
0.0
 10
10.0277963636
 20
11.8630309701
 30
0.0
 10
10.1153491237
 20
11.9352329153
 30
0.0
 10
10.1639495948
 20
11.9697713385
 30
0.0
  0
SPLINE
  5
391
100
AcDbEntity
  8
ASSI
100
AcDbSpline
 62
7
  6
CONTINUOUS
 70
0
 71
3
 72
17
 73
13
 74
0
 42
0.0000001
 43
0.0000001
 44
0.0000000001
 40
0.0
 40
0.0
 40
0.0
 40
0.0
 40
0.0382847251
 40
0.0788753597
 40
0.1235494863
 40
0.1733543792
 40
0.2891864929
 40
0.4244541801
 40
0.5723242094
 40
0.7237693841
 40
0.8691919008
 40
1.0
 40
1.0
 40
1.0
 40
1.0
 10
13.3807440077
 20
13.2340450419
 30
0.0
 10
13.3807443667
 20
13.2769939579
 30
0.0
 10
13.3941734889
 20
13.3659464478
 30
0.0
 10
13.4526482457
 20
13.4932221411
 30
0.0
 10
13.5468009792
 20
13.6133875006
 30
0.0
 10
13.7253678484
 20
13.7692251695
 30
0.0
 10
14.0275326791
 20
13.928627193
 30
0.0
 10
14.4588961626
 20
14.054973886
 30
0.0
 10
14.9444952624
 20
14.1161953924
 30
0.0
 10
15.4450723237
 20
14.1070134363
 30
0.0
 10
15.9200350127
 20
14.0284374485
 30
0.0
 10
16.2153326495
 20
13.9268372167
 30
0.0
 10
16.347442606
 20
13.8629556404
 30
0.0
  0
SPLINE
  5
392
100
AcDbEntity
  8
ASSI
100
AcDbSpline
 62
7
  6
CONTINUOUS
 70
0
 71
3
 72
17
 73
13
 74
0
 42
0.0000001
 43
0.0000001
 44
0.0000000001
 40
0.0
 40
0.0
 40
0.0
 40
0.0
 40
0.1298433673
 40
0.2747992039
 40
0.4262231451
 40
0.5743885173
 40
0.710096984
 40
0.8263397351
 40
0.8762932715
 40
0.9210637598
 40
0.9617006929
 40
1.0
 40
1.0
 40
1.0
 40
1.0
 10
10.6406060086
 20
16.716545939
 30
0.0
 10
10.5094319609
 20
16.7821329628
 30
0.0
 10
10.2145575238
 20
16.8868146846
 30
0.0
 10
9.7385097073
 20
16.9690067649
 30
0.0
 10
9.2347594395
 20
16.9810399887
 30
0.0
 10
8.7447363958
 20
16.9216473447
 30
0.0
 10
8.3086080794
 20
16.7960243921
 30
0.0
 10
8.0026462748
 20
16.6363674401
 30
0.0
 10
7.82162165
 20
16.479751716
 30
0.0
 10
7.7261454746
 20
16.3588701731
 30
0.0
 10
7.6668149026
 20
16.2307206255
 30
0.0
 10
7.6531794417
 20
16.1410862664
 30
0.0
 10
7.6531790801
 20
16.0978275057
 30
0.0
  0
SPLINE
  5
393
100
AcDbEntity
  8
ASSI
100
AcDbSpline
 62
7
  6
CONTINUOUS
 70
0
 71
3
 72
13
 73
9
 74
0
 42
0.0000001
 43
0.0000001
 44
0.0000000001
 40
0.0
 40
0.0
 40
0.0
 40
0.0
 40
0.2984863019
 40
0.5727613315
 40
0.6948572039
 40
0.8055080318
 40
0.9060445507
 40
1.0
 40
1.0
 40
1.0
 40
1.0
 10
10.7869958691
 20
2.7128482965
 30
0.0
 10
10.6914778171
 20
2.5068642962
 30
0.0
 10
10.4611081189
 20
2.131844343
 30
0.0
 10
10.0761927653
 20
1.757837707
 30
0.0
 10
9.7391982548
 20
1.5660986481
 30
0.0
 10
9.4961409882
 20
1.4868056552
 30
0.0
 10
9.261824144
 20
1.4707801602
 30
0.0
 10
9.1150193406
 20
1.505445157
 30
0.0
 10
9.0491104162
 20
1.5330857609
 30
0.0
  0
SPLINE
  5
394
100
AcDbEntity
  8
ASSI
100
AcDbSpline
 62
7
  6
CONTINUOUS
 70
0
 71
3
 72
14
 73
10
 74
0
 42
0.0000001
 43
0.0000001
 44
0.0000000001
 40
0.0
 40
0.0
 40
0.0
 40
0.0
 40
0.2970136263
 40
0.4394275122
 40
0.5731025245
 40
0.6957649418
 40
0.8065923596
 40
0.9067873044
 40
1.0
 40
1.0
 40
1.0
 40
1.0
 10
14.3685982109
 20
4.5854363463
 30
0.0
 10
14.2774876845
 20
4.3662353444
 30
0.0
 10
14.1014856392
 20
4.0564920345
 30
0.0
 10
13.8010242653
 20
3.7093873344
 30
0.0
 10
13.5587415052
 20
3.5002700293
 30
0.0
 10
13.3061922987
 20
3.3476532455
 30
0.0
 10
13.0525194853
 20
3.2581243814
 30
0.0
 10
12.8072268052
 20
3.2368833882
 30
0.0
 10
12.6533457379
 20
3.2720410068
 30
0.0
 10
12.5846443222
 20
3.3008527138
 30
0.0
  0
SPLINE
  5
395
100
AcDbEntity
  8
ASSI
100
AcDbSpline
 62
7
  6
CONTINUOUS
 70
0
 71
3
 72
14
 73
10
 74
0
 42
0.0000001
 43
0.0000001
 44
0.0000000001
 40
0.0
 40
0.0
 40
0.0
 40
0.0
 40
0.2954861376
 40
0.438354783
 40
0.5727904832
 40
0.696151484
 40
0.8073186683
 40
0.9073500995
 40
1.0
 40
1.0
 40
1.0
 40
1.0
 10
17.9441399001
 20
6.4549903178
 30
0.0
 10
17.8583341
 20
6.2235004599
 30
0.0
 10
17.6851365523
 20
5.894432423
 30
0.0
 10
17.3817589598
 20
5.5228923413
 30
0.0
 10
17.1332105371
 20
5.2964659088
 30
0.0
 10
16.8719636282
 20
5.1295378097
 30
0.0
 10
16.6081773352
 20
5.0297459607
 30
0.0
 10
16.3523259069
 20
5.0031353922
 30
0.0
 10
16.1915644852
 20
5.0386820025
 30
0.0
 10
16.1201782281
 20
5.0686196668
 30
0.0
  0
SPLINE
  5
396
100
AcDbEntity
  8
0
100
AcDbSpline
 62
7
  6
CONTINUOUS
 70
0
 71
3
 72
11
 73
7
 74
0
 42
0.0000001
 43
0.0000001
 44
0.0000000001
 40
0.0
 40
0.0
 40
0.0
 40
0.0
 40
0.2431196039
 40
0.5040519748
 40
0.7628765174
 40
1.0
 40
1.0
 40
1.0
 40
1.0
 10
10.5882136635
 20
12.1819033729
 30
0.0
 10
10.7522759126
 20
12.2396180993
 30
0.0
 10
11.1060317822
 20
12.3215873424
 30
0.0
 10
11.6528376369
 20
12.3553861926
 30
0.0
 10
12.1939561429
 20
12.3039713689
 30
0.0
 10
12.5389631179
 20
12.2100301553
 30
0.0
 10
12.6962036562
 20
12.146396644
 30
0.0
  0
SPLINE
  5
397
100
AcDbEntity
  8
RACCORDO
100
AcDbSpline
 62
7
  6
CONTINUOUS
 70
0
 71
3
 72
9
 73
5
 74
0
 42
0.0000001
 43
0.0000001
 44
0.0000000001
 40
0.0
 40
0.0
 40
0.0
 40
0.0
 40
0.5040680806
 40
1.0
 40
1.0
 40
1.0
 40
1.0
 10
-12.0799801511
 20
-0.2450363227
 30
0.0
 10
-12.0808032728
 20
-0.2446247738
 30
0.0
 10
-12.0823281508
 20
-0.2433969081
 30
0.0
 10
-12.0827220978
 20
-0.2414844936
 30
0.0
 10
-12.0827170122
 20
-0.2405790894
 30
0.0
  0
SPLINE
  5
398
100
AcDbEntity
  8
RACCORDO
100
AcDbSpline
 62
7
  6
CONTINUOUS
 70
0
 71
3
 72
9
 73
5
 74
0
 42
0.0000001
 43
0.0000001
 44
0.0000000001
 40
0.0
 40
0.0
 40
0.0
 40
0.0
 40
0.5041457173
 40
1.0
 40
1.0
 40
1.0
 40
1.0
 10
-12.8127938316
 20
1.5173395831
 30
0.0
 10
-12.8136459813
 20
1.5177656398
 30
0.0
 10
-12.8152246728
 20
1.5190375469
 30
0.0
 10
-12.8156277959
 20
1.5210187401
 30
0.0
 10
-12.8156201226
 20
1.521955764
 30
0.0
  0
SPLINE
  5
399
100
AcDbEntity
  8
ASSI
100
AcDbSpline
 62
7
  6
CONTINUOUS
 70
0
 71
3
 72
9
 73
5
 74
0
 42
0.0000001
 43
0.0000001
 44
0.0000000001
 40
0.0
 40
0.0
 40
0.0
 40
0.0
 40
0.2435111882
 40
1.0
 40
1.0
 40
1.0
 40
1.0
 10
-0.1271948334
 20
23.3154866482
 30
0.0
 10
-0.1312754617
 20
23.3141738962
 30
0.0
 10
-0.1479252325
 20
23.3084509169
 30
0.0
 10
-0.1641262296
 20
23.301445289
 30
0.0
 10
-0.176070865
 20
23.2955580811
 30
0.0
  0
SPLINE
  5
39A
100
AcDbEntity
  8
ASSI
100
AcDbSpline
 62
7
  6
CONTINUOUS
 70
0
 71
3
 72
9
 73
5
 74
0
 42
0.0000001
 43
0.0000001
 44
0.0000000001
 40
0.0
 40
0.0
 40
0.0
 40
0.0
 40
0.4885347274
 40
1.0
 40
1.0
 40
1.0
 40
1.0
 10
-4.9515926417
 20
25.7999285851
 30
0.0
 10
-4.9515929902
 20
25.8020918242
 30
0.0
 10
-4.9526153931
 20
25.8067165622
 30
0.0
 10
-4.9563418488
 20
25.8096482539
 30
0.0
 10
-4.9583675381
 20
25.8106610681
 30
0.0
  0
SPLINE
  5
39B
100
AcDbEntity
  8
ASSI
100
AcDbSpline
 62
7
  6
CONTINUOUS
 70
0
 71
3
 72
9
 73
5
 74
0
 42
0.0000001
 43
0.0000001
 44
0.0000000001
 40
0.0
 40
0.0
 40
0.0
 40
0.0
 40
0.4885349848
 40
1.0
 40
1.0
 40
1.0
 40
1.0
 10
0.6033957488
 20
23.0224343564
 30
0.0
 10
0.6033954295
 20
23.0245975959
 30
0.0
 10
0.6023730578
 20
23.0292223601
 30
0.0
 10
0.5986465812
 20
23.0321540159
 30
0.0
 10
0.5966209038
 20
23.0331668495
 30
0.0
  0
SPLINE
  5
39C
100
AcDbEntity
  8
RACCORDO
100
AcDbSpline
 62
7
  6
CONTINUOUS
 70
0
 71
3
 72
11
 73
7
 74
0
 42
0.0000001
 43
0.0000001
 44
0.0000000001
 40
0.0
 40
0.0
 40
0.0
 40
0.0
 40
0.2321025149
 40
0.4756402562
 40
0.7321777237
 40
1.0
 40
1.0
 40
1.0
 40
1.0
 10
-15.9392995087
 20
3.1999386612
 30
0.0
 10
-15.9606726397
 20
3.1899315547
 30
0.0
 10
-16.0080754424
 20
3.1765623101
 30
0.0
 10
-16.0832550924
 20
3.1771045965
 30
0.0
 10
-16.1597971285
 20
3.1947904994
 30
0.0
 10
-16.2091654492
 20
3.2155254477
 30
0.0
 10
-16.2335223193
 20
3.227703827
 30
0.0
  0
SPLINE
  5
39D
100
AcDbEntity
  8
RACCORDO
100
AcDbSpline
 62
7
  6
CONTINUOUS
 70
0
 71
3
 72
11
 73
7
 74
0
 42
0.0000001
 43
0.0000001
 44
0.0000000001
 40
0.0
 40
0.0
 40
0.0
 40
0.0
 40
0.2321773674
 40
0.4757397583
 40
0.7322545354
 40
1.0
 40
1.0
 40
1.0
 40
1.0
 10
-16.6911506692
 20
2.1810031628
 30
0.0
 10
-16.7126348312
 20
2.1708605
 30
0.0
 10
-16.7603228882
 20
2.157280192
 30
0.0
 10
-16.8359963303
 20
2.1577236097
 30
0.0
 10
-16.9130326976
 20
2.1754734616
 30
0.0
 10
-16.9627108492
 20
2.1963290639
 30
0.0
 10
-16.9872160056
 20
2.2085816045
 30
0.0
  0
SPLINE
  5
39E
100
AcDbEntity
  8
ASSI
100
AcDbSpline
 62
7
  6
CONTINUOUS
 70
0
 71
3
 72
11
 73
7
 74
0
 42
0.0000001
 43
0.0000001
 44
0.0000000001
 40
0.0
 40
0.0
 40
0.0
 40
0.0
 40
0.2281468517
 40
0.4713238127
 40
0.7293599742
 40
1.0
 40
1.0
 40
1.0
 40
1.0
 10
-0.1271948334
 20
23.3154866482
 30
0.0
 10
-0.1102122195
 20
23.3209500129
 30
0.0
 10
-0.0733595983
 20
23.3270958166
 30
0.0
 10
-0.0160894174
 20
23.3229654538
 30
0.0
 10
0.0425345201
 20
23.3075075488
 30
0.0
 10
0.0806497708
 20
23.2911523584
 30
0.0
 10
0.0995781046
 20
23.2816882463
 30
0.0
  0
SPLINE
  5
39F
100
AcDbEntity
  8
ASSI
100
AcDbSpline
 62
7
  6
CONTINUOUS
 70
0
 71
3
 72
11
 73
7
 74
0
 42
0.0000001
 43
0.0000001
 44
0.0000000001
 40
0.0
 40
0.0
 40
0.0
 40
0.0
 40
0.2283526263
 40
0.4716265359
 40
0.7295858673
 40
1.0
 40
1.0
 40
1.0
 40
1.0
 10
-5.6804175766
 20
26.0935391375
 30
0.0
 10
-5.6634994171
 20
26.0987953776
 30
0.0
 10
-5.626878951
 20
26.1046027168
 30
0.0
 10
-5.5700699275
 20
26.100251108
 30
0.0
 10
-5.5119589959
 20
26.0847998244
 30
0.0
 10
-5.4741745719
 20
26.068564575
 30
0.0
 10
-5.4554103287
 20
26.0591824651
 30
0.0
  0
SPLINE
  5
3A0
100
AcDbEntity
  8
RACCORDO
100
AcDbSpline
 62
7
  6
CONTINUOUS
 70
0
 71
3
 72
12
 73
8
 74
0
 42
0.0000001
 43
0.0000001
 44
0.0000000001
 40
0.0
 40
0.0
 40
0.0
 40
0.0
 40
0.2894964165
 40
0.5491180093
 40
0.7821792914
 40
0.892164589
 40
1.0
 40
1.0
 40
1.0
 40
1.0
 10
-2.2994480872
 20
24.7137952788
 30
0.0
 10
-2.2994480872
 20
24.7746145571
 30
0.0
 10
-2.3092980153
 20
24.8904302041
 30
0.0
 10
-2.3586525533
 20
25.0487491047
 30
0.0
 10
-2.4292290707
 20
25.1565892877
 30
0.0
 10
-2.4999303926
 20
25.2202698903
 30
0.0
 10
-2.5390783145
 20
25.2445374106
 30
0.0
 10
-2.5593414896
 20
25.2546686439
 30
0.0
  0
SPLINE
  5
3A1
100
AcDbEntity
  8
RACCORDO
100
AcDbSpline
 62
7
  6
CONTINUOUS
 70
0
 71
3
 72
11
 73
7
 74
0
 42
0.0000001
 43
0.0000001
 44
0.0000000001
 40
0.0
 40
0.0
 40
0.0
 40
0.0
 40
0.278731993
 40
0.5346769311
 40
0.7724498151
 40
1.0
 40
1.0
 40
1.0
 40
1.0
 10
1.2422564112
 20
23.1079992691
 30
0.0
 10
1.2803912005
 20
23.126659072
 30
0.0
 10
1.3566194075
 20
23.1567446713
 30
0.0
 10
1.4732843127
 20
23.1777994657
 30
0.0
 10
1.5840887893
 20
23.1716898739
 30
0.0
 10
1.6522986
 20
23.1488480571
 30
0.0
 10
1.6832991975
 20
23.1333483003
 30
0.0
  0
SPLINE
  5
3A2
100
AcDbEntity
  8
RACCORDO
100
AcDbSpline
 62
7
  6
CONTINUOUS
 70
0
 71
3
 72
9
 73
5
 74
0
 42
0.0000001
 43
0.0000001
 44
0.0000000001
 40
0.0
 40
0.0
 40
0.0
 40
0.0
 40
0.227367905
 40
1.0
 40
1.0
 40
1.0
 40
1.0
 10
-11.5606878379
 20
23.1497666496
 30
0.0
 10
-11.5615251016
 20
23.1467496978
 30
0.0
 10
-11.5645786009
 20
23.1333062451
 30
0.0
 10
-11.5655100225
 20
23.1194509893
 30
0.0
 10
-11.5655098029
 20
23.1088114388
 30
0.0
  0
SPLINE
  5
3A3
100
AcDbEntity
  8
RACCORDO
100
AcDbSpline
 62
250
  6
CONTINUOUS
 70
0
 71
3
 72
11
 73
7
 74
0
 42
0.0000001
 43
0.0000001
 44
0.0000000001
 40
0.0
 40
0.0
 40
0.0
 40
0.0
 40
0.2274032722
 40
0.4651087915
 40
0.7211014187
 40
1.0
 40
1.0
 40
1.0
 40
1.0
 10
-1.3006729987
 20
19.7860711671
 30
0.0
 10
-1.3084565847
 20
19.7899633286
 30
0.0
 10
-1.3255922133
 20
19.7956891924
 30
0.0
 10
-1.3534295301
 20
19.7971764649
 30
0.0
 10
-1.3827352833
 20
19.791815581
 30
0.0
 10
-1.4018743254
 20
19.784200101
 30
0.0
 10
-1.4114478095
 20
19.7794815735
 30
0.0
  0
SPLINE
  5
3A4
100
AcDbEntity
  8
RACCORDO
100
AcDbSpline
 62
250
  6
CONTINUOUS
 70
0
 71
3
 72
10
 73
6
 74
0
 42
0.0000001
 43
0.0000001
 44
0.0000000001
 40
0.0
 40
0.0
 40
0.0
 40
0.0
 40
0.2280031354
 40
0.4663370619
 40
1.0
 40
1.0
 40
1.0
 40
1.0
 10
0.0366460606
 20
19.1174116391
 30
0.0
 10
0.0288626992
 20
19.1213028692
 30
0.0
 10
0.0117218431
 20
19.1270256542
 30
0.0
 10
-0.0267379142
 20
19.1290900513
 30
0.0
 10
-0.0558526044
 20
19.119822842
 30
0.0
 10
-0.0741216489
 20
19.1108184932
 30
0.0
  0
SPLINE
  5
3A5
100
AcDbEntity
  8
RACCORDO
100
AcDbSpline
 62
250
  6
CONTINUOUS
 70
0
 71
3
 72
11
 73
7
 74
0
 42
0.0000001
 43
0.0000001
 44
0.0000000001
 40
0.0
 40
0.0
 40
0.0
 40
0.0
 40
0.2069628811
 40
0.4350650037
 40
0.697806372
 40
1.0
 40
1.0
 40
1.0
 40
1.0
 10
0.1748499097
 20
18.5462700698
 30
0.0
 10
0.1748498179
 20
18.5380479737
 30
0.0
 10
0.1712506938
 20
18.5206320706
 30
0.0
 10
0.1562013173
 20
18.4968368119
 30
0.0
 10
0.1327243711
 20
18.4754250258
 30
0.0
 10
0.1133647873
 20
18.4638164935
 30
0.0
 10
0.1026520547
 20
18.4583974376
 30
0.0
  0
SPLINE
  5
3A6
100
AcDbEntity
  8
RACCORDO
100
AcDbSpline
 62
250
  6
CONTINUOUS
 70
0
 71
3
 72
11
 73
7
 74
0
 42
0.0000001
 43
0.0000001
 44
0.0000000001
 40
0.0
 40
0.0
 40
0.0
 40
0.0
 40
0.2069627866
 40
0.4350648202
 40
0.69780603
 40
1.0
 40
1.0
 40
1.0
 40
1.0
 10
0.1748499096
 20
18.8938015865
 30
0.0
 10
0.1748498151
 20
18.8855794941
 30
0.0
 10
0.1712506984
 20
18.8681635983
 30
0.0
 10
0.1562013309
 20
18.8443683495
 30
0.0
 10
0.132724391
 20
18.8229565517
 30
0.0
 10
0.1133647994
 20
18.8113480163
 30
0.0
 10
0.1026520547
 20
18.8059289544
 30
0.0
  0
SPLINE
  5
3A7
100
AcDbEntity
  8
RACCORDO
100
AcDbSpline
 62
7
  6
CONTINUOUS
 70
0
 71
3
 72
9
 73
5
 74
0
 42
0.0000001
 43
0.0000001
 44
0.0000000001
 40
0.0
 40
0.0
 40
0.0
 40
0.0
 40
0.2144712568
 40
1.0
 40
1.0
 40
1.0
 40
1.0
 10
-12.0827170122
 20
-0.2405790894
 30
0.0
 10
-12.0827148927
 20
-0.2402017544
 30
0.0
 10
-12.0825578298
 20
-0.2384427442
 30
0.0
 10
-12.0819345468
 20
-0.2367594921
 30
0.0
 10
-12.0813595531
 20
-0.2355027214
 30
0.0
  0
SPLINE
  5
3A8
100
AcDbEntity
  8
RACCORDO
100
AcDbSpline
 62
7
  6
CONTINUOUS
 70
0
 71
3
 72
13
 73
9
 74
0
 42
0.0000001
 43
0.0000001
 44
0.0000000001
 40
0.0
 40
0.0
 40
0.0
 40
0.0
 40
0.0552344474
 40
0.1329207488
 40
0.2318859786
 40
0.3506976555
 40
0.6426383436
 40
1.0
 40
1.0
 40
1.0
 40
1.0
 10
-12.0813595531
 20
-0.2355027214
 30
0.0
 10
-12.0798682801
 20
-0.232243228
 30
0.0
 10
-12.0748397277
 20
-0.2251183437
 30
0.0
 10
-12.0647799658
 20
-0.2139463986
 30
0.0
 10
-12.0509436319
 20
-0.2006394129
 30
0.0
 10
-12.0261006093
 20
-0.1787979691
 30
0.0
 10
-11.9870928771
 20
-0.1477209907
 30
0.0
 10
-11.9532488056
 20
-0.1226155741
 30
0.0
 10
-11.9344615224
 20
-0.1090192817
 30
0.0
  0
SPLINE
  5
3A9
100
AcDbEntity
  8
RACCORDO
100
AcDbSpline
 62
7
  6
CONTINUOUS
 70
0
 71
3
 72
14
 73
10
 74
0
 42
0.0000001
 43
0.0000001
 44
0.0000000001
 40
0.0
 40
0.0
 40
0.0
 40
0.0
 40
0.0427153527
 40
0.1112790435
 40
0.2053482736
 40
0.3231849483
 40
0.4630215903
 40
0.6232930087
 40
1.0
 40
1.0
 40
1.0
 40
1.0
 10
-12.0731580023
 20
1.1507247038
 30
0.0
 10
-12.073134553
 20
1.1535881907
 30
0.0
 10
-12.0695607207
 20
1.1606270992
 30
0.0
 10
-12.0611181075
 20
1.1712846649
 30
0.0
 10
-12.0479100623
 20
1.184816797
 30
0.0
 10
-12.030481662
 20
1.2006624669
 30
0.0
 10
-12.0090236011
 20
1.2187045025
 30
0.0
 10
-11.9734902125
 20
1.2469174839
 30
0.0
 10
-11.9445676233
 20
1.2683712603
 30
0.0
 10
-11.9241021795
 20
1.2831674757
 30
0.0
  0
SPLINE
  5
3AA
100
AcDbEntity
  8
RACCORDO
100
AcDbSpline
 62
250
  6
CONTINUOUS
 70
0
 71
3
 72
11
 73
7
 74
0
 42
0.0000001
 43
0.0000001
 44
0.0000000001
 40
0.0
 40
0.0
 40
0.0
 40
0.0
 40
0.2116061814
 40
0.4417969027
 40
0.7029588107
 40
1.0
 40
1.0
 40
1.0
 40
1.0
 10
-21.9336011655
 20
-15.8262536373
 30
0.0
 10
-21.9330310674
 20
-15.8432302012
 30
0.0
 10
-21.9249694976
 20
-15.8787006292
 30
0.0
 10
-21.8942683481
 20
-15.9270291317
 30
0.0
 10
-21.8471540368
 20
-15.9700986253
 30
0.0
 10
-21.8084575133
 20
-15.9932226852
 30
0.0
 10
-21.7871378514
 20
-16.003900614
 30
0.0
  0
SPLINE
  5
3AB
100
AcDbEntity
  8
RACCORDO
100
AcDbSpline
 62
250
  6
CONTINUOUS
 70
0
 71
3
 72
11
 73
7
 74
0
 42
0.0000001
 43
0.0000001
 44
0.0000000001
 40
0.0
 40
0.0
 40
0.0
 40
0.0
 40
0.2010443609
 40
0.4266192261
 40
0.6914788086
 40
1.0
 40
1.0
 40
1.0
 40
1.0
 10
-21.9336201955
 20
19.7863730966
 30
0.0
 10
-21.934139513
 20
19.7703157543
 30
0.0
 10
-21.9274653138
 20
19.7357196177
 30
0.0
 10
-21.8969866068
 20
19.6885213053
 30
0.0
 10
-21.8489029168
 20
19.645715497
 30
0.0
 10
-21.8091973842
 20
19.6223489966
 30
0.0
 10
-21.7871378463
 20
19.6113392559
 30
0.0
  0
SPLINE
  5
3AC
100
AcDbEntity
  8
RACCORDO
100
AcDbSpline
 62
250
  6
CONTINUOUS
 70
0
 71
3
 72
11
 73
7
 74
0
 42
0.0000001
 43
0.0000001
 44
0.0000000001
 40
0.0
 40
0.0
 40
0.0
 40
0.0
 40
0.22332679
 40
0.4590934666
 40
0.7164208885
 40
1.0
 40
1.0
 40
1.0
 40
1.0
 10
-21.02813179
 20
21.3717844249
 30
0.0
 10
-21.0125218045
 20
21.3808898918
 30
0.0
 10
-20.9773035021
 20
21.3946642624
 30
0.0
 10
-20.9188477057
 20
21.3994043708
 30
0.0
 10
-20.8563513464
 20
21.3889497746
 30
0.0
 10
-20.815255546
 20
21.3730810461
 30
0.0
 10
-20.7945718414
 20
21.3631434093
 30
0.0
  0
SPLINE
  5
3AD
100
AcDbEntity
  8
RACCORDO
100
AcDbSpline
 62
250
  6
CONTINUOUS
 70
0
 71
3
 72
15
 73
11
 74
0
 42
0.0000001
 43
0.0000001
 44
0.0000000001
 40
0.0
 40
0.0
 40
0.0
 40
0.0
 40
0.1253336166
 40
0.2502991522
 40
0.3750344869
 40
0.4996865888
 40
0.6243789765
 40
0.7492680951
 40
0.8744907157
 40
1.0
 40
1.0
 40
1.0
 40
1.0
 10
-20.7945718414
 20
21.3631434095
 30
0.0
 10
-20.6119619009
 20
21.4697663333
 30
0.0
 10
-20.2476565252
 20
21.6833490283
 30
0.0
 10
-19.7034043465
 20
22.0060863252
 30
0.0
 10
-19.1609892812
 20
22.3296599636
 30
0.0
 10
-18.619267408
 20
22.6534953031
 30
0.0
 10
-18.0772035891
 20
22.9772642899
 30
0.0
 10
-17.5335630843
 20
23.3002698687
 30
0.0
 10
-16.9873212088
 20
23.6215851037
 30
0.0
 10
-16.6218808599
 20
23.8346704815
 30
0.0
 10
-16.438919025
 20
23.9412783507
 30
0.0
  0
SPLINE
  5
3AE
100
AcDbEntity
  8
RACCORDO
100
AcDbSpline
 62
250
  6
CONTINUOUS
 70
0
 71
3
 72
9
 73
5
 74
0
 42
0.0000001
 43
0.0000001
 44
0.0000000001
 40
0.0
 40
0.0
 40
0.0
 40
0.0
 40
0.4957288691
 40
1.0
 40
1.0
 40
1.0
 40
1.0
 10
-21.7871378514
 20
-16.003900614
 30
0.0
 10
-21.98476628
 20
-10.121250374
 30
0.0
 10
-22.1789406066
 20
1.7530619586
 30
0.0
 10
-21.9814206247
 20
13.6270978313
 30
0.0
 10
-21.7871378514
 20
19.6113392536
 30
0.0
  0
SPLINE
  5
3AF
100
AcDbEntity
  8
ASSI
100
AcDbSpline
 62
7
  6
CONTINUOUS
 70
0
 71
3
 72
9
 73
5
 74
0
 42
0.0000001
 43
0.0000001
 44
0.0000000001
 40
0.0
 40
0.0
 40
0.0
 40
0.0
 40
0.2435111882
 40
1.0
 40
1.0
 40
1.0
 40
1.0
 10
-5.0769423017
 20
25.7903603823
 30
0.0
 10
-5.08102293
 20
25.7890476303
 30
0.0
 10
-5.0976727008
 20
25.783324651
 30
0.0
 10
-5.1138736979
 20
25.7763190231
 30
0.0
 10
-5.1258183333
 20
25.7704318152
 30
0.0
  0
SPLINE
  5
3B0
100
AcDbEntity
  8
RACCORDO
100
AcDbSpline
 62
250
  6
CONTINUOUS
 70
0
 71
3
 72
12
 73
8
 74
0
 42
0.0000001
 43
0.0000001
 44
0.0000000001
 40
0.0
 40
0.0
 40
0.0
 40
0.0
 40
0.1080285363
 40
0.2185514529
 40
0.4527253813
 40
0.712184309
 40
1.0
 40
1.0
 40
1.0
 40
1.0
 10
-21.4252125675
 20
-16.748070123
 30
0.0
 10
-21.4523368691
 20
-16.7329010203
 30
0.0
 10
-21.5046964228
 20
-16.6974622073
 30
0.0
 10
-21.5995147118
 20
-16.6074582205
 30
0.0
 10
-21.6954137769
 20
-16.4593467779
 30
0.0
 10
-21.7663010468
 20
-16.2441221476
 30
0.0
 10
-21.7843416472
 20
-16.0866525944
 30
0.0
 10
-21.7871378514
 20
-16.003900614
 30
0.0
  0
SPLINE
  5
3B1
100
AcDbEntity
  8
RACCORDO
100
AcDbSpline
 62
250
  6
CONTINUOUS
 70
0
 71
3
 72
9
 73
5
 74
0
 42
0.0000001
 43
0.0000001
 44
0.0000000001
 40
0.0
 40
0.0
 40
0.0
 40
0.0
 40
0.2500913346
 40
1.0
 40
1.0
 40
1.0
 40
1.0
 10
-12.6564351662
 20
2.6997137313
 30
0.0
 10
-12.6573634172
 20
2.6125731525
 30
0.0
 10
-12.6609912971
 20
2.2641372467
 30
0.0
 10
-12.664283993
 20
1.9156978507
 30
0.0
 10
-12.6665643005
 20
1.6543985362
 30
0.0
  0
SPLINE
  5
3B2
100
AcDbEntity
  8
RACCORDO
100
AcDbSpline
 62
250
  6
CONTINUOUS
 70
0
 71
3
 72
9
 73
5
 74
0
 42
0.0000001
 43
0.0000001
 44
0.0000000001
 40
0.0
 40
0.0
 40
0.0
 40
0.0
 40
0.2499101782
 40
1.0
 40
1.0
 40
1.0
 40
1.0
 10
-16.6396035157
 20
3.6409181438
 30
0.0
 10
-16.6388302333
 20
3.7279898326
 30
0.0
 10
-16.6356505606
 20
4.0764010035
 30
0.0
 10
-16.6321292725
 20
4.4248090565
 30
0.0
 10
-16.6292962092
 20
4.6861442528
 30
0.0
  0
SPLINE
  5
3B3
100
AcDbEntity
  8
RACCORDO
100
AcDbSpline
 62
7
  6
CONTINUOUS
 70
0
 71
3
 72
12
 73
8
 74
0
 42
0.0000001
 43
0.0000001
 44
0.0000000001
 40
0.0
 40
0.0
 40
0.0
 40
0.0
 40
0.1276230419
 40
0.269236014
 40
0.5504671925
 40
0.7982076802
 40
1.0
 40
1.0
 40
1.0
 40
1.0
 10
-18.6630341464
 20
-3.769786711
 30
0.0
 10
-18.6942359386
 20
-3.7858244741
 30
0.0
 10
-18.7593706419
 20
-3.8209983424
 30
0.0
 10
-18.8907416304
 20
-3.8961034157
 30
0.0
 10
-19.0482602617
 20
-3.9919264312
 30
0.0
 10
-19.2169044382
 20
-4.1010978048
 30
0.0
 10
-19.318632185
 20
-4.1713138005
 30
0.0
 10
-19.3634824121
 20
-4.2039548758
 30
0.0
  0
SPLINE
  5
3B4
100
AcDbEntity
  8
0
100
AcDbSpline
 62
7
  6
CONTINUOUS
 70
0
 71
3
 72
15
 73
11
 74
0
 42
0.0000001
 43
0.0000001
 44
0.0000000001
 40
0.0
 40
0.0
 40
0.0
 40
0.0
 40
0.1125283523
 40
0.2354661028
 40
0.3658134951
 40
0.4999999817
 40
0.6341864682
 40
0.7645338681
 40
0.8874716303
 40
1.0
 40
1.0
 40
1.0
 40
1.0
 10
-4.7036111432
 20
23.4935778502
 30
0.0
 10
-4.7524469712
 20
23.5179957642
 30
0.0
 10
-4.8588731386
 20
23.5607804828
 30
0.0
 10
-5.0308899547
 20
23.6059639286
 30
0.0
 10
-5.2171755185
 20
23.6337927463
 30
0.0
 10
-5.4107178976
 20
23.64318511
 30
0.0
 10
-5.6042602806
 20
23.6337927508
 30
0.0
 10
-5.7905458545
 20
23.6059639375
 30
0.0
 10
-5.9625626888
 20
23.5607804905
 30
0.0
 10
-6.0689888701
 20
23.517995768
 30
0.0
 10
-6.1178247056
 20
23.4935778502
 30
0.0
  0
SPLINE
  5
3B5
100
AcDbEntity
  8
RACCORDO
100
AcDbSpline
 62
7
  6
CONTINUOUS
 70
0
 71
3
 72
12
 73
8
 74
0
 42
0.0000001
 43
0.0000001
 44
0.0000000001
 40
0.0
 40
0.0
 40
0.0
 40
0.0
 40
0.1015579814
 40
0.2135443565
 40
0.459095165
 40
0.7236864369
 40
1.0
 40
1.0
 40
1.0
 40
1.0
 10
-11.5655098029
 20
23.1088114388
 30
0.0
 10
-11.5655095381
 20
23.0959757483
 30
0.0
 10
-11.5632635279
 20
23.0689766252
 30
0.0
 10
-11.5518085634
 20
23.0120119936
 30
0.0
 10
-11.5254656725
 20
22.937504418
 30
0.0
 10
-11.4795682234
 20
22.8490738614
 30
0.0
 10
-11.4406190607
 20
22.7926290168
 30
0.0
 10
-11.4190626677
 20
22.7651533101
 30
0.0
  0
SPLINE
  5
3B6
100
AcDbEntity
  8
RACCORDO
100
AcDbSpline
 62
7
  6
CONTINUOUS
 70
0
 71
3
 72
9
 73
5
 74
0
 42
0.0000001
 43
0.0000001
 44
0.0000000001
 40
0.0
 40
0.0
 40
0.0
 40
0.0
 40
0.2144415112
 40
1.0
 40
1.0
 40
1.0
 40
1.0
 10
-12.8156201226
 20
1.521955764
 30
0.0
 10
-12.8156169244
 20
1.5223463043
 30
0.0
 10
-12.8154495412
 20
1.5241667287
 30
0.0
 10
-12.8147998688
 20
1.5259074532
 30
0.0
 10
-12.8142014631
 20
1.5272070022
 30
0.0
  0
SPLINE
  5
3B7
100
AcDbEntity
  8
RACCORDO
100
AcDbSpline
 62
7
  6
CONTINUOUS
 70
0
 71
3
 72
13
 73
9
 74
0
 42
0.0000001
 43
0.0000001
 44
0.0000000001
 40
0.0
 40
0.0
 40
0.0
 40
0.0
 40
0.0557102124
 40
0.1337204088
 40
0.2328648492
 40
0.3517211529
 40
0.6433790939
 40
1.0
 40
1.0
 40
1.0
 40
1.0
 10
-12.8142014631
 20
1.5272070022
 30
0.0
 10
-12.8126813017
 20
1.5305083145
 30
0.0
 10
-12.8076018562
 20
1.537715483
 30
0.0
 10
-12.7974523476
 20
1.5490017084
 30
0.0
 10
-12.783525272
 20
1.5624121704
 30
0.0
 10
-12.7585608715
 20
1.5843761103
 30
0.0
 10
-12.7193968997
 20
1.6155794098
 30
0.0
 10
-12.6854184854
 20
1.6407672364
 30
0.0
 10
-12.6665642998
 20
1.6543985359
 30
0.0
  0
SPLINE
  5
3B8
100
AcDbEntity
  8
RACCORDO
100
AcDbSpline
 62
7
  6
CONTINUOUS
 70
0
 71
3
 72
10
 73
6
 74
0
 42
0.0000001
 43
0.0000001
 44
0.0000000001
 40
0.0
 40
0.0
 40
0.0
 40
0.0
 40
0.2408980254
 40
0.4895805012
 40
1.0
 40
1.0
 40
1.0
 40
1.0
 10
-10.0946311623
 20
-8.4319646833
 30
0.0
 10
-10.0943085677
 20
-8.4727658972
 30
0.0
 10
-10.0856366465
 20
-8.5557199
 30
0.0
 10
-10.0437310659
 20
-8.7201684255
 30
0.0
 10
-9.9894819101
 20
-8.8383045865
 30
0.0
 10
-9.9456947449
 20
-8.9128487094
 30
0.0
  0
SPLINE
  5
3B9
100
AcDbEntity
  8
RACCORDO
100
AcDbSpline
 62
250
  6
CONTINUOUS
 70
0
 71
3
 72
9
 73
5
 74
0
 42
0.0000001
 43
0.0000001
 44
0.0000000001
 40
0.0
 40
0.0
 40
0.0
 40
0.0
 40
0.747566003
 40
1.0
 40
1.0
 40
1.0
 40
1.0
 10
0.0366470179
 20
-22.5297240427
 30
0.0
 10
0.031118311
 20
-22.5269603898
 30
0.0
 10
0.0233235992
 20
-22.5239930571
 30
0.0
 10
0.0152820431
 20
-22.5220631772
 30
0.0
 10
0.0132382594
 20
-22.5216398958
 30
0.0
  0
SPLINE
  5
3BA
100
AcDbEntity
  8
RACCORDO
100
AcDbSpline
 62
7
  6
CONTINUOUS
 70
0
 71
3
 72
14
 73
10
 74
0
 42
0.0000001
 43
0.0000001
 44
0.0000000001
 40
0.0
 40
0.0
 40
0.0
 40
0.0
 40
0.0429860378
 40
0.1117295973
 40
0.2058986815
 40
0.3237620495
 40
0.4635555321
 40
0.6237157915
 40
1.0
 40
1.0
 40
1.0
 40
1.0
 10
-12.8060927321
 20
2.5666088202
 30
0.0
 10
-12.8060634559
 20
2.5695035125
 30
0.0
 10
-12.8024789814
 20
2.5766062241
 30
0.0
 10
-12.7939858276
 20
2.5873560596
 30
0.0
 10
-12.7807176602
 20
2.6009758799
 30
0.0
 10
-12.7632137667
 20
2.616907619
 30
0.0
 10
-12.7416697532
 20
2.6350319082
 30
0.0
 10
-12.70600628
 20
2.663350845
 30
0.0
 10
-12.6769758969
 20
2.6848741439
 30
0.0
 10
-12.6564351625
 20
2.6997137294
 30
0.0
  0
SPLINE
  5
3BB
100
AcDbEntity
  8
RACCORDO
100
AcDbSpline
 62
7
  6
CONTINUOUS
 70
0
 71
3
 72
11
 73
7
 74
0
 42
0.0000001
 43
0.0000001
 44
0.0000000001
 40
0.0
 40
0.0
 40
0.0
 40
0.0
 40
0.2430320046
 40
0.4931980282
 40
0.7464581856
 40
1.0
 40
1.0
 40
1.0
 40
1.0
 10
-16.2227017625
 20
4.2716229341
 30
0.0
 10
-16.2653065157
 20
4.292925191
 30
0.0
 10
-16.3468746679
 20
4.346156027
 30
0.0
 10
-16.455072047
 20
4.445290471
 30
0.0
 10
-16.5504270316
 20
4.5594556666
 30
0.0
 10
-16.6046970444
 20
4.6429665414
 30
0.0
 10
-16.6292962109
 20
4.6861442536
 30
0.0
  0
SPLINE
  5
3BC
100
AcDbEntity
  8
RACCORDO
100
AcDbSpline
 62
250
  6
CONTINUOUS
 70
0
 71
3
 72
11
 73
7
 74
0
 42
0.0000001
 43
0.0000001
 44
0.0000000001
 40
0.0
 40
0.0
 40
0.0
 40
0.0
 40
0.2069627842
 40
0.4350648201
 40
0.6978060267
 40
1.0
 40
1.0
 40
1.0
 40
1.0
 10
0.1748499093
 20
-23.1008655863
 30
0.0
 10
0.1748498094
 20
-23.1090876786
 30
0.0
 10
0.1712506999
 20
-23.1265035741
 30
0.0
 10
0.1562013298
 20
-23.1502988231
 30
0.0
 10
0.1327243915
 20
-23.1717106215
 30
0.0
 10
0.1133647995
 20
-23.1833191565
 30
0.0
 10
0.1026520547
 20
-23.1887382185
 30
0.0
  0
SPLINE
  5
3BD
100
AcDbEntity
  8
ASSI
100
AcDbSpline
 62
7
  6
CONTINUOUS
 70
0
 71
3
 72
11
 73
7
 74
0
 42
0.0000001
 43
0.0000001
 44
0.0000000001
 40
0.0
 40
0.0
 40
0.0
 40
0.0
 40
0.1247988478
 40
0.3257841988
 40
0.6165323644
 40
1.0
 40
1.0
 40
1.0
 40
1.0
 10
0.5966209038
 20
23.0331668495
 30
0.0
 10
0.5921600971
 20
23.0353972416
 30
0.0
 10
0.5787064632
 20
23.0368075394
 30
0.0
 10
0.5543500047
 20
23.0338906021
 30
0.0
 10
0.5201696399
 20
23.0259053098
 30
0.0
 10
0.4943962489
 20
23.0181024054
 30
0.0
 10
0.4798015708
 20
23.0134295637
 30
0.0
  0
SPLINE
  5
3BE
100
AcDbEntity
  8
RACCORDO
100
AcDbSpline
 62
250
  6
CONTINUOUS
 70
0
 71
3
 72
11
 73
7
 74
0
 42
0.0000001
 43
0.0000001
 44
0.0000000001
 40
0.0
 40
0.0
 40
0.0
 40
0.0
 40
0.2069627866
 40
0.4350648202
 40
0.69780603
 40
1.0
 40
1.0
 40
1.0
 40
1.0
 10
0.1748499096
 20
-22.7533340696
 30
0.0
 10
0.1748498151
 20
-22.761556162
 30
0.0
 10
0.1712506984
 20
-22.7789720578
 30
0.0
 10
0.1562013309
 20
-22.8027673066
 30
0.0
 10
0.132724391
 20
-22.8241791044
 30
0.0
 10
0.1133647994
 20
-22.8357876398
 30
0.0
 10
0.1026520547
 20
-22.8412067018
 30
0.0
  0
SPLINE
  5
3BF
100
AcDbEntity
  8
RACCORDO
100
AcDbSpline
 62
250
  6
CONTINUOUS
 70
0
 71
3
 72
11
 73
7
 74
0
 42
0.0000001
 43
0.0000001
 44
0.0000000001
 40
0.0
 40
0.0
 40
0.0
 40
0.0
 40
0.2274030322
 40
0.4651083369
 40
0.721100729
 40
1.0
 40
1.0
 40
1.0
 40
1.0
 10
-13.3276650021
 20
25.79956717
 30
0.0
 10
-13.335448579
 20
25.8034593291
 30
0.0
 10
-13.3525841903
 20
25.8091851896
 30
0.0
 10
-13.3804214799
 20
25.81067247
 30
0.0
 10
-13.4097272448
 20
25.8053115982
 30
0.0
 10
-13.4288663055
 20
25.7976961146
 30
0.0
 10
-13.4384398134
 20
25.7929775754
 30
0.0
  0
SPLINE
  5
3C0
100
AcDbEntity
  8
RACCORDO
100
AcDbSpline
 62
7
  6
CONTINUOUS
 70
0
 71
3
 72
14
 73
10
 74
0
 42
0.0000001
 43
0.0000001
 44
0.0000000001
 40
0.0
 40
0.0
 40
0.0
 40
0.0
 40
0.0423531214
 40
0.1106765221
 40
0.2046124109
 40
0.3224134677
 40
0.4623078147
 40
0.6227278262
 40
1.0
 40
1.0
 40
1.0
 40
1.0
 10
-10.1028180249
 20
-1.2305285835
 30
0.0
 10
-10.1028021739
 20
-1.2277065318
 30
0.0
 10
-10.0992420252
 20
-1.2207525423
 30
0.0
 10
-10.0908666393
 20
-1.2102176996
 30
0.0
 10
-10.0777383366
 20
-1.196802303
 30
0.0
 10
-10.0604103561
 20
-1.1810713445
 30
0.0
 10
-10.0390666732
 20
-1.1631390508
 30
0.0
 10
-10.0037066329
 20
-1.1350676017
 30
0.0
 10
-9.9749276191
 20
-1.1137069168
 30
0.0
 10
-9.9545625351
 20
-1.0989687754
 30
0.0
  0
SPLINE
  5
3C1
100
AcDbEntity
  8
RACCORDO
100
AcDbSpline
 62
250
  6
CONTINUOUS
 70
0
 71
3
 72
11
 73
7
 74
0
 42
0.0000001
 43
0.0000001
 44
0.0000000001
 40
0.0
 40
0.0
 40
0.0
 40
0.0
 40
0.2069628811
 40
0.4350650037
 40
0.697806372
 40
1.0
 40
1.0
 40
1.0
 40
1.0
 10
-13.1894682547
 20
25.228429152
 30
0.0
 10
-13.1894683465
 20
25.2202070559
 30
0.0
 10
-13.1930674706
 20
25.2027911529
 30
0.0
 10
-13.2081168472
 20
25.1789958941
 30
0.0
 10
-13.2315937933
 20
25.157584108
 30
0.0
 10
-13.2509533772
 20
25.1459755757
 30
0.0
 10
-13.2616661097
 20
25.1405565198
 30
0.0
  0
SPLINE
  5
3C2
100
AcDbEntity
  8
RACCORDO
100
AcDbSpline
 62
250
  6
CONTINUOUS
 70
0
 71
3
 72
11
 73
7
 74
0
 42
0.0000001
 43
0.0000001
 44
0.0000000001
 40
0.0
 40
0.0
 40
0.0
 40
0.0
 40
0.2069627842
 40
0.4350648201
 40
0.6978060267
 40
1.0
 40
1.0
 40
1.0
 40
1.0
 10
-13.1894682551
 20
25.5759606688
 30
0.0
 10
-13.1894683551
 20
25.5677385765
 30
0.0
 10
-13.1930674645
 20
25.550322681
 30
0.0
 10
-13.2081168346
 20
25.526527432
 30
0.0
 10
-13.2315937729
 20
25.5051156336
 30
0.0
 10
-13.250953365
 20
25.4935070986
 30
0.0
 10
-13.2616661097
 20
25.4880880366
 30
0.0
  0
SPLINE
  5
3C3
100
AcDbEntity
  8
RACCORDO
100
AcDbSpline
 62
250
  6
CONTINUOUS
 70
0
 71
3
 72
11
 73
7
 74
0
 42
0.0000001
 43
0.0000001
 44
0.0000000001
 40
0.0
 40
0.0
 40
0.0
 40
0.0
 40
0.21754047
 40
0.4509586234
 40
0.7106393245
 40
1.0
 40
1.0
 40
1.0
 40
1.0
 10
0.0389693897
 20
-23.32329884
 30
0.0
 10
0.0490437544
 20
-23.3181293404
 30
0.0
 10
0.0680623278
 20
-23.3033965362
 30
0.0
 10
0.088368952
 20
-23.271812858
 30
0.0
 10
0.1004303853
 20
-23.232497531
 30
0.0
 10
0.1027233518
 20
-23.203799663
 30
0.0
 10
0.1026520547
 20
-23.1887382185
 30
0.0
  0
SPLINE
  5
3C4
100
AcDbEntity
  8
ASSI
100
AcDbSpline
 62
7
  6
CONTINUOUS
 70
0
 71
3
 72
11
 73
7
 74
0
 42
0.0000001
 43
0.0000001
 44
0.0000000001
 40
0.0
 40
0.0
 40
0.0
 40
0.0
 40
0.1243061505
 40
0.3251626507
 40
0.6161494311
 40
1.0
 40
1.0
 40
1.0
 40
1.0
 10
-4.9583675381
 20
25.8106610681
 30
0.0
 10
-4.962878974
 20
25.8129167181
 30
0.0
 10
-4.9765233264
 20
25.8143060699
 30
0.0
 10
-5.0012258614
 20
25.811285374
 30
0.0
 10
-5.0359355953
 20
25.8031014718
 30
0.0
 10
-5.0621153476
 20
25.795130264
 30
0.0
 10
-5.0769423017
 20
25.7903603823
 30
0.0
  0
SPLINE
  5
3C5
100
AcDbEntity
  8
RACCORDO
100
AcDbSpline
 62
7
  6
CONTINUOUS
 70
0
 71
3
 72
11
 73
7
 74
0
 42
0.0000001
 43
0.0000001
 44
0.0000000001
 40
0.0
 40
0.0
 40
0.0
 40
0.0
 40
0.2171864146
 40
0.4511858794
 40
0.7111959599
 40
1.0
 40
1.0
 40
1.0
 40
1.0
 10
-0.4866263272
 20
-23.5928659462
 30
0.0
 10
-0.4769670862
 20
-23.5874447705
 30
0.0
 10
-0.4588392149
 20
-23.5724225251
 30
0.0
 10
-0.4395110642
 20
-23.541144539
 30
0.0
 10
-0.4279235377
 20
-23.5025661188
 30
0.0
 10
-0.425615117
 20
-23.4744783476
 30
0.0
 10
-0.425615117
 20
-23.4597492772
 30
0.0
  0
SPLINE
  5
3C6
100
AcDbEntity
  8
RACCORDO
100
AcDbSpline
 62
7
  6
CONTINUOUS
 70
0
 71
3
 72
11
 73
7
 74
0
 42
0.0000001
 43
0.0000001
 44
0.0000000001
 40
0.0
 40
0.0
 40
0.0
 40
0.0
 40
0.2430817178
 40
0.4932361212
 40
0.7464705021
 40
1.0
 40
1.0
 40
1.0
 40
1.0
 10
-16.2335223193
 20
3.227703827
 30
0.0
 10
-16.2760388261
 20
3.2489619829
 30
0.0
 10
-16.3574507766
 20
3.3020305962
 30
0.0
 10
-16.4654950029
 20
3.4008397245
 30
0.0
 10
-16.560755522
 20
3.5146285828
 30
0.0
 10
-16.6150036457
 20
3.5978737779
 30
0.0
 10
-16.6396035159
 20
3.640918144
 30
0.0
  0
SPLINE
  5
3C7
100
AcDbEntity
  8
RACCORDO
100
AcDbSpline
 62
250
  6
CONTINUOUS
 70
0
 71
3
 72
11
 73
7
 74
0
 42
0.0000001
 43
0.0000001
 44
0.0000000001
 40
0.0
 40
0.0
 40
0.0
 40
0.0
 40
0.2274030322
 40
0.4651083369
 40
0.721100729
 40
1.0
 40
1.0
 40
1.0
 40
1.0
 10
-14.6649911626
 20
26.4682302502
 30
0.0
 10
-14.6727747396
 20
26.4721224094
 30
0.0
 10
-14.6899103509
 20
26.4778482699
 30
0.0
 10
-14.7177476404
 20
26.4793355503
 30
0.0
 10
-14.7470534053
 20
26.4739746785
 30
0.0
 10
-14.7661924661
 20
26.4663591949
 30
0.0
 10
-14.7757659739
 20
26.4616406557
 30
0.0
  0
SPLINE
  5
3C8
100
AcDbEntity
  8
RACCORDO
100
AcDbSpline
 62
250
  6
CONTINUOUS
 70
0
 71
3
 72
9
 73
5
 74
0
 42
0.0000001
 43
0.0000001
 44
0.0000000001
 40
0.0
 40
0.0
 40
0.0
 40
0.0
 40
0.2499201777
 40
1.0
 40
1.0
 40
1.0
 40
1.0
 10
-15.9392992784
 20
3.1999387695
 30
0.0
 10
-15.9386773463
 20
3.2770681534
 30
0.0
 10
-15.9361218436
 20
3.5856836833
 30
0.0
 10
-15.9332974836
 20
3.8942969867
 30
0.0
 10
-15.9310280766
 20
4.1257800777
 30
0.0
  0
SPLINE
  5
3C9
100
AcDbEntity
  8
RACCORDO
100
AcDbSpline
 62
250
  6
CONTINUOUS
 70
0
 71
3
 72
15
 73
11
 74
0
 42
0.0000001
 43
0.0000001
 44
0.0000000001
 40
0.0
 40
0.0
 40
0.0
 40
0.0
 40
0.1205996361
 40
0.2476869452
 40
0.3788185923
 40
0.5112437904
 40
0.6421179544
 40
0.7687098209
 40
0.88861615
 40
1.0
 40
1.0
 40
1.0
 40
1.0
 10
-21.7871378514
 20
19.6113392536
 30
0.0
 10
-21.7843968729
 20
19.6952620858
 30
0.0
 10
-21.7660067669
 20
19.8673585757
 30
0.0
 10
-21.7051332124
 20
20.1245940581
 30
0.0
 10
-21.6121337376
 20
20.380816872
 30
0.0
 10
-21.4901023582
 20
20.6274633458
 30
0.0
 10
-21.343096775
 20
20.8563640813
 30
0.0
 10
-21.1759494426
 20
21.0599428766
 30
0.0
 10
-20.9942210211
 20
21.2314268476
 30
0.0
 10
-20.8617513259
 20
21.3243995395
 30
0.0
 10
-20.7945718414
 20
21.3631434095
 30
0.0
  0
SPLINE
  5
3CA
100
AcDbEntity
  8
RACCORDO
100
AcDbSpline
 62
250
  6
CONTINUOUS
 70
0
 71
3
 72
15
 73
11
 74
0
 42
0.0000001
 43
0.0000001
 44
0.0000000001
 40
0.0
 40
0.0
 40
0.0
 40
0.0
 40
0.1246248051
 40
0.2492830599
 40
0.3741184357
 40
0.49928479
 40
0.6246388163
 40
0.7499764377
 40
0.8751515018
 40
1.0
 40
1.0
 40
1.0
 40
1.0
 10
-0.0829886635
 20
16.3806171204
 30
0.0
 10
-0.3118522461
 20
16.2556351417
 30
0.0
 10
-0.7697423428
 20
16.0058233675
 30
0.0
 10
-1.4567953602
 20
15.6306594681
 30
0.0
 10
-2.143871041
 20
15.2531693196
 30
0.0
 10
-2.8296702056
 20
14.8703682347
 30
0.0
 10
-3.515224115
 20
14.4849885409
 30
0.0
 10
-4.2009898186
 20
14.0999469634
 30
0.0
 10
-4.8868081665
 20
13.7171629615
 30
0.0
 10
-5.3449708546
 20
13.4646158172
 30
0.0
 10
-5.5742654885
 20
13.3394466048
 30
0.0
  0
SPLINE
  5
3CB
100
AcDbEntity
  8
RACCORDO
100
AcDbSpline
 62
250
  6
CONTINUOUS
 70
0
 71
3
 72
15
 73
11
 74
0
 42
0.0000001
 43
0.0000001
 44
0.0000000001
 40
0.0
 40
0.0
 40
0.0
 40
0.0
 40
0.1245621668
 40
0.2491616013
 40
0.3739670577
 40
0.4991600299
 40
0.6245735189
 40
0.7499694127
 40
0.8751757299
 40
1.0
 40
1.0
 40
1.0
 40
1.0
 10
-0.4023601605
 20
16.9287119951
 30
0.0
 10
-0.631665776
 20
16.8035636374
 30
0.0
 10
-1.0902577197
 20
16.55306833
 30
0.0
 10
-1.7786666579
 20
16.1772973459
 30
0.0
 10
-2.4690615608
 20
15.8024009389
 30
0.0
 10
-3.1630972709
 20
15.4306580437
 30
0.0
 10
-3.8591823344
 20
15.0601315134
 30
0.0
 10
-4.5551402942
 20
14.6893055361
 30
0.0
 10
-5.2492070659
 20
14.317560515
 30
0.0
 10
-5.7103289001
 20
14.0678951695
 30
0.0
 10
-5.9400982285
 20
13.9424490505
 30
0.0
  0
SPLINE
  5
3CC
100
AcDbEntity
  8
RACCORDO
100
AcDbSpline
 62
7
  6
CONTINUOUS
 70
0
 71
3
 72
15
 73
11
 74
0
 42
0.0000001
 43
0.0000001
 44
0.0000000001
 40
0.0
 40
0.0
 40
0.0
 40
0.0
 40
0.2459181586
 40
0.5111200429
 40
0.6431648131
 40
0.7703692054
 40
0.8312979915
 40
0.8900444404
 40
0.9462392855
 40
1.0
 40
1.0
 40
1.0
 40
1.0
 10
-0.0829356802
 20
16.3806421464
 30
0.0
 10
-0.0839319659
 20
16.4347453103
 30
0.0
 10
-0.1043653702
 20
16.5469902628
 30
0.0
 10
-0.1618804066
 20
16.6776039273
 30
0.0
 10
-0.2257292796
 20
16.7740058003
 30
0.0
 10
-0.2716150425
 20
16.8277509529
 30
0.0
 10
-0.3109175263
 20
16.8653123457
 30
0.0
 10
-0.3408670508
 20
16.8898794169
 30
0.0
 10
-0.3711838325
 20
16.9113485884
 30
0.0
 10
-0.3921182014
 20
16.9235919619
 30
0.0
 10
-0.4026993119
 20
16.9288815708
 30
0.0
  0
SPLINE
  5
3CD
100
AcDbEntity
  8
RACCORDO
100
AcDbSpline
 62
250
  6
CONTINUOUS
 70
0
 71
3
 72
14
 73
10
 74
0
 42
0.0000001
 43
0.0000001
 44
0.0000000001
 40
0.0
 40
0.0
 40
0.0
 40
0.0
 40
0.11258348
 40
0.2332223484
 40
0.3601219551
 40
0.4909476937
 40
0.7532675859
 40
0.8798322437
 40
1.0
 40
1.0
 40
1.0
 40
1.0
 10
-5.5805206406
 20
13.3360317334
 30
0.0
 10
-5.6265004258
 20
13.3109299859
 30
0.0
 10
-5.7172379486
 20
13.2504167641
 30
0.0
 10
-5.8420244192
 20
13.1378822068
 30
0.0
 10
-5.9568231938
 20
13.0037575278
 30
0.0
 10
-6.0913806891
 20
12.802182692
 30
0.0
 10
-6.1908349737
 20
12.5788659786
 30
0.0
 10
-6.2472149942
 20
12.3483592768
 30
0.0
 10
-6.2598284857
 20
12.2337836493
 30
0.0
 10
-6.2617083
 20
12.1779007891
 30
0.0
  0
SPLINE
  5
3CE
100
AcDbEntity
  8
RACCORDO
100
AcDbSpline
 62
250
  6
CONTINUOUS
 70
0
 71
3
 72
15
 73
11
 74
0
 42
0.0000001
 43
0.0000001
 44
0.0000000001
 40
0.0
 40
0.0
 40
0.0
 40
0.0
 40
0.1123056518
 40
0.2327570996
 40
0.3595516032
 40
0.490341333
 40
0.6224664395
 40
0.7531672271
 40
0.8797900126
 40
1.0
 40
1.0
 40
1.0
 40
1.0
 10
-5.9463533806
 20
13.9390341791
 30
0.0
 10
-6.0149677574
 20
13.901162792
 30
0.0
 10
-6.1503507908
 20
13.8099511294
 30
0.0
 10
-6.3364507389
 20
13.6405989174
 30
0.0
 10
-6.507615233
 20
13.4389561588
 30
0.0
 10
-6.6581511933
 20
13.2117370455
 30
0.0
 10
-6.7831117702
 20
12.9664637491
 30
0.0
 10
-6.8783432853
 20
12.7112550321
 30
0.0
 10
-6.9406756245
 20
12.4546376598
 30
0.0
 10
-6.9594879133
 20
12.2827573784
 30
0.0
 10
-6.9622917738
 20
12.1989162148
 30
0.0
  0
SPLINE
  5
3CF
100
AcDbEntity
  8
RACCORDO
100
AcDbSpline
 62
250
  6
CONTINUOUS
 70
0
 71
3
 72
12
 73
8
 74
0
 42
0.0000001
 43
0.0000001
 44
0.0000000001
 40
0.0
 40
0.0
 40
0.0
 40
0.0
 40
0.2443923245
 40
0.5097193955
 40
0.769575408
 40
0.889727266
 40
1.0
 40
1.0
 40
1.0
 40
1.0
 10
-5.5805206406
 20
13.3360317334
 30
0.0
 10
-5.5831673756
 20
13.3955639937
 30
0.0
 10
-5.6089821101
 20
13.5189944826
 30
0.0
 10
-5.6887153295
 20
13.6901960068
 30
0.0
 10
-5.7852285996
 20
13.8166051378
 30
0.0
 10
-5.8750366727
 20
13.8959740865
 30
0.0
 10
-5.9224865203
 20
13.9266507906
 30
0.0
 10
-5.9463533806
 20
13.9390341791
 30
0.0
  0
SPLINE
  5
3D0
100
AcDbEntity
  8
RACCORDO
100
AcDbSpline
 62
250
  6
CONTINUOUS
 70
0
 71
3
 72
9
 73
5
 74
0
 42
0.0000001
 43
0.0000001
 44
0.0000000001
 40
0.0
 40
0.0
 40
0.0
 40
0.0
 40
0.2507752437
 40
1.0
 40
1.0
 40
1.0
 40
1.0
 10
-6.2617083
 20
12.1779007891
 30
0.0
 10
-6.288035716
 20
11.3952328905
 30
0.0
 10
-6.3863109549
 20
8.2740176292
 30
0.0
 10
-6.4576681113
 20
5.1519526263
 30
0.0
 10
-6.4957297679
 20
2.8126141142
 30
0.0
  0
SPLINE
  5
3D1
100
AcDbEntity
  8
RACCORDO
100
AcDbSpline
 62
250
  6
CONTINUOUS
 70
0
 71
3
 72
9
 73
5
 74
0
 42
0.0000001
 43
0.0000001
 44
0.0000000001
 40
0.0
 40
0.0
 40
0.0
 40
0.0
 40
0.2523189071
 40
1.0
 40
1.0
 40
1.0
 40
1.0
 10
-6.4957297679
 20
2.8126141142
 30
0.0
 10
-6.5316011578
 20
0.6078933681
 30
0.0
 10
-6.619552814
 20
-8.1307186452
 30
0.0
 10
-6.4887407057
 20
-16.8716913048
 30
0.0
 10
-6.2617083
 20
-23.4017238386
 30
0.0
  0
SPLINE
  5
3D2
100
AcDbEntity
  8
RACCORDO
100
AcDbSpline
 62
250
  6
CONTINUOUS
 70
0
 71
3
 72
9
 73
5
 74
0
 42
0.0000001
 43
0.0000001
 44
0.0000000001
 40
0.0
 40
0.0
 40
0.0
 40
0.0
 40
0.2507465154
 40
1.0
 40
1.0
 40
1.0
 40
1.0
 10
-6.9622917738
 20
12.1989162148
 30
0.0
 10
-6.9876816775
 20
11.4441057485
 30
0.0
 10
-7.0827047788
 20
8.4336464513
 30
0.0
 10
-7.1527172971
 20
5.4223958226
 30
0.0
 10
-7.1908738118
 20
3.1660001905
 30
0.0
  0
SPLINE
  5
3D3
100
AcDbEntity
  8
RACCORDO
100
AcDbSpline
 62
250
  6
CONTINUOUS
 70
0
 71
3
 72
9
 73
5
 74
0
 42
0.0000001
 43
0.0000001
 44
0.0000000001
 40
0.0
 40
0.0
 40
0.0
 40
0.0
 40
0.2523477223
 40
1.0
 40
1.0
 40
1.0
 40
1.0
 10
-7.1908738118
 20
3.1660001905
 30
0.0
 10
-7.2286837079
 20
0.930101944
 30
0.0
 10
-7.3228704751
 20
-7.9311166328
 30
0.0
 10
-7.1924981054
 20
-16.7948892766
 30
0.0
 10
-6.9622917738
 20
-23.4163236528
 30
0.0
  0
SPLINE
  5
3D4
100
AcDbEntity
  8
RACCORDO
100
AcDbSpline
 62
250
  6
CONTINUOUS
 70
0
 71
3
 72
13
 73
9
 74
0
 42
0.0000001
 43
0.0000001
 44
0.0000000001
 40
0.0
 40
0.0
 40
0.0
 40
0.0
 40
0.1119164526
 40
0.2345486234
 40
0.4988620903
 40
0.7637876921
 40
0.8871442964
 40
1.0
 40
1.0
 40
1.0
 40
1.0
 10
-6.2617083
 20
12.1779007891
 30
0.0
 10
-6.286305006
 20
12.1672434322
 30
0.0
 10
-6.3396285933
 20
12.1489188363
 30
0.0
 10
-6.4566414428
 20
12.1237654616
 30
0.0
 10
-6.6135084186
 20
12.11477421
 30
0.0
 10
-6.7697092329
 20
12.1332078065
 30
0.0
 10
-6.885566978
 20
12.1653263424
 30
0.0
 10
-6.9381230637
 20
12.1868099153
 30
0.0
 10
-6.9622917738
 20
12.1989162148
 30
0.0
  0
SPLINE
  5
3D5
100
AcDbEntity
  8
RACCORDO
100
AcDbSpline
 62
250
  6
CONTINUOUS
 70
0
 71
3
 72
15
 73
11
 74
0
 42
0.0000001
 43
0.0000001
 44
0.0000000001
 40
0.0
 40
0.0
 40
0.0
 40
0.0
 40
0.1465300076
 40
0.2806608717
 40
0.4035051351
 40
0.5182269176
 40
0.6298613869
 40
0.7442648611
 40
0.8665518753
 40
1.0
 40
1.0
 40
1.0
 40
1.0
 10
-6.2617083
 20
-23.4017238386
 30
0.0
 10
-6.2599617072
 20
-23.4519595715
 30
0.0
 10
-6.2493297936
 20
-23.5481950841
 30
0.0
 10
-6.2086839626
 20
-23.6814798923
 30
0.0
 10
-6.1447128985
 20
-23.7932581601
 30
0.0
 10
-6.0587797497
 20
-23.8790297439
 30
0.0
 10
-5.9538511348
 20
-23.9344931556
 30
0.0
 10
-5.8348247539
 20
-23.9570117795
 30
0.0
 10
-5.7070199355
 20
-23.9465631221
 30
0.0
 10
-5.6227311822
 20
-23.9197577355
 30
0.0
 10
-5.5805206406
 20
-23.9020395067
 30
0.0
  0
SPLINE
  5
3D6
100
AcDbEntity
  8
RACCORDO
100
AcDbSpline
 62
250
  6
CONTINUOUS
 70
0
 71
3
 72
13
 73
9
 74
0
 42
0.0000001
 43
0.0000001
 44
0.0000000001
 40
0.0
 40
0.0
 40
0.0
 40
0.0
 40
0.2862413006
 40
0.5444702158
 40
0.6643576928
 40
0.7792253883
 40
0.8905214387
 40
1.0
 40
1.0
 40
1.0
 40
1.0
 10
-6.9622917738
 20
-23.4163236528
 30
0.0
 10
-6.9593330001
 20
-23.5019062865
 30
0.0
 10
-6.9398651081
 20
-23.6647593016
 30
0.0
 10
-6.8735181855
 20
-23.8544158395
 30
0.0
 10
-6.7970543348
 20
-23.9810770827
 30
0.0
 10
-6.7307520535
 20
-24.0611380179
 30
0.0
 10
-6.6548448003
 20
-24.1275323876
 30
0.0
 10
-6.5981991848
 20
-24.1622292516
 30
0.0
 10
-6.568907013
 20
-24.1768812787
 30
0.0
  0
SPLINE
  5
3D7
100
AcDbEntity
  8
RACCORDO
100
AcDbSpline
 62
250
  6
CONTINUOUS
 70
0
 71
3
 72
13
 73
9
 74
0
 42
0.0000001
 43
0.0000001
 44
0.0000000001
 40
0.0
 40
0.0
 40
0.0
 40
0.0
 40
0.1148639676
 40
0.2391698869
 40
0.5036419174
 40
0.7661408091
 40
0.8881244565
 40
1.0
 40
1.0
 40
1.0
 40
1.0
 10
-6.2617083
 20
-23.4017238386
 30
0.0
 10
-6.2861152723
 20
-23.4147182323
 30
0.0
 10
-6.3391262458
 20
-23.437755884
 30
0.0
 10
-6.4557245679
 20
-23.4718062454
 30
0.0
 10
-6.612572154
 20
-23.4904353084
 30
0.0
 10
-6.7695633242
 20
-23.4785275505
 30
0.0
 10
-6.8856582885
 20
-23.4492505213
 30
0.0
 10
-6.9381956072
 20
-23.4283512832
 30
0.0
 10
-6.9622917738
 20
-23.4163236528
 30
0.0
  0
SPLINE
  5
3D8
100
AcDbEntity
  8
RACCORDO
100
AcDbSpline
 62
250
  6
CONTINUOUS
 70
0
 71
3
 72
11
 73
7
 74
0
 42
0.0000001
 43
0.0000001
 44
0.0000000001
 40
0.0
 40
0.0
 40
0.0
 40
0.0
 40
0.28705005
 40
0.5473109285
 40
0.7824678628
 40
1.0
 40
1.0
 40
1.0
 40
1.0
 10
-5.5805206406
 20
-23.9020395067
 30
0.0
 10
-5.5818051775
 20
-23.9321727468
 30
0.0
 10
-5.5889415165
 20
-23.9896156904
 30
0.0
 10
-5.615552264
 20
-24.0681243215
 30
0.0
 10
-5.6569040185
 20
-24.1316914208
 30
0.0
 10
-5.6945298961
 20
-24.162418149
 30
0.0
 10
-5.7144845071
 20
-24.1735637228
 30
0.0
  0
SPLINE
  5
3D9
100
AcDbEntity
  8
RACCORDO
100
AcDbSpline
 62
250
  6
CONTINUOUS
 70
0
 71
3
 72
16
 73
12
 74
0
 42
0.0000001
 43
0.0000001
 44
0.0000000001
 40
0.0
 40
0.0
 40
0.0
 40
0.0
 40
0.2499733968
 40
0.3746105432
 40
0.4992459542
 40
0.6240478426
 40
0.6865812648
 40
0.7492147972
 40
0.8119046808
 40
0.8746057147
 40
1.0
 40
1.0
 40
1.0
 40
1.0
 10
-5.5742654885
 20
-23.899413848
 30
0.0
 10
-5.1179814087
 20
-23.7078823865
 30
0.0
 10
-4.4316440955
 20
-23.4269396774
 30
0.0
 10
-3.5152919758
 20
-23.0567166206
 30
0.0
 10
-2.828710179
 20
-22.779254777
 30
0.0
 10
-2.2566944085
 20
-22.5464210854
 30
0.0
 10
-1.7993467965
 20
-22.3574632812
 30
0.0
 10
-1.4561771129
 20
-22.2141667756
 30
0.0
 10
-1.1129713051
 20
-22.0700987323
 30
0.0
 10
-0.6552358058
 20
-21.8778728661
 30
0.0
 10
-0.3118794084
 20
-21.7338011129
 30
0.0
 10
-0.0829936594
 20
-21.637722439
 30
0.0
  0
SPLINE
  5
3DA
100
AcDbEntity
  8
RACCORDO
100
AcDbSpline
 62
7
  6
CONTINUOUS
 70
0
 71
3
 72
11
 73
7
 74
0
 42
0.0000001
 43
0.0000001
 44
0.0000000001
 40
0.0
 40
0.0
 40
0.0
 40
0.0
 40
0.2901231087
 40
0.5505084403
 40
0.7838602692
 40
1.0
 40
1.0
 40
1.0
 40
1.0
 10
-0.0829936594
 20
-21.637722439
 30
0.0
 10
-0.0834917532
 20
-21.6654628925
 30
0.0
 10
-0.0888590358
 20
-21.7182140374
 30
0.0
 10
-0.1123686495
 20
-21.7901367988
 30
0.0
 10
-0.1504518725
 20
-21.8475410531
 30
0.0
 10
-0.1856336274
 20
-21.8740738274
 30
0.0
 10
-0.204170657
 20
-21.8832181321
 30
0.0
  0
SPLINE
  5
3DB
100
AcDbEntity
  8
RACCORDO
100
AcDbSpline
 62
7
  6
CONTINUOUS
 70
0
 71
3
 72
11
 73
7
 74
0
 42
0.0000001
 43
0.0000001
 44
0.0000000001
 40
0.0
 40
0.0
 40
0.0
 40
0.0
 40
0.2430817178
 40
0.4932361212
 40
0.7464705021
 40
1.0
 40
1.0
 40
1.0
 40
1.0
 10
-16.9759844396
 20
3.5989348871
 30
0.0
 10
-17.0185009464
 20
3.6201930431
 30
0.0
 10
-17.0999128968
 20
3.6732616563
 30
0.0
 10
-17.2079571231
 20
3.7720707846
 30
0.0
 10
-17.3032176423
 20
3.8858596429
 30
0.0
 10
-17.357465766
 20
3.969104838
 30
0.0
 10
-17.3820656362
 20
4.0121492041
 30
0.0
  0
SPLINE
  5
3DC
100
AcDbEntity
  8
RACCORDO
100
AcDbSpline
 62
250
  6
CONTINUOUS
 70
0
 71
3
 72
11
 73
7
 74
0
 42
0.0000001
 43
0.0000001
 44
0.0000000001
 40
0.0
 40
0.0
 40
0.0
 40
0.0
 40
0.2167635091
 40
0.4498673846
 40
0.7098578217
 40
1.0
 40
1.0
 40
1.0
 40
1.0
 10
-2.0931576396
 20
-24.3756342174
 30
0.0
 10
-2.0828499878
 20
-24.370612497
 30
0.0
 10
-2.063296289
 20
-24.3560049746
 30
0.0
 10
-2.0422741507
 20
-24.3241955585
 30
0.0
 10
-2.0295863012
 20
-24.2843294721
 30
0.0
 10
-2.026969059
 20
-24.2551309452
 30
0.0
 10
-2.0268959078
 20
-24.2397838768
 30
0.0
  0
SPLINE
  5
3DD
100
AcDbEntity
  8
RACCORDO
100
AcDbSpline
 62
7
  6
CONTINUOUS
 70
0
 71
3
 72
11
 73
7
 74
0
 42
0.0000001
 43
0.0000001
 44
0.0000000001
 40
0.0
 40
0.0
 40
0.0
 40
0.0
 40
0.2431475577
 40
0.4932867039
 40
0.7464869598
 40
1.0
 40
1.0
 40
1.0
 40
1.0
 10
-16.9872160056
 20
2.2085816045
 30
0.0
 10
-17.0296145052
 20
2.2297807894
 30
0.0
 10
-17.110817391
 20
2.2826333745
 30
0.0
 10
-17.2186558833
 20
2.3810090562
 30
0.0
 10
-17.3137888804
 20
2.4942963244
 30
0.0
 10
-17.3680068882
 20
2.5771871223
 30
0.0
 10
-17.3926071964
 20
2.6200535553
 30
0.0
  0
SPLINE
  5
3DE
100
AcDbEntity
  8
RACCORDO
100
AcDbSpline
 62
7
  6
CONTINUOUS
 70
0
 71
3
 72
11
 73
7
 74
0
 42
0.0000001
 43
0.0000001
 44
0.0000000001
 40
0.0
 40
0.0
 40
0.0
 40
0.0
 40
0.2431475577
 40
0.4932867039
 40
0.7464869598
 40
1.0
 40
1.0
 40
1.0
 40
1.0
 10
-18.9671149929
 20
3.1985310982
 30
0.0
 10
-19.0095134926
 20
3.219730283
 30
0.0
 10
-19.0907163783
 20
3.2725828682
 30
0.0
 10
-19.1985548706
 20
3.3709585498
 30
0.0
 10
-19.2936878677
 20
3.4842458181
 30
0.0
 10
-19.3479058755
 20
3.567136616
 30
0.0
 10
-19.3725061837
 20
3.6100030489
 30
0.0
  0
SPLINE
  5
3DF
100
AcDbEntity
  8
RACCORDO
100
AcDbSpline
 62
7
  6
CONTINUOUS
 70
0
 71
3
 72
11
 73
7
 74
0
 42
0.0000001
 43
0.0000001
 44
0.0000000001
 40
0.0
 40
0.0
 40
0.0
 40
0.0
 40
0.2275501849
 40
0.4653230689
 40
0.721268007
 40
1.0
 40
1.0
 40
1.0
 40
1.0
 10
-2.5593414896
 20
25.2546686439
 30
0.0
 10
-2.5903420871
 20
25.2701684007
 30
0.0
 10
-2.6585518979
 20
25.2930102174
 30
0.0
 10
-2.7693563745
 20
25.2991198092
 30
0.0
 10
-2.8860212796
 20
25.2780650149
 30
0.0
 10
-2.9622494866
 20
25.2479794155
 30
0.0
 10
-3.0003842759
 20
25.2293196126
 30
0.0
  0
SPLINE
  5
3E0
100
AcDbEntity
  8
RACCORDO
100
AcDbSpline
 62
7
  6
CONTINUOUS
 70
0
 71
3
 72
12
 73
8
 74
0
 42
0.0000001
 43
0.0000001
 44
0.0000000001
 40
0.0
 40
0.0
 40
0.0
 40
0.0
 40
0.1460665466
 40
0.2901900051
 40
0.5606459046
 40
0.7988834635
 40
1.0
 40
1.0
 40
1.0
 40
1.0
 10
-5.4849331882
 20
20.1118893247
 30
0.0
 10
-5.5060915086
 20
20.1103235139
 30
0.0
 10
-5.5479606344
 20
20.1049144033
 30
0.0
 10
-5.6278705501
 20
20.0890911734
 30
0.0
 10
-5.7196303172
 20
20.0649283036
 30
0.0
 10
-5.8184300739
 20
20.0354981555
 30
0.0
 10
-5.8795861082
 20
20.0172350001
 30
0.0
 10
-5.907755568
 20
20.0094997603
 30
0.0
  0
SPLINE
  5
3E1
100
AcDbEntity
  8
RACCORDO
100
AcDbSpline
 62
250
  6
CONTINUOUS
 70
0
 71
3
 72
11
 73
7
 74
0
 42
0.0000001
 43
0.0000001
 44
0.0000000001
 40
0.0
 40
0.0
 40
0.0
 40
0.0
 40
0.3025789318
 40
0.5654800689
 40
0.7934320357
 40
1.0
 40
1.0
 40
1.0
 40
1.0
 10
-3.7044025473
 20
-23.576778813
 30
0.0
 10
-3.7152564913
 20
-23.5713518411
 30
0.0
 10
-3.7348738174
 20
-23.559712904
 30
0.0
 10
-3.758684297
 20
-23.5381940398
 30
0.0
 10
-3.7739638852
 20
-23.5142418494
 30
0.0
 10
-3.7776250489
 20
-23.4966817621
 30
0.0
 10
-3.7776258493
 20
-23.4883972514
 30
0.0
  0
SPLINE
  5
3E2
100
AcDbEntity
  8
RACCORDO
100
AcDbSpline
 62
250
  6
CONTINUOUS
 70
0
 71
3
 72
10
 73
6
 74
0
 42
0.0000001
 43
0.0000001
 44
0.0000000001
 40
0.0
 40
0.0
 40
0.0
 40
0.0
 40
0.2356243917
 40
0.4879008423
 40
1.0
 40
1.0
 40
1.0
 40
1.0
 10
-2.3794178675
 20
-23.8992972188
 30
0.0
 10
-2.3794178675
 20
-23.8795122469
 30
0.0
 10
-2.3748809999
 20
-23.8384647147
 30
0.0
 10
-2.3511556103
 20
-23.7577003639
 30
0.0
 10
-2.3184615051
 20
-23.7007163804
 30
0.0
 10
-2.2910295198
 20
-23.667603045
 30
0.0
  0
SPLINE
  5
3E3
100
AcDbEntity
  8
RACCORDO
100
AcDbSpline
 62
250
  6
CONTINUOUS
 70
0
 71
3
 72
11
 73
7
 74
0
 42
0.0000001
 43
0.0000001
 44
0.0000000001
 40
0.0
 40
0.0
 40
0.0
 40
0.0
 40
0.2351708842
 40
0.4995792379
 40
0.7642140574
 40
1.0
 40
1.0
 40
1.0
 40
1.0
 10
-2.3794178675
 20
-23.8992972188
 30
0.0
 10
-2.3540245972
 20
-23.911993854
 30
0.0
 10
-2.295680349
 20
-23.9301377565
 30
0.0
 10
-2.2033452939
 20
-23.9388942476
 30
0.0
 10
-2.1109109969
 20
-23.9303913138
 30
0.0
 10
-2.0524143583
 20
-23.9124215647
 30
0.0
 10
-2.0268959078
 20
-23.8998099427
 30
0.0
  0
SPLINE
  5
3E4
100
AcDbEntity
  8
RACCORDO
100
AcDbSpline
 62
250
  6
CONTINUOUS
 70
0
 71
3
 72
11
 73
7
 74
0
 42
0.0000001
 43
0.0000001
 44
0.0000000001
 40
0.0
 40
0.0
 40
0.0
 40
0.0
 40
0.2351709482
 40
0.4995793653
 40
0.764214221
 40
1.0
 40
1.0
 40
1.0
 40
1.0
 10
-2.3794178675
 20
-24.239271153
 30
0.0
 10
-2.3540245903
 20
-24.2519677916
 30
0.0
 10
-2.295680326
 20
-24.2701116963
 30
0.0
 10
-2.2033452506
 20
-24.2788681827
 30
0.0
 10
-2.1109109614
 20
-24.2703652411
 30
0.0
 10
-2.0524143406
 20
-24.25239549
 30
0.0
 10
-2.0268959078
 20
-24.2397838768
 30
0.0
  0
SPLINE
  5
3E5
100
AcDbEntity
  8
RACCORDO
100
AcDbSpline
 62
250
  6
CONTINUOUS
 70
0
 71
3
 72
11
 73
7
 74
0
 42
0.0000001
 43
0.0000001
 44
0.0000000001
 40
0.0
 40
0.0
 40
0.0
 40
0.0
 40
0.2897495234
 40
0.549584515
 40
0.7828462997
 40
1.0
 40
1.0
 40
1.0
 40
1.0
 10
-2.3794178675
 20
-24.239271153
 30
0.0
 10
-2.3794178675
 20
-24.2544756465
 30
0.0
 10
-2.3769643984
 20
-24.2834245895
 30
0.0
 10
-2.3645916681
 20
-24.323017162
 30
0.0
 10
-2.3439281184
 20
-24.3547163563
 30
0.0
 10
-2.3246419173
 20
-24.3693891633
 30
0.0
 10
-2.3144504271
 20
-24.3744863026
 30
0.0
  0
SPLINE
  5
3E6
100
AcDbEntity
  8
RACCORDO
100
AcDbSpline
 62
250
  6
CONTINUOUS
 70
0
 71
3
 72
11
 73
7
 74
0
 42
0.0000001
 43
0.0000001
 44
0.0000000001
 40
0.0
 40
0.0
 40
0.0
 40
0.0
 40
0.2897508691
 40
0.5495855602
 40
0.7828462233
 40
1.0
 40
1.0
 40
1.0
 40
1.0
 10
-3.7044025473
 20
-23.576778813
 30
0.0
 10
-3.7044025473
 20
-23.5919840173
 30
0.0
 10
-3.7019488571
 20
-23.6209342467
 30
0.0
 10
-3.6895749353
 20
-23.6605283271
 30
0.0
 10
-3.6689093397
 20
-23.6922281135
 30
0.0
 10
-3.649621389
 20
-23.706900338
 30
0.0
 10
-3.6394291026
 20
-23.7119969666
 30
0.0
  0
SPLINE
  5
3E7
100
AcDbEntity
  8
RACCORDO
100
AcDbSpline
 62
250
  6
CONTINUOUS
 70
0
 71
3
 72
12
 73
8
 74
0
 42
0.0000001
 43
0.0000001
 44
0.0000000001
 40
0.0
 40
0.0
 40
0.0
 40
0.0
 40
0.2704231342
 40
0.533367854
 40
0.7767491796
 40
0.8906079026
 40
1.0
 40
1.0
 40
1.0
 40
1.0
 10
0.1026520547
 20
-22.8412067018
 30
0.0
 10
0.1141498483
 20
-22.8108564574
 30
0.0
 10
0.1275952305
 20
-22.7470604961
 30
0.0
 10
0.1185709145
 20
-22.652844322
 30
0.0
 10
0.0861962956
 20
-22.5835826489
 30
0.0
 10
0.0475512899
 20
-22.5425029611
 30
0.0
 10
0.0249870067
 20
-22.5274993197
 30
0.0
 10
0.0132382594
 20
-22.5216398958
 30
0.0
  0
SPLINE
  5
3E8
100
AcDbEntity
  8
RACCORDO
100
AcDbSpline
 62
250
  6
CONTINUOUS
 70
0
 71
3
 72
11
 73
7
 74
0
 42
0.0000001
 43
0.0000001
 44
0.0000000001
 40
0.0
 40
0.0
 40
0.0
 40
0.0
 40
0.3025823249
 40
0.5654825874
 40
0.7934322572
 40
1.0
 40
1.0
 40
1.0
 40
1.0
 10
-17.0687207117
 20
25.0849322768
 30
0.0
 10
-17.0795753809
 20
25.0903596114
 30
0.0
 10
-17.0991938539
 20
25.1019993418
 30
0.0
 10
-17.1230052241
 20
25.1235199693
 30
0.0
 10
-17.1382844212
 20
25.1474742542
 30
0.0
 10
-17.1419441095
 20
25.165035662
 30
0.0
 10
-17.1419440143
 20
25.1733206244
 30
0.0
  0
SPLINE
  5
3E9
100
AcDbEntity
  8
RACCORDO
100
AcDbSpline
 62
250
  6
CONTINUOUS
 70
0
 71
3
 72
11
 73
7
 74
0
 42
0.0000001
 43
0.0000001
 44
0.0000000001
 40
0.0
 40
0.0
 40
0.0
 40
0.0
 40
0.3025823249
 40
0.5654825874
 40
0.7934322572
 40
1.0
 40
1.0
 40
1.0
 40
1.0
 10
-17.0687207117
 20
24.7449583427
 30
0.0
 10
-17.0795753809
 20
24.7503856772
 30
0.0
 10
-17.0991938539
 20
24.7620254077
 30
0.0
 10
-17.1230052241
 20
24.7835460352
 30
0.0
 10
-17.1382844212
 20
24.8075003201
 30
0.0
 10
-17.1419441095
 20
24.8250617279
 30
0.0
 10
-17.1419440143
 20
24.8333466903
 30
0.0
  0
SPLINE
  5
3EA
100
AcDbEntity
  8
RACCORDO
100
AcDbSpline
 62
250
  6
CONTINUOUS
 70
0
 71
3
 72
11
 73
7
 74
0
 42
0.0000001
 43
0.0000001
 44
0.0000000001
 40
0.0
 40
0.0
 40
0.0
 40
0.0
 40
0.3443103774
 40
0.6207911565
 40
0.8330085203
 40
1.0
 40
1.0
 40
1.0
 40
1.0
 10
-13.2616661097
 20
25.1405565198
 30
0.0
 10
-13.2571356102
 20
25.1331810734
 30
0.0
 10
-13.2495583216
 20
25.119480959
 30
0.0
 10
-13.2422553487
 20
25.0997526451
 30
0.0
 10
-13.2401503389
 20
25.0831432931
 30
0.0
 10
-13.2433314325
 20
25.073580867
 30
0.0
 10
-13.2458864162
 20
25.0702498108
 30
0.0
  0
SPLINE
  5
3EB
100
AcDbEntity
  8
RACCORDO
100
AcDbSpline
 62
7
  6
CONTINUOUS
 70
0
 71
3
 72
11
 73
7
 74
0
 42
0.0000001
 43
0.0000001
 44
0.0000000001
 40
0.0
 40
0.0
 40
0.0
 40
0.0
 40
0.2467927921
 40
0.5117852903
 40
0.7703247525
 40
1.0
 40
1.0
 40
1.0
 40
1.0
 10
-13.7899332814
 20
25.2246492165
 30
0.0
 10
-13.7899332814
 20
25.2548442031
 30
0.0
 10
-13.8003532848
 20
25.3175685416
 30
0.0
 10
-13.8380870586
 20
25.4048023508
 30
0.0
 10
-13.8935456643
 20
25.47939846
 30
0.0
 10
-13.9415729883
 20
25.516971757
 30
0.0
 10
-13.9667069851
 20
25.5295387554
 30
0.0
  0
SPLINE
  5
3EC
100
AcDbEntity
  8
RACCORDO
100
AcDbSpline
 62
250
  6
CONTINUOUS
 70
0
 71
3
 72
11
 73
7
 74
0
 42
0.0000001
 43
0.0000001
 44
0.0000000001
 40
0.0
 40
0.0
 40
0.0
 40
0.0
 40
0.2466955157
 40
0.5118832147
 40
0.7705705489
 40
1.0
 40
1.0
 40
1.0
 40
1.0
 10
-15.3912140723
 20
24.421927213
 30
0.0
 10
-15.3913585004
 20
24.4520853936
 30
0.0
 10
-15.4020114943
 20
24.5147144959
 30
0.0
 10
-15.4398299254
 20
24.6018407437
 30
0.0
 10
-15.4951453606
 20
24.6764386031
 30
0.0
 10
-15.5429603815
 20
24.7141555589
 30
0.0
 10
-15.5679877759
 20
24.7268167519
 30
0.0
  0
SPLINE
  5
3ED
100
AcDbEntity
  8
RACCORDO
100
AcDbSpline
 62
250
  6
CONTINUOUS
 70
0
 71
3
 72
11
 73
7
 74
0
 42
0.0000001
 43
0.0000001
 44
0.0000000001
 40
0.0
 40
0.0
 40
0.0
 40
0.0
 40
0.2468893536
 40
0.5116863499
 40
0.7700780422
 40
1.0
 40
1.0
 40
1.0
 40
1.0
 10
-13.2616661097
 20
25.4880880366
 30
0.0
 10
-13.2615236861
 20
25.5183189755
 30
0.0
 10
-13.2717141396
 20
25.5811364
 30
0.0
 10
-13.309362325
 20
25.6684775669
 30
0.0
 10
-13.3649647137
 20
25.7430710171
 30
0.0
 10
-13.4132007229
 20
25.7805029725
 30
0.0
 10
-13.4384398134
 20
25.7929775754
 30
0.0
  0
SPLINE
  5
3EE
100
AcDbEntity
  8
RACCORDO
100
AcDbSpline
 62
250
  6
CONTINUOUS
 70
0
 71
3
 72
12
 73
8
 74
0
 42
0.0000001
 43
0.0000001
 44
0.0000000001
 40
0.0
 40
0.0
 40
0.0
 40
0.0
 40
0.1018936562
 40
0.2190264949
 40
0.4830826031
 40
0.7560858423
 40
1.0
 40
1.0
 40
1.0
 40
1.0
 10
-2.0268959078
 20
-23.8998099427
 30
0.0
 10
-2.0332408611
 20
-23.8895634407
 30
0.0
 10
-2.0482556119
 20
-23.8683871452
 30
0.0
 10
-2.0850606085
 20
-23.8246320408
 30
0.0
 10
-2.1406972328
 20
-23.7705517491
 30
0.0
 10
-2.2132749535
 20
-23.7132294265
 30
0.0
 10
-2.265302686
 20
-23.6806589343
 30
0.0
 10
-2.2910295198
 20
-23.667603045
 30
0.0
  0
SPLINE
  5
3EF
100
AcDbEntity
  8
RACCORDO
100
AcDbSpline
 62
7
  6
CONTINUOUS
 70
0
 71
3
 72
11
 73
7
 74
0
 42
0.0000001
 43
0.0000001
 44
0.0000000001
 40
0.0
 40
0.0
 40
0.0
 40
0.0
 40
0.2082292705
 40
0.4660042739
 40
0.7454922158
 40
1.0
 40
1.0
 40
1.0
 40
1.0
 10
-1.3156752997
 20
-23.0483134655
 30
0.0
 10
-1.3411884952
 20
-23.0429858314
 30
0.0
 10
-1.3976330988
 20
-23.028010068
 30
0.0
 10
-1.4864055526
 20
-22.9991797982
 30
0.0
 10
-1.5791081091
 20
-22.9640263874
 30
0.0
 10
-1.640218547
 20
-22.9367900979
 30
0.0
 10
-1.6687114878
 20
-22.9225436275
 30
0.0
  0
SPLINE
  5
3F0
100
AcDbEntity
  8
RACCORDO
100
AcDbSpline
 62
250
  6
CONTINUOUS
 70
0
 71
3
 72
11
 73
7
 74
0
 42
0.0000001
 43
0.0000001
 44
0.0000000001
 40
0.0
 40
0.0
 40
0.0
 40
0.0
 40
0.2789492199
 40
0.5349524055
 40
0.7726363297
 40
1.0
 40
1.0
 40
1.0
 40
1.0
 10
-14.7757659739
 20
26.4616406557
 30
0.0
 10
-14.785275654
 20
26.4664507468
 30
0.0
 10
-14.8043041399
 20
26.4742525406
 30
0.0
 10
-14.8335039813
 20
26.4799104861
 30
0.0
 10
-14.8613061784
 20
26.4787167141
 30
0.0
 10
-14.8784691554
 20
26.4731794736
 30
0.0
 10
-14.8862779454
 20
26.46937516
 30
0.0
  0
SPLINE
  5
3F1
100
AcDbEntity
  8
RACCORDO
100
AcDbSpline
 62
7
  6
CONTINUOUS
 70
0
 71
3
 72
11
 73
7
 74
0
 42
0.0000001
 43
0.0000001
 44
0.0000000001
 40
0.0
 40
0.0
 40
0.0
 40
0.0
 40
0.2790833937
 40
0.53522907
 40
0.7729212504
 40
1.0
 40
1.0
 40
1.0
 40
1.0
 10
-15.3102158526
 20
26.2012931891
 30
0.0
 10
-15.3197834215
 20
26.2060769735
 30
0.0
 10
-15.3389149354
 20
26.2138277061
 30
0.0
 10
-15.3682339145
 20
26.2194215295
 30
0.0
 10
-15.3961166846
 20
26.2181877722
 30
0.0
 10
-15.4133232232
 20
26.2126345054
 30
0.0
 10
-15.4211479708
 20
26.2088232011
 30
0.0
  0
SPLINE
  5
3F2
100
AcDbEntity
  8
RACCORDO
100
AcDbSpline
 62
250
  6
CONTINUOUS
 70
0
 71
3
 72
11
 73
7
 74
0
 42
0.0000001
 43
0.0000001
 44
0.0000000001
 40
0.0
 40
0.0
 40
0.0
 40
0.0
 40
0.2795156184
 40
0.5356957389
 40
0.7731450427
 40
1.0
 40
1.0
 40
1.0
 40
1.0
 10
-16.8929724558
 20
25.3893090918
 30
0.0
 10
-16.9027682576
 20
25.3941499302
 30
0.0
 10
-16.9223446416
 20
25.4019539172
 30
0.0
 10
-16.9523108183
 20
25.4074070258
 30
0.0
 10
-16.9807242724
 20
25.4057861624
 30
0.0
 10
-16.998160223
 20
25.3998078073
 30
0.0
 10
-17.0060507889
 20
25.3957603975
 30
0.0
  0
SPLINE
  5
3F3
100
AcDbEntity
  8
RACCORDO
100
AcDbSpline
 62
250
  6
CONTINUOUS
 70
0
 71
3
 72
9
 73
5
 74
0
 42
0.0000001
 43
0.0000001
 44
0.0000000001
 40
0.0
 40
0.0
 40
0.0
 40
0.0
 40
0.2429341757
 40
1.0
 40
1.0
 40
1.0
 40
1.0
 10
-15.7437360319
 20
24.4224399369
 30
0.0
 10
-15.7437360319
 20
24.4262366567
 30
0.0
 10
-15.7433990841
 20
24.4418643556
 30
0.0
 10
-15.7417691344
 20
24.4574565758
 30
0.0
 10
-15.7399119231
 20
24.4691417817
 30
0.0
  0
SPLINE
  5
3F4
100
AcDbEntity
  8
RACCORDO
100
AcDbSpline
 62
250
  6
CONTINUOUS
 70
0
 71
3
 72
11
 73
7
 74
0
 42
0.0000001
 43
0.0000001
 44
0.0000000001
 40
0.0
 40
0.0
 40
0.0
 40
0.0
 40
0.2565284682
 40
0.5206132235
 40
0.7736712326
 40
1.0
 40
1.0
 40
1.0
 40
1.0
 10
-15.7399119231
 20
24.4691417817
 30
0.0
 10
-15.7356246048
 20
24.4961167405
 30
0.0
 10
-15.7202241967
 20
24.5499146065
 30
0.0
 10
-15.6817065324
 20
24.6233438242
 30
0.0
 10
-15.6310367336
 20
24.6848882889
 30
0.0
 10
-15.589480137
 20
24.7159174306
 30
0.0
 10
-15.5679877759
 20
24.7268167519
 30
0.0
  0
SPLINE
  5
3F5
100
AcDbEntity
  8
RACCORDO
100
AcDbSpline
 62
250
  6
CONTINUOUS
 70
0
 71
3
 72
11
 73
7
 74
0
 42
0.0000001
 43
0.0000001
 44
0.0000000001
 40
0.0
 40
0.0
 40
0.0
 40
0.0
 40
0.2465991784
 40
0.5114081618
 40
0.7699752382
 40
1.0
 40
1.0
 40
1.0
 40
1.0
 10
-17.0687207117
 20
25.0849322768
 30
0.0
 10
-17.0687207117
 20
25.1150106714
 30
0.0
 10
-17.0583779691
 20
25.1774956524
 30
0.0
 10
-17.0208943685
 20
25.2644660603
 30
0.0
 10
-16.9657550168
 20
25.3389650864
 30
0.0
 10
-16.917995466
 20
25.3766192888
 30
0.0
 10
-16.8929724558
 20
25.3893090918
 30
0.0
  0
SPLINE
  5
3F6
100
AcDbEntity
  8
RACCORDO
100
AcDbSpline
 62
250
  6
CONTINUOUS
 70
0
 71
3
 72
11
 73
7
 74
0
 42
0.0000001
 43
0.0000001
 44
0.0000000001
 40
0.0
 40
0.0
 40
0.0
 40
0.0
 40
0.2351708329
 40
0.4995791214
 40
0.7642139051
 40
1.0
 40
1.0
 40
1.0
 40
1.0
 10
-15.7437360319
 20
24.0824660028
 30
0.0
 10
-15.7183427672
 20
24.0697693704
 30
0.0
 10
-15.6599985336
 20
24.0516254701
 30
0.0
 10
-15.5676634974
 20
24.0428689749
 30
0.0
 10
-15.4752291942
 20
24.0513719016
 30
0.0
 10
-15.4167325392
 20
24.0693416488
 30
0.0
 10
-15.3912140723
 20
24.0819532789
 30
0.0
  0
SPLINE
  5
3F7
100
AcDbEntity
  8
RACCORDO
100
AcDbSpline
 62
250
  6
CONTINUOUS
 70
0
 71
3
 72
11
 73
7
 74
0
 42
0.0000001
 43
0.0000001
 44
0.0000000001
 40
0.0
 40
0.0
 40
0.0
 40
0.0
 40
0.2351708329
 40
0.4995791214
 40
0.7642139051
 40
1.0
 40
1.0
 40
1.0
 40
1.0
 10
-15.7437360319
 20
24.4224399369
 30
0.0
 10
-15.7183427672
 20
24.4097433045
 30
0.0
 10
-15.6599985336
 20
24.3915994042
 30
0.0
 10
-15.5676634974
 20
24.382842909
 30
0.0
 10
-15.4752291942
 20
24.3913458358
 30
0.0
 10
-15.4167325392
 20
24.4093155829
 30
0.0
 10
-15.3912140723
 20
24.421927213
 30
0.0
  0
SPLINE
  5
3F8
100
AcDbEntity
  8
RACCORDO
100
AcDbSpline
 62
250
  6
CONTINUOUS
 70
0
 71
3
 72
12
 73
8
 74
0
 42
0.0000001
 43
0.0000001
 44
0.0000000001
 40
0.0
 40
0.0
 40
0.0
 40
0.0
 40
0.2772952868
 40
0.5367750603
 40
0.7750875836
 40
0.8885703057
 40
1.0
 40
1.0
 40
1.0
 40
1.0
 10
-15.3912140723
 20
24.0819532789
 30
0.0
 10
-15.4010859866
 20
24.0562533545
 30
0.0
 10
-15.4268860291
 20
24.0087013208
 30
0.0
 10
-15.4822945854
 20
23.9535973643
 30
0.0
 10
-15.5388295349
 20
23.9273300246
 30
0.0
 10
-15.5847851735
 20
23.9217303256
 30
0.0
 10
-15.6072279395
 20
23.9238709732
 30
0.0
 10
-15.6180575015
 20
23.9261320241
 30
0.0
  0
SPLINE
  5
3F9
100
AcDbEntity
  8
RACCORDO
100
AcDbSpline
 62
7
  6
CONTINUOUS
 70
0
 71
3
 72
11
 73
7
 74
0
 42
0.0000001
 43
0.0000001
 44
0.0000000001
 40
0.0
 40
0.0
 40
0.0
 40
0.0
 40
0.2549909828
 40
0.5145111853
 40
0.7673603395
 40
1.0
 40
1.0
 40
1.0
 40
1.0
 10
-14.6799934642
 20
23.933449756
 30
0.0
 10
-14.6994427658
 20
23.9101640715
 30
0.0
 10
-14.7440755488
 20
23.8674663144
 30
0.0
 10
-14.8224682838
 20
23.8192670707
 30
0.0
 10
-14.9074548424
 20
23.7912123438
 30
0.0
 10
-14.9667686325
 20
23.7901435836
 30
0.0
 10
-14.9938647949
 20
23.7958000684
 30
0.0
  0
SPLINE
  5
3FA
100
AcDbEntity
  8
RACCORDO
100
AcDbSpline
 62
250
  6
CONTINUOUS
 70
0
 71
3
 72
11
 73
7
 74
0
 42
0.0000001
 43
0.0000001
 44
0.0000000001
 40
0.0
 40
0.0
 40
0.0
 40
0.0
 40
0.2897496385
 40
0.5495875598
 40
0.7828489991
 40
1.0
 40
1.0
 40
1.0
 40
1.0
 10
-17.0687207117
 20
24.7449583427
 30
0.0
 10
-17.0687207117
 20
24.7297531997
 30
0.0
 10
-17.0662668504
 20
24.7008029767
 30
0.0
 10
-17.0538934774
 20
24.6612082885
 30
0.0
 10
-17.0332266515
 20
24.6295096489
 30
0.0
 10
-17.0139399327
 20
24.6148357391
 30
0.0
 10
-17.0037474486
 20
24.609739826
 30
0.0
  0
SPLINE
  5
3FB
100
AcDbEntity
  8
RACCORDO
100
AcDbSpline
 62
250
  6
CONTINUOUS
 70
0
 71
3
 72
11
 73
7
 74
0
 42
0.0000001
 43
0.0000001
 44
0.0000000001
 40
0.0
 40
0.0
 40
0.0
 40
0.0
 40
0.2897496385
 40
0.5495875598
 40
0.7828489991
 40
1.0
 40
1.0
 40
1.0
 40
1.0
 10
-15.7437360319
 20
24.0824660028
 30
0.0
 10
-15.7437360319
 20
24.0672608598
 30
0.0
 10
-15.7412821706
 20
24.0383106368
 30
0.0
 10
-15.7289087975
 20
23.9987159486
 30
0.0
 10
-15.7082419717
 20
23.967017309
 30
0.0
 10
-15.6889552528
 20
23.9523433992
 30
0.0
 10
-15.6787627688
 20
23.9472474861
 30
0.0
  0
SPLINE
  5
3FC
100
AcDbEntity
  8
RACCORDO
100
AcDbSpline
 62
250
  6
CONTINUOUS
 70
0
 71
3
 72
11
 73
7
 74
0
 42
0.0000001
 43
0.0000001
 44
0.0000000001
 40
0.0
 40
0.0
 40
0.0
 40
0.0
 40
0.3443103774
 40
0.6207911565
 40
0.8330085203
 40
1.0
 40
1.0
 40
1.0
 40
1.0
 10
0.1026520547
 20
18.4583974376
 30
0.0
 10
0.1071825542
 20
18.4510219911
 30
0.0
 10
0.1147598428
 20
18.4373218768
 30
0.0
 10
0.1220628157
 20
18.4175935629
 30
0.0
 10
0.1241678255
 20
18.4009842109
 30
0.0
 10
0.1209867319
 20
18.3914217848
 30
0.0
 10
0.1184317482
 20
18.3880907286
 30
0.0
  0
SPLINE
  5
3FD
100
AcDbEntity
  8
RACCORDO
100
AcDbSpline
 62
250
  6
CONTINUOUS
 70
0
 71
3
 72
11
 73
7
 74
0
 42
0.0000001
 43
0.0000001
 44
0.0000000001
 40
0.0
 40
0.0
 40
0.0
 40
0.0
 40
0.2465996066
 40
0.5114086341
 40
0.7699756527
 40
1.0
 40
1.0
 40
1.0
 40
1.0
 10
-2.3794178675
 20
17.7402808547
 30
0.0
 10
-2.3794178675
 20
17.7703593015
 30
0.0
 10
-2.3690750954
 20
17.8328443402
 30
0.0
 10
-2.3315914431
 20
17.9198147797
 30
0.0
 10
-2.2764520926
 20
17.994313744
 30
0.0
 10
-2.2286925767
 20
18.0319678895
 30
0.0
 10
-2.2036696115
 20
18.0446576696
 30
0.0
  0
SPLINE
  5
3FE
100
AcDbEntity
  8
RACCORDO
100
AcDbSpline
 62
250
  6
CONTINUOUS
 70
0
 71
3
 72
11
 73
7
 74
0
 42
0.0000001
 43
0.0000001
 44
0.0000000001
 40
0.0
 40
0.0
 40
0.0
 40
0.0
 40
0.2465994894
 40
0.5114083944
 40
0.7699753467
 40
1.0
 40
1.0
 40
1.0
 40
1.0
 10
-3.7044025473
 20
18.4027731946
 30
0.0
 10
-3.7044025473
 20
18.4328516271
 30
0.0
 10
-3.6940597854
 20
18.4953366364
 30
0.0
 10
-3.6565761618
 20
18.5823070472
 30
0.0
 10
-3.6014368206
 20
18.6568060333
 30
0.0
 10
-3.5536772898
 20
18.6944602125
 30
0.0
 10
-3.5286542913
 20
18.7071500096
 30
0.0
  0
SPLINE
  5
3FF
100
AcDbEntity
  8
RACCORDO
100
AcDbSpline
 62
250
  6
CONTINUOUS
 70
0
 71
3
 72
11
 73
7
 74
0
 42
0.0000001
 43
0.0000001
 44
0.0000000001
 40
0.0
 40
0.0
 40
0.0
 40
0.0
 40
0.2351708329
 40
0.4995791214
 40
0.7642139051
 40
1.0
 40
1.0
 40
1.0
 40
1.0
 10
-2.3794178675
 20
17.4003069206
 30
0.0
 10
-2.3540246028
 20
17.3876102882
 30
0.0
 10
-2.2956803691
 20
17.3694663879
 30
0.0
 10
-2.2033453329
 20
17.3607098927
 30
0.0
 10
-2.1109110298
 20
17.3692128194
 30
0.0
 10
-2.0524143748
 20
17.3871825666
 30
0.0
 10
-2.0268959078
 20
17.3997941967
 30
0.0
  0
SPLINE
  5
400
100
AcDbEntity
  8
RACCORDO
100
AcDbSpline
 62
250
  6
CONTINUOUS
 70
0
 71
3
 72
11
 73
7
 74
0
 42
0.0000001
 43
0.0000001
 44
0.0000000001
 40
0.0
 40
0.0
 40
0.0
 40
0.0
 40
0.2351709482
 40
0.4995793653
 40
0.764214221
 40
1.0
 40
1.0
 40
1.0
 40
1.0
 10
-2.3794178675
 20
17.7402808547
 30
0.0
 10
-2.3540245903
 20
17.7275842161
 30
0.0
 10
-2.295680326
 20
17.7094403113
 30
0.0
 10
-2.2033452506
 20
17.7006838249
 30
0.0
 10
-2.1109109614
 20
17.7091867665
 30
0.0
 10
-2.0524143406
 20
17.7271565176
 30
0.0
 10
-2.0268959078
 20
17.7397681308
 30
0.0
  0
SPLINE
  5
401
100
AcDbEntity
  8
RACCORDO
100
AcDbSpline
 62
7
  6
CONTINUOUS
 70
0
 71
3
 72
11
 73
7
 74
0
 42
0.0000001
 43
0.0000001
 44
0.0000000001
 40
0.0
 40
0.0
 40
0.0
 40
0.0
 40
0.2467927921
 40
0.5117852903
 40
0.7703247525
 40
1.0
 40
1.0
 40
1.0
 40
1.0
 10
-0.425615117
 20
18.5424901343
 30
0.0
 10
-0.425615117
 20
18.5726851208
 30
0.0
 10
-0.4360351204
 20
18.6354094594
 30
0.0
 10
-0.4737688942
 20
18.7226432686
 30
0.0
 10
-0.5292274999
 20
18.7972393778
 30
0.0
 10
-0.5772548239
 20
18.8348126748
 30
0.0
 10
-0.6023888207
 20
18.8473796731
 30
0.0
  0
SPLINE
  5
402
100
AcDbEntity
  8
RACCORDO
100
AcDbSpline
 62
250
  6
CONTINUOUS
 70
0
 71
3
 72
11
 73
7
 74
0
 42
0.0000001
 43
0.0000001
 44
0.0000000001
 40
0.0
 40
0.0
 40
0.0
 40
0.0
 40
0.2466958371
 40
0.5118834552
 40
0.7705706608
 40
1.0
 40
1.0
 40
1.0
 40
1.0
 10
-2.0268959078
 20
17.7397681308
 30
0.0
 10
-2.0270403362
 20
17.7699263507
 30
0.0
 10
-2.0376933502
 20
17.8325554822
 30
0.0
 10
-2.0755118047
 20
17.919681733
 30
0.0
 10
-2.130827229
 20
17.9942795511
 30
0.0
 10
-2.1786422293
 20
18.0319964829
 30
0.0
 10
-2.2036696115
 20
18.0446576696
 30
0.0
  0
SPLINE
  5
403
100
AcDbEntity
  8
RACCORDO
100
AcDbSpline
 62
250
  6
CONTINUOUS
 70
0
 71
3
 72
11
 73
7
 74
0
 42
0.0000001
 43
0.0000001
 44
0.0000000001
 40
0.0
 40
0.0
 40
0.0
 40
0.0
 40
0.2468889152
 40
0.5116858701
 40
0.7700776245
 40
1.0
 40
1.0
 40
1.0
 40
1.0
 10
0.1026520547
 20
18.8059289544
 30
0.0
 10
0.1027944781
 20
18.8361598396
 30
0.0
 10
0.0926040549
 20
18.8989772051
 30
0.0
 10
0.0549559225
 20
18.9863183405
 30
0.0
 10
-0.0006464675
 20
19.0609118543
 30
0.0
 10
-0.0488825127
 20
19.0983438676
 30
0.0
 10
-0.0741216489
 20
19.1108184932
 30
0.0
  0
SPLINE
  5
404
100
AcDbEntity
  8
RACCORDO
100
AcDbSpline
 62
250
  6
CONTINUOUS
 70
0
 71
3
 72
11
 73
7
 74
0
 42
0.0000001
 43
0.0000001
 44
0.0000000001
 40
0.0
 40
0.0
 40
0.0
 40
0.0
 40
0.2789499081
 40
0.5349528633
 40
0.7726365704
 40
1.0
 40
1.0
 40
1.0
 40
1.0
 10
-1.4114478095
 20
19.7794815735
 30
0.0
 10
-1.4209575132
 20
19.7842916765
 30
0.0
 10
-1.4399860178
 20
19.7920934738
 30
0.0
 10
-1.469185871
 20
19.7977514078
 30
0.0
 10
-1.496988041
 20
19.7965576273
 30
0.0
 10
-1.5141510004
 20
19.7910203901
 30
0.0
 10
-1.5219597815
 20
19.7872160789
 30
0.0
  0
SPLINE
  5
405
100
AcDbEntity
  8
RACCORDO
100
AcDbSpline
 62
7
  6
CONTINUOUS
 70
0
 71
3
 72
11
 73
7
 74
0
 42
0.0000001
 43
0.0000001
 44
0.0000000001
 40
0.0
 40
0.0
 40
0.0
 40
0.0
 40
0.2549939896
 40
0.5145163914
 40
0.7673666943
 40
1.0
 40
1.0
 40
1.0
 40
1.0
 10
-1.3156752997
 20
17.2512906738
 30
0.0
 10
-1.3351247056
 20
17.2280048646
 30
0.0
 10
-1.3797577285
 20
17.1853066177
 30
0.0
 10
-1.4581504693
 20
17.1371089958
 30
0.0
 10
-1.5431369051
 20
17.109049085
 30
0.0
 10
-1.6024481509
 20
17.1079938091
 30
0.0
 10
-1.6295443443
 20
17.1136455715
 30
0.0
  0
SPLINE
  5
406
100
AcDbEntity
  8
RACCORDO
100
AcDbSpline
 62
7
  6
CONTINUOUS
 70
0
 71
3
 72
11
 73
7
 74
0
 42
0.0000001
 43
0.0000001
 44
0.0000000001
 40
0.0
 40
0.0
 40
0.0
 40
0.0
 40
0.2790833937
 40
0.53522907
 40
0.7729212504
 40
1.0
 40
1.0
 40
1.0
 40
1.0
 10
-1.9458976882
 20
19.5191341069
 30
0.0
 10
-1.9554652571
 20
19.5239178913
 30
0.0
 10
-1.9745967709
 20
19.5316686239
 30
0.0
 10
-2.0039157501
 20
19.5372624472
 30
0.0
 10
-2.0317985202
 20
19.5360286899
 30
0.0
 10
-2.0490050588
 20
19.5304754232
 30
0.0
 10
-2.0568298064
 20
19.5266641189
 30
0.0
  0
SPLINE
  5
407
100
AcDbEntity
  8
RACCORDO
100
AcDbSpline
 62
250
  6
CONTINUOUS
 70
0
 71
3
 72
12
 73
8
 74
0
 42
0.0000001
 43
0.0000001
 44
0.0000000001
 40
0.0
 40
0.0
 40
0.0
 40
0.0
 40
0.2772952868
 40
0.5367750603
 40
0.7750875836
 40
0.8885703057
 40
1.0
 40
1.0
 40
1.0
 40
1.0
 10
-2.0268959078
 20
17.3997941967
 30
0.0
 10
-2.0367678222
 20
17.3740942722
 30
0.0
 10
-2.0625678647
 20
17.3265422386
 30
0.0
 10
-2.117976421
 20
17.2714382821
 30
0.0
 10
-2.1745113705
 20
17.2451709424
 30
0.0
 10
-2.2204670091
 20
17.2395712434
 30
0.0
 10
-2.2429097751
 20
17.241711891
 30
0.0
 10
-2.253739337
 20
17.2439729419
 30
0.0
  0
SPLINE
  5
408
100
AcDbEntity
  8
RACCORDO
100
AcDbSpline
 62
250
  6
CONTINUOUS
 70
0
 71
3
 72
11
 73
7
 74
0
 42
0.0000001
 43
0.0000001
 44
0.0000000001
 40
0.0
 40
0.0
 40
0.0
 40
0.0
 40
0.2897496385
 40
0.5495875598
 40
0.7828489991
 40
1.0
 40
1.0
 40
1.0
 40
1.0
 10
-2.3794178675
 20
17.4003069206
 30
0.0
 10
-2.3794178675
 20
17.3851017776
 30
0.0
 10
-2.3769640061
 20
17.3561515545
 30
0.0
 10
-2.3645906331
 20
17.3165568663
 30
0.0
 10
-2.3439238072
 20
17.2848582268
 30
0.0
 10
-2.3246370884
 20
17.270184317
 30
0.0
 10
-2.3144446044
 20
17.2650884038
 30
0.0
  0
SPLINE
  5
409
100
AcDbEntity
  8
RACCORDO
100
AcDbSpline
 62
250
  6
CONTINUOUS
 70
0
 71
3
 72
11
 73
7
 74
0
 42
0.0000001
 43
0.0000001
 44
0.0000000001
 40
0.0
 40
0.0
 40
0.0
 40
0.0
 40
0.2795161746
 40
0.5356960484
 40
0.7731445138
 40
1.0
 40
1.0
 40
1.0
 40
1.0
 10
-3.5286542913
 20
18.7071500096
 30
0.0
 10
-3.5384507789
 20
18.7119911868
 30
0.0
 10
-3.5580285678
 20
18.7197956095
 30
0.0
 10
-3.587996931
 20
18.7252484069
 30
0.0
 10
-3.6164122833
 20
18.7236260947
 30
0.0
 10
-3.6338490052
 20
18.7176460078
 30
0.0
 10
-3.641739782
 20
18.7135976426
 30
0.0
  0
SPLINE
  5
40A
100
AcDbEntity
  8
RACCORDO
100
AcDbSpline
 62
250
  6
CONTINUOUS
 70
0
 71
3
 72
11
 73
7
 74
0
 42
0.0000001
 43
0.0000001
 44
0.0000000001
 40
0.0
 40
0.0
 40
0.0
 40
0.0
 40
0.2897496385
 40
0.5495875598
 40
0.7828489991
 40
1.0
 40
1.0
 40
1.0
 40
1.0
 10
-3.7044025473
 20
18.0627992605
 30
0.0
 10
-3.7044025473
 20
18.0475941175
 30
0.0
 10
-3.701948686
 20
18.0186438945
 30
0.0
 10
-3.6895753129
 20
17.9790492063
 30
0.0
 10
-3.6689084871
 20
17.9473505667
 30
0.0
 10
-3.6496217682
 20
17.9326766569
 30
0.0
 10
-3.6394292842
 20
17.9275807438
 30
0.0
  0
SPLINE
  5
40B
100
AcDbEntity
  8
RACCORDO
100
AcDbSpline
 62
250
  6
CONTINUOUS
 70
0
 71
3
 72
11
 73
7
 74
0
 42
0.0000001
 43
0.0000001
 44
0.0000000001
 40
0.0
 40
0.0
 40
0.0
 40
0.0
 40
0.3025814593
 40
0.565482116
 40
0.7934320761
 40
1.0
 40
1.0
 40
1.0
 40
1.0
 10
-3.7044025473
 20
18.4027731946
 30
0.0
 10
-3.7152571555
 20
18.4082004987
 30
0.0
 10
-3.7348755565
 20
18.4198401844
 30
0.0
 10
-3.7586868959
 20
18.4413607012
 30
0.0
 10
-3.773966131
 20
18.4653149029
 30
0.0
 10
-3.7776259057
 20
18.4828762592
 30
0.0
 10
-3.7776258496
 20
18.4911612061
 30
0.0
  0
SPLINE
  5
40C
100
AcDbEntity
  8
RACCORDO
100
AcDbSpline
 62
250
  6
CONTINUOUS
 70
0
 71
3
 72
11
 73
7
 74
0
 42
0.0000001
 43
0.0000001
 44
0.0000000001
 40
0.0
 40
0.0
 40
0.0
 40
0.0
 40
0.3025823249
 40
0.5654825874
 40
0.7934322572
 40
1.0
 40
1.0
 40
1.0
 40
1.0
 10
-3.7044025473
 20
18.0627992605
 30
0.0
 10
-3.7152572164
 20
18.068226595
 30
0.0
 10
-3.7348756895
 20
18.0798663255
 30
0.0
 10
-3.7586870597
 20
18.1013869529
 30
0.0
 10
-3.7739662567
 20
18.1253412378
 30
0.0
 10
-3.7776259451
 20
18.1429026457
 30
0.0
 10
-3.7776258499
 20
18.1511876081
 30
0.0
  0
SPLINE
  5
40D
100
AcDbEntity
  8
RACCORDO
100
AcDbSpline
 62
250
  6
CONTINUOUS
 70
0
 71
3
 72
11
 73
7
 74
0
 42
0.0000001
 43
0.0000001
 44
0.0000000001
 40
0.0
 40
0.0
 40
0.0
 40
0.0
 40
0.227110952
 40
0.4646760174
 40
0.7207663845
 40
1.0
 40
1.0
 40
1.0
 40
1.0
 10
-6.0705201963
 20
23.0090895416
 30
0.0
 10
-6.0642394159
 20
23.0122301601
 30
0.0
 10
-6.0503981065
 20
23.0168359447
 30
0.0
 10
-6.0279099364
 20
23.0179604059
 30
0.0
 10
-6.0042422991
 20
23.0135141428
 30
0.0
 10
-5.9887998622
 20
23.0072704272
 30
0.0
 10
-5.981077511
 20
23.0034092516
 30
0.0
  0
SPLINE
  5
40E
100
AcDbEntity
  8
RACCORDO
100
AcDbSpline
 62
7
  6
CONTINUOUS
 70
0
 71
3
 72
11
 73
7
 74
0
 42
0.0000001
 43
0.0000001
 44
0.0000000001
 40
0.0
 40
0.0
 40
0.0
 40
0.0
 40
0.2143931491
 40
0.4477463855
 40
0.7084792269
 40
1.0
 40
1.0
 40
1.0
 40
1.0
 10
-6.1320767445
 20
22.9783113442
 30
0.0
 10
-6.1264379011
 20
22.9811308597
 30
0.0
 10
-6.1136298072
 20
22.9850941694
 30
0.0
 10
-6.0925836455
 20
22.9854088312
 30
0.0
 10
-6.0698508999
 20
22.9804943005
 30
0.0
 10
-6.0547814876
 20
22.9742247235
 30
0.0
 10
-6.0471140274
 20
22.9703909934
 30
0.0
  0
SPLINE
  5
40F
100
AcDbEntity
  8
RACCORDO
100
AcDbSpline
 62
7
  6
CONTINUOUS
 70
0
 71
3
 72
11
 73
7
 74
0
 42
0.0000001
 43
0.0000001
 44
0.0000000001
 40
0.0
 40
0.0
 40
0.0
 40
0.0
 40
0.2250513632
 40
0.4620103533
 40
0.7188096933
 40
1.0
 40
1.0
 40
1.0
 40
1.0
 10
-4.8329985145
 20
23.0498661628
 30
0.0
 10
-4.8387395873
 20
23.0521549285
 30
0.0
 10
-4.8512485874
 20
23.0551973527
 30
0.0
 10
-4.8711717303
 20
23.0547069117
 30
0.0
 10
-4.8919342579
 20
23.0493949761
 30
0.0
 10
-4.9053834052
 20
23.0430794945
 30
0.0
 10
-4.9121087312
 20
23.0392844483
 30
0.0
  0
SPLINE
  5
410
100
AcDbEntity
  8
RACCORDO
100
AcDbSpline
 62
250
  6
CONTINUOUS
 70
0
 71
3
 72
15
 73
11
 74
0
 42
0.0000001
 43
0.0000001
 44
0.0000000001
 40
0.0
 40
0.0
 40
0.0
 40
0.0
 40
0.1109318219
 40
0.2314291971
 40
0.3591584417
 40
0.4912948844
 40
0.6246941119
 40
0.7560625163
 40
0.882152807
 40
1.0
 40
1.0
 40
1.0
 40
1.0
 10
-5.981077511
 20
23.0034092516
 30
0.0
 10
-5.9448344945
 20
23.021530469
 30
0.0
 10
-5.8663946315
 20
23.0537915714
 30
0.0
 10
-5.7398898515
 20
23.0893988851
 30
0.0
 10
-5.6028095901
 20
23.113370686
 30
0.0
 10
-5.4594218128
 20
23.1248620885
 30
0.0
 10
-5.314254088
 20
23.1234165372
 30
0.0
 10
-5.171999367
 20
23.108980954
 30
0.0
 10
-5.0373782513
 20
23.0819570658
 30
0.0
 10
-4.9521884386
 20
23.0549898462
 30
0.0
 10
-4.9121088772
 20
23.0392845213
 30
0.0
  0
SPLINE
  5
411
100
AcDbEntity
  8
RACCORDO
100
AcDbSpline
 62
250
  6
CONTINUOUS
 70
0
 71
3
 72
15
 73
11
 74
0
 42
0.0000001
 43
0.0000001
 44
0.0000000001
 40
0.0
 40
0.0
 40
0.0
 40
0.0
 40
0.12009165
 40
0.247104143
 40
0.3785048112
 40
0.511363638
 40
0.6426248013
 40
0.7693702989
 40
0.8890933007
 40
1.0
 40
1.0
 40
1.0
 40
1.0
 10
21.9473271407
 20
13.5090016802
 30
0.0
 10
21.9481478022
 20
13.5680495985
 30
0.0
 10
21.9396535414
 20
13.6898221116
 30
0.0
 10
21.9005937644
 20
13.8723308306
 30
0.0
 10
21.8362922031
 20
14.0542205378
 30
0.0
 10
21.7491583498
 20
14.2286488991
 30
0.0
 10
21.642453657
 20
14.3891183446
 30
0.0
 10
21.5201119464
 20
14.5296478932
 30
0.0
 10
21.3867016581
 20
14.6449677389
 30
0.0
 10
21.2894326691
 20
14.7046665836
 30
0.0
 10
21.2403280553
 20
14.7283947268
 30
0.0
  0
SPLINE
  5
412
100
AcDbEntity
  8
RACCORDO
100
AcDbSpline
 62
250
  6
CONTINUOUS
 70
0
 71
3
 72
11
 73
7
 74
0
 42
0.0000001
 43
0.0000001
 44
0.0000000001
 40
0.0
 40
0.0
 40
0.0
 40
0.0
 40
0.2783833279
 40
0.5342197934
 40
0.7721349973
 40
1.0
 40
1.0
 40
1.0
 40
1.0
 10
8.9751108346
 20
20.8610033372
 30
0.0
 10
8.9382125661
 20
20.8800937627
 30
0.0
 10
8.8642882042
 20
20.9112392073
 30
0.0
 10
8.7505758161
 20
20.9346154411
 30
0.0
 10
8.6418630176
 20
20.9314804971
 30
0.0
 10
8.5743632567
 20
20.9110548097
 30
0.0
 10
8.5434914116
 20
20.8967970391
 30
0.0
  0
SPLINE
  5
413
100
AcDbEntity
  8
RACCORDO
100
AcDbSpline
 62
250
  6
CONTINUOUS
 70
0
 71
3
 72
11
 73
7
 74
0
 42
0.0000001
 43
0.0000001
 44
0.0000000001
 40
0.0
 40
0.0
 40
0.0
 40
0.0
 40
0.2279238821
 40
0.466185713
 40
0.7221148162
 40
1.0
 40
1.0
 40
1.0
 40
1.0
 10
9.4020553009
 20
20.8872150996
 30
0.0
 10
9.371717713
 20
20.9015029529
 30
0.0
 10
9.3053797323
 20
20.9223458989
 30
0.0
 10
9.1982646748
 20
20.9273996633
 30
0.0
 10
9.0856714777
 20
20.9071585644
 30
0.0
 10
9.0119888636
 20
20.8786539731
 30
0.0
 10
8.9751108346
 20
20.8610033372
 30
0.0
  0
SPLINE
  5
414
100
AcDbEntity
  8
RACCORDO
100
AcDbSpline
 62
250
  6
CONTINUOUS
 70
0
 71
3
 72
13
 73
9
 74
0
 42
0.0000001
 43
0.0000001
 44
0.0000000001
 40
0.0
 40
0.0
 40
0.0
 40
0.0
 40
0.1027479741
 40
0.2083731001
 40
0.436698199
 40
0.5633163369
 40
0.6992825423
 40
1.0
 40
1.0
 40
1.0
 40
1.0
 10
22.2279706907
 20
-5.9314482863
 30
0.0
 10
22.2277873333
 20
-5.9473878424
 30
0.0
 10
22.2242793588
 20
-5.9797592117
 30
0.0
 10
22.204519372
 20
-6.0449039803
 30
0.0
 10
22.1659008907
 20
-6.1066164457
 30
0.0
 10
22.1137637206
 20
-6.1622432922
 30
0.0
 10
22.0469538306
 20
-6.2188546232
 30
0.0
 10
21.9887573259
 20
-6.2544488219
 30
0.0
 10
21.9473271407
 20
-6.2758999282
 30
0.0
  0
SPLINE
  5
415
100
AcDbEntity
  8
RACCORDO
100
AcDbSpline
 62
250
  6
CONTINUOUS
 70
0
 71
3
 72
11
 73
7
 74
0
 42
0.0000001
 43
0.0000001
 44
0.0000000001
 40
0.0
 40
0.0
 40
0.0
 40
0.0
 40
0.2279889845
 40
0.4659719892
 40
0.7217764295
 40
1.0
 40
1.0
 40
1.0
 40
1.0
 10
21.6751943802
 20
14.7507612959
 30
0.0
 10
21.6445981589
 20
14.7660589221
 30
0.0
 10
21.5773805448
 20
14.7887064559
 30
0.0
 10
21.4682103297
 20
14.7952862705
 30
0.0
 10
21.3532206989
 20
14.7753857009
 30
0.0
 10
21.2779819759
 20
14.7464167215
 30
0.0
 10
21.2403280553
 20
14.7283947268
 30
0.0
  0
SPLINE
  5
416
100
AcDbEntity
  8
RACCORDO
100
AcDbSpline
 62
250
  6
CONTINUOUS
 70
0
 71
3
 72
13
 73
9
 74
0
 42
0.0000001
 43
0.0000001
 44
0.0000000001
 40
0.0
 40
0.0
 40
0.0
 40
0.0
 40
0.1028084147
 40
0.2083806011
 40
0.4364798165
 40
0.563036986
 40
0.6990124808
 40
1.0
 40
1.0
 40
1.0
 40
1.0
 10
22.2279872343
 20
13.8563308654
 30
0.0
 10
22.2279873089
 20
13.8402830327
 30
0.0
 10
22.2248100807
 20
13.8076713602
 30
0.0
 10
22.2055161084
 20
13.7419788945
 30
0.0
 10
22.1670164808
 20
13.679691116
 30
0.0
 10
22.1147663389
 20
13.6235867615
 30
0.0
 10
22.0476302403
 20
13.5664709169
 30
0.0
 10
21.9890489138
 20
13.5306037605
 30
0.0
 10
21.9473271407
 20
13.5090016802
 30
0.0
  0
SPLINE
  5
417
100
AcDbEntity
  8
RACCORDO
100
AcDbSpline
 62
250
  6
CONTINUOUS
 70
0
 71
3
 72
14
 73
10
 74
0
 42
0.0000001
 43
0.0000001
 44
0.0000000001
 40
0.0
 40
0.0
 40
0.0
 40
0.0
 40
0.1083200199
 40
0.2186901904
 40
0.3329587629
 40
0.4526225401
 40
0.5787530781
 40
0.7119879285
 40
1.0
 40
1.0
 40
1.0
 40
1.0
 10
21.7028111031
 20
-6.8086515069
 30
0.0
 10
21.7223706931
 20
-6.7980986719
 30
0.0
 10
21.7600431955
 20
-6.773221286
 30
0.0
 10
21.8098769916
 20
-6.7260354086
 30
0.0
 10
21.8527010834
 20
-6.6694762701
 30
0.0
 10
21.8880288618
 20
-6.6043076511
 30
0.0
 10
21.9155193237
 20
-6.5313208731
 30
0.0
 10
21.9420337
 20
-6.421973326
 30
0.0
 10
21.9481603443
 20
-6.3349874582
 30
0.0
 10
21.9473271407
 20
-6.2758999282
 30
0.0
  0
ELLIPSE
  5
418
100
AcDbEntity
  8
RACCORDO
100
AcDbEllipse
 62
7
  6
CONTINUOUS
 10
4.8310879135
 20
20.5169267915
 30
0.0
 11
0.499996712
 21
0.0035883639
 31
0.0
 40
0.5053247124
 41
-0.7715714568
 42
-0.0036265884
  0
ELLIPSE
  5
419
100
AcDbEntity
  8
ASSI
100
AcDbEllipse
 62
7
  6
CONTINUOUS
 10
-5.7334176131
 20
25.6391692026
 30
0.0
 11
0.2257019663
 21
0.4461636818
 31
0.0
 40
0.6159267166
 41
0.5380090616
 42
0.6817883054
  0
ELLIPSE
  5
41A
100
AcDbEntity
  8
RACCORDO
100
AcDbEllipse
 62
7
  6
CONTINUOUS
 10
-16.6854972349
 20
2.6167392636
 30
0.0
 11
0.2267599918
 21
0.4456316896
 31
0.0
 40
0.6176975122
 41
-2.4683673663
 42
-2.4612419154
  0
ELLIPSE
  5
41B
100
AcDbEntity
  8
RACCORDO
100
AcDbEllipse
 62
7
  6
CONTINUOUS
 10
0.3167985327
 20
-21.1244146994
 30
0.0
 11
-0.2012801021
 21
0.4024798509
 31
0.0
 40
0.6124778111
 41
-3.144909013
 42
-2.255529033
  0
ELLIPSE
  5
41C
100
AcDbEntity
  8
RACCORDO
100
AcDbEllipse
 62
7
  6
CONTINUOUS
 10
0.3167985327
 20
16.8789554692
 30
0.0
 11
-0.2013341403
 21
0.4025279144
 31
0.0
 40
0.6122950388
 41
-2.2557482655
 42
-0.6847996396
  0
ELLIPSE
  5
41D
100
AcDbEntity
  8
RACCORDO
100
AcDbEllipse
 62
7
  6
CONTINUOUS
 10
5.0101316194
 20
-16.5627688999
 30
0.0
 11
0.9987332359
 21
0.6172510855
 31
0.0
 40
0.0815198604
 41
-2.3978073241
 42
-1.2985018509
  0
ELLIPSE
  5
41E
100
AcDbEntity
  8
RACCORDO
100
AcDbEllipse
 62
7
  6
CONTINUOUS
 10
-6.780600669
 20
26.2472647886
 30
0.0
 11
0.9987332359
 21
0.6172510855
 31
0.0
 40
0.0815198604
 41
0.0503395054
 42
0.7263320369
  0
ELLIPSE
  5
41F
100
AcDbEntity
  8
RACCORDO
100
AcDbEllipse
 62
7
  6
CONTINUOUS
 10
-11.0655092771
 20
23.1166495339
 30
0.0
 11
0.4999985559
 21
0.0023864752
 31
0.0
 40
0.5035541159
 41
2.3596088132
 42
3.0002042076
  0
ELLIPSE
  5
420
100
AcDbEntity
  8
RACCORDO
100
AcDbEllipse
 62
7
  6
CONTINUOUS
 10
4.8310879135
 20
-16.7719892188
 30
0.0
 11
0.499366618
 21
0.3086255427
 31
0.0
 40
0.0815198604
 41
6.1080157147
 42
7.0007906979
  0
ELLIPSE
  5
421
100
AcDbEntity
  8
DRAFT
100
AcDbEllipse
 62
7
  6
CONTINUOUS
 10
0.175425647
 20
21.936825811
 30
0.0
 11
0.4279673669
 21
-0.0030279657
 31
0.0
 40
0.4946372042
 41
-0.7760807437
 42
0.0034996507
  0
ELLIPSE
  5
422
100
AcDbEntity
  8
ASSI
100
AcDbEllipse
 62
7
  6
CONTINUOUS
 10
0.4274146576
 20
22.5587530672
 30
0.0
 11
0.221538876
 21
0.4482453432
 31
0.0
 40
0.6088015717
 41
0.5323082896
 42
0.6760875334
  0
ELLIPSE
  5
423
100
AcDbEntity
  8
RACCORDO
100
AcDbEllipse
 62
7
  6
CONTINUOUS
 10
-18.6563813965
 20
-4.1994552485
 30
0.0
 11
0.2267599918
 21
0.4456316896
 31
0.0
 40
0.6176975122
 41
0.6978040307
 42
0.7077322243
  0
ELLIPSE
  5
424
100
AcDbEntity
  8
RACCORDO
100
AcDbEllipse
 62
7
  6
CONTINUOUS
 10
4.8310879135
 20
21.4472694503
 30
0.0
 11
-0.3708957
 21
0.6001218488
 31
0.0
 40
0.5587454355
 41
-3.1744788413
 42
-2.2817038581
  0
ELLIPSE
  5
425
100
AcDbEntity
  8
RACCORDO
100
AcDbEllipse
 62
7
  6
CONTINUOUS
 10
5.0101316194
 20
20.3518986443
 30
0.0
 11
-0.7417913999
 21
1.2002436976
 31
0.0
 40
0.5587454355
 41
5.1248137075
 42
6.2241191807
  0
ELLIPSE
  5
426
100
AcDbEntity
  8
RACCORDO
100
AcDbEllipse
 62
7
  6
CONTINUOUS
 10
-11.0655092771
 20
21.8840399287
 30
0.0
 11
0.4998587701
 21
0.0223649649
 31
0.0
 40
0.5313301283
 41
3.1178240551
 42
3.9032222197
  0
ELLIPSE
  5
427
100
AcDbEntity
  8
RACCORDO
100
AcDbEllipse
 62
7
  6
CONTINUOUS
 10
-5.5542021774
 20
19.1283863789
 30
0.0
 11
0.4998587701
 21
0.0223649649
 31
0.0
 40
0.5313301283
 41
-2.3799630874
 42
-0.8149845248
  0
ELLIPSE
  5
428
100
AcDbEntity
  8
RACCORDO
100
AcDbEllipse
 62
7
  6
CONTINUOUS
 10
-5.5542021774
 20
20.3609959841
 30
0.0
 11
0.4999985559
 21
0.0023864752
 31
0.0
 40
0.5035541159
 41
-1.4342147631
 42
-0.7936193687
  0
ELLIPSE
  5
429
100
AcDbEntity
  8
DRAFT
100
AcDbEllipse
 62
7
  6
CONTINUOUS
 10
-5.3795627822
 20
24.7143200255
 30
0.0
 11
0.4279673669
 21
-0.0030279657
 31
0.0
 40
0.4946372042
 41
-0.7818985079
 42
0.0034996501
  0
ELLIPSE
  5
42A
100
AcDbEntity
  8
RACCORDO
100
AcDbEllipse
 62
7
  6
CONTINUOUS
 10
-16.1889510622
 20
23.8813908842
 30
0.0
 11
0.249929385
 21
0.0111824824
 31
0.0
 40
0.5313301283
 41
3.1178240563
 42
3.9032222197
  0
ELLIPSE
  5
42B
100
AcDbEntity
  8
RACCORDO
100
AcDbEllipse
 62
7
  6
CONTINUOUS
 10
-14.8557387285
 20
23.2147847174
 30
0.0
 11
0.249929385
 21
0.0111824824
 31
0.0
 40
0.5313301283
 41
-2.3799630874
 42
-0.8149845248
  0
ELLIPSE
  5
42C
100
AcDbEntity
  8
RACCORDO
100
AcDbEllipse
 62
7
  6
CONTINUOUS
 10
-1.4914205641
 20
16.5326256351
 30
0.0
 11
0.249929385
 21
0.0111824824
 31
0.0
 40
0.5313301283
 41
-2.3799630874
 42
-0.8149845248
  0
ELLIPSE
  5
42D
100
AcDbEntity
  8
RACCORDO
100
AcDbEllipse
 62
7
  6
CONTINUOUS
 10
-2.8246328977
 20
17.199231802
 30
0.0
 11
0.249929385
 21
0.0111824824
 31
0.0
 40
0.5313301283
 41
3.1178240563
 42
3.9032222197
  0
ELLIPSE
  5
42E
100
AcDbEntity
  8
RACCORDO
100
AcDbEllipse
 62
7
  6
CONTINUOUS
 10
21.2279873404
 20
8.6634491575
 30
0.0
 11
0.9980132943
 21
0.1905986291
 31
0.0
 40
0.3305568633
 41
-0.8309903123
 42
-0.0630454413
  0
ELLIPSE
  5
42F
100
AcDbEntity
  8
RACCORDO
100
AcDbEllipse
 62
7
  6
CONTINUOUS
 10
13.6836334939
 20
17.6285077887
 30
0.0
 11
0.8015998653
 21
0.7095690041
 31
0.0
 40
0.2925003
 41
0.1171638094
 42
0.7844297192
  0
ELLIPSE
  5
430
100
AcDbEntity
  8
RACCORDO
100
AcDbEllipse
 62
7
  6
CONTINUOUS
 10
19.3404877434
 20
14.8000806639
 30
0.0
 11
0.8015998653
 21
0.7095690041
 31
0.0
 40
0.2925003
 41
0.1171638094
 42
0.7844297192
  0
ELLIPSE
  5
431
100
AcDbEntity
  8
RACCORDO
100
AcDbEllipse
 62
7
  6
CONTINUOUS
 10
6.1682579321
 20
17.2639155298
 30
0.0
 11
-0.894612936
 21
1.7887945813
 31
0.0
 40
0.6124635976
 41
-2.2555607096
 42
-1.470288718
  0
ELLIPSE
  5
432
100
AcDbEntity
  8
RACCORDO
100
AcDbEllipse
 62
7
  6
CONTINUOUS
 10
6.1682579321
 20
-13.2186985357
 30
0.0
 11
-0.894811907
 21
1.788971565
 31
0.0
 40
0.6123121697
 41
-3.0410143285
 42
-2.2557423369
  0
ELLIPSE
  5
433
100
AcDbEntity
  8
0
100
AcDbEllipse
 62
7
  6
CONTINUOUS
 10
8.3690156581
 20
-0.2961342456
 30
0.0
 11
0.8766937781
 21
1.8149893181
 31
0.0
 40
0.6016130338
 41
0.6805509319
 42
1.272789154
  0
ELLIPSE
  5
434
100
AcDbEntity
  8
RACCORDO
100
AcDbEllipse
 62
7
  6
CONTINUOUS
 10
21.2279873404
 20
5.4996938721
 30
0.0
 11
0.9839279921
 21
-0.2843414674
 31
0.0
 40
0.627997363
 41
-0.5884163501
 42
0.9649266842
  0
ELLIPSE
  5
435
100
AcDbEntity
  8
RACCORDO
100
AcDbEllipse
 62
7
  6
CONTINUOUS
 10
10.8502697167
 20
19.0451896773
 30
0.0
 11
-0.3059798455
 21
1.1103385921
 31
0.0
 40
0.6705926962
 41
4.8543332371
 42
6.4076762714
  0
ELLIPSE
  5
436
100
AcDbEntity
  8
RACCORDO
100
AcDbEllipse
 62
7
  6
CONTINUOUS
 10
16.5071239662
 20
16.2167625525
 30
0.0
 11
-0.3059798455
 21
1.1103385921
 31
0.0
 40
0.6705926962
 41
4.8543332371
 42
6.4076762714
  0
ELLIPSE
  5
437
100
AcDbEntity
  8
0
100
AcDbEllipse
 62
7
  6
CONTINUOUS
 10
8.3690156581
 20
-0.2961342456
 30
0.0
 11
0.8766937781
 21
1.8149893181
 31
0.0
 40
0.6016130338
 41
-3.0613792266
 42
-2.4691410043
  0
ENDSEC
  0
SECTION
  2
OBJECTS
  0
DICTIONARY
  5
C
100
AcDbDictionary
280
0
281
1
  3
ACAD_GROUP
350
D
  3
ACAD_MLINESTYLE
350
17
  3
ACAD_LAYOUT
350
1A
  3
ACAD_PLOTSETTINGS
350
19
  3
ACAD_PLOTSTYLENAME
350
E
  0
DICTIONARY
  5
D
102
{ACAD_REACTORS
330
C
102
}
100
AcDbDictionary
280
0
281
1
  0
ACDBDICTIONARYWDFLT
  5
E
102
{ACAD_REACTORS
330
C
102
}
100
AcDbDictionary
281
1
  3
Normal
350
F
100
AcDbDictionaryWithDefault
340
F
  0
DICTIONARY
  5
17
102
{ACAD_REACTORS
330
C
102
}
100
AcDbDictionary
280
0
281
1
  3
Standard
350
18
  0
DICTIONARY
  5
19
102
{ACAD_REACTORS
330
C
102
}
100
AcDbDictionary
281
1
  0
DICTIONARY
  5
1A
102
{ACAD_REACTORS
330
C
102
}
100
AcDbDictionary
281
1
  3
Model
350
438
  3
Layout1
350
439
  0
ACDBPLACEHOLDER
  5
F
102
{ACAD_REACTORS
330
E
102
}
  0
MLINESTYLE
  5
18
102
{ACAD_REACTORS
330
17
102
}
100
AcDbMlineStyle
  2
STANDARD
 70
0
  3

 62
256
 51
90.0
 52
90.0
 71
2
 49
0.5
 62
256
  6
BYLAYER
 49
-0.5
 62
256
  6
BYLAYER
  0
LAYOUT
  5
438
102
{ACAD_REACTORS
330
1A
102
}
100
AcDbPlotSettings
  1

  2
none_device
  4
ANSI_C_(22.00_x_17.00_Inches)
  6

 40
0.0
 41
0.0
 42
0.0
 43
0.0
 44
558.8
 45
431.8
 46
0.0
 47
0.0
 48
0.0
 49
0.0
140
0.0
141
0.0
142
1.0
143
1.0
 70
1024
 72
1
 73
0
 74
0
  7

 75
0
147
1.0
148
0.0
149
0.0
100
AcDbLayout
  1
Model
 70
0
 71
0
 10
0.0
 20
0.0
 11
558.8
 21
431.8
 12
0.0
 22
0.0
 32
0.0
 14
0.0
 24
0.0
 34
0.0
 15
0.0
 25
0.0
 35
0.0
146
0.0
 13
0.0
 23
0.0
 33
0.0
 16
1.0
 26
0.0
 36
0.0
 17
0.0
 27
1.0
 37
0.0
 76
0
330
212
345
0
346
0
  0
LAYOUT
  5
439
102
{ACAD_REACTORS
330
1A
102
}
100
AcDbPlotSettings
  1

  2
none_device
  4
ANSI_C_(22.00_x_17.00_Inches)
  6

 40
0.0
 41
0.0
 42
0.0
 43
0.0
 44
558.8
 45
431.8
 46
0.0
 47
0.0
 48
0.0
 49
0.0
140
0.0
141
0.0
142
1.0
143
1.0
 70
0
 72
1
 73
0
 74
0
  7

 75
0
147
1.0
148
0.0
149
0.0
100
AcDbLayout
  1
Layout1
 70
0
 71
1
 10
0.0
 20
0.0
 11
558.8
 21
431.8
 12
0.0
 22
0.0
 32
0.0
 14
0.0
 24
0.0
 34
0.0
 15
0.0
 25
0.0
 35
0.0
146
0.0
 13
0.0
 23
0.0
 33
0.0
 16
1.0
 26
0.0
 36
0.0
 17
0.0
 27
1.0
 37
0.0
 76
0
330
213
345
0
346
0
  0
ENDSEC
  0
EOF
