  0
SECTION
  2
HEADER
  9
$ACADVER
  1
AC1024
  9
$DWGCODEPAGE
  3
ANSI_1252
  9
$EXTMAX
 10
297.0
 20
210.0
 30
0.0
  9
$EXTMIN
 10
0.0
 20
0.0
 30
0.0
  9
$LIMMIN
 10
0.0
 20
0.0
  9
$LIMMAX
 10
297.0
 20
210.0
  9
$VIEWCTR
 10
148.5
 20
105.0
  9
$VIEWSIZE
 40
210.0
  9
$CLAYER
  8
0
  9
$LTSCALE
 40
16.335
  9
$CELTYPE
  6
BYLAYER
  9
$DIMSCALE
 40
1.0
  9
$DIMASZ
 40
3.0
  9
$DIMEXO
 40
0.5
  9
$DIMDLI
 40
11.286
  9
$DIMEXE
 40
1.5
  9
$DIMCEN
 40
2.673
  9
$DIMLFAC
 40
1.0
  9
$DIMBLK
  1
_FILLED
  9
$DIMALT
 70
0
  9
$DIMALTF
 40
0.0393700787
  9
$DIMTXT
 40
3.0
  9
$DIMTOL
 70
1
  9
$DIMLIM
 70
0
  9
$DIMTFAC
 40
1.0
  9
$DIMTP
 40
0.01
  9
$DIMTM
 40
0.01
  9
$DIMGAP
 40
0.625
  9
$DIMDSEP
 70
44
  9
$AUNITS
 70
0
  9
$PDMODE
 70
3
  9
$PDSIZE
 40
3.0
  9
$HANDSEED
  5
6BD
  9
$TILEMODE
 70
1
  9
$MEASUREMENT
 70
1
  9
$INSUNITS
 70
4
  0
ENDSEC
  0
SECTION
  2
CLASSES
  0
CLASS
  1
ACDBDICTIONARYWDFLT
  2
AcDbDictionaryWithDefault
  3
AutoCAD 2000
 90
0
 91
1
280
0
281
0
  0
CLASS
  1
ACDBPLACEHOLDER
  2
AcDbPlaceHolder
  3
AutoCAD 2000
 90
0
 91
1
280
0
281
0
  0
CLASS
  1
LAYOUT
  2
AcDbLayout
  3
AutoCAD 2000
 90
0
 91
0
280
0
281
0
  0
ENDSEC
  0
SECTION
  2
TABLES
  0
TABLE
  2
VPORT
  5
8
100
AcDbSymbolTable
 70
2
  0
VPORT
  5
1F4
100
AcDbSymbolTableRecord
100
AcDbViewportTableRecord
  2
*ACTIVE
 70
0
 10
0.0
 20
0.0
 11
1.0
 21
1.0
 12
148.5
 22
105.0
 13
0.0
 23
0.0
 14
1.0
 24
1.0
 15
0.0
 25
0.0
 16
0.0
 26
0.0
 36
1.0
 17
0.0
 27
0.0
 37
0.0
 40
210.0
 41
1.4142857143
 42
50.0
 43
0.0
 44
0.0
 50
0.0
 51
0.0
 71
0
 72
100
 73
1
 74
1
 75
0
 76
0
 77
0
 78
0
  0
ENDTAB
  0
TABLE
  2
LTYPE
  5
5
100
AcDbSymbolTable
 70
6
  0
LTYPE
  5
14
100
AcDbSymbolTableRecord
100
AcDbLinetypeTableRecord
  2
BYBLOCK
 70
0
  3

 72
65
 73
0
 40
0.0
  0
LTYPE
  5
15
100
AcDbSymbolTableRecord
100
AcDbLinetypeTableRecord
  2
BYLAYER
 70
0
  3

 72
65
 73
0
 40
0.0
  0
LTYPE
  5
16
100
AcDbSymbolTableRecord
100
AcDbLinetypeTableRecord
  2
CONTINUOUS
 70
64
  3
Solid line
 72
65
 73
0
 40
0.0
  0
LTYPE
  5
1F5
100
AcDbSymbolTableRecord
100
AcDbLinetypeTableRecord
  2
CENTER
 70
64
  3
____ _ ____ _ ____ _ ____ _ ____ _ ____ _ ____
 72
65
 73
4
 40
0.6
 49
0.375
 74
0
 49
-0.075
 74
0
 49
0.075
 74
0
 49
-0.075
 74
0
  0
LTYPE
  5
1F6
100
AcDbSymbolTableRecord
100
AcDbLinetypeTableRecord
  2
HIDDEN
 70
64
  3
- - - - - - - - - - - - - - - - - - - -
 72
65
 73
2
 40
0.2
 49
0.1
 74
0
 49
-0.1
 74
0
  0
LTYPE
  5
1F7
100
AcDbSymbolTableRecord
100
AcDbLinetypeTableRecord
  2
PHANTOM
 70
64
  3
_____ _ _ _____ _ _ _____ _ _ _____
 72
65
 73
6
 40
0.8
 49
0.45
 74
0
 49
-0.05
 74
0
 49
0.1
 74
0
 49
-0.05
 74
0
 49
0.1
 74
0
 49
-0.05
 74
0
  0
LTYPE
  5
1F8
100
AcDbSymbolTableRecord
100
AcDbLinetypeTableRecord
  2
DOT
 70
64
  3
. . . . . . . . . . . . . . . . . . . .
 72
65
 73
2
 40
0.2
 49
0.1
 74
0
 49
-0.1
 74
0
  0
LTYPE
  5
1F9
100
AcDbSymbolTableRecord
100
AcDbLinetypeTableRecord
  2
DASHED
 70
64
  3
- - - - - - - - - - - - - - - - - - - -
 72
65
 73
2
 40
0.2
 49
0.1
 74
0
 49
-0.1
 74
0
  0
ENDTAB
  0
TABLE
  2
LAYER
  5
2
100
AcDbSymbolTable
 70
36
  0
LAYER
  5
10
100
AcDbSymbolTableRecord
100
AcDbLayerTableRecord
  2
0
 70
0
 62
7
  6
CONTINUOUS
370
-3
390
F
  0
LAYER
  5
1FA
100
AcDbSymbolTableRecord
100
AcDbLayerTableRecord
  2
DEFAULT_1
 70
0
 62
7
  6
CENTER
370
-3
390
F
  0
LAYER
  5
1FB
100
AcDbSymbolTableRecord
100
AcDbLayerTableRecord
  2
DEFAULT_2
 70
0
 62
7
  6
HIDDEN
370
-3
390
F
  0
LAYER
  5
1FC
100
AcDbSymbolTableRecord
100
AcDbLayerTableRecord
  2
DEFAULT_3
 70
0
 62
7
  6
PHANTOM
370
-3
390
F
  0
LAYER
  5
1FD
100
AcDbSymbolTableRecord
100
AcDbLayerTableRecord
  2
0402_C_REF_70000
 70
0
 62
7
  6
CONTINUOUS
370
-3
390
F
  0
LAYER
  5
1FE
100
AcDbSymbolTableRecord
100
AcDbLayerTableRecord
  2
0402_C_REF_70000_1
 70
0
 62
7
  6
CONTINUOUS
370
-3
390
F
  0
LAYER
  5
1FF
100
AcDbSymbolTableRecord
100
AcDbLayerTableRecord
  2
0402_R_REF_30000
 70
0
 62
7
  6
CONTINUOUS
370
-3
390
F
  0
LAYER
  5
200
100
AcDbSymbolTableRecord
100
AcDbLayerTableRecord
  2
0402_R_REF_30000_1
 70
0
 62
7
  6
CONTINUOUS
370
-3
390
F
  0
LAYER
  5
201
100
AcDbSymbolTableRecord
100
AcDbLayerTableRecord
  2
0402_R_REF_30000_2
 70
0
 62
7
  6
CONTINUOUS
370
-3
390
F
  0
LAYER
  5
202
100
AcDbSymbolTableRecord
100
AcDbLayerTableRecord
  2
0402_R_REF_30000_3
 70
0
 62
7
  6
CONTINUOUS
370
-3
390
F
  0
LAYER
  5
203
100
AcDbSymbolTableRecord
100
AcDbLayerTableRecord
  2
0402_R_REF_30000_4
 70
0
 62
7
  6
CONTINUOUS
370
-3
390
F
  0
LAYER
  5
204
100
AcDbSymbolTableRecord
100
AcDbLayerTableRecord
  2
0603_C_REF_90000
 70
0
 62
7
  6
CONTINUOUS
370
-3
390
F
  0
LAYER
  5
205
100
AcDbSymbolTableRecord
100
AcDbLayerTableRecord
  2
0603_C_REF_90000_1
 70
0
 62
7
  6
CONTINUOUS
370
-3
390
F
  0
LAYER
  5
206
100
AcDbSymbolTableRecord
100
AcDbLayerTableRecord
  2
0603_C_REF_90000_2
 70
0
 62
7
  6
CONTINUOUS
370
-3
390
F
  0
LAYER
  5
207
100
AcDbSymbolTableRecord
100
AcDbLayerTableRecord
  2
0603_C_REF_90000_3
 70
0
 62
7
  6
CONTINUOUS
370
-3
390
F
  0
LAYER
  5
208
100
AcDbSymbolTableRecord
100
AcDbLayerTableRecord
  2
0603_R_REF_55000
 70
0
 62
7
  6
CONTINUOUS
370
-3
390
F
  0
LAYER
  5
209
100
AcDbSymbolTableRecord
100
AcDbLayerTableRecord
  2
0603_R_REF_55000_1
 70
0
 62
7
  6
CONTINUOUS
370
-3
390
F
  0
LAYER
  5
20A
100
AcDbSymbolTableRecord
100
AcDbLayerTableRecord
  2
0603_R_REF_55000_10
 70
0
 62
7
  6
CONTINUOUS
370
-3
390
F
  0
LAYER
  5
20B
100
AcDbSymbolTableRecord
100
AcDbLayerTableRecord
  2
0603_R_REF_55000_11
 70
0
 62
7
  6
CONTINUOUS
370
-3
390
F
  0
LAYER
  5
20C
100
AcDbSymbolTableRecord
100
AcDbLayerTableRecord
  2
0603_R_REF_55000_12
 70
0
 62
7
  6
CONTINUOUS
370
-3
390
F
  0
LAYER
  5
20D
100
AcDbSymbolTableRecord
100
AcDbLayerTableRecord
  2
0603_R_REF_55000_2
 70
0
 62
7
  6
CONTINUOUS
370
-3
390
F
  0
LAYER
  5
20E
100
AcDbSymbolTableRecord
100
AcDbLayerTableRecord
  2
0603_R_REF_55000_3
 70
0
 62
7
  6
CONTINUOUS
370
-3
390
F
  0
LAYER
  5
20F
100
AcDbSymbolTableRecord
100
AcDbLayerTableRecord
  2
0603_R_REF_55000_4
 70
0
 62
7
  6
CONTINUOUS
370
-3
390
F
  0
LAYER
  5
210
100
AcDbSymbolTableRecord
100
AcDbLayerTableRecord
  2
0603_R_REF_55000_5
 70
0
 62
7
  6
CONTINUOUS
370
-3
390
F
  0
LAYER
  5
211
100
AcDbSymbolTableRecord
100
AcDbLayerTableRecord
  2
0603_R_REF_55000_6
 70
0
 62
7
  6
CONTINUOUS
370
-3
390
F
  0
LAYER
  5
212
100
AcDbSymbolTableRecord
100
AcDbLayerTableRecord
  2
0603_R_REF_55000_7
 70
0
 62
7
  6
CONTINUOUS
370
-3
390
F
  0
LAYER
  5
213
100
AcDbSymbolTableRecord
100
AcDbLayerTableRecord
  2
0603_R_REF_55000_8
 70
0
 62
7
  6
CONTINUOUS
370
-3
390
F
  0
LAYER
  5
214
100
AcDbSymbolTableRecord
100
AcDbLayerTableRecord
  2
0603_R_REF_55000_9
 70
0
 62
7
  6
CONTINUOUS
370
-3
390
F
  0
LAYER
  5
215
100
AcDbSymbolTableRecord
100
AcDbLayerTableRecord
  2
06___PRT_ALL_SURFS
 70
0
 62
7
  6
CONTINUOUS
370
-3
390
F
  0
LAYER
  5
216
100
AcDbSymbolTableRecord
100
AcDbLayerTableRecord
  2
06___PRT_ALL_SURFS_1
 70
0
 62
7
  6
CONTINUOUS
370
-3
390
F
  0
LAYER
  5
217
100
AcDbSymbolTableRecord
100
AcDbLayerTableRecord
  2
06___PRT_ALL_SURFS_10
 70
0
 62
7
  6
CONTINUOUS
370
-3
390
F
  0
LAYER
  5
218
100
AcDbSymbolTableRecord
100
AcDbLayerTableRecord
  2
06___PRT_ALL_SURFS_11
 70
0
 62
7
  6
CONTINUOUS
370
-3
390
F
  0
LAYER
  5
219
100
AcDbSymbolTableRecord
100
AcDbLayerTableRecord
  2
06___PRT_ALL_SURFS_12
 70
0
 62
7
  6
CONTINUOUS
370
-3
390
F
  0
LAYER
  5
21A
100
AcDbSymbolTableRecord
100
AcDbLayerTableRecord
  2
06___PRT_ALL_SURFS_13
 70
0
 62
7
  6
CONTINUOUS
370
-3
390
F
  0
LAYER
  5
21B
100
AcDbSymbolTableRecord
100
AcDbLayerTableRecord
  2
06___PRT_ALL_SURFS_14
 70
0
 62
7
  6
CONTINUOUS
370
-3
390
F
  0
LAYER
  5
21C
100
AcDbSymbolTableRecord
100
AcDbLayerTableRecord
  2
06___PRT_ALL_SURFS_15
 70
0
 62
7
  6
CONTINUOUS
370
-3
390
F
  0
LAYER
  5
21D
100
AcDbSymbolTableRecord
100
AcDbLayerTableRecord
  2
06___PRT_ALL_SURFS_16
 70
0
 62
7
  6
CONTINUOUS
370
-3
390
F
  0
LAYER
  5
21E
100
AcDbSymbolTableRecord
100
AcDbLayerTableRecord
  2
06___PRT_ALL_SURFS_17
 70
0
 62
7
  6
CONTINUOUS
370
-3
390
F
  0
LAYER
  5
21F
100
AcDbSymbolTableRecord
100
AcDbLayerTableRecord
  2
06___PRT_ALL_SURFS_18
 70
0
 62
7
  6
CONTINUOUS
370
-3
390
F
  0
LAYER
  5
220
100
AcDbSymbolTableRecord
100
AcDbLayerTableRecord
  2
06___PRT_ALL_SURFS_19
 70
0
 62
7
  6
CONTINUOUS
370
-3
390
F
  0
LAYER
  5
221
100
AcDbSymbolTableRecord
100
AcDbLayerTableRecord
  2
06___PRT_ALL_SURFS_2
 70
0
 62
7
  6
CONTINUOUS
370
-3
390
F
  0
LAYER
  5
222
100
AcDbSymbolTableRecord
100
AcDbLayerTableRecord
  2
06___PRT_ALL_SURFS_20
 70
0
 62
7
  6
CONTINUOUS
370
-3
390
F
  0
LAYER
  5
223
100
AcDbSymbolTableRecord
100
AcDbLayerTableRecord
  2
06___PRT_ALL_SURFS_21
 70
0
 62
7
  6
CONTINUOUS
370
-3
390
F
  0
LAYER
  5
224
100
AcDbSymbolTableRecord
100
AcDbLayerTableRecord
  2
06___PRT_ALL_SURFS_23
 70
0
 62
7
  6
CONTINUOUS
370
-3
390
F
  0
LAYER
  5
225
100
AcDbSymbolTableRecord
100
AcDbLayerTableRecord
  2
06___PRT_ALL_SURFS_24
 70
0
 62
7
  6
CONTINUOUS
370
-3
390
F
  0
LAYER
  5
226
100
AcDbSymbolTableRecord
100
AcDbLayerTableRecord
  2
06___PRT_ALL_SURFS_25
 70
0
 62
7
  6
CONTINUOUS
370
-3
390
F
  0
LAYER
  5
227
100
AcDbSymbolTableRecord
100
AcDbLayerTableRecord
  2
06___PRT_ALL_SURFS_26
 70
0
 62
7
  6
CONTINUOUS
370
-3
390
F
  0
LAYER
  5
228
100
AcDbSymbolTableRecord
100
AcDbLayerTableRecord
  2
06___PRT_ALL_SURFS_28
 70
0
 62
7
  6
CONTINUOUS
370
-3
390
F
  0
LAYER
  5
229
100
AcDbSymbolTableRecord
100
AcDbLayerTableRecord
  2
06___PRT_ALL_SURFS_29
 70
0
 62
7
  6
CONTINUOUS
370
-3
390
F
  0
LAYER
  5
22A
100
AcDbSymbolTableRecord
100
AcDbLayerTableRecord
  2
06___PRT_ALL_SURFS_3
 70
0
 62
7
  6
CONTINUOUS
370
-3
390
F
  0
LAYER
  5
22B
100
AcDbSymbolTableRecord
100
AcDbLayerTableRecord
  2
06___PRT_ALL_SURFS_30
 70
0
 62
7
  6
CONTINUOUS
370
-3
390
F
  0
LAYER
  5
22C
100
AcDbSymbolTableRecord
100
AcDbLayerTableRecord
  2
06___PRT_ALL_SURFS_31
 70
0
 62
7
  6
CONTINUOUS
370
-3
390
F
  0
LAYER
  5
22D
100
AcDbSymbolTableRecord
100
AcDbLayerTableRecord
  2
06___PRT_ALL_SURFS_33
 70
0
 62
7
  6
CONTINUOUS
370
-3
390
F
  0
LAYER
  5
22E
100
AcDbSymbolTableRecord
100
AcDbLayerTableRecord
  2
06___PRT_ALL_SURFS_4
 70
0
 62
7
  6
CONTINUOUS
370
-3
390
F
  0
LAYER
  5
22F
100
AcDbSymbolTableRecord
100
AcDbLayerTableRecord
  2
06___PRT_ALL_SURFS_5
 70
0
 62
7
  6
CONTINUOUS
370
-3
390
F
  0
LAYER
  5
230
100
AcDbSymbolTableRecord
100
AcDbLayerTableRecord
  2
06___PRT_ALL_SURFS_6
 70
0
 62
7
  6
CONTINUOUS
370
-3
390
F
  0
LAYER
  5
231
100
AcDbSymbolTableRecord
100
AcDbLayerTableRecord
  2
06___PRT_ALL_SURFS_7
 70
0
 62
7
  6
CONTINUOUS
370
-3
390
F
  0
LAYER
  5
232
100
AcDbSymbolTableRecord
100
AcDbLayerTableRecord
  2
06___PRT_ALL_SURFS_8
 70
0
 62
7
  6
CONTINUOUS
370
-3
390
F
  0
LAYER
  5
233
100
AcDbSymbolTableRecord
100
AcDbLayerTableRecord
  2
06___PRT_ALL_SURFS_9
 70
0
 62
7
  6
CONTINUOUS
370
-3
390
F
  0
LAYER
  5
234
100
AcDbSymbolTableRecord
100
AcDbLayerTableRecord
  2
0805_C_REF_145000
 70
0
 62
7
  6
CONTINUOUS
370
-3
390
F
  0
LAYER
  5
235
100
AcDbSymbolTableRecord
100
AcDbLayerTableRecord
  2
0805_C_REF_145000_1
 70
0
 62
7
  6
CONTINUOUS
370
-3
390
F
  0
LAYER
  5
236
100
AcDbSymbolTableRecord
100
AcDbLayerTableRecord
  2
0805_C_REF_145000_2
 70
0
 62
7
  6
CONTINUOUS
370
-3
390
F
  0
LAYER
  5
237
100
AcDbSymbolTableRecord
100
AcDbLayerTableRecord
  2
0805_C_REF_145000_3
 70
0
 62
7
  6
CONTINUOUS
370
-3
390
F
  0
LAYER
  5
238
100
AcDbSymbolTableRecord
100
AcDbLayerTableRecord
  2
0805_L_REF_145000
 70
0
 62
7
  6
CONTINUOUS
370
-3
390
F
  0
LAYER
  5
239
100
AcDbSymbolTableRecord
100
AcDbLayerTableRecord
  2
0805_R_REF_60000
 70
0
 62
7
  6
CONTINUOUS
370
-3
390
F
  0
LAYER
  5
23A
100
AcDbSymbolTableRecord
100
AcDbLayerTableRecord
  2
0805_R_REF_60000_1
 70
0
 62
7
  6
CONTINUOUS
370
-3
390
F
  0
LAYER
  5
23B
100
AcDbSymbolTableRecord
100
AcDbLayerTableRecord
  2
0805_R_REF_60000_2
 70
0
 62
7
  6
CONTINUOUS
370
-3
390
F
  0
LAYER
  5
23C
100
AcDbSymbolTableRecord
100
AcDbLayerTableRecord
  2
1206_C_REF_180000
 70
0
 62
7
  6
CONTINUOUS
370
-3
390
F
  0
LAYER
  5
23D
100
AcDbSymbolTableRecord
100
AcDbLayerTableRecord
  2
1206_R_REF_65000
 70
0
 62
7
  6
CONTINUOUS
370
-3
390
F
  0
LAYER
  5
23E
100
AcDbSymbolTableRecord
100
AcDbLayerTableRecord
  2
1206_R_REF_65000_1
 70
0
 62
7
  6
CONTINUOUS
370
-3
390
F
  0
LAYER
  5
23F
100
AcDbSymbolTableRecord
100
AcDbLayerTableRecord
  2
1206_R_REF_65000_2
 70
0
 62
7
  6
CONTINUOUS
370
-3
390
F
  0
LAYER
  5
240
100
AcDbSymbolTableRecord
100
AcDbLayerTableRecord
  2
1206_R_REF_65000_3
 70
0
 62
7
  6
CONTINUOUS
370
-3
390
F
  0
LAYER
  5
241
100
AcDbSymbolTableRecord
100
AcDbLayerTableRecord
  2
1206_R_REF_65000_4
 70
0
 62
7
  6
CONTINUOUS
370
-3
390
F
  0
LAYER
  5
242
100
AcDbSymbolTableRecord
100
AcDbLayerTableRecord
  2
1M_LED
 70
0
 62
7
  6
CONTINUOUS
370
-3
390
F
  0
LAYER
  5
243
100
AcDbSymbolTableRecord
100
AcDbLayerTableRecord
  2
1M_LED_1
 70
0
 62
7
  6
CONTINUOUS
370
-3
390
F
  0
LAYER
  5
244
100
AcDbSymbolTableRecord
100
AcDbLayerTableRecord
  2
1M_POWER
 70
0
 62
7
  6
CONTINUOUS
370
-3
390
F
  0
LAYER
  5
245
100
AcDbSymbolTableRecord
100
AcDbLayerTableRecord
  2
1M_POWER_1
 70
0
 62
7
  6
CONTINUOUS
370
-3
390
F
  0
LAYER
  5
246
100
AcDbSymbolTableRecord
100
AcDbLayerTableRecord
  2
43901036A0
 70
0
 62
7
  6
CONTINUOUS
370
-3
390
F
  0
LAYER
  5
247
100
AcDbSymbolTableRecord
100
AcDbLayerTableRecord
  2
43901037A0
 70
0
 62
7
  6
CONTINUOUS
370
-3
390
F
  0
LAYER
  5
248
100
AcDbSymbolTableRecord
100
AcDbLayerTableRecord
  2
43901037A0_1
 70
0
 62
7
  6
CONTINUOUS
370
-3
390
F
  0
LAYER
  5
249
100
AcDbSymbolTableRecord
100
AcDbLayerTableRecord
  2
ALIM
 70
0
 62
7
  6
CONTINUOUS
370
-3
390
F
  0
LAYER
  5
24A
100
AcDbSymbolTableRecord
100
AcDbLayerTableRecord
  2
ALIM_1
 70
0
 62
7
  6
CONTINUOUS
370
-3
390
F
  0
LAYER
  5
24B
100
AcDbSymbolTableRecord
100
AcDbLayerTableRecord
  2
ASSI
 70
0
 62
7
  6
CONTINUOUS
370
-3
390
F
  0
LAYER
  5
24C
100
AcDbSymbolTableRecord
100
AcDbLayerTableRecord
  2
CAP-E-8-9-3_5_900000
 70
0
 62
7
  6
CONTINUOUS
370
-3
390
F
  0
LAYER
  5
24D
100
AcDbSymbolTableRecord
100
AcDbLayerTableRecord
  2
CAP-E-8-9-3_5_900000_1
 70
0
 62
7
  6
CONTINUOUS
370
-3
390
F
  0
LAYER
  5
24E
100
AcDbSymbolTableRecord
100
AcDbLayerTableRecord
  2
CAP-E-8_0-9_0-3_5-RST_820000
 70
0
 62
7
  6
CONTINUOUS
370
-3
390
F
  0
LAYER
  5
24F
100
AcDbSymbolTableRecord
100
AcDbLayerTableRecord
  2
CAP-E-8_0-9_0-3_5-RST_INV_82000
 70
0
 62
7
  6
CONTINUOUS
370
-3
390
F
  0
LAYER
  5
250
100
AcDbSymbolTableRecord
100
AcDbLayerTableRecord
  2
CN_STRIP_THT_P2_54_R1_P3_TET_85
 70
0
 62
7
  6
CONTINUOUS
370
-3
390
F
  0
LAYER
  5
251
100
AcDbSymbolTableRecord
100
AcDbLayerTableRecord
  2
COLOR10
 70
0
 62
7
  6
CONTINUOUS
370
-3
390
F
  0
LAYER
  5
252
100
AcDbSymbolTableRecord
100
AcDbLayerTableRecord
  2
COLOR16
 70
0
 62
7
  6
CONTINUOUS
370
-3
390
F
  0
LAYER
  5
253
100
AcDbSymbolTableRecord
100
AcDbLayerTableRecord
  2
COLOR17
 70
0
 62
7
  6
CONTINUOUS
370
-3
390
F
  0
LAYER
  5
254
100
AcDbSymbolTableRecord
100
AcDbLayerTableRecord
  2
COLOR18
 70
0
 62
7
  6
CONTINUOUS
370
-3
390
F
  0
LAYER
  5
255
100
AcDbSymbolTableRecord
100
AcDbLayerTableRecord
  2
COLOR19
 70
0
 62
7
  6
CONTINUOUS
370
-3
390
F
  0
LAYER
  5
256
100
AcDbSymbolTableRecord
100
AcDbLayerTableRecord
  2
COLOR20
 70
0
 62
7
  6
CONTINUOUS
370
-3
390
F
  0
LAYER
  5
257
100
AcDbSymbolTableRecord
100
AcDbLayerTableRecord
  2
COLOR23
 70
0
 62
7
  6
CONTINUOUS
370
-3
390
F
  0
LAYER
  5
258
100
AcDbSymbolTableRecord
100
AcDbLayerTableRecord
  2
COLOR24
 70
0
 62
7
  6
CONTINUOUS
370
-3
390
F
  0
LAYER
  5
259
100
AcDbSymbolTableRecord
100
AcDbLayerTableRecord
  2
COLOR25
 70
0
 62
7
  6
CONTINUOUS
370
-3
390
F
  0
LAYER
  5
25A
100
AcDbSymbolTableRecord
100
AcDbLayerTableRecord
  2
COLOR26
 70
0
 62
7
  6
CONTINUOUS
370
-3
390
F
  0
LAYER
  5
25B
100
AcDbSymbolTableRecord
100
AcDbLayerTableRecord
  2
COLOR27
 70
0
 62
7
  6
CONTINUOUS
370
-3
390
F
  0
LAYER
  5
25C
100
AcDbSymbolTableRecord
100
AcDbLayerTableRecord
  2
COLOR28
 70
0
 62
7
  6
CONTINUOUS
370
-3
390
F
  0
LAYER
  5
25D
100
AcDbSymbolTableRecord
100
AcDbLayerTableRecord
  2
COLOR39
 70
0
 62
7
  6
CONTINUOUS
370
-3
390
F
  0
LAYER
  5
25E
100
AcDbSymbolTableRecord
100
AcDbLayerTableRecord
  2
COLOR40
 70
0
 62
7
  6
CONTINUOUS
370
-3
390
F
  0
LAYER
  5
25F
100
AcDbSymbolTableRecord
100
AcDbLayerTableRecord
  2
COLOR41
 70
0
 62
7
  6
CONTINUOUS
370
-3
390
F
  0
LAYER
  5
260
100
AcDbSymbolTableRecord
100
AcDbLayerTableRecord
  2
COLOR42
 70
0
 62
7
  6
CONTINUOUS
370
-3
390
F
  0
LAYER
  5
261
100
AcDbSymbolTableRecord
100
AcDbLayerTableRecord
  2
COLOR43
 70
0
 62
7
  6
CONTINUOUS
370
-3
390
F
  0
LAYER
  5
262
100
AcDbSymbolTableRecord
100
AcDbLayerTableRecord
  2
COLOR44
 70
0
 62
7
  6
CONTINUOUS
370
-3
390
F
  0
LAYER
  5
263
100
AcDbSymbolTableRecord
100
AcDbLayerTableRecord
  2
COLOR45
 70
0
 62
7
  6
CONTINUOUS
370
-3
390
F
  0
LAYER
  5
264
100
AcDbSymbolTableRecord
100
AcDbLayerTableRecord
  2
COLOR46
 70
0
 62
7
  6
CONTINUOUS
370
-3
390
F
  0
LAYER
  5
265
100
AcDbSymbolTableRecord
100
AcDbLayerTableRecord
  2
COLOR47
 70
0
 62
7
  6
CONTINUOUS
370
-3
390
F
  0
LAYER
  5
266
100
AcDbSymbolTableRecord
100
AcDbLayerTableRecord
  2
COLOR48
 70
0
 62
7
  6
CONTINUOUS
370
-3
390
F
  0
LAYER
  5
267
100
AcDbSymbolTableRecord
100
AcDbLayerTableRecord
  2
COLOR49
 70
0
 62
7
  6
CONTINUOUS
370
-3
390
F
  0
LAYER
  5
268
100
AcDbSymbolTableRecord
100
AcDbLayerTableRecord
  2
COLOR5
 70
0
 62
7
  6
CONTINUOUS
370
-3
390
F
  0
LAYER
  5
269
100
AcDbSymbolTableRecord
100
AcDbLayerTableRecord
  2
COLOR50
 70
0
 62
7
  6
CONTINUOUS
370
-3
390
F
  0
LAYER
  5
26A
100
AcDbSymbolTableRecord
100
AcDbLayerTableRecord
  2
COLOR51
 70
0
 62
7
  6
CONTINUOUS
370
-3
390
F
  0
LAYER
  5
26B
100
AcDbSymbolTableRecord
100
AcDbLayerTableRecord
  2
COLOR52
 70
0
 62
7
  6
CONTINUOUS
370
-3
390
F
  0
LAYER
  5
26C
100
AcDbSymbolTableRecord
100
AcDbLayerTableRecord
  2
COLOR56
 70
0
 62
7
  6
CONTINUOUS
370
-3
390
F
  0
LAYER
  5
26D
100
AcDbSymbolTableRecord
100
AcDbLayerTableRecord
  2
COLOR57
 70
0
 62
7
  6
CONTINUOUS
370
-3
390
F
  0
LAYER
  5
26E
100
AcDbSymbolTableRecord
100
AcDbLayerTableRecord
  2
COLOR58
 70
0
 62
7
  6
CONTINUOUS
370
-3
390
F
  0
LAYER
  5
26F
100
AcDbSymbolTableRecord
100
AcDbLayerTableRecord
  2
COLOR59
 70
0
 62
7
  6
CONTINUOUS
370
-3
390
F
  0
LAYER
  5
270
100
AcDbSymbolTableRecord
100
AcDbLayerTableRecord
  2
COLOR60
 70
0
 62
7
  6
CONTINUOUS
370
-3
390
F
  0
LAYER
  5
271
100
AcDbSymbolTableRecord
100
AcDbLayerTableRecord
  2
COLOR61
 70
0
 62
7
  6
CONTINUOUS
370
-3
390
F
  0
LAYER
  5
272
100
AcDbSymbolTableRecord
100
AcDbLayerTableRecord
  2
COLOR62
 70
0
 62
7
  6
CONTINUOUS
370
-3
390
F
  0
LAYER
  5
273
100
AcDbSymbolTableRecord
100
AcDbLayerTableRecord
  2
COLOR63
 70
0
 62
7
  6
CONTINUOUS
370
-3
390
F
  0
LAYER
  5
274
100
AcDbSymbolTableRecord
100
AcDbLayerTableRecord
  2
COLOR64
 70
0
 62
7
  6
CONTINUOUS
370
-3
390
F
  0
LAYER
  5
275
100
AcDbSymbolTableRecord
100
AcDbLayerTableRecord
  2
COLOR65
 70
0
 62
7
  6
CONTINUOUS
370
-3
390
F
  0
LAYER
  5
276
100
AcDbSymbolTableRecord
100
AcDbLayerTableRecord
  2
COLOR66
 70
0
 62
7
  6
CONTINUOUS
370
-3
390
F
  0
LAYER
  5
277
100
AcDbSymbolTableRecord
100
AcDbLayerTableRecord
  2
COLOR67
 70
0
 62
7
  6
CONTINUOUS
370
-3
390
F
  0
LAYER
  5
278
100
AcDbSymbolTableRecord
100
AcDbLayerTableRecord
  2
COLOR68
 70
0
 62
7
  6
CONTINUOUS
370
-3
390
F
  0
LAYER
  5
279
100
AcDbSymbolTableRecord
100
AcDbLayerTableRecord
  2
COLOR69
 70
0
 62
7
  6
CONTINUOUS
370
-3
390
F
  0
LAYER
  5
27A
100
AcDbSymbolTableRecord
100
AcDbLayerTableRecord
  2
COLOR70
 70
0
 62
7
  6
CONTINUOUS
370
-3
390
F
  0
LAYER
  5
27B
100
AcDbSymbolTableRecord
100
AcDbLayerTableRecord
  2
COLOR71
 70
0
 62
7
  6
CONTINUOUS
370
-3
390
F
  0
LAYER
  5
27C
100
AcDbSymbolTableRecord
100
AcDbLayerTableRecord
  2
COLOR72
 70
0
 62
7
  6
CONTINUOUS
370
-3
390
F
  0
LAYER
  5
27D
100
AcDbSymbolTableRecord
100
AcDbLayerTableRecord
  2
COLOR73
 70
0
 62
7
  6
CONTINUOUS
370
-3
390
F
  0
LAYER
  5
27E
100
AcDbSymbolTableRecord
100
AcDbLayerTableRecord
  2
COLOR74
 70
0
 62
7
  6
CONTINUOUS
370
-3
390
F
  0
LAYER
  5
27F
100
AcDbSymbolTableRecord
100
AcDbLayerTableRecord
  2
COLOR75
 70
0
 62
7
  6
CONTINUOUS
370
-3
390
F
  0
LAYER
  5
280
100
AcDbSymbolTableRecord
100
AcDbLayerTableRecord
  2
COLOR76
 70
0
 62
7
  6
CONTINUOUS
370
-3
390
F
  0
LAYER
  5
281
100
AcDbSymbolTableRecord
100
AcDbLayerTableRecord
  2
COLOR77
 70
0
 62
7
  6
CONTINUOUS
370
-3
390
F
  0
LAYER
  5
282
100
AcDbSymbolTableRecord
100
AcDbLayerTableRecord
  2
COLOR78
 70
0
 62
7
  6
CONTINUOUS
370
-3
390
F
  0
LAYER
  5
283
100
AcDbSymbolTableRecord
100
AcDbLayerTableRecord
  2
COLOR79
 70
0
 62
7
  6
CONTINUOUS
370
-3
390
F
  0
LAYER
  5
284
100
AcDbSymbolTableRecord
100
AcDbLayerTableRecord
  2
COLOR9
 70
0
 62
7
  6
CONTINUOUS
370
-3
390
F
  0
LAYER
  5
285
100
AcDbSymbolTableRecord
100
AcDbLayerTableRecord
  2
COLORE_MATERIALE
 70
0
 62
7
  6
CONTINUOUS
370
-3
390
F
  0
LAYER
  5
286
100
AcDbSymbolTableRecord
100
AcDbLayerTableRecord
  2
COORDINATE
 70
0
 62
7
  6
CONTINUOUS
370
-3
390
F
  0
LAYER
  5
287
100
AcDbSymbolTableRecord
100
AcDbLayerTableRecord
  2
COORD_ORIGINE
 70
0
 62
7
  6
CONTINUOUS
370
-3
390
F
  0
LAYER
  5
288
100
AcDbSymbolTableRecord
100
AcDbLayerTableRecord
  2
COPY_GEOMETRY
 70
0
 62
7
  6
CONTINUOUS
370
-3
390
F
  0
LAYER
  5
289
100
AcDbSymbolTableRecord
100
AcDbLayerTableRecord
  2
COPY_PUBLISH
 70
0
 62
7
  6
CONTINUOUS
370
-3
390
F
  0
LAYER
  5
28A
100
AcDbSymbolTableRecord
100
AcDbLayerTableRecord
  2
COSMETICI
 70
0
 62
7
  6
CONTINUOUS
370
-3
390
F
  0
LAYER
  5
28B
100
AcDbSymbolTableRecord
100
AcDbLayerTableRecord
  2
CURVE
 70
0
 62
7
  6
CONTINUOUS
370
-3
390
F
  0
LAYER
  5
28C
100
AcDbSymbolTableRecord
100
AcDbLayerTableRecord
  2
DATAMATRIX_RESIST_1000
 70
0
 62
7
  6
CONTINUOUS
370
-3
390
F
  0
LAYER
  5
28D
100
AcDbSymbolTableRecord
100
AcDbLayerTableRecord
  2
DO-214BA_290000
 70
0
 62
7
  6
CONTINUOUS
370
-3
390
F
  0
LAYER
  5
28E
100
AcDbSymbolTableRecord
100
AcDbLayerTableRecord
  2
DO-214BA_290000_1
 70
0
 62
7
  6
CONTINUOUS
370
-3
390
F
  0
LAYER
  5
28F
100
AcDbSymbolTableRecord
100
AcDbLayerTableRecord
  2
DO-214BA_290000_2
 70
0
 62
7
  6
CONTINUOUS
370
-3
390
F
  0
LAYER
  5
290
100
AcDbSymbolTableRecord
100
AcDbLayerTableRecord
  2
DO-214BA_290000_3
 70
0
 62
7
  6
CONTINUOUS
370
-3
390
F
  0
LAYER
  5
291
100
AcDbSymbolTableRecord
100
AcDbLayerTableRecord
  2
DO213AB_MELF_REF_250000
 70
0
 62
7
  6
CONTINUOUS
370
-3
390
F
  0
LAYER
  5
292
100
AcDbSymbolTableRecord
100
AcDbLayerTableRecord
  2
DO213AB_MELF_REF_250000_1
 70
0
 62
7
  6
CONTINUOUS
370
-3
390
F
  0
LAYER
  5
293
100
AcDbSymbolTableRecord
100
AcDbLayerTableRecord
  2
DRAFT
 70
0
 62
7
  6
CONTINUOUS
370
-3
390
F
  0
LAYER
  5
294
100
AcDbSymbolTableRecord
100
AcDbLayerTableRecord
  2
FIDUCIAL_1MM_0
 70
0
 62
7
  6
CONTINUOUS
370
-3
390
F
  0
LAYER
  5
295
100
AcDbSymbolTableRecord
100
AcDbLayerTableRecord
  2
FIDUCIAL_1MM_0_1
 70
0
 62
7
  6
CONTINUOUS
370
-3
390
F
  0
LAYER
  5
296
100
AcDbSymbolTableRecord
100
AcDbLayerTableRecord
  2
FIDUCIAL_1MM_0_2
 70
0
 62
7
  6
CONTINUOUS
370
-3
390
F
  0
LAYER
  5
297
100
AcDbSymbolTableRecord
100
AcDbLayerTableRecord
  2
FIDUCIAL_1MM_0_3
 70
0
 62
7
  6
CONTINUOUS
370
-3
390
F
  0
LAYER
  5
298
100
AcDbSymbolTableRecord
100
AcDbLayerTableRecord
  2
GEOMETRIA_SOLIDA
 70
0
 62
7
  6
CONTINUOUS
370
-3
390
F
  0
LAYER
  5
299
100
AcDbSymbolTableRecord
100
AcDbLayerTableRecord
  2
GEOMETRIA_SOLIDA_1
 70
0
 62
7
  6
CONTINUOUS
370
-3
390
F
  0
LAYER
  5
29A
100
AcDbSymbolTableRecord
100
AcDbLayerTableRecord
  2
GEOMETRIA_SOLIDA_10
 70
0
 62
7
  6
CONTINUOUS
370
-3
390
F
  0
LAYER
  5
29B
100
AcDbSymbolTableRecord
100
AcDbLayerTableRecord
  2
GEOMETRIA_SOLIDA_2
 70
0
 62
7
  6
CONTINUOUS
370
-3
390
F
  0
LAYER
  5
29C
100
AcDbSymbolTableRecord
100
AcDbLayerTableRecord
  2
GEOMETRIA_SOLIDA_3
 70
0
 62
7
  6
CONTINUOUS
370
-3
390
F
  0
LAYER
  5
29D
100
AcDbSymbolTableRecord
100
AcDbLayerTableRecord
  2
GEOMETRIA_SOLIDA_4
 70
0
 62
7
  6
CONTINUOUS
370
-3
390
F
  0
LAYER
  5
29E
100
AcDbSymbolTableRecord
100
AcDbLayerTableRecord
  2
GEOMETRIA_SOLIDA_5
 70
0
 62
7
  6
CONTINUOUS
370
-3
390
F
  0
LAYER
  5
29F
100
AcDbSymbolTableRecord
100
AcDbLayerTableRecord
  2
GEOMETRIA_SOLIDA_6
 70
0
 62
7
  6
CONTINUOUS
370
-3
390
F
  0
LAYER
  5
2A0
100
AcDbSymbolTableRecord
100
AcDbLayerTableRecord
  2
GEOMETRIA_SOLIDA_7
 70
0
 62
7
  6
CONTINUOUS
370
-3
390
F
  0
LAYER
  5
2A1
100
AcDbSymbolTableRecord
100
AcDbLayerTableRecord
  2
GEOMETRIA_SOLIDA_8
 70
0
 62
7
  6
CONTINUOUS
370
-3
390
F
  0
LAYER
  5
2A2
100
AcDbSymbolTableRecord
100
AcDbLayerTableRecord
  2
GEOMETRIA_SOLIDA_9
 70
0
 62
7
  6
CONTINUOUS
370
-3
390
F
  0
LAYER
  5
2A3
100
AcDbSymbolTableRecord
100
AcDbLayerTableRecord
  2
IGES
 70
0
 62
7
  6
CONTINUOUS
370
-3
390
F
  0
LAYER
  5
2A4
100
AcDbSymbolTableRecord
100
AcDbLayerTableRecord
  2
IGES_HOLG
 70
0
 62
7
  6
CONTINUOUS
370
-3
390
F
  0
LAYER
  5
2A5
100
AcDbSymbolTableRecord
100
AcDbLayerTableRecord
  2
IGES_SCRITTE
 70
0
 62
7
  6
CONTINUOUS
370
-3
390
F
  0
LAYER
  5
2A6
100
AcDbSymbolTableRecord
100
AcDbLayerTableRecord
  2
IMPORT_IGES
 70
0
 62
7
  6
CONTINUOUS
370
-3
390
F
  0
LAYER
  5
2A7
100
AcDbSymbolTableRecord
100
AcDbLayerTableRecord
  2
IND-CHIP-0805_H1_1_REF_110000
 70
0
 62
7
  6
CONTINUOUS
370
-3
390
F
  0
LAYER
  5
2A8
100
AcDbSymbolTableRecord
100
AcDbLayerTableRecord
  2
IND-RAD-6_0-8_5-2_5-0_5_850000
 70
0
 62
7
  6
CONTINUOUS
370
-3
390
F
  0
LAYER
  5
2A9
100
AcDbSymbolTableRecord
100
AcDbLayerTableRecord
  2
INTFCLR_1
 70
0
 62
7
  6
CONTINUOUS
370
-3
390
F
  0
LAYER
  5
2AA
100
AcDbSymbolTableRecord
100
AcDbLayerTableRecord
  2
INTFCLR_11371
 70
0
 62
7
  6
CONTINUOUS
370
-3
390
F
  0
LAYER
  5
2AB
100
AcDbSymbolTableRecord
100
AcDbLayerTableRecord
  2
INTFCLR_118879
 70
0
 62
7
  6
CONTINUOUS
370
-3
390
F
  0
LAYER
  5
2AC
100
AcDbSymbolTableRecord
100
AcDbLayerTableRecord
  2
INTF_1
 70
0
 62
7
  6
CONTINUOUS
370
-3
390
F
  0
LAYER
  5
2AD
100
AcDbSymbolTableRecord
100
AcDbLayerTableRecord
  2
INTF_16
 70
0
 62
7
  6
CONTINUOUS
370
-3
390
F
  0
LAYER
  5
2AE
100
AcDbSymbolTableRecord
100
AcDbLayerTableRecord
  2
INTF_2
 70
0
 62
7
  6
CONTINUOUS
370
-3
390
F
  0
LAYER
  5
2AF
100
AcDbSymbolTableRecord
100
AcDbLayerTableRecord
  2
INTF_5
 70
0
 62
7
  6
CONTINUOUS
370
-3
390
F
  0
LAYER
  5
2B0
100
AcDbSymbolTableRecord
100
AcDbLayerTableRecord
  2
INTF_6
 70
0
 62
7
  6
CONTINUOUS
370
-3
390
F
  0
LAYER
  5
2B1
100
AcDbSymbolTableRecord
100
AcDbLayerTableRecord
  2
INTF_CYAN
 70
0
 62
7
  6
CONTINUOUS
370
-3
390
F
  0
LAYER
  5
2B2
100
AcDbSymbolTableRecord
100
AcDbLayerTableRecord
  2
INTF_GREEN
 70
0
 62
7
  6
CONTINUOUS
370
-3
390
F
  0
LAYER
  5
2B3
100
AcDbSymbolTableRecord
100
AcDbLayerTableRecord
  2
INTF_RED
 70
0
 62
7
  6
CONTINUOUS
370
-3
390
F
  0
LAYER
  5
2B4
100
AcDbSymbolTableRecord
100
AcDbLayerTableRecord
  2
INTF_YELLOW
 70
0
 62
7
  6
CONTINUOUS
370
-3
390
F
  0
LAYER
  5
2B5
100
AcDbSymbolTableRecord
100
AcDbLayerTableRecord
  2
LED
 70
0
 62
7
  6
CONTINUOUS
370
-3
390
F
  0
LAYER
  5
2B6
100
AcDbSymbolTableRecord
100
AcDbLayerTableRecord
  2
LED_1
 70
0
 62
7
  6
CONTINUOUS
370
-3
390
F
  0
LAYER
  5
2B7
100
AcDbSymbolTableRecord
100
AcDbLayerTableRecord
  2
NOTE
 70
0
 62
7
  6
CONTINUOUS
370
-3
390
F
  0
LAYER
  5
2B8
100
AcDbSymbolTableRecord
100
AcDbLayerTableRecord
  2
PIANI
 70
0
 62
7
  6
CONTINUOUS
370
-3
390
F
  0
LAYER
  5
2B9
100
AcDbSymbolTableRecord
100
AcDbLayerTableRecord
  2
PIANI_COSTRUZIONE
 70
0
 62
7
  6
CONTINUOUS
370
-3
390
F
  0
LAYER
  5
2BA
100
AcDbSymbolTableRecord
100
AcDbLayerTableRecord
  2
PIANI_ORIGINE
 70
0
 62
7
  6
CONTINUOUS
370
-3
390
F
  0
LAYER
  5
2BB
100
AcDbSymbolTableRecord
100
AcDbLayerTableRecord
  2
PIANI_RIFERIMENTO
 70
0
 62
7
  6
CONTINUOUS
370
-3
390
F
  0
LAYER
  5
2BC
100
AcDbSymbolTableRecord
100
AcDbLayerTableRecord
  2
PUNTI
 70
0
 62
7
  6
CONTINUOUS
370
-3
390
F
  0
LAYER
  5
2BD
100
AcDbSymbolTableRecord
100
AcDbLayerTableRecord
  2
RACCORDO
 70
0
 62
7
  6
CONTINUOUS
370
-3
390
F
  0
LAYER
  5
2BE
100
AcDbSymbolTableRecord
100
AcDbLayerTableRecord
  2
RGB__255__126____0__
 70
0
 62
7
  6
CONTINUOUS
370
-3
390
F
  0
LAYER
  5
2BF
100
AcDbSymbolTableRecord
100
AcDbLayerTableRecord
  2
RGB__255__255__255__
 70
0
 62
7
  6
CONTINUOUS
370
-3
390
F
  0
LAYER
  5
2C0
100
AcDbSymbolTableRecord
100
AcDbLayerTableRecord
  2
SC88-6_REF_H1_1_110000
 70
0
 62
7
  6
CONTINUOUS
370
-3
390
F
  0
LAYER
  5
2C1
100
AcDbSymbolTableRecord
100
AcDbLayerTableRecord
  2
SIMBOLI
 70
0
 62
7
  6
CONTINUOUS
370
-3
390
F
  0
LAYER
  5
2C2
100
AcDbSymbolTableRecord
100
AcDbLayerTableRecord
  2
SMUSSO
 70
0
 62
7
  6
CONTINUOUS
370
-3
390
F
  0
LAYER
  5
2C3
100
AcDbSymbolTableRecord
100
AcDbLayerTableRecord
  2
SOD523F_70000
 70
0
 62
7
  6
CONTINUOUS
370
-3
390
F
  0
LAYER
  5
2C4
100
AcDbSymbolTableRecord
100
AcDbLayerTableRecord
  2
SOD523F_70000_1
 70
0
 62
7
  6
CONTINUOUS
370
-3
390
F
  0
LAYER
  5
2C5
100
AcDbSymbolTableRecord
100
AcDbLayerTableRecord
  2
SOD80_SOD-213AA_MINIMELF_REF_16
 70
0
 62
7
  6
CONTINUOUS
370
-3
390
F
  0
LAYER
  5
2C6
100
AcDbSymbolTableRecord
100
AcDbLayerTableRecord
  2
SOT23-5_REF_H1_5_150000
 70
0
 62
7
  6
CONTINUOUS
370
-3
390
F
  0
LAYER
  5
2C7
100
AcDbSymbolTableRecord
100
AcDbLayerTableRecord
  2
SOT323_H1_1_REF_110000
 70
0
 62
7
  6
CONTINUOUS
370
-3
390
F
  0
LAYER
  5
2C8
100
AcDbSymbolTableRecord
100
AcDbLayerTableRecord
  2
SOT89_REF_H1_6_160000
 70
0
 62
7
  6
CONTINUOUS
370
-3
390
F
  0
LAYER
  5
2C9
100
AcDbSymbolTableRecord
100
AcDbLayerTableRecord
  2
SUB_SMA_143000
 70
0
 62
7
  6
CONTINUOUS
370
-3
390
F
  0
LAYER
  5
2CA
100
AcDbSymbolTableRecord
100
AcDbLayerTableRecord
  2
SUB_SMA_143000_1
 70
0
 62
7
  6
CONTINUOUS
370
-3
390
F
  0
LAYER
  5
2CB
100
AcDbSymbolTableRecord
100
AcDbLayerTableRecord
  2
SUPERFICI
 70
0
 62
7
  6
CONTINUOUS
370
-3
390
F
  0
LAYER
  5
2CC
100
AcDbSymbolTableRecord
100
AcDbLayerTableRecord
  2
SUPERFICI_13
 70
0
 62
7
  6
CONTINUOUS
370
-3
390
F
  0
LAYER
  5
2CD
100
AcDbSymbolTableRecord
100
AcDbLayerTableRecord
  2
SYMBOL_DATA_10000
 70
0
 62
7
  6
CONTINUOUS
370
-3
390
F
  0
LAYER
  5
2CE
100
AcDbSymbolTableRecord
100
AcDbLayerTableRecord
  2
SYMBOL_NO-PB_10000
 70
0
 62
7
  6
CONTINUOUS
370
-3
390
F
  0
LAYER
  5
2CF
100
AcDbSymbolTableRecord
100
AcDbLayerTableRecord
  2
TP-RND-1_0_3500
 70
0
 62
7
  6
CONTINUOUS
370
-3
390
F
  0
LAYER
  5
2D0
100
AcDbSymbolTableRecord
100
AcDbLayerTableRecord
  2
TP-RND-1_0_3500_1
 70
0
 62
7
  6
CONTINUOUS
370
-3
390
F
  0
LAYER
  5
2D1
100
AcDbSymbolTableRecord
100
AcDbLayerTableRecord
  2
TP-RND-1_0_3500_2
 70
0
 62
7
  6
CONTINUOUS
370
-3
390
F
  0
LAYER
  5
2D2
100
AcDbSymbolTableRecord
100
AcDbLayerTableRecord
  2
TP-RND-1_0_3500_3
 70
0
 62
7
  6
CONTINUOUS
370
-3
390
F
  0
LAYER
  5
2D3
100
AcDbSymbolTableRecord
100
AcDbLayerTableRecord
  2
TP-RND-1_2_1000
 70
0
 62
7
  6
CONTINUOUS
370
-3
390
F
  0
LAYER
  5
2D4
100
AcDbSymbolTableRecord
100
AcDbLayerTableRecord
  2
TP-RND-1_5_1000
 70
0
 62
7
  6
CONTINUOUS
370
-3
390
F
  0
LAYER
  5
2D5
100
AcDbSymbolTableRecord
100
AcDbLayerTableRecord
  2
TP-RND-1_5_1000_1
 70
0
 62
7
  6
CONTINUOUS
370
-3
390
F
  0
LAYER
  5
2D6
100
AcDbSymbolTableRecord
100
AcDbLayerTableRecord
  2
TP-RND-1_5_1000_2
 70
0
 62
7
  6
CONTINUOUS
370
-3
390
F
  0
LAYER
  5
2D7
100
AcDbSymbolTableRecord
100
AcDbLayerTableRecord
  2
TP-RND-1_5_1000_3
 70
0
 62
7
  6
CONTINUOUS
370
-3
390
F
  0
LAYER
  5
2D8
100
AcDbSymbolTableRecord
100
AcDbLayerTableRecord
  2
TP-RND-1_5_1000_4
 70
0
 62
7
  6
CONTINUOUS
370
-3
390
F
  0
LAYER
  5
2D9
100
AcDbSymbolTableRecord
100
AcDbLayerTableRecord
  2
TP-RND-1_5_1000_5
 70
0
 62
7
  6
CONTINUOUS
370
-3
390
F
  0
LAYER
  5
2DA
100
AcDbSymbolTableRecord
100
AcDbLayerTableRecord
  2
TP-RND-1_5_1000_6
 70
0
 62
7
  6
CONTINUOUS
370
-3
390
F
  0
LAYER
  5
2DB
100
AcDbSymbolTableRecord
100
AcDbLayerTableRecord
  2
TP-RND-1_5_1000_7
 70
0
 62
7
  6
CONTINUOUS
370
-3
390
F
  0
LAYER
  5
2DC
100
AcDbSymbolTableRecord
100
AcDbLayerTableRecord
  2
TP-SQR-2_0_0
 70
0
 62
7
  6
CONTINUOUS
370
-3
390
F
  0
LAYER
  5
2DD
100
AcDbSymbolTableRecord
100
AcDbLayerTableRecord
  2
TP-SQR-2_0_0_1
 70
0
 62
7
  6
CONTINUOUS
370
-3
390
F
  0
LAYER
  5
2DE
100
AcDbSymbolTableRecord
100
AcDbLayerTableRecord
  2
TP-SQR-2_0_0_2
 70
0
 62
7
  6
CONTINUOUS
370
-3
390
F
  0
LAYER
  5
2DF
100
AcDbSymbolTableRecord
100
AcDbLayerTableRecord
  2
TP-SQR-2_0_0_3
 70
0
 62
7
  6
CONTINUOUS
370
-3
390
F
  0
LAYER
  5
2E0
100
AcDbSymbolTableRecord
100
AcDbLayerTableRecord
  2
TP-SQR-2_0_0_4
 70
0
 62
7
  6
CONTINUOUS
370
-3
390
F
  0
LAYER
  5
2E1
100
AcDbSymbolTableRecord
100
AcDbLayerTableRecord
  2
TP-SQR-2_0_0_5
 70
0
 62
7
  6
CONTINUOUS
370
-3
390
F
  0
LAYER
  5
2E2
100
AcDbSymbolTableRecord
100
AcDbLayerTableRecord
  2
TP-SQR-2_0_0_6
 70
0
 62
7
  6
CONTINUOUS
370
-3
390
F
  0
LAYER
  5
2E3
100
AcDbSymbolTableRecord
100
AcDbLayerTableRecord
  2
TP-SQR-2_0_0_7
 70
0
 62
7
  6
CONTINUOUS
370
-3
390
F
  0
LAYER
  5
2E4
100
AcDbSymbolTableRecord
100
AcDbLayerTableRecord
  2
TRASH
 70
0
 62
7
  6
CONTINUOUS
370
-3
390
F
  0
LAYER
  5
2E5
100
AcDbSymbolTableRecord
100
AcDbLayerTableRecord
  2
UMT-250_REF_300000
 70
0
 62
7
  6
CONTINUOUS
370
-3
390
F
  0
LAYER
  5
2E6
100
AcDbSymbolTableRecord
100
AcDbLayerTableRecord
  2
VG_CAP-E-SMD-5_3-5_0-6_3_630000
 70
0
 62
7
  6
CONTINUOUS
370
-3
390
F
  0
LAYER
  5
2E7
100
AcDbSymbolTableRecord
100
AcDbLayerTableRecord
  2
VG_CN-SMD-MOLEX-53398-R1-P2-TET
 70
0
 62
7
  6
CONTINUOUS
370
-3
390
F
  0
LAYER
  5
2E8
100
AcDbSymbolTableRecord
100
AcDbLayerTableRecord
  2
VG_CN-STRIP-M-THT-P2-R1-P3-TET_
 70
0
 62
7
  6
CONTINUOUS
370
-3
390
F
  0
LAYER
  5
2E9
100
AcDbSymbolTableRecord
100
AcDbLayerTableRecord
  2
VG_CN_THT_1P_254000
 70
0
 62
7
  6
CONTINUOUS
370
-3
390
F
  0
LAYER
  5
2EA
100
AcDbSymbolTableRecord
100
AcDbLayerTableRecord
  2
VG_CN_THT_1P_254000_1
 70
0
 62
7
  6
CONTINUOUS
370
-3
390
F
  0
LAYER
  5
2EB
100
AcDbSymbolTableRecord
100
AcDbLayerTableRecord
  2
VG_CN_THT_1P_254000_2
 70
0
 62
7
  6
CONTINUOUS
370
-3
390
F
  0
LAYER
  5
2EC
100
AcDbSymbolTableRecord
100
AcDbLayerTableRecord
  2
VG_CN_THT_1P_254000_3
 70
0
 62
7
  6
CONTINUOUS
370
-3
390
F
  0
LAYER
  5
2ED
100
AcDbSymbolTableRecord
100
AcDbLayerTableRecord
  2
VG_CN_THT_1P_254000_4
 70
0
 62
7
  6
CONTINUOUS
370
-3
390
F
  0
LAYER
  5
2EE
100
AcDbSymbolTableRecord
100
AcDbLayerTableRecord
  2
VG_CN_THT_1P_254000_5
 70
0
 62
7
  6
CONTINUOUS
370
-3
390
F
  0
LAYER
  5
2EF
100
AcDbSymbolTableRecord
100
AcDbLayerTableRecord
  2
VG_CN_THT_1P_254000_6
 70
0
 62
7
  6
CONTINUOUS
370
-3
390
F
  0
LAYER
  5
2F0
100
AcDbSymbolTableRecord
100
AcDbLayerTableRecord
  2
VG_CN_THT_1P_254000_7
 70
0
 62
7
  6
CONTINUOUS
370
-3
390
F
  0
LAYER
  5
2F1
100
AcDbSymbolTableRecord
100
AcDbLayerTableRecord
  2
VG_FUSE-RAD-8_5-4_3-7_85-5_08-0
 70
0
 62
7
  6
CONTINUOUS
370
-3
390
F
  0
LAYER
  5
2F2
100
AcDbSymbolTableRecord
100
AcDbLayerTableRecord
  2
VG_IND-PS-7_8-5_0_550000
 70
0
 62
7
  6
CONTINUOUS
370
-3
390
F
  0
LAYER
  5
2F3
100
AcDbSymbolTableRecord
100
AcDbLayerTableRecord
  2
VG_IND-SMT-4_0-4_0-2_5-1_55-3_1
 70
0
 62
7
  6
CONTINUOUS
370
-3
390
F
  0
LAYER
  5
2F4
100
AcDbSymbolTableRecord
100
AcDbLayerTableRecord
  2
VG_IND-SMT-4_0-4_0-2_5-1_55-3_6
 70
0
 62
7
  6
CONTINUOUS
370
-3
390
F
  0
LAYER
  5
2F5
100
AcDbSymbolTableRecord
100
AcDbLayerTableRecord
  2
VG_LED-SMT-2_7-1_4-0_8_80000
 70
0
 62
7
  6
CONTINUOUS
370
-3
390
F
  0
LAYER
  5
2F6
100
AcDbSymbolTableRecord
100
AcDbLayerTableRecord
  2
VG_LED-SMT-5_0-3_0-0_8_LM561C_8
 70
0
 62
7
  6
CONTINUOUS
370
-3
390
F
  0
LAYER
  5
2F7
100
AcDbSymbolTableRecord
100
AcDbLayerTableRecord
  2
VG_M_3P_VERT_P_5MM_24A_H_15MM_M
 70
0
 62
7
  6
CONTINUOUS
370
-3
390
F
  0
LAYER
  5
2F8
100
AcDbSymbolTableRecord
100
AcDbLayerTableRecord
  2
VG_RES-ASS-5_0-12_0-0_7-20_0-A9
 70
0
 62
7
  6
CONTINUOUS
370
-3
390
F
  0
LAYER
  5
2F9
100
AcDbSymbolTableRecord
100
AcDbLayerTableRecord
  2
VG_SOD523_70000
 70
0
 62
7
  6
CONTINUOUS
370
-3
390
F
  0
LAYER
  5
2FA
100
AcDbSymbolTableRecord
100
AcDbLayerTableRecord
  2
VG_SOD523_70000_1
 70
0
 62
7
  6
CONTINUOUS
370
-3
390
F
  0
LAYER
  5
2FB
100
AcDbSymbolTableRecord
100
AcDbLayerTableRecord
  2
VG_SOD523_70000_2
 70
0
 62
7
  6
CONTINUOUS
370
-3
390
F
  0
LAYER
  5
2FC
100
AcDbSymbolTableRecord
100
AcDbLayerTableRecord
  2
VG_SOT23-5-H1_1-REF_150000
 70
0
 62
7
  6
CONTINUOUS
370
-3
390
F
  0
LAYER
  5
2FD
100
AcDbSymbolTableRecord
100
AcDbLayerTableRecord
  2
VG_SOT23_H1_1_REF_110000
 70
0
 62
7
  6
CONTINUOUS
370
-3
390
F
  0
LAYER
  5
2FE
100
AcDbSymbolTableRecord
100
AcDbLayerTableRecord
  2
VG_SOT23_H1_1_REF_110000_1
 70
0
 62
7
  6
CONTINUOUS
370
-3
390
F
  0
LAYER
  5
2FF
100
AcDbSymbolTableRecord
100
AcDbLayerTableRecord
  2
VG_SOT23_H1_1_REF_110000_2
 70
0
 62
7
  6
CONTINUOUS
370
-3
390
F
  0
LAYER
  5
300
100
AcDbSymbolTableRecord
100
AcDbLayerTableRecord
  2
VG_SOT23_H1_2_REF_120000
 70
0
 62
7
  6
CONTINUOUS
370
-3
390
F
  0
LAYER
  5
301
100
AcDbSymbolTableRecord
100
AcDbLayerTableRecord
  2
XSEC_DATUMS
 70
0
 62
7
  6
CONTINUOUS
370
-3
390
F
  0
LAYER
  5
302
100
AcDbSymbolTableRecord
100
AcDbLayerTableRecord
  2
___SHELL
 70
0
 62
7
  6
CONTINUOUS
370
-3
390
F
  0
ENDTAB
  0
TABLE
  2
STYLE
  5
3
100
AcDbSymbolTable
 70
1
  0
STYLE
  5
11
100
AcDbSymbolTableRecord
100
AcDbTextStyleTableRecord
  2
STANDARD
 70
0
 40
0.0
 41
0.8
 50
0.0
 71
0
 42
0.2
  3
txt
  4

  0
STYLE
  5
303
100
AcDbSymbolTableRecord
100
AcDbTextStyleTableRecord
  2
TEXTSTYLE_1
 70
0
 40
0.0
 41
0.8
 50
0.0
 71
0
 42
0.2
  3
gdt
  4

  0
ENDTAB
  0
TABLE
  2
VIEW
  5
6
100
AcDbSymbolTable
 70
0
  0
ENDTAB
  0
TABLE
  2
UCS
  5
7
100
AcDbSymbolTable
 70
0
  0
ENDTAB
  0
TABLE
  2
APPID
  5
9
100
AcDbSymbolTable
 70
1
  0
APPID
  5
304
100
AcDbSymbolTableRecord
100
AcDbRegAppTableRecord
  2
ACAD
 70
0
  0
ENDTAB
  0
TABLE
  2
BLOCK_RECORD
  5
1
100
AcDbSymbolTable
 70
0
  0
BLOCK_RECORD
  5
305
100
AcDbSymbolTableRecord
100
AcDbBlockTableRecord
  2
*Model_Space
  0
BLOCK_RECORD
  5
306
100
AcDbSymbolTableRecord
100
AcDbBlockTableRecord
  2
*Paper_Space
  0
BLOCK_RECORD
  5
307
100
AcDbSymbolTableRecord
100
AcDbBlockTableRecord
  2
_FILLED
  0
ENDTAB
  0
TABLE
  2
DIMSTYLE
  5
A
100
AcDbSymbolTable
 70
1
100
AcDbDimStyleTable
 71
0
  0
DIMSTYLE
105
308
100
AcDbSymbolTableRecord
100
AcDbDimStyleTableRecord
  2
STANDARD
 70
0
  3

  4

 40
1.0
 41
3.0
 42
0.5
 43
0.38
 44
1.5
 45
0.0
 46
0.0
 47
0.01
 48
0.01
140
3.0
141
0.09
142
0.0
143
25.4
144
1.0
145
0.0
146
1.0
147
0.625
 71
1
 72
0
 73
0
 74
0
 75
0
 76
0
 77
1
 78
8
 79
2
170
0
171
1
172
0
173
0
174
0
175
0
176
0
177
0
178
0
270
2
179
2
271
2
272
2
273
2
274
2
275
0
280
0
281
0
282
0
283
1
284
8
285
0
286
0
287
3
288
0
340
11
278
44
341
307
342
307
343
307
344
307
  0
ENDTAB
  0
ENDSEC
  0
SECTION
  2
BLOCKS
  0
BLOCK
  5
20
100
AcDbEntity
  8
0
100
AcDbBlockBegin
  2
*Model_Space
 70
0
 10
0.0
 20
0.0
 30
0.0
  3
*Model_Space
  1

  0
ENDBLK
  5
21
100
AcDbEntity
  8
0
100
AcDbBlockEnd
  0
BLOCK
  5
1C
100
AcDbEntity
  8
0
100
AcDbBlockBegin
  2
*Paper_Space
 70
0
 10
0.0
 20
0.0
 30
0.0
  3
*Paper_Space
  1

  0
ENDBLK
  5
1D
100
AcDbEntity
  8
0
100
AcDbBlockEnd
  0
BLOCK
  5
309
100
AcDbEntity
  8
0
100
AcDbBlockBegin
  2
_FILLED
 70
64
 10
0.0
 20
0.0
  3
_FILLED
  1

  0
SOLID
  5
30A
100
AcDbEntity
  8
0
  6
BYBLOCK
 62
0
100
AcDbTrace
 10
0.0
 20
0.0
 11
-1.0
 21
0.3166666667
 12
-1.0
 22
-0.3166666667
 13
-1.0
 23
-0.3166666667
  0
ENDBLK
  5
30B
100
AcDbEntity
  8
0
  6
BYBLOCK
 62
0
100
AcDbBlockEnd
  0
ENDSEC
  0
SECTION
  2
ENTITIES
  0
LWPOLYLINE
  5
30C
100
AcDbEntity
  8
0
100
AcDbPolyline
 62
7
  6
CONTINUOUS
 90
15
 70
0
 10
129.3874551565
 20
116.8112685821
 10
129.3125863607
 20
116.7627974743
 10
129.2461699386
 20
116.711110267
 10
129.1828473379
 20
116.6531662281
 10
129.123017093
 20
116.5893480367
 10
129.0674874082
 20
116.5206468711
 10
129.0163005326
 20
116.4472358513
 10
128.9696936333
 20
116.3693817211
 10
128.9285656002
 20
116.2885698134
 10
128.89303475
 20
116.2051521464
 10
128.8633157131
 20
116.1193885577
 10
128.8399824258
 20
116.0328043322
 10
128.8232168307
 20
115.9460394331
 10
128.813071089
 20
115.8589769227
 10
128.8104182116
 20
115.8110914556
  0
LINE
  5
30D
100
AcDbEntity
  8
RACCORDO
100
AcDbLine
 62
7
  6
CONTINUOUS
 10
130.5013035302
 20
117.4702567242
 11
134.3165989902
 21
119.6949234317
  0
LINE
  5
30E
100
AcDbEntity
  8
0
100
AcDbLine
 62
7
  6
CONTINUOUS
 10
129.3871852366
 20
116.811111512
 11
130.5060787898
 21
117.4635289363
  0
LINE
  5
30F
100
AcDbEntity
  8
RACCORDO
100
AcDbLine
 62
250
  6
CONTINUOUS
 10
130.7258501943
 20
117.4621471869
 11
134.3165989902
 21
119.5558826223
  0
LINE
  5
310
100
AcDbEntity
  8
0
100
AcDbLine
 62
250
  6
CONTINUOUS
 10
129.6205392819
 20
116.8023441176
 11
130.7399815649
 21
117.4550815016
  0
LINE
  5
311
100
AcDbEntity
  8
RACCORDO
100
AcDbLine
 62
7
  6
CONTINUOUS
 10
135.3322485891
 20
121.8187126569
 11
133.7494919304
 21
121.0067285311
  0
LINE
  5
312
100
AcDbEntity
  8
RACCORDO
100
AcDbLine
 62
250
  6
CONTINUOUS
 10
135.4453341997
 20
121.8122646533
 11
133.8625775966
 21
121.0002805559
  0
LINE
  5
313
100
AcDbEntity
  8
RACCORDO
100
AcDbLine
 62
7
  6
CONTINUOUS
 10
135.33398634
 20
121.8195815772
 11
135.3322485891
 21
121.8187126569
  0
LINE
  5
314
100
AcDbEntity
  8
RACCORDO
100
AcDbLine
 62
250
  6
CONTINUOUS
 10
137.3171102389
 20
121.4039490396
 11
135.1875622764
 21
120.337788216
  0
LINE
  5
315
100
AcDbEntity
  8
RACCORDO
100
AcDbLine
 62
7
  6
CONTINUOUS
 10
135.8692719673
 20
122.0803469109
 11
135.3339827038
 21
121.8195905534
  0
LINE
  5
316
100
AcDbEntity
  8
RACCORDO
100
AcDbLine
 62
250
  6
CONTINUOUS
 10
135.9797840784
 20
122.0726121198
 11
135.4453341997
 21
121.8122646533
  0
LWPOLYLINE
  5
317
100
AcDbEntity
  8
0
100
AcDbPolyline
 62
250
  6
CONTINUOUS
 90
11
 70
0
 10
129.189604233
 20
78.7411316612
 10
129.1482957446
 20
78.769749648
 10
129.1118176353
 20
78.8027141587
 10
129.0795440455
 20
78.8397812171
 10
129.0507613321
 20
78.8814002323
 10
129.0256822428
 20
78.9271604377
 10
129.0043426352
 20
78.9768721266
 10
128.9863340978
 20
79.0320003255
 10
128.9720032887
 20
79.0931659168
 10
128.9620382258
 20
79.1597158983
 10
128.9569075047
 20
79.231463472
  0
LWPOLYLINE
  5
318
100
AcDbEntity
  8
RACCORDO
100
AcDbPolyline
 62
7
  6
CONTINUOUS
 90
15
 70
0
 10
136.0755565882
 20
119.5444212202
 10
136.0576476848
 20
119.5245489257
 10
136.0382411568
 20
119.5054212178
 10
136.0173877156
 20
119.4872717856
 10
135.9950793222
 20
119.4703653012
 10
135.9714899841
 20
119.4549049752
 10
135.9469689371
 20
119.44103998
 10
135.9216457791
 20
119.4290070476
 10
135.8956778187
 20
119.4190268892
 10
135.8694795115
 20
119.4112352911
 10
135.8432606704
 20
119.405844345
 10
135.8172327035
 20
119.4030396707
 10
135.7918424847
 20
119.4029301988
 10
135.7674277105
 20
119.405663789
 10
135.7618047344
 20
119.406746607
  0
LINE
  5
319
100
AcDbEntity
  8
RACCORDO
100
AcDbLine
 62
7
  6
CONTINUOUS
 10
136.9656167709
 20
119.2334700197
 11
136.0755565882
 21
118.7367890985
  0
LINE
  5
31A
100
AcDbEntity
  8
RACCORDO
100
AcDbLine
 62
250
  6
CONTINUOUS
 10
137.4938839426
 20
121.0990595007
 11
135.3643359801
 21
120.0328986772
  0
LINE
  5
31B
100
AcDbEntity
  8
RACCORDO
100
AcDbLine
 62
7
  6
CONTINUOUS
 10
144.6881998325
 20
122.3737740488
 11
138.3736595059
 21
119.2289977442
  0
LWPOLYLINE
  5
31C
100
AcDbEntity
  8
0
100
AcDbPolyline
 62
250
  6
CONTINUOUS
 90
8
 70
0
 10
129.3874551565
 20
116.8112685821
 10
129.412776679
 20
116.8234162875
 10
129.4432837394
 20
116.832308209
 10
129.4759330863
 20
116.8362412927
 10
129.5103674214
 20
116.8351724967
 10
129.546209913
 20
116.8291135171
 10
129.5830683196
 20
116.8181306605
 10
129.6205392819
 20
116.8023441176
  0
LINE
  5
31D
100
AcDbEntity
  8
0
100
AcDbLine
 62
7
  6
CONTINUOUS
 10
147.5754111522
 20
123.0569313337
 11
147.5763325242
 21
123.0573673712
  0
LINE
  5
31E
100
AcDbEntity
  8
RACCORDO
100
AcDbLine
 62
7
  6
CONTINUOUS
 10
145.6395333623
 20
122.143978252
 11
147.5763359653
 21
123.0573689941
  0
LWPOLYLINE
  5
31F
100
AcDbEntity
  8
0
100
AcDbPolyline
 62
250
  6
CONTINUOUS
 90
6
 70
0
 10
145.0798615931
 20
121.6208748278
 10
145.0952126568
 20
121.6257568609
 10
145.1117543293
 20
121.6274580019
 10
145.1292035867
 20
121.6259491279
 10
145.1472618838
 20
121.6212560387
 10
145.1656202473
 20
121.6134590153
  0
LWPOLYLINE
  5
320
100
AcDbEntity
  8
0
100
AcDbPolyline
 62
250
  6
CONTINUOUS
 90
8
 70
0
 10
147.6068960325
 20
123.070176413
 10
147.6575025471
 20
123.0849879485
 10
147.7107478763
 20
123.0930848098
 10
147.7665057467
 20
123.0943637888
 10
147.8251676322
 20
123.0885720782
 10
147.8866349396
 20
123.0752805323
 10
147.9502330702
 20
123.0541959117
 10
148.0154738786
 20
123.0250854499
  0
LINE
  5
321
100
AcDbEntity
  8
RACCORDO
100
AcDbLine
 62
250
  6
CONTINUOUS
 10
150.8582021071
 20
72.7697647624
 11
150.3299349353
 21
72.8782670395
  0
LWPOLYLINE
  5
322
100
AcDbEntity
  8
RACCORDO
100
AcDbPolyline
 62
7
  6
CONTINUOUS
 90
15
 70
0
 10
149.4398747526
 20
72.5626579986
 10
149.4220601547
 20
72.5668207004
 10
149.4025854157
 20
72.5715743718
 10
149.3815893244
 20
72.5770158959
 10
149.3592522792
 20
72.5833620709
 10
149.3357442642
 20
72.5905714998
 10
149.3112177471
 20
72.5983520326
 10
149.28590548
 20
72.6067875823
 10
149.260054247
 20
72.6159356031
 10
149.2338661646
 20
72.6254673333
 10
149.2076238748
 20
72.6354341294
 10
149.1816616765
 20
72.6458700371
 10
149.1562929935
 20
72.6564113717
 10
149.1318671626
 20
72.6669314052
 10
149.1087619496
 20
72.6775336862
  0
LWPOLYLINE
  5
323
100
AcDbEntity
  8
RACCORDO
100
AcDbPolyline
 62
250
  6
CONTINUOUS
 90
16
 70
0
 10
148.3761321848
 20
71.3717003112
 10
148.39550344
 20
71.3629759313
 10
148.4165865228
 20
71.3553076791
 10
148.4391521488
 20
71.348778949
 10
148.4629549107
 20
71.3434607426
 10
148.4877359468
 20
71.3394108971
 10
148.5132257565
 20
71.3366734555
 10
148.5391471312
 20
71.3352781883
 10
148.5652181686
 20
71.3352402694
 10
148.5911553392
 20
71.3365601112
 10
148.616676569
 20
71.33922336
 10
148.6415043075
 20
71.3432010523
 10
148.6653685464
 20
71.3484499296
 10
148.6880097553
 20
71.3549129089
 10
148.7091817049
 20
71.3625197035
 10
148.7286541445
 20
71.3711875874
  0
LWPOLYLINE
  5
324
100
AcDbEntity
  8
0
100
AcDbPolyline
 62
7
  6
CONTINUOUS
 90
11
 70
0
 10
144.0922998077
 20
71.2886258436
 10
144.138279307
 20
71.2676219803
 10
144.1976511545
 20
71.2461590925
 10
144.2593427952
 20
71.2299947672
 10
144.3229288011
 20
71.2193726154
 10
144.3880821532
 20
71.2144672312
 10
144.454354753
 20
71.2154369173
 10
144.5212772672
 20
71.2223923153
 10
144.5885797323
 20
71.2354108873
 10
144.6559080915
 20
71.2545363386
 10
144.7187691754
 20
71.278074433
  0
LINE
  5
325
100
AcDbEntity
  8
0
100
AcDbLine
 62
7
  6
CONTINUOUS
 10
129.2139106458
 20
78.7278144492
 11
144.0931222629
 21
71.2882086407
  0
LINE
  5
326
100
AcDbEntity
  8
0
100
AcDbLine
 62
250
  6
CONTINUOUS
 10
128.9569075047
 20
79.231463472
 11
143.8315917918
 21
71.7941213284
  0
LINE
  5
327
100
AcDbEntity
  8
0
100
AcDbLine
 62
7
  6
CONTINUOUS
 10
144.0923539004
 20
71.2885938975
 11
144.0931198572
 21
71.2882098435
  0
LINE
  5
328
100
AcDbEntity
  8
0
100
AcDbLine
 62
250
  6
CONTINUOUS
 10
129.2139106458
 20
78.7278144492
 11
129.189604233
 21
78.7411316612
  0
LWPOLYLINE
  5
329
100
AcDbEntity
  8
0
100
AcDbPolyline
 62
7
  6
CONTINUOUS
 90
13
 70
0
 10
128.8104446764
 20
79.4090757058
 10
128.8168118033
 20
79.3261230147
 10
128.8286679874
 20
79.2524706958
 10
128.8460771349
 20
79.1818987717
 10
128.8688955237
 20
79.1146028305
 10
128.8969845642
 20
79.0507091505
 10
128.9301083145
 20
78.9905936878
 10
128.9680353285
 20
78.934549188
 10
129.0105665281
 20
78.8827743319
 10
129.0573034832
 20
78.835686831
 10
129.1078449471
 20
78.7936141022
 10
129.1619168412
 20
78.7567267149
 10
129.2144556005
 20
78.7275587595
  0
LINE
  5
32A
100
AcDbEntity
  8
RACCORDO
100
AcDbLine
 62
250
  6
CONTINUOUS
 10
137.5092807746
 20
120.6807370773
 11
137.509244515
 21
120.6806928174
  0
LINE
  5
32B
100
AcDbEntity
  8
RACCORDO
100
AcDbLine
 62
250
  6
CONTINUOUS
 10
136.9656167709
 20
120.1085758282
 11
137.4938839426
 21
120.751527984
  0
LINE
  5
32C
100
AcDbEntity
  8
RACCORDO
100
AcDbLine
 62
7
  6
CONTINUOUS
 10
136.9656167709
 20
120.0190453619
 11
137.509244515
 21
120.6806928174
  0
LWPOLYLINE
  5
32D
100
AcDbEntity
  8
0
100
AcDbPolyline
 62
7
  6
CONTINUOUS
 90
11
 70
0
 10
139.3854809935
 20
118.8378486834
 10
139.3659752249
 20
118.8272717253
 10
139.3309257079
 20
118.804974704
 10
139.2992904264
 20
118.7801982065
 10
139.2712323466
 20
118.752995255
 10
139.2469873234
 20
118.7235410133
 10
139.22674486
 20
118.6920061246
 10
139.2107360747
 20
118.6586650105
 10
139.1992442821
 20
118.624156431
 10
139.1923526001
 20
118.5890143791
 10
139.1900446169
 20
118.5535238624
  0
LINE
  5
32E
100
AcDbEntity
  8
0
100
AcDbLine
 62
7
  6
CONTINUOUS
 10
139.3853869193
 20
118.8378005051
 11
139.7398796882
 21
119.0196620057
  0
LINE
  5
32F
100
AcDbEntity
  8
0
100
AcDbLine
 62
250
  6
CONTINUOUS
 10
139.4758554522
 20
118.832642125
 11
139.8294000349
 21
119.014013953
  0
LINE
  5
330
100
AcDbEntity
  8
0
100
AcDbLine
 62
7
  6
CONTINUOUS
 10
139.7398746528
 20
119.0196435427
 11
139.7412630172
 21
119.0203377651
  0
LINE
  5
331
100
AcDbEntity
  8
0
100
AcDbLine
 62
7
  6
CONTINUOUS
 10
157.7545561378
 20
125.4280773012
 11
154.2190222318
 21
123.6603103482
  0
LINE
  5
332
100
AcDbEntity
  8
0
100
AcDbLine
 62
250
  6
CONTINUOUS
 10
140.7494608017
 20
119.1164551729
 11
145.4883103628
 21
121.4521139575
  0
LINE
  5
333
100
AcDbEntity
  8
0
100
AcDbLine
 62
250
  6
CONTINUOUS
 10
141.1152709167
 20
118.9831320121
 11
145.6289089676
 21
121.2077897541
  0
LINE
  5
334
100
AcDbEntity
  8
DRAFT
100
AcDbLine
 62
7
  6
CONTINUOUS
 10
144.6377253468
 20
119.6646651929
 11
145.6786077506
 21
120.1739812495
  0
LINE
  5
335
100
AcDbEntity
  8
RACCORDO
100
AcDbLine
 62
7
  6
CONTINUOUS
 10
147.7551657764
 20
120.8402910768
 11
145.603651173
 21
119.7875295646
  0
LINE
  5
336
100
AcDbEntity
  8
0
100
AcDbLine
 62
7
  6
CONTINUOUS
 10
139.7412630172
 20
119.0203377651
 11
145.0772105612
 21
121.6196468494
  0
LINE
  5
337
100
AcDbEntity
  8
0
100
AcDbLine
 62
250
  6
CONTINUOUS
 10
139.8294000326
 20
119.0140139542
 11
145.1656202473
 21
121.6134590153
  0
LWPOLYLINE
  5
338
100
AcDbEntity
  8
0
100
AcDbPolyline
 62
250
  6
CONTINUOUS
 90
10
 70
0
 10
145.4883103628
 20
121.4521139575
 10
145.4976049581
 20
121.4565453405
 10
145.5068917054
 20
121.4606735841
 10
145.5161641841
 20
121.4644958343
 10
145.5254159836
 20
121.4680094484
 10
145.5346407075
 20
121.4712119973
 10
145.5438319782
 20
121.4741012669
 10
145.5529834411
 20
121.4766752596
 10
145.5620887694
 20
121.4789321958
 10
145.5711416678
 20
121.4808705152
  0
LWPOLYLINE
  5
339
100
AcDbEntity
  8
0
100
AcDbPolyline
 62
250
  6
CONTINUOUS
 90
10
 70
0
 10
145.6289089676
 20
121.2077897541
 10
145.6344978525
 20
121.2104533961
 10
145.6400714718
 20
121.212930902
 10
145.6456298255
 20
121.2152222719
 10
145.6511748256
 20
121.2173281703
 10
145.6567045601
 20
121.2192479327
 10
145.6622132934
 20
121.2209795651
 10
145.6676991136
 20
121.2225224029
 10
145.6731639327
 20
121.2238771108
 10
145.6786077506
 20
121.2250436887
  0
LWPOLYLINE
  5
33A
100
AcDbEntity
  8
0
100
AcDbPolyline
 62
250
  6
CONTINUOUS
 90
7
 70
0
 10
139.3854809935
 20
118.8378486834
 10
139.389435803
 20
118.8397274008
 10
139.4048462218
 20
118.8446389675
 10
139.4214856528
 20
118.8463889028
 10
139.4390694031
 20
118.8449472663
 10
139.4572966227
 20
118.8403387237
 10
139.4758554522
 20
118.832642125
  0
LWPOLYLINE
  5
33B
100
AcDbEntity
  8
0
100
AcDbPolyline
 62
250
  6
CONTINUOUS
 90
7
 70
0
 10
145.1656202473
 20
121.6134590153
 10
145.1751354257
 20
121.6179601146
 10
145.1846379484
 20
121.6221438851
 10
145.1941210236
 20
121.6260077354
 10
145.2035750552
 20
121.6295482757
 10
145.2129961676
 20
121.632764618
 10
145.2223861142
 20
121.6356573967
  0
LINE
  5
33C
100
AcDbEntity
  8
0
100
AcDbLine
 62
250
  6
CONTINUOUS
 10
145.8859109353
 20
122.0207894655
 11
148.0154738786
 21
123.0250854499
  0
LWPOLYLINE
  5
33D
100
AcDbEntity
  8
0
100
AcDbPolyline
 62
7
  6
CONTINUOUS
 90
7
 70
0
 10
139.7412630172
 20
119.0203377651
 10
139.7439151211
 20
119.0215662148
 10
139.7592666558
 20
119.026448095
 10
139.7758087972
 20
119.0281489291
 10
139.7932585005
 20
119.0266396149
 10
139.8113171921
 20
119.0219459775
 10
139.8296758785
 20
119.0141483275
  0
LWPOLYLINE
  5
33E
100
AcDbEntity
  8
0
100
AcDbPolyline
 62
250
  6
CONTINUOUS
 90
23
 70
0
 10
145.6786077506
 20
121.2250436887
 10
145.687161081
 20
121.2279893385
 10
145.6955928504
 20
121.2309524828
 10
145.7038828765
 20
121.2339351811
 10
145.7119929015
 20
121.2369419398
 10
145.7199201888
 20
121.2399706147
 10
145.727690728
 20
121.243014986
 10
145.7352791771
 20
121.2460827391
 10
145.7426507664
 20
121.2491707053
 10
145.7498044015
 20
121.252259349
 10
145.7567063463
 20
121.255354906
 10
145.7633120701
 20
121.2584540665
 10
145.769593836
 20
121.2615239077
 10
145.7755087893
 20
121.2645655664
 10
145.7810065215
 20
121.2675754339
 10
145.7860415568
 20
121.270512435
 10
145.7905625554
 20
121.2733701501
 10
145.7945183215
 20
121.2761436472
 10
145.7978588738
 20
121.278791949
 10
145.8005275929
 20
121.2813020062
 10
145.8024699161
 20
121.2836644534
 10
145.8036309226
 20
121.2858411471
 10
145.8039571176
 20
121.2875190163
  0
LINE
  5
33F
100
AcDbEntity
  8
0
100
AcDbLine
 62
7
  6
CONTINUOUS
 10
149.9609515746
 20
122.1722464869
 11
153.2713916118
 21
123.2813911579
  0
LINE
  5
340
100
AcDbEntity
  8
0
100
AcDbLine
 62
250
  6
CONTINUOUS
 10
150.0692390704
 20
122.118102739
 11
153.4733227627
 21
123.2586222
  0
LWPOLYLINE
  5
341
100
AcDbEntity
  8
RACCORDO
100
AcDbPolyline
 62
7
  6
CONTINUOUS
 90
4
 70
0
 10
145.3485733013
 20
118.5245363461
 10
145.3797496341
 20
118.5338301884
 10
145.4131325004
 20
118.5380011209
 10
145.447993938
 20
118.5369359333
  0
LWPOLYLINE
  5
342
100
AcDbEntity
  8
0
100
AcDbPolyline
 62
250
  6
CONTINUOUS
 90
7
 70
0
 10
160.3880399148
 20
124.5650984851
 10
160.4188784045
 20
124.5741733133
 10
160.4515599124
 20
124.5781284283
 10
160.4857264998
 20
124.576920547
 10
160.5210039703
 20
124.5705629331
 10
160.5570059693
 20
124.5591252484
 10
160.5933382102
 20
124.5427327886
  0
LWPOLYLINE
  5
343
100
AcDbEntity
  8
0
100
AcDbPolyline
 62
250
  6
CONTINUOUS
 90
7
 70
0
 10
158.328389088
 20
123.6729507068
 10
158.3592275781
 20
123.682025508
 10
158.3919090772
 20
123.6859805985
 10
158.4260756455
 20
123.6847726987
 10
158.4613530865
 20
123.6784150759
 10
158.4973550462
 20
123.6669773948
 10
158.5336872389
 20
123.6505849542
  0
LWPOLYLINE
  5
344
100
AcDbEntity
  8
0
100
AcDbPolyline
 62
250
  6
CONTINUOUS
 90
7
 70
0
 10
153.4733227627
 20
123.2586222
 10
153.528784482
 20
123.2748940772
 10
153.582964797
 20
123.2854121548
 10
153.6355577351
 20
123.2902347524
 10
153.686167435
 20
123.2894625951
 10
153.7346509036
 20
123.2832406386
 10
153.7810758255
 20
123.2716309343
  0
LINE
  5
345
100
AcDbEntity
  8
RACCORDO
100
AcDbLine
 62
250
  6
CONTINUOUS
 10
150.7687883117
 20
73.0893315684
 11
150.3299349353
 21
73.1794688951
  0
LWPOLYLINE
  5
346
100
AcDbEntity
  8
RACCORDO
100
AcDbPolyline
 62
250
  6
CONTINUOUS
 90
16
 70
0
 10
148.3761321848
 20
71.7116742453
 10
148.39550344
 20
71.7029498654
 10
148.4165865228
 20
71.6952816132
 10
148.4391521488
 20
71.6887528831
 10
148.4629549107
 20
71.6834346768
 10
148.4877359468
 20
71.6793848312
 10
148.5132257565
 20
71.6766473896
 10
148.5391471312
 20
71.6752521224
 10
148.5652181686
 20
71.6752142035
 10
148.5911553392
 20
71.6765340453
 10
148.616676569
 20
71.6791972941
 10
148.6415043075
 20
71.6831749865
 10
148.6653685464
 20
71.6884238637
 10
148.6880097553
 20
71.694886843
 10
148.7091817049
 20
71.7024936376
 10
148.7286541445
 20
71.7111615215
  0
LWPOLYLINE
  5
347
100
AcDbEntity
  8
RACCORDO
100
AcDbPolyline
 62
250
  6
CONTINUOUS
 90
3
 70
0
 10
150.7920721433
 20
73.0813096739
 10
150.7860469567
 20
73.0840496849
 10
150.7687883117
 20
73.0893315684
  0
LINE
  5
348
100
AcDbEntity
  8
RACCORDO
100
AcDbLine
 62
7
  6
CONTINUOUS
 10
147.1161208014
 20
71.898974201
 11
148.4411054812
 21
71.2364818611
  0
LINE
  5
349
100
AcDbEntity
  8
RACCORDO
100
AcDbLine
 62
250
  6
CONTINUOUS
 10
147.051147505
 20
72.0341926511
 11
148.3761321848
 21
71.3717003112
  0
LINE
  5
34A
100
AcDbEntity
  8
RACCORDO
100
AcDbLine
 62
250
  6
CONTINUOUS
 10
148.3761321848
 20
71.7116742453
 11
147.1878328688
 21
72.3058239034
  0
LINE
  5
34B
100
AcDbEntity
  8
RACCORDO
100
AcDbLine
 62
250
  6
CONTINUOUS
 10
148.4645205325
 20
71.9433684192
 11
147.4877899589
 21
72.431733706
  0
LINE
  5
34C
100
AcDbEntity
  8
RACCORDO
100
AcDbLine
 62
7
  6
CONTINUOUS
 10
148.6361538189
 20
72.9137702095
 11
149.1087619496
 21
72.6775336862
  0
LWPOLYLINE
  5
34D
100
AcDbEntity
  8
RACCORDO
100
AcDbPolyline
 62
250
  6
CONTINUOUS
 90
9
 70
0
 10
147.051147505
 20
72.0341926511
 10
147.0336987452
 20
72.0438782787
 10
147.0183622408
 20
72.0544198201
 10
147.0053047805
 20
72.0657026331
 10
146.9946683678
 20
72.077604014
 10
146.9865686767
 20
72.0899945321
 10
146.9810937936
 20
72.102739437
 10
146.9783032591
 20
72.1157001243
 10
146.9779242003
 20
72.1225809988
  0
LWPOLYLINE
  5
34E
100
AcDbEntity
  8
0
100
AcDbPolyline
 62
250
  6
CONTINUOUS
 90
8
 70
0
 10
128.8112898593
 20
79.3978692665
 10
128.8171096073
 20
79.3709646638
 10
128.828212029
 20
79.344652806
 10
128.8444781671
 20
79.3192156118
 10
128.8657337379
 20
79.2949256287
 10
128.8917509981
 20
79.2720431121
 10
128.9222511853
 20
79.2508132372
 10
128.9569075047
 20
79.231463472
  0
LWPOLYLINE
  5
34F
100
AcDbEntity
  8
0
100
AcDbPolyline
 62
250
  6
CONTINUOUS
 90
9
 70
0
 10
128.8104182116
 20
115.8110914557
 10
128.8112895104
 20
115.7930856981
 10
128.817108722
 20
115.7685815827
 10
128.828210734
 20
115.7443568993
 10
128.8444766497
 20
115.7206712164
 10
128.8657322148
 20
115.6977783532
 10
128.8917497079
 20
115.6759236186
 10
128.9222503976
 20
115.6553411856
 10
128.9569075045
 20
115.6362516054
  0
LWPOLYLINE
  5
350
100
AcDbEntity
  8
0
100
AcDbPolyline
 62
250
  6
CONTINUOUS
 90
16
 70
0
 10
128.9569075047
 20
79.231463472
 10
128.875374125
 20
81.7899352352
 10
128.808296686
 20
84.2787756544
 10
128.7545686548
 20
86.6973005344
 10
128.7134407874
 20
89.0232764709
 10
128.6833622559
 20
91.2775698547
 10
128.6629167585
 20
93.5246326747
 10
128.6519605227
 20
95.7662401326
 10
128.6503389855
 20
98.0003427577
 10
128.6582185307
 20
100.2864759307
 10
128.6762740198
 20
102.629928104
 10
128.7051040233
 20
105.0259053168
 10
128.7461343085
 20
107.5194836103
 10
128.800979787
 20
110.1261705043
 10
128.8707778006
 20
112.831582274
 10
128.9569075047
 20
115.6362516093
  0
LWPOLYLINE
  5
351
100
AcDbEntity
  8
0
100
AcDbPolyline
 62
7
  6
CONTINUOUS
 90
10
 70
0
 10
128.8104232757
 20
115.8112473862
 10
128.6904318488
 20
111.7553861536
 10
128.5988101342
 20
107.6489246211
 10
128.5377318182
 20
103.5573662393
 10
128.5072022142
 20
99.4810635393
 10
128.5072241808
 20
95.4203601122
 10
128.5377982293
 20
91.3756118846
 10
128.5989227524
 20
87.3471637503
 10
128.690593665
 20
83.3353592432
 10
128.8104431655
 20
79.4091194822
  0
LWPOLYLINE
  5
352
100
AcDbEntity
  8
0
100
AcDbPolyline
 62
250
  6
CONTINUOUS
 90
19
 70
0
 10
128.9569075047
 20
115.6362516093
 10
128.9619290525
 20
115.7120716782
 10
128.9719598528
 20
115.7896229588
 10
128.9869217728
 20
115.8683456409
 10
129.0067287709
 20
115.9477794535
 10
129.0312169479
 20
116.0272465835
 10
129.0600838475
 20
116.1058590556
 10
129.0932423328
 20
116.1834619084
 10
129.1302638791
 20
116.2591123362
 10
129.1700142556
 20
116.3308868656
 10
129.2113431366
 20
116.3975155661
 10
129.2542998479
 20
116.4598024521
 10
129.2995398465
 20
116.5189615429
 10
129.3466473231
 20
116.5745187849
 10
129.3954486599
 20
116.6263419089
 10
129.4472939796
 20
116.6756287864
 10
129.5025494191
 20
116.7221443704
 10
129.56041085
 20
116.7646320242
 10
129.6205392819
 20
116.8023441176
  0
LWPOLYLINE
  5
353
100
AcDbEntity
  8
RACCORDO
100
AcDbPolyline
 62
250
  6
CONTINUOUS
 90
14
 70
0
 10
135.3643359801
 20
119.6929247431
 10
135.3541013595
 20
119.6692628808
 10
135.3420600735
 20
119.6468297223
 10
135.3283435612
 20
119.6258701414
 10
135.313101548
 20
119.6066129267
 10
135.2965004112
 20
119.5892682842
 10
135.2787213641
 20
119.574025543
 10
135.2599584773
 20
119.5610510884
 10
135.240416561
 20
119.5504865456
 10
135.2203089291
 20
119.5424472341
 10
135.1998550705
 20
119.5370209086
 10
135.1792782536
 20
119.5342668014
 10
135.1588030887
 20
119.5342149755
 10
135.1374924865
 20
119.5371035823
  0
LINE
  5
354
100
AcDbEntity
  8
RACCORDO
100
AcDbLine
 62
7
  6
CONTINUOUS
 10
145.0142588785
 20
118.3457015604
 11
145.3281501678
 21
118.5150531122
  0
LINE
  5
355
100
AcDbEntity
  8
RACCORDO
100
AcDbLine
 62
250
  6
CONTINUOUS
 10
145.2301665212
 20
118.3272497018
 11
145.5569103144
 21
118.5035354743
  0
LWPOLYLINE
  5
356
100
AcDbEntity
  8
RACCORDO
100
AcDbPolyline
 62
250
  6
CONTINUOUS
 90
61
 70
0
 10
145.6789614769
 20
118.561460606
 10
145.7068465123
 20
118.5762969958
 10
145.7142439916
 20
118.580198716
 10
145.721873167
 20
118.5841532698
 10
145.7297349665
 20
118.5881612637
 10
145.737828462
 20
118.592222091
 10
145.7462065131
 20
118.5963119179
 10
145.7548697891
 20
118.6004312132
 10
145.7638176206
 20
118.604579508
 10
145.7731008591
 20
118.6087315622
 10
145.782724217
 20
118.6128894557
 10
145.7926829818
 20
118.6170511085
 10
145.8030138676
 20
118.6211850406
 10
145.813719423
 20
118.6252921137
 10
145.8247970993
 20
118.629371466
 10
145.8362759645
 20
118.6333890319
 10
145.8481605772
 20
118.637346193
 10
145.8604463787
 20
118.6412415677
 10
145.8731487606
 20
118.6450369464
 10
145.8862878744
 20
118.648736308
 10
145.8998435686
 20
118.6523356737
 10
145.9137707803
 20
118.6557848974
 10
145.9281006694
 20
118.6590853976
 10
145.942802076
 20
118.6622357558
 10
145.9577364575
 20
118.6651815706
 10
145.9729066396
 20
118.6679152363
 10
145.9883097965
 20
118.6704443586
 10
146.0037989085
 20
118.6727373535
 10
146.0193636795
 20
118.6747865608
 10
146.0350144055
 20
118.6765996408
 10
146.0506349548
 20
118.67816799
 10
146.066219366
 20
118.6794870653
 10
146.0817736005
 20
118.6805614099
 10
146.0971994113
 20
118.6813960498
 10
146.112486678
 20
118.681988196
 10
146.1276455209
 20
118.6823406377
 10
146.1426080536
 20
118.6824667678
 10
146.1573723644
 20
118.6823652094
 10
146.171940365
 20
118.6820373394
 10
146.1862499047
 20
118.6815006817
 10
146.2003056739
 20
118.6807529485
 10
146.2141029822
 20
118.6797964276
 10
146.2275656073
 20
118.6786555063
 10
146.2406775859
 20
118.6773299648
 10
146.2534548813
 20
118.6758200228
 10
146.2658691614
 20
118.6741507277
 10
146.2779136488
 20
118.6723228043
 10
146.2895951208
 20
118.6703355278
 10
146.3009055768
 20
118.6682117701
 10
146.3118370979
 20
118.6659537799
 10
146.322397603
 20
118.6635593085
 10
146.3326028487
 20
118.6610444822
 10
146.3424507362
 20
118.6584114013
 10
146.3519433643
 20
118.6556579654
 10
146.3611027864
 20
118.6527939996
 10
146.3699294815
 20
118.6498211617
 10
146.3784229704
 20
118.6467377938
 10
146.3866038695
 20
118.6435487476
 10
146.3944790506
 20
118.6402556402
 10
146.4020416419
 20
118.6368568544
 10
146.4092916432
 20
118.6333523902
  0
LINE
  5
357
100
AcDbEntity
  8
RACCORDO
100
AcDbLine
 62
7
  6
CONTINUOUS
 10
145.3281510012
 20
118.5150535618
 11
145.3385652894
 21
118.5202614632
  0
LINE
  5
358
100
AcDbEntity
  8
ASSI
100
AcDbLine
 62
7
  6
CONTINUOUS
 10
147.096170025
 20
119.9802182629
 11
145.603651173
 21
119.2339588369
  0
LINE
  5
359
100
AcDbEntity
  8
0
100
AcDbLine
 62
7
  6
CONTINUOUS
 10
155.0675503693
 20
123.2360462795
 11
158.6030842752
 21
125.0038132325
  0
LINE
  5
35A
100
AcDbEntity
  8
0
100
AcDbLine
 62
7
  6
CONTINUOUS
 10
155.2796824036
 20
123.1299802623
 11
158.8152163095
 21
124.8977472153
  0
LINE
  5
35B
100
AcDbEntity
  8
0
100
AcDbLine
 62
7
  6
CONTINUOUS
 10
155.5625251161
 20
122.9885589061
 11
159.098059022
 21
124.756325859
  0
LINE
  5
35C
100
AcDbEntity
  8
0
100
AcDbLine
 62
7
  6
CONTINUOUS
 10
155.7746571504
 20
122.8824928889
 11
159.3101910564
 21
124.6502598419
  0
LINE
  5
35D
100
AcDbEntity
  8
0
100
AcDbLine
 62
7
  6
CONTINUOUS
 10
156.0574998629
 20
122.7410715327
 11
159.5930337689
 21
124.5088384856
  0
LINE
  5
35E
100
AcDbEntity
  8
0
100
AcDbLine
 62
7
  6
CONTINUOUS
 10
158.4102690522
 20
123.705324093
 11
159.8051658032
 21
124.4027724684
  0
LINE
  5
35F
100
AcDbEntity
  8
0
100
AcDbLine
 62
7
  6
CONTINUOUS
 10
159.0898079995
 20
123.7622508541
 11
160.0880085157
 21
124.2613511122
  0
LINE
  5
360
100
AcDbEntity
  8
0
100
AcDbLine
 62
7
  6
CONTINUOUS
 10
159.3669259756
 20
123.6886778078
 11
160.30014055
 21
124.155285095
  0
LINE
  5
361
100
AcDbEntity
  8
0
100
AcDbLine
 62
7
  6
CONTINUOUS
 10
159.6549130293
 20
123.5498286222
 11
160.5829832625
 21
124.0138637388
  0
LINE
  5
362
100
AcDbEntity
  8
0
100
AcDbLine
 62
7
  6
CONTINUOUS
 10
145.9818658464
 20
116.5498339513
 11
150.6316591305
 21
118.8415991552
  0
LWPOLYLINE
  5
363
100
AcDbEntity
  8
0
100
AcDbPolyline
 62
250
  6
CONTINUOUS
 90
7
 70
0
 10
150.7209005436
 20
118.8358188671
 10
150.7301951389
 20
118.8402502501
 10
150.7394818862
 20
118.8443784937
 10
150.7487543649
 20
118.8482007439
 10
150.758006164
 20
118.8517143579
 10
150.7672308875
 20
118.8549169067
 10
150.776422159
 20
118.8578061765
  0
LWPOLYLINE
  5
364
100
AcDbEntity
  8
0
100
AcDbPolyline
 62
7
  6
CONTINUOUS
 90
10
 70
0
 10
150.6316591305
 20
118.8415991552
 10
150.6427556472
 20
118.8468756198
 10
150.653858166
 20
118.8517735429
 10
150.6649601747
 20
118.8562956878
 10
150.6760585946
 20
118.8604461178
 10
150.6871439485
 20
118.8642264593
 10
150.6981993782
 20
118.8676366758
 10
150.7092142357
 20
118.8706797881
 10
150.7201850199
 20
118.8733610812
 10
150.7311043858
 20
118.8756848145
  0
LWPOLYLINE
  5
365
100
AcDbEntity
  8
RACCORDO
100
AcDbPolyline
 62
250
  6
CONTINUOUS
 90
6
 70
0
 10
145.6401557626
 20
118.541980981
 10
145.6465013972
 20
118.5449766524
 10
145.6528958256
 20
118.548072697
 10
145.6593390478
 20
118.5512691146
 10
145.6658087661
 20
118.5545690657
 10
145.6789614769
 20
118.561460606
  0
LWPOLYLINE
  5
366
100
AcDbEntity
  8
0
100
AcDbPolyline
 62
250
  6
CONTINUOUS
 90
6
 70
0
 10
150.6316591305
 20
118.8415991552
 10
150.6346386578
 20
118.8429881455
 10
150.6500796376
 20
118.8479144042
 10
150.6667183053
 20
118.8496631294
 10
150.6842699687
 20
118.8482044
 10
150.702434314
 20
118.8435631751
  0
LINE
  5
367
100
AcDbEntity
  8
RACCORDO
100
AcDbLine
 62
7
  6
CONTINUOUS
 10
145.3385649401
 20
118.5202612748
 11
145.4573556287
 21
118.5752334484
  0
LINE
  5
368
100
AcDbEntity
  8
RACCORDO
100
AcDbLine
 62
250
  6
CONTINUOUS
 10
145.5569103144
 20
118.5035354743
 11
145.6401557626
 21
118.541980981
  0
LINE
  5
369
100
AcDbEntity
  8
0
100
AcDbLine
 62
7
  6
CONTINUOUS
 10
152.4179986112
 20
120.9437222091
 11
158.3178775308
 21
123.6684818095
  0
LINE
  5
36A
100
AcDbEntity
  8
0
100
AcDbLine
 62
7
  6
CONTINUOUS
 10
159.9158699183
 20
124.3474204109
 11
160.3775285053
 21
124.5606296453
  0
LINE
  5
36B
100
AcDbEntity
  8
0
100
AcDbLine
 62
250
  6
CONTINUOUS
 10
152.4155717917
 20
120.8250364934
 11
158.5336872389
 21
123.6505849542
  0
LINE
  5
36C
100
AcDbEntity
  8
0
100
AcDbLine
 62
250
  6
CONTINUOUS
 10
160.0380999864
 20
124.2863053769
 11
160.5933382102
 21
124.5427327886
  0
LINE
  5
36D
100
AcDbEntity
  8
0
100
AcDbLine
 62
7
  6
CONTINUOUS
 10
166.6779435123
 20
126.4083513287
 11
160.0551329123
 21
123.3497179212
  0
LINE
  5
36E
100
AcDbEntity
  8
0
100
AcDbLine
 62
250
  6
CONTINUOUS
 10
166.8937532259
 20
126.3904544761
 11
160.0527060928
 21
123.2310322055
  0
LINE
  5
36F
100
AcDbEntity
  8
RACCORDO
100
AcDbLine
 62
7
  6
CONTINUOUS
 10
145.0142410112
 20
118.3456919206
 11
145.0308062856
 21
118.3532602171
  0
LINE
  5
370
100
AcDbEntity
  8
RACCORDO
100
AcDbLine
 62
7
  6
CONTINUOUS
 10
145.3385652894
 20
118.5202614632
 11
145.3485733013
 21
118.5245363461
  0
LWPOLYLINE
  5
371
100
AcDbEntity
  8
RACCORDO
100
AcDbPolyline
 62
250
  6
CONTINUOUS
 90
8
 70
0
 10
145.4243615712
 20
118.5598850023
 10
145.4348742415
 20
118.5643543243
 10
145.4657118752
 20
118.57342853
 10
145.4983917801
 20
118.5773827892
 10
145.5325559686
 20
118.5761737891
 10
145.5678302395
 20
118.5698147662
 10
145.6038282634
 20
118.5583753993
 10
145.6401557626
 20
118.541980981
  0
LWPOLYLINE
  5
372
100
AcDbEntity
  8
0
100
AcDbPolyline
 62
250
  6
CONTINUOUS
 90
22
 70
0
 10
158.5336872389
 20
123.6505849542
 10
158.5637195813
 20
123.6632089793
 10
158.5948414806
 20
123.6744615978
 10
158.6270529366
 20
123.6843428098
 10
158.6604020862
 20
123.6928387181
 10
158.6948407926
 20
123.6999632199
 10
158.7302246455
 20
123.7057580061
 10
158.7668116104
 20
123.7102567688
 10
158.8043437217
 20
123.7134258158
 10
158.8419026726
 20
123.7152057621
 10
158.8796290349
 20
123.7155027675
 10
158.9173822367
 20
123.7144106721
 10
158.9538222563
 20
123.7121516106
 10
158.9883941063
 20
123.7087529116
 10
159.021652774
 20
123.7041872465
 10
159.0539231994
 20
123.6985947638
 10
159.0850497228
 20
123.6921576115
 10
159.115188004
 20
123.6846936416
 10
159.1451299618
 20
123.6757965594
 10
159.1751395694
 20
123.6653309334
 10
159.2049528537
 20
123.6534321951
 10
159.2345698147
 20
123.6401003445
  0
LWPOLYLINE
  5
373
100
AcDbEntity
  8
0
100
AcDbPolyline
 62
250
  6
CONTINUOUS
 90
22
 70
0
 10
160.5933382102
 20
124.5427327886
 10
160.6237033459
 20
124.5554786766
 10
160.6551575977
 20
124.5668233808
 10
160.6877009656
 20
124.5767669012
 10
160.7213858832
 20
124.5852934703
 10
160.7561599169
 20
124.5924188556
 10
160.7918657663
 20
124.598190359
 10
160.8287878812
 20
124.6026392035
 10
160.8666418117
 20
124.6057341661
 10
160.9044169072
 20
124.6074288798
 10
160.942216266
 20
124.6076237718
 10
160.9799367898
 20
124.6064184148
 10
161.0162585337
 20
124.6040651602
 10
161.0506092134
 20
124.6006001696
 10
161.0835611133
 20
124.5959872813
 10
161.1155111415
 20
124.5903703615
 10
161.1463228986
 20
124.5839315781
 10
161.1761327841
 20
124.5764887631
 10
161.2057469049
 20
124.5676392794
 10
161.2354339633
 20
124.5572489146
 10
161.264925257
 20
124.5454518811
 10
161.294220786
 20
124.5322481789
  0
LINE
  5
374
100
AcDbEntity
  8
RACCORDO
100
AcDbLine
 62
250
  6
CONTINUOUS
 10
150.3299349353
 20
73.3087582566
 11
150.7687883117
 21
73.0893315684
  0
LINE
  5
375
100
AcDbEntity
  8
RACCORDO
100
AcDbLine
 62
7
  6
CONTINUOUS
 10
150.3299349353
 20
73.3123784061
 11
150.7922033629
 21
73.0812441923
  0
LINE
  5
376
100
AcDbEntity
  8
0
100
AcDbLine
 62
250
  6
CONTINUOUS
 10
149.4106619995
 20
76.1468890651
 11
149.4292740704
 21
76.1375830296
  0
LINE
  5
377
100
AcDbEntity
  8
0
100
AcDbLine
 62
7
  6
CONTINUOUS
 10
149.4250090257
 20
76.2116554829
 11
149.5040686767
 21
76.1721256574
  0
LINE
  5
378
100
AcDbEntity
  8
DRAFT
100
AcDbLine
 62
7
  6
CONTINUOUS
 10
149.5494263122
 20
76.1930733166
 11
149.4318816197
 21
76.2518456629
  0
LINE
  5
379
100
AcDbEntity
  8
RACCORDO
100
AcDbLine
 62
250
  6
CONTINUOUS
 10
150.7868455957
 20
73.0788181192
 11
150.7687883117
 21
73.0893315684
  0
LWPOLYLINE
  5
37A
100
AcDbEntity
  8
RACCORDO
100
AcDbPolyline
 62
250
  6
CONTINUOUS
 90
16
 70
0
 10
133.6868293406
 20
120.695903741
 10
133.6877967991
 20
120.7190075587
 10
133.6906887921
 20
120.7428272463
 10
133.6954739689
 20
120.7671021502
 10
133.7021013625
 20
120.7915702053
 10
133.7104981055
 20
120.8159598518
 10
133.7205676457
 20
120.8399932865
 10
133.7321942239
 20
120.8634012492
 10
133.7452517192
 20
120.8859358978
 10
133.7596024479
 20
120.9073613675
 10
133.7751168202
 20
120.927476102
 10
133.7916017732
 20
120.9460222996
 10
133.8087954568
 20
120.9627233863
 10
133.8264737912
 20
120.9774021213
 10
133.8444663092
 20
120.989955834
 10
133.8625775966
 20
121.0002805559
  0
LWPOLYLINE
  5
37B
100
AcDbEntity
  8
0
100
AcDbPolyline
 62
250
  6
CONTINUOUS
 90
9
 70
0
 10
139.3917171043
 20
118.7462776169
 10
139.3957924917
 20
118.7578259098
 10
139.4015673529
 20
118.7690767349
 10
139.4087706374
 20
118.7800324934
 10
139.4176733958
 20
118.7906907841
 10
139.4287825629
 20
118.8012600485
 10
139.4422671172
 20
118.811809767
 10
139.4579580803
 20
118.8222704591
 10
139.4758554522
 20
118.832642125
  0
LINE
  5
37C
100
AcDbEntity
  8
RACCORDO
100
AcDbLine
 62
7
  6
CONTINUOUS
 10
144.1465551475
 20
117.4674898967
 11
144.9824375661
 21
118.3217353803
  0
LINE
  5
37D
100
AcDbEntity
  8
RACCORDO
100
AcDbLine
 62
250
  6
CONTINUOUS
 10
144.3070701538
 20
117.3872323936
 11
145.2279601142
 21
118.3283529053
  0
LWPOLYLINE
  5
37E
100
AcDbEntity
  8
RACCORDO
100
AcDbPolyline
 62
7
  6
CONTINUOUS
 90
4
 70
0
 10
144.9824689054
 20
118.3217533067
 10
144.9851669986
 20
118.3244346811
 10
145.0063343064
 20
118.3410695717
 10
145.0142410112
 20
118.3456919206
  0
LINE
  5
37F
100
AcDbEntity
  8
0
100
AcDbLine
 62
7
  6
CONTINUOUS
 10
155.2796824036
 20
123.1299802623
 11
155.1736163864
 21
123.0531094603
  0
LINE
  5
380
100
AcDbEntity
  8
0
100
AcDbLine
 62
7
  6
CONTINUOUS
 10
155.7746571504
 20
122.8824928889
 11
155.6685911333
 21
122.8056220869
  0
LINE
  5
381
100
AcDbEntity
  8
0
100
AcDbLine
 62
7
  6
CONTINUOUS
 10
145.9105175529
 20
114.7610196287
 11
145.5528384036
 21
114.5614236769
  0
LINE
  5
382
100
AcDbEntity
  8
RACCORDO
100
AcDbLine
 62
7
  6
CONTINUOUS
 10
148.6965667535
 20
115.1365535747
 11
147.1138100948
 21
114.3245694489
  0
LINE
  5
383
100
AcDbEntity
  8
RACCORDO
100
AcDbLine
 62
250
  6
CONTINUOUS
 10
148.8096523641
 20
115.1301055711
 11
147.226895761
 21
114.3181214737
  0
LINE
  5
384
100
AcDbEntity
  8
0
100
AcDbLine
 62
7
  6
CONTINUOUS
 10
159.8670450637
 20
123.443762605
 11
160.7951152969
 21
123.9077977216
  0
LINE
  5
385
100
AcDbEntity
  8
RACCORDO
100
AcDbLine
 62
7
  6
CONTINUOUS
 10
148.6983045044
 20
115.137422495
 11
148.6965667535
 21
115.1365535747
  0
LINE
  5
386
100
AcDbEntity
  8
0
100
AcDbLine
 62
250
  6
CONTINUOUS
 10
151.0435906591
 20
118.6744738094
 11
145.4114194407
 21
115.8648601307
  0
LINE
  5
387
100
AcDbEntity
  8
0
100
AcDbLine
 62
250
  6
CONTINUOUS
 10
151.185009622
 20
118.4305621783
 11
145.5528384036
 21
115.6209484996
  0
LINE
  5
388
100
AcDbEntity
  8
DRAFT
100
AcDbLine
 62
7
  6
CONTINUOUS
 10
145.9105175529
 20
114.7610196287
 11
151.2353516231
 21
117.3973510606
  0
LINE
  5
389
100
AcDbEntity
  8
0
100
AcDbLine
 62
250
  6
CONTINUOUS
 10
145.9820509825
 20
116.5001600825
 11
150.7209005436
 21
118.8358188671
  0
LINE
  5
38A
100
AcDbEntity
  8
RACCORDO
100
AcDbLine
 62
7
  6
CONTINUOUS
 10
151.9978064635
 20
118.7189707332
 11
151.358945687
 21
118.4063686082
  0
LINE
  5
38B
100
AcDbEntity
  8
RACCORDO
100
AcDbLine
 62
7
  6
CONTINUOUS
 10
149.2335901317
 20
115.3981878287
 11
148.6983008682
 21
115.1374314712
  0
LINE
  5
38C
100
AcDbEntity
  8
RACCORDO
100
AcDbLine
 62
250
  6
CONTINUOUS
 10
149.3441022428
 20
115.3904530376
 11
148.8096523641
 21
115.1301055711
  0
LWPOLYLINE
  5
38D
100
AcDbEntity
  8
0
100
AcDbPolyline
 62
250
  6
CONTINUOUS
 90
19
 70
0
 10
145.5528384036
 20
115.6209485333
 10
145.5155413158
 20
115.6041222636
 10
145.4755372957
 20
115.589392565
 10
145.4333100869
 20
115.5768396686
 10
145.3890838269
 20
115.5664624083
 10
145.3435767885
 20
115.5583669336
 10
145.2980851157
 20
115.5526413083
 10
145.2532588483
 20
115.5491588587
 10
145.2093689989
 20
115.5477405462
 10
145.1671361599
 20
115.5482059014
 10
145.127468755
 20
115.5502880387
 10
145.0899511575
 20
115.553762497
 10
145.0532834945
 20
115.5586350456
 10
145.0177428676
 20
115.5648377566
 10
144.9834335969
 20
115.5723231998
 10
144.9490040302
 20
115.5814718467
 10
144.9143533838
 20
115.5925567504
 10
144.8804535799
 20
115.6055356277
 10
144.8477944843
 20
115.6204712244
  0
LWPOLYLINE
  5
38E
100
AcDbEntity
  8
0
100
AcDbPolyline
 62
250
  6
CONTINUOUS
 90
19
 70
0
 10
145.4114194407
 20
115.8648601307
 10
145.3885602209
 20
115.8546497907
 10
145.3646545575
 20
115.845769084
 10
145.3397024505
 20
115.8382180107
 10
145.3132600628
 20
115.8319992208
 10
145.2857712316
 20
115.8271100642
 10
145.258567468
 20
115.8235425913
 10
145.2318077141
 20
115.8214029141
 10
145.2053330279
 20
115.8205849205
 10
145.1799980944
 20
115.8207623246
 10
145.1562549884
 20
115.8218813543
 10
145.1336516351
 20
115.8239957816
 10
145.1116864952
 20
115.8269406367
 10
145.0903369063
 20
115.830577453
 10
145.0696255309
 20
115.835044697
 10
145.0491188166
 20
115.8405927984
 10
145.0286722462
 20
115.8473052337
 10
145.008430337
 20
115.8550985264
 10
144.9883930891
 20
115.8639726764
  0
LWPOLYLINE
  5
38F
100
AcDbEntity
  8
RACCORDO
100
AcDbPolyline
 62
7
  6
CONTINUOUS
 90
9
 70
0
 10
151.9978064635
 20
118.7189707332
 10
152.0598150436
 20
118.7458506278
 10
152.1204154307
 20
118.7657750841
 10
152.179607625
 20
118.7787441022
 10
152.2378129589
 20
118.7847509383
 10
152.2946100998
 20
118.7838023361
 10
152.3487350507
 20
118.7759185273
 10
152.4001294555
 20
118.7609435022
 10
152.4387744353
 20
118.744357705
  0
LINE
  5
390
100
AcDbEntity
  8
0
100
AcDbLine
 62
250
  6
CONTINUOUS
 10
150.1487234463
 20
76.4698485932
 11
151.2032123207
 21
75.942604156
  0
LINE
  5
391
100
AcDbEntity
  8
0
100
AcDbLine
 62
7
  6
CONTINUOUS
 10
150.2814625308
 20
76.4754189819
 11
151.3359514052
 21
75.9481745447
  0
LINE
  5
392
100
AcDbEntity
  8
RACCORDO
100
AcDbLine
 62
250
  6
CONTINUOUS
 10
133.6139754929
 20
120.4375249224
 11
133.6136060359
 21
120.4443181545
  0
LWPOLYLINE
  5
393
100
AcDbEntity
  8
RACCORDO
100
AcDbPolyline
 62
250
  6
CONTINUOUS
 90
9
 70
0
 10
133.6868293406
 20
120.3559298068
 10
133.6880367296
 20
120.3312723053
 10
133.691642411
 20
120.3081589809
 10
133.697597142
 20
120.2869055714
 10
133.705835224
 20
120.2677723349
 10
133.7162357261
 20
120.2510588064
 10
133.728588959
 20
120.2370577523
 10
133.7426730757
 20
120.2259345167
 10
133.751802637
 20
120.2207113567
  0
LINE
  5
394
100
AcDbEntity
  8
RACCORDO
100
AcDbLine
 62
7
  6
CONTINUOUS
 10
133.6136060359
 20
120.7842920886
 11
133.6136060359
 21
120.4443181545
  0
LINE
  5
395
100
AcDbEntity
  8
RACCORDO
100
AcDbLine
 62
250
  6
CONTINUOUS
 10
133.6868293406
 20
120.695903741
 11
133.6868293406
 21
120.3559298068
  0
LINE
  5
396
100
AcDbEntity
  8
RACCORDO
100
AcDbLine
 62
7
  6
CONTINUOUS
 10
134.3165989902
 20
119.4843390785
 11
134.3165989902
 21
119.9383131802
  0
LINE
  5
397
100
AcDbEntity
  8
RACCORDO
100
AcDbLine
 62
250
  6
CONTINUOUS
 10
134.3898222949
 20
119.3926273837
 11
134.3898222949
 21
119.9017015278
  0
LINE
  5
398
100
AcDbEntity
  8
RACCORDO
100
AcDbLine
 62
250
  6
CONTINUOUS
 10
135.0118140204
 20
119.6934374669
 11
135.0118140204
 21
120.0334114011
  0
LINE
  5
399
100
AcDbEntity
  8
RACCORDO
100
AcDbLine
 62
250
  6
CONTINUOUS
 10
135.3643359801
 20
119.6929247431
 11
135.3643359801
 21
120.0328986772
  0
LWPOLYLINE
  5
39A
100
AcDbEntity
  8
RACCORDO
100
AcDbPolyline
 62
250
  6
CONTINUOUS
 90
16
 70
0
 10
135.0118140204
 20
120.0334114011
 10
135.0127752681
 20
120.0564395872
 10
135.0156485573
 20
120.0801785831
 10
135.0204026401
 20
120.1043702206
 10
135.0269858147
 20
120.1287514091
 10
135.0353264872
 20
120.1530569964
 10
135.0453339505
 20
120.1770226524
 10
135.0568993706
 20
120.2003877442
 10
135.0698969705
 20
120.2228981698
 10
135.0841853976
 20
120.2443091222
 10
135.0996092613
 20
120.2643877513
 10
135.1160008229
 20
120.2829156966
 10
135.1331818196
 20
120.2996914615
 10
135.1509654033
 20
120.3145326049
 10
135.1691581727
 20
120.3272777253
 10
135.1875622764
 20
120.337788216
  0
LINE
  5
39B
100
AcDbEntity
  8
RACCORDO
100
AcDbLine
 62
7
  6
CONTINUOUS
 10
155.946307866
 20
116.4516295699
 11
150.4547645378
 21
113.488815959
  0
LINE
  5
39C
100
AcDbEntity
  8
RACCORDO
100
AcDbLine
 62
250
  6
CONTINUOUS
 10
150.6814284034
 20
114.7217899574
 11
148.5518804408
 21
113.6556291338
  0
LINE
  5
39D
100
AcDbEntity
  8
RACCORDO
100
AcDbLine
 62
250
  6
CONTINUOUS
 10
150.8582021071
 20
114.4169004185
 11
148.7286541445
 21
113.350739595
  0
LINE
  5
39E
100
AcDbEntity
  8
RACCORDO
100
AcDbLine
 62
7
  6
CONTINUOUS
 10
155.0647724074
 20
117.1854877613
 11
150.3812355279
 21
114.933863766
  0
LWPOLYLINE
  5
39F
100
AcDbEntity
  8
0
100
AcDbPolyline
 62
250
  6
CONTINUOUS
 90
9
 70
0
 10
174.2091965729
 20
122.7327328026
 10
174.2700300764
 20
122.7586318689
 10
174.3303360404
 20
122.7778645347
 10
174.3896656168
 20
122.7902824351
 10
174.4475817341
 20
122.7957878935
 10
174.5036466912
 20
122.7943329506
 10
174.5574272574
 20
122.785926049
 10
174.608518287
 20
122.7706315829
 10
174.6437374506
 20
122.7552619283
  0
LWPOLYLINE
  5
3A0
100
AcDbEntity
  8
RACCORDO
100
AcDbPolyline
 62
250
  6
CONTINUOUS
 90
16
 70
0
 10
148.7286541445
 20
71.7111615215
 10
148.7184788869
 20
71.7265410922
 10
148.7064953435
 20
71.7427406406
 10
148.6928252196
 20
71.7595879926
 10
148.6776012621
 20
71.776911693
 10
148.6609895979
 20
71.7945156217
 10
148.6431948447
 20
71.8121801628
 10
148.6244221106
 20
71.8297026233
 10
148.6048674745
 20
71.8469008485
 10
148.5847439989
 20
71.8635874117
 10
148.5642709998
 20
71.8795803081
 10
148.5436730634
 20
71.8947039543
 10
148.5231768139
 20
71.9087919563
 10
148.5030068386
 20
71.9216900705
 10
148.4833832343
 20
71.9332576789
 10
148.4645205325
 20
71.9433684192
  0
LWPOLYLINE
  5
3A1
100
AcDbEntity
  8
RACCORDO
100
AcDbPolyline
 62
250
  6
CONTINUOUS
 90
9
 70
0
 10
135.0118140204
 20
119.6934374669
 10
135.0130214094
 20
119.6687799654
 10
135.0166270908
 20
119.645666641
 10
135.0225818218
 20
119.6244132315
 10
135.0308199039
 20
119.605279995
 10
135.0412204059
 20
119.5885664665
 10
135.0535736388
 20
119.5745654124
 10
135.0676577555
 20
119.5634421768
 10
135.0767795087
 20
119.5582229213
  0
LWPOLYLINE
  5
3A2
100
AcDbEntity
  8
RACCORDO
100
AcDbPolyline
 62
250
  6
CONTINUOUS
 90
16
 70
0
 10
135.3643359801
 20
120.0328986772
 10
135.3632585538
 20
120.0560385269
 10
135.3602549157
 20
120.0799046095
 10
135.3553579301
 20
120.1042338145
 10
135.3486202424
 20
120.1287614278
 10
135.3401165199
 20
120.1532133357
 10
135.3299451423
 20
120.1773093165
 10
135.3182237544
 20
120.2007775703
 10
135.3050804493
 20
120.2233676137
 10
135.2906548982
 20
120.2448411177
 10
135.2750787005
 20
120.2649941846
 10
135.2585468896
 20
120.2835670449
 10
135.241322922
 20
120.3002816147
 10
135.2236321972
 20
120.314959357
 10
135.2056464897
 20
120.327496453
 10
135.1875622764
 20
120.337788216
  0
LINE
  5
3A3
100
AcDbEntity
  8
RACCORDO
100
AcDbLine
 62
250
  6
CONTINUOUS
 10
135.7230346285
 20
119.4148418398
 11
135.7230346285
 21
118.7260212168
  0
LINE
  5
3A4
100
AcDbEntity
  8
RACCORDO
100
AcDbLine
 62
250
  6
CONTINUOUS
 10
136.0755565882
 20
119.5444212202
 11
136.0755565882
 21
118.7367890985
  0
LINE
  5
3A5
100
AcDbEntity
  8
RACCORDO
100
AcDbLine
 62
7
  6
CONTINUOUS
 10
136.9656167709
 20
119.2334700197
 11
136.9656167709
 21
120.8356206807
  0
LINE
  5
3A6
100
AcDbEntity
  8
RACCORDO
100
AcDbLine
 62
250
  6
CONTINUOUS
 10
137.4938839426
 20
121.0990595007
 11
137.4938839426
 21
120.751527984
  0
LINE
  5
3A7
100
AcDbEntity
  8
RACCORDO
100
AcDbLine
 62
7
  6
CONTINUOUS
 10
137.5660817996
 20
121.1869321329
 11
137.5660817996
 21
120.8394006162
  0
LWPOLYLINE
  5
3A8
100
AcDbEntity
  8
RACCORDO
100
AcDbPolyline
 62
250
  6
CONTINUOUS
 90
9
 70
0
 10
137.5660817611
 20
121.1868627684
 10
137.5658068962
 20
121.1810717547
 10
137.5632185074
 20
121.1680678302
 10
137.5579244971
 20
121.1552615247
 10
137.5499800582
 20
121.1427970996
 10
137.5394743246
 20
121.1308166721
 10
137.52652479
 20
121.1194529735
 10
137.5112722306
 20
121.1088285228
 10
137.4938839426
 20
121.0990595007
  0
LWPOLYLINE
  5
3A9
100
AcDbEntity
  8
RACCORDO
100
AcDbPolyline
 62
250
  6
CONTINUOUS
 90
9
 70
0
 10
137.5660817996
 20
120.8394006162
 10
137.5657856834
 20
120.8333184614
 10
137.563158053
 20
120.8203393662
 10
137.5578391063
 20
120.8075674391
 10
137.5498866397
 20
120.7951420104
 10
137.5393873772
 20
120.7831987056
 10
137.5264557996
 20
120.771867698
 10
137.5112327112
 20
120.7612723215
 10
137.4938839426
 20
120.751527984
  0
LWPOLYLINE
  5
3AA
100
AcDbEntity
  8
0
100
AcDbPolyline
 62
250
  6
CONTINUOUS
 90
19
 70
0
 10
144.5069092924
 20
109.3591591123
 10
144.4441553226
 20
109.3209520912
 10
144.3823700829
 20
109.2765658779
 10
144.3220204259
 20
109.2264006743
 10
144.2633487898
 20
109.1706913669
 10
144.2070064904
 20
109.1100825963
 10
144.1539674828
 20
109.0457947924
 10
144.1043983698
 20
108.9783125342
 10
144.058662696
 20
108.9084348079
 10
144.0176994754
 20
108.8381561804
 10
143.9820003979
 20
108.7693282373
 10
143.9507697238
 20
108.701475568
 10
143.9230359384
 20
108.6330324206
 10
143.8990112051
 20
108.5648005304
 10
143.878586981
 20
108.4967580075
 10
143.8610731567
 20
108.4259624558
 10
143.8468569734
 20
108.3517708015
 10
143.8368307234
 20
108.275859954
 10
143.8315917918
 20
108.1989094658
  0
LWPOLYLINE
  5
3AB
100
AcDbEntity
  8
0
100
AcDbPolyline
 62
250
  6
CONTINUOUS
 90
19
 70
0
 10
144.8727420324
 20
108.7561566666
 10
144.8407173271
 20
108.7368257326
 10
144.8096359825
 20
108.7148325922
 10
144.7794979987
 20
108.6901772453
 10
144.7500241102
 20
108.6624754505
 10
144.7214935826
 20
108.6321114492
 10
144.6947442116
 20
108.6002379656
 10
144.6698718663
 20
108.5666928399
 10
144.6467806778
 20
108.5316382318
 10
144.6260208349
 20
108.4967133448
 10
144.6079420465
 20
108.4625464777
 10
144.5921946037
 20
108.4285093317
 10
144.5782795699
 20
108.3943562131
 10
144.566034715
 20
108.3603392291
 10
144.555622269
 20
108.3262062725
 10
144.5470299844
 20
108.2909553287
 10
144.5402537787
 20
108.2542523926
 10
144.5352977343
 20
108.2164314693
 10
144.5321618513
 20
108.1774925587
  0
LINE
  5
3AC
100
AcDbEntity
  8
RACCORDO
100
AcDbLine
 62
7
  6
CONTINUOUS
 10
150.3299349353
 20
112.5513109375
 11
149.4398747526
 21
112.0546300163
  0
LINE
  5
3AD
100
AcDbEntity
  8
0
100
AcDbLine
 62
250
  6
CONTINUOUS
 10
145.666125711
 20
109.9920094286
 11
144.5069092924
 21
109.3591591123
  0
LINE
  5
3AE
100
AcDbEntity
  8
RACCORDO
100
AcDbLine
 62
250
  6
CONTINUOUS
 10
150.3566780254
 20
112.5379393925
 11
145.6802570816
 21
109.9849437433
  0
LINE
  5
3AF
100
AcDbEntity
  8
RACCORDO
100
AcDbLine
 62
250
  6
CONTINUOUS
 10
150.6973409556
 20
111.9533048594
 11
146.0194099769
 21
109.3994848378
  0
LINE
  5
3B0
100
AcDbEntity
  8
0
100
AcDbLine
 62
250
  6
CONTINUOUS
 10
146.0194099769
 20
109.382156402
 11
144.8727420324
 21
108.7561566666
  0
LINE
  5
3B1
100
AcDbEntity
  8
RACCORDO
100
AcDbLine
 62
7
  6
CONTINUOUS
 10
155.946307866
 20
115.954299613
 11
150.5881565289
 21
113.1217492327
  0
LINE
  5
3B2
100
AcDbEntity
  8
0
100
AcDbLine
 62
7
  6
CONTINUOUS
 10
151.2032123207
 20
110.4861561667
 11
149.4008220439
 21
109.5780116676
  0
LWPOLYLINE
  5
3B3
100
AcDbEntity
  8
0
100
AcDbPolyline
 62
250
  6
CONTINUOUS
 90
12
 70
0
 10
174.7495051136
 20
122.1595032509
 10
174.8077828183
 20
122.188054967
 10
174.8618142489
 20
122.2136517087
 10
174.9111972752
 20
122.2361029717
 10
174.9555643629
 20
122.2552416619
 10
174.9945853089
 20
122.2709253393
 10
175.027969699
 20
122.2830372776
 10
175.055469069
 20
122.2914873335
 10
175.0768787542
 20
122.2962126172
 10
175.0920394125
 20
122.2971779608
 10
175.1008382105
 20
122.2943761796
 10
175.1023483624
 20
122.2926016084
  0
LINE
  5
3B4
100
AcDbEntity
  8
DRAFT
100
AcDbLine
 62
7
  6
CONTINUOUS
 10
151.0825252433
 20
112.8741237829
 11
156.7488372817
 21
115.626529685
  0
LINE
  5
3B5
100
AcDbEntity
  8
0
100
AcDbLine
 62
250
  6
CONTINUOUS
 10
157.3709382696
 20
114.5535641966
 11
174.2091965729
 21
122.7327328026
  0
LINE
  5
3B6
100
AcDbEntity
  8
0
100
AcDbLine
 62
250
  6
CONTINUOUS
 10
157.7086066034
 20
113.9711724696
 11
174.7673455374
 21
122.2576829044
  0
LWPOLYLINE
  5
3B7
100
AcDbEntity
  8
0
100
AcDbPolyline
 62
250
  6
CONTINUOUS
 90
11
 70
0
 10
174.7673455374
 20
122.2576829044
 10
174.8213465869
 20
122.2832664511
 10
174.8707186311
 20
122.3057145828
 10
174.9150943723
 20
122.324859332
 10
174.9541347697
 20
122.3405533517
 10
174.9875365257
 20
122.3526741948
 10
175.0150486256
 20
122.361130993
 10
175.0364697054
 20
122.3658621172
 10
175.0516404956
 20
122.3668323404
 10
175.0604478765
 20
122.3640341888
 10
175.0619636693
 20
122.3622549007
  0
LINE
  5
3B8
100
AcDbEntity
  8
RACCORDO
100
AcDbLine
 62
250
  6
CONTINUOUS
 10
151.0757656399
 20
112.8779446772
 11
150.356316264
 21
112.5381202732
  0
LINE
  5
3B9
100
AcDbEntity
  8
RACCORDO
100
AcDbLine
 62
250
  6
CONTINUOUS
 10
151.4152802966
 20
112.2924160142
 11
150.6973409556
 21
111.9533048594
  0
LWPOLYLINE
  5
3BA
100
AcDbEntity
  8
0
100
AcDbPolyline
 62
250
  6
CONTINUOUS
 90
16
 70
0
 10
144.5321618513
 20
108.1774925587
 10
144.4931541111
 20
108.1624016655
 10
144.4508428547
 20
108.1493993089
 10
144.4056814269
 20
108.1386248032
 10
144.3581537107
 20
108.1301935918
 10
144.3087689427
 20
108.1241960112
 10
144.258056257
 20
108.1206963226
 10
144.2065590156
 20
108.1197320235
 10
144.1548289868
 20
108.1213134459
 10
144.103420433
 20
108.1254236456
 10
144.0528841721
 20
108.1320185838
 10
144.0037616759
 20
108.1410275989
 10
143.9565792683
 20
108.1523541637
 10
143.9118424863
 20
108.1658769195
 10
143.8700306629
 20
108.1814509763
 10
143.8315917918
 20
108.1989094658
  0
LWPOLYLINE
  5
3BB
100
AcDbEntity
  8
RACCORDO
100
AcDbPolyline
 62
250
  6
CONTINUOUS
 90
3
 70
0
 10
149.5247964093
 20
109.0897255623
 10
149.5478556977
 20
109.097365914
 10
149.5754164734
 20
109.1093494217
  0
LWPOLYLINE
  5
3BC
100
AcDbEntity
  8
RACCORDO
100
AcDbPolyline
 62
7
  6
CONTINUOUS
 90
13
 70
0
 10
136.9656167709
 20
120.8356206807
 10
136.9639783126
 20
120.8645731568
 10
136.9593609654
 20
120.8945513252
 10
136.9518437301
 20
120.9250422732
 10
136.9415552243
 20
120.9555243154
 10
136.9286714788
 20
120.9854759175
 10
136.9134129256
 20
121.0143846199
 10
136.8960406297
 20
121.041755807
 10
136.876851825
 20
121.0671211714
 10
136.8561748261
 20
121.0900467246
 10
136.8343634079
 20
121.1101402215
 10
136.8117907524
 20
121.1270578709
 10
136.7888430672
 20
121.1405102195
  0
LWPOLYLINE
  5
3BD
100
AcDbEntity
  8
RACCORDO
100
AcDbPolyline
 62
250
  6
CONTINUOUS
 90
16
 70
0
 10
137.4938839426
 20
121.0990595007
 10
137.4930108609
 20
121.1223015227
 10
137.4901866407
 20
121.1462573143
 10
137.4854421644
 20
121.1706627739
 10
137.4788284073
 20
121.1952523525
 10
137.4704186414
 20
121.2197512388
 10
137.4603101849
 20
121.2438786801
 10
137.4486200211
 20
121.2673625459
 10
137.4354759594
 20
121.289952211
 10
137.4210176955
 20
121.3114093586
 10
137.4053770504
 20
121.3315302018
 10
137.3887497933
 20
121.350055339
 10
137.3714010736
 20
121.3667075328
 10
137.3535583091
 20
121.3813092552
 10
137.3353951224
 20
121.3937576116
 10
137.3171102389
 20
121.4039490396
  0
LINE
  5
3BE
100
AcDbEntity
  8
0
100
AcDbLine
 62
7
  6
CONTINUOUS
 10
139.1900407752
 20
118.5533443354
 11
139.1900407752
 21
117.4789648531
  0
LINE
  5
3BF
100
AcDbEntity
  8
0
100
AcDbLine
 62
250
  6
CONTINUOUS
 10
139.3364873846
 20
118.3761247743
 11
139.3364873846
 21
117.2955414635
  0
LWPOLYLINE
  5
3C0
100
AcDbEntity
  8
0
100
AcDbPolyline
 62
250
  6
CONTINUOUS
 90
13
 70
0
 10
139.3364873846
 20
118.3761247743
 10
139.3376884718
 20
118.3992510854
 10
139.3412712746
 20
118.4231854596
 10
139.3471748799
 20
118.4475213436
 10
139.3552989703
 20
118.4718454127
 10
139.3655054994
 20
118.4957444958
 10
139.3776210124
 20
118.5188126005
 10
139.3914396616
 20
118.5406579544
 10
139.4067267019
 20
118.5609096026
 10
139.4232224224
 20
118.5792236288
 10
139.4406466185
 20
118.5952890834
 10
139.4587033612
 20
118.6088332481
 10
139.4770859894
 20
118.6196262262
  0
LINE
  5
3C1
100
AcDbEntity
  8
RACCORDO
100
AcDbLine
 62
250
  6
CONTINUOUS
 10
150.3299349353
 20
113.426416746
 11
150.8582021071
 21
114.0693689018
  0
LINE
  5
3C2
100
AcDbEntity
  8
RACCORDO
100
AcDbLine
 62
7
  6
CONTINUOUS
 10
150.3299349353
 20
113.3368862797
 11
150.8735626794
 21
113.9985337352
  0
LWPOLYLINE
  5
3C3
100
AcDbEntity
  8
RACCORDO
100
AcDbPolyline
 62
7
  6
CONTINUOUS
 90
15
 70
0
 10
149.4398747526
 20
112.862262138
 10
149.4219658492
 20
112.8423898435
 10
149.4025593212
 20
112.8232621356
 10
149.38170588
 20
112.8051127034
 10
149.3593974866
 20
112.788206219
 10
149.3358081485
 20
112.772745893
 10
149.3112871015
 20
112.7588808978
 10
149.2859639435
 20
112.7468479654
 10
149.2599959831
 20
112.736867807
 10
149.2337976759
 20
112.7290762089
 10
149.2075788348
 20
112.7236852628
 10
149.1815508679
 20
112.7208805885
 10
149.1561606491
 20
112.7207711166
 10
149.1317458749
 20
112.7235047068
 10
149.1261228989
 20
112.7245875248
  0
LWPOLYLINE
  5
3C4
100
AcDbEntity
  8
RACCORDO
100
AcDbPolyline
 62
250
  6
CONTINUOUS
 90
10
 70
0
 10
149.5247964093
 20
108.9664574519
 10
149.5254318834
 20
108.9669889776
 10
149.536711617
 20
108.9793441424
 10
149.5466781744
 20
108.993499295
 10
149.555255694
 20
109.0093468942
 10
149.562378775
 20
109.0267662506
 10
149.5679931865
 20
109.045624585
 10
149.5720562207
 20
109.0657782502
 10
149.5745369453
 20
109.0870738982
 10
149.5754164734
 20
109.1093494217
  0
LWPOLYLINE
  5
3C5
100
AcDbEntity
  8
0
100
AcDbPolyline
 62
7
  6
CONTINUOUS
 90
13
 70
0
 10
175.0875876068
 20
120.4209519279
 10
175.1005603107
 20
120.4279005174
 10
175.1621025196
 20
120.4647054883
 10
175.2176203463
 20
120.5044725274
 10
175.2669235785
 20
120.5468340342
 10
175.3101547494
 20
120.5916315721
 10
175.3472087804
 20
120.6384256795
 10
175.3780912653
 20
120.6867868186
 10
175.4029473716
 20
120.7364376546
 10
175.4218467533
 20
120.7869153742
 10
175.4348941061
 20
120.837682709
 10
175.442286794
 20
120.8882531765
 10
175.4443156423
 20
120.9324413297
  0
LINE
  5
3C6
100
AcDbEntity
  8
0
100
AcDbLine
 62
250
  6
CONTINUOUS
 10
174.7495051136
 20
122.1595032509
 11
150.9764446314
 21
110.0648924669
  0
LINE
  5
3C7
100
AcDbEntity
  8
0
100
AcDbLine
 62
250
  6
CONTINUOUS
 10
175.1636555893
 20
120.7278696763
 11
151.3905951071
 21
108.6332588923
  0
LINE
  5
3C8
100
AcDbEntity
  8
0
100
AcDbLine
 62
7
  6
CONTINUOUS
 10
171.1285262841
 20
117.7932043846
 11
170.6759779442
 21
117.5669302146
  0
LINE
  5
3C9
100
AcDbEntity
  8
0
100
AcDbLine
 62
7
  6
CONTINUOUS
 10
169.3324750599
 20
116.8951787724
 11
168.87992672
 21
116.6689046025
  0
LINE
  5
3CA
100
AcDbEntity
  8
0
100
AcDbLine
 62
7
  6
CONTINUOUS
 10
172.4720291684
 20
118.4649558267
 11
172.9245775084
 21
118.6912299967
  0
LINE
  5
3CB
100
AcDbEntity
  8
0
100
AcDbLine
 62
7
  6
CONTINUOUS
 10
172.9245775084
 20
118.3766035597
 11
172.7548718809
 21
118.2917507459
  0
LINE
  5
3CC
100
AcDbEntity
  8
0
100
AcDbLine
 62
7
  6
CONTINUOUS
 10
169.1627694324
 20
116.4956995217
 11
169.3324750599
 21
116.5805523355
  0
LINE
  5
3CD
100
AcDbEntity
  8
0
100
AcDbLine
 62
7
  6
CONTINUOUS
 10
170.9588206567
 20
117.3937251338
 11
171.1285262841
 21
117.4785779476
  0
LINE
  5
3CE
100
AcDbEntity
  8
RACCORDO
100
AcDbLine
 62
250
  6
CONTINUOUS
 10
150.2540090487
 20
109.4420869968
 11
149.5754164734
 21
109.1093494217
  0
LINE
  5
3CF
100
AcDbEntity
  8
RACCORDO
100
AcDbLine
 62
7
  6
CONTINUOUS
 10
150.3238942276
 20
109.3523192794
 11
149.5247964093
 21
108.9604937864
  0
LINE
  5
3D0
100
AcDbEntity
  8
0
100
AcDbLine
 62
7
  6
CONTINUOUS
 10
150.1487234463
 20
108.4261859928
 11
149.4292740704
 21
108.0939204293
  0
LINE
  5
3D1
100
AcDbEntity
  8
0
100
AcDbLine
 62
7
  6
CONTINUOUS
 10
150.2668906235
 20
108.4374417754
 11
150.453678622
 21
108.523706663
  0
LINE
  5
3D2
100
AcDbEntity
  8
0
100
AcDbLine
 62
250
  6
CONTINUOUS
 10
150.3418927366
 20
108.4015412786
 11
150.453678622
 21
108.453167705
  0
LINE
  5
3D3
100
AcDbEntity
  8
0
100
AcDbLine
 62
7
  6
CONTINUOUS
 10
151.2032123207
 20
107.8989415556
 11
149.4008220439
 21
107.0665379966
  0
LWPOLYLINE
  5
3D4
100
AcDbEntity
  8
RACCORDO
100
AcDbPolyline
 62
250
  6
CONTINUOUS
 90
6
 70
0
 10
150.8562148704
 20
72.993152107
 10
150.8456676327
 20
73.0141078841
 10
150.8333123583
 20
73.0333528615
 10
150.8192849844
 20
73.0506753012
 10
150.803739442
 20
73.0658856318
 10
150.7868455957
 20
73.0788181192
  0
LWPOLYLINE
  5
3D5
100
AcDbEntity
  8
0
100
AcDbPolyline
 62
250
  6
CONTINUOUS
 90
19
 70
0
 10
144.5321618513
 20
71.8091092095
 10
144.5350442258
 20
71.7719172394
 10
144.5405260965
 20
71.7370830992
 10
144.5486074635
 20
71.7046067887
 10
144.5594924562
 20
71.6742481657
 10
144.5729769452
 20
71.6462473726
 10
144.5884485422
 20
71.621324836
 10
144.6060816
 20
71.5996777337
 10
144.6257017659
 20
71.5811088879
 10
144.6461735939
 20
71.5657471926
 10
144.6671191274
 20
71.5538359748
 10
144.688916323
 20
71.5451319074
 10
144.7115636052
 20
71.5390339025
 10
144.7347846684
 20
71.5352168363
 10
144.7588558182
 20
71.5340058326
 10
144.7846043953
 20
71.5357751748
 10
144.8123061802
 20
71.5406496238
 10
144.8416853926
 20
71.5485044187
 10
144.8727420324
 20
71.5593395594
  0
LWPOLYLINE
  5
3D6
100
AcDbEntity
  8
0
100
AcDbPolyline
 62
250
  6
CONTINUOUS
 90
11
 70
0
 10
143.8315917918
 20
71.7941213284
 10
143.8370244467
 20
71.7205383256
 10
143.8479378889
 20
71.6507477618
 10
143.8642010284
 20
71.5852574811
 10
143.88573114
 20
71.5243265787
 10
143.9122674206
 20
71.4686232169
 10
143.9431994316
 20
71.4190354522
 10
143.9782036185
 20
71.3756045345
 10
144.0167780785
 20
71.3385367608
 10
144.0576594181
 20
71.3083752242
 10
144.0923539004
 20
71.2885938975
  0
LWPOLYLINE
  5
3D7
100
AcDbEntity
  8
RACCORDO
100
AcDbPolyline
 62
250
  6
CONTINUOUS
 90
14
 70
0
 10
148.7286541445
 20
113.0107656609
 10
148.7184195239
 20
112.9871037986
 10
148.7063782379
 20
112.9646706401
 10
148.6926617256
 20
112.9437110592
 10
148.6774197124
 20
112.9244538445
 10
148.6608185757
 20
112.907109202
 10
148.6430395285
 20
112.8918664608
 10
148.6242766417
 20
112.8788920061
 10
148.6047347254
 20
112.8683274634
 10
148.5846270935
 20
112.8602881519
 10
148.564173235
 20
112.8548618264
 10
148.543596418
 20
112.8521077192
 10
148.5231212531
 20
112.8520558933
 10
148.501810651
 20
112.8549445001
  0
LWPOLYLINE
  5
3D8
100
AcDbEntity
  8
0
100
AcDbPolyline
 62
250
  6
CONTINUOUS
 90
5
 70
0
 10
149.4008220439
 20
108.0734087564
 10
149.4043201455
 20
108.0771824137
 10
149.4095341848
 20
108.0841697009
 10
149.4136599717
 20
108.0913391749
 10
149.4166744749
 20
108.0986470033
  0
LINE
  5
3D9
100
AcDbEntity
  8
0
100
AcDbLine
 62
7
  6
CONTINUOUS
 10
169.1627694324
 20
116.2878534248
 11
168.87992672
 21
116.114648344
  0
LINE
  5
3DA
100
AcDbEntity
  8
0
100
AcDbLine
 62
7
  6
CONTINUOUS
 10
170.9588206567
 20
117.1858790369
 11
170.6759779442
 21
117.0126739562
  0
LWPOLYLINE
  5
3DB
100
AcDbEntity
  8
0
100
AcDbPolyline
 62
250
  6
CONTINUOUS
 90
9
 70
0
 10
168.4612033275
 20
116.8458625993
 10
168.4694669099
 20
116.8507880417
 10
168.4863773735
 20
116.864284227
 10
168.5010200243
 20
116.881101205
 10
168.5131968479
 20
116.901011568
 10
168.5227432932
 20
116.9237461424
 10
168.5295302458
 20
116.9489974886
 10
168.5334657776
 20
116.9764240567
 10
168.5344965788
 20
117.005654911
  0
LWPOLYLINE
  5
3DC
100
AcDbEntity
  8
0
100
AcDbPolyline
 62
250
  6
CONTINUOUS
 90
9
 70
0
 10
175.0885498186
 20
120.4214680697
 10
175.096941705
 20
120.4264625574
 10
175.1140894134
 20
120.4400864475
 10
175.128977978
 20
120.4570359148
 10
175.1414060971
 20
120.4770817422
 10
175.1511993045
 20
120.4999494418
 10
175.1582251594
 20
120.5253298151
 10
175.1623950278
 20
120.5528830717
 10
175.1636555893
 20
120.5822382675
  0
LWPOLYLINE
  5
3DD
100
AcDbEntity
  8
0
100
AcDbPolyline
 62
250
  6
CONTINUOUS
 90
5
 70
0
 10
175.1636555893
 20
120.7278696763
 10
175.2208513849
 20
120.7601621703
 10
175.2722677374
 20
120.7947993389
 10
175.3175219823
 20
120.8315233903
 10
175.3562773193
 20
120.8700610031
  0
LWPOLYLINE
  5
3DE
100
AcDbEntity
  8
0
100
AcDbPolyline
 62
250
  6
CONTINUOUS
 90
5
 70
0
 10
168.5344965788
 20
117.005654911
 10
168.4976465812
 20
116.9853904587
 10
168.4596753571
 20
116.9630192386
 10
168.4205829065
 20
116.9385412506
 10
168.3803986267
 20
116.9121300801
  0
LINE
  5
3DF
100
AcDbEntity
  8
0
100
AcDbLine
 62
7
  6
CONTINUOUS
 10
175.0885498186
 20
120.4214680697
 11
168.4611781947
 21
116.8458490355
  0
LINE
  5
3E0
100
AcDbEntity
  8
0
100
AcDbLine
 62
7
  6
CONTINUOUS
 10
173.9119460879
 20
117.3521517481
 11
174.4672105348
 21
117.637575889
  0
LINE
  5
3E1
100
AcDbEntity
  8
0
100
AcDbLine
 62
7
  6
CONTINUOUS
 10
171.1285262841
 20
117.2707318507
 11
170.9588206567
 21
117.1858790369
  0
LINE
  5
3E2
100
AcDbEntity
  8
0
100
AcDbLine
 62
7
  6
CONTINUOUS
 10
169.3324750599
 20
116.3727062385
 11
169.1627694324
 21
116.2878534248
  0
LINE
  5
3E3
100
AcDbEntity
  8
0
100
AcDbLine
 62
7
  6
CONTINUOUS
 10
172.7548718809
 20
118.083904649
 11
172.9245775084
 21
118.1687574628
  0
LINE
  5
3E4
100
AcDbEntity
  8
0
100
AcDbLine
 62
7
  6
CONTINUOUS
 10
172.9245775084
 20
118.1369737382
 11
172.4720291684
 21
117.9106995683
  0
LINE
  5
3E5
100
AcDbEntity
  8
0
100
AcDbLine
 62
7
  6
CONTINUOUS
 10
171.1285262841
 20
117.2389481261
 11
170.6759779442
 21
117.0126739562
  0
LINE
  5
3E6
100
AcDbEntity
  8
0
100
AcDbLine
 62
7
  6
CONTINUOUS
 10
169.3324750599
 20
116.340922514
 11
168.87992672
 21
116.114648344
  0
LINE
  5
3E7
100
AcDbEntity
  8
0
100
AcDbLine
 62
7
  6
CONTINUOUS
 10
174.6698705012
 20
117.3277218634
 11
168.0428513512
 21
114.0406715099
  0
LINE
  5
3E8
100
AcDbEntity
  8
0
100
AcDbLine
 62
250
  6
CONTINUOUS
 10
168.4297852665
 20
113.5784872281
 11
175.0568016352
 21
116.865540871
  0
LINE
  5
3E9
100
AcDbEntity
  8
0
100
AcDbLine
 62
250
  6
CONTINUOUS
 10
168.5344966313
 20
113.2997715349
 11
175.1636555893
 21
116.5878832626
  0
LINE
  5
3EA
100
AcDbEntity
  8
0
100
AcDbLine
 62
7
  6
CONTINUOUS
 10
173.9296334838
 20
117.3433080501
 11
167.6418542074
 21
114.2411700818
  0
LWPOLYLINE
  5
3EB
100
AcDbEntity
  8
0
100
AcDbPolyline
 62
7
  6
CONTINUOUS
 90
10
 70
0
 10
168.0428513512
 20
114.0406715099
 10
167.9664618321
 20
114.0059392492
 10
167.8904502717
 20
113.9784889174
 10
167.8152444671
 20
113.9585001752
 10
167.7412289093
 20
113.9461025533
 10
167.6688712966
 20
113.9414162935
 10
167.5987061584
 20
113.9444975485
 10
167.5311810107
 20
113.9553003894
 10
167.4666104765
 20
113.9737476315
 10
167.4049662204
 20
113.9999145369
  0
LINE
  5
3EC
100
AcDbEntity
  8
0
100
AcDbLine
 62
250
  6
CONTINUOUS
 10
148.5437396878
 20
90.7396124033
 11
148.4180623737
 21
90.8024510603
  0
LINE
  5
3ED
100
AcDbEntity
  8
0
100
AcDbLine
 62
250
  6
CONTINUOUS
 10
148.7582331011
 20
91.1005635677
 11
148.7152445798
 21
91.1220578284
  0
LWPOLYLINE
  5
3EE
100
AcDbEntity
  8
0
100
AcDbPolyline
 62
250
  6
CONTINUOUS
 90
16
 70
0
 10
144.8727420324
 20
108.7561566666
 10
144.8688754883
 20
108.8013642805
 10
144.8612503968
 20
108.8480452847
 10
144.8499501619
 20
108.8956888574
 10
144.8350984055
 20
108.9437736384
 10
144.816857619
 20
108.9917734226
 10
144.7954273889
 20
109.0391629186
 10
144.7710422025
 20
109.0854235214
 10
144.743968893
 20
109.1300489622
 10
144.7145037305
 20
109.1725508408
 10
144.682969149
 20
109.2124640193
 10
144.6497102391
 20
109.2493516762
 10
144.6150909925
 20
109.2828100734
 10
144.5794902765
 20
109.3124730237
 10
144.5432976837
 20
109.3380158907
 10
144.5069092968
 20
109.3591591148
  0
LWPOLYLINE
  5
3EF
100
AcDbEntity
  8
RACCORDO
100
AcDbPolyline
 62
250
  6
CONTINUOUS
 90
10
 70
0
 10
147.051147505
 20
72.0341926511
 10
147.0520784143
 20
72.0124682592
 10
147.0548785726
 20
71.991810969
 10
147.0595439262
 20
71.9724581312
 10
147.0660611189
 20
71.9546120275
 10
147.0743781602
 20
71.9385213517
 10
147.0843777249
 20
71.9244486929
 10
147.0959293376
 20
71.9125660882
 10
147.1089220302
 20
71.9029776799
 10
147.1161028842
 20
71.898983162
  0
LWPOLYLINE
  5
3F0
100
AcDbEntity
  8
0
100
AcDbPolyline
 62
250
  6
CONTINUOUS
 90
4
 70
0
 10
144.314091916
 20
79.7049839135
 10
144.3726557494
 20
77.1572386496
 10
144.4453457278
 20
74.525280415
 10
144.5321618513
 20
71.8091092095
  0
LINE
  5
3F1
100
AcDbEntity
  8
DRAFT
100
AcDbLine
 62
250
  6
CONTINUOUS
 10
144.6377253468
 20
117.969450358
 11
144.6377253468
 21
119.6646651929
  0
LINE
  5
3F2
100
AcDbEntity
  8
0
100
AcDbLine
 62
250
  6
CONTINUOUS
 10
144.8477944843
 20
114.5398879136
 11
144.8477944843
 21
115.6204712244
  0
LINE
  5
3F3
100
AcDbEntity
  8
0
100
AcDbLine
 62
250
  6
CONTINUOUS
 10
145.5528384036
 20
114.5614236769
 11
145.5528384036
 21
115.6209484996
  0
LINE
  5
3F4
100
AcDbEntity
  8
DRAFT
100
AcDbLine
 62
7
  6
CONTINUOUS
 10
145.603651173
 20
119.7875295646
 11
145.603651173
 21
119.2339588369
  0
LINE
  5
3F5
100
AcDbEntity
  8
0
100
AcDbLine
 62
250
  6
CONTINUOUS
 10
145.6786077506
 20
121.2250436887
 11
145.6786077506
 21
120.1739812495
  0
LINE
  5
3F6
100
AcDbEntity
  8
ASSI
100
AcDbLine
 62
7
  6
CONTINUOUS
 10
145.8039572578
 20
121.2875528924
 11
145.8039572578
 21
120.3230043782
  0
LINE
  5
3F7
100
AcDbEntity
  8
0
100
AcDbLine
 62
7
  6
CONTINUOUS
 10
145.9105175529
 20
115.8002491332
 11
145.9105175529
 21
114.7610196287
  0
LINE
  5
3F8
100
AcDbEntity
  8
DRAFT
100
AcDbLine
 62
250
  6
CONTINUOUS
 10
146.0519389091
 20
118.7176937076
 11
146.0519389091
 21
119.1045493144
  0
LINE
  5
3F9
100
AcDbEntity
  8
0
100
AcDbLine
 62
7
  6
CONTINUOUS
 10
146.0194099769
 20
72.0233357507
 11
146.0194099769
 21
109.3994848378
  0
LINE
  5
3FA
100
AcDbEntity
  8
0
100
AcDbLine
 62
7
  6
CONTINUOUS
 10
146.0187036301
 20
100.6159017124
 11
146.0194099769
 21
109.382156402
  0
LINE
  5
3FB
100
AcDbEntity
  8
0
100
AcDbLine
 62
7
  6
CONTINUOUS
 10
145.8039571176
 20
121.2875190163
 11
145.8039572578
 21
121.2875526072
  0
LWPOLYLINE
  5
3FC
100
AcDbEntity
  8
0
100
AcDbPolyline
 62
250
  6
CONTINUOUS
 90
13
 70
0
 10
144.5321618513
 20
108.1774925587
 10
144.4496988831
 20
105.5406808693
 10
144.3799478683
 20
102.9870012472
 10
144.3229088067
 20
100.5164536923
 10
144.2794879269
 20
98.151112275
 10
144.2487790005
 20
95.8689029249
 10
144.2280633417
 20
93.6036034315
 10
144.2162161565
 20
91.3527502846
 10
144.214362239
 20
89.1188069943
 10
144.2231572864
 20
86.8429418801
 10
144.2416608046
 20
84.5196414308
 10
144.2708132878
 20
82.1544191576
 10
144.314091916
 20
79.7049839135
  0
LWPOLYLINE
  5
3FD
100
AcDbEntity
  8
0
100
AcDbPolyline
 62
250
  6
CONTINUOUS
 90
16
 70
0
 10
143.8315917918
 20
108.1989094658
 10
143.747265276
 20
105.558757396
 10
143.6778131868
 20
103.0026611559
 10
143.6221328782
 20
100.530200095
 10
143.5795097654
 20
98.1628557185
 10
143.5483656978
 20
95.8782168085
 10
143.5271941016
 20
93.6104292498
 10
143.5158148696
 20
91.3575440205
 10
143.5141145092
 20
89.1214883986
 10
143.5222832196
 20
86.8430002273
 10
143.5409647506
 20
84.517452059
 10
143.5707912735
 20
82.150251609
 10
143.6133073132
 20
79.6978979384
 10
143.6701670368
 20
77.1465480778
 10
143.7424687384
 20
74.5116736615
 10
143.8315917918
 20
71.7941213284
  0
LWPOLYLINE
  5
3FE
100
AcDbEntity
  8
0
100
AcDbPolyline
 62
250
  6
CONTINUOUS
 90
13
 70
0
 10
144.8477944843
 20
115.6204712244
 10
144.8489954308
 20
115.6435962409
 10
144.8525778736
 20
115.6675294498
 10
144.8584809685
 20
115.6918643707
 10
144.8666044578
 20
115.7161877007
 10
144.8768103725
 20
115.7400863334
 10
144.8889253758
 20
115.7631543758
 10
144.9027437073
 20
115.7850000414
 10
144.918030677
 20
115.8052523046
 10
144.9345266519
 20
115.823567202
 10
144.9519514651
 20
115.8396336742
 10
144.9700091746
 20
115.8531788492
 10
144.9883930891
 20
115.8639726764
  0
LWPOLYLINE
  5
3FF
100
AcDbEntity
  8
0
100
AcDbPolyline
 62
7
  6
CONTINUOUS
 90
4
 70
0
 10
149.4008220439
 20
108.017296257
 10
149.4067005754
 20
108.032845696
 10
149.4138321456
 20
108.0602031436
 10
149.4156165244
 20
108.0697999803
  0
LWPOLYLINE
  5
400
100
AcDbEntity
  8
0
100
AcDbPolyline
 62
250
  6
CONTINUOUS
 90
3
 70
0
 10
167.1618482679
 20
114.5053621988
 10
167.142398487
 20
114.4909664761
 10
167.119750184
 20
114.4777917305
  0
LWPOLYLINE
  5
401
100
AcDbEntity
  8
0
100
AcDbPolyline
 62
250
  6
CONTINUOUS
 90
30
 70
0
 10
168.3803986267
 20
116.9121300801
 10
168.3390931203
 20
116.8836121417
 10
168.2965781956
 20
116.8524666791
 10
168.2528185578
 20
116.818705761
 10
168.2078495016
 20
116.7823173188
 10
168.1616887186
 20
116.7427443904
 10
168.1142923878
 20
116.7000132825
 10
168.0657043303
 20
116.6540976884
 10
168.016073701
 20
116.6043617258
 10
167.9653514292
 20
116.5508471792
 10
167.9135865857
 20
116.4935122641
 10
167.8610755371
 20
116.4315957447
 10
167.807737288
 20
116.3650982311
 10
167.7536528339
 20
116.2940191132
 10
167.6993615284
 20
116.2175953254
 10
167.6447363047
 20
116.1358101336
 10
167.5899042295
 20
116.048680272
 10
167.5357858566
 20
115.9554928771
 10
167.4821833383
 20
115.8561712899
 10
167.4292945223
 20
115.7507921695
 10
167.378633505
 20
115.6388726294
 10
167.3297570432
 20
115.5191047631
 10
167.2831083802
 20
115.392796477
 10
167.2415313428
 20
115.2633886052
 10
167.2054001962
 20
115.1302110572
 10
167.1743406752
 20
114.9939339234
 10
167.1500738105
 20
114.8600083081
 10
167.1331732788
 20
114.7302512462
 10
167.1230654033
 20
114.6028457029
 10
167.119750184
 20
114.4777916781
  0
LWPOLYLINE
  5
402
100
AcDbEntity
  8
0
100
AcDbPolyline
 62
7
  6
CONTINUOUS
 90
18
 70
0
 10
167.4897547914
 20
114.7953945881
 10
167.4730569957
 20
114.7851459642
 10
167.4574981962
 20
114.7729475373
 10
167.443078393
 20
114.7587993076
 10
167.4295766059
 20
114.74232094
 10
167.4172138151
 20
114.7238927695
 10
167.4066529609
 20
114.7046558007
 10
167.3979743161
 20
114.6845888492
 10
167.3910976079
 20
114.6637130994
 10
167.3864449586
 20
114.6432331094
 10
167.3841536453
 20
114.6230814979
 10
167.3840863908
 20
114.6033256461
 10
167.3862534858
 20
114.5853722564
 10
167.3907837713
 20
114.5694229568
 10
167.3975484063
 20
114.5552761192
 10
167.4061711586
 20
114.5437335612
 10
167.416764428
 20
114.5348842134
 10
167.4226566211
 20
114.531334758
  0
LWPOLYLINE
  5
403
100
AcDbEntity
  8
0
100
AcDbPolyline
 62
7
  6
CONTINUOUS
 90
18
 70
0
 10
167.4897547914
 20
114.5355869586
 10
167.5065004185
 20
114.5458471291
 10
167.5221138484
 20
114.5581057873
 10
167.5365950811
 20
114.572362933
 10
167.5501836844
 20
114.5890299909
 10
167.5626400905
 20
114.6076955365
 10
167.5732455958
 20
114.6271252959
 10
167.5818841247
 20
114.6473369049
 10
167.5886717528
 20
114.6683127277
 10
167.5932380023
 20
114.6887655841
 10
167.5954593808
 20
114.7086582289
 10
167.5954593808
 20
114.7280279072
 10
167.5932380023
 20
114.7456991735
 10
167.5886717528
 20
114.7615857803
 10
167.5818841247
 20
114.7757739751
 10
167.5732455958
 20
114.7873470551
 10
167.5626400905
 20
114.7961713094
 10
167.5568491875
 20
114.7996486771
  0
LINE
  5
404
100
AcDbEntity
  8
0
100
AcDbLine
 62
7
  6
CONTINUOUS
 10
172.7548718809
 20
118.083904649
 11
172.4720291684
 21
117.9106995683
  0
LINE
  5
405
100
AcDbEntity
  8
RACCORDO
100
AcDbLine
 62
250
  6
CONTINUOUS
 10
162.3378935512
 20
107.5664240528
 11
175.1636555893
 21
114.3466762055
  0
LWPOLYLINE
  5
406
100
AcDbEntity
  8
RACCORDO
100
AcDbPolyline
 62
7
  6
CONTINUOUS
 90
13
 70
0
 10
162.2624443606
 20
107.4054792004
 10
175.0942658733
 20
114.1889271879
 10
175.1561311694
 20
114.2250822278
 10
175.2119406736
 20
114.2641508336
 10
175.2618524628
 20
114.3060406587
 10
175.305872396
 20
114.3505906235
 10
175.3438428927
 20
114.3974224702
 10
175.3757525865
 20
114.4462670734
 10
175.4015698356
 20
114.4967563926
 10
175.4211454536
 20
114.5480507082
 10
175.4345880377
 20
114.5994438615
 10
175.4421969905
 20
114.6505432094
 10
175.4443094663
 20
114.6956561097
  0
LWPOLYLINE
  5
407
100
AcDbEntity
  8
0
100
AcDbPolyline
 62
250
  6
CONTINUOUS
 90
22
 70
0
 10
175.1636555893
 20
116.5879003652
 10
175.1810803421
 20
116.5970522124
 10
175.1987016689
 20
116.6068057539
 10
175.2164466504
 20
116.6171811434
 10
175.2342414808
 20
116.6281998809
 10
175.2519990027
 20
116.6398781807
 10
175.2696201697
 20
116.6522261481
 10
175.2869967593
 20
116.6652468143
 10
175.3040506111
 20
116.6789646305
 10
175.3207156063
 20
116.6934204662
 10
175.3368583559
 20
116.7086033912
 10
175.352383546
 20
116.7245417749
 10
175.3672477863
 20
116.7413379663
 10
175.3812753792
 20
116.7589650753
 10
175.3943384524
 20
116.7774555376
 10
175.4063878175
 20
116.7970070511
 10
175.4172385665
 20
116.8176932367
 10
175.4266070695
 20
116.8394287199
 10
175.4342417841
 20
116.862168059
 10
175.4399256146
 20
116.8860155391
 10
175.4433581686
 20
116.9107960176
 10
175.4443156166
 20
116.9322597851
  0
LWPOLYLINE
  5
408
100
AcDbEntity
  8
0
100
AcDbPolyline
 62
250
  6
CONTINUOUS
 90
33
 70
0
 10
175.0567999671
 20
116.8655428635
 10
175.0716704016
 20
116.8733288527
 10
175.0866817155
 20
116.8816175302
 10
175.101774605
 20
116.8904241783
 10
175.1168794052
 20
116.8997585287
 10
175.1319343323
 20
116.9096385329
 10
175.1468826509
 20
116.9200910831
 10
175.16163506
 20
116.9311251707
 10
175.1761141188
 20
116.9427534149
 10
175.1902648347
 20
116.9550085895
 10
175.2039739601
 20
116.9678822865
 10
175.2171575633
 20
116.981397887
 10
175.2297747392
 20
116.9956383454
 10
175.2416762113
 20
117.0105810538
 10
175.2527574463
 20
117.0262551798
 10
175.2629779783
 20
117.0428273559
 10
175.2721809304
 20
117.0603629014
 10
175.2801228486
 20
117.0787916147
 10
175.2865895132
 20
117.0980719999
 10
175.2913955885
 20
117.1182908729
 10
175.2942906805
 20
117.1393006819
 10
175.295065548
 20
117.1606901339
 10
175.2936108342
 20
117.1824266672
 10
175.2898291665
 20
117.2044301267
 10
175.2837717333
 20
117.2262113732
 10
175.2755093609
 20
117.247660677
 10
175.2650830706
 20
117.2687754744
 10
175.2527187106
 20
117.2892455393
 10
175.2387880305
 20
117.3087424102
 10
175.2232622051
 20
117.3275441306
 10
175.2056700171
 20
117.3462348266
 10
175.185926824
 20
117.3647884383
 10
175.1640216237
 20
117.3831013306
  0
LWPOLYLINE
  5
409
100
AcDbEntity
  8
0
100
AcDbPolyline
 62
7
  6
CONTINUOUS
 90
8
 70
0
 10
162.2578728044
 20
107.3748758845
 10
162.2589185982
 20
107.3754233952
 10
162.2633341697
 20
107.3783844746
 10
162.2670960026
 20
107.3820078421
 10
162.2702299356
 20
107.386323674
 10
162.2725229941
 20
107.391055667
 10
162.2739286279
 20
107.3959856829
 10
162.2744805046
 20
107.4013105975
  0
LINE
  5
40A
100
AcDbEntity
  8
0
100
AcDbLine
 62
7
  6
CONTINUOUS
 10
169.3282324192
 20
111.0397016116
 11
167.3483334319
 21
110.049752118
  0
LINE
  5
40B
100
AcDbEntity
  8
0
100
AcDbLine
 62
7
  6
CONTINUOUS
 10
170.7424459816
 20
111.7468083928
 11
172.7223449689
 21
112.7367578865
  0
LINE
  5
40C
100
AcDbEntity
  8
0
100
AcDbLine
 62
7
  6
CONTINUOUS
 10
172.6162789518
 20
112.6598870845
 11
170.6363799644
 21
111.6699375908
  0
LINE
  5
40D
100
AcDbEntity
  8
0
100
AcDbLine
 62
7
  6
CONTINUOUS
 10
169.2221664021
 20
110.9628308096
 11
167.2422674147
 21
109.972881316
  0
LINE
  5
40E
100
AcDbEntity
  8
0
100
AcDbLine
 62
7
  6
CONTINUOUS
 10
171.6108536364
 20
112.1446167798
 11
171.2573002458
 21
111.9678400845
  0
LINE
  5
40F
100
AcDbEntity
  8
0
100
AcDbLine
 62
7
  6
CONTINUOUS
 10
168.8602082575
 20
110.7692940904
 11
168.506654867
 21
110.5925173951
  0
LINE
  5
410
100
AcDbEntity
  8
0
100
AcDbLine
 62
7
  6
CONTINUOUS
 10
167.4742789664
 20
110.0763294448
 11
167.1207255758
 21
109.8995527495
  0
LINE
  5
411
100
AcDbEntity
  8
0
100
AcDbLine
 62
7
  6
CONTINUOUS
 10
167.1856988722
 20
109.9120106182
 11
166.8321454817
 21
109.7352339229
  0
LINE
  5
412
100
AcDbEntity
  8
0
100
AcDbLine
 62
7
  6
CONTINUOUS
 10
168.2180747728
 20
110.4281985684
 11
168.5716281634
 21
110.6049752637
  0
LINE
  5
413
100
AcDbEntity
  8
0
100
AcDbLine
 62
7
  6
CONTINUOUS
 10
170.9687201516
 20
111.8035212578
 11
171.3222735422
 21
111.9802979531
  0
LINE
  5
414
100
AcDbEntity
  8
0
100
AcDbLine
 62
7
  6
CONTINUOUS
 10
162.2649894241
 20
107.391469072
 11
162.1495177192
 21
107.3337332196
  0
LINE
  5
415
100
AcDbEntity
  8
0
100
AcDbLine
 62
7
  6
CONTINUOUS
 10
162.1037000763
 20
107.2977894751
 11
162.2578997354
 21
107.3748893046
  0
LINE
  5
416
100
AcDbEntity
  8
0
100
AcDbLine
 62
7
  6
CONTINUOUS
 10
163.7472658665
 20
107.9012027696
 11
163.1410480839
 21
107.5980938783
  0
LINE
  5
417
100
AcDbEntity
  8
0
100
AcDbLine
 62
7
  6
CONTINUOUS
 10
164.9795257149
 20
108.4871543734
 11
163.7774441869
 21
107.8861136094
  0
LWPOLYLINE
  5
418
100
AcDbEntity
  8
0
100
AcDbPolyline
 62
7
  6
CONTINUOUS
 90
5
 70
0
 10
171.257179753
 20
111.9677799463
 10
171.2533595507
 20
111.9660637518
 10
171.2341447423
 20
111.9598569086
 10
171.2136691262
 20
111.9576045064
 10
171.2119978841
 20
111.9577465507
  0
LWPOLYLINE
  5
419
100
AcDbEntity
  8
0
100
AcDbPolyline
 62
7
  6
CONTINUOUS
 90
5
 70
0
 10
168.5065343742
 20
110.5924572569
 10
168.5027141718
 20
110.5907410624
 10
168.4834993635
 20
110.5845342192
 10
168.4630237474
 20
110.582281817
 10
168.4613525053
 20
110.5824238613
  0
LWPOLYLINE
  5
41A
100
AcDbEntity
  8
0
100
AcDbPolyline
 62
7
  6
CONTINUOUS
 90
7
 70
0
 10
167.1206050831
 20
109.8994926113
 10
167.1167848807
 20
109.8977764168
 10
167.0975700724
 20
109.8915695736
 10
167.0770944562
 20
109.8893171714
 10
167.0556311709
 20
109.8911414054
 10
167.0329070778
 20
109.8969200804
 10
167.008922177
 20
109.9066531963
  0
LWPOLYLINE
  5
41B
100
AcDbEntity
  8
0
100
AcDbPolyline
 62
7
  6
CONTINUOUS
 90
3
 70
0
 10
148.6720044043
 20
93.4038181424
 10
148.6754355288
 20
93.4038237108
 10
148.6779929228
 20
93.4035633868
  0
LINE
  5
41C
100
AcDbEntity
  8
0
100
AcDbLine
 62
7
  6
CONTINUOUS
 10
148.6779929228
 20
93.4035633868
 11
148.6784982201
 21
93.4034349759
  0
LINE
  5
41D
100
AcDbEntity
  8
0
100
AcDbLine
 62
7
  6
CONTINUOUS
 10
148.6789608595
 20
93.4033174056
 11
148.6784253113
 21
93.4034635434
  0
LINE
  5
41E
100
AcDbEntity
  8
0
100
AcDbLine
 62
250
  6
CONTINUOUS
 10
148.7097009159
 20
93.2645542387
 11
148.7582331011
 21
93.2402881461
  0
LINE
  5
41F
100
AcDbEntity
  8
0
100
AcDbLine
 62
250
  6
CONTINUOUS
 10
148.6779945345
 20
93.4036855917
 11
148.6784807971
 21
93.4034410699
  0
LWPOLYLINE
  5
420
100
AcDbEntity
  8
0
100
AcDbPolyline
 62
250
  6
CONTINUOUS
 90
4
 70
0
 10
148.6784807971
 20
93.4034410699
 10
148.6863540058
 20
93.3990783438
 10
148.7021596577
 20
93.3876839618
 10
148.7163658921
 20
93.3735355001
  0
LWPOLYLINE
  5
421
100
AcDbEntity
  8
0
100
AcDbPolyline
 62
250
  6
CONTINUOUS
 90
3
 70
0
 10
148.5893033129
 20
93.3351637548
 10
148.5725705379
 20
93.353405057
 10
148.5639366009
 20
93.3611747158
  0
LINE
  5
422
100
AcDbEntity
  8
0
100
AcDbLine
 62
250
  6
CONTINUOUS
 10
148.6047694031
 20
93.3149332715
 11
148.5893033129
 21
93.3351637548
  0
LWPOLYLINE
  5
423
100
AcDbEntity
  8
0
100
AcDbPolyline
 62
250
  6
CONTINUOUS
 90
13
 70
0
 10
148.6851395049
 20
90.495733794
 10
148.6836237678
 20
90.5187907719
 10
148.6797577164
 20
90.5426837251
 10
148.6736074742
 20
90.5670039967
 10
148.6652782329
 20
90.5913356214
 10
148.6549124529
 20
90.6152624394
 10
148.6426874269
 20
90.6383752148
 10
148.6288122475
 20
90.6602786348
 10
148.6135242309
 20
90.6805980709
 10
148.5970848581
 20
90.6989859865
 10
148.5797753022
 20
90.7151278812
 10
148.56189162
 20
90.7287476694
 10
148.5437396878
 20
90.7396124033
  0
LWPOLYLINE
  5
424
100
AcDbEntity
  8
0
100
AcDbPolyline
 62
250
  6
CONTINUOUS
 90
13
 70
0
 10
145.5528384036
 20
115.6209484996
 10
145.5515274978
 20
115.6441117591
 10
145.547833264
 20
115.668095446
 10
145.5418189708
 20
115.692489158
 10
145.5335875698
 20
115.7168755247
 10
145.5232799631
 20
115.740837254
 10
145.5110726159
 20
115.7639642792
 10
145.4971744677
 20
115.7858609222
 10
145.4818233583
 20
115.8061526066
 10
145.4652820142
 20
115.8244921865
 10
145.4478334915
 20
115.8405659746
 10
145.4297763221
 20
115.8540990924
 10
145.4114194407
 20
115.8648601307
  0
LWPOLYLINE
  5
425
100
AcDbEntity
  8
0
100
AcDbPolyline
 62
7
  6
CONTINUOUS
 90
13
 70
0
 10
145.9102417068
 20
115.8001108546
 10
145.9089312709
 20
115.823273333
 10
145.9052375823
 20
115.8472564711
 10
145.8992238418
 20
115.8716499048
 10
145.8909929478
 20
115.8960362497
 10
145.8806857351
 20
115.9199982427
 10
145.8684785656
 20
115.9431258816
 10
145.8545803102
 20
115.9650234404
 10
145.8392287755
 20
115.9853162404
 10
145.8226866342
 20
116.0036570612
 10
145.8052369309
 20
116.0197320817
 10
145.7871782392
 20
116.03326625
 10
145.7688195528
 20
116.0440279894
  0
LINE
  5
426
100
AcDbEntity
  8
RACCORDO
100
AcDbLine
 62
250
  6
CONTINUOUS
 10
146.9782936573
 20
113.7553658402
 11
146.9779242003
 21
113.7621590723
  0
LWPOLYLINE
  5
427
100
AcDbEntity
  8
0
100
AcDbPolyline
 62
7
  6
CONTINUOUS
 90
10
 70
0
 10
145.8039575174
 20
121.2875203672
 10
145.8027472675
 20
121.3102949083
 10
145.7979225233
 20
121.3379501839
 10
145.789486277
 20
121.3646868537
 10
145.7775059629
 20
121.3901767069
 10
145.7623489455
 20
121.4136643296
 10
145.7443039338
 20
121.434837539
 10
145.7237892636
 20
121.4533297397
 10
145.701698906
 20
121.4686196785
 10
145.6865815334
 20
121.4769327707
  0
LWPOLYLINE
  5
428
100
AcDbEntity
  8
RACCORDO
100
AcDbPolyline
 62
250
  6
CONTINUOUS
 90
9
 70
0
 10
147.051147505
 20
113.6737707246
 10
147.052354894
 20
113.6491132231
 10
147.0559605754
 20
113.6259998986
 10
147.0619153064
 20
113.6047464892
 10
147.0701533885
 20
113.5856132527
 10
147.0805538905
 20
113.5688997242
 10
147.0929071234
 20
113.5548986701
 10
147.1069912401
 20
113.5437754345
 10
147.1161208014
 20
113.5385522745
  0
LWPOLYLINE
  5
429
100
AcDbEntity
  8
RACCORDO
100
AcDbPolyline
 62
250
  6
CONTINUOUS
 90
10
 70
0
 10
148.3761321848
 20
71.3717003112
 10
148.3770630941
 20
71.3499759193
 10
148.3798632524
 20
71.3293186291
 10
148.3845286061
 20
71.3099657912
 10
148.3910457987
 20
71.2921196876
 10
148.39936284
 20
71.2760290118
 10
148.4093624047
 20
71.261956353
 10
148.4209140174
 20
71.2500737483
 10
148.4339067101
 20
71.24048534
 10
148.4411054812
 20
71.2364818611
  0
LWPOLYLINE
  5
42A
100
AcDbEntity
  8
0
100
AcDbPolyline
 62
250
  6
CONTINUOUS
 90
7
 70
0
 10
148.6591125398
 20
93.1493967525
 10
148.6581985885
 20
93.1727545558
 10
148.6548396143
 20
93.1969009735
 10
148.6490930668
 20
93.2214230159
 10
148.6410572357
 20
93.2459012581
 10
148.6308695594
 20
93.2699170457
 10
148.6187042653
 20
93.293059653
  0
LWPOLYLINE
  5
42B
100
AcDbEntity
  8
0
100
AcDbPolyline
 62
7
  6
CONTINUOUS
 90
8
 70
0
 10
145.9820509825
 20
116.5001600825
 10
145.9817949689
 20
116.5150299197
 10
145.9818376787
 20
116.5271355026
 10
145.9820049106
 20
116.5365466683
 10
145.9820267072
 20
116.5434010198
 10
145.9819046756
 20
116.5477993677
 10
145.9818826205
 20
116.5497213335
 10
145.9819015748
 20
116.5498166815
  0
LINE
  5
42C
100
AcDbEntity
  8
RACCORDO
100
AcDbLine
 62
7
  6
CONTINUOUS
 10
146.9779242003
 20
114.1021330064
 11
146.9779242003
 21
113.7621590723
  0
LINE
  5
42D
100
AcDbEntity
  8
RACCORDO
100
AcDbLine
 62
7
  6
CONTINUOUS
 10
146.9779242003
 20
72.2177127706
 11
146.9779242003
 21
72.1225809988
  0
LINE
  5
42E
100
AcDbEntity
  8
RACCORDO
100
AcDbLine
 62
250
  6
CONTINUOUS
 10
147.051147505
 20
114.0137446588
 11
147.051147505
 21
113.6737707246
  0
LINE
  5
42F
100
AcDbEntity
  8
RACCORDO
100
AcDbLine
 62
250
  6
CONTINUOUS
 10
147.051147505
 20
72.2484489397
 11
147.051147505
 21
72.0341926511
  0
LINE
  5
430
100
AcDbEntity
  8
RACCORDO
100
AcDbLine
 62
7
  6
CONTINUOUS
 10
147.6809171546
 20
112.8021799963
 11
147.6809171546
 21
113.256154098
  0
LINE
  5
431
100
AcDbEntity
  8
RACCORDO
100
AcDbLine
 62
250
  6
CONTINUOUS
 10
147.7541404593
 20
112.7104683014
 11
147.7541404593
 21
113.2195424456
  0
LINE
  5
432
100
AcDbEntity
  8
RACCORDO
100
AcDbLine
 62
250
  6
CONTINUOUS
 10
148.3761321848
 20
71.3717003112
 11
148.3761321848
 21
71.7116742453
  0
LINE
  5
433
100
AcDbEntity
  8
RACCORDO
100
AcDbLine
 62
250
  6
CONTINUOUS
 10
148.3761321848
 20
113.0112783847
 11
148.3761321848
 21
113.3512523189
  0
LINE
  5
434
100
AcDbEntity
  8
RACCORDO
100
AcDbLine
 62
7
  6
CONTINUOUS
 10
148.4561019652
 20
120.324766743
 11
148.4561019652
 21
120.0539664504
  0
LINE
  5
435
100
AcDbEntity
  8
0
100
AcDbLine
 62
250
  6
CONTINUOUS
 10
148.6591125398
 20
91.012669096
 11
148.6591125398
 21
93.1493967525
  0
LINE
  5
436
100
AcDbEntity
  8
0
100
AcDbLine
 62
7
  6
CONTINUOUS
 10
148.7152445798
 20
91.0821349331
 11
148.7152445798
 21
93.2188625896
  0
LINE
  5
437
100
AcDbEntity
  8
RACCORDO
100
AcDbLine
 62
250
  6
CONTINUOUS
 10
148.7286541445
 20
71.3711875874
 11
148.7286541445
 21
71.7111615215
  0
LINE
  5
438
100
AcDbEntity
  8
RACCORDO
100
AcDbLine
 62
250
  6
CONTINUOUS
 10
148.7286541445
 20
113.0107656609
 11
148.7286541445
 21
113.350739595
  0
LINE
  5
439
100
AcDbEntity
  8
0
100
AcDbLine
 62
250
  6
CONTINUOUS
 10
148.7152445384
 20
91.0820706021
 11
148.7152445798
 21
91.0821349331
  0
LWPOLYLINE
  5
43A
100
AcDbEntity
  8
RACCORDO
100
AcDbPolyline
 62
250
  6
CONTINUOUS
 90
16
 70
0
 10
147.051147505
 20
114.0137446588
 10
147.0520784143
 20
114.03639996
 10
147.0548785726
 20
114.0598574085
 10
147.0595439262
 20
114.0838756
 10
147.0660611189
 20
114.1082388962
 10
147.0743781602
 20
114.1326466133
 10
147.0843777249
 20
114.1567188369
 10
147.0959293376
 20
114.1801530542
 10
147.1089220302
 20
114.2027341552
 10
147.1232201491
 20
114.2242246465
 10
147.1386734598
 20
114.2443938528
 10
147.1551101043
 20
114.2630129604
 10
147.1723433986
 20
114.2798691531
 10
147.1901818645
 20
114.2947760795
 10
147.2084325949
 20
114.3075734393
 10
147.226895761
 20
114.3181214737
  0
LWPOLYLINE
  5
43B
100
AcDbEntity
  8
RACCORDO
100
AcDbPolyline
 62
250
  6
CONTINUOUS
 90
16
 70
0
 10
148.3761321848
 20
113.3512523189
 10
148.3770996434
 20
113.3743561366
 10
148.3799916363
 20
113.3981758241
 10
148.3847768132
 20
113.4224507281
 10
148.3914042067
 20
113.4469187831
 10
148.3998009498
 20
113.4713084297
 10
148.4098704899
 20
113.4953418644
 10
148.4214970681
 20
113.5187498271
 10
148.4345545635
 20
113.5412844757
 10
148.4489052922
 20
113.5627099454
 10
148.4644196644
 20
113.5828246799
 10
148.4809046174
 20
113.6013708775
 10
148.498098301
 20
113.6180719641
 10
148.5157766354
 20
113.6327506992
 10
148.5337691535
 20
113.6453044118
 10
148.5518804408
 20
113.6556291338
  0
LWPOLYLINE
  5
43C
100
AcDbEntity
  8
0
100
AcDbPolyline
 62
250
  6
CONTINUOUS
 90
10
 70
0
 10
144.8727420324
 20
71.5593395594
 10
144.8688753664
 20
71.5142002615
 10
144.8612500243
 20
71.4715229654
 10
144.8499494539
 20
71.4317747095
 10
144.8350973228
 20
71.3953904781
 10
144.8168561649
 20
71.3627684414
 10
144.7954256022
 20
71.334265598
 10
144.7710401595
 20
71.3101938684
 10
144.7439666986
 20
71.2908166812
 10
144.7189347892
 20
71.278143862
  0
LINE
  5
43D
100
AcDbEntity
  8
0
100
AcDbLine
 62
250
  6
CONTINUOUS
 10
149.5247964093
 20
108.7337028051
 11
149.5236548188
 21
108.7206294437
  0
LWPOLYLINE
  5
43E
100
AcDbEntity
  8
0
100
AcDbPolyline
 62
250
  6
CONTINUOUS
 90
13
 70
0
 10
151.2353516231
 20
118.448145454
 10
151.2386201448
 20
118.47291552
 10
151.2394034274
 20
118.4984631603
 10
151.2376880989
 20
118.5243520337
 10
151.2335034624
 20
118.5501399718
 10
151.226920995
 20
118.575386534
 10
151.2180531255
 20
118.5996605296
 10
151.2070513163
 20
118.6225473765
 10
151.1941034749
 20
118.6436561869
 10
151.1794307416
 20
118.6626264454
 10
151.1632837169
 20
118.6791341578
 10
151.1459381833
 20
118.6928973868
 10
151.127690391
 20
118.7036810705
  0
LWPOLYLINE
  5
43F
100
AcDbEntity
  8
0
100
AcDbPolyline
 62
250
  6
CONTINUOUS
 90
3
 70
0
 10
149.4156131046
 20
108.069758649
 10
149.4174960757
 20
108.0839884725
 10
149.4185615492
 20
108.1060554597
  0
LWPOLYLINE
  5
440
100
AcDbEntity
  8
0
100
AcDbPolyline
 62
250
  6
CONTINUOUS
 90
3
 70
0
 10
149.520504076
 20
108.683136256
 10
149.5220845726
 20
108.6940071175
 10
149.5236548188
 20
108.7206294437
  0
LINE
  5
441
100
AcDbEntity
  8
0
100
AcDbLine
 62
250
  6
CONTINUOUS
 10
149.5236548188
 20
108.7206294437
 11
149.4185607244
 21
108.1060506364
  0
LINE
  5
442
100
AcDbEntity
  8
0
100
AcDbLine
 62
7
  6
CONTINUOUS
 10
149.520504076
 20
108.683136256
 11
149.4154480879
 21
108.0687802898
  0
LINE
  5
443
100
AcDbEntity
  8
0
100
AcDbLine
 62
250
  6
CONTINUOUS
 10
149.4166744749
 20
108.0986470033
 11
149.4185607244
 21
108.106050807
  0
LWPOLYLINE
  5
444
100
AcDbEntity
  8
RACCORDO
100
AcDbPolyline
 62
250
  6
CONTINUOUS
 90
3
 70
0
 10
162.1777391899
 20
107.4641698939
 10
162.2064230276
 20
107.4851398338
 10
162.2343551723
 20
107.5043313977
  0
LWPOLYLINE
  5
445
100
AcDbEntity
  8
RACCORDO
100
AcDbPolyline
 62
250
  6
CONTINUOUS
 90
5
 70
0
 10
162.2343551723
 20
107.5043313977
 10
162.2614744176
 20
107.5220273274
 10
162.2877603615
 20
107.5383218701
 10
162.313233406
 20
107.5531207786
 10
162.3378935512
 20
107.5664240528
  0
LWPOLYLINE
  5
446
100
AcDbEntity
  8
0
100
AcDbPolyline
 62
7
  6
CONTINUOUS
 90
13
 70
0
 10
165.0148810499
 20
108.7082154329
 10
165.0315788456
 20
108.7184640568
 10
165.0471376451
 20
108.7306624836
 10
165.0615574483
 20
108.7448107134
 10
165.0750592354
 20
108.761289081
 10
165.0874220262
 20
108.7797172515
 10
165.0979828804
 20
108.7989542203
 10
165.1066615253
 20
108.8190211718
 10
165.1135382334
 20
108.8398969216
 10
165.1181908828
 20
108.8603769115
 10
165.1204821961
 20
108.8805285231
 10
165.1205494505
 20
108.9002843748
 10
165.1187212005
 20
108.9154305885
  0
LWPOLYLINE
  5
447
100
AcDbEntity
  8
0
100
AcDbPolyline
 62
7
  6
CONTINUOUS
 90
18
 70
0
 10
165.0148810499
 20
108.2752027392
 10
164.9981832542
 20
108.2649541153
 10
164.9826244547
 20
108.2527556884
 10
164.9682046515
 20
108.2386074587
 10
164.9547028644
 20
108.2221290911
 10
164.9423400736
 20
108.2037009206
 10
164.9317792194
 20
108.1844639518
 10
164.9231005746
 20
108.1643970003
 10
164.9162238664
 20
108.1435212505
 10
164.9115712171
 20
108.1230412605
 10
164.9092799038
 20
108.102889649
 10
164.9092126493
 20
108.0831337972
 10
164.9113797443
 20
108.0651804075
 10
164.9159100298
 20
108.0492311079
 10
164.9226746648
 20
108.0350842703
 10
164.9312974171
 20
108.0235417123
 10
164.9418906865
 20
108.0146923645
 10
164.9477828796
 20
108.0111429091
  0
LINE
  5
448
100
AcDbEntity
  8
0
100
AcDbLine
 62
7
  6
CONTINUOUS
 10
167.3483334319
 20
110.049752118
 11
167.2422674147
 21
109.9848002127
  0
LINE
  5
449
100
AcDbEntity
  8
0
100
AcDbLine
 62
7
  6
CONTINUOUS
 10
169.3282324192
 20
111.0277827149
 11
169.2221664021
 21
110.9628308096
  0
LINE
  5
44A
100
AcDbEntity
  8
0
100
AcDbLine
 62
7
  6
CONTINUOUS
 10
170.6363799644
 20
111.6818564875
 11
170.7424459816
 21
111.7468083928
  0
LINE
  5
44B
100
AcDbEntity
  8
0
100
AcDbLine
 62
7
  6
CONTINUOUS
 10
172.7223449689
 20
112.7248389898
 11
172.6162789518
 21
112.6598870845
  0
LWPOLYLINE
  5
44C
100
AcDbEntity
  8
0
100
AcDbPolyline
 62
7
  6
CONTINUOUS
 90
4
 70
0
 10
167.4741584737
 20
110.0762693066
 10
167.4874728559
 20
110.0843478105
 10
167.5024653586
 20
110.0978370538
 10
167.5087181717
 20
110.1061066945
  0
LWPOLYLINE
  5
44D
100
AcDbEntity
  8
0
100
AcDbPolyline
 62
7
  6
CONTINUOUS
 90
4
 70
0
 10
168.8600877648
 20
110.7692339522
 10
168.8734021471
 20
110.7773124561
 10
168.8883946497
 20
110.7908016994
 10
168.8946474628
 20
110.79907134
  0
LWPOLYLINE
  5
44E
100
AcDbEntity
  8
0
100
AcDbPolyline
 62
7
  6
CONTINUOUS
 90
4
 70
0
 10
171.6107331436
 20
112.1445566416
 10
171.6240475259
 20
112.1526351455
 10
171.6390400285
 20
112.1661243888
 10
171.6452928416
 20
112.1743940294
  0
LINE
  5
44F
100
AcDbEntity
  8
RACCORDO
100
AcDbLine
 62
250
  6
CONTINUOUS
 10
175.0942658733
 20
114.1889271879
 11
175.0871353495
 21
114.1851651502
  0
LWPOLYLINE
  5
450
100
AcDbEntity
  8
0
100
AcDbPolyline
 62
250
  6
CONTINUOUS
 90
6
 70
0
 10
162.2656965309
 20
107.3911155186
 10
162.2687452034
 20
107.3928994028
 10
162.271212988
 20
107.3949117377
 10
162.2730275169
 20
107.3971061359
 10
162.2741301154
 20
107.3994271277
 10
162.2744833217
 20
107.4017127799
  0
LWPOLYLINE
  5
451
100
AcDbEntity
  8
RACCORDO
100
AcDbPolyline
 62
250
  6
CONTINUOUS
 90
14
 70
0
 10
175.1636555893
 20
114.3466724069
 10
175.1958195811
 20
114.3642349329
 10
175.2274828702
 20
114.3832920209
 10
175.2583500944
 20
114.4038882892
 10
175.2880312601
 20
114.426000034
 10
175.3162740356
 20
114.4497045495
 10
175.3429005083
 20
114.4751974968
 10
175.367526432
 20
114.5025590917
 10
175.389610764
 20
114.5317100915
 10
175.4086530021
 20
114.5625919779
 10
175.4242848113
 20
114.5954673554
 10
175.4357701552
 20
114.6299269485
 10
175.4424616227
 20
114.6648251767
 10
175.4443157889
 20
114.6953441333
  0
LINE
  5
452
100
AcDbEntity
  8
0
100
AcDbLine
 62
7
  6
CONTINUOUS
 10
173.9119460879
 20
112.5246013661
 11
174.4649931944
 21
112.8150116133
  0
LINE
  5
453
100
AcDbEntity
  8
0
100
AcDbLine
 62
7
  6
CONTINUOUS
 10
174.6675759108
 20
112.5027508251
 11
161.8430093446
 21
106.0021435591
  0
LINE
  5
454
100
AcDbEntity
  8
RACCORDO
100
AcDbLine
 62
250
  6
CONTINUOUS
 10
175.0562795184
 20
112.0416749257
 11
162.2317129378
 21
105.5410676525
  0
LINE
  5
455
100
AcDbEntity
  8
RACCORDO
100
AcDbLine
 62
250
  6
CONTINUOUS
 10
175.1636555893
 20
111.7643009183
 11
162.3378927294
 21
105.2630872665
  0
LINE
  5
456
100
AcDbEntity
  8
RACCORDO
100
AcDbLine
 62
7
  6
CONTINUOUS
 10
173.9296334838
 20
112.5157576682
 11
161.5260907007
 21
106.2617590304
  0
LINE
  5
457
100
AcDbEntity
  8
0
100
AcDbLine
 62
7
  6
CONTINUOUS
 10
166.482127625
 20
108.990165253
 11
166.0932188953
 21
108.7957108882
  0
LINE
  5
458
100
AcDbEntity
  8
0
100
AcDbLine
 62
7
  6
CONTINUOUS
 10
170.2121158957
 20
110.8436418427
 11
169.5757197927
 21
110.5254437912
  0
LINE
  5
459
100
AcDbEntity
  8
0
100
AcDbLine
 62
7
  6
CONTINUOUS
 10
161.6773370468
 20
106.4650093824
 11
161.5563974634
 21
106.4045395907
  0
LINE
  5
45A
100
AcDbEntity
  8
0
100
AcDbLine
 62
7
  6
CONTINUOUS
 10
168.3382829256
 20
109.7636985973
 11
167.1362013976
 21
109.1626578333
  0
LWPOLYLINE
  5
45B
100
AcDbEntity
  8
RACCORDO
100
AcDbPolyline
 62
250
  6
CONTINUOUS
 90
23
 70
0
 10
162.3378927294
 20
105.2630872665
 10
162.2794571628
 20
105.2349763387
 10
162.2197934194
 20
105.2120839964
 10
162.1589014993
 20
105.1944102397
 10
162.0959503154
 20
105.1814424368
 10
162.0317709548
 20
105.1736932196
 10
161.9688566785
 20
105.172700483
 10
161.9074656904
 20
105.1789258596
 10
161.8473397865
 20
105.1919077168
 10
161.7901976158
 20
105.2117990528
 10
161.7362337634
 20
105.2388993072
 10
161.6852536442
 20
105.2729090402
 10
161.6383921518
 20
105.3130829308
 10
161.5958589719
 20
105.3594322022
 10
161.5574444189
 20
105.4119456311
 10
161.5236543293
 20
105.4698442264
 10
161.4945137344
 20
105.5331716144
 10
161.4699976029
 20
105.6018841689
 10
161.4505366787
 20
105.6750720202
 10
161.4362281653
 20
105.7532249033
 10
161.4269748591
 20
105.8358530832
 10
161.4229158929
 20
105.9205774858
 10
161.4243874625
 20
106.0075675496
  0
LWPOLYLINE
  5
45C
100
AcDbEntity
  8
RACCORDO
100
AcDbPolyline
 62
250
  6
CONTINUOUS
 90
17
 70
0
 10
162.231712911
 20
105.5410676842
 10
162.1849692108
 20
105.5191785289
 10
162.1367452457
 20
105.5004746507
 10
162.0872751228
 20
105.485465463
 10
162.0365340405
 20
105.4746434274
 10
161.9851781371
 20
105.4686535337
 10
161.9344882359
 20
105.4679573109
 10
161.8849685159
 20
105.4727548069
 10
161.8368660373
 20
105.483240103
 10
161.7909239736
 20
105.4993735285
 10
161.7474438222
 20
105.5210905874
 10
161.7066241866
 20
105.5483562185
 10
161.6689334277
 20
105.5808431705
 10
161.6346758443
 20
105.618192753
 10
161.6039278097
 20
105.6602586242
 10
161.57674661
 20
105.7069230109
 10
161.5665693959
 20
105.7275328051
  0
LWPOLYLINE
  5
45D
100
AcDbEntity
  8
0
100
AcDbPolyline
 62
7
  6
CONTINUOUS
 90
10
 70
0
 10
161.8430093446
 20
106.0021435591
 10
161.8014696329
 20
105.9827699208
 10
161.7601616316
 20
105.9677094902
 10
161.7193584
 20
105.9570703463
 10
161.6793150833
 20
105.9509271372
 10
161.6403169613
 20
105.9493425919
 10
161.6026704651
 20
105.9523404948
 10
161.5666512727
 20
105.959882491
 10
161.5324623287
 20
105.9719094023
 10
161.5182266806
 20
105.9785102074
  0
LINE
  5
45E
100
AcDbEntity
  8
0
100
AcDbLine
 62
250
  6
CONTINUOUS
 10
148.7163658921
 20
93.3735355001
 11
148.7288480402
 21
93.3566103356
  0
LINE
  5
45F
100
AcDbEntity
  8
0
100
AcDbLine
 62
250
  6
CONTINUOUS
 10
148.6187042653
 20
93.293059653
 11
148.6047694031
 21
93.3149332715
  0
LWPOLYLINE
  5
460
100
AcDbEntity
  8
0
100
AcDbPolyline
 62
250
  6
CONTINUOUS
 90
3
 70
0
 10
148.7288480402
 20
93.3566103356
 10
148.7393368793
 20
93.3371065961
 10
148.7475810593
 20
93.3154287621
  0
LWPOLYLINE
  5
461
100
AcDbEntity
  8
0
100
AcDbPolyline
 62
250
  6
CONTINUOUS
 90
4
 70
0
 10
148.7475810593
 20
93.3154287621
 10
148.7534868307
 20
93.2919205133
 10
148.7570444471
 20
93.2667783656
 10
148.7582331033
 20
93.240288145
  0
LWPOLYLINE
  5
462
100
AcDbEntity
  8
RACCORDO
100
AcDbPolyline
 62
7
  6
CONTINUOUS
 90
13
 70
0
 10
150.3299349353
 20
114.1534615985
 10
150.328296477
 20
114.1824140746
 10
150.3236791298
 20
114.212392243
 10
150.3161618945
 20
114.242883191
 10
150.3058733887
 20
114.2733652332
 10
150.2929896432
 20
114.3033168353
 10
150.27773109
 20
114.3322255377
 10
150.2603587941
 20
114.3595967248
 10
150.2411699895
 20
114.3849620892
 10
150.2204929906
 20
114.4078876424
 10
150.1986815723
 20
114.4279811392
 10
150.1761089168
 20
114.4448987887
 10
150.1531612316
 20
114.4583511373
  0
LWPOLYLINE
  5
463
100
AcDbEntity
  8
RACCORDO
100
AcDbPolyline
 62
250
  6
CONTINUOUS
 90
9
 70
0
 10
148.3761321848
 20
113.0112783847
 10
148.3773395738
 20
112.9866208832
 10
148.3809452552
 20
112.9635075587
 10
148.3868999862
 20
112.9422541493
 10
148.3951380683
 20
112.9231209128
 10
148.4055385703
 20
112.9064073843
 10
148.4178918032
 20
112.8924063302
 10
148.4319759199
 20
112.8812830945
 10
148.4410976731
 20
112.8760638391
  0
LWPOLYLINE
  5
464
100
AcDbEntity
  8
RACCORDO
100
AcDbPolyline
 62
250
  6
CONTINUOUS
 90
16
 70
0
 10
148.7286541445
 20
113.350739595
 10
148.7275833144
 20
113.3738033558
 10
148.724598797
 20
113.3975884129
 10
148.7197332899
 20
113.4218341835
 10
148.7130400984
 20
113.4462750372
 10
148.7045925513
 20
113.4706432065
 10
148.6944831977
 20
113.4946717201
 10
148.6828227931
 20
113.5180973279
 10
148.6697390857
 20
113.5406633852
 10
148.6553754172
 20
113.562122664
 10
148.6398891523
 20
113.5822400622
 10
148.6234499543
 20
113.6007951789
 10
148.6062379268
 20
113.617584729
 10
148.5884416403
 20
113.6324247707
 10
148.5702560661
 20
113.6451527203
 10
148.5518804408
 20
113.6556291338
  0
LWPOLYLINE
  5
465
100
AcDbEntity
  8
RACCORDO
100
AcDbPolyline
 62
7
  6
CONTINUOUS
 90
12
 70
0
 10
148.4561019652
 20
120.324766743
 10
148.4532756587
 20
120.3993313801
 10
148.4453330587
 20
120.4696678117
 10
148.4322741652
 20
120.5357760377
 10
148.4139251472
 20
120.598087045
 10
148.3904598358
 20
120.6561698468
 10
148.3623997239
 20
120.7087314828
 10
148.3296407488
 20
120.7556495599
 10
148.2922869734
 20
120.7970464711
 10
148.251172079
 20
120.8319964359
 10
148.2062109832
 20
120.8603536141
 10
148.1961337482
 20
120.8656780486
  0
LINE
  5
466
100
AcDbEntity
  8
0
100
AcDbLine
 62
250
  6
CONTINUOUS
 10
148.7582331011
 20
93.2402881461
 11
148.7582331011
 21
91.1005635677
  0
LINE
  5
467
100
AcDbEntity
  8
0
100
AcDbLine
 62
250
  6
CONTINUOUS
 10
149.0385861314
 20
93.2390646862
 11
149.0385861314
 21
91.0993402658
  0
LINE
  5
468
100
AcDbEntity
  8
RACCORDO
100
AcDbLine
 62
250
  6
CONTINUOUS
 10
149.0873527929
 20
112.7326827576
 11
149.0873527929
 21
112.0438621346
  0
LINE
  5
469
100
AcDbEntity
  8
RACCORDO
100
AcDbLine
 62
250
  6
CONTINUOUS
 10
149.0873527929
 20
73.1031652117
 11
149.0873527929
 21
72.6881707225
  0
LINE
  5
46A
100
AcDbEntity
  8
0
100
AcDbLine
 62
7
  6
CONTINUOUS
 10
149.4008220439
 20
75.110200597
 11
149.4008220439
 21
77.621674268
  0
LINE
  5
46B
100
AcDbEntity
  8
0
100
AcDbLine
 62
7
  6
CONTINUOUS
 10
149.4008220439
 20
107.0665379966
 11
149.4008220439
 21
109.5780116676
  0
LINE
  5
46C
100
AcDbEntity
  8
0
100
AcDbLine
 62
250
  6
CONTINUOUS
 10
149.4185607244
 20
76.1930145069
 11
149.4185607244
 21
77.6306120021
  0
LINE
  5
46D
100
AcDbEntity
  8
0
100
AcDbLine
 62
250
  6
CONTINUOUS
 10
149.4185607244
 20
108.1060506364
 11
149.4185607244
 21
109.5869494017
  0
LINE
  5
46E
100
AcDbEntity
  8
RACCORDO
100
AcDbLine
 62
250
  6
CONTINUOUS
 10
149.4398747526
 20
112.862262138
 11
149.4398747526
 21
112.0546300163
  0
LINE
  5
46F
100
AcDbEntity
  8
RACCORDO
100
AcDbLine
 62
250
  6
CONTINUOUS
 10
149.4398747526
 20
73.2511396114
 11
149.4398747526
 21
72.5626579986
  0
LINE
  5
470
100
AcDbEntity
  8
0
100
AcDbLine
 62
250
  6
CONTINUOUS
 10
149.5236548188
 20
76.8075933142
 11
149.5247964093
 21
76.8206666756
  0
LINE
  5
471
100
AcDbEntity
  8
0
100
AcDbLine
 62
250
  6
CONTINUOUS
 10
149.5236548188
 20
108.7206294437
 11
149.5247964093
 21
108.7337028051
  0
LINE
  5
472
100
AcDbEntity
  8
0
100
AcDbLine
 62
7
  6
CONTINUOUS
 10
149.5247964093
 20
76.8206666756
 11
149.5247964093
 21
77.6841394507
  0
LINE
  5
473
100
AcDbEntity
  8
0
100
AcDbLine
 62
7
  6
CONTINUOUS
 10
149.5247964093
 20
108.7337028051
 11
149.5247964093
 21
109.6404768503
  0
LINE
  5
474
100
AcDbEntity
  8
RACCORDO
100
AcDbLine
 62
250
  6
CONTINUOUS
 10
149.5754164734
 20
109.1093494217
 11
149.5754164734
 21
109.6659820549
  0
LINE
  5
475
100
AcDbEntity
  8
RACCORDO
100
AcDbLine
 62
7
  6
CONTINUOUS
 10
150.3299349353
 20
72.151222187
 11
150.3299349353
 21
73.6247507231
  0
LINE
  5
476
100
AcDbEntity
  8
RACCORDO
100
AcDbLine
 62
7
  6
CONTINUOUS
 10
150.3299349353
 20
112.5513109375
 11
150.3299349353
 21
114.1534615985
  0
LINE
  5
477
100
AcDbEntity
  8
DRAFT
100
AcDbLine
 62
7
  6
CONTINUOUS
 10
150.453678622
 20
108.9530213968
 11
150.453678622
 21
108.3456483359
  0
LINE
  5
478
100
AcDbEntity
  8
RACCORDO
100
AcDbLine
 62
250
  6
CONTINUOUS
 10
150.8582021071
 20
114.4169004185
 11
150.8582021071
 21
114.0693689018
  0
LINE
  5
479
100
AcDbEntity
  8
RACCORDO
100
AcDbLine
 62
250
  6
CONTINUOUS
 10
150.8582021071
 20
72.7697647624
 11
150.8582021071
 21
72.4222332457
  0
LINE
  5
47A
100
AcDbEntity
  8
RACCORDO
100
AcDbLine
 62
7
  6
CONTINUOUS
 10
150.9303999453
 20
114.5048214686
 11
150.9303999641
 21
114.157241534
  0
LINE
  5
47B
100
AcDbEntity
  8
RACCORDO
100
AcDbLine
 62
7
  6
CONTINUOUS
 10
150.9303999641
 20
72.8576373946
 11
150.9303999641
 21
72.5101058778
  0
LINE
  5
47C
100
AcDbEntity
  8
0
100
AcDbLine
 62
250
  6
CONTINUOUS
 10
151.2353516231
 20
118.448145454
 11
151.2353516231
 21
117.3973510606
  0
LINE
  5
47D
100
AcDbEntity
  8
ASSI
100
AcDbLine
 62
7
  6
CONTINUOUS
 10
151.358945687
 20
118.5100583792
 11
151.358945687
 21
117.5455101636
  0
LINE
  5
47E
100
AcDbEntity
  8
RACCORDO
100
AcDbLine
 62
7
  6
CONTINUOUS
 10
151.3905951071
 20
108.6332588923
 11
151.3905951071
 21
107.8495017264
  0
LINE
  5
47F
100
AcDbEntity
  8
RACCORDO
100
AcDbLine
 62
7
  6
CONTINUOUS
 10
151.3905951071
 20
78.7602120497
 11
151.3905951071
 21
78.0249782838
  0
LWPOLYLINE
  5
480
100
AcDbEntity
  8
0
100
AcDbPolyline
 62
250
  6
CONTINUOUS
 90
3
 70
0
 10
148.7582331021
 20
91.1005635672
 10
148.7573948995
 20
91.077442809
 10
148.7548885531
 20
91.0536916166
  0
LWPOLYLINE
  5
481
100
AcDbEntity
  8
0
100
AcDbPolyline
 62
250
  6
CONTINUOUS
 90
19
 70
0
 10
149.0385861314
 20
91.0993402658
 10
149.0371293126
 20
91.0602829474
 10
149.0330076861
 20
91.0207748364
 10
149.026221252
 20
90.9808159328
 10
149.0166158237
 20
90.9399804929
 10
149.0043455878
 20
90.8986942604
 10
148.9898731032
 20
90.8582344661
 10
148.9731336095
 20
90.8187324919
 10
148.9541918672
 20
90.780056956
 10
148.9337047175
 20
90.7430909437
 10
148.9118739363
 20
90.7081264186
 10
148.8884977478
 20
90.6748714171
 10
148.8636276649
 20
90.6433331335
 10
148.8372067445
 20
90.6133078582
 10
148.8092919299
 20
90.5849993008
 10
148.7801055643
 20
90.5590257834
 10
148.7497217621
 20
90.5355934135
 10
148.718066409
 20
90.5144960837
 10
148.6851395049
 20
90.495733794
  0
LWPOLYLINE
  5
482
100
AcDbEntity
  8
RACCORDO
100
AcDbPolyline
 62
250
  6
CONTINUOUS
 90
10
 70
0
 10
148.3761321848
 20
71.7116742453
 10
148.3772915651
 20
71.7370095005
 10
148.3807781398
 20
71.7633075902
 10
148.3865809098
 20
71.7902301114
 10
148.3946720753
 20
71.8174670916
 10
148.4049672022
 20
71.8446028923
 10
148.4172899915
 20
71.8711281845
 10
148.4314463577
 20
71.8966376682
 10
148.4472618874
 20
71.9208278907
 10
148.4645205325
 20
71.9433684192
  0
LWPOLYLINE
  5
483
100
AcDbEntity
  8
RACCORDO
100
AcDbPolyline
 62
250
  6
CONTINUOUS
 90
9
 70
0
 10
150.9303999641
 20
114.157241534
 10
150.930096743
 20
114.1510868897
 10
150.9274570594
 20
114.1381183044
 10
150.9221305617
 20
114.1253576895
 10
150.9141751771
 20
114.1129438203
 10
150.9036774225
 20
114.1010117009
 10
150.890751464
 20
114.0896910964
 10
150.8755378748
 20
114.0791051216
 10
150.8582021071
 20
114.0693689018
  0
LWPOLYLINE
  5
484
100
AcDbEntity
  8
RACCORDO
100
AcDbPolyline
 62
250
  6
CONTINUOUS
 90
9
 70
0
 10
150.9303999641
 20
114.5047730507
 10
150.9300640508
 20
114.498295324
 10
150.9273484844
 20
114.4853023785
 10
150.9219240082
 20
114.4725002444
 10
150.9138520083
 20
114.4600512913
 10
150.9032754128
 20
114.4481459054
 10
150.8903650656
 20
114.4369227446
 10
150.8752771963
 20
114.4264741613
 10
150.8582021071
 20
114.4169004185
  0
LWPOLYLINE
  5
485
100
AcDbEntity
  8
0
100
AcDbPolyline
 62
250
  6
CONTINUOUS
 90
15
 70
0
 10
151.3589456372
 20
118.5100286423
 10
151.3589117105
 20
118.509516648
 10
151.3577804286
 20
118.5066598374
 10
151.3551611716
 20
118.5034561046
 10
151.3511891176
 20
118.4999339057
 10
151.3459205575
 20
118.496123594
 10
151.339469963
 20
118.492104889
 10
151.3319000194
 20
118.4878536004
 10
151.3230348204
 20
118.4832599979
 10
151.3129119651
 20
118.4784490974
 10
151.3014861457
 20
118.4733766732
 10
151.2882186757
 20
118.4677379623
 10
151.2727749666
 20
118.4615174717
 10
151.2551900561
 20
118.4549457604
 10
151.2353516231
 20
118.448145454
  0
LWPOLYLINE
  5
486
100
AcDbEntity
  8
0
100
AcDbPolyline
 62
250
  6
CONTINUOUS
 90
7
 70
0
 10
148.6851395049
 20
93.5013518763
 10
148.6836237871
 20
93.4792090088
 10
148.6797577809
 20
93.4586751467
 10
148.6736075979
 20
93.440101498
 10
148.6652784169
 20
93.4238057453
 10
148.6549126877
 20
93.4100666166
 10
148.6426876971
 20
93.3991191155
  0
LWPOLYLINE
  5
487
100
AcDbEntity
  8
0
100
AcDbPolyline
 62
7
  6
CONTINUOUS
 90
9
 70
0
 10
152.4180379394
 20
120.9437025938
 10
152.4180342573
 20
120.9436514083
 10
152.4178606927
 20
120.9409275451
 10
152.4176504919
 20
120.9338184457
 10
152.4175001182
 20
120.9221078007
 10
152.417063187
 20
120.9056616065
 10
152.4163466282
 20
120.8841925081
 10
152.415754126
 20
120.8573925633
 10
152.4155717917
 20
120.8250364934
  0
LINE
  5
488
100
AcDbEntity
  8
0
100
AcDbLine
 62
250
  6
CONTINUOUS
 10
149.5247964093
 20
76.8206666756
 11
149.5236548188
 21
76.8075933142
  0
LWPOLYLINE
  5
489
100
AcDbEntity
  8
0
100
AcDbPolyline
 62
250
  6
CONTINUOUS
 90
3
 70
0
 10
148.7548885531
 20
91.0536916166
 10
148.750729251
 20
91.0294914294
 10
148.7449229097
 20
91.0049559181
  0
LWPOLYLINE
  5
48A
100
AcDbEntity
  8
0
100
AcDbPolyline
 62
250
  6
CONTINUOUS
 90
5
 70
0
 10
148.7449229097
 20
91.0049559181
 10
148.7375221381
 20
90.980345855
 10
148.7286710497
 20
90.9560672023
 10
148.7184894575
 20
90.9323462518
 10
148.7070711425
 20
90.9093057917
  0
LWPOLYLINE
  5
48B
100
AcDbEntity
  8
0
100
AcDbPolyline
 62
7
  6
CONTINUOUS
 90
17
 70
0
 10
165.0445155653
 20
108.0357863946
 10
165.0471376451
 20
108.0378421604
 10
165.0615574483
 20
108.0519903902
 10
165.0750592354
 20
108.0684687578
 10
165.0874220262
 20
108.0868969283
 10
165.0979828804
 20
108.1061338971
 10
165.1066615253
 20
108.1262008486
 10
165.1135382334
 20
108.1470765984
 10
165.1181908828
 20
108.1675565883
 10
165.1204821961
 20
108.1877081999
 10
165.1205494505
 20
108.2074640516
 10
165.1183823555
 20
108.2254174414
 10
165.11385207
 20
108.241366741
 10
165.107087435
 20
108.2555135786
 10
165.0984646827
 20
108.2670561366
 10
165.0878714133
 20
108.2759054843
 10
165.0819792202
 20
108.2794549397
  0
LWPOLYLINE
  5
48C
100
AcDbEntity
  8
0
100
AcDbPolyline
 62
7
  6
CONTINUOUS
 90
18
 70
0
 10
163.2471140943
 20
103.147794779
 10
163.26381189
 20
103.1580434029
 10
163.2793706894
 20
103.1702418297
 10
163.2937904926
 20
103.1843900595
 10
163.3072922797
 20
103.2008684271
 10
163.3196550706
 20
103.2192965976
 10
163.3302159248
 20
103.2385335663
 10
163.3388945696
 20
103.2586005179
 10
163.3457712778
 20
103.2794762676
 10
163.3504239271
 20
103.2999562576
 10
163.3527152404
 20
103.3201078692
 10
163.3527824949
 20
103.3398637209
 10
163.3506153998
 20
103.3578171106
 10
163.3460851143
 20
103.3737664103
 10
163.3393204794
 20
103.3879132479
 10
163.3306977271
 20
103.3994558058
 10
163.3201044577
 20
103.4083051536
 10
163.3142122645
 20
103.411854609
  0
LWPOLYLINE
  5
48D
100
AcDbEntity
  8
0
100
AcDbPolyline
 62
7
  6
CONTINUOUS
 90
18
 70
0
 10
163.2471140943
 20
103.4076024084
 10
163.230535012
 20
103.3974961679
 10
163.2150399583
 20
103.3853678408
 10
163.200628933
 20
103.371217427
 10
163.187047572
 20
103.3546176123
 10
163.1745502394
 20
103.335995711
 10
163.1639000282
 20
103.316633666
 10
163.1552340613
 20
103.2965599539
 10
163.1484152156
 20
103.2757460982
 10
163.1437952145
 20
103.2553886118
 10
163.1414821702
 20
103.2354761072
 10
163.1413679704
 20
103.216019972
 10
163.1434800021
 20
103.1982508819
 10
163.1479396359
 20
103.1822738116
 10
163.1546255012
 20
103.1679837865
 10
163.1632008733
 20
103.1562965584
 10
163.1737959254
 20
103.1473273281
 10
163.1800083557
 20
103.1435463663
  0
LWPOLYLINE
  5
48E
100
AcDbEntity
  8
0
100
AcDbPolyline
 62
7
  6
CONTINUOUS
 90
5
 70
0
 10
163.8127995193
 20
103.4306374915
 10
163.8293786016
 20
103.440743732
 10
163.8448736553
 20
103.4528720592
 10
163.8592846806
 20
103.4670224729
 10
163.8603691475
 20
103.4683479623
  0
LINE
  5
48F
100
AcDbEntity
  8
RACCORDO
100
AcDbLine
 62
250
  6
CONTINUOUS
 10
175.0942658733
 20
109.858800169
 11
175.0871353495
 21
109.8550381313
  0
LWPOLYLINE
  5
490
100
AcDbEntity
  8
RACCORDO
100
AcDbPolyline
 62
250
  6
CONTINUOUS
 90
14
 70
0
 10
175.1636555893
 20
110.0165453879
 10
175.1958195811
 20
110.034107914
 10
175.2274828702
 20
110.0531650019
 10
175.2583500944
 20
110.0737612703
 10
175.2880312601
 20
110.0958730151
 10
175.3162740356
 20
110.1195775305
 10
175.3429005083
 20
110.1450704779
 10
175.367526432
 20
110.1724320727
 10
175.389610764
 20
110.2015830726
 10
175.4086530021
 20
110.2324649589
 10
175.4242848113
 20
110.2653403364
 10
175.4357701552
 20
110.2997999295
 10
175.4424616227
 20
110.3346981578
 10
175.4443157889
 20
110.3652171144
  0
LINE
  5
491
100
AcDbEntity
  8
RACCORDO
100
AcDbLine
 62
250
  6
CONTINUOUS
 10
162.3378936008
 20
103.2362970601
 11
175.1636555893
 21
110.0165491866
  0
LWPOLYLINE
  5
492
100
AcDbEntity
  8
RACCORDO
100
AcDbPolyline
 62
7
  6
CONTINUOUS
 90
13
 70
0
 10
162.2624443606
 20
103.0753521815
 10
175.0942658733
 20
109.858800169
 10
175.1561311694
 20
109.8949552089
 10
175.2119406736
 20
109.9340238146
 10
175.2618524628
 20
109.9759136398
 10
175.305872396
 20
110.0204636046
 10
175.3438428927
 20
110.0672954512
 10
175.3757525865
 20
110.1161400544
 10
175.4015698356
 20
110.1666293737
 10
175.4211454536
 20
110.2179236893
 10
175.4345880377
 20
110.2693168426
 10
175.4421969905
 20
110.3204161905
 10
175.4443094663
 20
110.3655290908
  0
LINE
  5
493
100
AcDbEntity
  8
0
100
AcDbLine
 62
7
  6
CONTINUOUS
 10
173.9119460879
 20
108.1944743472
 11
174.4649931944
 21
108.4848845944
  0
LINE
  5
494
100
AcDbEntity
  8
0
100
AcDbLine
 62
7
  6
CONTINUOUS
 10
174.6675759108
 20
108.1726238061
 11
161.8430093446
 21
101.6720165402
  0
LINE
  5
495
100
AcDbEntity
  8
RACCORDO
100
AcDbLine
 62
250
  6
CONTINUOUS
 10
175.0562795184
 20
107.7115479068
 11
162.2317128905
 21
101.2109406096
  0
LINE
  5
496
100
AcDbEntity
  8
RACCORDO
100
AcDbLine
 62
7
  6
CONTINUOUS
 10
173.9296334838
 20
108.1856306492
 11
161.5260943377
 21
101.9316338453
  0
LINE
  5
497
100
AcDbEntity
  8
0
100
AcDbLine
 62
250
  6
CONTINUOUS
 10
165.8634091914
 20
104.9353095975
 11
165.9300631235
 21
104.9686365635
  0
LINE
  5
498
100
AcDbEntity
  8
0
100
AcDbLine
 62
7
  6
CONTINUOUS
 10
167.7725975006
 20
105.8638153678
 11
168.0377625436
 21
105.9963978892
  0
LINE
  5
499
100
AcDbEntity
  8
0
100
AcDbLine
 62
7
  6
CONTINUOUS
 10
165.8634091914
 20
104.8261902873
 11
166.0048305477
 21
104.8969009654
  0
LINE
  5
49A
100
AcDbEntity
  8
0
100
AcDbLine
 62
7
  6
CONTINUOUS
 10
162.384443828
 20
102.9329660016
 11
162.0308904374
 21
102.7561893063
  0
LINE
  5
49B
100
AcDbEntity
  8
0
100
AcDbLine
 62
7
  6
CONTINUOUS
 10
167.7725975006
 20
105.5203950666
 11
166.3583839383
 21
104.8132882854
  0
LINE
  5
49C
100
AcDbEntity
  8
0
100
AcDbLine
 62
7
  6
CONTINUOUS
 10
162.1723117936
 20
102.6854786282
 11
162.5258651842
 21
102.8622553235
  0
LINE
  5
49D
100
AcDbEntity
  8
0
100
AcDbLine
 62
7
  6
CONTINUOUS
 10
164.8557820282
 20
103.9660544026
 11
163.8304771955
 21
103.4534019863
  0
LINE
  5
49E
100
AcDbEntity
  8
0
100
AcDbLine
 62
250
  6
CONTINUOUS
 10
162.1723117936
 20
102.5122735475
 11
162.5258651842
 21
102.6890502428
  0
LINE
  5
49F
100
AcDbEntity
  8
0
100
AcDbLine
 62
7
  6
CONTINUOUS
 10
166.3230285992
 20
104.5774988608
 11
165.615921818
 21
104.2239454702
  0
LINE
  5
4A0
100
AcDbEntity
  8
0
100
AcDbLine
 62
250
  6
CONTINUOUS
 10
162.2430224718
 20
102.390315668
 11
162.5965758623
 21
102.5670923633
  0
LINE
  5
4A1
100
AcDbEntity
  8
0
100
AcDbLine
 62
7
  6
CONTINUOUS
 10
162.1398747899
 20
102.2477649701
 11
161.5278697221
 21
101.9417624362
  0
LWPOLYLINE
  5
4A2
100
AcDbEntity
  8
0
100
AcDbPolyline
 62
7
  6
CONTINUOUS
 90
10
 70
0
 10
161.8430093446
 20
101.6720165402
 10
161.8013762763
 20
101.6526041459
 10
161.7600050309
 20
101.6375334905
 10
161.7191690341
 20
101.6269040276
 10
161.6791362331
 20
101.6207826337
 10
161.6401756022
 20
101.6192181875
 10
161.6025524621
 20
101.6222303924
 10
161.5665258958
 20
101.6297904672
 10
161.532320249
 20
101.6418433909
 10
161.5182313859
 20
101.6483863833
  0
LWPOLYLINE
  5
4A3
100
AcDbEntity
  8
RACCORDO
100
AcDbPolyline
 62
250
  6
CONTINUOUS
 90
16
 70
0
 10
162.2317128638
 20
101.2109406413
 10
162.1753180335
 20
101.1849963745
 10
162.1193349494
 20
101.1645844289
 10
162.0641190369
 20
101.1498114276
 10
162.0100397089
 20
101.1407713904
 10
161.9573872352
 20
101.1374575597
 10
161.9063952165
 20
101.1398411489
 10
161.8573383669
 20
101.147910459
 10
161.8105091227
 20
101.1615947049
 10
161.7661600288
 20
101.1807806476
 10
161.7245422224
 20
101.2053451281
 10
161.6858583284
 20
101.2351368768
 10
161.6502805227
 20
101.2699794135
 10
161.6180355295
 20
101.3096480655
 10
161.5892829069
 20
101.3539441193
 10
161.5665626902
 20
101.3974270905
  0
LWPOLYLINE
  5
4A4
100
AcDbEntity
  8
RACCORDO
100
AcDbPolyline
 62
250
  6
CONTINUOUS
 90
23
 70
0
 10
162.3378926441
 20
100.9329602044
 10
162.267366802
 20
100.9007633443
 10
162.198113842
 20
100.8755873738
 10
162.130133764
 20
100.8574322928
 10
162.0630444241
 20
100.8462939123
 10
161.9972279662
 20
100.8421764213
 10
161.9338308225
 20
100.8450923868
 10
161.8729179082
 20
100.8551695201
 10
161.8144243081
 20
100.8722801099
 10
161.7593017086
 20
100.8960535896
 10
161.7076221672
 20
100.9265827076
 10
161.6593136265
 20
100.9637747155
 10
161.6151116
 20
101.0069808023
 10
161.5750825542
 20
101.056229055
 10
161.5391600226
 20
101.1114913864
 10
161.5078801201
 20
101.1720347241
 10
161.4812665642
 20
101.2380174789
 10
161.4592956375
 20
101.3092812399
 10
161.4424323023
 20
101.3846177021
 10
161.4308495879
 20
101.4644796744
 10
161.424374465
 20
101.5484143479
 10
161.422952809
 20
101.6338549909
 10
161.4269015247
 20
101.7208391632
  0
LWPOLYLINE
  5
4A5
100
AcDbEntity
  8
RACCORDO
100
AcDbPolyline
 62
250
  6
CONTINUOUS
 90
8
 70
0
 10
137.4938839426
 20
120.751527984
 10
137.502087481
 20
120.7370710158
 10
137.5082573564
 20
120.7237328354
 10
137.5123261008
 20
120.7116592806
 10
137.5142492255
 20
120.7009822787
 10
137.5140056494
 20
120.6918186845
 10
137.5115981143
 20
120.6842688701
 10
137.5092807746
 20
120.6807370773
  0
LWPOLYLINE
  5
4A6
100
AcDbEntity
  8
RACCORDO
100
AcDbPolyline
 62
7
  6
CONTINUOUS
 90
16
 70
0
 10
150.6973409556
 20
111.9533048594
 10
150.6947461134
 20
111.9973422877
 10
150.6885045597
 20
112.042769754
 10
150.6786980209
 20
112.0890956894
 10
150.6654580515
 20
112.1358226677
 10
150.6489312121
 20
112.1824413734
 10
150.6292759926
 20
112.2284359975
 10
150.6067154575
 20
112.2733076987
 10
150.5815081207
 20
112.3165716755
 10
150.5539097912
 20
112.3577501492
 10
150.5242204553
 20
112.3964011749
 10
150.4927794349
 20
112.4320979742
 10
150.4599353604
 20
112.4644292075
 10
150.4260530707
 20
112.4930400533
 10
150.3915073671
 20
112.5176312633
 10
150.3566780254
 20
112.5379393925
  0
LWPOLYLINE
  5
4A7
100
AcDbEntity
  8
0
100
AcDbPolyline
 62
250
  6
CONTINUOUS
 90
13
 70
0
 10
151.185009622
 20
118.4305621783
 10
151.1838995367
 20
118.4538245
 10
151.1803747541
 20
118.4778915823
 10
151.1744955814
 20
118.5023516485
 10
151.1663626087
 20
118.5267861982
 10
151.1561149875
 20
118.5507771674
 10
151.1439280497
 20
118.5739140816
 10
151.1300103083
 20
118.5958010789
 10
151.1145998895
 20
118.6160636828
 10
151.0979604584
 20
118.6343552094
 10
151.0803767082
 20
118.6503626991
 10
151.0621494886
 20
118.6638122711
 10
151.0435906591
 20
118.6744738094
  0
LWPOLYLINE
  5
4A8
100
AcDbEntity
  8
RACCORDO
100
AcDbPolyline
 62
250
  6
CONTINUOUS
 90
16
 70
0
 10
150.8582021071
 20
114.4169004185
 10
150.8573350001
 20
114.4400660409
 10
150.8545294393
 20
114.4639405763
 10
150.8498161617
 20
114.4882624616
 10
150.8432468047
 20
114.5127652326
 10
150.8348933404
 20
114.5371804433
 10
150.8248472873
 20
114.5612406071
 10
150.8132187072
 20
114.5846821272
 10
150.8001349998
 20
114.6072481845
 10
150.7857395068
 20
114.628691551
 10
150.7701899414
 20
114.648777299
 10
150.7536566605
 20
114.6672853743
 10
150.7363207985
 20
114.6840130072
 10
150.7183722826
 20
114.6987769341
 10
150.7000077519
 20
114.7114154054
 10
150.6814284034
 20
114.7217899574
  0
LWPOLYLINE
  5
4A9
100
AcDbEntity
  8
0
100
AcDbPolyline
 62
7
  6
CONTINUOUS
 90
11
 70
0
 10
151.3589468015
 20
118.5100391408
 10
151.358519523
 20
118.5235924049
 10
151.3550346026
 20
118.550760505
 10
151.3481417486
 20
118.5770404059
 10
151.3379100122
 20
118.6022408925
 10
151.3246121345
 20
118.6257486127
 10
151.3084961476
 20
118.6472527641
 10
151.2899061938
 20
118.6664090984
 10
151.2695075774
 20
118.6827559538
 10
151.2476690322
 20
118.69627307
 10
151.2416595539
 20
118.6993941428
  0
LINE
  5
4AA
100
AcDbEntity
  8
0
100
AcDbLine
 62
7
  6
CONTINUOUS
 10
151.4152802966
 20
112.2924160142
 11
151.4152802966
 21
110.8483200498
  0
LINE
  5
4AB
100
AcDbEntity
  8
0
100
AcDbLine
 62
7
  6
CONTINUOUS
 10
151.4152802966
 20
107.7415693364
 11
151.4152802966
 21
78.8919826502
  0
LINE
  5
4AC
100
AcDbEntity
  8
0
100
AcDbLine
 62
7
  6
CONTINUOUS
 10
151.4152802966
 20
75.7852319367
 11
151.4152802966
 21
74.3411359723
  0
LWPOLYLINE
  5
4AD
100
AcDbEntity
  8
RACCORDO
100
AcDbPolyline
 62
250
  6
CONTINUOUS
 90
9
 70
0
 10
150.9303999468
 20
72.5100594605
 10
150.9301250606
 20
72.5042454996
 10
150.9275366718
 20
72.4912415751
 10
150.9222426615
 20
72.4784352696
 10
150.9142982226
 20
72.4659708445
 10
150.903792489
 20
72.453990417
 10
150.8908429544
 20
72.4426267184
 10
150.8755903951
 20
72.4320022677
 10
150.8582021071
 20
72.4222332457
  0
LWPOLYLINE
  5
4AE
100
AcDbEntity
  8
RACCORDO
100
AcDbPolyline
 62
250
  6
CONTINUOUS
 90
9
 70
0
 10
150.9303999641
 20
72.8576373946
 10
150.930096743
 20
72.8514827503
 10
150.9274570594
 20
72.8385141651
 10
150.9221305617
 20
72.8257535502
 10
150.9141751771
 20
72.8133396809
 10
150.9036774225
 20
72.8014075615
 10
150.890751464
 20
72.790086957
 10
150.8755378748
 20
72.7795009822
 10
150.8582021071
 20
72.7697647624
  0
LWPOLYLINE
  5
4AF
100
AcDbEntity
  8
RACCORDO
100
AcDbPolyline
 62
7
  6
CONTINUOUS
 90
10
 70
0
 10
150.6973409556
 20
73.9869411645
 10
150.6947121611
 20
73.9440805003
 10
150.6884881596
 20
73.9035786606
 10
150.6787227838
 20
73.8658744638
 10
150.6654978367
 20
73.8313702684
 10
150.6489556024
 20
73.8004472537
 10
150.6292987045
 20
73.7734598473
 10
150.6067335414
 20
73.7507010275
 10
150.5814949402
 20
73.7324159072
 10
150.5680795674
 20
73.7250758532
  0
LWPOLYLINE
  5
4B0
100
AcDbEntity
  8
0
100
AcDbPolyline
 62
250
  6
CONTINUOUS
 90
3
 70
0
 10
149.41562089
 20
76.1567693788
 10
149.4174954898
 20
76.1709465802
 10
149.4185615492
 20
76.1930193302
  0
LWPOLYLINE
  5
4B1
100
AcDbEntity
  8
0
100
AcDbPolyline
 62
250
  6
CONTINUOUS
 90
3
 70
0
 10
149.520504076
 20
76.7701001265
 10
149.5220845726
 20
76.780970988
 10
149.5236548188
 20
76.8075933142
  0
LINE
  5
4B2
100
AcDbEntity
  8
0
100
AcDbLine
 62
250
  6
CONTINUOUS
 10
149.5236548188
 20
76.8075933142
 11
149.4185607244
 21
76.1930145069
  0
LINE
  5
4B3
100
AcDbEntity
  8
0
100
AcDbLine
 62
7
  6
CONTINUOUS
 10
149.520504076
 20
76.7701001265
 11
149.4154482049
 21
76.1557448446
  0
LWPOLYLINE
  5
4B4
100
AcDbEntity
  8
0
100
AcDbPolyline
 62
250
  6
CONTINUOUS
 90
6
 70
0
 10
148.7070711425
 20
90.9093057917
 10
148.694584513
 20
90.8871738445
 10
148.6812687816
 20
90.8662504325
 10
148.6671548408
 20
90.8464740774
 10
148.6520573179
 20
90.827559647
 10
148.6360000542
 20
90.8096045033
  0
LWPOLYLINE
  5
4B5
100
AcDbEntity
  8
0
100
AcDbPolyline
 62
250
  6
CONTINUOUS
 90
6
 70
0
 10
148.6360000542
 20
90.8096045033
 10
148.6191261192
 20
90.7928359293
 10
148.6013713369
 20
90.7772615369
 10
148.5827797114
 20
90.7630376496
 10
148.563523775
 20
90.7504210295
 10
148.543739489
 20
90.7396125027
  0
LWPOLYLINE
  5
4B6
100
AcDbEntity
  8
0
100
AcDbPolyline
 62
250
  6
CONTINUOUS
 90
7
 70
0
 10
148.6187812108
 20
90.9115272016
 10
148.6308692657
 20
90.9223753818
 10
148.6410570446
 20
90.9360254508
 10
148.6490929605
 20
90.9521745406
 10
148.6548395664
 20
90.9705464336
 10
148.658198577
 20
90.9908269092
 10
148.6591125398
 20
91.012669096
  0
LINE
  5
4B7
100
AcDbEntity
  8
RACCORDO
100
AcDbLine
 62
250
  6
CONTINUOUS
 10
162.1828030015
 20
103.1378259281
 11
162.2106525843
 21
103.1580033666
  0
LWPOLYLINE
  5
4B8
100
AcDbEntity
  8
RACCORDO
100
AcDbPolyline
 62
250
  6
CONTINUOUS
 90
6
 70
0
 10
162.2106525843
 20
103.1580033666
 10
162.2377364437
 20
103.1764678679
 10
162.2640072119
 20
103.1935013009
 10
162.2894490995
 20
103.2091976222
 10
162.3140778958
 20
103.2234628752
 10
162.3378936008
 20
103.2362970601
  0
LWPOLYLINE
  5
4B9
100
AcDbEntity
  8
0
100
AcDbPolyline
 62
7
  6
CONTINUOUS
 90
7
 70
0
 10
165.8814042198
 20
104.9727735716
 10
165.8764347309
 20
104.9694918853
 10
165.8718678154
 20
104.9647278807
 10
165.8682547295
 20
104.9588994894
 10
165.8656857207
 20
104.9521005788
 10
165.8640705413
 20
104.9442372815
 10
165.8634091914
 20
104.9353095975
  0
LINE
  5
4BA
100
AcDbEntity
  8
0
100
AcDbLine
 62
250
  6
CONTINUOUS
 10
148.6102093438
 20
90.9061187589
 11
148.6187812108
 21
90.9115272016
  0
LWPOLYLINE
  5
4BB
100
AcDbEntity
  8
0
100
AcDbPolyline
 62
250
  6
CONTINUOUS
 90
7
 70
0
 10
148.6591125398
 20
93.1493967525
 10
148.6755139037
 20
93.1590425599
 10
148.6894306788
 20
93.1697219676
 10
148.7005820505
 20
93.1812792756
 10
148.7087397107
 20
93.1935661753
 10
148.7136758301
 20
93.2063622008
 10
148.7152445798
 20
93.2188625896
  0
LINE
  5
4BC
100
AcDbEntity
  8
0
100
AcDbLine
 62
250
  6
CONTINUOUS
 10
148.6426876971
 20
93.3991191155
 11
148.6300635729
 21
93.3917143428
  0
LINE
  5
4BD
100
AcDbEntity
  8
RACCORDO
100
AcDbLine
 62
250
  6
CONTINUOUS
 10
175.1636555893
 20
107.4341738993
 11
162.3378926441
 21
100.9329602044
  0
LINE
  5
4BE
100
AcDbEntity
  8
0
100
AcDbLine
 62
250
  6
CONTINUOUS
 10
146.0180217592
 20
92.153410216
 11
146.9537167026
 21
92.6175218059
  0
LINE
  5
4BF
100
AcDbEntity
  8
0
100
AcDbLine
 62
250
  6
CONTINUOUS
 10
146.0165351109
 20
91.8386588664
 11
148.6591125398
 21
93.1493967525
  0
LINE
  5
4C0
100
AcDbEntity
  8
0
100
AcDbLine
 62
250
  6
CONTINUOUS
 10
146.0194099769
 20
92.2702296411
 11
148.6851395049
 21
93.5013518763
  0
LINE
  5
4C1
100
AcDbEntity
  8
0
100
AcDbLine
 62
7
  6
CONTINUOUS
 10
146.0180243359
 20
92.1853880632
 11
148.6300635729
 21
93.3917143428
  0
LWPOLYLINE
  5
4C2
100
AcDbEntity
  8
0
100
AcDbPolyline
 62
250
  6
CONTINUOUS
 90
13
 70
0
 10
149.0385861314
 20
93.2390648442
 10
149.0188527212
 20
93.2306997367
 10
148.9971248035
 20
93.2236782488
 10
148.9737659448
 20
93.218117869
 10
148.9491670016
 20
93.2141116373
 10
148.9237395803
 20
93.2117265889
 10
148.8979091502
 20
93.211002632
 10
148.8721079237
 20
93.2119518802
 10
148.8467676249
 20
93.2145584502
 10
148.822312265
 20
93.2187787271
 10
148.7991510479
 20
93.2245420942
 10
148.7776715232
 20
93.2317521149
 10
148.7582331011
 20
93.2402881461
  0
LWPOLYLINE
  5
4C3
100
AcDbEntity
  8
0
100
AcDbPolyline
 62
7
  6
CONTINUOUS
 90
6
 70
0
 10
148.6299021373
 20
93.3916397355
 10
148.6429686124
 20
93.3970867572
 10
148.6545441133
 20
93.4008113647
 10
148.6640066416
 20
93.402922433
 10
148.6709209105
 20
93.403759612
 10
148.6720044043
 20
93.4038181424
  0
LWPOLYLINE
  5
4C4
100
AcDbEntity
  8
0
100
AcDbPolyline
 62
250
  6
CONTINUOUS
 90
16
 70
0
 10
148.6851395049
 20
93.5013518763
 10
148.7226053154
 20
93.5161608296
 10
148.7588490615
 20
93.5261071719
 10
148.7938707431
 20
93.5311909032
 10
148.827994108
 20
93.531368656
 10
148.8608954083
 20
93.5266837979
 10
148.8916034013
 20
93.5172664315
 10
148.9200467724
 20
93.5030651482
 10
148.9462968362
 20
93.4841313567
 10
148.9695962931
 20
93.4607493857
 10
148.9899641752
 20
93.4325899289
 10
149.0073814505
 20
93.3999822927
 10
149.0210337233
 20
93.3641987255
 10
149.0306495284
 20
93.3256633101
 10
149.0365003311
 20
93.2839519637
 10
149.0385861314
 20
93.2390646862
  0
LINE
  5
4C5
100
AcDbEntity
  8
0
100
AcDbLine
 62
7
  6
CONTINUOUS
 10
154.2190222318
 20
123.0580616333
 11
154.2190222318
 21
123.6603103482
  0
LINE
  5
4C6
100
AcDbEntity
  8
RACCORDO
100
AcDbLine
 62
250
  6
CONTINUOUS
 10
155.946307866
 20
116.4516295699
 11
155.946307866
 21
115.954299613
  0
LINE
  5
4C7
100
AcDbEntity
  8
RACCORDO
100
AcDbLine
 62
250
  6
CONTINUOUS
 10
155.946307866
 20
79.3912101656
 11
155.946307866
 21
79.0982644047
  0
LINE
  5
4C8
100
AcDbEntity
  8
RACCORDO
100
AcDbLine
 62
7
  6
CONTINUOUS
 10
156.0866379659
 20
116.7520546967
 11
156.0866379659
 21
116.1305703023
  0
LINE
  5
4C9
100
AcDbEntity
  8
RACCORDO
100
AcDbLine
 62
7
  6
CONTINUOUS
 10
156.0866379659
 20
79.4654190339
 11
156.0866379659
 21
79.1451684632
  0
LINE
  5
4CA
100
AcDbEntity
  8
0
100
AcDbLine
 62
250
  6
CONTINUOUS
 10
149.4166744748
 20
76.1856108751
 11
149.4185607244
 21
76.1930146752
  0
LWPOLYLINE
  5
4CB
100
AcDbEntity
  8
0
100
AcDbPolyline
 62
7
  6
CONTINUOUS
 90
4
 70
0
 10
168.5410940722
 20
110.6222946447
 10
168.5348412591
 20
110.6140250041
 10
168.5198487565
 20
110.6005357608
 10
168.5065343742
 20
110.5924572569
  0
LWPOLYLINE
  5
4CC
100
AcDbEntity
  8
0
100
AcDbPolyline
 62
250
  6
CONTINUOUS
 90
3
 70
0
 10
175.3562773193
 20
120.8700610031
 10
175.3882453132
 20
120.9101253554
 10
175.4131880437
 20
120.9514182585
  0
LWPOLYLINE
  5
4CD
100
AcDbEntity
  8
0
100
AcDbPolyline
 62
250
  6
CONTINUOUS
 90
7
 70
0
 10
148.6591125398
 20
91.012669096
 10
148.6755139037
 20
91.0223149034
 10
148.6894306788
 20
91.0329943111
 10
148.7005820505
 20
91.0445516191
 10
148.7087397107
 20
91.0568385188
 10
148.7136758301
 20
91.0696345443
 10
148.7152445384
 20
91.0820706021
  0
LINE
  5
4CE
100
AcDbEntity
  8
0
100
AcDbLine
 62
250
  6
CONTINUOUS
 10
148.6591125398
 20
91.012669096
 11
146.0165351109
 21
89.5869379479
  0
LINE
  5
4CF
100
AcDbEntity
  8
0
100
AcDbLine
 62
7
  6
CONTINUOUS
 10
148.6102093438
 20
90.9061187589
 11
146.0180026833
 21
89.5075637959
  0
LINE
  5
4D0
100
AcDbEntity
  8
0
100
AcDbLine
 62
250
  6
CONTINUOUS
 10
148.5437396878
 20
90.7396124033
 11
146.0180059509
 21
89.4670072251
  0
LINE
  5
4D1
100
AcDbEntity
  8
0
100
AcDbLine
 62
250
  6
CONTINUOUS
 10
148.6851395049
 20
90.495733794
 11
146.0194099769
 21
89.1525909474
  0
LWPOLYLINE
  5
4D2
100
AcDbEntity
  8
0
100
AcDbPolyline
 62
250
  6
CONTINUOUS
 90
13
 70
0
 10
149.0385861314
 20
91.0993402658
 10
149.0188518088
 20
91.0909748185
 10
148.9971230221
 20
91.0839531713
 10
148.9737634265
 20
91.0783927857
 10
148.9491639626
 20
91.074386668
 10
148.9237362751
 20
91.0720018075
 10
148.8979058203
 20
91.0712780656
 10
148.8721048245
 20
91.0722275147
 10
148.8467649864
 20
91.0748342307
 10
148.8223102181
 20
91.0790545751
 10
148.7991496621
 20
91.0848179163
 10
148.7776708393
 20
91.0920277984
 10
148.7582331011
 20
91.1005635677
  0
LINE
  5
4D3
100
AcDbEntity
  8
0
100
AcDbLine
 62
250
  6
CONTINUOUS
 10
128.9569075047
 20
115.6362516093
 11
143.8315917918
 21
108.1989094658
  0
LWPOLYLINE
  5
4D4
100
AcDbEntity
  8
0
100
AcDbPolyline
 62
7
  6
CONTINUOUS
 90
9
 70
0
 10
160.0551722405
 20
123.3496983059
 10
160.0551685584
 20
123.3496471205
 10
160.0549949938
 20
123.3469232572
 10
160.054784793
 20
123.3398141579
 10
160.0546344192
 20
123.3281035128
 10
160.0541974881
 20
123.3116573186
 10
160.0534809293
 20
123.2901882202
 10
160.0528884271
 20
123.2633882754
 10
160.0527060928
 20
123.2310322055
  0
LWPOLYLINE
  5
4D5
100
AcDbEntity
  8
RACCORDO
100
AcDbPolyline
 62
250
  6
CONTINUOUS
 90
10
 70
0
 10
150.8582021071
 20
72.7697647624
 10
150.8663614897
 20
72.7943116532
 10
150.87252055
 20
72.8195825035
 10
150.8766029384
 20
72.8453061116
 10
150.8785548456
 20
72.8712177445
 10
150.8783422028
 20
72.8970211837
 10
150.8759626235
 20
72.9223933119
 10
150.8714451836
 20
72.9470434194
 10
150.8648386284
 20
72.970715685
 10
150.8562148704
 20
72.993152107
  0
LWPOLYLINE
  5
4D6
100
AcDbEntity
  8
0
100
AcDbPolyline
 62
7
  6
CONTINUOUS
 90
4
 70
0
 10
149.4008220439
 20
76.1042677815
 10
149.4066357678
 20
76.1196085739
 10
149.4138005074
 20
76.1470084711
 10
149.4156271621
 20
76.1568193903
  0
LWPOLYLINE
  5
4D7
100
AcDbEntity
  8
0
100
AcDbPolyline
 62
7
  6
CONTINUOUS
 90
4
 70
0
 10
171.291739451
 20
111.9976173341
 10
171.2854866379
 20
111.9893476935
 10
171.2704941353
 20
111.9758584502
 10
171.257179753
 20
111.9677799463
  0
LWPOLYLINE
  5
4D8
100
AcDbEntity
  8
0
100
AcDbPolyline
 62
7
  6
CONTINUOUS
 90
10
 70
0
 10
166.6467138807
 20
105.1001481257
 10
166.6357274963
 20
105.0856972055
 10
166.6235730463
 20
105.0725815453
 10
166.6110123033
 20
105.0615661985
 10
166.5980283296
 20
105.0527707518
 10
166.5846380629
 20
105.0460756185
 10
166.5716540892
 20
105.0418870915
 10
166.5590933462
 20
105.0403416953
 10
166.5469388962
 20
105.0413029054
 10
166.5437368707
 20
105.0423126582
  0
LWPOLYLINE
  5
4D9
100
AcDbEntity
  8
0
100
AcDbPolyline
 62
7
  6
CONTINUOUS
 90
4
 70
0
 10
165.9012625195
 20
104.9748064074
 10
165.8940535038
 20
104.9755202278
 10
165.887527575
 20
104.9748880588
 10
165.8814042198
 20
104.9727735716
  0
LWPOLYLINE
  5
4DA
100
AcDbEntity
  8
0
100
AcDbPolyline
 62
7
  6
CONTINUOUS
 90
6
 70
0
 10
163.1800083557
 20
103.1435463663
 10
163.1862804843
 20
103.1409608949
 10
163.1999273052
 20
103.1377674084
 10
163.2144939729
 20
103.1379369185
 10
163.2302229026
 20
103.1412793754
 10
163.2471140943
 20
103.147794779
  0
LINE
  5
4DB
100
AcDbEntity
  8
0
100
AcDbLine
 62
250
  6
CONTINUOUS
 10
129.6205392819
 20
116.8023441176
 11
144.5069092924
 21
109.3591591123
  0
LINE
  5
4DC
100
AcDbEntity
  8
0
100
AcDbLine
 62
250
  6
CONTINUOUS
 10
161.5132418923
 20
101.8369002664
 11
161.8430093446
 21
101.6720165402
  0
LINE
  5
4DD
100
AcDbEntity
  8
0
100
AcDbLine
 62
250
  6
CONTINUOUS
 10
149.420497502
 20
108.0983087134
 11
149.4292740704
 21
108.0939204293
  0
LINE
  5
4DE
100
AcDbEntity
  8
0
100
AcDbLine
 62
7
  6
CONTINUOUS
 10
145.666125711
 20
109.9920094286
 11
130.7399815649
 21
117.4550815016
  0
LINE
  5
4DF
100
AcDbEntity
  8
RACCORDO
100
AcDbLine
 62
7
  6
CONTINUOUS
 10
145.6802570816
 20
109.9849437433
 11
130.7258501943
 21
117.4621471869
  0
LINE
  5
4E0
100
AcDbEntity
  8
0
100
AcDbLine
 62
7
  6
CONTINUOUS
 10
149.431830389
 20
108.1645822009
 11
149.5040686767
 21
108.1284630571
  0
LINE
  5
4E1
100
AcDbEntity
  8
0
100
AcDbLine
 62
7
  6
CONTINUOUS
 10
149.6983236619
 20
108.2181764466
 11
149.4612639256
 21
108.3367063147
  0
LINE
  5
4E2
100
AcDbEntity
  8
0
100
AcDbLine
 62
250
  6
CONTINUOUS
 10
150.1487234463
 20
108.4261859928
 11
151.2032123207
 21
107.8989415556
  0
LINE
  5
4E3
100
AcDbEntity
  8
0
100
AcDbLine
 62
7
  6
CONTINUOUS
 10
162.3398139215
 20
102.3419199432
 11
162.2430224718
 21
102.390315668
  0
LINE
  5
4E4
100
AcDbEntity
  8
0
100
AcDbLine
 62
7
  6
CONTINUOUS
 10
150.2814625308
 20
108.4317563815
 11
151.3359514052
 21
107.9045119443
  0
LINE
  5
4E5
100
AcDbEntity
  8
0
100
AcDbLine
 62
250
  6
CONTINUOUS
 10
149.5247964093
 20
108.9037273976
 11
150.3659083338
 21
108.4831714353
  0
LINE
  5
4E6
100
AcDbEntity
  8
0
100
AcDbLine
 62
7
  6
CONTINUOUS
 10
149.5401180376
 20
108.9680065144
 11
150.4407029401
 21
108.5177140631
  0
LINE
  5
4E7
100
AcDbEntity
  8
0
100
AcDbLine
 62
7
  6
CONTINUOUS
 10
162.1723117936
 20
102.6854786282
 11
162.0308904374
 21
102.7561893063
  0
LINE
  5
4E8
100
AcDbEntity
  8
0
100
AcDbLine
 62
7
  6
CONTINUOUS
 10
161.5182313859
 20
101.6483863833
 11
161.5092629857
 21
101.6533089101
  0
LINE
  5
4E9
100
AcDbEntity
  8
RACCORDO
100
AcDbLine
 62
7
  6
CONTINUOUS
 10
150.8386875411
 20
110.3024883021
 11
150.9764446314
 21
110.0648924669
  0
LWPOLYLINE
  5
4EA
100
AcDbEntity
  8
RACCORDO
100
AcDbPolyline
 62
250
  6
CONTINUOUS
 90
8
 70
0
 10
150.8582021071
 20
114.0693689018
 10
150.8663614897
 20
114.0549972686
 10
150.87252055
 20
114.0417099617
 10
150.8766029384
 20
114.0296564774
 10
150.8785548456
 20
114.0189688022
 10
150.8783422028
 20
114.0097770271
 10
150.8759626235
 20
114.0021996521
 10
150.8735626794
 20
113.9985337352
  0
LINE
  5
4EB
100
AcDbEntity
  8
0
100
AcDbLine
 62
7
  6
CONTINUOUS
 10
161.6773370468
 20
106.3380190522
 11
161.6773370468
 21
106.4650093824
  0
LWPOLYLINE
  5
4EC
100
AcDbEntity
  8
RACCORDO
100
AcDbPolyline
 62
250
  6
CONTINUOUS
 90
9
 70
0
 10
162.3380392205
 20
107.5665010599
 10
162.3367911381
 20
107.5371542355
 10
162.3326415827
 20
107.509613386
 10
162.3256466702
 20
107.4842509541
 10
162.3159009946
 20
107.4614099232
 10
162.3035363495
 20
107.4413991791
 10
162.2887199454
 20
107.4244893327
 10
162.271652149
 20
107.4109090607
 10
162.2624491363
 20
107.4054817252
  0
LWPOLYLINE
  5
4ED
100
AcDbEntity
  8
0
100
AcDbPolyline
 62
250
  6
CONTINUOUS
 90
7
 70
0
 10
162.2656965309
 20
107.3911155186
 10
162.2654369393
 20
107.3871932494
 10
162.2646583934
 20
107.3836065072
 10
162.2633711398
 20
107.3804513034
 10
162.2616013645
 20
107.3778184215
 10
162.2593845006
 20
107.3757801152
 10
162.2578997354
 20
107.3748893046
  0
LINE
  5
4EE
100
AcDbEntity
  8
RACCORDO
100
AcDbLine
 62
250
  6
CONTINUOUS
 10
161.4243874625
 20
106.0075675496
 11
161.4310533721
 21
106.0966538361
  0
LWPOLYLINE
  5
4EF
100
AcDbEntity
  8
RACCORDO
100
AcDbPolyline
 62
250
  6
CONTINUOUS
 90
27
 70
0
 10
161.4269015247
 20
101.7208391632
 10
161.4359037073
 20
101.809329305
 10
161.4489545167
 20
101.8966460043
 10
161.4661782504
 20
101.9824309311
 10
161.487450611
 20
102.0670424155
 10
161.5113938656
 20
102.1488760363
 10
161.5379771698
 20
102.2276556528
 10
161.567231368
 20
102.3036574058
 10
161.5978712609
 20
102.3761052961
 10
161.6297820425
 20
102.4447524845
 10
161.6630785187
 20
102.5098458101
 10
161.6968199079
 20
102.5713497914
 10
161.7308716711
 20
102.6291264182
 10
161.7653683473
 20
102.6833137007
 10
161.799772771
 20
102.7342901875
 10
161.8339987797
 20
102.7820195015
 10
161.868132536
 20
102.8265380198
 10
161.9018953624
 20
102.8683334228
 10
161.9352468908
 20
102.9074261098
 10
161.9682274895
 20
102.9437956815
 10
162.000679585
 20
102.9778686201
 10
162.0325941883
 20
103.0096798268
 10
162.0639802885
 20
103.0391944005
 10
162.0947072804
 20
103.0667341196
 10
162.1247671674
 20
103.0923189379
 10
162.1541679461
 20
103.1159289016
 10
162.1828030015
 20
103.1378259281
  0
LWPOLYLINE
  5
4F0
100
AcDbEntity
  8
RACCORDO
100
AcDbPolyline
 62
250
  6
CONTINUOUS
 90
26
 70
0
 10
161.4310533721
 20
106.0966538361
 10
161.4420441666
 20
106.1849489556
 10
161.4575306952
 20
106.272097662
 10
161.4773421088
 20
106.3584552014
 10
161.5000964043
 20
106.4421999224
 10
161.5257865446
 20
106.5230399335
 10
161.554419567
 20
106.6012671261
 10
161.58463458
 20
106.6759355241
 10
161.6163205295
 20
106.7467728108
 10
161.6495884697
 20
106.8140513028
 10
161.683410672
 20
106.8776419735
 10
161.7176413155
 20
106.9373796013
 10
161.7524262212
 20
106.9934294077
 10
161.7871751237
 20
107.0461580314
 10
161.8217882276
 20
107.0955162034
 10
161.8563653282
 20
107.1415531926
 10
161.8906155463
 20
107.184783444
 10
161.9244949535
 20
107.2252282644
 10
161.9580474781
 20
107.2628663471
 10
161.9911140269
 20
107.2981482171
 10
162.0236878817
 20
107.3311162763
 10
162.0557757606
 20
107.361728123
 10
162.0872387247
 20
107.3903070761
 10
162.1180727206
 20
107.4168760697
 10
162.1482818018
 20
107.4414121698
 10
162.1777391899
 20
107.4641698939
  0
LWPOLYLINE
  5
4F1
100
AcDbEntity
  8
0
100
AcDbPolyline
 62
7
  6
CONTINUOUS
 90
4
 70
0
 10
164.9795257149
 20
108.69828119
 10
164.9829425801
 20
108.6983363702
 10
164.9983970333
 20
108.7017070421
 10
165.0148810499
 20
108.7082154329
  0
LINE
  5
4F2
100
AcDbEntity
  8
0
100
AcDbLine
 62
7
  6
CONTINUOUS
 10
166.1358627055
 20
104.9245489018
 11
165.9012625195
 21
104.9748064074
  0
LWPOLYLINE
  5
4F3
100
AcDbEntity
  8
0
100
AcDbPolyline
 62
7
  6
CONTINUOUS
 90
6
 70
0
 10
163.3142122645
 20
103.411854609
 10
163.3076530709
 20
103.4145502217
 10
163.2940569981
 20
103.4176559838
 10
163.2795540496
 20
103.417444098
 10
163.263906415
 20
103.4140929062
 10
163.2471140943
 20
103.4076024084
  0
LWPOLYLINE
  5
4F4
100
AcDbEntity
  8
0
100
AcDbPolyline
 62
7
  6
CONTINUOUS
 90
6
 70
0
 10
163.7456937808
 20
103.4263890788
 10
163.7519659094
 20
103.4238036074
 10
163.7656127303
 20
103.4206101209
 10
163.780179398
 20
103.420779631
 10
163.7959083277
 20
103.4241220879
 10
163.8127995193
 20
103.4306374915
  0
LINE
  5
4F5
100
AcDbEntity
  8
0
100
AcDbLine
 62
7
  6
CONTINUOUS
 10
162.5965758623
 20
102.5670923633
 11
162.6918848569
 21
102.519437866
  0
LINE
  5
4F6
100
AcDbEntity
  8
0
100
AcDbLine
 62
7
  6
CONTINUOUS
 10
162.384443828
 20
102.9329660016
 11
162.5258651842
 21
102.8622553235
  0
LINE
  5
4F7
100
AcDbEntity
  8
RACCORDO
100
AcDbLine
 62
7
  6
CONTINUOUS
 10
149.7339881967
 20
109.7458793114
 11
150.1001252314
 21
109.562810794
  0
LINE
  5
4F8
100
AcDbEntity
  8
0
100
AcDbLine
 62
7
  6
CONTINUOUS
 10
163.8304771955
 20
103.4534019863
 11
163.3921521143
 21
103.6725645269
  0
LINE
  5
4F9
100
AcDbEntity
  8
RACCORDO
100
AcDbLine
 62
7
  6
CONTINUOUS
 10
134.3898222949
 20
119.3926273837
 11
135.7230346285
 21
118.7260212168
  0
LINE
  5
4FA
100
AcDbEntity
  8
RACCORDO
100
AcDbLine
 62
7
  6
CONTINUOUS
 10
147.7541404593
 20
112.7104683014
 11
149.0873527929
 21
112.0438621346
  0
LWPOLYLINE
  5
4FB
100
AcDbEntity
  8
RACCORDO
100
AcDbPolyline
 62
250
  6
CONTINUOUS
 90
8
 70
0
 10
133.6868293406
 20
120.3559298068
 10
133.669365946
 20
120.3656244643
 10
133.6540183021
 20
120.3761767906
 10
133.640953824
 20
120.3874718869
 10
133.6303148765
 20
120.399386999
 10
133.6222179148
 20
120.4117921073
 10
133.6167516696
 20
120.4245512513
 10
133.6140571184
 20
120.4371434688
  0
LWPOLYLINE
  5
4FC
100
AcDbEntity
  8
RACCORDO
100
AcDbPolyline
 62
250
  6
CONTINUOUS
 90
9
 70
0
 10
133.6868293406
 20
120.695903741
 10
133.6693275742
 20
120.7056220827
 10
133.6539515249
 20
120.7162021003
 10
133.640869866
 20
120.7275281066
 10
133.6302247983
 20
120.739478034
 10
133.6221354343
 20
120.751919459
 10
133.6166926298
 20
120.7647104015
 10
133.6139532172
 20
120.777706686
 10
133.6136060759
 20
120.7842213561
  0
LWPOLYLINE
  5
4FD
100
AcDbEntity
  8
RACCORDO
100
AcDbPolyline
 62
250
  6
CONTINUOUS
 90
8
 70
0
 10
147.051147505
 20
113.6737707246
 10
147.0336841104
 20
113.6834653821
 10
147.0183364666
 20
113.6940177084
 10
147.0052719884
 20
113.7053128047
 10
146.9946330409
 20
113.7172279167
 10
146.9865360792
 20
113.7296330251
 10
146.981069834
 20
113.7423921691
 10
146.9783752828
 20
113.7549843866
  0
LWPOLYLINE
  5
4FE
100
AcDbEntity
  8
DRAFT
100
AcDbPolyline
 62
7
  6
CONTINUOUS
 90
16
 70
0
 10
150.1001252314
 20
109.562810794
 10
150.1378051172
 20
109.5413471585
 10
150.1742561745
 20
109.5160440858
 10
150.2094784031
 20
109.4869015759
 10
150.2437951177
 20
109.4535633921
 10
150.2768830036
 20
109.416385771
 10
150.307772118
 20
109.3764374226
 10
150.3364595338
 20
109.3335219968
 10
150.3629481779
 20
109.2878358436
 10
150.3862768879
 20
109.2410367232
 10
150.4062841497
 20
109.193201808
 10
150.4231314773
 20
109.1442539255
 10
150.4363422504
 20
109.0956193189
 10
150.4457575955
 20
109.0477734024
 10
150.451536386
 20
109.0002407617
 10
150.453678622
 20
108.9530213968
  0
LWPOLYLINE
  5
4FF
100
AcDbEntity
  8
0
100
AcDbPolyline
 62
7
  6
CONTINUOUS
 90
13
 70
0
 10
162.5965758623
 20
102.5670923633
 10
162.586981902
 20
102.5727930773
 10
162.5778922648
 20
102.5795712446
 10
162.5693069506
 20
102.5874268651
 10
162.5611167042
 20
102.5965180724
 10
162.5534307808
 20
102.606686733
 10
162.546576947
 20
102.6174584462
 10
162.5405799459
 20
102.6288511446
 10
162.5354150344
 20
102.6408468956
 10
162.5313357488
 20
102.6529175007
 10
162.5284266013
 20
102.6648868939
 10
162.5266030798
 20
102.6769311412
 10
162.5258651842
 20
102.6890502428
  0
LWPOLYLINE
  5
500
100
AcDbEntity
  8
0
100
AcDbPolyline
 62
7
  6
CONTINUOUS
 90
12
 70
0
 10
162.1452005169
 20
102.2437937877
 10
162.1349441897
 20
102.2514415222
 10
162.1177732392
 20
102.2671523912
 10
162.1013922504
 20
102.2853346774
 10
162.0860198293
 20
102.3056720902
 10
162.0723117936
 20
102.3272157578
 10
162.0603177448
 20
102.3500016286
 10
162.0499880814
 20
102.3739937542
 10
162.0418298176
 20
102.3981354182
 10
162.036011958
 20
102.4220743815
 10
162.0323654979
 20
102.4461628832
 10
162.0308904374
 20
102.4704009231
  0
LINE
  5
501
100
AcDbEntity
  8
RACCORDO
100
AcDbLine
 62
250
  6
CONTINUOUS
 10
162.2317128905
 20
101.2109406096
 11
161.8430093446
 21
101.6720165402
  0
LWPOLYLINE
  5
502
100
AcDbEntity
  8
0
100
AcDbPolyline
 62
7
  6
CONTINUOUS
 90
13
 70
0
 10
162.1723117936
 20
102.5122735475
 10
162.1730496892
 20
102.5001544459
 10
162.1748732107
 20
102.4881101986
 10
162.1777823582
 20
102.4761408054
 10
162.1818616438
 20
102.4640702003
 10
162.1870265554
 20
102.4520744493
 10
162.1930235564
 20
102.4406817509
 10
162.1998773902
 20
102.4299100377
 10
162.2075633136
 20
102.4197413771
 10
162.21575356
 20
102.4106501698
 10
162.2243388742
 20
102.4027945493
 10
162.2334285114
 20
102.396016382
 10
162.2430224718
 20
102.390315668
  0
LWPOLYLINE
  5
503
100
AcDbEntity
  8
RACCORDO
100
AcDbPolyline
 62
250
  6
CONTINUOUS
 90
10
 70
0
 10
162.3380392205
 20
100.9330345021
 10
162.3367458763
 20
100.9639862998
 10
162.3325665999
 20
100.9959361756
 10
162.3255575228
 20
101.0284518509
 10
162.3158189332
 20
101.0610963774
 10
162.3034769621
 20
101.0934254707
 10
162.2886817961
 20
101.1249934781
 10
162.2716281299
 20
101.1553707751
 10
162.252552461
 20
101.1841495366
 10
162.2317129308
 20
101.2109406753
  0
LWPOLYLINE
  5
504
100
AcDbEntity
  8
RACCORDO
100
AcDbPolyline
 62
250
  6
CONTINUOUS
 90
10
 70
0
 10
162.3380392205
 20
105.263161521
 10
162.3367458705
 20
105.2941132435
 10
162.3325666007
 20
105.3260630605
 10
162.3255575374
 20
105.3585786967
 10
162.3158189632
 20
105.3912232066
 10
162.3034770043
 20
105.4235523055
 10
162.288681844
 20
105.4551203378
 10
162.2716281742
 20
105.4854976757
 10
162.2525524895
 20
105.5142764916
 10
162.2317129296
 20
105.5410676936
  0
LINE
  5
505
100
AcDbEntity
  8
0
100
AcDbLine
 62
7
  6
CONTINUOUS
 10
162.0308904374
 20
102.4704009231
 11
162.0308904374
 21
102.7561893063
  0
LINE
  5
506
100
AcDbEntity
  8
0
100
AcDbLine
 62
7
  6
CONTINUOUS
 10
162.1723117936
 20
102.5122735475
 11
162.1723117936
 21
102.6854786282
  0
LINE
  5
507
100
AcDbEntity
  8
0
100
AcDbLine
 62
7
  6
CONTINUOUS
 10
162.2649894241
 20
107.391469072
 11
162.2649894241
 21
107.4054792004
  0
LINE
  5
508
100
AcDbEntity
  8
0
100
AcDbLine
 62
7
  6
CONTINUOUS
 10
162.2744833275
 20
107.4017221203
 11
162.2744833275
 21
107.4118435186
  0
LINE
  5
509
100
AcDbEntity
  8
0
100
AcDbLine
 62
7
  6
CONTINUOUS
 10
162.5258651842
 20
102.8622553235
 11
162.5258651842
 21
102.6890502428
  0
LINE
  5
50A
100
AcDbEntity
  8
0
100
AcDbLine
 62
7
  6
CONTINUOUS
 10
163.1410480839
 20
107.5980938783
 11
163.1410480839
 21
107.0760377773
  0
LINE
  5
50B
100
AcDbEntity
  8
0
100
AcDbLine
 62
7
  6
CONTINUOUS
 10
163.7774441869
 20
107.8861136094
 11
163.7774441869
 21
108.2063735881
  0
LINE
  5
50C
100
AcDbEntity
  8
0
100
AcDbLine
 62
7
  6
CONTINUOUS
 10
163.8304771955
 20
103.4534019863
 11
163.8304771955
 21
103.9042821096
  0
LWPOLYLINE
  5
50D
100
AcDbEntity
  8
0
100
AcDbPolyline
 62
7
  6
CONTINUOUS
 90
8
 70
0
 10
163.7071485044
 20
103.5150663318
 10
163.7070533955
 20
103.4988626845
 10
163.7091654272
 20
103.4810935945
 10
163.713625061
 20
103.4651165242
 10
163.7203109263
 20
103.4508264991
 10
163.7288862984
 20
103.439139271
 10
163.7394813505
 20
103.4301700407
 10
163.7456937808
 20
103.4263890788
  0
LWPOLYLINE
  5
50E
100
AcDbEntity
  8
RACCORDO
100
AcDbPolyline
 62
250
  6
CONTINUOUS
 90
9
 70
0
 10
162.3380392205
 20
103.236374041
 10
162.3367911381
 20
103.2070272166
 10
162.3326415827
 20
103.1794863671
 10
162.3256466702
 20
103.1541239352
 10
162.3159009946
 20
103.1312829043
 10
162.3035363495
 20
103.1112721602
 10
162.2887199454
 20
103.0943623138
 10
162.271652149
 20
103.0807820418
 10
162.2624653427
 20
103.0753632763
  0
LINE
  5
50F
100
AcDbEntity
  8
0
100
AcDbLine
 62
250
  6
CONTINUOUS
 10
175.4131880437
 20
120.9514182585
 11
175.4309198827
 21
120.9936323858
  0
LWPOLYLINE
  5
510
100
AcDbEntity
  8
0
100
AcDbPolyline
 62
250
  6
CONTINUOUS
 90
5
 70
0
 10
149.4008220439
 20
76.1603726339
 10
149.4043201453
 20
76.164146291
 10
149.4095341847
 20
76.1711335773
 10
149.4136599717
 20
76.1783030494
 10
149.4166744748
 20
76.1856108751
  0
LINE
  5
511
100
AcDbEntity
  8
0
100
AcDbLine
 62
7
  6
CONTINUOUS
 10
174.4649931944
 20
108.4848845944
 11
174.6062681099
 21
108.4566118498
  0
LINE
  5
512
100
AcDbEntity
  8
RACCORDO
100
AcDbLine
 62
7
  6
CONTINUOUS
 10
148.501810651
 20
112.8549445001
 11
149.126006248
 21
112.7246118803
  0
LINE
  5
513
100
AcDbEntity
  8
RACCORDO
100
AcDbLine
 62
250
  6
CONTINUOUS
 10
148.7286541445
 20
113.0107656609
 11
149.4398747526
 21
112.862262138
  0
LINE
  5
514
100
AcDbEntity
  8
RACCORDO
100
AcDbLine
 62
250
  6
CONTINUOUS
 10
175.045748538
 20
108.3050376376
 11
174.6638211577
 21
108.3854706127
  0
LWPOLYLINE
  5
515
100
AcDbEntity
  8
0
100
AcDbPolyline
 62
7
  6
CONTINUOUS
 90
5
 70
0
 10
164.9477828796
 20
108.0111429091
 10
164.9543420732
 20
108.0084472964
 10
164.9679381461
 20
108.0053415343
 10
164.9824410946
 20
108.0055534202
 10
164.9861151364
 20
108.0063402751
  0
LWPOLYLINE
  5
516
100
AcDbEntity
  8
RACCORDO
100
AcDbPolyline
 62
250
  6
CONTINUOUS
 90
8
 70
0
 10
147.226895761
 20
114.3181214737
 10
147.2082564147
 20
114.3261445372
 10
147.1898331139
 20
114.3316976589
 10
147.171829071
 20
114.3347192602
 10
147.1544404483
 20
114.3351755495
 10
147.1378618433
 20
114.3330605196
 10
147.1222828569
 20
114.3283997408
 10
147.1138100948
 20
114.3245694489
  0
LWPOLYLINE
  5
517
100
AcDbEntity
  8
RACCORDO
100
AcDbPolyline
 62
250
  6
CONTINUOUS
 90
8
 70
0
 10
133.8625775966
 20
121.0002805559
 10
133.8439982481
 20
121.0082816294
 10
133.8256337173
 20
121.0138287321
 10
133.8076852014
 20
121.0168610917
 10
133.7903493394
 20
121.0173454863
 10
133.7738160586
 20
121.0152766091
 10
133.7582664932
 20
121.010677126
 10
133.7494919304
 20
121.0067285311
  0
LWPOLYLINE
  5
518
100
AcDbEntity
  8
RACCORDO
100
AcDbPolyline
 62
250
  6
CONTINUOUS
 90
16
 70
0
 10
148.3761321848
 20
113.3512523189
 10
148.3955688683
 20
113.3425014357
 10
148.4167289035
 20
113.334813411
 10
148.4393809161
 20
113.3282725815
 10
148.4632807709
 20
113.3229500477
 10
148.488163621
 20
113.3189053657
 10
148.5137455058
 20
113.3161839634
 10
148.5397380749
 20
113.3148142571
 10
148.5658643336
 20
113.3148086231
 10
148.5918502246
 20
113.3161664063
 10
148.6174544928
 20
113.3188786444
 10
148.6423523989
 20
113.3229146444
 10
148.6661631707
 20
113.3282029421
 10
148.6886094923
 20
113.3346581157
 10
148.709506659
 20
113.3422020504
 10
148.7286541445
 20
113.350739595
  0
LWPOLYLINE
  5
519
100
AcDbEntity
  8
RACCORDO
100
AcDbPolyline
 62
250
  6
CONTINUOUS
 90
16
 70
0
 10
148.3761321848
 20
113.0112783847
 10
148.3955214998
 20
113.0025466874
 10
148.4166261524
 20
112.9948728655
 10
148.439216345
 20
112.9883406264
 10
148.4630465691
 20
112.9830211527
 10
148.4878567857
 20
112.9789726718
 10
148.5133750737
 20
112.9762395492
 10
148.5393224159
 20
112.9748514609
 10
148.5654169321
 20
112.9748232818
 10
148.5913753387
 20
112.9761552637
 10
148.6169283888
 20
112.9788347183
 10
148.6417833444
 20
112.9828320954
 10
148.665632412
 20
112.9880945524
 10
148.6882099147
 20
112.9945553271
 10
148.7092905272
 20
113.0021413761
 10
148.7286541445
 20
113.0107656609
  0
LWPOLYLINE
  5
51A
100
AcDbEntity
  8
RACCORDO
100
AcDbPolyline
 62
250
  6
CONTINUOUS
 90
16
 70
0
 10
135.0118140204
 20
119.6934374669
 10
135.0312033354
 20
119.6847057697
 10
135.052307988
 20
119.6770319477
 10
135.0748981805
 20
119.6704997087
 10
135.0987284046
 20
119.6651802349
 10
135.1235386213
 20
119.661131754
 10
135.1490569093
 20
119.6583986314
 10
135.1750042515
 20
119.6570105431
 10
135.2010987676
 20
119.656982364
 10
135.2270571743
 20
119.6583143459
 10
135.2526102244
 20
119.6609938005
 10
135.27746518
 20
119.6649911776
 10
135.3013142476
 20
119.6702536346
 10
135.3238917503
 20
119.6767144094
 10
135.3449723628
 20
119.6843004583
 10
135.3643359801
 20
119.6929247431
  0
LWPOLYLINE
  5
51B
100
AcDbEntity
  8
RACCORDO
100
AcDbPolyline
 62
250
  6
CONTINUOUS
 90
16
 70
0
 10
135.0118140204
 20
120.0334114011
 10
135.0308628635
 20
120.0248178888
 10
135.0516727885
 20
120.0172130846
 10
135.0740442907
 20
120.0106926871
 10
135.0977933987
 20
120.0053353258
 10
135.1226438397
 20
120.0012271466
 10
135.1482159874
 20
119.9984406375
 10
135.1741856323
 20
119.9970074277
 10
135.2003114722
 20
119.9969372004
 10
135.2263193211
 20
119.9982313948
 10
135.2519319321
 20
120.0008784
 10
135.2768607823
 20
120.0048506194
 10
135.3008216374
 20
120.0101034862
 10
135.3235490345
 20
120.0165782535
 10
135.3447979359
 20
120.0242045332
 10
135.3643359801
 20
120.0328986772
  0
LWPOLYLINE
  5
51C
100
AcDbEntity
  8
0
100
AcDbPolyline
 62
7
  6
CONTINUOUS
 90
17
 70
0
 10
166.5524568799
 20
105.0364814911
 10
166.5539130241
 20
105.0357871851
 10
166.5648994084
 20
105.0323226493
 10
166.5770538585
 20
105.0313614391
 10
166.5896146015
 20
105.0329068353
 10
166.6025985752
 20
105.0370953624
 10
166.6159888418
 20
105.0437904957
 10
166.6289728155
 20
105.0525859424
 10
166.6415335585
 20
105.0636012892
 10
166.6536880086
 20
105.0767169494
 10
166.6646743929
 20
105.0911678695
 10
166.6744403986
 20
105.1070482577
 10
166.6830383387
 20
105.1242639058
 10
166.6898633791
 20
105.1417671368
 10
166.6947139089
 20
105.1592087249
 10
166.697791539
 20
105.1769378958
 10
166.6990962697
 20
105.1949546497
  0
LWPOLYLINE
  5
51D
100
AcDbEntity
  8
0
100
AcDbPolyline
 62
7
  6
CONTINUOUS
 90
17
 70
0
 10
166.6661305371
 20
105.263625247
 10
166.6646743929
 20
105.264319553
 10
166.6536880086
 20
105.2677840888
 10
166.6415335585
 20
105.2687452989
 10
166.6289728155
 20
105.2671999028
 10
166.6159888418
 20
105.2630113757
 10
166.6025985752
 20
105.2563162424
 10
166.5896146015
 20
105.2475207957
 10
166.5770538585
 20
105.2365054489
 10
166.5648994084
 20
105.2233897887
 10
166.5539130241
 20
105.2089388686
 10
166.5441470184
 20
105.1930584804
 10
166.5355490783
 20
105.1758428323
 10
166.5287240378
 20
105.1583396013
 10
166.5238735081
 20
105.1408980132
 10
166.520795878
 20
105.1231688423
 10
166.5194911473
 20
105.1051520884
  0
LINE
  5
51E
100
AcDbEntity
  8
0
100
AcDbLine
 62
250
  6
CONTINUOUS
 10
161.8430093446
 20
106.0021435591
 11
161.5132309117
 21
106.1670327756
  0
LINE
  5
51F
100
AcDbEntity
  8
0
100
AcDbLine
 62
7
  6
CONTINUOUS
 10
144.8477944843
 20
114.5398879136
 11
139.3364873846
 21
117.2955414635
  0
LINE
  5
520
100
AcDbEntity
  8
0
100
AcDbLine
 62
7
  6
CONTINUOUS
 10
165.8451336463
 20
104.1093395561
 11
165.615921818
 21
104.2239454702
  0
LINE
  5
521
100
AcDbEntity
  8
RACCORDO
100
AcDbLine
 62
7
  6
CONTINUOUS
 10
133.751802637
 20
120.2207113567
 11
135.0767873168
 21
119.5582190168
  0
LINE
  5
522
100
AcDbEntity
  8
RACCORDO
100
AcDbLine
 62
7
  6
CONTINUOUS
 10
147.1161208014
 20
113.5385522745
 11
148.4411054812
 21
112.8760599346
  0
LINE
  5
523
100
AcDbEntity
  8
RACCORDO
100
AcDbLine
 62
250
  6
CONTINUOUS
 10
133.6868293406
 20
120.3559298068
 11
135.0118140204
 21
119.6934374669
  0
LINE
  5
524
100
AcDbEntity
  8
RACCORDO
100
AcDbLine
 62
250
  6
CONTINUOUS
 10
147.051147505
 20
113.6737707246
 11
148.3761321848
 21
113.0112783847
  0
LINE
  5
525
100
AcDbEntity
  8
0
100
AcDbLine
 62
7
  6
CONTINUOUS
 10
161.6773370468
 20
106.4650093824
 11
161.5876413948
 21
106.5098572084
  0
LINE
  5
526
100
AcDbEntity
  8
RACCORDO
100
AcDbLine
 62
250
  6
CONTINUOUS
 10
148.3761321848
 20
113.3512523189
 11
147.051147505
 21
114.0137446588
  0
LINE
  5
527
100
AcDbEntity
  8
RACCORDO
100
AcDbLine
 62
250
  6
CONTINUOUS
 10
135.0118140204
 20
120.0334114011
 11
133.6868293406
 21
120.695903741
  0
LINE
  5
528
100
AcDbEntity
  8
RACCORDO
100
AcDbLine
 62
7
  6
CONTINUOUS
 10
150.356316264
 20
112.5381202732
 11
150.3299349353
 21
112.5513109375
  0
LINE
  5
529
100
AcDbEntity
  8
DRAFT
100
AcDbLine
 62
7
  6
CONTINUOUS
 10
147.0048597773
 20
114.2138485165
 11
145.9105175529
 21
114.7610196287
  0
LINE
  5
52A
100
AcDbEntity
  8
DRAFT
100
AcDbLine
 62
7
  6
CONTINUOUS
 10
139.1900407752
 20
118.1212580176
 11
136.9656167709
 21
119.2334700197
  0
LINE
  5
52B
100
AcDbEntity
  8
0
100
AcDbLine
 62
7
  6
CONTINUOUS
 10
166.5492755173
 20
104.4643754018
 11
166.3230285992
 21
104.5774988608
  0
LINE
  5
52C
100
AcDbEntity
  8
0
100
AcDbLine
 62
7
  6
CONTINUOUS
 10
165.7573431743
 20
104.8792232959
 11
165.8634091914
 21
104.8261902873
  0
LINE
  5
52D
100
AcDbEntity
  8
RACCORDO
100
AcDbLine
 62
250
  6
CONTINUOUS
 10
148.5518804408
 20
113.6556291338
 11
147.226895761
 21
114.3181214737
  0
LINE
  5
52E
100
AcDbEntity
  8
RACCORDO
100
AcDbLine
 62
250
  6
CONTINUOUS
 10
135.1875622764
 20
120.337788216
 11
133.8625775966
 21
121.0002805559
  0
LINE
  5
52F
100
AcDbEntity
  8
0
100
AcDbLine
 62
7
  6
CONTINUOUS
 10
166.3583839383
 20
104.8132882854
 11
165.9429293104
 21
105.0210155994
  0
LINE
  5
530
100
AcDbEntity
  8
0
100
AcDbLine
 62
250
  6
CONTINUOUS
 10
144.8477944843
 20
115.6204712244
 11
139.3364873846
 21
118.3761247743
  0
LINE
  5
531
100
AcDbEntity
  8
0
100
AcDbLine
 62
250
  6
CONTINUOUS
 10
144.9883930891
 20
115.8639726764
 11
139.4770859894
 21
118.6196262262
  0
LINE
  5
532
100
AcDbEntity
  8
RACCORDO
100
AcDbLine
 62
7
  6
CONTINUOUS
 10
136.9656167709
 20
119.9330191117
 11
138.3736595059
 21
119.2289977442
  0
LINE
  5
533
100
AcDbEntity
  8
RACCORDO
100
AcDbLine
 62
7
  6
CONTINUOUS
 10
150.3299349353
 20
113.2508600295
 11
151.0757656399
 21
112.8779446772
  0
LINE
  5
534
100
AcDbEntity
  8
0
100
AcDbLine
 62
7
  6
CONTINUOUS
 10
167.5663249233
 20
104.9771825659
 11
167.3660111015
 21
105.0773394769
  0
LINE
  5
535
100
AcDbEntity
  8
0
100
AcDbLine
 62
7
  6
CONTINUOUS
 10
139.8294000349
 20
119.014013953
 11
145.7690953964
 21
116.0441662723
  0
LINE
  5
536
100
AcDbEntity
  8
0
100
AcDbLine
 62
7
  6
CONTINUOUS
 10
163.6609151952
 20
107.3381603227
 11
163.1410480839
 21
107.5980938783
  0
LINE
  5
537
100
AcDbEntity
  8
0
100
AcDbLine
 62
250
  6
CONTINUOUS
 10
145.9820509825
 20
116.5001600825
 11
140.7494608017
 21
119.1164551729
  0
LINE
  5
538
100
AcDbEntity
  8
RACCORDO
100
AcDbLine
 62
7
  6
CONTINUOUS
 10
135.4453341997
 20
121.8122646533
 11
136.7888430672
 21
121.1405102195
  0
LINE
  5
539
100
AcDbEntity
  8
RACCORDO
100
AcDbLine
 62
7
  6
CONTINUOUS
 10
148.8096523641
 20
115.1301055711
 11
150.1531612316
 21
114.4583511373
  0
LINE
  5
53A
100
AcDbEntity
  8
0
100
AcDbLine
 62
7
  6
CONTINUOUS
 10
145.9818670452
 20
116.5498339479
 11
140.9268846742
 21
119.0773251334
  0
LINE
  5
53B
100
AcDbEntity
  8
0
100
AcDbLine
 62
7
  6
CONTINUOUS
 10
163.7774441869
 20
107.8861136094
 11
163.4661020499
 21
108.041784678
  0
LINE
  5
53C
100
AcDbEntity
  8
0
100
AcDbLine
 62
7
  6
CONTINUOUS
 10
161.5182266806
 20
105.9785102074
 11
161.5092659356
 21
105.9834276273
  0
LWPOLYLINE
  5
53D
100
AcDbEntity
  8
0
100
AcDbPolyline
 62
250
  6
CONTINUOUS
 90
10
 70
0
 10
139.3364873846
 20
118.3761247744
 10
139.3035268484
 20
118.3943169092
 10
139.2745378013
 20
118.4138653744
 10
139.2496907649
 20
118.4345468421
 10
139.2290142276
 20
118.4562480652
 10
139.212716599
 20
118.4786413402
 10
139.2009752015
 20
118.501147971
 10
139.1935907461
 20
118.5234863117
 10
139.1902852501
 20
118.5454949232
 10
139.1900407752
 20
118.5533448355
  0
LWPOLYLINE
  5
53E
100
AcDbEntity
  8
RACCORDO
100
AcDbPolyline
 62
250
  6
CONTINUOUS
 90
9
 70
0
 10
147.051147505
 20
114.0137446588
 10
147.0336987452
 20
114.0234302863
 10
147.0183622408
 20
114.0339718277
 10
147.0053047805
 20
114.0452546407
 10
146.9946683678
 20
114.0571560217
 10
146.9865686767
 20
114.0695465397
 10
146.9810937936
 20
114.0822914446
 10
146.9783032591
 20
114.0952521319
 10
146.9779242003
 20
114.1021330064
  0
LWPOLYLINE
  5
53F
100
AcDbEntity
  8
0
100
AcDbPolyline
 62
250
  6
CONTINUOUS
 90
11
 70
0
 10
139.4770859894
 20
118.6196262262
 10
139.4571879284
 20
118.630768737
 10
139.4398286044
 20
118.6424616729
 10
139.4250080176
 20
118.6547050339
 10
139.4127169296
 20
118.6677028171
 10
139.4029645787
 20
118.6812510254
 10
139.3957786795
 20
118.694737668
 10
139.3913553908
 20
118.7081092638
 10
139.3894985538
 20
118.7214192939
 10
139.3896474076
 20
118.7342162108
 10
139.3917171043
 20
118.7462776169
  0
LINE
  5
540
100
AcDbEntity
  8
RACCORDO
100
AcDbLine
 62
250
  6
CONTINUOUS
 10
162.2317129378
 20
105.5410676525
 11
161.8430093446
 21
106.0021435591
  0
LINE
  5
541
100
AcDbEntity
  8
RACCORDO
100
AcDbLine
 62
7
  6
CONTINUOUS
 10
161.5665693959
 20
105.7275328051
 11
161.5664442056
 21
105.7277994247
  0
LWPOLYLINE
  5
542
100
AcDbEntity
  8
RACCORDO
100
AcDbPolyline
 62
7
  6
CONTINUOUS
 90
29
 70
0
 10
161.5665492963
 20
101.3974542155
 10
161.5634423236
 20
101.4042118275
 10
161.545649985
 20
101.449637071
 10
161.5305812569
 20
101.5015270649
 10
161.518913708
 20
101.558995891
 10
161.5110592799
 20
101.6214569365
 10
161.5072885413
 20
101.688319852
 10
161.5077849396
 20
101.7587012276
 10
161.5126293418
 20
101.8318768023
 10
161.5218200931
 20
101.9072492234
 10
161.5353263579
 20
101.9843026417
 10
161.5530744596
 20
102.0624194298
 10
161.5749224746
 20
102.1409953955
 10
161.6007660731
 20
102.2196670327
 10
161.6304278469
 20
102.2978570696
 10
161.663693275
 20
102.3750205507
 10
161.7004546343
 20
102.4508878323
 10
161.7404684804
 20
102.5249263021
 10
161.7834538678
 20
102.5966295474
 10
161.8292541787
 20
102.6657307989
 10
161.8775346874
 20
102.7317072281
 10
161.9279245393
 20
102.7940106979
 10
161.9801866285
 20
102.8523540142
 10
162.0338910822
 20
102.9063500714
 10
162.0884415607
 20
102.9554754563
 10
162.1432401266
 20
102.9992224962
 10
162.1977110516
 20
103.0372287462
 10
162.2513807152
 20
103.0693788244
 10
162.2624659411
 20
103.0753634715
  0
LWPOLYLINE
  5
543
100
AcDbEntity
  8
RACCORDO
100
AcDbPolyline
 62
7
  6
CONTINUOUS
 90
29
 70
0
 10
161.5664778554
 20
105.7277299108
 10
161.5634134589
 20
105.7344044392
 10
161.5456040557
 20
105.7799130313
 10
161.530524163
 20
105.8318926936
 10
161.5188664464
 20
105.8894606248
 10
161.5110267819
 20
105.9520128707
 10
161.507274475
 20
106.018956707
 10
161.5078079145
 20
106.0894202399
 10
161.5126972304
 20
106.1626734468
 10
161.521932394
 20
106.2381100689
 10
161.535490221
 20
106.31521562
 10
161.5532865903
 20
106.3933688806
 10
161.5751736927
 20
106.4719624034
 10
161.6010575942
 20
106.5506349121
 10
161.6307595259
 20
106.628813994
 10
161.6640643852
 20
106.705957407
 10
161.700864033
 20
106.7817976714
 10
161.7409018534
 20
106.8558020285
 10
161.7838924746
 20
106.9274523562
 10
161.8296722081
 20
106.9964720568
 10
161.8779182039
 20
107.0623451185
 10
161.928283837
 20
107.124560298
 10
161.9805187832
 20
107.1828288944
 10
162.034165811
 20
107.2367381471
 10
162.0886520447
 20
107.2857821577
 10
162.1433884599
 20
107.3294581365
 10
162.1978045012
 20
107.367412657
 10
162.2514162946
 20
107.3995251814
 10
162.2624497516
 20
107.4054818903
  0
LWPOLYLINE
  5
544
100
AcDbEntity
  8
0
100
AcDbPolyline
 62
7
  6
CONTINUOUS
 90
7
 70
0
 10
166.5194911473
 20
105.1051520884
 10
166.520795878
 20
105.0884400653
 10
166.5238735081
 20
105.0737885245
 10
166.5287240378
 20
105.0611974661
 10
166.5355490783
 20
105.0505192756
 10
166.5441470184
 20
105.0419015675
 10
166.5524568799
 20
105.0364814911
  0
LINE
  5
545
100
AcDbEntity
  8
0
100
AcDbLine
 62
7
  6
CONTINUOUS
 10
166.6798310268
 20
105.2206469289
 11
166.6811357575
 21
105.2039349058
  0
LWPOLYLINE
  5
546
100
AcDbEntity
  8
0
100
AcDbPolyline
 62
7
  6
CONTINUOUS
 90
7
 70
0
 10
166.6990962697
 20
105.1949546497
 10
166.697791539
 20
105.2116666728
 10
166.6947139089
 20
105.2263182136
 10
166.6898633791
 20
105.238909272
 10
166.6830383387
 20
105.2495874625
 10
166.6744403986
 20
105.2582051706
 10
166.6661305371
 20
105.263625247
  0
LWPOLYLINE
  5
547
100
AcDbEntity
  8
0
100
AcDbPolyline
 62
250
  6
CONTINUOUS
 90
4
 70
0
 10
167.119750184
 20
114.3626219112
 10
167.1200238692
 20
114.3177261423
 10
167.1214629553
 20
114.2719856599
 10
167.1240674422
 20
114.2254004642
  0
LINE
  5
548
100
AcDbEntity
  8
0
100
AcDbLine
 62
7
  6
CONTINUOUS
 10
164.8557820282
 20
104.4463025587
 11
164.8557820282
 21
103.9660544026
  0
LINE
  5
549
100
AcDbEntity
  8
0
100
AcDbLine
 62
7
  6
CONTINUOUS
 10
164.9795257149
 20
108.8418458387
 11
164.9795257149
 21
108.4871543734
  0
LINE
  5
54A
100
AcDbEntity
  8
0
100
AcDbLine
 62
7
  6
CONTINUOUS
 10
165.5982441485
 20
109.1689271441
 11
165.5982441485
 21
109.0431982616
  0
LINE
  5
54B
100
AcDbEntity
  8
0
100
AcDbLine
 62
7
  6
CONTINUOUS
 10
165.615921818
 20
104.2239454702
 11
165.615921818
 21
103.9937685062
  0
LINE
  5
54C
100
AcDbEntity
  8
0
100
AcDbLine
 62
7
  6
CONTINUOUS
 10
165.7573431743
 20
104.9229067466
 11
165.7573431743
 21
104.8792232959
  0
LINE
  5
54D
100
AcDbEntity
  8
0
100
AcDbLine
 62
7
  6
CONTINUOUS
 10
165.8634091914
 20
104.8261902873
 11
165.8634091914
 21
104.9353095975
  0
LINE
  5
54E
100
AcDbEntity
  8
0
100
AcDbLine
 62
7
  6
CONTINUOUS
 10
166.0048305477
 20
104.9526194226
 11
166.0048305477
 21
104.8969009654
  0
LINE
  5
54F
100
AcDbEntity
  8
0
100
AcDbLine
 62
7
  6
CONTINUOUS
 10
166.0932188953
 20
108.7957108882
 11
166.0932188953
 21
109.4305921885
  0
LINE
  5
550
100
AcDbEntity
  8
0
100
AcDbLine
 62
7
  6
CONTINUOUS
 10
166.3583839383
 20
104.8132882854
 11
166.3583839383
 21
105.2406428719
  0
LINE
  5
551
100
AcDbEntity
  8
0
100
AcDbLine
 62
7
  6
CONTINUOUS
 10
166.482127625
 20
109.6361861519
 11
166.482127625
 21
108.990165253
  0
LINE
  5
552
100
AcDbEntity
  8
0
100
AcDbLine
 62
7
  6
CONTINUOUS
 10
166.8321454817
 20
109.7352339229
 11
166.8321454817
 21
109.821220719
  0
LINE
  5
553
100
AcDbEntity
  8
0
100
AcDbLine
 62
250
  6
CONTINUOUS
 10
167.119750184
 20
114.4777916781
 11
167.119750184
 21
114.3626219112
  0
LINE
  5
554
100
AcDbEntity
  8
0
100
AcDbLine
 62
7
  6
CONTINUOUS
 10
167.1362013976
 20
109.1626578333
 11
167.1362013976
 21
109.090436713
  0
LINE
  5
555
100
AcDbEntity
  8
0
100
AcDbLine
 62
7
  6
CONTINUOUS
 10
167.1856988722
 20
109.9320393978
 11
167.1856988722
 21
109.9120106182
  0
LINE
  5
556
100
AcDbEntity
  8
0
100
AcDbLine
 62
7
  6
CONTINUOUS
 10
167.203948221
 20
114.582049056
 11
167.2039482439
 21
114.46682049
  0
LINE
  5
557
100
AcDbEntity
  8
0
100
AcDbLine
 62
7
  6
CONTINUOUS
 10
167.2422674147
 20
109.972881316
 11
167.2422674147
 21
109.9848002127
  0
LWPOLYLINE
  5
558
100
AcDbEntity
  8
0
100
AcDbPolyline
 62
7
  6
CONTINUOUS
 90
25
 70
0
 10
167.203948221
 20
114.5820490502
 10
167.2044889271
 20
114.6279474141
 10
167.2098816931
 20
114.7369054483
 10
167.2211210946
 20
114.8492547961
 10
167.2382572004
 20
114.9643088255
 10
167.2612721987
 20
115.0813928711
 10
167.2900865118
 20
115.1998835375
 10
167.3246033541
 20
115.31913949
 10
167.3646834945
 20
115.4384814038
 10
167.4101478236
 20
115.5572638217
 10
167.4607876748
 20
115.6748321159
 10
167.5163462055
 20
115.7905488129
 10
167.5765287929
 20
115.9038136341
 10
167.6410064818
 20
116.0140026714
 10
167.7094217852
 20
116.1205187871
 10
167.7814116215
 20
116.2227945849
 10
167.8565683947
 20
116.3202606252
 10
167.9344428903
 20
116.4123520776
 10
168.0145703611
 20
116.4986161015
 10
168.0964867094
 20
116.5787184927
 10
168.1795482549
 20
116.6521554502
 10
168.2630355799
 20
116.7183580239
 10
168.3463703794
 20
116.776994381
 10
168.4290685589
 20
116.8279715085
 10
168.4612034101
 20
116.8458626369
  0
LWPOLYLINE
  5
559
100
AcDbEntity
  8
0
100
AcDbPolyline
 62
7
  6
CONTINUOUS
 90
8
 70
0
 10
167.1839099182
 20
110.0071786037
 10
167.1838541333
 20
110.0063181847
 10
167.1792953295
 20
109.9807663702
 10
167.1720224608
 20
109.9581157559
 10
167.1618242469
 20
109.9381374571
 10
167.148911968
 20
109.9210603585
 10
167.1339194653
 20
109.9075711152
 10
167.1206050831
 20
109.8994926113
  0
LWPOLYLINE
  5
55A
100
AcDbEntity
  8
0
100
AcDbPolyline
 62
7
  6
CONTINUOUS
 90
7
 70
0
 10
166.6811357575
 20
105.2039349058
 10
166.6798310268
 20
105.185918152
 10
166.6767533966
 20
105.168188981
 10
166.6719028669
 20
105.1507473929
 10
166.6650778264
 20
105.1332441619
 10
166.6564798864
 20
105.1160285138
 10
166.6467138807
 20
105.1001481257
  0
LWPOLYLINE
  5
55B
100
AcDbEntity
  8
0
100
AcDbPolyline
 62
250
  6
CONTINUOUS
 90
6
 70
0
 10
167.2039482439
 20
114.5819904861
 10
167.2031569251
 20
114.5711028197
 10
167.1986324218
 20
114.5538780542
 10
167.1901550862
 20
114.5370303831
 10
167.1778386314
 20
114.5207857975
 10
167.1618482679
 20
114.5053621988
  0
LWPOLYLINE
  5
55C
100
AcDbEntity
  8
0
100
AcDbPolyline
 62
250
  6
CONTINUOUS
 90
8
 70
0
 10
167.2039482149
 20
114.4667545243
 10
167.203156946
 20
114.4559329417
 10
167.1986324833
 20
114.4387081712
 10
167.1901551878
 20
114.4218605005
 10
167.1778387589
 20
114.4056159182
 10
167.1618483934
 20
114.3901923276
 10
167.1423985729
 20
114.375796623
 10
167.119750184
 20
114.3626219112
  0
LINE
  5
55D
100
AcDbEntity
  8
RACCORDO
100
AcDbLine
 62
250
  6
CONTINUOUS
 10
149.0868385646
 20
72.6884278367
 11
148.4645205325
 21
71.9433684192
  0
LINE
  5
55E
100
AcDbEntity
  8
RACCORDO
100
AcDbLine
 62
250
  6
CONTINUOUS
 10
149.4398747526
 20
72.5626579986
 11
148.7286541445
 21
71.7111615215
  0
LINE
  5
55F
100
AcDbEntity
  8
RACCORDO
100
AcDbLine
 62
7
  6
CONTINUOUS
 10
150.9764446314
 20
77.0074951848
 11
150.255214635
 21
76.4847874438
  0
LINE
  5
560
100
AcDbEntity
  8
0
100
AcDbLine
 62
250
  6
CONTINUOUS
 10
151.3905951071
 20
78.0249782838
 11
175.1636555893
 21
90.5480922807
  0
LINE
  5
561
100
AcDbEntity
  8
0
100
AcDbLine
 62
7
  6
CONTINUOUS
 10
151.2032123207
 20
78.5298187671
 11
149.4008220439
 21
77.621674268
  0
LWPOLYLINE
  5
562
100
AcDbEntity
  8
0
100
AcDbPolyline
 62
7
  6
CONTINUOUS
 90
6
 70
0
 10
165.0819792202
 20
108.2794549397
 10
165.0754200266
 20
108.2821505524
 10
165.0618239538
 20
108.2852563146
 10
165.0473210052
 20
108.2850444287
 10
165.0316733706
 20
108.2816932369
 10
165.0148810499
 20
108.2752027392
  0
LWPOLYLINE
  5
563
100
AcDbEntity
  8
RACCORDO
100
AcDbPolyline
 62
7
  6
CONTINUOUS
 90
7
 70
0
 10
148.8096523641
 20
115.1301055711
 10
148.7864538411
 20
115.1397263265
 10
148.7636698287
 20
115.145487011
 10
148.7416901513
 20
115.147289062
 10
148.7208908722
 20
115.1451016478
 10
148.7016278567
 20
115.1389621936
 10
148.6983045044
 20
115.137422495
  0
LWPOLYLINE
  5
564
100
AcDbEntity
  8
RACCORDO
100
AcDbPolyline
 62
7
  6
CONTINUOUS
 90
7
 70
0
 10
135.4453341997
 20
121.8122646533
 10
135.4221356766
 20
121.8218854087
 10
135.3993516643
 20
121.8276460932
 10
135.3773719869
 20
121.8294481442
 10
135.3565727078
 20
121.82726073
 10
135.3373096922
 20
121.8211212758
 10
135.33398634
 20
121.8195815772
  0
LINE
  5
565
100
AcDbEntity
  8
RACCORDO
100
AcDbLine
 62
7
  6
CONTINUOUS
 10
145.5202315093
 20
118.5195476321
 11
145.5569103144
 21
118.5035354743
  0
LWPOLYLINE
  5
566
100
AcDbEntity
  8
RACCORDO
100
AcDbPolyline
 62
250
  6
CONTINUOUS
 90
8
 70
0
 10
149.3441022428
 20
115.3904530376
 10
149.3257266175
 20
115.3985559726
 10
149.3075410434
 20
115.4041925537
 10
149.2897447568
 20
115.407301028
 10
149.2725327294
 20
115.4078473399
 10
149.2560935314
 20
115.405825504
 10
149.2406072664
 20
115.4012576712
 10
149.2335901317
 20
115.3981878287
  0
LWPOLYLINE
  5
567
100
AcDbEntity
  8
RACCORDO
100
AcDbPolyline
 62
250
  6
CONTINUOUS
 90
8
 70
0
 10
135.9797840784
 20
122.0726121198
 10
135.9616998651
 20
122.0806052402
 10
135.9437141576
 20
122.086231331
 10
135.9260234327
 20
122.0893963532
 10
135.9087994651
 20
122.0900305031
 10
135.8922676543
 20
122.0880848999
 10
135.8766914566
 20
122.083572478
 10
135.8692719673
 20
122.0803469109
  0
LWPOLYLINE
  5
568
100
AcDbEntity
  8
RACCORDO
100
AcDbPolyline
 62
250
  6
CONTINUOUS
 90
8
 70
0
 10
150.7921145877
 20
114.7284241773
 10
150.784403552
 20
114.7318459175
 10
150.7688891798
 20
114.7364462798
 10
150.7524042268
 20
114.7385075245
 10
150.7352105432
 20
114.7380149275
 10
150.7175322088
 20
114.7350153281
 10
150.6995396907
 20
114.7295765227
 10
150.6814284034
 20
114.7217899574
  0
LWPOLYLINE
  5
569
100
AcDbEntity
  8
RACCORDO
100
AcDbPolyline
 62
250
  6
CONTINUOUS
 90
8
 70
0
 10
149.4548772024
 20
115.3970429287
 10
149.4470773914
 20
115.4005089978
 10
149.4315630192
 20
115.4051093601
 10
149.4150780662
 20
115.4071706047
 10
149.3978843826
 20
115.4066780077
 10
149.3802060482
 20
115.4036784084
 10
149.3622135301
 20
115.398239603
 10
149.3441022428
 20
115.3904530376
  0
LWPOLYLINE
  5
56A
100
AcDbEntity
  8
RACCORDO
100
AcDbPolyline
 62
250
  6
CONTINUOUS
 90
8
 70
0
 10
137.4278851985
 20
121.4105389307
 10
137.4204871178
 20
121.4138468245
 10
137.405063254
 20
121.41850159
 10
137.3886716925
 20
121.4206379736
 10
137.3714906958
 20
121.4202327418
 10
137.353707112
 20
121.4172903015
 10
137.3355143426
 20
121.4118426525
 10
137.3171102389
 20
121.4039490396
  0
LWPOLYLINE
  5
56B
100
AcDbEntity
  8
RACCORDO
100
AcDbPolyline
 62
250
  6
CONTINUOUS
 90
8
 70
0
 10
136.0905590379
 20
122.079202011
 10
136.0831609572
 20
122.0825099048
 10
136.0677370935
 20
122.0871646702
 10
136.0513455319
 20
122.0893010539
 10
136.0341645352
 20
122.0888958221
 10
136.0163809515
 20
122.0859533818
 10
135.9981881821
 20
122.0805057328
 10
135.9797840784
 20
122.0726121198
  0
LWPOLYLINE
  5
56C
100
AcDbEntity
  8
RACCORDO
100
AcDbPolyline
 62
250
  6
CONTINUOUS
 90
7
 70
0
 10
146.4962662186
 20
118.6378250564
 10
146.4940530239
 20
118.6388867505
 10
146.4789542687
 20
118.6439873109
 10
146.462648583
 20
118.6459915324
 10
146.4454088037
 20
118.6448658837
 10
146.4275234004
 20
118.6406292045
 10
146.4092916432
 20
118.6333523902
  0
LWPOLYLINE
  5
56D
100
AcDbEntity
  8
RACCORDO
100
AcDbPolyline
 62
7
  6
CONTINUOUS
 90
53
 70
0
 10
146.4962713189
 20
118.6378225243
 10
146.490941758
 20
118.6404519422
 10
146.4673527929
 20
118.6512821765
 10
146.4433607574
 20
118.661063755
 10
146.4190116012
 20
118.6698640097
 10
146.3944285268
 20
118.6777244056
 10
146.3696800241
 20
118.6847082352
 10
146.3447479396
 20
118.690894896
 10
146.319682242
 20
118.6963355814
 10
146.2945349801
 20
118.7010761092
 10
146.269313411
 20
118.7051645154
 10
146.2440097634
 20
118.7086425841
 10
146.2186837132
 20
118.7115371623
 10
146.1934424664
 20
118.7138698084
 10
146.1683239136
 20
118.7156698802
 10
146.1433257266
 20
118.7169657093
 10
146.1185083124
 20
118.7177800578
 10
146.0938899659
 20
118.718136045
 10
146.0694787914
 20
118.7180551038
 10
146.0453221445
 20
118.7175573741
 10
146.0214325439
 20
118.7166621098
 10
145.9978184943
 20
118.7153874651
 10
145.9745224303
 20
118.713752485
 10
145.9515565575
 20
118.7117749606
 10
145.9289246752
 20
118.7094711917
 10
145.9066576038
 20
118.7068596011
 10
145.8847662304
 20
118.7039572609
 10
145.8632512496
 20
118.7007792632
 10
145.8421295399
 20
118.6973426013
 10
145.8214037197
 20
118.6936626107
 10
145.8010796167
 20
118.6897546152
 10
145.7811808201
 20
118.6856375496
 10
145.7617174699
 20
118.6813289614
 10
145.7426852486
 20
118.676842822
 10
145.724088893
 20
118.6721948218
 10
145.7059490215
 20
118.6674058715
 10
145.6882501346
 20
118.6624872027
 10
145.670948434
 20
118.6574403599
 10
145.6540456984
 20
118.6522797683
 10
145.6375501023
 20
118.6470216764
 10
145.6214359315
 20
118.641670673
 10
145.6057182172
 20
118.6362459099
 10
145.5903985199
 20
118.6307623186
 10
145.5754431872
 20
118.6252204376
 10
145.5608932019
 20
118.6196504723
 10
145.5467379135
 20
118.6140642587
 10
145.5328906561
 20
118.6084397949
 10
145.5194142186
 20
118.6028177618
 10
145.5063162432
 20
118.5972185508
 10
145.4934791932
 20
118.591604946
 10
145.481046015
 20
118.5860579828
 10
145.4690630736
 20
118.5806206776
 10
145.4573556287
 20
118.5752334484
  0
LINE
  5
56E
100
AcDbEntity
  8
RACCORDO
100
AcDbLine
 62
250
  6
CONTINUOUS
 10
150.7922033629
 20
114.7283798485
 11
150.7921145877
 21
114.7284241773
  0
LINE
  5
56F
100
AcDbEntity
  8
0
100
AcDbLine
 62
7
  6
CONTINUOUS
 10
168.0377625436
 20
105.9963978892
 11
167.9094021025
 21
106.0605781098
  0
LINE
  5
570
100
AcDbEntity
  8
RACCORDO
100
AcDbLine
 62
250
  6
CONTINUOUS
 10
135.9797840784
 20
122.0726121198
 11
137.3171102389
 21
121.4039490396
  0
LINE
  5
571
100
AcDbEntity
  8
RACCORDO
100
AcDbLine
 62
250
  6
CONTINUOUS
 10
149.3441022428
 20
115.3904530376
 11
150.6814284034
 21
114.7217899574
  0
LINE
  5
572
100
AcDbEntity
  8
RACCORDO
100
AcDbLine
 62
7
  6
CONTINUOUS
 10
136.0905590379
 20
122.079202011
 11
137.4278851985
 21
121.4105389307
  0
LINE
  5
573
100
AcDbEntity
  8
RACCORDO
100
AcDbLine
 62
7
  6
CONTINUOUS
 10
149.4548772024
 20
115.3970429287
 11
150.7922033629
 21
114.7283798485
  0
LINE
  5
574
100
AcDbEntity
  8
0
100
AcDbLine
 62
7
  6
CONTINUOUS
 10
164.3733079323
 20
108.1840454821
 11
164.8579563758
 21
107.9417212604
  0
LINE
  5
575
100
AcDbEntity
  8
0
100
AcDbLine
 62
7
  6
CONTINUOUS
 10
169.3055194153
 20
105.8541029889
 11
168.9393236896
 21
106.0372008517
  0
LINE
  5
576
100
AcDbEntity
  8
RACCORDO
100
AcDbLine
 62
7
  6
CONTINUOUS
 10
147.3934902625
 20
117.2455878311
 11
145.2301665212
 21
118.3272497018
  0
LINE
  5
577
100
AcDbEntity
  8
RACCORDO
100
AcDbLine
 62
7
  6
CONTINUOUS
 10
147.7355854823
 20
117.4141978904
 11
145.5569103144
 21
118.5035354743
  0
LINE
  5
578
100
AcDbEntity
  8
RACCORDO
100
AcDbLine
 62
250
  6
CONTINUOUS
 10
146.4092916432
 20
118.6333523902
 11
148.2955832467
 21
117.6902065885
  0
LINE
  5
579
100
AcDbEntity
  8
0
100
AcDbLine
 62
7
  6
CONTINUOUS
 10
166.0932188953
 20
108.7957108882
 11
165.5982441485
 21
109.0431982616
  0
LINE
  5
57A
100
AcDbEntity
  8
RACCORDO
100
AcDbLine
 62
7
  6
CONTINUOUS
 10
146.4962662186
 20
118.6378250564
 11
148.3438873849
 21
117.7140144733
  0
LINE
  5
57B
100
AcDbEntity
  8
ASSI
100
AcDbLine
 62
7
  6
CONTINUOUS
 10
146.0519389091
 20
119.1045493144
 11
148.5902030754
 21
117.8354172313
  0
LINE
  5
57C
100
AcDbEntity
  8
0
100
AcDbLine
 62
7
  6
CONTINUOUS
 10
167.2081196935
 20
109.1266986853
 11
167.1362013976
 21
109.1626578333
  0
LWPOLYLINE
  5
57D
100
AcDbEntity
  8
0
100
AcDbPolyline
 62
7
  6
CONTINUOUS
 90
5
 70
0
 10
166.656890034
 20
105.2667743361
 10
166.6650778264
 20
105.2585677186
 10
166.6719028669
 20
105.2478895281
 10
166.6767533966
 20
105.2352984697
 10
166.6798310268
 20
105.2206469289
  0
LINE
  5
57E
100
AcDbEntity
  8
RACCORDO
100
AcDbLine
 62
7
  6
CONTINUOUS
 10
157.7086066034
 20
113.9711724696
 11
156.7488372817
 21
115.626529685
  0
LINE
  5
57F
100
AcDbEntity
  8
0
100
AcDbLine
 62
7
  6
CONTINUOUS
 10
155.1736163864
 20
123.0531094603
 11
155.0675503693
 21
123.2360462795
  0
LWPOLYLINE
  5
580
100
AcDbEntity
  8
0
100
AcDbPolyline
 62
250
  6
CONTINUOUS
 90
31
 70
0
 10
167.1240674422
 20
114.2254004642
 10
167.1277108046
 20
114.1779494786
 10
167.1325195678
 20
114.1296537795
 10
167.1388733078
 20
114.0805765964
 10
167.1467453698
 20
114.030661959
 10
167.1561624085
 20
113.9799658375
 10
167.1675839655
 20
113.9287193716
 10
167.1809693062
 20
113.876847801
 10
167.1963591651
 20
113.824425886
 10
167.2143352863
 20
113.771909048
 10
167.2348378406
 20
113.7192087233
 10
167.2579266573
 20
113.6664134756
 10
167.2843629688
 20
113.6142444169
 10
167.3141088186
 20
113.5625760921
 10
167.3472021632
 20
113.5115339563
 10
167.3845181035
 20
113.4622154871
 10
167.4260090197
 20
113.4144367686
 10
167.4717225316
 20
113.3683817168
 10
167.5226765994
 20
113.3256995568
 10
167.5787799258
 20
113.286121564
 10
167.640123808
 20
113.2499164631
 10
167.7080000984
 20
113.2195396538
 10
167.7833876874
 20
113.1947943572
 10
167.8653076844
 20
113.1758773522
 10
167.9521152707
 20
113.1658343746
 10
168.0446626877
 20
113.1656158927
 10
168.1420976939
 20
113.1742714382
 10
168.2402187457
 20
113.1919953421
 10
168.3376253286
 20
113.2188523813
 10
168.4357179572
 20
113.2547777789
 10
168.5344966313
 20
113.2997715349
  0
LINE
  5
581
100
AcDbEntity
  8
0
100
AcDbLine
 62
7
  6
CONTINUOUS
 10
167.3483334319
 20
110.0940999796
 11
167.3483334319
 21
110.049752118
  0
LINE
  5
582
100
AcDbEntity
  8
0
100
AcDbLine
 62
7
  6
CONTINUOUS
 10
167.3660111015
 20
105.317101867
 11
167.3660111015
 21
105.0773394769
  0
LINE
  5
583
100
AcDbEntity
  8
0
100
AcDbLine
 62
7
  6
CONTINUOUS
 10
167.6488538139
 20
105.0187945133
 11
167.6488538139
 21
105.4585232232
  0
LINE
  5
584
100
AcDbEntity
  8
0
100
AcDbLine
 62
7
  6
CONTINUOUS
 10
167.7725975006
 20
105.9882572844
 11
167.7725975006
 21
105.5203950666
  0
LINE
  5
585
100
AcDbEntity
  8
0
100
AcDbLine
 62
7
  6
CONTINUOUS
 10
168.0377625436
 20
105.9963978892
 11
168.0377625436
 21
105.2148864451
  0
LINE
  5
586
100
AcDbEntity
  8
0
100
AcDbLine
 62
7
  6
CONTINUOUS
 10
168.2180747728
 20
110.460784995
 11
168.2180747728
 21
110.4281985684
  0
LINE
  5
587
100
AcDbEntity
  8
0
100
AcDbLine
 62
7
  6
CONTINUOUS
 10
168.5716281634
 20
110.6250040433
 11
168.5716281634
 21
110.6049752637
  0
LINE
  5
588
100
AcDbEntity
  8
0
100
AcDbLine
 62
7
  6
CONTINUOUS
 10
168.87992672
 20
116.114648344
 11
168.87992672
 21
116.6689046025
  0
LINE
  5
589
100
AcDbEntity
  8
0
100
AcDbLine
 62
7
  6
CONTINUOUS
 10
168.9393236896
 20
106.6050391747
 11
168.9393236896
 21
106.0372008517
  0
LINE
  5
58A
100
AcDbEntity
  8
0
100
AcDbLine
 62
7
  6
CONTINUOUS
 10
169.1627694324
 20
116.2878534248
 11
169.1627694324
 21
116.4956995217
  0
LINE
  5
58B
100
AcDbEntity
  8
0
100
AcDbLine
 62
7
  6
CONTINUOUS
 10
169.3282324192
 20
111.1407601571
 11
169.3282324192
 21
111.0277827149
  0
LINE
  5
58C
100
AcDbEntity
  8
0
100
AcDbLine
 62
7
  6
CONTINUOUS
 10
169.3324750599
 20
116.340922514
 11
169.3324750599
 21
116.8951787724
  0
LINE
  5
58D
100
AcDbEntity
  8
0
100
AcDbLine
 62
7
  6
CONTINUOUS
 10
169.5757197927
 20
105.9903409026
 11
169.5757197927
 21
106.9414656603
  0
LINE
  5
58E
100
AcDbEntity
  8
0
100
AcDbLine
 62
7
  6
CONTINUOUS
 10
169.5757197927
 20
110.5254437912
 11
169.5757197927
 21
111.2715926792
  0
LWPOLYLINE
  5
58F
100
AcDbEntity
  8
0
100
AcDbPolyline
 62
250
  6
CONTINUOUS
 90
3
 70
0
 10
175.4309198827
 20
120.9936323858
 10
175.4413088702
 20
121.0364535561
 10
175.4443157182
 20
121.0750108228
  0
LINE
  5
590
100
AcDbEntity
  8
RACCORDO
100
AcDbLine
 62
7
  6
CONTINUOUS
 10
156.7488372817
 20
79.8156009403
 11
157.7086066034
 21
80.5111888339
  0
LINE
  5
591
100
AcDbEntity
  8
0
100
AcDbLine
 62
250
  6
CONTINUOUS
 10
174.7091204205
 20
89.5013405825
 11
174.6643324905
 21
89.4734058885
  0
LINE
  5
592
100
AcDbEntity
  8
0
100
AcDbLine
 62
250
  6
CONTINUOUS
 10
174.8077828183
 20
89.5655600839
 11
174.7495051136
 21
89.5306091817
  0
LINE
  5
593
100
AcDbEntity
  8
0
100
AcDbLine
 62
250
  6
CONTINUOUS
 10
174.7091204205
 20
89.5013405825
 11
157.7086066034
 21
80.5111888339
  0
LINE
  5
594
100
AcDbEntity
  8
RACCORDO
100
AcDbLine
 62
7
  6
CONTINUOUS
 10
174.6643324905
 20
89.4734058885
 11
157.6869145012
 21
80.4954675941
  0
LINE
  5
595
100
AcDbEntity
  8
DRAFT
100
AcDbLine
 62
7
  6
CONTINUOUS
 10
150.3590977031
 20
76.4366013957
 11
156.7488372817
 21
79.8156009403
  0
LINE
  5
596
100
AcDbEntity
  8
0
100
AcDbLine
 62
250
  6
CONTINUOUS
 10
150.9764446314
 20
77.0074951848
 11
174.7495051136
 21
89.5306091817
  0
LINE
  5
597
100
AcDbEntity
  8
RACCORDO
100
AcDbLine
 62
7
  6
CONTINUOUS
 10
155.0647724074
 20
78.5388353607
 11
150.6183465016
 21
76.3069769965
  0
LINE
  5
598
100
AcDbEntity
  8
RACCORDO
100
AcDbLine
 62
7
  6
CONTINUOUS
 10
155.946307866
 20
79.0982644047
 11
150.4691716085
 21
76.381564443
  0
LWPOLYLINE
  5
599
100
AcDbEntity
  8
0
100
AcDbPolyline
 62
250
  6
CONTINUOUS
 90
16
 70
0
 10
144.5321618513
 20
71.8091092095
 10
144.493154987
 20
71.7902548805
 10
144.4508445909
 20
71.7735292675
 10
144.4056839507
 20
71.7591115934
 10
144.3581568968
 20
71.7471563559
 10
144.3087726291
 20
71.7377916734
 10
144.258060263
 20
71.7311179103
 10
144.2065631368
 20
71.7272065976
 10
144.154833016
 20
71.7260996703
 10
144.1034241931
 20
71.7278090137
 10
144.0528874943
 20
71.7323163355
 10
144.003764417
 20
71.7395733632
 10
143.9565813507
 20
71.7495023524
 10
143.9118438744
 20
71.7619969274
 10
143.870031344
 20
71.7769232275
 10
143.8315917917
 20
71.794121333
  0
LINE
  5
59A
100
AcDbEntity
  8
0
100
AcDbLine
 62
7
  6
CONTINUOUS
 10
150.1487234463
 20
76.4698485932
 11
149.4292740704
 21
76.1375830296
  0
LINE
  5
59B
100
AcDbEntity
  8
0
100
AcDbLine
 62
7
  6
CONTINUOUS
 10
151.2032123207
 20
75.942604156
 11
149.4008220439
 21
75.110200597
  0
LWPOLYLINE
  5
59C
100
AcDbEntity
  8
0
100
AcDbPolyline
 62
250
  6
CONTINUOUS
 90
3
 70
0
 10
150.776422159
 20
118.8578061765
 10
150.7855736242
 20
118.8603801698
 10
150.7946789557
 20
118.8626371067
  0
LWPOLYLINE
  5
59D
100
AcDbEntity
  8
RACCORDO
100
AcDbPolyline
 62
7
  6
CONTINUOUS
 90
7
 70
0
 10
145.0308062856
 20
118.3532602171
 10
145.0582620269
 20
118.360831918
 10
145.0883773869
 20
118.3636680128
 10
145.1209891828
 20
118.3617488949
 10
145.1557913141
 20
118.3550354254
 10
145.1923226696
 20
118.3435135474
 10
145.2301665212
 20
118.3272497018
  0
LINE
  5
59E
100
AcDbEntity
  8
0
100
AcDbLine
 62
250
  6
CONTINUOUS
 10
150.7946789557
 20
118.8626371067
 11
150.8037318585
 21
118.8645754268
  0
LWPOLYLINE
  5
59F
100
AcDbEntity
  8
0
100
AcDbPolyline
 62
250
  6
CONTINUOUS
 90
10
 70
0
 10
151.2353516231
 20
118.448145454
 10
151.2298414074
 20
118.4469724924
 10
151.2243086005
 20
118.4456037334
 10
151.2187532023
 20
118.4440391771
 10
151.2131728711
 20
118.4422780056
 10
151.2075699487
 20
118.4403210368
 10
151.2019514601
 20
118.4381707243
 10
151.1963197469
 20
118.435827886
 10
151.1906724676
 20
118.433291704
 10
151.185009622
 20
118.4305621783
  0
LWPOLYLINE
  5
5A0
100
AcDbEntity
  8
0
100
AcDbPolyline
 62
250
  6
CONTINUOUS
 90
10
 70
0
 10
151.127690391
 20
118.7036810705
 10
151.1184964613
 20
118.7017407135
 10
151.1092512856
 20
118.6994695514
 10
151.0999616038
 20
118.6968696519
 10
151.0906370042
 20
118.6939442316
 10
151.0812814439
 20
118.6906950979
 10
151.071893148
 20
118.6871216732
 10
151.062475985
 20
118.6832248669
 10
151.0530395581
 20
118.6790080484
 10
151.0435906591
 20
118.6744738094
  0
LWPOLYLINE
  5
5A1
100
AcDbEntity
  8
0
100
AcDbPolyline
 62
250
  6
CONTINUOUS
 90
6
 70
0
 10
150.8037318585
 20
118.8645754268
 10
150.8303086702
 20
118.8680020492
 10
150.8582624843
 20
118.8679754762
 10
150.887393044
 20
118.8643175463
 10
150.9174968936
 20
118.8568573574
 10
150.9483343964
 20
118.8454579355
  0
LWPOLYLINE
  5
5A2
100
AcDbEntity
  8
0
100
AcDbPolyline
 62
250
  6
CONTINUOUS
 90
5
 70
0
 10
150.7311043858
 20
118.8756848145
 10
150.7470327559
 20
118.877544253
 10
150.7659762503
 20
118.8765683858
 10
150.7849843355
 20
118.8722205726
 10
150.8037318486
 20
118.8645754249
  0
LWPOLYLINE
  5
5A3
100
AcDbEntity
  8
0
100
AcDbPolyline
 62
7
  6
CONTINUOUS
 90
8
 70
0
 10
140.7494608017
 20
119.1164551729
 10
140.7817181831
 20
119.1153503866
 10
140.8126853662
 20
119.1119573508
 10
140.8421865879
 20
119.106519642
 10
140.8700894905
 20
119.0993764905
 10
140.8962547562
 20
119.0906963558
 10
140.9205069599
 20
119.0804218358
 10
140.9268761882
 20
119.0772958095
  0
LWPOLYLINE
  5
5A4
100
AcDbEntity
  8
ASSI
100
AcDbPolyline
 62
7
  6
CONTINUOUS
 90
7
 70
0
 10
145.603651173
 20
119.2339588369
 10
145.687830844
 20
119.2205875554
 10
145.7682244956
 20
119.203937485
 10
145.8448321279
 20
119.1840086257
 10
145.917653741
 20
119.1608009775
 10
145.9866893347
 20
119.1343145404
 10
146.0519389091
 20
119.1045493144
  0
LWPOLYLINE
  5
5A5
100
AcDbEntity
  8
RACCORDO
100
AcDbPolyline
 62
7
  6
CONTINUOUS
 90
3
 70
0
 10
145.447993938
 20
118.5369359333
 10
145.4837891618
 20
118.5307408802
 10
145.5202315093
 20
118.5195476321
  0
LINE
  5
5A6
100
AcDbEntity
  8
0
100
AcDbLine
 62
7
  6
CONTINUOUS
 10
174.4649931944
 20
112.8150116133
 11
174.6062681099
 21
112.7867388688
  0
LINE
  5
5A7
100
AcDbEntity
  8
RACCORDO
100
AcDbLine
 62
7
  6
CONTINUOUS
 10
135.1374924865
 20
119.5371035823
 11
135.7616880836
 21
119.4067709625
  0
LINE
  5
5A8
100
AcDbEntity
  8
RACCORDO
100
AcDbLine
 62
250
  6
CONTINUOUS
 10
135.3643359801
 20
119.6929247431
 11
136.0755565882
 21
119.5444212202
  0
LINE
  5
5A9
100
AcDbEntity
  8
RACCORDO
100
AcDbLine
 62
250
  6
CONTINUOUS
 10
175.045748538
 20
112.6351646565
 11
174.6638211577
 21
112.7155976316
  0
LINE
  5
5AA
100
AcDbEntity
  8
0
100
AcDbLine
 62
250
  6
CONTINUOUS
 10
150.702434314
 20
118.8435631751
 11
150.7209005441
 21
118.8358188674
  0
LWPOLYLINE
  5
5AB
100
AcDbEntity
  8
0
100
AcDbPolyline
 62
250
  6
CONTINUOUS
 90
10
 70
0
 10
151.2416549799
 20
118.699396374
 10
151.2324134188
 20
118.7033105331
 10
151.2231170851
 20
118.7061024245
 10
151.2129162862
 20
118.7081781117
 10
151.2019320767
 20
118.7094843415
 10
151.1900936229
 20
118.7100411216
 10
151.1768147037
 20
118.7098768928
 10
151.1618831005
 20
118.708864697
 10
151.1455036346
 20
118.7068441154
 10
151.127690391
 20
118.7036810705
  0
LWPOLYLINE
  5
5AC
100
AcDbEntity
  8
RACCORDO
100
AcDbPolyline
 62
7
  6
CONTINUOUS
 90
9
 70
0
 10
148.1961337482
 20
120.8656780486
 10
148.1574887684
 20
120.8822638458
 10
148.1060943636
 20
120.8972388708
 10
148.0519694127
 20
120.9051226797
 10
147.9951722718
 20
120.9060712818
 10
147.9369669379
 20
120.9000644458
 10
147.8777747436
 20
120.8870954277
 10
147.8171743565
 20
120.8671709714
 10
147.7551657764
 20
120.8402910768
  0
LWPOLYLINE
  5
5AD
100
AcDbEntity
  8
RACCORDO
100
AcDbPolyline
 62
250
  6
CONTINUOUS
 90
3
 70
0
 10
175.0733822969
 20
108.2954507787
 10
175.066289624
 20
108.2986890125
 10
175.0457485392
 20
108.305037637
  0
LWPOLYLINE
  5
5AE
100
AcDbEntity
  8
0
100
AcDbPolyline
 62
7
  6
CONTINUOUS
 90
8
 70
0
 10
150.9658024561
 20
118.8373186947
 10
150.9426030921
 20
118.8481628142
 10
150.9045291729
 20
118.8626781353
 10
150.8670867232
 20
118.8729697656
 10
150.8300235422
 20
118.8792062948
 10
150.7938569989
 20
118.8814392791
 10
150.7590208888
 20
118.8798322122
 10
150.7310979109
 20
118.8756835382
  0
LWPOLYLINE
  5
5AF
100
AcDbEntity
  8
0
100
AcDbPolyline
 62
7
  6
CONTINUOUS
 90
8
 70
0
 10
145.4108016528
 20
121.6148189026
 10
145.3884717506
 20
121.625283669
 10
145.3506977754
 20
121.6397917327
 10
145.3135523152
 20
121.6501380528
 10
145.2767787412
 20
121.6564950379
 10
145.2408798702
 20
121.6589128506
 10
145.2062775539
 20
121.6575484933
 10
145.178929874
 20
121.6537196413
  0
LINE
  5
5B0
100
AcDbEntity
  8
0
100
AcDbLine
 62
7
  6
CONTINUOUS
 10
145.6865791152
 20
121.476934172
 11
145.6867074149
 21
121.4768701733
  0
LINE
  5
5B1
100
AcDbEntity
  8
0
100
AcDbLine
 62
7
  6
CONTINUOUS
 10
151.2416977676
 20
118.6993749969
 11
151.2416549799
 21
118.699396374
  0
LINE
  5
5B2
100
AcDbEntity
  8
0
100
AcDbLine
 62
7
  6
CONTINUOUS
 10
166.7485530422
 20
109.7770301426
 11
166.8321454817
 21
109.7352339229
  0
LINE
  5
5B3
100
AcDbEntity
  8
0
100
AcDbLine
 62
7
  6
CONTINUOUS
 10
167.0011261559
 20
109.9105512069
 11
167.008922177
 21
109.9066531963
  0
LINE
  5
5B4
100
AcDbEntity
  8
0
100
AcDbLine
 62
7
  6
CONTINUOUS
 10
149.9980187716
 20
118.5292938897
 11
147.096170025
 21
119.9802182629
  0
LINE
  5
5B5
100
AcDbEntity
  8
0
100
AcDbLine
 62
7
  6
CONTINUOUS
 10
167.2422674147
 20
109.972881316
 11
167.1789339077
 21
110.0045480695
  0
LINE
  5
5B6
100
AcDbEntity
  8
0
100
AcDbLine
 62
7
  6
CONTINUOUS
 10
168.3382829256
 20
109.7636985973
 11
168.4051608741
 21
109.730259623
  0
LINE
  5
5B7
100
AcDbEntity
  8
DRAFT
100
AcDbLine
 62
7
  6
CONTINUOUS
 10
156.0100387628
 20
115.9959289444
 11
156.7488372817
 21
115.626529685
  0
LINE
  5
5B8
100
AcDbEntity
  8
0
100
AcDbLine
 62
250
  6
CONTINUOUS
 10
151.0435906591
 20
118.6744738094
 11
150.7209005436
 21
118.8358188671
  0
LINE
  5
5B9
100
AcDbEntity
  8
0
100
AcDbLine
 62
250
  6
CONTINUOUS
 10
145.4883103628
 20
121.4521139575
 11
145.1656202473
 21
121.6134590153
  0
LINE
  5
5BA
100
AcDbEntity
  8
0
100
AcDbLine
 62
7
  6
CONTINUOUS
 10
151.5572410865
 20
118.5033968897
 11
151.3293741972
 21
118.6173303344
  0
LINE
  5
5BB
100
AcDbEntity
  8
0
100
AcDbLine
 62
7
  6
CONTINUOUS
 10
150.8021846325
 20
118.8809251167
 11
148.4561019652
 21
120.0539664504
  0
LINE
  5
5BC
100
AcDbEntity
  8
ASSI
100
AcDbLine
 62
7
  6
CONTINUOUS
 10
151.2416978288
 20
118.6993749663
 11
150.9656130784
 21
118.8374173415
  0
LINE
  5
5BD
100
AcDbEntity
  8
ASSI
100
AcDbLine
 62
7
  6
CONTINUOUS
 10
145.6867114131
 20
121.4768681742
 11
145.4106239313
 21
121.6149119151
  0
LINE
  5
5BE
100
AcDbEntity
  8
0
100
AcDbLine
 62
7
  6
CONTINUOUS
 10
168.2180747728
 20
110.4281985684
 11
168.1854883462
 21
110.4444917817
  0
LINE
  5
5BF
100
AcDbEntity
  8
RACCORDO
100
AcDbLine
 62
250
  6
CONTINUOUS
 10
144.6881998325
 20
122.3737740488
 11
147.7551657764
 21
120.8402910768
  0
LINE
  5
5C0
100
AcDbEntity
  8
RACCORDO
100
AcDbLine
 62
250
  6
CONTINUOUS
 10
151.9978064635
 20
118.7189707332
 11
155.0647724074
 21
117.1854877613
  0
LINE
  5
5C1
100
AcDbEntity
  8
RACCORDO
100
AcDbLine
 62
7
  6
CONTINUOUS
 10
144.9698855363
 20
122.478802165
 11
148.1962087795
 21
120.8656405434
  0
LINE
  5
5C2
100
AcDbEntity
  8
RACCORDO
100
AcDbLine
 62
7
  6
CONTINUOUS
 10
152.4388494666
 20
118.7443201998
 11
155.6651727097
 21
117.1311585783
  0
LINE
  5
5C3
100
AcDbEntity
  8
0
100
AcDbLine
 62
7
  6
CONTINUOUS
 10
173.9296334838
 20
108.1856306492
 11
173.9119460879
 21
108.1944743472
  0
LINE
  5
5C4
100
AcDbEntity
  8
0
100
AcDbLine
 62
7
  6
CONTINUOUS
 10
169.5757197927
 20
110.5254437912
 11
168.9615560789
 21
110.832525648
  0
LINE
  5
5C5
100
AcDbEntity
  8
0
100
AcDbLine
 62
7
  6
CONTINUOUS
 10
145.4106316217
 20
121.6149080698
 11
145.4107615695
 21
121.6148430634
  0
LINE
  5
5C6
100
AcDbEntity
  8
0
100
AcDbLine
 62
7
  6
CONTINUOUS
 10
150.9656195985
 20
118.8374140815
 11
150.9657582563
 21
118.8373447152
  0
LWPOLYLINE
  5
5C7
100
AcDbEntity
  8
0
100
AcDbPolyline
 62
250
  6
CONTINUOUS
 90
13
 70
0
 10
145.4883103628
 20
121.4521139575
 10
145.5067625152
 20
121.4413990742
 10
145.5248848687
 20
121.4278969499
 10
145.5423673447
 20
121.4118386098
 10
145.5589108132
 20
121.3934988165
 10
145.574232211
 20
121.3731913689
 10
145.5880693846
 20
121.3512637332
 10
145.6001855761
 20
121.3280910972
 10
145.6103734743
 20
121.3040699512
 10
145.6184587612
 20
121.2796113037
 10
145.6243030955
 20
121.2551336488
 10
145.6278064789
 20
121.2310558061
 10
145.6289089676
 20
121.2077897541
  0
LWPOLYLINE
  5
5C8
100
AcDbEntity
  8
0
100
AcDbPolyline
 62
250
  6
CONTINUOUS
 90
13
 70
0
 10
145.5711416678
 20
121.4808705153
 10
145.5893103637
 20
121.4700572275
 10
145.6065872049
 20
121.4562615699
 10
145.6226765798
 20
121.4397195898
 10
145.6373031947
 20
121.4207143247
 10
145.6502167841
 20
121.3995709596
 10
145.6611963927
 20
121.3766512633
 10
145.6700541561
 20
121.3523473978
 10
145.6766385153
 20
121.3270752091
 10
145.68083681
 20
121.3012671114
 10
145.6825772058
 20
121.2753646885
 10
145.681829924
 20
121.2498111381
 10
145.6786077506
 20
121.2250436887
  0
LINE
  5
5C9
100
AcDbEntity
  8
0
100
AcDbLine
 62
7
  6
CONTINUOUS
 10
167.2422674147
 20
109.9848002127
 11
167.1956171469
 21
110.0133675508
  0
LINE
  5
5CA
100
AcDbEntity
  8
0
100
AcDbLine
 62
7
  6
CONTINUOUS
 10
155.6685911333
 20
122.8056220869
 11
155.5625251161
 21
122.9885589061
  0
LINE
  5
5CB
100
AcDbEntity
  8
0
100
AcDbLine
 62
7
  6
CONTINUOUS
 10
156.1107826802
 20
122.6491722668
 11
156.0574998629
 21
122.7410715327
  0
LINE
  5
5CC
100
AcDbEntity
  8
0
100
AcDbLine
 62
7
  6
CONTINUOUS
 10
170.2121158957
 20
111.6080191649
 11
170.2121158957
 21
110.8436418427
  0
LINE
  5
5CD
100
AcDbEntity
  8
0
100
AcDbLine
 62
7
  6
CONTINUOUS
 10
170.2121158957
 20
107.2778921459
 11
170.2121158957
 21
106.3112186092
  0
LINE
  5
5CE
100
AcDbEntity
  8
0
100
AcDbLine
 62
7
  6
CONTINUOUS
 10
170.5303139473
 20
111.7468083928
 11
170.5303139473
 21
111.7762324077
  0
LINE
  5
5CF
100
AcDbEntity
  8
0
100
AcDbLine
 62
7
  6
CONTINUOUS
 10
170.6363799644
 20
111.6699375908
 11
170.6363799644
 21
111.6818564875
  0
LINE
  5
5D0
100
AcDbEntity
  8
0
100
AcDbLine
 62
7
  6
CONTINUOUS
 10
170.6759779442
 20
117.0126739562
 11
170.6759779442
 21
117.5669302146
  0
LINE
  5
5D1
100
AcDbEntity
  8
0
100
AcDbLine
 62
7
  6
CONTINUOUS
 10
170.7424459816
 20
111.7468083928
 11
170.7424459816
 21
111.8883745695
  0
LINE
  5
5D2
100
AcDbEntity
  8
0
100
AcDbLine
 62
7
  6
CONTINUOUS
 10
170.9588206567
 20
117.1858790369
 11
170.9588206567
 21
117.3937251338
  0
LINE
  5
5D3
100
AcDbEntity
  8
0
100
AcDbLine
 62
7
  6
CONTINUOUS
 10
170.9687201516
 20
111.8361076844
 11
170.9687201516
 21
111.8035212578
  0
LINE
  5
5D4
100
AcDbEntity
  8
0
100
AcDbLine
 62
7
  6
CONTINUOUS
 10
171.1285262841
 20
117.2389481261
 11
171.1285262841
 21
117.7932043846
  0
LINE
  5
5D5
100
AcDbEntity
  8
0
100
AcDbLine
 62
7
  6
CONTINUOUS
 10
171.3222735422
 20
112.0003267327
 11
171.3222735422
 21
111.9802979531
  0
LINE
  5
5D6
100
AcDbEntity
  8
0
100
AcDbLine
 62
7
  6
CONTINUOUS
 10
172.4395022565
 20
107.4342905822
 11
172.4395022565
 21
108.4553848456
  0
LINE
  5
5D7
100
AcDbEntity
  8
0
100
AcDbLine
 62
7
  6
CONTINUOUS
 10
172.4395022565
 20
111.7644176011
 11
172.4395022565
 21
112.5714987368
  0
LINE
  5
5D8
100
AcDbEntity
  8
0
100
AcDbLine
 62
7
  6
CONTINUOUS
 10
172.4395022565
 20
116.6081371011
 11
172.4395022565
 21
117.9269630242
  0
LINE
  5
5D9
100
AcDbEntity
  8
0
100
AcDbLine
 62
7
  6
CONTINUOUS
 10
172.4395022565
 20
118.9337676226
 11
172.4395022565
 21
118.9922461363
  0
LINE
  5
5DA
100
AcDbEntity
  8
0
100
AcDbLine
 62
7
  6
CONTINUOUS
 10
172.4720291684
 20
117.9106995683
 11
172.4720291684
 21
118.4649558267
  0
LWPOLYLINE
  5
5DB
100
AcDbEntity
  8
0
100
AcDbPolyline
 62
250
  6
CONTINUOUS
 90
21
 70
0
 10
175.4433814138
 20
120.910499636
 10
175.4399369917
 20
120.885224176
 10
175.4342043792
 20
120.8608936495
 10
175.426416345
 20
120.837488472
 10
175.4168351079
 20
120.8151044512
 10
175.4056895723
 20
120.7937435721
 10
175.3932125483
 20
120.7734283992
 10
175.3796188506
 20
120.7541556756
 10
175.3650787292
 20
120.7358792618
 10
175.3497910091
 20
120.7186048226
 10
175.333924904
 20
120.7023101263
 10
175.3175636894
 20
120.6869054289
 10
175.3008589069
 20
120.6723843731
 10
175.2839383922
 20
120.6587205444
 10
175.2668026662
 20
120.6457992483
 10
175.2495376891
 20
120.6335910003
 10
175.2322560069
 20
120.6220905297
 10
175.2149616605
 20
120.6112260631
 10
175.1977017808
 20
120.6009632216
 10
175.1805770584
 20
120.5913012972
 10
168.5344965788
 20
117.005654911
  0
LINE
  5
5DC
100
AcDbEntity
  8
0
100
AcDbLine
 62
250
  6
CONTINUOUS
 10
174.8144330697
 20
89.5830854292
 11
174.7495051136
 21
89.5306091817
  0
LWPOLYLINE
  5
5DD
100
AcDbEntity
  8
0
100
AcDbPolyline
 62
7
  6
CONTINUOUS
 90
15
 70
0
 10
174.8244905712
 20
89.5772744249
 10
174.9028441371
 20
89.6385179873
 10
174.9772903204
 20
89.7058209361
 10
175.0475228253
 20
89.7790872686
 10
175.1131155172
 20
89.8580967966
 10
175.1737501256
 20
89.9427378599
 10
175.2290590415
 20
90.032781145
 10
175.2786572753
 20
90.1278732089
 10
175.3222725192
 20
90.2278096844
 10
175.3596394102
 20
90.3323897799
 10
175.3904835296
 20
90.441277882
 10
175.4145761147
 20
90.5542283652
 10
175.4316994922
 20
90.6710684975
 10
175.441652928
 20
90.7915292806
 10
175.4443157861
 20
90.8953837155
  0
LINE
  5
5DE
100
AcDbEntity
  8
0
100
AcDbLine
 62
250
  6
CONTINUOUS
 10
174.7495051136
 20
89.5306091817
 11
174.7091204205
 21
89.5013405825
  0
LINE
  5
5DF
100
AcDbEntity
  8
0
100
AcDbLine
 62
7
  6
CONTINUOUS
 10
174.8244905716
 20
89.5772744252
 11
174.7836880146
 21
89.5477027153
  0
LWPOLYLINE
  5
5E0
100
AcDbEntity
  8
RACCORDO
100
AcDbPolyline
 62
250
  6
CONTINUOUS
 90
9
 70
0
 10
150.7997941238
 20
72.2905960662
 10
150.8129381856
 20
72.3000424262
 10
150.8246283493
 20
72.3118049041
 10
150.8347368058
 20
72.3257609678
 10
150.8431465718
 20
72.3417561316
 10
150.8497603288
 20
72.3596080225
 10
150.8545048052
 20
72.3791164965
 10
150.8573290253
 20
72.40006865
 10
150.8582021071
 20
72.4222332457
  0
LWPOLYLINE
  5
5E1
100
AcDbEntity
  8
0
100
AcDbPolyline
 62
250
  6
CONTINUOUS
 90
3
 70
0
 10
174.7836880146
 20
89.5477027153
 10
174.7673455369
 20
89.5362558959
 10
174.7091204205
 20
89.5013405825
  0
LINE
  5
5E2
100
AcDbEntity
  8
0
100
AcDbLine
 62
250
  6
CONTINUOUS
 10
174.8240727077
 20
89.5769713145
 11
174.8077828183
 21
89.5655600839
  0
LWPOLYLINE
  5
5E3
100
AcDbEntity
  8
RACCORDO
100
AcDbPolyline
 62
7
  6
CONTINUOUS
 90
8
 70
0
 10
150.2654083824
 20
72.016239124
 10
150.27773109
 20
72.0238102706
 10
150.2929896432
 20
72.0374852974
 10
150.3058733887
 20
72.0546273649
 10
150.3161618945
 20
72.0749431815
 10
150.3236791298
 20
72.0980851533
 10
150.328296477
 20
72.1236573313
 10
150.3299349353
 20
72.151222187
  0
LINE
  5
5E4
100
AcDbEntity
  8
RACCORDO
100
AcDbLine
 62
250
  6
CONTINUOUS
 10
150.7945140695
 20
72.2876694354
 11
150.7997941238
 21
72.2905960662
  0
LWPOLYLINE
  5
5E5
100
AcDbEntity
  8
RACCORDO
100
AcDbPolyline
 62
250
  6
CONTINUOUS
 90
10
 70
0
 10
148.6623928152
 20
71.2353370895
 10
148.6700499123
 20
71.2395190982
 10
148.6831289432
 20
71.24907762
 10
148.6947757806
 20
71.2609582098
 10
148.7048776479
 20
71.2750558338
 10
148.7133019987
 20
71.2911970808
 10
148.7199291787
 20
71.3091172276
 10
148.7247052468
 20
71.3285649428
 10
148.7276153925
 20
71.349335196
 10
148.7286541445
 20
71.3711875874
  0
LINE
  5
5E6
100
AcDbEntity
  8
RACCORDO
100
AcDbLine
 62
250
  6
CONTINUOUS
 10
150.8582021071
 20
72.4222332457
 11
150.3299349353
 21
72.151222187
  0
LINE
  5
5E7
100
AcDbEntity
  8
RACCORDO
100
AcDbLine
 62
7
  6
CONTINUOUS
 10
150.7945140695
 20
72.2876694354
 11
150.2654134085
 21
72.016230781
  0
LINE
  5
5E8
100
AcDbEntity
  8
RACCORDO
100
AcDbLine
 62
7
  6
CONTINUOUS
 10
150.2636733984
 20
72.015371588
 11
150.2654083824
 21
72.016239124
  0
LINE
  5
5E9
100
AcDbEntity
  8
RACCORDO
100
AcDbLine
 62
250
  6
CONTINUOUS
 10
150.6973409556
 20
73.9869411645
 11
151.4152802966
 21
74.3411359723
  0
LINE
  5
5EA
100
AcDbEntity
  8
RACCORDO
100
AcDbLine
 62
7
  6
CONTINUOUS
 10
150.5680821413
 20
73.725077123
 11
151.2896429196
 21
74.0810585641
  0
LINE
  5
5EB
100
AcDbEntity
  8
RACCORDO
100
AcDbLine
 62
250
  6
CONTINUOUS
 10
150.3299349353
 20
72.151222187
 11
148.7286541445
 21
71.3711875874
  0
LINE
  5
5EC
100
AcDbEntity
  8
RACCORDO
100
AcDbLine
 62
7
  6
CONTINUOUS
 10
150.2636733984
 20
72.015371588
 11
148.6623925519
 21
71.2353369612
  0
LINE
  5
5ED
100
AcDbEntity
  8
RACCORDO
100
AcDbLine
 62
7
  6
CONTINUOUS
 10
150.5680795674
 20
73.7250758532
 11
150.5581073824
 21
73.7205281516
  0
LINE
  5
5EE
100
AcDbEntity
  8
0
100
AcDbLine
 62
250
  6
CONTINUOUS
 10
144.8727420324
 20
71.5593395594
 11
146.0194099769
 21
72.0406641865
  0
LINE
  5
5EF
100
AcDbEntity
  8
RACCORDO
100
AcDbLine
 62
250
  6
CONTINUOUS
 10
146.0194099769
 20
72.0233357507
 11
150.6973409556
 21
73.9869411645
  0
LINE
  5
5F0
100
AcDbEntity
  8
0
100
AcDbLine
 62
7
  6
CONTINUOUS
 10
144.7189347892
 20
71.278143862
 11
145.8781442232
 21
71.7647328969
  0
LINE
  5
5F1
100
AcDbEntity
  8
RACCORDO
100
AcDbLine
 62
7
  6
CONTINUOUS
 10
145.8837948534
 20
71.7584417127
 11
150.5581086773
 21
73.7205287918
  0
LWPOLYLINE
  5
5F2
100
AcDbEntity
  8
0
100
AcDbPolyline
 62
250
  6
CONTINUOUS
 90
7
 70
0
 10
153.2715869882
 20
123.2814565143
 10
153.2940662082
 20
123.2876429777
 10
153.3284769748
 20
123.2923692284
 10
153.3639996837
 20
123.2917951717
 10
153.4002461826
 20
123.2859270587
 10
153.4368204222
 20
123.2748289867
 10
153.4733227622
 20
123.2586221998
  0
LWPOLYLINE
  5
5F3
100
AcDbEntity
  8
0
100
AcDbPolyline
 62
250
  6
CONTINUOUS
 90
18
 70
0
 10
145.5711416678
 20
121.4808705152
 10
145.5787897917
 20
121.4823035326
 10
145.5864088954
 20
121.4835992825
 10
145.5939915415
 20
121.4847412712
 10
145.6015208269
 20
121.4857068214
 10
145.6089973151
 20
121.4864860467
 10
145.616437425
 20
121.4870757007
 10
145.6238361974
 20
121.4874510766
 10
145.6311744177
 20
121.4875897197
 10
145.6384428051
 20
121.4874809155
 10
145.6456315415
 20
121.4870941383
 10
145.6527164469
 20
121.4864005548
 10
145.6596621713
 20
121.4853837273
 10
145.6664506235
 20
121.4840093991
 10
145.6730547453
 20
121.4822443549
 10
145.6794216967
 20
121.4800692733
 10
145.685522441
 20
121.4774500274
 10
145.6865791152
 20
121.476934172
  0
LINE
  5
5F4
100
AcDbEntity
  8
0
100
AcDbLine
 62
7
  6
CONTINUOUS
 10
148.4561019652
 20
120.0539664504
 11
147.096170025
 21
119.9802182629
  0
LWPOLYLINE
  5
5F5
100
AcDbEntity
  8
0
100
AcDbPolyline
 62
7
  6
CONTINUOUS
 90
6
 70
0
 10
167.5568491875
 20
114.7996486771
 10
167.5501836844
 20
114.8023804487
 10
167.5365950811
 20
114.8054589033
 10
167.5221138484
 20
114.8052348164
 10
167.5065004185
 20
114.8018800446
 10
167.4897547914
 20
114.7953945881
  0
LWPOLYLINE
  5
5F6
100
AcDbEntity
  8
0
100
AcDbPolyline
 62
7
  6
CONTINUOUS
 90
6
 70
0
 10
167.4226566211
 20
114.531334758
 10
167.4292158147
 20
114.5286391453
 10
167.4428118876
 20
114.5255333832
 10
167.4573148361
 20
114.5257452691
 10
167.4729624707
 20
114.5290964609
 10
167.4897547914
 20
114.5355869586
  0
LWPOLYLINE
  5
5F7
100
AcDbEntity
  8
0
100
AcDbPolyline
 62
7
  6
CONTINUOUS
 90
11
 70
0
 10
148.2328331307
 20
123.0363056866
 10
148.1680035974
 20
123.0655120795
 10
148.1003876842
 20
123.0894379282
 10
148.0319781975
 20
123.1071560568
 10
147.963213467
 20
123.1185364722
 10
147.8947011398
 20
123.1235033259
 10
147.826958577
 20
123.1221098701
 10
147.7604628774
 20
123.1144629158
 10
147.6958838329
 20
123.1007640324
 10
147.6338025472
 20
123.0813317504
 10
147.575353203
 20
123.0568795795
  0
LINE
  5
5F8
100
AcDbEntity
  8
0
100
AcDbLine
 62
7
  6
CONTINUOUS
 10
174.4649931944
 20
108.4848845944
 11
174.6638211577
 21
108.3854706127
  0
LINE
  5
5F9
100
AcDbEntity
  8
0
100
AcDbLine
 62
250
  6
CONTINUOUS
 10
174.7405734213
 20
108.4576251959
 11
175.045748538
 21
108.3050376376
  0
LINE
  5
5FA
100
AcDbEntity
  8
0
100
AcDbLine
 62
7
  6
CONTINUOUS
 10
170.6363799644
 20
111.6699375908
 11
170.4785352477
 21
111.7488599492
  0
LINE
  5
5FB
100
AcDbEntity
  8
0
100
AcDbLine
 62
7
  6
CONTINUOUS
 10
170.5303139473
 20
111.7468083928
 11
170.5017092627
 21
111.7611107351
  0
LINE
  5
5FC
100
AcDbEntity
  8
0
100
AcDbLine
 62
250
  6
CONTINUOUS
 10
148.0154738786
 20
123.0250854499
 11
152.4155717917
 21
120.8250364934
  0
LINE
  5
5FD
100
AcDbEntity
  8
0
100
AcDbLine
 62
7
  6
CONTINUOUS
 10
148.2328331307
 20
123.0363056866
 11
152.4180001787
 21
120.9437221848
  0
LINE
  5
5FE
100
AcDbEntity
  8
0
100
AcDbLine
 62
7
  6
CONTINUOUS
 10
170.9687201516
 20
111.8035212578
 11
170.936133725
 21
111.8198144711
  0
LINE
  5
5FF
100
AcDbEntity
  8
0
100
AcDbLine
 62
250
  6
CONTINUOUS
 10
168.0428513512
 20
114.0406715099
 11
167.6418542074
 21
114.2411700818
  0
LWPOLYLINE
  5
600
100
AcDbEntity
  8
RACCORDO
100
AcDbPolyline
 62
250
  6
CONTINUOUS
 90
3
 70
0
 10
175.045748538
 20
108.3050376376
 10
175.0730431795
 20
108.2907406565
 10
175.1000114733
 20
108.2752016806
  0
LWPOLYLINE
  5
601
100
AcDbEntity
  8
0
100
AcDbPolyline
 62
7
  6
CONTINUOUS
 90
19
 70
0
 10
174.6638211577
 20
108.3854706127
 10
174.6819031254
 20
108.3755806691
 10
174.6980181388
 20
108.3651362369
 10
174.712166198
 20
108.354137316
 10
174.7244228208
 20
108.342494179
 10
174.7347124893
 20
108.3302965533
 10
174.7428086496
 20
108.3178136215
 10
174.7486625597
 20
108.3050390487
 10
174.7523229614
 20
108.2919791697
 10
174.753709527
 20
108.2789221715
 10
174.7527710835
 20
108.2658676004
 10
174.7495588038
 20
108.2528159101
 10
174.7441458787
 20
108.2400566485
 10
174.7364835664
 20
108.2275973454
 10
174.7266206088
 20
108.215430471
 10
174.7147764228
 20
108.203822984
 10
174.7010241472
 20
108.1928638706
 10
174.6852906432
 20
108.1824641447
 10
174.6675759108
 20
108.1726238061
  0
LWPOLYLINE
  5
602
100
AcDbEntity
  8
0
100
AcDbPolyline
 62
7
  6
CONTINUOUS
 90
5
 70
0
 10
167.4049662204
 20
113.9999145369
 10
167.347589943
 20
114.0331543976
 10
167.2938069073
 20
114.0737780125
 10
167.2442025581
 20
114.1214324377
 10
167.2378416079
 20
114.1291030185
  0
LINE
  5
603
100
AcDbEntity
  8
0
100
AcDbLine
 62
7
  6
CONTINUOUS
 10
170.6363799644
 20
111.6818564875
 11
170.5303139473
 21
111.7468083928
  0
LWPOLYLINE
  5
604
100
AcDbEntity
  8
RACCORDO
100
AcDbPolyline
 62
250
  6
CONTINUOUS
 90
3
 70
0
 10
175.1000114733
 20
108.2752016806
 10
175.1264121695
 20
108.2583893969
 10
175.1519247318
 20
108.2403207965
  0
LINE
  5
605
100
AcDbEntity
  8
0
100
AcDbLine
 62
7
  6
CONTINUOUS
 10
158.6984354488
 20
124.8393567849
 11
158.6030842752
 21
125.0038132325
  0
LINE
  5
606
100
AcDbEntity
  8
0
100
AcDbLine
 62
7
  6
CONTINUOUS
 10
159.1934101956
 20
124.5918694115
 11
159.098059022
 21
124.756325859
  0
LINE
  5
607
100
AcDbEntity
  8
0
100
AcDbLine
 62
7
  6
CONTINUOUS
 10
159.6883849424
 20
124.3443820381
 11
159.5930337689
 21
124.5088384856
  0
LINE
  5
608
100
AcDbEntity
  8
0
100
AcDbLine
 62
7
  6
CONTINUOUS
 10
160.1833596892
 20
124.0968946646
 11
160.0880085157
 21
124.2613511122
  0
LINE
  5
609
100
AcDbEntity
  8
0
100
AcDbLine
 62
7
  6
CONTINUOUS
 10
160.6783344361
 20
123.8494072912
 11
160.5829832625
 21
124.0138637388
  0
LINE
  5
60A
100
AcDbEntity
  8
0
100
AcDbLine
 62
7
  6
CONTINUOUS
 10
167.3128087765
 20
113.9003284745
 11
167.3131987063
 21
113.899497701
  0
LWPOLYLINE
  5
60B
100
AcDbEntity
  8
0
100
AcDbPolyline
 62
7
  6
CONTINUOUS
 90
10
 70
0
 10
167.3128382766
 20
113.9002868677
 10
167.3089366756
 20
113.9087304801
 10
167.282200959
 20
113.9738984254
 10
167.259163861
 20
114.0438424813
 10
167.2400020791
 20
114.117994404
 10
167.2248638099
 20
114.1958316804
 10
167.2138580798
 20
114.2767199291
 10
167.2069585154
 20
114.3601478442
 10
167.2040624843
 20
114.4456869481
 10
167.2039482149
 20
114.4667545251
  0
LINE
  5
60C
100
AcDbEntity
  8
0
100
AcDbLine
 62
7
  6
CONTINUOUS
 10
174.7405793378
 20
117.6095506017
 11
174.7405717279
 21
117.6100339614
  0
LINE
  5
60D
100
AcDbEntity
  8
0
100
AcDbLine
 62
7
  6
CONTINUOUS
 10
172.7223449689
 20
112.7248389898
 11
172.7223449689
 21
112.935034747
  0
LINE
  5
60E
100
AcDbEntity
  8
0
100
AcDbLine
 62
7
  6
CONTINUOUS
 10
172.7548718809
 20
118.2917507459
 11
172.7548718809
 21
118.083904649
  0
LINE
  5
60F
100
AcDbEntity
  8
0
100
AcDbLine
 62
7
  6
CONTINUOUS
 10
172.9245775084
 20
118.6912299967
 11
172.9245775084
 21
118.1369737382
  0
LINE
  5
610
100
AcDbEntity
  8
0
100
AcDbLine
 62
7
  6
CONTINUOUS
 10
173.9119460879
 20
119.7866633637
 11
173.9119460879
 21
117.3521517481
  0
LINE
  5
611
100
AcDbEntity
  8
0
100
AcDbLine
 62
7
  6
CONTINUOUS
 10
173.9119460879
 20
113.563909314
 11
173.9119460879
 21
112.5246013661
  0
LINE
  5
612
100
AcDbEntity
  8
0
100
AcDbLine
 62
7
  6
CONTINUOUS
 10
173.9119460879
 20
109.233782295
 11
173.9119460879
 21
108.1944743472
  0
LINE
  5
613
100
AcDbEntity
  8
0
100
AcDbLine
 62
250
  6
CONTINUOUS
 10
174.6062681099
 20
108.4566118498
 11
174.6062681099
 21
109.600830925
  0
LINE
  5
614
100
AcDbEntity
  8
0
100
AcDbLine
 62
250
  6
CONTINUOUS
 10
174.6062681099
 20
112.7867388688
 11
174.6062681099
 21
113.9309579439
  0
LINE
  5
615
100
AcDbEntity
  8
0
100
AcDbLine
 62
250
  6
CONTINUOUS
 10
174.6062681099
 20
117.6092467505
 11
174.6062681099
 21
120.1612660235
  0
LINE
  5
616
100
AcDbEntity
  8
0
100
AcDbLine
 62
7
  6
CONTINUOUS
 10
174.7405912591
 20
108.4582097977
 11
174.7405912591
 21
109.6718399472
  0
LINE
  5
617
100
AcDbEntity
  8
0
100
AcDbLine
 62
7
  6
CONTINUOUS
 10
174.7405912591
 20
112.7883368166
 11
174.7405912591
 21
114.0019669662
  0
LINE
  5
618
100
AcDbEntity
  8
0
100
AcDbLine
 62
7
  6
CONTINUOUS
 10
174.7405912591
 20
117.6100264516
 11
174.7405912591
 21
120.2337364441
  0
LINE
  5
619
100
AcDbEntity
  8
0
100
AcDbLine
 62
250
  6
CONTINUOUS
 10
175.1636555893
 20
116.5878832626
 11
175.1636555893
 21
114.3466762055
  0
LINE
  5
61A
100
AcDbEntity
  8
RACCORDO
100
AcDbLine
 62
250
  6
CONTINUOUS
 10
175.1636555893
 20
111.7643009183
 11
175.1636555893
 21
110.0165491866
  0
LINE
  5
61B
100
AcDbEntity
  8
RACCORDO
100
AcDbLine
 62
250
  6
CONTINUOUS
 10
175.1636555893
 20
107.4341738993
 11
175.1636555893
 21
90.5480922807
  0
LINE
  5
61C
100
AcDbEntity
  8
0
100
AcDbLine
 62
250
  6
CONTINUOUS
 10
175.1636555893
 20
120.5822382675
 11
175.1636555893
 21
120.7278696763
  0
LINE
  5
61D
100
AcDbEntity
  8
0
100
AcDbLine
 62
7
  6
CONTINUOUS
 10
174.7405912589
 20
112.7882969598
 11
174.7405734213
 21
112.7877522148
  0
LINE
  5
61E
100
AcDbEntity
  8
0
100
AcDbLine
 62
7
  6
CONTINUOUS
 10
174.7405912589
 20
108.4581699409
 11
174.7405734213
 21
108.4576251959
  0
LWPOLYLINE
  5
61F
100
AcDbEntity
  8
RACCORDO
100
AcDbPolyline
 62
250
  6
CONTINUOUS
 90
8
 70
0
 10
175.1636555893
 20
114.3466762055
 10
175.1622638963
 20
114.3172522031
 10
175.1579760293
 20
114.2896376313
 10
175.1508482313
 20
114.2642048847
 10
175.1409736508
 20
114.2412961157
 10
175.1284857955
 20
114.2212208188
 10
175.1135566132
 20
114.2042518115
 10
175.0963879884
 20
114.1906185731
  0
LWPOLYLINE
  5
620
100
AcDbEntity
  8
RACCORDO
100
AcDbPolyline
 62
250
  6
CONTINUOUS
 90
8
 70
0
 10
175.1636555893
 20
110.0165491866
 10
175.1622638963
 20
109.9871251842
 10
175.1579760293
 20
109.9595106124
 10
175.1508482313
 20
109.9340778658
 10
175.1409736508
 20
109.9111690968
 10
175.1284857955
 20
109.8910937999
 10
175.1135566132
 20
109.8741247926
 10
175.0963879884
 20
109.8604915542
  0
LWPOLYLINE
  5
621
100
AcDbEntity
  8
RACCORDO
100
AcDbPolyline
 62
250
  6
CONTINUOUS
 90
15
 70
0
 10
175.444315623
 20
112.1100060868
 10
175.4430901637
 20
112.0856163861
 10
175.4372816993
 20
112.0512662781
 10
175.4272727714
 20
112.0186526448
 10
175.4134819274
 20
111.987472432
 10
175.3964883976
 20
111.958000606
 10
175.3769303861
 20
111.9304456791
 10
175.3552092937
 20
111.9046620051
 10
175.3314943696
 20
111.8803677033
 10
175.3060524819
 20
111.8574984654
 10
175.2792804922
 20
111.8361180734
 10
175.2513983587
 20
111.8161429271
 10
175.2226491364
 20
111.7975282332
 10
175.1933209649
 20
111.7802623493
 10
175.1636555893
 20
111.7643047169
  0
LWPOLYLINE
  5
622
100
AcDbEntity
  8
RACCORDO
100
AcDbPolyline
 62
250
  6
CONTINUOUS
 90
15
 70
0
 10
175.444315623
 20
107.7798790678
 10
175.4430901637
 20
107.7554893671
 10
175.4372816993
 20
107.7211392592
 10
175.4272727714
 20
107.6885256258
 10
175.4134819274
 20
107.657345413
 10
175.3964883976
 20
107.6278735871
 10
175.3769303861
 20
107.6003186601
 10
175.3552092937
 20
107.5745349861
 10
175.3314943696
 20
107.5502406844
 10
175.3060524819
 20
107.5273714465
 10
175.2792804922
 20
107.5059910545
 10
175.2513983587
 20
107.4860159082
 10
175.2226491363
 20
107.4674012143
 10
175.1933209649
 20
107.4501353304
 10
175.1636555893
 20
107.434177698
  0
LINE
  5
623
100
AcDbEntity
  8
0
100
AcDbLine
 62
250
  6
CONTINUOUS
 10
174.8742221593
 20
89.6426657949
 11
174.8144330697
 21
89.5830854292
  0
LWPOLYLINE
  5
624
100
AcDbEntity
  8
0
100
AcDbPolyline
 62
250
  6
CONTINUOUS
 90
3
 70
0
 10
145.2223861142
 20
121.6356573967
 10
145.2317409297
 20
121.6382248163
 10
145.241051032
 20
121.6404636345
  0
LINE
  5
625
100
AcDbEntity
  8
0
100
AcDbLine
 62
250
  6
CONTINUOUS
 10
145.241051032
 20
121.6404636345
 11
145.2503096798
 21
121.6423717776
  0
LWPOLYLINE
  5
626
100
AcDbEntity
  8
0
100
AcDbPolyline
 62
7
  6
CONTINUOUS
 90
6
 70
0
 10
145.1789302535
 20
121.6537197123
 10
145.1760465037
 20
121.6531680587
 10
145.1481755965
 20
121.6466080873
 10
145.1202439325
 20
121.6377811547
 10
145.0923635478
 20
121.6266729312
 10
145.0772159659
 20
121.619649482
  0
LWPOLYLINE
  5
627
100
AcDbEntity
  8
0
100
AcDbPolyline
 62
250
  6
CONTINUOUS
 90
6
 70
0
 10
145.2503096798
 20
121.6423717776
 10
145.2768617039
 20
121.6455880269
 10
145.3047668019
 20
121.6453698461
 10
145.3338265056
 20
121.6415423338
 10
145.3638396713
 20
121.6339377243
 10
145.3945689617
 20
121.6224222282
  0
LWPOLYLINE
  5
628
100
AcDbEntity
  8
0
100
AcDbPolyline
 62
250
  6
CONTINUOUS
 90
5
 70
0
 10
145.1789302539
 20
121.6537197125
 10
145.1939101135
 20
121.6553893271
 10
145.2127672525
 20
121.654393628
 10
145.2316745452
 20
121.6500295029
 10
145.2503091326
 20
121.6423717038
  0
LINE
  5
629
100
AcDbEntity
  8
0
100
AcDbLine
 62
7
  6
CONTINUOUS
 10
174.4672105348
 20
117.637575889
 11
174.6062681099
 21
117.6092467505
  0
LINE
  5
62A
100
AcDbEntity
  8
0
100
AcDbLine
 62
250
  6
CONTINUOUS
 10
175.0461368683
 20
117.4567718364
 11
174.6661187311
 21
117.5381217909
  0
LWPOLYLINE
  5
62B
100
AcDbEntity
  8
0
100
AcDbPolyline
 62
250
  6
CONTINUOUS
 90
7
 70
0
 10
148.2201008479
 20
123.042082346
 10
148.1896308089
 20
123.0516726689
 10
148.1572286879
 20
123.0563063483
 10
148.1232416512
 20
123.0559337374
 10
148.0880338463
 20
123.0505588286
 10
148.0519825003
 20
123.0402392102
 10
148.0154738786
 20
123.0250854499
  0
LWPOLYLINE
  5
62C
100
AcDbEntity
  8
0
100
AcDbPolyline
 62
250
  6
CONTINUOUS
 90
3
 70
0
 10
153.7810758255
 20
123.2716309343
 10
153.8251403855
 20
123.2547272391
 10
153.8375125923
 20
123.2488164531
  0
LWPOLYLINE
  5
62D
100
AcDbEntity
  8
0
100
AcDbPolyline
 62
7
  6
CONTINUOUS
 90
10
 70
0
 10
153.8379395117
 20
123.2485929868
 10
153.7902446574
 20
123.2702753233
 10
153.7285959616
 20
123.2922217189
 10
153.6644174591
 20
123.3084652471
 10
153.5983297838
 20
123.3187212653
 10
153.5308349367
 20
123.3228168543
 10
153.462480083
 20
123.3206355522
 10
153.3938900036
 20
123.3121715747
 10
153.3255537449
 20
123.2975076204
 10
153.2715869881
 20
123.2814565143
  0
LWPOLYLINE
  5
62E
100
AcDbEntity
  8
RACCORDO
100
AcDbPolyline
 62
250
  6
CONTINUOUS
 90
3
 70
0
 10
175.0733822969
 20
112.6255777976
 10
175.066289624
 20
112.6288160314
 10
175.0457485392
 20
112.6351646559
  0
LINE
  5
62F
100
AcDbEntity
  8
0
100
AcDbLine
 62
7
  6
CONTINUOUS
 10
173.9296334838
 20
112.5157576682
 11
173.9119460879
 21
112.5246013661
  0
LINE
  5
630
100
AcDbEntity
  8
0
100
AcDbLine
 62
250
  6
CONTINUOUS
 10
153.4733227627
 20
123.2586222
 11
155.3733574482
 21
122.3086048573
  0
LINE
  5
631
100
AcDbEntity
  8
0
100
AcDbLine
 62
7
  6
CONTINUOUS
 10
174.4649931944
 20
112.8150116133
 11
174.6638211577
 21
112.7155976316
  0
LINE
  5
632
100
AcDbEntity
  8
0
100
AcDbLine
 62
250
  6
CONTINUOUS
 10
174.7405734213
 20
112.7877522148
 11
175.045748538
 21
112.6351646565
  0
LINE
  5
633
100
AcDbEntity
  8
0
100
AcDbLine
 62
7
  6
CONTINUOUS
 10
153.8375124733
 20
123.2488165126
 11
155.5524832871
 21
122.3913311057
  0
LINE
  5
634
100
AcDbEntity
  8
0
100
AcDbLine
 62
7
  6
CONTINUOUS
 10
168.0475305566
 20
116.5308464258
 11
168.87992672
 21
116.114648344
  0
LINE
  5
635
100
AcDbEntity
  8
0
100
AcDbLine
 62
7
  6
CONTINUOUS
 10
154.2190222318
 20
123.6603103482
 11
155.0675503693
 21
123.2360462795
  0
LINE
  5
636
100
AcDbEntity
  8
0
100
AcDbLine
 62
7
  6
CONTINUOUS
 10
155.2796824036
 20
123.1299802623
 11
155.5625251161
 21
122.9885589061
  0
LINE
  5
637
100
AcDbEntity
  8
0
100
AcDbLine
 62
7
  6
CONTINUOUS
 10
155.7746571504
 20
122.8824928889
 11
156.0574998629
 21
122.7410715327
  0
LINE
  5
638
100
AcDbEntity
  8
0
100
AcDbLine
 62
7
  6
CONTINUOUS
 10
168.87992672
 20
116.6689046025
 11
168.4923750335
 21
116.8626804457
  0
LINE
  5
639
100
AcDbEntity
  8
0
100
AcDbLine
 62
7
  6
CONTINUOUS
 10
168.9277173639
 20
117.0975576205
 11
169.3324750599
 21
116.8951787724
  0
LWPOLYLINE
  5
63A
100
AcDbEntity
  8
RACCORDO
100
AcDbPolyline
 62
250
  6
CONTINUOUS
 90
3
 70
0
 10
175.045748538
 20
112.6351646565
 10
175.0730431795
 20
112.6208676754
 10
175.1000114733
 20
112.6053286995
  0
LWPOLYLINE
  5
63B
100
AcDbEntity
  8
0
100
AcDbPolyline
 62
7
  6
CONTINUOUS
 90
19
 70
0
 10
174.6638211577
 20
112.7155976316
 10
174.6819031254
 20
112.705707688
 10
174.6980181388
 20
112.6952632558
 10
174.712166198
 20
112.6842643349
 10
174.7244228208
 20
112.6726211979
 10
174.7347124893
 20
112.6604235722
 10
174.7428086496
 20
112.6479406404
 10
174.7486625597
 20
112.6351660676
 10
174.7523229614
 20
112.6221061886
 10
174.753709527
 20
112.6090491905
 10
174.7527710835
 20
112.5959946193
 10
174.7495588038
 20
112.582942929
 10
174.7441458787
 20
112.5701836674
 10
174.7364835664
 20
112.5577243643
 10
174.7266206088
 20
112.5455574899
 10
174.7147764228
 20
112.5339500029
 10
174.7010241472
 20
112.5229908895
 10
174.6852906432
 20
112.5125911636
 10
174.6675759108
 20
112.5027508251
  0
LWPOLYLINE
  5
63C
100
AcDbEntity
  8
RACCORDO
100
AcDbPolyline
 62
250
  6
CONTINUOUS
 90
24
 70
0
 10
175.1519247318
 20
108.2403207965
 10
175.1763230511
 20
108.2209437828
 10
175.1994370167
 20
108.2001237379
 10
175.2209351291
 20
108.1778440708
 10
175.2404513363
 20
108.1541192859
 10
175.2576725925
 20
108.1288603347
 10
175.2722778435
 20
108.1018294847
 10
175.283612211
 20
108.0733495078
 10
175.2910795946
 20
108.0442290592
 10
175.2945099383
 20
108.0144310489
 10
175.293672534
 20
107.9842672254
 10
175.2887375014
 20
107.9551090373
 10
175.2802431619
 20
107.9274293888
 10
175.2685416769
 20
107.9009719913
 10
175.254112798
 20
107.8759653844
 10
175.2374961186
 20
107.8525727452
 10
175.219034934
 20
107.8306735219
 10
175.1988820048
 20
107.8100432585
 10
175.1772726089
 20
107.7906363235
 10
175.1545363505
 20
107.7724964113
 10
175.1308473264
 20
107.7555420969
 10
175.1064101733
 20
107.7397370819
 10
175.0814852308
 20
107.7250823024
 10
175.0562782651
 20
107.7115493934
  0
LINE
  5
63D
100
AcDbEntity
  8
0
100
AcDbLine
 62
250
  6
CONTINUOUS
 10
168.4297852665
 20
113.5784872281
 11
168.0428513512
 21
114.0406715099
  0
LWPOLYLINE
  5
63E
100
AcDbEntity
  8
0
100
AcDbPolyline
 62
250
  6
CONTINUOUS
 90
10
 70
0
 10
168.4297852492
 20
113.5784872195
 10
168.4505155919
 20
113.5516412159
 10
168.4694636763
 20
113.5227984116
 10
168.4863732027
 20
113.4923488267
 10
168.5010153757
 20
113.4607041785
 10
168.5131921851
 20
113.4282924066
 10
168.5227390839
 20
113.3955518857
 10
168.5295269665
 20
113.3629253751
 10
168.5334639156
 20
113.3308540314
 10
168.5344966313
 20
113.2997715349
  0
LWPOLYLINE
  5
63F
100
AcDbEntity
  8
0
100
AcDbPolyline
 62
250
  6
CONTINUOUS
 90
20
 70
0
 10
167.3131987063
 20
113.899497701
 10
167.3366812816
 20
113.8527885997
 10
167.3626412762
 20
113.8075612044
 10
167.39170148
 20
113.7632234507
 10
167.424247561
 20
113.7198895852
 10
167.4604759702
 20
113.6780400113
 10
167.5006011489
 20
113.6381540567
 10
167.5451029189
 20
113.600521735
 10
167.5941174119
 20
113.5658383869
 10
167.6478956481
 20
113.5347449537
 10
167.7071869374
 20
113.5077543936
 10
167.772849167
 20
113.4856163881
 10
167.8444395648
 20
113.4696327635
 10
167.9206028667
 20
113.4609480125
 10
168.0015058344
 20
113.4601726089
 10
168.0865046737
 20
113.4678946109
 10
168.1725782525
 20
113.4840325169
 10
168.2583231753
 20
113.5080222007
 10
168.344187
 20
113.5396267283
 10
168.4297852572
 20
113.5784872392
  0
LWPOLYLINE
  5
640
100
AcDbEntity
  8
RACCORDO
100
AcDbPolyline
 62
250
  6
CONTINUOUS
 90
10
 70
0
 10
175.1636555893
 20
107.4341738993
 10
175.1622908621
 20
107.4650893007
 10
175.158024662
 20
107.4969949341
 10
175.1509131046
 20
107.5294585311
 10
175.141050784
 20
107.5620402774
 10
175.1285694939
 20
107.5942987615
 10
175.113636445
 20
107.6257969431
 10
175.096452004
 20
107.6561080639
 10
175.0772469833
 20
107.6848214182
 10
175.0562795205
 20
107.7115479078
  0
LWPOLYLINE
  5
641
100
AcDbEntity
  8
RACCORDO
100
AcDbPolyline
 62
250
  6
CONTINUOUS
 90
10
 70
0
 10
175.1636555893
 20
111.7643009183
 10
175.1622908621
 20
111.7952163196
 10
175.158024662
 20
111.8271219531
 10
175.1509131046
 20
111.85958555
 10
175.141050784
 20
111.8921672964
 10
175.1285694939
 20
111.9244257804
 10
175.113636445
 20
111.955923962
 10
175.096452004
 20
111.9862350828
 10
175.0772469833
 20
112.0149484372
 10
175.0562795205
 20
112.0416749268
  0
LWPOLYLINE
  5
642
100
AcDbEntity
  8
0
100
AcDbPolyline
 62
250
  6
CONTINUOUS
 90
13
 70
0
 10
175.1636555893
 20
120.7278696763
 10
175.1606675941
 20
120.8480704651
 10
175.1512942301
 20
120.9683088279
 10
175.1359997973
 20
121.0878933568
 10
175.1154916394
 20
121.2050301724
 10
175.0901262233
 20
121.3203113274
 10
175.0593651281
 20
121.4367759725
 10
175.0230807173
 20
121.5543926166
 10
174.9814205933
 20
121.6722727988
 10
174.9335173819
 20
121.792155331
 10
174.8788406232
 20
121.914166936
 10
174.8175314483
 20
122.0368700617
 10
174.7495051136
 20
122.1595032509
  0
LWPOLYLINE
  5
643
100
AcDbEntity
  8
0
100
AcDbPolyline
 62
7
  6
CONTINUOUS
 90
14
 70
0
 10
175.4443155867
 20
116.9322650191
 10
175.4440026533
 20
116.9497444601
 10
175.4392185017
 20
117.0017984517
 10
175.4286465238
 20
117.053493878
 10
175.4123161936
 20
117.1043238355
 10
175.3903196102
 20
117.1538335259
 10
175.3627993645
 20
117.2016244992
 10
175.3298427187
 20
117.2474589606
 10
175.2915581892
 20
117.291101975
 10
175.2480000742
 20
117.3323946218
 10
175.198987502
 20
117.3713644194
 10
175.1443444356
 20
117.4079278087
 10
175.0840267362
 20
117.4418649867
 10
175.0734315492
 20
117.4472428356
  0
LWPOLYLINE
  5
644
100
AcDbEntity
  8
RACCORDO
100
AcDbPolyline
 62
7
  6
CONTINUOUS
 90
14
 70
0
 10
175.4443134569
 20
107.7798277981
 10
175.4442088221
 20
107.790076055
 10
175.440038568
 20
107.8436610672
 10
175.4297901593
 20
107.896805363
 10
175.4135234567
 20
107.9489747131
 10
175.3913640237
 20
107.9996772749
 10
175.3634970502
 20
108.0485046387
 10
175.330029929
 20
108.0952453876
 10
175.291083663
 20
108.1396633062
 10
175.2467655851
 20
108.1815834587
 10
175.1969070025
 20
108.2210319497
 10
175.1413322707
 20
108.2579423733
 10
175.079977938
 20
108.2921224963
 10
174.7420458721
 20
108.4611190236
  0
LWPOLYLINE
  5
645
100
AcDbEntity
  8
RACCORDO
100
AcDbPolyline
 62
7
  6
CONTINUOUS
 90
14
 70
0
 10
175.4443134569
 20
112.109954817
 10
175.4442088221
 20
112.120203074
 10
175.440038568
 20
112.1737880861
 10
175.4297901593
 20
112.2269323819
 10
175.4135234567
 20
112.2791017321
 10
175.3913640237
 20
112.3298042938
 10
175.3634970502
 20
112.3786316576
 10
175.330029929
 20
112.4253724066
 10
175.291083663
 20
112.4697903251
 10
175.2467655851
 20
112.5117104776
 10
175.1969070025
 20
112.5511589686
 10
175.1413322707
 20
112.5880693923
 10
175.079977938
 20
112.6222495153
 10
174.7420458721
 20
112.7912460425
  0
LWPOLYLINE
  5
646
100
AcDbEntity
  8
0
100
AcDbPolyline
 62
7
  6
CONTINUOUS
 90
13
 70
0
 10
175.4443157182
 20
121.0750108228
 10
175.4439846977
 20
121.1120990869
 10
175.4386445423
 20
121.2292800739
 10
175.4269693441
 20
121.3464079531
 10
175.4091158341
 20
121.4634244787
 10
175.385245372
 20
121.5800219447
 10
175.35562495
 20
121.6955672111
 10
175.3203956322
 20
121.8099377185
 10
175.2796662422
 20
121.9230074104
 10
175.2337363475
 20
122.0340796499
 10
175.1828298176
 20
122.1427893008
 10
175.1270218001
 20
122.2490882118
 10
175.1023485866
 20
122.2926012218
  0
LINE
  5
647
100
AcDbEntity
  8
RACCORDO
100
AcDbLine
 62
7
  6
CONTINUOUS
 10
175.4443157889
 20
110.3652171144
 11
175.4443156397
 21
110.3654910344
  0
LINE
  5
648
100
AcDbEntity
  8
RACCORDO
100
AcDbLine
 62
7
  6
CONTINUOUS
 10
175.4443157889
 20
114.6953441333
 11
175.4443156397
 21
114.6956180533
  0
LINE
  5
649
100
AcDbEntity
  8
0
100
AcDbLine
 62
7
  6
CONTINUOUS
 10
175.4443157889
 20
116.9325517347
 11
175.4443157889
 21
114.6953445588
  0
LINE
  5
64A
100
AcDbEntity
  8
0
100
AcDbLine
 62
7
  6
CONTINUOUS
 10
175.4443157889
 20
112.1102927912
 11
175.4443157889
 21
110.3652175399
  0
LINE
  5
64B
100
AcDbEntity
  8
0
100
AcDbLine
 62
7
  6
CONTINUOUS
 10
175.4443157889
 20
107.7801657723
 11
175.4443157889
 21
90.8954214601
  0
LINE
  5
64C
100
AcDbEntity
  8
0
100
AcDbLine
 62
7
  6
CONTINUOUS
 10
175.4443157889
 20
120.9322283763
 11
175.4443157889
 21
121.0751988654
  0
LINE
  5
64D
100
AcDbEntity
  8
RACCORDO
100
AcDbLine
 62
7
  6
CONTINUOUS
 10
175.4443157889
 20
112.1102932825
 11
175.444315623
 21
112.1100060868
  0
LINE
  5
64E
100
AcDbEntity
  8
RACCORDO
100
AcDbLine
 62
7
  6
CONTINUOUS
 10
175.4443157889
 20
107.7801662636
 11
175.444315623
 21
107.7798790678
  0
LWPOLYLINE
  5
64F
100
AcDbEntity
  8
0
100
AcDbPolyline
 62
250
  6
CONTINUOUS
 90
11
 70
0
 10
175.1636555893
 20
90.5480922807
 10
175.1609768471
 20
90.4374099037
 10
175.1523051237
 20
90.3301460809
 10
175.1376759135
 20
90.2267518418
 10
175.1171707574
 20
90.1277498164
 10
175.09086535
 20
90.033460174
 10
175.0587762945
 20
89.9440433878
 10
175.0209956517
 20
89.8599267854
 10
174.9776361674
 20
89.7815069264
 10
174.928689139
 20
89.7089659872
 10
174.8742221593
 20
89.6426657949
  0
LWPOLYLINE
  5
650
100
AcDbEntity
  8
0
100
AcDbPolyline
 62
250
  6
CONTINUOUS
 90
10
 70
0
 10
175.4443157861
 20
90.8953837155
 10
175.4413088678
 20
90.8566761357
 10
175.4309198779
 20
90.8138549669
 10
175.413188037
 20
90.7716408417
 10
175.3882453052
 20
90.7303479414
 10
175.3562773108
 20
90.6902835927
 10
175.3175219743
 20
90.6517459837
 10
175.2722677309
 20
90.6150219363
 10
175.220851381
 20
90.5803847718
 10
175.1636555893
 20
90.5480922819
  0
LWPOLYLINE
  5
651
100
AcDbEntity
  8
0
100
AcDbPolyline
 62
250
  6
CONTINUOUS
 90
3
 70
0
 10
175.0461368695
 20
117.4567718359
 10
175.066609322
 20
117.4503722868
 10
175.0734315497
 20
117.4472428354
  0
LWPOLYLINE
  5
652
100
AcDbEntity
  8
0
100
AcDbPolyline
 62
250
  6
CONTINUOUS
 90
7
 70
0
 10
159.4391967838
 20
123.6570972407
 10
159.4087267445
 20
123.6666875637
 10
159.3763246233
 20
123.6713212431
 10
159.3423375866
 20
123.6709486323
 10
159.3071297817
 20
123.6655737234
 10
159.271078436
 20
123.655254105
 10
159.2345698147
 20
123.6401003445
  0
LWPOLYLINE
  5
653
100
AcDbEntity
  8
0
100
AcDbPolyline
 62
7
  6
CONTINUOUS
 90
17
 70
0
 10
159.4524978399
 20
123.651035315
 10
159.384953938
 20
123.6818627553
 10
159.3177472601
 20
123.707268679
 10
159.2485645033
 20
123.7287023439
 10
159.1775726231
 20
123.7463068663
 10
159.1052872293
 20
123.7601184707
 10
159.0318624898
 20
123.7702332954
 10
158.9574452878
 20
123.7766850261
 10
158.8828060796
 20
123.7794449705
 10
158.8081501216
 20
123.7785386135
 10
158.7336720305
 20
123.773936321
 10
158.6601346405
 20
123.7656594796
 10
158.5876880409
 20
123.7536624193
 10
158.5164724269
 20
123.7378550651
 10
158.4470027802
 20
123.7181892905
 10
158.3794428346
 20
123.6945278738
 10
158.3173756831
 20
123.6682491344
  0
LINE
  5
654
100
AcDbEntity
  8
0
100
AcDbLine
 62
7
  6
CONTINUOUS
 10
169.6869566209
 20
117.5071846178
 11
170.6759779442
 21
117.0126739562
  0
LINE
  5
655
100
AcDbEntity
  8
0
100
AcDbLine
 62
7
  6
CONTINUOUS
 10
170.6759779442
 20
117.5669302146
 11
170.2201399073
 21
117.794849233
  0
LINE
  5
656
100
AcDbEntity
  8
0
100
AcDbLine
 62
250
  6
CONTINUOUS
 10
159.2345698147
 20
123.6401003445
 11
160.0527060928
 21
123.2310322055
  0
LINE
  5
657
100
AcDbEntity
  8
0
100
AcDbLine
 62
7
  6
CONTINUOUS
 10
170.6554822377
 20
118.0297264078
 11
171.1285262841
 21
117.7932043846
  0
LINE
  5
658
100
AcDbEntity
  8
0
100
AcDbLine
 62
7
  6
CONTINUOUS
 10
159.4520062556
 20
123.651282009
 11
160.0551344798
 21
123.349717897
  0
LINE
  5
659
100
AcDbEntity
  8
0
100
AcDbLine
 62
7
  6
CONTINUOUS
 10
171.4147214947
 20
118.4393534051
 11
172.4720291684
 21
117.9106995683
  0
LINE
  5
65A
100
AcDbEntity
  8
0
100
AcDbLine
 62
7
  6
CONTINUOUS
 10
157.7545561378
 20
125.4280773012
 11
158.6030842752
 21
125.0038132325
  0
LINE
  5
65B
100
AcDbEntity
  8
0
100
AcDbLine
 62
7
  6
CONTINUOUS
 10
158.8152163095
 20
124.8977472153
 11
159.098059022
 21
124.756325859
  0
LINE
  5
65C
100
AcDbEntity
  8
0
100
AcDbLine
 62
7
  6
CONTINUOUS
 10
159.3101910564
 20
124.6502598419
 11
159.5930337689
 21
124.5088384856
  0
LINE
  5
65D
100
AcDbEntity
  8
0
100
AcDbLine
 62
7
  6
CONTINUOUS
 10
159.8051658032
 20
124.4027724684
 11
160.0880085157
 21
124.2613511122
  0
LINE
  5
65E
100
AcDbEntity
  8
0
100
AcDbLine
 62
7
  6
CONTINUOUS
 10
160.30014055
 20
124.155285095
 11
160.5829832625
 21
124.0138637388
  0
LINE
  5
65F
100
AcDbEntity
  8
0
100
AcDbLine
 62
7
  6
CONTINUOUS
 10
160.7951152969
 20
123.9077977216
 11
161.0200310377
 21
123.7953398512
  0
LINE
  5
660
100
AcDbEntity
  8
0
100
AcDbLine
 62
7
  6
CONTINUOUS
 10
173.9296334838
 20
117.3433080501
 11
173.9119460879
 21
117.3521517481
  0
LINE
  5
661
100
AcDbEntity
  8
0
100
AcDbLine
 62
7
  6
CONTINUOUS
 10
169.1627694324
 20
116.4956995217
 11
168.87992672
 21
116.6689046025
  0
LINE
  5
662
100
AcDbEntity
  8
0
100
AcDbLine
 62
7
  6
CONTINUOUS
 10
170.9588206567
 20
117.3937251338
 11
170.6759779442
 21
117.5669302146
  0
LWPOLYLINE
  5
663
100
AcDbEntity
  8
RACCORDO
100
AcDbPolyline
 62
250
  6
CONTINUOUS
 90
3
 70
0
 10
175.1000114733
 20
112.6053286995
 10
175.1264121695
 20
112.5885164159
 10
175.1519247318
 20
112.5704478154
  0
LWPOLYLINE
  5
664
100
AcDbEntity
  8
RACCORDO
100
AcDbPolyline
 62
250
  6
CONTINUOUS
 90
24
 70
0
 10
175.1519247318
 20
112.5704478154
 10
175.1763230511
 20
112.5510708017
 10
175.1994370167
 20
112.5302507568
 10
175.2209351291
 20
112.5079710897
 10
175.2404513362
 20
112.4842463048
 10
175.2576725925
 20
112.4589873537
 10
175.2722778434
 20
112.4319565036
 10
175.283612211
 20
112.4034765268
 10
175.2910795946
 20
112.3743560781
 10
175.2945099383
 20
112.3445580678
 10
175.293672534
 20
112.3143942443
 10
175.2887375014
 20
112.2852360562
 10
175.2802431619
 20
112.2575564078
 10
175.2685416769
 20
112.2310990102
 10
175.254112798
 20
112.2060924033
 10
175.2374961186
 20
112.1826997642
 10
175.219034934
 20
112.1608005408
 10
175.1988820048
 20
112.1401702774
 10
175.1772726089
 20
112.1207633424
 10
175.1545363505
 20
112.1026234303
 10
175.1308473264
 20
112.0856691158
 10
175.1064101733
 20
112.0698641008
 10
175.0814852308
 20
112.0552093213
 10
175.0562782651
 20
112.0416764123
  0
LINE
  5
665
100
AcDbEntity
  8
RACCORDO
100
AcDbLine
 62
250
  6
CONTINUOUS
 10
175.0562795184
 20
107.7115479068
 11
174.6675759108
 21
108.1726238061
  0
LWPOLYLINE
  5
666
100
AcDbEntity
  8
0
100
AcDbPolyline
 62
250
  6
CONTINUOUS
 90
7
 70
0
 10
161.4988477551
 20
124.5492450751
 10
161.4683777158
 20
124.558835398
 10
161.4359755946
 20
124.5634690774
 10
161.4019885578
 20
124.5630964666
 10
161.366780753
 20
124.5577215577
 10
161.3307294073
 20
124.5474019393
 10
161.294220786
 20
124.5322481789
  0
LWPOLYLINE
  5
667
100
AcDbEntity
  8
0
100
AcDbPolyline
 62
7
  6
CONTINUOUS
 90
17
 70
0
 10
161.51214795
 20
124.543183583
 10
161.444529956
 20
124.5740419492
 10
161.3772926591
 20
124.5994530549
 10
161.3080823893
 20
124.6208871096
 10
161.2370652512
 20
124.6384893062
 10
161.1647584484
 20
124.6522956881
 10
161.0913190659
 20
124.6624031378
 10
161.0168927644
 20
124.6688452153
 10
160.9422504588
 20
124.671595528
 10
160.8675975267
 20
124.670678686
 10
160.7931279942
 20
124.6660670425
 10
160.7196053295
 20
124.6577824503
 10
160.6471797695
 20
124.6457795087
 10
160.5759892866
 20
124.6299691871
 10
160.5065475932
 20
124.6103032111
 10
160.4390186238
 20
124.5866464088
 10
160.3770258555
 20
124.5603965969
  0
LINE
  5
668
100
AcDbEntity
  8
0
100
AcDbLine
 62
7
  6
CONTINUOUS
 10
172.4720291684
 20
118.4649558267
 11
171.9479047812
 21
118.7270180203
  0
LINE
  5
669
100
AcDbEntity
  8
0
100
AcDbLine
 62
7
  6
CONTINUOUS
 10
174.4672105348
 20
117.637575889
 11
174.6661187311
 21
117.5381217909
  0
LINE
  5
66A
100
AcDbEntity
  8
0
100
AcDbLine
 62
250
  6
CONTINUOUS
 10
175.0461368683
 20
117.4567718364
 11
174.7405793378
 21
117.6095506017
  0
LINE
  5
66B
100
AcDbEntity
  8
0
100
AcDbLine
 62
7
  6
CONTINUOUS
 10
175.0734546145
 20
117.4472313062
 11
174.7420458721
 21
117.6129356775
  0
LINE
  5
66C
100
AcDbEntity
  8
0
100
AcDbLine
 62
7
  6
CONTINUOUS
 10
172.9245775084
 20
118.6912299967
 11
172.3832471116
 21
118.961895195
  0
LINE
  5
66D
100
AcDbEntity
  8
0
100
AcDbLine
 62
250
  6
CONTINUOUS
 10
161.294220786
 20
124.5322481789
 11
161.928715888
 21
124.2150006279
  0
LINE
  5
66E
100
AcDbEntity
  8
0
100
AcDbLine
 62
7
  6
CONTINUOUS
 10
161.5116572269
 20
124.5434298434
 11
162.0533735652
 21
124.2725716742
  0
LINE
  5
66F
100
AcDbEntity
  8
0
100
AcDbLine
 62
250
  6
CONTINUOUS
 10
175.0803633363
 20
117.4386265984
 11
175.0461368701
 21
117.4567718361
  0
LWPOLYLINE
  5
670
100
AcDbEntity
  8
0
100
AcDbPolyline
 62
7
  6
CONTINUOUS
 90
19
 70
0
 10
174.6661187311
 20
117.5381217909
 10
174.684186223
 20
117.5282489422
 10
174.7002883531
 20
117.5178386473
 10
174.7144251214
 20
117.5068909061
 10
174.7266719894
 20
117.4953166266
 10
174.7369534957
 20
117.4832049008
 10
174.7450432562
 20
117.4708230053
 10
174.7508925709
 20
117.4581649404
 10
174.7545501397
 20
117.4452367058
 10
174.7559356786
 20
117.4323235767
 10
174.7549980552
 20
117.4194253774
 10
174.7517884018
 20
117.4065422836
 10
174.7463798314
 20
117.3939600975
 10
174.7387236362
 20
117.3816865232
 10
174.728868524
 20
117.3697138565
 10
174.7170337307
 20
117.3583047882
 10
174.7032923352
 20
117.3475468816
 10
174.6875712587
 20
117.3373525734
 10
174.6698705012
 20
117.3277218634
  0
LINE
  5
671
100
AcDbEntity
  8
0
100
AcDbLine
 62
7
  6
CONTINUOUS
 10
172.7548718809
 20
118.2917507459
 11
172.4720291684
 21
118.4649558267
  0
LWPOLYLINE
  5
672
100
AcDbEntity
  8
0
100
AcDbPolyline
 62
250
  6
CONTINUOUS
 90
4
 70
0
 10
175.1640216237
 20
117.3831013306
 10
175.1392947102
 20
117.4015553223
 10
175.1113816712
 20
117.4201655042
 10
175.0803633363
 20
117.4386265984
  0
LINE
  5
673
100
AcDbEntity
  8
RACCORDO
100
AcDbLine
 62
250
  6
CONTINUOUS
 10
175.0562795184
 20
112.0416749257
 11
174.6675759108
 21
112.5027508251
  0
LWPOLYLINE
  5
674
100
AcDbEntity
  8
0
100
AcDbPolyline
 62
250
  6
CONTINUOUS
 90
10
 70
0
 10
167.3135989451
 20
126.4196998533
 10
167.2728381383
 20
126.434711523
 10
167.2314562896
 20
126.4449835946
 10
167.1887414386
 20
126.4509546114
 10
167.1452618879
 20
126.4526823881
 10
167.1009077651
 20
126.4503045706
 10
167.0536688732
 20
126.443494195
 10
167.0029036655
 20
126.4315379382
 10
166.949517388
 20
126.4140142038
 10
166.8937532259
 20
126.3904544761
  0
LWPOLYLINE
  5
675
100
AcDbEntity
  8
0
100
AcDbPolyline
 62
250
  6
CONTINUOUS
 90
8
 70
0
 10
166.8937532259
 20
126.3904544761
 10
166.8574204664
 20
126.4068471331
 10
166.8214180446
 20
126.4182848521
 10
166.7861402579
 20
126.4246423676
 10
166.7519734675
 20
126.4258500524
 10
166.7192918666
 20
126.4218946799
 10
166.6884533828
 20
126.4128195692
 10
166.6780655407
 20
126.4084076321
  0
LWPOLYLINE
  5
676
100
AcDbEntity
  8
0
100
AcDbPolyline
 62
7
  6
CONTINUOUS
 90
11
 70
0
 10
167.3332081664
 20
126.4105237187
 10
167.288323085
 20
126.4310759859
 10
167.2260865469
 20
126.4535298487
 10
167.161057905
 20
126.4702087518
 10
167.0938200103
 20
126.4807621888
 10
167.0250486308
 20
126.4849301668
 10
166.9552410785
 20
126.4825768405
 10
166.8849681864
 20
126.4736332414
 10
166.8148774101
 20
126.4581313798
 10
166.7454386395
 20
126.4361908032
 10
166.6780655407
 20
126.4084076321
  0
LINE
  5
677
100
AcDbEntity
  8
0
100
AcDbLine
 62
250
  6
CONTINUOUS
 10
167.332419877
 20
126.4109209204
 11
167.3135989451
 21
126.4196998533
  0
LINE
  5
678
100
AcDbEntity
  8
0
100
AcDbLine
 62
250
  6
CONTINUOUS
 10
174.6437374506
 20
122.7552619283
 11
174.6440694535
 21
122.7550961322
  0
LINE
  5
679
100
AcDbEntity
  8
0
100
AcDbLine
 62
250
  6
CONTINUOUS
 10
174.2091965729
 20
122.7327328026
 11
166.8937532259
 21
126.3904544761
  0
LINE
  5
67A
100
AcDbEntity
  8
0
100
AcDbLine
 62
7
  6
CONTINUOUS
 10
174.6440694535
 20
122.7550961322
 11
167.3324210909
 21
126.4109203135
  0
LINE
  5
67B
100
AcDbEntity
  8
0
100
AcDbLine
 62
250
  6
CONTINUOUS
 10
175.0568016352
 20
116.865540871
 11
174.6698705012
 21
117.3277218634
  0
LWPOLYLINE
  5
67C
100
AcDbEntity
  8
0
100
AcDbPolyline
 62
250
  6
CONTINUOUS
 90
10
 70
0
 10
175.0568016372
 20
116.865540872
 10
175.0776958542
 20
116.8387775927
 10
175.0968287769
 20
116.8100279882
 10
175.1139441412
 20
116.7796820441
 10
175.1288162445
 20
116.7481536841
 10
175.141244145
 20
116.715868572
 10
175.1510538578
 20
116.6832582229
 10
175.1581126175
 20
116.6507631149
 10
175.1623311267
 20
116.6188268063
 10
175.1636555893
 20
116.5878832626
  0
LWPOLYLINE
  5
67D
100
AcDbEntity
  8
0
100
AcDbPolyline
 62
250
  6
CONTINUOUS
 90
10
 70
0
 10
174.7091204205
 20
122.2291565433
 10
174.6640418407
 20
122.3031201869
 10
174.6154088349
 20
122.3737175907
 10
174.5635914108
 20
122.4404116382
 10
174.5089838037
 20
122.5026949106
 10
174.452001477
 20
122.5600935465
 10
174.3930779617
 20
122.6121708478
 10
174.3326615573
 20
122.6585306018
 10
174.2712119215
 20
122.6988200964
 10
174.2091965729
 20
122.7327328026
  0
LINE
  5
67E
100
AcDbEntity
  8
0
100
AcDbLine
 62
250
  6
CONTINUOUS
 10
174.7495051136
 20
122.1595032509
 11
174.7091204205
 21
122.2291565433
  0
LINE
  5
67F
100
AcDbEntity
  8
0
100
AcDbLine
 62
7
  6
CONTINUOUS
 10
175.1023483624
 20
122.2926016084
 11
175.0619636693
 21
122.3622549007
  0
ARC
  5
680
100
AcDbEntity
  8
0
100
AcDbCircle
 62
7
  6
CONTINUOUS
 10
174.196855858
 20
121.8606689412
 40
1.0
100
AcDbArc
 50
30.1039870598
 51
63.4562112153
  0
ARC
  5
681
100
AcDbEntity
  8
0
100
AcDbCircle
 62
7
  6
CONTINUOUS
 10
174.196855858
 20
90.3574113172
 40
1.0
100
AcDbArc
 50
297.8706235728
 51
305.9327615174
  0
ARC
  5
682
100
AcDbEntity
  8
0
100
AcDbCircle
 62
7
  6
CONTINUOUS
 10
149.2247964093
 20
108.7337028051
 40
0.3
100
AcDbArc
 50
350.2953813509
 51
360.0
  0
ARC
  5
683
100
AcDbEntity
  8
0
100
AcDbCircle
 62
7
  6
CONTINUOUS
 10
149.2247964093
 20
76.8206666756
 40
0.3
100
AcDbArc
 50
350.2953813509
 51
360.0
  0
ARC
  5
684
100
AcDbEntity
  8
RACCORDO
100
AcDbCircle
 62
7
  6
CONTINUOUS
 10
150.6803999641
 20
72.8576373946
 40
0.25
100
AcDbArc
 50
0.0
 51
63.4685586813
  0
ARC
  5
685
100
AcDbEntity
  8
RACCORDO
100
AcDbCircle
 62
7
  6
CONTINUOUS
 10
150.6803999641
 20
72.5101058778
 40
0.25
100
AcDbArc
 50
297.1379920933
 51
359.9893619276
  0
ARC
  5
686
100
AcDbEntity
  8
RACCORDO
100
AcDbCircle
 62
7
  6
CONTINUOUS
 10
148.5529088801
 20
71.4600886589
 40
0.25
100
AcDbArc
 50
243.435038785
 51
295.9722472581
  0
ARC
  5
687
100
AcDbEntity
  8
RACCORDO
100
AcDbCircle
 62
7
  6
CONTINUOUS
 10
147.2279242003
 20
72.1225809988
 40
0.25
100
AcDbArc
 50
180.0
 51
243.4303575621
  0
ARC
  5
688
100
AcDbEntity
  8
RACCORDO
100
AcDbCircle
 62
7
  6
CONTINUOUS
 10
148.5529088801
 20
113.0996667324
 40
0.25
100
AcDbArc
 50
243.4329480668
 51
258.2060367178
  0
ARC
  5
689
100
AcDbEntity
  8
RACCORDO
100
AcDbCircle
 62
7
  6
CONTINUOUS
 10
150.6803999641
 20
114.5047730507
 40
0.25
100
AcDbArc
 50
0.0110965599
 51
63.4576900774
  0
ARC
  5
68A
100
AcDbEntity
  8
RACCORDO
100
AcDbCircle
 62
7
  6
CONTINUOUS
 10
150.6803999641
 20
114.157241534
 40
0.25
100
AcDbArc
 50
320.5877710598
 51
360.0
  0
ARC
  5
68B
100
AcDbEntity
  8
RACCORDO
100
AcDbCircle
 62
7
  6
CONTINUOUS
 10
149.3430738035
 20
115.173436131
 40
0.25
100
AcDbArc
 50
63.3939681258
 51
115.9721801256
  0
ARC
  5
68C
100
AcDbEntity
  8
RACCORDO
100
AcDbCircle
 62
7
  6
CONTINUOUS
 10
147.2279242003
 20
114.1021330064
 40
0.25
100
AcDbArc
 50
117.1619273217
 51
180.0
  0
ARC
  5
68D
100
AcDbEntity
  8
RACCORDO
100
AcDbCircle
 62
7
  6
CONTINUOUS
 10
147.2279242003
 20
113.7621590723
 40
0.25
100
AcDbArc
 50
179.9936262892
 51
243.4636194741
  0
ARC
  5
68E
100
AcDbEntity
  8
RACCORDO
100
AcDbCircle
 62
7
  6
CONTINUOUS
 10
137.3160817996
 20
121.1869321329
 40
0.25
100
AcDbArc
 50
359.9841028144
 51
63.4349488229
  0
ARC
  5
68F
100
AcDbEntity
  8
RACCORDO
100
AcDbCircle
 62
7
  6
CONTINUOUS
 10
137.3160817996
 20
120.8394006162
 40
0.25
100
AcDbArc
 50
320.6056473365
 51
0.0269521925
  0
ARC
  5
690
100
AcDbEntity
  8
RACCORDO
100
AcDbCircle
 62
7
  6
CONTINUOUS
 10
135.9787556391
 20
121.8555952132
 40
0.25
100
AcDbArc
 50
63.4349488229
 51
116.0140441013
  0
ARC
  5
691
100
AcDbEntity
  8
RACCORDO
100
AcDbCircle
 62
7
  6
CONTINUOUS
 10
133.8636060359
 20
120.7842920886
 40
0.25
100
AcDbArc
 50
117.1586821941
 51
180.0162107077
  0
ARC
  5
692
100
AcDbEntity
  8
RACCORDO
100
AcDbCircle
 62
7
  6
CONTINUOUS
 10
133.8636060359
 20
120.4443181545
 40
0.25
100
AcDbArc
 50
179.9936262892
 51
243.4636194741
  0
ARC
  5
693
100
AcDbEntity
  8
RACCORDO
100
AcDbCircle
 62
7
  6
CONTINUOUS
 10
135.1885907157
 20
119.7818258146
 40
0.25
100
AcDbArc
 50
243.4329480668
 51
258.2060367178
  0
ARC
  5
694
100
AcDbEntity
  8
0
100
AcDbCircle
 62
7
  6
CONTINUOUS
 10
148.5152445798
 20
91.0821349331
 40
0.2
100
AcDbArc
 50
298.3478796169
 51
359.9815705153
  0
ARC
  5
695
100
AcDbEntity
  8
0
100
AcDbCircle
 62
7
  6
CONTINUOUS
 10
148.5152445798
 20
93.2188625896
 40
0.2
100
AcDbArc
 50
0.0272462907
 51
57.8013475441
  0
ELLIPSE
  5
696
100
AcDbEntity
  8
0
100
AcDbEllipse
 62
7
  6
CONTINUOUS
 10
145.6658027302
 20
109.5585639738
 30
0.0
 11
-0.2230998035
 21
0.4477110033
 31
0.0
 40
0.6127700112
 41
-2.2535417632
 42
-0.6836588249
  0
ELLIPSE
  5
697
100
AcDbEntity
  8
0
100
AcDbEllipse
 62
7
  6
CONTINUOUS
 10
145.6658027302
 20
72.2178638614
 30
0.0
 11
-0.2234618187
 21
0.4480306886
 31
0.0
 40
0.6116748051
 41
-3.1815309129
 42
-2.2548620396
  0
ELLIPSE
  5
698
100
AcDbEntity
  8
0
100
AcDbEllipse
 62
7
  6
CONTINUOUS
 10
130.7403045457
 20
117.0213130661
 30
0.0
 11
-0.2234618187
 21
0.4480306886
 31
0.0
 40
0.6116748051
 41
-0.6831523243
 42
0.039937946
  0
ELLIPSE
  5
699
100
AcDbEntity
  8
0
100
AcDbEllipse
 62
7
  6
CONTINUOUS
 10
151.1994454839
 20
110.7441054219
 30
0.0
 11
0.1379861541
 21
0.2664038768
 31
0.0
 40
0.6229838795
 41
-2.4305339389
 42
-0.8771909047
  0
ELLIPSE
  5
69A
100
AcDbEntity
  8
0
100
AcDbEllipse
 62
7
  6
CONTINUOUS
 10
151.1994454839
 20
78.7877680222
 30
0.0
 11
0.1379861541
 21
0.2664038768
 31
0.0
 40
0.6229838795
 41
-2.4305339389
 42
-0.8771909047
  0
ELLIPSE
  5
69B
100
AcDbEntity
  8
0
100
AcDbEllipse
 62
7
  6
CONTINUOUS
 10
150.1449566095
 20
76.2082617459
 30
0.0
 11
0.1379861541
 21
0.2664038768
 31
0.0
 40
0.6229838795
 41
0.0088863292
 42
0.6761521296
  0
ELLIPSE
  5
69C
100
AcDbEntity
  8
0
100
AcDbEllipse
 62
7
  6
CONTINUOUS
 10
150.1449566095
 20
108.1645991456
 30
0.0
 11
0.1379861541
 21
0.2664038768
 31
0.0
 40
0.6229838795
 41
0.0088863292
 42
0.6761521296
  0
ELLIPSE
  5
69D
100
AcDbEntity
  8
RACCORDO
100
AcDbEllipse
 62
7
  6
CONTINUOUS
 10
151.0758173398
 20
74.5108041388
 30
0.0
 11
-0.2146987756
 21
0.4293118409
 31
0.0
 40
0.6124778111
 41
-3.1449090043
 42
-2.255529033
  0
ELLIPSE
  5
69E
100
AcDbEntity
  8
RACCORDO
100
AcDbEllipse
 62
7
  6
CONTINUOUS
 10
151.0758173398
 20
112.4622108046
 30
0.0
 11
-0.2147564163
 21
0.4293631087
 31
0.0
 40
0.6122950388
 41
-2.2557482655
 42
-0.6847996396
  0
ELLIPSE
  5
69F
100
AcDbEntity
  8
RACCORDO
100
AcDbEllipse
 62
7
  6
CONTINUOUS
 10
155.5866379659
 20
116.1278982557
 30
0.0
 11
0.499996712
 21
0.0035883639
 31
0.0
 40
0.5053247124
 41
-0.7715714568
 42
-0.0036265857
  0
ELLIPSE
  5
6A0
100
AcDbEntity
  8
RACCORDO
100
AcDbEllipse
 62
7
  6
CONTINUOUS
 10
143.9749493833
 20
121.8582362527
 30
0.0
 11
0.9987332359
 21
0.6172510855
 31
0.0
 40
0.0815198604
 41
0.0503394951
 42
0.7263320369
  0
ELLIPSE
  5
6A1
100
AcDbEntity
  8
RACCORDO
100
AcDbEllipse
 62
7
  6
CONTINUOUS
 10
155.7656816717
 20
79.0482025643
 30
0.0
 11
0.9987332359
 21
0.6172510855
 31
0.0
 40
0.0815198604
 41
-2.3978073241
 42
-1.2985018509
  0
ELLIPSE
  5
6A2
100
AcDbEntity
  8
RACCORDO
100
AcDbEllipse
 62
7
  6
CONTINUOUS
 10
145.6799470201
 20
72.1934474386
 30
0.0
 11
-0.2145233459
 21
0.4301094611
 31
0.0
 40
0.6116748051
 41
2.9289089904
 42
4.0283232676
  0
ELLIPSE
  5
6A3
100
AcDbEntity
  8
0
100
AcDbEllipse
 62
7
  6
CONTINUOUS
 10
151.1994454839
 20
75.6810173088
 30
0.0
 11
0.1379861541
 21
0.2664038768
 31
0.0
 40
0.6229838795
 41
5.4059944025
 42
6.9593374368
  0
ELLIPSE
  5
6A4
100
AcDbEntity
  8
0
100
AcDbEllipse
 62
7
  6
CONTINUOUS
 10
151.1994454839
 20
107.6373547084
 30
0.0
 11
0.1379861541
 21
0.2664038768
 31
0.0
 40
0.6229838795
 41
5.4059944025
 42
6.9593374368
  0
ELLIPSE
  5
6A5
100
AcDbEntity
  8
0
100
AcDbEllipse
 62
7
  6
CONTINUOUS
 10
145.8779670782
 20
89.2232596328
 30
0.0
 11
-0.0894323102
 21
0.1788913307
 31
0.0
 40
0.6125552124
 41
-2.255296188
 42
-2.1206965195
  0
ELLIPSE
  5
6A6
100
AcDbEntity
  8
RACCORDO
100
AcDbEllipse
 62
7
  6
CONTINUOUS
 10
130.7261602558
 20
117.0457294888
 30
0.0
 11
-0.2145233459
 21
0.4301094611
 31
0.0
 40
0.6116748051
 41
5.6000329829
 42
6.4375172169
  0
ELLIPSE
  5
6A7
100
AcDbEntity
  8
RACCORDO
100
AcDbEllipse
 62
7
  6
CONTINUOUS
 10
145.6799470201
 20
109.5688361067
 30
0.0
 11
-0.2141758113
 21
0.4298025632
 31
0.0
 40
0.6127700112
 41
4.029643544
 42
5.5995264823
  0
ELLIPSE
  5
6A8
100
AcDbEntity
  8
DRAFT
100
AcDbEllipse
 62
7
  6
CONTINUOUS
 10
145.3448321279
 20
119.3111118023
 30
0.0
 11
0.9999938762
 21
-0.0070751823
 31
0.0
 40
0.4946372042
 41
1.3124965945
 42
2.3596941457
  0
ELLIPSE
  5
6A9
100
AcDbEntity
  8
DRAFT
100
AcDbEllipse
 62
7
  6
CONTINUOUS
 10
145.3759872702
 20
120.3252914897
 30
0.0
 11
0.4279673669
 21
-0.0030279657
 31
0.0
 40
0.4946372042
 41
-0.7818985079
 42
0.0034996575
  0
ELLIPSE
  5
6AA
100
AcDbEntity
  8
DRAFT
100
AcDbEllipse
 62
7
  6
CONTINUOUS
 10
150.9309756993
 20
117.5477972751
 30
0.0
 11
0.4279673669
 21
-0.0030279657
 31
0.0
 40
0.4946372042
 41
-0.7760807437
 42
0.0034996495
  0
ELLIPSE
  5
6AB
100
AcDbEntity
  8
RACCORDO
100
AcDbEllipse
 62
7
  6
CONTINUOUS
 10
155.7656816717
 20
115.9628701085
 30
0.0
 11
-0.7417913999
 21
1.2002436976
 31
0.0
 40
0.5587454355
 41
5.1248137075
 42
6.2241191807
  0
ELLIPSE
  5
6AC
100
AcDbEntity
  8
RACCORDO
100
AcDbEllipse
 62
7
  6
CONTINUOUS
 10
155.5866379659
 20
78.8389822454
 30
0.0
 11
0.499366618
 21
0.3086255427
 31
0.0
 40
0.0815198604
 41
6.1080157147
 42
7.0007906979
  0
ELLIPSE
  5
6AD
100
AcDbEntity
  8
0
100
AcDbEllipse
 62
7
  6
CONTINUOUS
 10
145.2013478749
 20
114.739357843
 30
0.0
 11
0.4998587701
 21
0.0223649649
 31
0.0
 40
0.5313301283
 41
-2.3799630874
 42
-0.8149845248
  0
ELLIPSE
  5
6AE
100
AcDbEntity
  8
0
100
AcDbEllipse
 62
7
  6
CONTINUOUS
 10
139.6900407752
 20
117.4950113929
 30
0.0
 11
0.4998587701
 21
0.0223649649
 31
0.0
 40
0.5313301283
 41
3.1178240218
 42
3.9032222197
  0
ELLIPSE
  5
6AF
100
AcDbEntity
  8
RACCORDO
100
AcDbEllipse
 62
7
  6
CONTINUOUS
 10
155.5866379659
 20
117.0582409145
 30
0.0
 11
-0.3708957
 21
0.6001218488
 31
0.0
 40
0.5587454355
 41
-3.1744788413
 42
-2.2817038581
  0
ELLIPSE
  5
6B0
100
AcDbEntity
  8
RACCORDO
100
AcDbEllipse
 62
7
  6
CONTINUOUS
 10
134.5665989902
 20
119.4923623484
 30
0.0
 11
0.249929385
 21
0.0111824824
 31
0.0
 40
0.5313301283
 41
3.1178240563
 42
3.9032222197
  0
ELLIPSE
  5
6B1
100
AcDbEntity
  8
RACCORDO
100
AcDbEllipse
 62
7
  6
CONTINUOUS
 10
135.8998113238
 20
118.8257561815
 30
0.0
 11
0.249929385
 21
0.0111824824
 31
0.0
 40
0.5313301283
 41
-2.3799630874
 42
-0.8149845248
  0
ELLIPSE
  5
6B2
100
AcDbEntity
  8
RACCORDO
100
AcDbEllipse
 62
7
  6
CONTINUOUS
 10
147.9309171546
 20
112.8102032661
 30
0.0
 11
0.249929385
 21
0.0111824824
 31
0.0
 40
0.5313301283
 41
3.1178240563
 42
3.9032222197
  0
ELLIPSE
  5
6B3
100
AcDbEntity
  8
RACCORDO
100
AcDbEllipse
 62
7
  6
CONTINUOUS
 10
149.2641294882
 20
112.1435970993
 30
0.0
 11
0.249929385
 21
0.0111824824
 31
0.0
 40
0.5313301283
 41
-2.3799630874
 42
-0.8149845248
  0
ELLIPSE
  5
6B4
100
AcDbEntity
  8
0
100
AcDbEllipse
 62
7
  6
CONTINUOUS
 10
145.8779670782
 20
92.3410038544
 30
0.0
 11
-0.0894803643
 21
0.1789340454
 31
0.0
 40
0.6121897086
 41
-2.3903344612
 42
-2.2557347926
  0
ELLIPSE
  5
6B5
100
AcDbEntity
  8
0
100
AcDbEllipse
 62
7
  6
CONTINUOUS
 10
167.6600906424
 20
115.5494031926
 30
0.0
 11
0.6551573906
 21
1.3494307875
 31
0.0
 40
0.6032348528
 41
-2.8833976749
 42
-2.4813618104
  0
ELLIPSE
  5
6B6
100
AcDbEntity
  8
RACCORDO
100
AcDbEllipse
 62
7
  6
CONTINUOUS
 10
149.9761661203
 20
109.3402548302
 30
0.0
 11
-0.894612936
 21
1.7887945813
 31
0.0
 40
0.6124635976
 41
-2.2555607096
 42
-1.470288718
  0
ELLIPSE
  5
6B7
100
AcDbEntity
  8
RACCORDO
100
AcDbEllipse
 62
7
  6
CONTINUOUS
 10
149.9761661203
 20
78.7324113327
 30
0.0
 11
-0.894811907
 21
1.788971565
 31
0.0
 40
0.6123121697
 41
-3.0410143285
 42
-2.2557423369
  0
ELLIPSE
  5
6B8
100
AcDbEntity
  8
0
100
AcDbEllipse
 62
7
  6
CONTINUOUS
 10
174.2405912591
 20
117.7885571156
 30
0.0
 11
0.4994715891
 21
-0.1816140031
 31
0.0
 40
0.1265382399
 41
-0.7045131476
 42
0.0390729785
  0
ELLIPSE
  5
6B9
100
AcDbEntity
  8
0
100
AcDbEllipse
 62
7
  6
CONTINUOUS
 10
174.2405912591
 20
108.6358793862
 30
0.0
 11
0.4994623022
 21
-0.1808128221
 31
0.0
 40
0.1282103573
 41
-0.7041107982
 42
0.0379337938
  0
ELLIPSE
  5
6BA
100
AcDbEntity
  8
0
100
AcDbEllipse
 62
7
  6
CONTINUOUS
 10
174.2405912591
 20
112.9660064051
 30
0.0
 11
0.4994623022
 21
-0.1808128221
 31
0.0
 40
0.1282103573
 41
-0.7041107982
 42
0.0379337938
  0
ENDSEC
  0
SECTION
  2
OBJECTS
  0
DICTIONARY
  5
C
100
AcDbDictionary
280
0
281
1
  3
ACAD_GROUP
350
D
  3
ACAD_MLINESTYLE
350
17
  3
ACAD_LAYOUT
350
1A
  3
ACAD_PLOTSETTINGS
350
19
  3
ACAD_PLOTSTYLENAME
350
E
  0
DICTIONARY
  5
D
102
{ACAD_REACTORS
330
C
102
}
100
AcDbDictionary
280
0
281
1
  0
ACDBDICTIONARYWDFLT
  5
E
102
{ACAD_REACTORS
330
C
102
}
100
AcDbDictionary
281
1
  3
Normal
350
F
100
AcDbDictionaryWithDefault
340
F
  0
DICTIONARY
  5
17
102
{ACAD_REACTORS
330
C
102
}
100
AcDbDictionary
280
0
281
1
  3
Standard
350
18
  0
DICTIONARY
  5
19
102
{ACAD_REACTORS
330
C
102
}
100
AcDbDictionary
281
1
  0
DICTIONARY
  5
1A
102
{ACAD_REACTORS
330
C
102
}
100
AcDbDictionary
281
1
  3
Model
350
6BB
  3
Layout1
350
6BC
  0
ACDBPLACEHOLDER
  5
F
102
{ACAD_REACTORS
330
E
102
}
  0
MLINESTYLE
  5
18
102
{ACAD_REACTORS
330
17
102
}
100
AcDbMlineStyle
  2
STANDARD
 70
0
  3

 62
256
 51
90.0
 52
90.0
 71
2
 49
0.5
 62
256
  6
BYLAYER
 49
-0.5
 62
256
  6
BYLAYER
  0
LAYOUT
  5
6BB
102
{ACAD_REACTORS
330
1A
102
}
100
AcDbPlotSettings
  1

  2
none_device
  4
ISO_A4_(297.00_x_210.00_MM)
  6

 40
0.0
 41
0.0
 42
0.0
 43
0.0
 44
297.0
 45
210.0
 46
0.0
 47
0.0
 48
0.0
 49
0.0
140
0.0
141
0.0
142
1.0
143
1.0
 70
1024
 72
1
 73
0
 74
0
  7

 75
0
147
1.0
148
0.0
149
0.0
100
AcDbLayout
  1
Model
 70
0
 71
0
 10
0.0
 20
0.0
 11
297.0
 21
210.0
 12
0.0
 22
0.0
 32
0.0
 14
0.0
 24
0.0
 34
0.0
 15
0.0
 25
0.0
 35
0.0
146
0.0
 13
0.0
 23
0.0
 33
0.0
 16
1.0
 26
0.0
 36
0.0
 17
0.0
 27
1.0
 37
0.0
 76
0
330
305
345
0
346
0
  0
LAYOUT
  5
6BC
102
{ACAD_REACTORS
330
1A
102
}
100
AcDbPlotSettings
  1

  2
none_device
  4
ISO_A4_(297.00_x_210.00_MM)
  6

 40
0.0
 41
0.0
 42
0.0
 43
0.0
 44
297.0
 45
210.0
 46
0.0
 47
0.0
 48
0.0
 49
0.0
140
0.0
141
0.0
142
1.0
143
1.0
 70
0
 72
1
 73
0
 74
0
  7

 75
0
147
1.0
148
0.0
149
0.0
100
AcDbLayout
  1
Layout1
 70
0
 71
1
 10
0.0
 20
0.0
 11
297.0
 21
210.0
 12
0.0
 22
0.0
 32
0.0
 14
0.0
 24
0.0
 34
0.0
 15
0.0
 25
0.0
 35
0.0
146
0.0
 13
0.0
 23
0.0
 33
0.0
 16
1.0
 26
0.0
 36
0.0
 17
0.0
 27
1.0
 37
0.0
 76
0
330
306
345
0
346
0
  0
ENDSEC
  0
EOF
