0
SECTION
2
HEADER
9
$ACADVER
1
AC1015
9
$DWGCODEPAGE
3
ANSI_1252
9
$EXTMAX
10
431.8000000000
20
558.8000000000
30
0.0000000000
9
$EXTMIN
10
0.0000000000
20
0.0000000000
30
0.0000000000
9
$LIMMIN
10
0.0000000000
20
0.0000000000
9
$LIMMAX
10
431.8000000000
20
558.8000000000
9
$VIEWCTR
10
215.9000000000
20
279.4000000000
9
$VIEWSIZE
40
558.8000000000
9
$CLAYER
8
0
9
$LTSCALE
40
36.4254814815
9
$CELTYPE
6
BYLAYER
9
$DIMSCALE
40
1
9
$DIMASZ
40
3.0000000000
9
$DIMEXO
40
4.1392592593
9
$DIMDLI
40
25.1666962963
9
$DIMEXE
40
11.9210666667
9
$DIMCEN
40
5.9605333333
9
$DIMLFAC
40
1.0000000000
9
$DIMBLK
1
_FILLED
9
$DIMTXT
40
3.0000000000
9
$DIMTOL
70
1
9
$DIMLIM
70
0
9
$DIMTFAC
40
1.0000000000
9
$DIMTP
40
0.0100000000
9
$DIMTM
40
0.0100000000
9
$PDMODE
70
3
9
$PDSIZE
40
3.0000000000
9
$HANDSEED
5
404
9
$MEASUREMENT
70
1
9
$INSUNITS
70
4
0
ENDSEC
0
SECTION
2
CLASSES
0
CLASS
1
ACDBDICTIONARYWDFLT
2
AcDbDictionaryWithDefault
3
AutoCAD 2000
90
0
280
0
281
0
0
CLASS
1
ACDBPLACEHOLDER
2
AcDbPlaceHolder
3
AutoCAD 2000
90
0
280
0
281
0
0
CLASS
1
LAYOUT
2
AcDbLayout
3
AutoCAD 2000
90
0
280
0
281
0
0
ENDSEC
0
SECTION
2
TABLES
0
TABLE
2
VPORT
5
8
100
AcDbSymbolTable
70
2
0
VPORT
5
1F4
100
AcDbSymbolTableRecord
100
AcDbViewportTableRecord
2
*ACTIVE
70
0
10
0.0
20
0.0
11
1.0
21
1.0
12
215.9000000000
22
279.4000000000
13
0.0
23
0.0
14
1.0
24
1.0
15
0.0
25
0.0
16
0.0
26
0.0
36
1.0
17
0.0
27
0.0
37
0.0
40
558.8000000000
41
0.7727272727
42
50.0
43
0.0
44
0.0
50
0.0
51
0.0
71
0
72
100
73
1
74
1
75
0
76
0
77
0
78
0
0
ENDTAB
0
TABLE
2
LTYPE
5
5
100
AcDbSymbolTable
70
6
0
LTYPE
5
14
100
AcDbSymbolTableRecord
100
AcDbLinetypeTableRecord
2
BYBLOCK
70
0
3

72
65
73
0
40
0.0
0
LTYPE
5
15
100
AcDbSymbolTableRecord
100
AcDbLinetypeTableRecord
2
BYLAYER
70
0
3

72
65
73
0
40
0.0
0
LTYPE
5
16
100
AcDbSymbolTableRecord
100
AcDbLinetypeTableRecord
2
CONTINUOUS
70
64
3
Solid line
72
65
73
0
40
0
0
LTYPE
5
1F5
100
AcDbSymbolTableRecord
100
AcDbLinetypeTableRecord
2
CENTER
70
64
3
____ _ ____ _ ____ _ ____ _ ____ _ ____ _ ____
72
65
73
4
40
0.6
49
0.375
74
0
49
-0.075
74
0
49
0.075
74
0
49
-0.075
74
0
0
LTYPE
5
1F6
100
AcDbSymbolTableRecord
100
AcDbLinetypeTableRecord
2
HIDDEN
70
64
3
- - - - - - - - - - - - - - - - - - - -
72
65
73
2
40
0.2
49
0.1
74
0
49
-0.1
74
0
0
LTYPE
5
1F7
100
AcDbSymbolTableRecord
100
AcDbLinetypeTableRecord
2
PHANTOM
70
64
3
_____ _ _ _____ _ _ _____ _ _ _____
72
65
73
6
40
0.8
49
0.45
74
0
49
-0.05
74
0
49
0.1
74
0
49
-0.05
74
0
49
0.1
74
0
49
-0.05
74
0
0
LTYPE
5
1F8
100
AcDbSymbolTableRecord
100
AcDbLinetypeTableRecord
2
DOT
70
64
3
. . . . . . . . . . . . . . . . . . . .
72
65
73
2
40
0.2
49
0.1
74
0
49
-0.1
74
0
0
LTYPE
5
1F9
100
AcDbSymbolTableRecord
100
AcDbLinetypeTableRecord
2
DASHED
70
64
3
- - - - - - - - - - - - - - - - - - - -
72
65
73
2
40
0.2
49
0.1
74
0
49
-0.1
74
0
0
ENDTAB
0
TABLE
2
LAYER
5
2
100
AcDbSymbolTable
70
36
0
LAYER
5
10
100
AcDbSymbolTableRecord
100
AcDbLayerTableRecord
2
0
70
0
62
7
6
CONTINUOUS
370
-3
390
F
0
LAYER
5
1FA
100
AcDbSymbolTableRecord
100
AcDbLayerTableRecord
2
DEFAULT_1
70
0
62
7
6
CENTER
370
-3
390
F
0
LAYER
5
1FB
100
AcDbSymbolTableRecord
100
AcDbLayerTableRecord
2
DEFAULT_2
70
0
62
9
6
HIDDEN
370
-3
390
F
0
LAYER
5
1FC
100
AcDbSymbolTableRecord
100
AcDbLayerTableRecord
2
DEFAULT_3
70
0
62
7
6
PHANTOM
370
-3
390
F
0
LAYER
5
1FD
100
AcDbSymbolTableRecord
100
AcDbLayerTableRecord
2
_BLACK_HOLE
70
0
62
7
6
CONTINUOUS
370
-3
390
F
0
LAYER
5
1FE
100
AcDbSymbolTableRecord
100
AcDbLayerTableRecord
2
ASSI
70
0
62
7
6
CONTINUOUS
370
-3
390
F
0
LAYER
5
1FF
100
AcDbSymbolTableRecord
100
AcDbLayerTableRecord
2
COORDINATE
70
0
62
7
6
CONTINUOUS
370
-3
390
F
0
LAYER
5
200
100
AcDbSymbolTableRecord
100
AcDbLayerTableRecord
2
COORD_ORIGINE
70
0
62
7
6
CONTINUOUS
370
-3
390
F
0
LAYER
5
201
100
AcDbSymbolTableRecord
100
AcDbLayerTableRecord
2
COSMETICHE
70
0
62
7
6
CONTINUOUS
370
-3
390
F
0
LAYER
5
202
100
AcDbSymbolTableRecord
100
AcDbLayerTableRecord
2
CURVE
70
0
62
7
6
CONTINUOUS
370
-3
390
F
0
LAYER
5
203
100
AcDbSymbolTableRecord
100
AcDbLayerTableRecord
2
DRAFT
70
0
62
7
6
CONTINUOUS
370
-3
390
F
0
LAYER
5
204
100
AcDbSymbolTableRecord
100
AcDbLayerTableRecord
2
IMPORT
70
0
62
7
6
CONTINUOUS
370
-3
390
F
0
LAYER
5
205
100
AcDbSymbolTableRecord
100
AcDbLayerTableRecord
2
LAY0001
70
0
62
7
6
CONTINUOUS
370
-3
390
F
0
LAYER
5
206
100
AcDbSymbolTableRecord
100
AcDbLayerTableRecord
2
NOTE
70
0
62
7
6
CONTINUOUS
370
-3
390
F
0
LAYER
5
207
100
AcDbSymbolTableRecord
100
AcDbLayerTableRecord
2
PIANI
70
0
62
7
6
CONTINUOUS
370
-3
390
F
0
LAYER
5
208
100
AcDbSymbolTableRecord
100
AcDbLayerTableRecord
2
PIANI_DI_RIFERIMENTO
70
0
62
7
6
CONTINUOUS
370
-3
390
F
0
LAYER
5
209
100
AcDbSymbolTableRecord
100
AcDbLayerTableRecord
2
PIANI_ORIGINE
70
0
62
7
6
CONTINUOUS
370
-3
390
F
0
LAYER
5
20A
100
AcDbSymbolTableRecord
100
AcDbLayerTableRecord
2
PIANI_RIFERIMENTO
70
0
62
7
6
CONTINUOUS
370
-3
390
F
0
LAYER
5
20B
100
AcDbSymbolTableRecord
100
AcDbLayerTableRecord
2
PIANI_SFORMO
70
0
62
7
6
CONTINUOUS
370
-3
390
F
0
LAYER
5
20C
100
AcDbSymbolTableRecord
100
AcDbLayerTableRecord
2
PUNTI
70
0
62
7
6
CONTINUOUS
370
-3
390
F
0
LAYER
5
20D
100
AcDbSymbolTableRecord
100
AcDbLayerTableRecord
2
RACCORDO
70
0
62
7
6
CONTINUOUS
370
-3
390
F
0
LAYER
5
20E
100
AcDbSymbolTableRecord
100
AcDbLayerTableRecord
2
SMUSSO
70
0
62
7
6
CONTINUOUS
370
-3
390
F
0
LAYER
5
20F
100
AcDbSymbolTableRecord
100
AcDbLayerTableRecord
2
SUPERFICI
70
0
62
7
6
CONTINUOUS
370
-3
390
F
0
LAYER
5
210
100
AcDbSymbolTableRecord
100
AcDbLayerTableRecord
2
TRASH
70
0
62
7
6
CONTINUOUS
370
-3
390
F
0
LAYER
5
211
100
AcDbSymbolTableRecord
100
AcDbLayerTableRecord
2
XSEC_DATUMS
70
0
62
7
6
CONTINUOUS
370
-3
390
F
0
ENDTAB
0
TABLE
2
STYLE
5
3
100
AcDbSymbolTable
70
1
0
STYLE
5
11
100
AcDbSymbolTableRecord
100
AcDbTextStyleTableRecord
2
STANDARD
70
0
40
0.0
41
0.8000000000
50
0.0
71
0
42
0.2
3
txt
4

0
ENDTAB
0
TABLE
2
VIEW
5
6
100
AcDbSymbolTable
70
0
0
ENDTAB
0
TABLE
2
UCS
5
7
100
AcDbSymbolTable
70
0
0
ENDTAB
0
TABLE
2
APPID
5
9
100
AcDbSymbolTable
70
1
0
APPID
5
212
100
AcDbSymbolTableRecord
100
AcDbRegAppTableRecord
2
ACAD
70
0
0
ENDTAB
0
TABLE
2
BLOCK_RECORD
5
1
100
AcDbSymbolTable
70
0
0
BLOCK_RECORD
5
1F
100
AcDbSymbolTableRecord
100
AcDbBlockTableRecord
2
*MODEL_SPACE
0
BLOCK_RECORD
5
1B
100
AcDbSymbolTableRecord
100
AcDbBlockTableRecord
2
*PAPER_SPACE
0
ENDTAB
0
TABLE
2
DIMSTYLE
5
A
100
AcDbSymbolTable
70
1
100
AcDbDimStyleTable
71
0
0
DIMSTYLE
105
213
100
AcDbSymbolTableRecord
100
AcDbDimStyleTableRecord
2
STANDARD
70
0
3

4

40
1.0
41
3.0000000000
42
0.0625
43
0.38
44
0.18
45
0.0
46
0.0
47
0.0100000000
48
0.0100000000
140
3.0000000000
141
0.09
142
0.0
143
25.4
144
1.0000000000
145
0.0
146
1.0000000000
147
0.09
71
1
72
0
73
0
74
0
75
0
76
0
77
1
78
8
170
0
171
2
172
0
173
0
174
0
175
0
176
0
177
0
178
0
270
2
271
2
272
2
273
2
274
2
275
0
280
0
281
0
282
0
283
1
284
8
285
0
286
0
287
3
288
0
340
11
0
ENDTAB
0
ENDSEC
0
SECTION
2
BLOCKS
0
BLOCK
5
20
100
AcDbEntity
8
0
100
AcDbBlockBegin
2
*MODEL_SPACE
70
0
10
0.0
20
0.0
30
0.0
3
*MODEL_SPACE
1

0
ENDBLK
5
21
100
AcDbEntity
8
0
100
AcDbBlockEnd
0
BLOCK
5
1C
100
AcDbEntity
8
0
100
AcDbBlockBegin
2
*PAPER_SPACE
70
0
10
0.0
20
0.0
30
0.0
3
*PAPER_SPACE
1

0
ENDBLK
5
1D
100
AcDbEntity
8
0
100
AcDbBlockEnd
0
ENDSEC
0
SECTION
2
ENTITIES
0
LWPOLYLINE
5
214
100
AcDbEntity
8
0
100
AcDbPolyline
62
0
6
CONTINUOUS
90
10
70
0
10
-16.4790469312
20
21.0056388248
10
-16.4919392885
20
20.9977522320
10
-16.5064550905
20
20.9879332366
10
-16.5205050870
20
20.9773883412
10
-16.5340797755
20
20.9661171513
10
-16.5471397419
20
20.9541421232
10
-16.5596445294
20
20.9414908191
10
-16.5715802346
20
20.9281651650
10
-16.5829092078
20
20.9141935197
10
-16.5935965760
20
20.8996069485
0
LWPOLYLINE
5
215
100
AcDbEntity
8
0
100
AcDbPolyline
62
0
6
CONTINUOUS
90
19
70
0
10
-19.7006118739
20
19.0623685286
10
-19.7263089911
20
19.0470069994
10
-19.8150352160
20
18.9880064177
10
-19.9003382205
20
18.9220525237
10
-19.9820637352
20
18.8495732284
10
-20.0600587862
20
18.7709990428
10
-20.1340158559
20
18.6868506788
10
-20.2037520746
20
18.5975306597
10
-20.2690300189
20
18.5034604768
10
-20.3293919834
20
18.4053592754
10
-20.3846200843
20
18.3036867265
10
-20.4344568285
20
18.1988805941
10
-20.4784928147
20
18.0917702180
10
-20.5165144952
20
17.9828378723
10
-20.5482710848
20
17.8725321244
10
-20.5734652065
20
17.7615915777
10
-20.5918614334
20
17.6504920317
10
-20.6032357734
20
17.5395826491
10
-20.6049773625
20
17.5114988086
0
LINE
5
216
100
AcDbEntity
8
0
100
AcDbLine
62
0
6
CONTINUOUS
10
-16.4790828383
20
21.0056183453
11
-15.3129978885
21
21.6855526762
0
LINE
5
217
100
AcDbEntity
8
0
100
AcDbLine
62
0
6
CONTINUOUS
10
-19.7007899886
20
19.0622748474
11
-16.6614996801
21
20.8344594749
0
LINE
5
218
100
AcDbEntity
8
0
100
AcDbLine
62
9
6
CONTINUOUS
10
-16.2688883224
20
20.9978302416
11
-15.3130524471
21
21.5551701047
0
LINE
5
219
100
AcDbEntity
8
0
100
AcDbLine
62
9
6
CONTINUOUS
10
-19.4674359414
20
19.0535074540
11
-16.4274181778
21
20.8261162545
0
LINE
5
21A
100
AcDbEntity
8
0
100
AcDbLine
62
0
6
CONTINUOUS
10
-14.2947585888
20
23.8232908702
11
-15.8779302838
21
23.0110938229
0
LINE
5
21B
100
AcDbEntity
8
0
100
AcDbLine
62
9
6
CONTINUOUS
10
-14.1820880145
20
23.8166299451
11
-15.7648446176
21
23.0046458478
0
LINE
5
21C
100
AcDbEntity
8
0
100
AcDbLine
62
9
6
CONTINUOUS
10
-12.8385791470
20
23.1448755114
11
-14.4398599378
21
22.3421535079
0
LINE
5
21D
100
AcDbEntity
8
0
100
AcDbLine
62
9
6
CONTINUOUS
10
-12.6618054433
20
22.8399859726
11
-14.2630862341
21
22.0372639690
0
LINE
5
21E
100
AcDbEntity
8
0
100
AcDbLine
62
0
6
CONTINUOUS
10
-14.2930202033
20
23.8241601030
11
-14.2947566151
21
23.8232918828
0
LINE
5
21F
100
AcDbEntity
8
0
100
AcDbLine
62
9
6
CONTINUOUS
10
-12.3103119753
20
23.4083143314
11
-12.8385791470
21
23.1448755114
0
LINE
5
220
100
AcDbEntity
8
0
100
AcDbLine
62
9
6
CONTINUOUS
10
-12.1335382716
20
23.1034247926
11
-12.6618054433
21
22.8399859726
0
LINE
5
221
100
AcDbEntity
8
0
100
AcDbLine
62
0
6
CONTINUOUS
10
-13.7581502469
20
24.0847122027
11
-14.2930174377
21
23.8241614502
0
LINE
5
222
100
AcDbEntity
8
0
100
AcDbLine
62
9
6
CONTINUOUS
10
-13.6476381358
20
24.0769774117
11
-14.1820880145
21
23.8166299451
0
LWPOLYLINE
5
223
100
AcDbEntity
8
0
100
AcDbPolyline
62
0
6
CONTINUOUS
90
10
70
0
10
-1.1886632895
20
-25.1192238297
10
-1.1705511971
20
-25.1193560458
10
-1.1525622423
20
-25.1186032719
10
-1.1347444972
20
-25.1169779440
10
-1.1171409717
20
-25.1144952772
10
-1.0997862711
20
-25.1111716872
10
-1.0827234121
20
-25.1070284228
10
-1.0659938929
20
-25.1020900622
10
-1.0496298530
20
-25.0963810569
10
-1.0371839112
20
-25.0914281577
0
LWPOLYLINE
5
224
100
AcDbEntity
8
0
100
AcDbPolyline
62
0
6
CONTINUOUS
90
4
70
0
10
-1.2418340200
20
-25.1136744740
10
-1.2251010895
20
-25.1162704404
10
-1.2068595106
20
-25.1181973200
10
-1.1886632895
20
-25.1192238297
0
LINE
5
225
100
AcDbEntity
8
0
100
AcDbLine
62
9
6
CONTINUOUS
10
1.2307798928
20
-25.2260450860
11
0.7025127211
21
-25.1185945836
0
LWPOLYLINE
5
226
100
AcDbEntity
8
0
100
AcDbPolyline
62
0
6
CONTINUOUS
90
12
70
0
10
-5.2430467009
20
-26.4373075829
10
-5.1907340559
20
-26.4614560265
10
-5.1148263964
20
-26.4895594482
10
-5.0359339943
20
-26.5108950481
10
-4.9544673055
20
-26.5252314024
10
-4.8705821954
20
-26.5323659013
10
-4.7847329222
20
-26.5320564887
10
-4.6974155195
20
-26.5241394031
10
-4.6087016343
20
-26.5084056938
10
-4.5188370242
20
-26.4846005140
10
-4.4283859195
20
-26.4526087792
10
-4.4078119256
20
-26.4441937730
0
LINE
5
227
100
AcDbEntity
8
0
100
AcDbLine
62
0
6
CONTINUOUS
10
-20.0755877613
20
-19.0210400115
11
-5.2420628811
21
-26.4378024516
0
LINE
5
228
100
AcDbEntity
8
0
100
AcDbLine
62
9
6
CONTINUOUS
10
-20.4584202893
20
-18.2998303844
11
-5.6339215421
21
-25.7120797580
0
LINE
5
229
100
AcDbEntity
8
0
100
AcDbLine
62
0
6
CONTINUOUS
10
-2.5113014128
20
-26.0966605071
11
-1.1863167330
21
-26.7591528470
0
LINE
5
22A
100
AcDbEntity
8
0
100
AcDbLine
62
0
6
CONTINUOUS
10
-5.2431022702
20
-26.4372814653
11
-5.2420728398
21
-26.4377974722
0
LWPOLYLINE
5
22B
100
AcDbEntity
8
0
100
AcDbPolyline
62
0
6
CONTINUOUS
90
5
70
0
10
-16.5935965760
20
20.8996069485
10
-16.6036304936
20
20.8844054711
10
-16.6129775514
20
20.8686184496
10
-16.6216060033
20
20.8522805323
10
-16.6222186234
20
20.8509704614
0
LINE
5
22C
100
AcDbEntity
8
0
100
AcDbLine
62
9
6
CONTINUOUS
10
-12.6618054433
20
22.1141680350
11
-12.1335382716
21
22.7560684161
0
LINE
5
22D
100
AcDbEntity
8
0
100
AcDbLine
62
0
6
CONTINUOUS
10
-12.6618054433
20
22.0246680246
11
-12.1183052315
21
22.6850781574
0
LINE
5
22E
100
AcDbEntity
8
0
100
AcDbLine
62
0
6
CONTINUOUS
10
-12.6618054433
20
21.2378353116
11
-13.5541462309
21
20.7398817427
0
LINE
5
22F
100
AcDbEntity
8
0
100
AcDbLine
62
0
6
CONTINUOUS
10
-4.9392223817
20
24.3781393406
11
-11.2537627083
21
21.2333630361
0
LINE
5
230
100
AcDbEntity
8
0
100
AcDbLine
62
0
6
CONTINUOUS
10
4.7216097475
20
28.3008700859
11
-4.0343598886
21
24.1715790622
0
LINE
5
231
100
AcDbEntity
8
0
100
AcDbLine
62
9
6
CONTINUOUS
10
1.1411803333
20
-24.9064399909
11
0.7025127211
21
-24.8172142017
0
LINE
5
232
100
AcDbEntity
8
0
100
AcDbLine
62
9
6
CONTINUOUS
10
-2.5762747092
20
-25.9614420570
11
-1.2512900294
21
-26.6239343969
0
LINE
5
233
100
AcDbEntity
8
0
100
AcDbLine
62
9
6
CONTINUOUS
10
-1.2512900294
20
-26.2839604628
11
-2.5176336027
21
-25.6507886761
0
LINE
5
234
100
AcDbEntity
8
0
100
AcDbLine
62
9
6
CONTINUOUS
10
-1.1629016817
20
-26.0522662890
11
-2.2176765126
21
-25.5248788736
0
LINE
5
235
100
AcDbEntity
8
0
100
AcDbLine
62
9
6
CONTINUOUS
10
-7.7958442347
20
-22.3943490682
11
-9.2100577971
21
-21.6872422871
0
LINE
5
236
100
AcDbEntity
8
0
100
AcDbLine
62
0
6
CONTINUOUS
10
-0.5420603441
20
-25.3098475830
11
-1.0054991386
21
-25.0781281858
0
LWPOLYLINE
5
237
100
AcDbEntity
8
0
100
AcDbPolyline
62
0
6
CONTINUOUS
90
14
70
0
10
-20.6048845163
20
-18.1221620206
10
-20.5976773885
20
-18.2060434481
10
-20.5827147212
20
-18.3041644464
10
-20.5612516530
20
-18.3974031694
10
-20.5336541372
20
-18.4854477584
10
-20.5002099178
20
-18.5683263588
10
-20.4610460950
20
-18.6462030794
10
-20.4164618693
20
-18.7187961369
10
-20.3667827415
20
-18.7858783281
10
-20.3121266459
20
-18.8474475024
10
-20.2528670300
20
-18.9031501308
10
-20.1894485861
20
-18.9526882018
10
-20.1221039038
20
-18.9959656117
10
-20.0747844148
20
-19.0214395468
0
LWPOLYLINE
5
238
100
AcDbEntity
8
0
100
AcDbPolyline
62
0
6
CONTINUOUS
90
13
70
0
10
-20.6049821427
20
17.5116190332
10
-20.7522236784
20
14.5273219710
10
-20.8758686563
20
11.4835546427
10
-20.9720500635
20
8.4523746815
10
-21.0407502180
20
5.4342283279
10
-21.0819619333
20
2.4295062812
10
-21.0956802990
20
-0.5614218526
10
-21.0819014225
20
-3.5381716980
10
-21.0406271515
20
-6.5003621247
10
-20.9718602795
20
-9.4476280415
10
-20.8756059596
20
-12.3795850242
10
-20.7518798461
20
-15.2958035404
10
-20.6048955472
20
-18.1221126201
0
LINE
5
239
100
AcDbEntity
8
0
100
AcDbLine
62
0
6
CONTINUOUS
10
-11.0708151857
20
18.1478147584
11
-12.4850287480
21
17.3499350408
0
LINE
5
23A
100
AcDbEntity
8
0
100
AcDbLine
62
0
6
CONTINUOUS
10
-10.2929857250
20
20.9077168983
11
-9.9394443358
21
21.0890903231
0
LINE
5
23B
100
AcDbEntity
8
0
100
AcDbLine
62
0
6
CONTINUOUS
10
-3.9976904951
20
23.3857685713
11
-8.5959414515
21
21.1194072737
0
LINE
5
23C
100
AcDbEntity
8
0
100
AcDbLine
62
0
6
CONTINUOUS
10
-4.2825900863
20
22.0150261861
11
-3.9488144636
21
22.1783465413
0
LINE
5
23D
100
AcDbEntity
8
0
100
AcDbLine
62
0
6
CONTINUOUS
10
-1.8722564378
20
22.8446563686
11
-3.9290366957
21
21.8382494908
0
LINE
5
23E
100
AcDbEntity
8
0
100
AcDbLine
62
0
6
CONTINUOUS
10
-9.9394443358
20
21.0890903231
11
-4.6032209298
21
23.6885337886
0
LINE
5
23F
100
AcDbEntity
8
0
100
AcDbLine
62
9
6
CONTINUOUS
10
0.7025127211
20
-24.6871061848
11
1.1411803333
21
-24.9064399909
0
LINE
5
240
100
AcDbEntity
8
0
100
AcDbLine
62
0
6
CONTINUOUS
10
0.7025127211
20
-24.6834314423
11
1.1647811487
21
-24.9145656561
0
LINE
5
241
100
AcDbEntity
8
0
100
AcDbLine
62
9
6
CONTINUOUS
10
-9.3497950826
20
-18.5528169358
11
-7.9355815202
21
-19.2599237170
0
LINE
5
242
100
AcDbEntity
8
0
100
AcDbLine
62
0
6
CONTINUOUS
10
-5.0156938395
20
20.5858683128
11
-5.9456777058
21
19.7942754009
0
LINE
5
243
100
AcDbEntity
8
0
100
AcDbLine
62
9
6
CONTINUOUS
10
-4.9189861893
20
20.5857277494
11
-5.8846521313
21
19.7637626136
0
LINE
5
244
100
AcDbEntity
8
0
100
AcDbLine
62
0
6
CONTINUOUS
10
-4.9896968674
20
21.1089146062
11
-4.2825900863
21
21.4624679968
0
LINE
5
245
100
AcDbEntity
8
0
100
AcDbLine
62
0
6
CONTINUOUS
10
-2.5312521892
20
21.9845835548
11
-3.9290366957
21
21.2856913015
0
LINE
5
246
100
AcDbEntity
8
0
100
AcDbLine
62
0
6
CONTINUOUS
10
-5.0037076908
20
20.5937687157
11
-4.9423923978
21
20.6244263622
0
LINE
5
247
100
AcDbEntity
8
0
100
AcDbLine
62
9
6
CONTINUOUS
10
-4.9189861893
20
20.5857277494
11
-4.8529496729
21
20.6187460076
0
LINE
5
248
100
AcDbEntity
8
0
100
AcDbLine
62
0
6
CONTINUOUS
10
-11.8829813614
20
17.0489113475
11
-11.0708151857
21
17.4549944354
0
LINE
5
249
100
AcDbEntity
8
0
100
AcDbLine
62
0
6
CONTINUOUS
10
-4.8793631004
20
20.6533942761
11
-4.9426370455
21
20.6243007319
0
LWPOLYLINE
5
24A
100
AcDbEntity
8
0
100
AcDbPolyline
62
0
6
CONTINUOUS
90
3
70
0
10
-4.7292625947
20
20.7056028732
10
-4.8058251868
20
20.6815843509
10
-4.8793631004
20
20.6533942761
0
LINE
5
24B
100
AcDbEntity
8
0
100
AcDbLine
62
0
6
CONTINUOUS
10
-16.0138161783
20
22.7886573805
11
-16.0138161783
21
22.4486834463
0
LINE
5
24C
100
AcDbEntity
8
0
100
AcDbLine
62
9
6
CONTINUOUS
10
-15.9405928736
20
22.7002690328
11
-15.9405928736
21
22.3602950987
0
LINE
5
24D
100
AcDbEntity
8
0
100
AcDbLine
62
0
6
CONTINUOUS
10
-6.8281744985
20
16.0264944149
11
-8.2423880609
21
15.2286146973
0
LINE
5
24E
100
AcDbEntity
8
0
100
AcDbLine
62
0
6
CONTINUOUS
10
-4.0745838106
20
17.7985159411
11
-3.7169046613
21
17.9778204859
0
LINE
5
24F
100
AcDbEntity
8
0
100
AcDbLine
62
0
6
CONTINUOUS
10
-3.7169046613
20
17.9778204859
11
1.5575874078
21
20.6081296198
0
LINE
5
250
100
AcDbEntity
8
0
100
AcDbLine
62
0
6
CONTINUOUS
10
-3.7169046613
20
16.7653849206
11
1.6079294089
21
19.4017163525
0
LINE
5
251
100
AcDbEntity
8
0
100
AcDbLine
62
0
6
CONTINUOUS
10
0.9520569732
20
20.9108948371
11
-3.6461939832
21
18.6445335396
0
LINE
5
252
100
AcDbEntity
8
0
100
AcDbLine
62
0
6
CONTINUOUS
10
2.3703842493
20
20.7233360251
11
1.7315234728
21
20.4107339000
0
LINE
5
253
100
AcDbEntity
8
0
100
AcDbLine
62
9
6
CONTINUOUS
10
-14.6156081938
20
21.6978027588
11
-14.6156081938
21
22.0377766929
0
LINE
5
254
100
AcDbEntity
8
0
100
AcDbLine
62
9
6
CONTINUOUS
10
-14.2630862341
20
21.6972900349
11
-14.2630862341
21
22.0372639690
0
LINE
5
255
100
AcDbEntity
8
0
100
AcDbLine
62
0
6
CONTINUOUS
10
-15.3130807741
20
21.4874748999
11
-15.3128898619
21
21.9437117909
0
LINE
5
256
100
AcDbEntity
8
0
100
AcDbLine
62
9
6
CONTINUOUS
10
-15.2398588861
20
21.3957041299
11
-15.2396448971
21
21.9070893085
0
LINE
5
257
100
AcDbEntity
8
0
100
AcDbLine
62
9
6
CONTINUOUS
10
-13.9063806640
20
21.4196232882
11
-13.9066729911
21
20.7291111824
0
LINE
5
258
100
AcDbEntity
8
0
100
AcDbLine
62
0
6
CONTINUOUS
10
-3.7169046613
20
16.7653849206
11
-4.0745838106
21
16.5657889687
0
LINE
5
259
100
AcDbEntity
8
0
100
AcDbLine
62
0
6
CONTINUOUS
10
-0.9304404244
20
17.1411317880
11
-2.5136121194
21
16.3289347407
0
LINE
5
25A
100
AcDbEntity
8
0
100
AcDbLine
62
9
6
CONTINUOUS
10
-0.8177698501
20
17.1344708629
11
-2.4005264532
21
16.3224867656
0
LINE
5
25B
100
AcDbEntity
8
0
100
AcDbLine
62
0
6
CONTINUOUS
10
9.7719397724
20
21.5190381749
11
13.9800714290
21
23.6601511170
0
LINE
5
25C
100
AcDbEntity
8
0
100
AcDbLine
62
9
6
CONTINUOUS
10
0.5257390174
20
16.4627164292
11
-1.0755417734
21
15.6599944257
0
LINE
5
25D
100
AcDbEntity
8
0
100
AcDbLine
62
0
6
CONTINUOUS
10
-0.9287020389
20
17.1420010208
11
-0.9304384507
21
17.1411328005
0
LINE
5
25E
100
AcDbEntity
8
0
100
AcDbLine
62
9
6
CONTINUOUS
10
1.0540061892
20
16.7261552492
11
0.5257390174
21
16.4627164292
0
LINE
5
25F
100
AcDbEntity
8
0
100
AcDbLine
62
0
6
CONTINUOUS
10
9.7719397724
20
21.1202164436
11
13.9943765370
21
23.2230803732
0
LINE
5
260
100
AcDbEntity
8
0
100
AcDbLine
62
0
6
CONTINUOUS
10
-0.3938320825
20
17.4025531205
11
-0.9286992733
21
17.1420023680
0
LINE
5
261
100
AcDbEntity
8
0
100
AcDbLine
62
9
6
CONTINUOUS
10
-0.2833199714
20
17.3948183295
11
-0.8177698501
21
17.1344708629
0
LINE
5
262
100
AcDbEntity
8
0
100
AcDbLine
62
0
6
CONTINUOUS
10
5.4373501932
20
19.1898530531
11
0.7538133137
21
16.9382290578
0
LINE
5
263
100
AcDbEntity
8
0
100
AcDbLine
62
0
6
CONTINUOUS
10
12.9795326241
20
24.1719086476
11
9.4067080248
21
22.4665942262
0
LINE
5
264
100
AcDbEntity
8
0
100
AcDbLine
62
0
6
CONTINUOUS
10
-12.6618054433
20
21.2378353116
11
-12.6618054433
21
22.8399859726
0
LINE
5
265
100
AcDbEntity
8
0
100
AcDbLine
62
9
6
CONTINUOUS
10
-12.1335382716
20
23.1034247926
11
-12.1335382716
21
22.7560684161
0
LINE
5
266
100
AcDbEntity
8
0
100
AcDbLine
62
0
6
CONTINUOUS
10
-12.0613404146
20
23.1912974248
11
-12.0613404146
21
22.8439410483
0
LINE
5
267
100
AcDbEntity
8
0
100
AcDbLine
62
9
6
CONTINUOUS
10
-13.5538036112
20
21.5491911652
11
-13.5541462309
21
20.7398817427
0
LINE
5
268
100
AcDbEntity
8
0
100
AcDbLine
62
0
6
CONTINUOUS
10
0.7025127211
20
14.5556762294
11
-0.1898280665
21
14.0577226605
0
LINE
5
269
100
AcDbEntity
8
0
100
AcDbLine
62
9
6
CONTINUOUS
10
-1.4715715064
20
13.3481929188
11
-4.6196020551
21
11.6295905109
0
LINE
5
26A
100
AcDbEntity
8
0
100
AcDbLine
62
9
6
CONTINUOUS
10
0.7257676776
20
14.5440487511
11
-1.2280415588
21
13.4774068598
0
LINE
5
26B
100
AcDbEntity
8
0
100
AcDbLine
62
0
6
CONTINUOUS
10
6.3188856518
20
18.4559948618
11
0.8258490402
21
15.4923755902
0
LINE
5
26C
100
AcDbEntity
8
0
100
AcDbLine
62
0
6
CONTINUOUS
10
6.3188856518
20
17.9586649048
11
0.9607343147
21
15.1261145246
0
LINE
5
26D
100
AcDbEntity
8
0
100
AcDbLine
62
0
6
CONTINUOUS
10
9.5296262131
20
20.1489908079
11
10.2686592624
21
20.5386975479
0
LINE
5
26E
100
AcDbEntity
8
0
100
AcDbLine
62
9
6
CONTINUOUS
10
10.2685314804
20
20.5386301610
11
10.2686592624
21
20.5386975479
0
LINE
5
26F
100
AcDbEntity
8
0
100
AcDbLine
62
9
6
CONTINUOUS
10
0.7025127211
20
16.1578268903
11
-0.8987680697
21
15.3551048868
0
LINE
5
270
100
AcDbEntity
8
0
100
AcDbLine
62
0
6
CONTINUOUS
10
9.2754557793
20
20.2768486025
11
11.3227623900
21
21.3031633336
0
LINE
5
271
100
AcDbEntity
8
0
100
AcDbLine
62
9
6
CONTINUOUS
10
10.7786783128
20
20.7471976161
11
11.7333844908
21
21.2257917892
0
LINE
5
272
100
AcDbEntity
8
0
100
AcDbLine
62
0
6
CONTINUOUS
10
10.3969466912
20
20.3156058165
11
10.8919214380
21
20.5630931899
0
LINE
5
273
100
AcDbEntity
8
0
100
AcDbLine
62
0
6
CONTINUOUS
10
13.3600993505
20
20.7435930422
11
12.0486350395
21
20.0878608867
0
LINE
5
274
100
AcDbEntity
8
0
100
AcDbLine
62
0
6
CONTINUOUS
10
11.3474112976
20
19.7372490158
11
11.3342854735
21
19.7306861037
0
LINE
5
275
100
AcDbEntity
8
0
100
AcDbLine
62
9
6
CONTINUOUS
10
1.2307798928
20
16.4212657104
11
0.7025127211
21
16.1578268903
0
LINE
5
276
100
AcDbEntity
8
0
100
AcDbLine
62
0
6
CONTINUOUS
10
1.4552406243
20
14.8785559115
11
7.1214150674
21
17.6308949769
0
LINE
5
277
100
AcDbEntity
8
0
100
AcDbLine
62
0
6
CONTINUOUS
10
17.5829736328
20
21.8701881432
11
14.0197912232
21
20.1600526270
0
LINE
5
278
100
AcDbEntity
8
0
100
AcDbLine
62
9
6
CONTINUOUS
10
1.4448779022
20
14.8840427308
11
0.7254285263
21
14.5442183268
0
LINE
5
279
100
AcDbEntity
8
0
100
AcDbLine
62
9
6
CONTINUOUS
10
1.7631728929
20
14.3351096092
11
1.0451391747
21
13.9959538764
0
LINE
5
27A
100
AcDbEntity
8
0
100
AcDbLine
62
0
6
CONTINUOUS
10
-11.0708151857
20
18.1478147584
11
-11.0708151857
21
17.4549944354
0
LINE
5
27B
100
AcDbEntity
8
0
100
AcDbLine
62
0
6
CONTINUOUS
10
-10.4373814390
20
20.7235598971
11
-10.4373814390
21
19.4833708644
0
LINE
5
27C
100
AcDbEntity
8
0
100
AcDbLine
62
9
6
CONTINUOUS
10
-10.2909348296
20
20.3804900661
11
-10.2909348296
21
19.2999067553
0
LINE
5
27D
100
AcDbEntity
8
0
100
AcDbLine
62
9
6
CONTINUOUS
10
1.0451391747
20
13.9959538764
11
-0.9025566351
21
12.9326494844
0
LINE
5
27E
100
AcDbEntity
8
0
100
AcDbLine
62
9
6
CONTINUOUS
10
-1.1182872405
20
12.7383398922
11
-4.2537693151
21
11.0265880651
0
LINE
5
27F
100
AcDbEntity
8
0
100
AcDbLine
62
9
6
CONTINUOUS
10
18.7302523844
20
20.9120069521
11
1.7631728929
21
12.2799579676
0
LINE
5
280
100
AcDbEntity
8
0
100
AcDbLine
62
0
6
CONTINUOUS
10
14.2086300582
20
20.3193302587
11
13.4678998164
21
19.9489651378
0
LINE
5
281
100
AcDbEntity
8
0
100
AcDbLine
62
0
6
CONTINUOUS
10
18.4162753070
20
21.4535373062
11
7.8741091514
21
16.3326897158
0
LINE
5
282
100
AcDbEntity
8
0
100
AcDbLine
62
9
6
CONTINUOUS
10
0.7025127211
20
15.4320089528
11
1.2307798928
21
16.0739093339
0
LINE
5
283
100
AcDbEntity
8
0
100
AcDbLine
62
0
6
CONTINUOUS
10
0.7025127211
20
15.3425089423
11
1.2460129329
21
16.0029190752
0
LINE
5
284
100
AcDbEntity
8
0
100
AcDbLine
62
9
6
CONTINUOUS
10
19.1444028601
20
19.4803733774
11
1.7631728929
21
10.6376241841
0
LINE
5
285
100
AcDbEntity
8
0
100
AcDbLine
62
9
6
CONTINUOUS
10
-4.9896968674
20
21.1089146062
11
-4.9896968674
21
20.6007741274
0
LINE
5
286
100
AcDbEntity
8
0
100
AcDbLine
62
9
6
CONTINUOUS
10
-4.7796277299
20
16.5442532055
11
-4.7796277299
21
17.6248365163
0
LINE
5
287
100
AcDbEntity
8
0
100
AcDbLine
62
0
6
CONTINUOUS
10
-4.2825900863
20
21.4624679968
11
-4.2825900863
21
22.0150261861
0
LINE
5
288
100
AcDbEntity
8
0
100
AcDbLine
62
9
6
CONTINUOUS
10
-4.0745838106
20
16.5657889687
11
-4.0745838106
21
17.7985159411
0
LINE
5
289
100
AcDbEntity
8
0
100
AcDbLine
62
9
6
CONTINUOUS
10
-3.9488144636
20
22.1783465413
11
-3.9488144636
21
23.4056971384
0
LINE
5
28A
100
AcDbEntity
8
0
100
AcDbLine
62
0
6
CONTINUOUS
10
-3.9290366957
20
21.2856913015
11
-3.9290366957
21
21.8382494908
0
LINE
5
28B
100
AcDbEntity
8
0
100
AcDbLine
62
0
6
CONTINUOUS
10
-3.8234649564
20
22.3273746997
11
-3.8234649564
21
23.4150087574
0
LINE
5
28C
100
AcDbEntity
8
0
100
AcDbLine
62
0
6
CONTINUOUS
10
-3.7169046613
20
17.9778204859
11
-3.7169046613
21
16.7653849206
0
LINE
5
28D
100
AcDbEntity
8
0
100
AcDbLine
62
9
6
CONTINUOUS
10
-3.5754833051
20
21.1089146062
11
-3.5754833051
21
20.6007741274
0
LINE
5
28E
100
AcDbEntity
8
0
100
AcDbLine
62
0
6
CONTINUOUS
10
-2.6494980139
20
16.1064982982
11
-2.6494980139
21
15.7665243641
0
LINE
5
28F
100
AcDbEntity
8
0
100
AcDbLine
62
0
6
CONTINUOUS
10
-2.6494980139
20
-25.7061399998
11
-2.6494980139
21
-25.8730537094
0
LINE
5
290
100
AcDbEntity
8
0
100
AcDbLine
62
9
6
CONTINUOUS
10
-2.5762747092
20
16.0181099506
11
-2.5762747092
21
15.6781360165
0
LINE
5
291
100
AcDbEntity
8
0
100
AcDbLine
62
9
6
CONTINUOUS
10
-2.5762747092
20
-25.6754038307
11
-2.5762747092
21
-25.9614420570
0
LINE
5
292
100
AcDbEntity
8
0
100
AcDbLine
62
9
6
CONTINUOUS
10
-0.5422408406
20
-24.8836711692
11
-0.5420603441
21
-25.3098475830
0
LINE
5
293
100
AcDbEntity
8
0
100
AcDbLine
62
9
6
CONTINUOUS
10
-0.1897817341
20
-24.7357231527
11
-0.1894854468
21
-25.4352969285
0
LINE
5
294
100
AcDbEntity
8
0
100
AcDbLine
62
9
6
CONTINUOUS
10
-1.2512900294
20
-26.6239343969
11
-1.2512900294
21
-26.2839604628
0
LINE
5
295
100
AcDbEntity
8
0
100
AcDbLine
62
9
6
CONTINUOUS
10
-1.2512900294
20
15.0156436766
11
-1.2512900294
21
15.3556176107
0
LINE
5
296
100
AcDbEntity
8
0
100
AcDbLine
62
0
6
CONTINUOUS
10
-1.1713202490
20
22.3291320348
11
-1.1713202490
21
22.0583317422
0
LINE
5
297
100
AcDbEntity
8
0
100
AcDbLine
62
0
6
CONTINUOUS
10
-1.1182872405
20
12.7383398922
11
-1.1182872405
21
-24.8467662486
0
LINE
5
298
100
AcDbEntity
8
0
100
AcDbLine
62
9
6
CONTINUOUS
10
-0.9025566351
20
-24.8399468064
11
-0.9025566351
21
12.9326494844
0
LINE
5
299
100
AcDbEntity
8
0
100
AcDbLine
62
9
6
CONTINUOUS
10
-0.8987680697
20
-26.6244471208
11
-0.8987680697
21
-26.2844731867
0
LINE
5
29A
100
AcDbEntity
8
0
100
AcDbLine
62
9
6
CONTINUOUS
10
-0.8987680697
20
15.0151309527
11
-0.8987680697
21
15.3551048868
0
LINE
5
29B
100
AcDbEntity
8
0
100
AcDbLine
62
0
6
CONTINUOUS
10
-1.9487626097
20
14.8053158176
11
-1.9485716974
21
15.2615527087
0
LINE
5
29C
100
AcDbEntity
8
0
100
AcDbLine
62
9
6
CONTINUOUS
10
-1.8755407217
20
14.7135450477
11
-1.8753267327
21
15.2249302263
0
LINE
5
29D
100
AcDbEntity
8
0
100
AcDbLine
62
9
6
CONTINUOUS
10
-0.5420624996
20
14.7374642060
11
-0.5423548267
21
14.0469521002
0
LINE
5
29E
100
AcDbEntity
8
0
100
AcDbLine
62
9
6
CONTINUOUS
10
-0.1894854468
20
14.8670320829
11
-0.1898280665
21
14.0577226605
0
LINE
5
29F
100
AcDbEntity
8
0
100
AcDbLine
62
0
6
CONTINUOUS
10
19.4272196362
20
13.6178247629
11
20.3896102255
21
14.2402908707
0
LINE
5
2A0
100
AcDbEntity
8
0
100
AcDbLine
62
0
6
CONTINUOUS
10
0.7025127211
20
14.5556762294
11
0.7025127211
21
16.1578268903
0
LINE
5
2A1
100
AcDbEntity
8
0
100
AcDbLine
62
0
6
CONTINUOUS
10
0.7025127211
20
-24.3611741842
11
0.7025127211
21
-25.8444125211
0
LINE
5
2A2
100
AcDbEntity
8
0
100
AcDbLine
62
9
6
CONTINUOUS
10
1.2307798928
20
16.4212657104
11
1.2307798928
21
16.0739093339
0
LINE
5
2A3
100
AcDbEntity
8
0
100
AcDbLine
62
9
6
CONTINUOUS
10
1.2307798928
20
-25.2260450860
11
1.2307798928
21
-25.5734014625
0
LINE
5
2A4
100
AcDbEntity
8
0
100
AcDbLine
62
0
6
CONTINUOUS
10
1.3029777498
20
16.5091383426
11
1.3029777498
21
16.1617819661
0
LINE
5
2A5
100
AcDbEntity
8
0
100
AcDbLine
62
0
6
CONTINUOUS
10
1.3029777498
20
-25.1381724539
11
1.3029777498
21
-25.4855288303
0
LINE
5
2A6
100
AcDbEntity
8
0
100
AcDbLine
62
9
6
CONTINUOUS
10
1.6079294089
20
19.4017163525
11
1.6079294089
21
20.6287663197
0
LINE
5
2A7
100
AcDbEntity
8
0
100
AcDbLine
62
0
6
CONTINUOUS
10
1.7315234728
20
19.5498799732
11
1.7315234728
21
20.6375564623
0
LINE
5
2A8
100
AcDbEntity
8
0
100
AcDbLine
62
0
6
CONTINUOUS
10
1.7631728929
20
-23.6681418495
11
1.7631728929
21
14.3351096092
0
LINE
5
2A9
100
AcDbEntity
8
0
100
AcDbLine
62
9
6
CONTINUOUS
10
6.3188856518
20
18.4559948618
11
6.3188856518
21
17.9586649048
0
LINE
5
2AA
100
AcDbEntity
8
0
100
AcDbLine
62
9
6
CONTINUOUS
10
6.3188856518
20
-18.6044245426
11
6.3188856518
21
-18.8973703034
0
LINE
5
2AB
100
AcDbEntity
8
0
100
AcDbLine
62
0
6
CONTINUOUS
10
6.4592157516
20
18.7568295080
11
6.4592157516
21
18.1349289784
0
LINE
5
2AC
100
AcDbEntity
8
0
100
AcDbLine
62
0
6
CONTINUOUS
10
6.4592157516
20
-18.5302156742
11
6.4592157516
21
-18.8508757645
0
LINE
5
2AD
100
AcDbEntity
8
0
100
AcDbLine
62
9
6
CONTINUOUS
10
-20.4584202893
20
17.3381849297
11
-5.6339215421
21
9.9259355561
0
LINE
5
2AE
100
AcDbEntity
8
0
100
AcDbLine
62
9
6
CONTINUOUS
10
-19.4674359414
20
19.0535074540
11
-4.6196020551
21
11.6295905109
0
LINE
5
2AF
100
AcDbEntity
8
0
100
AcDbLine
62
0
6
CONTINUOUS
10
-8.2423880609
20
15.2286146973
11
-12.4850287480
21
17.3499350408
0
LINE
5
2B0
100
AcDbEntity
8
0
100
AcDbLine
62
9
6
CONTINUOUS
10
9.7719397724
20
21.1202164436
11
9.7719397724
21
21.5190381749
0
LINE
5
2B1
100
AcDbEntity
8
0
100
AcDbLine
62
0
6
CONTINUOUS
10
10.4546499704
20
21.4602207420
11
10.4546499704
21
21.0185477861
0
LINE
5
2B2
100
AcDbEntity
8
0
100
AcDbLine
62
0
6
CONTINUOUS
10
11.3474112976
20
19.7372490158
11
11.3474112976
21
19.7299846628
0
LINE
5
2B3
100
AcDbEntity
8
0
100
AcDbLine
62
0
6
CONTINUOUS
10
11.5988903781
20
20.2096087199
11
11.5988903781
21
19.7185499237
0
LINE
5
2B4
100
AcDbEntity
8
0
100
AcDbLine
62
0
6
CONTINUOUS
10
-7.4792075130
20
15.6591905991
11
-11.0708151857
21
17.4549944354
0
LINE
5
2B5
100
AcDbEntity
8
0
100
AcDbLine
62
9
6
CONTINUOUS
10
-7.0250409478
20
15.9154250890
11
-11.0708151857
21
17.9383122079
0
LINE
5
2B6
100
AcDbEntity
8
0
100
AcDbLine
62
0
6
CONTINUOUS
10
-1.4715715064
20
13.3481929188
11
-6.8281744985
21
16.0264944149
0
LINE
5
2B7
100
AcDbEntity
8
0
100
AcDbLine
62
0
6
CONTINUOUS
10
-11.0708151857
20
18.1478147584
11
-16.4274181778
21
20.8261162545
0
LINE
5
2B8
100
AcDbEntity
8
0
100
AcDbLine
62
9
6
CONTINUOUS
10
-1.2280415588
20
13.4774068598
11
-16.2688883224
21
20.9978302416
0
LINE
5
2B9
100
AcDbEntity
8
0
100
AcDbLine
62
0
6
CONTINUOUS
10
-0.5423548267
20
14.0469521002
11
-1.8755407217
21
14.7135450477
0
LINE
5
2BA
100
AcDbEntity
8
0
100
AcDbLine
62
0
6
CONTINUOUS
10
-13.9066729911
20
20.7291111824
11
-15.2398588861
21
21.3957041299
0
LINE
5
2BB
100
AcDbEntity
8
0
100
AcDbLine
62
0
6
CONTINUOUS
10
12.0486350395
20
20.0878608867
11
12.0486350395
21
19.7214255496
0
LINE
5
2BC
100
AcDbEntity
8
0
100
AcDbLine
62
0
6
CONTINUOUS
10
13.9943765370
20
23.4933592535
11
13.9943765370
21
23.2230803732
0
LINE
5
2BD
100
AcDbEntity
8
0
100
AcDbLine
62
0
6
CONTINUOUS
10
-1.1256115632
20
14.8593097919
11
-0.5031960186
21
14.7293488487
0
LINE
5
2BE
100
AcDbEntity
8
0
100
AcDbLine
62
9
6
CONTINUOUS
10
-0.8987680697
20
15.0151309527
11
-0.1894854468
21
14.8670320829
0
LINE
5
2BF
100
AcDbEntity
8
0
100
AcDbLine
62
0
6
CONTINUOUS
10
-10.2909348296
20
19.2999067553
11
-4.7796277299
21
16.5442532055
0
LINE
5
2C0
100
AcDbEntity
8
0
100
AcDbLine
62
0
6
CONTINUOUS
10
-15.8756195772
20
22.2250766486
11
-14.5506348974
21
21.5625843087
0
LINE
5
2C1
100
AcDbEntity
8
0
100
AcDbLine
62
0
6
CONTINUOUS
10
-2.5113014128
20
15.5429175664
11
-1.1863167330
21
14.8804252265
0
LINE
5
2C2
100
AcDbEntity
8
0
100
AcDbLine
62
9
6
CONTINUOUS
10
-15.9405928736
20
22.3602950987
11
-14.6156081938
21
21.6978027588
0
LINE
5
2C3
100
AcDbEntity
8
0
100
AcDbLine
62
9
6
CONTINUOUS
10
-2.5762747092
20
15.6781360165
11
-1.2512900294
21
15.0156436766
0
LINE
5
2C4
100
AcDbEntity
8
0
100
AcDbLine
62
9
6
CONTINUOUS
10
-1.2512900294
20
15.3556176107
11
-2.5762747092
21
16.0181099506
0
LINE
5
2C5
100
AcDbEntity
8
0
100
AcDbLine
62
9
6
CONTINUOUS
10
-14.6156081938
20
22.0377766929
11
-15.9405928736
21
22.7002690328
0
LINE
5
2C6
100
AcDbEntity
8
0
100
AcDbLine
62
0
6
CONTINUOUS
10
-12.6618054433
20
21.2378353116
11
-10.4373814390
21
20.1256233094
0
LINE
5
2C7
100
AcDbEntity
8
0
100
AcDbLine
62
0
6
CONTINUOUS
10
-3.7169046613
20
16.7653849206
11
-2.6229640603
21
16.2184146201
0
LINE
5
2C8
100
AcDbEntity
8
0
100
AcDbLine
62
0
6
CONTINUOUS
10
0.7025127211
20
14.5556762294
11
0.7257676776
21
14.5440487511
0
LINE
5
2C9
100
AcDbEntity
8
0
100
AcDbLine
62
9
6
CONTINUOUS
10
-1.0755417734
20
15.6599944257
11
-2.4005264532
21
16.3224867656
0
LINE
5
2CA
100
AcDbEntity
8
0
100
AcDbLine
62
9
6
CONTINUOUS
10
-14.4398599378
20
22.3421535079
11
-15.7648446176
21
23.0046458478
0
LINE
5
2CB
100
AcDbEntity
8
0
100
AcDbLine
62
9
6
CONTINUOUS
10
-4.7796277299
20
17.6248365163
11
-10.2909348296
21
20.3804900661
0
LINE
5
2CC
100
AcDbEntity
8
0
100
AcDbLine
62
9
6
CONTINUOUS
10
-4.3568053501
20
17.7272260807
11
-10.4325599998
21
20.7651034056
0
LINE
5
2CD
100
AcDbEntity
8
0
100
AcDbLine
62
0
6
CONTINUOUS
10
-12.6618054433
20
21.9373844036
11
-11.2537627083
21
21.2333630361
0
LINE
5
2CE
100
AcDbEntity
8
0
100
AcDbLine
62
0
6
CONTINUOUS
10
0.7025127211
20
15.2552253214
11
1.4448779022
21
14.8840427308
0
LINE
5
2CF
100
AcDbEntity
8
0
100
AcDbLine
62
0
6
CONTINUOUS
10
-9.9394443358
20
21.0890903231
11
-3.7169046613
21
17.9778204859
0
LINE
5
2D0
100
AcDbEntity
8
0
100
AcDbLine
62
0
6
CONTINUOUS
10
19.4272823760
20
13.6070703723
11
19.4291859650
21
13.6147846355
0
LINE
5
2D1
100
AcDbEntity
8
0
100
AcDbLine
62
9
6
CONTINUOUS
10
-0.5425745723
20
-25.3095904689
11
-1.1629016817
21
-26.0522662890
0
LINE
5
2D2
100
AcDbEntity
8
0
100
AcDbLine
62
0
6
CONTINUOUS
10
-14.1820880145
20
23.8166299451
11
-12.8385791470
21
23.1448755114
0
LINE
5
2D3
100
AcDbEntity
8
0
100
AcDbLine
62
0
6
CONTINUOUS
10
-0.8177698501
20
17.1344708629
11
0.5257390174
21
16.4627164292
0
LINE
5
2D4
100
AcDbEntity
8
0
100
AcDbLine
62
0
6
CONTINUOUS
10
-8.5959414515
20
21.1194072737
11
-3.6461939832
21
18.6445335396
0
LINE
5
2D5
100
AcDbEntity
8
0
100
AcDbLine
62
9
6
CONTINUOUS
10
-13.6476381358
20
24.0769774117
11
-12.3103119753
21
23.4083143314
0
LINE
5
2D6
100
AcDbEntity
8
0
100
AcDbLine
62
9
6
CONTINUOUS
10
-0.2833199714
20
17.3948183295
11
1.0540061892
21
16.7261552492
0
LINE
5
2D7
100
AcDbEntity
8
0
100
AcDbLine
62
0
6
CONTINUOUS
10
-13.5368631763
20
24.0835673028
11
-12.1995370157
21
23.4149042225
0
LINE
5
2D8
100
AcDbEntity
8
0
100
AcDbLine
62
0
6
CONTINUOUS
10
-0.1725450118
20
17.4014082206
11
1.1647811487
21
16.7327451403
0
LINE
5
2D9
100
AcDbEntity
8
0
100
AcDbLine
62
0
6
CONTINUOUS
10
-2.3320320029
20
19.2922506562
11
-4.9189861893
21
20.5857277494
0
LINE
5
2DA
100
AcDbEntity
8
0
100
AcDbLine
62
9
6
CONTINUOUS
10
-1.6910688081
20
19.6081651619
11
-3.7839810390
21
20.6546212773
0
LINE
5
2DB
100
AcDbEntity
8
0
100
AcDbLine
62
0
6
CONTINUOUS
10
-1.6403053835
20
19.6331851666
11
-3.6996638023
21
20.6628643760
0
LINE
5
2DC
100
AcDbEntity
8
0
100
AcDbLine
62
0
6
CONTINUOUS
10
7.8741091514
20
16.3326897158
11
7.1214150674
21
17.6308949769
0
LINE
5
2DD
100
AcDbEntity
8
0
100
AcDbLine
62
0
6
CONTINUOUS
10
19.4250629636
20
13.5841774906
11
19.4272823760
21
13.6070703723
0
LINE
5
2DE
100
AcDbEntity
8
0
100
AcDbLine
62
9
6
CONTINUOUS
10
-0.1894854468
20
-25.4352969285
11
-0.8987680697
21
-26.2844731867
0
LWPOLYLINE
5
2DF
100
AcDbEntity
8
0
100
AcDbPolyline
62
0
6
CONTINUOUS
90
11
70
0
10
-3.8994691976
20
20.7249945346
10
-3.9799789627
20
20.7410644413
10
-4.0624682599
20
20.7531380994
10
-4.1463562792
20
20.7612032296
10
-4.2310948393
20
20.7652641237
10
-4.3162504342
20
20.7653228895
10
-4.4012521293
20
20.7613798181
10
-4.4855310996
20
20.7534389623
10
-4.5686644939
20
20.7414971637
10
-4.6500942196
20
20.7255478056
10
-4.7292625947
20
20.7056028732
0
LINE
5
2E0
100
AcDbEntity
8
0
100
AcDbLine
62
0
6
CONTINUOUS
10
-14.4899297277
20
21.5414688741
11
-13.8675133467
21
21.4115077563
0
LINE
5
2E1
100
AcDbEntity
8
0
100
AcDbLine
62
9
6
CONTINUOUS
10
-14.2630862341
20
21.6972900349
11
-13.5538036112
21
21.5491911652
0
LINE
5
2E2
100
AcDbEntity
8
0
100
AcDbLine
62
0
6
CONTINUOUS
10
-3.8213361969
20
20.7048942552
11
-3.8994691976
21
20.7249945346
0
LINE
5
2E3
100
AcDbEntity
8
0
100
AcDbLine
62
0
6
CONTINUOUS
10
-3.7460319450
20
20.6807131329
11
-3.8213361969
21
20.7048942552
0
LINE
5
2E4
100
AcDbEntity
8
0
100
AcDbLine
62
0
6
CONTINUOUS
10
-3.7046828042
20
20.6651277320
11
-3.7460319450
21
20.6807131329
0
LINE
5
2E5
100
AcDbEntity
8
0
100
AcDbLine
62
0
6
CONTINUOUS
10
-1.1285182384
20
19.8854320729
11
-3.5754833051
21
21.1089146062
0
LINE
5
2E6
100
AcDbEntity
8
0
100
AcDbLine
62
0
6
CONTINUOUS
10
-3.9290366957
20
21.2856913015
11
-4.2825900863
21
21.4624679968
0
LINE
5
2E7
100
AcDbEntity
8
0
100
AcDbLine
62
0
6
CONTINUOUS
10
-3.9290366957
20
21.8382494908
11
-4.2825900863
21
22.0150261861
0
LINE
5
2E8
100
AcDbEntity
8
0
100
AcDbLine
62
0
6
CONTINUOUS
10
0.2792974578
20
20.5793087313
11
-2.5312521892
21
21.9845835548
0
LINE
5
2E9
100
AcDbEntity
8
0
100
AcDbLine
62
0
6
CONTINUOUS
10
6.3826415350
20
18.0002817431
11
7.1214150674
21
17.6308949769
0
LINE
5
2EA
100
AcDbEntity
8
0
100
AcDbLine
62
9
6
CONTINUOUS
10
-4.6032209298
20
23.6885337886
11
-3.9976904951
21
23.3857685713
0
LINE
5
2EB
100
AcDbEntity
8
0
100
AcDbLine
62
9
6
CONTINUOUS
10
0.9520569732
20
20.9108948371
11
1.5575874078
21
20.6081296198
0
LINE
5
2EC
100
AcDbEntity
8
0
100
AcDbLine
62
0
6
CONTINUOUS
10
-1.1713202490
20
22.0583317422
11
1.0645406226
21
20.9404013064
0
LINE
5
2ED
100
AcDbEntity
8
0
100
AcDbLine
62
0
6
CONTINUOUS
10
1.7315234728
20
20.6069098813
11
1.9298188723
21
20.5077621815
0
LINE
5
2EE
100
AcDbEntity
8
0
100
AcDbLine
62
0
6
CONTINUOUS
10
-4.3269489087
20
23.6743525198
11
-3.8305424242
21
23.4261492775
0
LINE
5
2EF
100
AcDbEntity
8
0
100
AcDbLine
62
0
6
CONTINUOUS
10
1.2280064833
20
20.8968748238
11
1.7244132533
21
20.6486714388
0
LINE
5
2F0
100
AcDbEntity
8
0
100
AcDbLine
62
9
6
CONTINUOUS
10
9.7719397724
20
21.5190381749
11
9.4067080248
21
22.4665942262
0
LINE
5
2F1
100
AcDbEntity
8
0
100
AcDbLine
62
0
6
CONTINUOUS
10
11.0934207959
20
19.9673687641
11
10.8919214380
21
20.5630931899
0
LWPOLYLINE
5
2F2
100
AcDbEntity
8
0
100
AcDbPolyline
62
0
6
CONTINUOUS
90
10
70
0
10
19.4250546525
20
19.8274249722
10
19.4241908856
20
19.8873829474
10
19.4135910879
20
20.0477157020
10
19.3913562577
20
20.2074761004
10
19.3578484606
20
20.3667059278
10
19.3134338036
20
20.5246680714
10
19.2588298015
20
20.6795889806
10
19.1946032202
20
20.8305984295
10
19.1208149111
20
20.9777590634
10
19.0830939394
20
21.0450958895
0
LINE
5
2F3
100
AcDbEntity
8
0
100
AcDbLine
62
9
6
CONTINUOUS
10
19.1444028601
20
-10.8146150956
11
19.1444028601
21
13.7483556431
0
LINE
5
2F4
100
AcDbEntity
8
0
100
AcDbLine
62
9
6
CONTINUOUS
10
19.1444028601
20
15.8751961059
11
19.1444028601
21
19.4803733774
0
LINE
5
2F5
100
AcDbEntity
8
0
100
AcDbLine
62
0
6
CONTINUOUS
10
19.4250630597
20
-10.4672859100
11
19.4250611799
21
13.5856896293
0
LINE
5
2F6
100
AcDbEntity
8
0
100
AcDbLine
62
0
6
CONTINUOUS
10
19.4250630597
20
16.7340317739
11
19.4250630597
21
19.8277025592
0
LINE
5
2F7
100
AcDbEntity
8
0
100
AcDbLine
62
9
6
CONTINUOUS
10
21.0117784485
20
16.1677614704
11
21.0117784485
21
15.3895356120
0
LINE
5
2F8
100
AcDbEntity
8
0
100
AcDbLine
62
0
6
CONTINUOUS
10
21.0959765084
20
16.2618456899
11
21.0959765084
21
15.5038489036
0
LINE
5
2F9
100
AcDbEntity
8
0
100
AcDbLine
62
0
6
CONTINUOUS
10
19.4250630466
20
16.7335514158
11
19.4250625852
21
16.7322265925
0
LINE
5
2FA
100
AcDbEntity
8
0
100
AcDbLine
62
0
6
CONTINUOUS
10
21.0951780644
20
15.4918195342
11
21.0959765083
21
15.5037481103
0
LINE
5
2FB
100
AcDbEntity
8
0
100
AcDbLine
62
0
6
CONTINUOUS
10
7.8741091514
20
-17.6345225908
11
7.1214150674
21
-18.1800337679
0
LINE
5
2FC
100
AcDbEntity
8
0
100
AcDbLine
62
9
6
CONTINUOUS
10
18.7302523844
20
-11.8320981946
11
18.8048200143
21
-11.7857360359
0
LINE
5
2FD
100
AcDbEntity
8
0
100
AcDbLine
62
0
6
CONTINUOUS
10
18.4162753070
20
-12.0596514713
11
7.8741091514
21
-17.6345225908
0
LINE
5
2FE
100
AcDbEntity
8
0
100
AcDbLine
62
0
6
CONTINUOUS
10
1.7631728929
20
-21.0135604938
11
7.1214150674
21
-18.1800337679
0
LINE
5
2FF
100
AcDbEntity
8
0
100
AcDbLine
62
9
6
CONTINUOUS
10
1.7631728929
20
-19.9706564243
11
19.1444028601
21
-10.8146150956
0
LINE
5
300
100
AcDbEntity
8
0
100
AcDbLine
62
9
6
CONTINUOUS
10
1.7631728929
20
-20.7699743602
11
18.7302523844
21
-11.8320981946
0
LINE
5
301
100
AcDbEntity
8
0
100
AcDbLine
62
0
6
CONTINUOUS
10
5.4373501932
20
-19.4567993475
11
1.7631728929
21
-21.3010318868
0
LINE
5
302
100
AcDbEntity
8
0
100
AcDbLine
62
0
6
CONTINUOUS
10
6.3188856518
20
-18.8973703034
11
1.7631728929
21
-21.1570374170
0
LINE
5
303
100
AcDbEntity
8
0
100
AcDbLine
62
9
6
CONTINUOUS
10
-4.9392223817
20
24.3781393406
11
-1.8722564378
21
22.8446563686
0
LINE
5
304
100
AcDbEntity
8
0
100
AcDbLine
62
9
6
CONTINUOUS
10
2.3703842493
20
20.7233360251
11
5.4373501932
21
19.1898530531
0
LINE
5
305
100
AcDbEntity
8
0
100
AcDbLine
62
0
6
CONTINUOUS
10
-4.6583921250
20
24.4835951804
11
-1.4312134347
21
22.8700058352
0
LINE
5
306
100
AcDbEntity
8
0
100
AcDbLine
62
0
6
CONTINUOUS
10
2.8114272524
20
20.7486854917
11
6.0386059427
21
19.1350961465
0
LINE
5
307
100
AcDbEntity
8
0
100
AcDbLine
62
0
6
CONTINUOUS
10
21.0959765083
20
16.2619530228
11
21.0955464741
21
16.2692134895
0
LWPOLYLINE
5
308
100
AcDbEntity
8
0
100
AcDbPolyline
62
0
6
CONTINUOUS
90
12
70
0
10
18.8059458242
20
-11.7849038679
10
18.8995759443
20
-11.7105222562
10
18.9933750467
20
-11.6213311097
10
19.0796306822
20
-11.5227577551
10
19.1575824288
20
-11.4152999925
10
19.2268252476
20
-11.2990756389
10
19.2867094383
20
-11.1745049307
10
19.3364897950
20
-11.0423432719
10
19.3757245611
20
-10.9028570044
10
19.4039149323
20
-10.7563116820
10
19.4204766384
20
-10.6032737431
10
19.4250547760
20
-10.4674159537
0
LINE
5
309
100
AcDbEntity
8
0
100
AcDbLine
62
9
6
CONTINUOUS
10
18.4162753070
20
-12.0596514713
11
18.7302523844
21
-11.8320981946
0
LINE
5
30A
100
AcDbEntity
8
0
100
AcDbLine
62
0
6
CONTINUOUS
10
18.4943566471
20
-12.0107427690
11
18.8059526521
21
-11.7849132061
0
LINE
5
30B
100
AcDbEntity
8
0
100
AcDbLine
62
9
6
CONTINUOUS
10
1.0451391747
20
-24.0223832182
11
1.7631728929
21
-23.6681418495
0
LINE
5
30C
100
AcDbEntity
8
0
100
AcDbLine
62
0
6
CONTINUOUS
10
0.9239754637
20
-24.2678726526
11
1.6453857014
21
-23.9119654806
0
LINE
5
30D
100
AcDbEntity
8
0
100
AcDbLine
62
9
6
CONTINUOUS
10
-4.2537693151
20
-26.1629142646
11
-1.1182872405
21
-24.8467662486
0
LINE
5
30E
100
AcDbEntity
8
0
100
AcDbLine
62
9
6
CONTINUOUS
10
-0.9025566351
20
-24.8399468064
11
1.0451391747
21
-24.0223832182
0
LINE
5
30F
100
AcDbEntity
8
0
100
AcDbLine
62
0
6
CONTINUOUS
10
-4.4075765600
20
-26.4441099627
11
-1.2595930786
21
-25.1227143640
0
LINE
5
310
100
AcDbEntity
8
0
100
AcDbLine
62
0
6
CONTINUOUS
10
-2.5312521892
20
21.9845835548
11
-1.1713202490
21
22.0583317422
0
LINE
5
311
100
AcDbEntity
8
0
100
AcDbLine
62
0
6
CONTINUOUS
10
12.0486350395
20
20.0878608867
11
11.5988903781
21
20.2096087199
0
LINE
5
312
100
AcDbEntity
8
0
100
AcDbLine
62
0
6
CONTINUOUS
10
11.1039156313
20
19.9621213465
11
10.3969466912
21
20.3156058165
0
LINE
5
313
100
AcDbEntity
8
0
100
AcDbLine
62
0
6
CONTINUOUS
10
11.5988903781
20
20.2096087199
11
10.8919214380
21
20.5630931899
0
LINE
5
314
100
AcDbEntity
8
0
100
AcDbLine
62
0
6
CONTINUOUS
10
10.0121013942
20
21.2398220741
11
10.4546499704
21
21.0185477861
0
LINE
5
315
100
AcDbEntity
8
0
100
AcDbLine
62
0
6
CONTINUOUS
10
11.1039156313
20
19.9621213465
11
11.3474112976
21
19.7372490158
0
LINE
5
316
100
AcDbEntity
8
0
100
AcDbLine
62
9
6
CONTINUOUS
10
1.2307798928
20
-25.5734014625
11
0.7025127211
21
-25.8444125211
0
LINE
5
317
100
AcDbEntity
8
0
100
AcDbLine
62
0
6
CONTINUOUS
10
1.1670918553
20
-25.7079652728
11
0.6384095918
21
-25.9791892814
0
LINE
5
318
100
AcDbEntity
8
0
100
AcDbLine
62
0
6
CONTINUOUS
10
0.6366712046
20
-25.9800585150
11
0.6384076220
21
-25.9791902919
0
LINE
5
319
100
AcDbEntity
8
0
100
AcDbLine
62
9
6
CONTINUOUS
10
0.7025127211
20
-25.8444125211
11
-0.8987680697
21
-26.6244471208
0
LINE
5
31A
100
AcDbEntity
8
0
100
AcDbLine
62
0
6
CONTINUOUS
10
0.6366684407
20
-25.9800598614
11
-0.9650296623
21
-26.7602977470
0
LINE
5
31B
100
AcDbEntity
8
0
100
AcDbLine
62
0
6
CONTINUOUS
10
-1.0372243923
20
-25.0914451587
11
0.9145885273
21
-24.2721533750
0
LINE
5
31C
100
AcDbEntity
8
0
100
AcDbLine
62
0
6
CONTINUOUS
10
11.7333844908
20
21.2257917892
11
11.5094345427
21
21.3377667633
0
LINE
5
31D
100
AcDbEntity
8
0
100
AcDbLine
62
0
6
CONTINUOUS
10
14.6515987615
20
20.8221273895
11
14.0038674181
21
21.1459930612
0
LINE
5
31E
100
AcDbEntity
8
0
100
AcDbLine
62
0
6
CONTINUOUS
10
14.1976139060
20
21.0647796698
11
14.5017332900
21
20.9127199778
0
LINE
5
31F
100
AcDbEntity
8
0
100
AcDbLine
62
0
6
CONTINUOUS
10
13.9943765370
20
23.2230803732
11
17.1325342505
21
21.6540015165
0
LINE
5
320
100
AcDbEntity
8
0
100
AcDbLine
62
9
6
CONTINUOUS
10
18.4162753070
20
21.4535373062
11
17.5829736328
21
21.8701881432
0
LINE
5
321
100
AcDbEntity
8
0
100
AcDbLine
62
9
6
CONTINUOUS
10
12.9795326241
20
24.1719086476
11
4.7216097475
21
28.3008700859
0
LINE
5
322
100
AcDbEntity
8
0
100
AcDbLine
62
0
6
CONTINUOUS
10
18.7832479487
20
21.5098507552
11
17.9288430939
21
21.9370531826
0
LINE
5
323
100
AcDbEntity
8
0
100
AcDbLine
62
0
6
CONTINUOUS
10
13.5033947351
20
24.1497773620
11
5.2243828669
21
28.2892832961
0
LINE
5
324
100
AcDbEntity
8
0
100
AcDbLine
62
9
6
CONTINUOUS
10
18.7302523844
20
20.9120069521
11
18.4162753070
21
21.4535373062
0
LINE
5
325
100
AcDbEntity
8
0
100
AcDbLine
62
0
6
CONTINUOUS
10
19.0830956331
20
21.0451053098
11
18.8499023785
21
21.4473041797
0
SPLINE
5
326
100
AcDbEntity
8
0
100
AcDbSpline
62
0
6
CONTINUOUS
70
0
71
3
72
8
73
4
74
2
42
0.0000001000
43
0.0000001000
44
0.0000000001
12
-0.0720729465
22
0.0219322224
32
0.0000000000
13
-0.0725144399
23
0.0204766492
33
0.0000000000
40
0.0000000000
40
0.0000000000
40
0.0000000000
40
0.0000000000
40
1.0000000000
40
1.0000000000
40
1.0000000000
40
1.0000000000
10
13.4416877048
20
20.7546841733
30
0.0000000000
10
13.4176633893
20
20.7619949141
30
0.0000000000
10
13.3935619032
20
20.7690599542
30
0.0000000000
10
13.3693904232
20
20.7758855040
30
0.0000000000
11
13.4416877048
21
20.7546841733
31
0.0000000000
11
13.3693904232
21
20.7758855040
31
0.0000000000
0
SPLINE
5
327
100
AcDbEntity
8
0
100
AcDbSpline
62
0
6
CONTINUOUS
70
0
71
3
72
16
73
12
74
10
42
0.0000001000
43
0.0000001000
44
0.0000000001
12
-3.0560647910
22
0.8629724898
32
0.0000000000
13
-2.8084123906
23
-1.4809313851
33
0.0000000000
40
0.0000000000
40
0.0000000000
40
0.0000000000
40
0.0000000000
40
0.0870603950
40
0.2031007763
40
0.3217482206
40
0.4414001586
40
0.5604207594
40
0.6771933564
40
0.7902275173
40
0.8981781335
40
1.0000000000
40
1.0000000000
40
1.0000000000
40
1.0000000000
10
13.3693904232
20
20.7758855040
30
0.0000000000
10
13.2807030206
20
20.8009290792
30
0.0000000000
10
13.0716084392
20
20.8518311810
30
0.0000000000
10
12.7352973680
20
20.9073174024
30
0.0000000000
10
12.3612793011
20
20.9392427148
30
0.0000000000
10
11.9827885709
20
20.9429614372
30
0.0000000000
10
11.6070512734
20
20.9184530398
30
0.0000000000
10
11.2412356766
20
20.8660157429
30
0.0000000000
10
10.8923324022
20
20.7862206570
30
0.0000000000
10
10.5671554326
20
20.6798875566
30
0.0000000000
10
10.3639785262
20
20.5889612805
30
0.0000000000
10
10.2686592624
20
20.5386975479
30
0.0000000000
11
13.3693904232
21
20.7758855040
31
0.0000000000
11
13.1008558885
21
20.8416507570
31
0.0000000000
11
12.7374329826
21
20.9021426768
31
0.0000000000
11
12.3621202046
21
20.9344445871
31
0.0000000000
11
11.9822493501
21
20.9382077474
31
0.0000000000
11
11.6051788903
21
20.9134093248
31
0.0000000000
11
11.2382468272
21
20.8603552956
31
0.0000000000
11
10.8885645096
21
20.7796338765
31
0.0000000000
11
10.5631362434
21
20.6720885202
31
0.0000000000
11
10.2686592624
21
20.5386975479
31
0.0000000000
0
SPLINE
5
328
100
AcDbEntity
8
0
100
AcDbSpline
62
0
6
CONTINUOUS
70
0
71
3
72
8
73
4
74
2
42
0.0000001000
43
0.0000001000
44
0.0000000001
12
-0.0074856961
22
0.0050624254
32
0.0000000000
13
-0.0080013977
23
0.0041120828
33
0.0000000000
40
0.0000000000
40
0.0000000000
40
0.0000000000
40
0.0000000000
40
1.0000000000
40
1.0000000000
40
1.0000000000
40
1.0000000000
10
14.2720737417
20
20.3336966895
30
0.0000000000
10
14.2695785097
20
20.3353841646
30
0.0000000000
10
14.2669897227
20
20.3369232278
30
0.0000000000
10
14.2643225901
20
20.3382939221
30
0.0000000000
11
14.2720737417
21
20.3336966895
31
0.0000000000
11
14.2643225901
21
20.3382939221
31
0.0000000000
0
SPLINE
5
329
100
AcDbEntity
8
0
100
AcDbSpline
62
0
6
CONTINUOUS
70
0
71
3
72
10
73
6
74
4
42
0.0000001000
43
0.0000001000
44
0.0000000001
12
-0.8085733905
22
0.4155424942
32
0.0000000000
13
-0.8134730449
23
0.4058670933
33
0.0000000000
40
0.0000000000
40
0.0000000000
40
0.0000000000
40
0.0000000000
40
0.3545041574
40
0.6877149410
40
1.0000000000
40
1.0000000000
40
1.0000000000
40
1.0000000000
10
14.2643225901
20
20.3382939221
30
0.0000000000
10
14.1687750473
20
20.3873977694
30
0.0000000000
10
13.9833069625
20
20.4824383506
30
0.0000000000
10
13.7131739552
20
20.6197631904
30
0.0000000000
10
13.5384170126
20
20.7076415928
30
0.0000000000
10
13.4537385200
20
20.7498903358
30
0.0000000000
11
14.2643225901
21
20.3382939221
31
0.0000000000
11
13.9774829846
21
20.4852215490
31
0.0000000000
11
13.7074180459
21
20.6224331716
31
0.0000000000
11
13.4537385200
21
20.7498903358
31
0.0000000000
0
SPLINE
5
32A
100
AcDbEntity
8
0
100
AcDbSpline
62
0
6
CONTINUOUS
70
0
71
3
72
8
73
4
74
2
42
0.0000001000
43
0.0000001000
44
0.0000000001
12
-0.0115769671
22
0.0057761102
32
0.0000000000
13
-0.0124572512
23
0.0037795811
33
0.0000000000
40
0.0000000000
40
0.0000000000
40
0.0000000000
40
0.0000000000
40
1.0000000000
40
1.0000000000
40
1.0000000000
40
1.0000000000
10
13.4537385200
20
20.7498903358
30
0.0000000000
10
13.4498795309
20
20.7518157059
30
0.0000000000
10
13.4458375381
20
20.7534063409
30
0.0000000000
10
13.4416851210
20
20.7546662013
30
0.0000000000
11
13.4537385200
21
20.7498903358
31
0.0000000000
11
13.4416851210
21
20.7546662013
31
0.0000000000
0
SPLINE
5
32B
100
AcDbEntity
8
0
100
AcDbSpline
62
0
6
CONTINUOUS
70
0
71
3
72
8
73
4
74
2
42
0.0000001000
43
0.0000001000
44
0.0000000001
12
0.0306204332
22
-0.0152774899
32
0.0000000000
13
0.0306090889
23
-0.0153002241
33
0.0000000000
40
0.0000000000
40
0.0000000000
40
0.0000000000
40
0.0000000000
40
1.0000000000
40
1.0000000000
40
1.0000000000
40
1.0000000000
10
14.3022666574
20
20.3256262671
30
0.0000000000
10
14.3124734685
20
20.3205337705
30
0.0000000000
10
14.3226783520
20
20.3154374085
30
0.0000000000
10
14.3328813816
20
20.3103373337
30
0.0000000000
11
14.3022666574
21
20.3256262671
31
0.0000000000
11
14.3328813816
21
20.3103373337
31
0.0000000000
0
SPLINE
5
32C
100
AcDbEntity
8
0
100
AcDbSpline
62
0
6
CONTINUOUS
70
0
71
3
72
10
73
6
74
4
42
0.0000001000
43
0.0000001000
44
0.0000000001
12
0.0867340293
22
0.0433670146
32
0.0000000000
13
0.0867710934
23
-0.0432928069
33
0.0000000000
40
0.0000000000
40
0.0000000000
40
0.0000000000
40
0.0000000000
40
0.3690647074
40
0.7005601128
40
1.0000000000
40
1.0000000000
40
1.0000000000
40
1.0000000000
10
14.2086011624
20
20.3193158107
30
0.0000000000
10
14.2192713187
20
20.3246508889
30
0.0000000000
10
14.2406995566
20
20.3327505153
30
0.0000000000
10
14.2734144716
20
20.3354997704
30
0.0000000000
10
14.2936057486
20
20.3299474649
30
0.0000000000
10
14.3022666574
20
20.3256262671
30
0.0000000000
11
14.2086011624
21
20.3193158107
31
0.0000000000
11
14.2422623698
21
20.3314714999
31
0.0000000000
11
14.2743390213
21
20.3335763593
31
0.0000000000
11
14.3022666574
21
20.3256262671
31
0.0000000000
0
SPLINE
5
32D
100
AcDbEntity
8
0
100
AcDbSpline
62
9
6
CONTINUOUS
70
0
71
3
72
23
73
19
74
17
42
0.0000001000
43
0.0000001000
44
0.0000000001
12
1.9408908153
22
3.3123999831
32
0.0000000000
13
3.6725860220
23
-1.0894512871
33
0.0000000000
40
0.0000000000
40
0.0000000000
40
0.0000000000
40
0.0000000000
40
0.0358878283
40
0.0970295997
40
0.1653122198
40
0.2409936806
40
0.3240261741
40
0.4122711331
40
0.5006948305
40
0.5844671230
40
0.6610984469
40
0.7295960878
40
0.7899428938
40
0.8428894640
40
0.8893612117
40
0.9303582469
40
0.9669022887
40
1.0000000000
40
1.0000000000
40
1.0000000000
40
1.0000000000
10
9.7942407461
20
20.0414122161
30
0.0000000000
10
9.8174588649
20
20.0810371634
30
0.0000000000
10
9.8891290057
20
20.1829917126
30
0.0000000000
10
10.0403210760
20
20.3320989317
30
0.0000000000
10
10.2558927103
20
20.4825653640
30
0.0000000000
10
10.5145416899
20
20.6150154925
30
0.0000000000
10
10.8102403906
20
20.7262442659
30
0.0000000000
10
11.1309613109
20
20.8123545618
30
0.0000000000
10
11.4586351795
20
20.8711781749
30
0.0000000000
10
11.7749039386
20
20.9041717006
30
0.0000000000
10
12.0671454204
20
20.9156951946
30
0.0000000000
10
12.3296083390
20
20.9110303439
30
0.0000000000
10
12.5612801367
20
20.8950184462
30
0.0000000000
10
12.7639967669
20
20.8715148050
30
0.0000000000
10
12.9411114189
20
20.8432918964
30
0.0000000000
10
13.0964260367
20
20.8122108595
30
0.0000000000
10
13.2338544820
20
20.7793347710
30
0.0000000000
10
13.3195812866
20
20.7556124903
30
0.0000000000
10
13.3600993505
20
20.7435930422
30
0.0000000000
11
9.7942407461
21
20.0414122161
31
0.0000000000
11
9.8728107853
21
20.1544810471
31
0.0000000000
11
10.0377311566
21
20.3207948611
31
0.0000000000
11
10.2509797612
21
20.4722758466
31
0.0000000000
11
10.5082558473
21
20.6059230718
31
0.0000000000
11
10.8055127624
21
20.7191137965
31
0.0000000000
11
11.1317626901
21
20.8076356981
31
0.0000000000
11
11.4650724859
21
20.8679939234
31
0.0000000000
11
11.7842287502
21
20.9015199061
31
0.0000000000
11
12.0775552292
21
20.9131490296
31
0.0000000000
11
12.3399120609
21
20.9084646056
31
0.0000000000
11
12.5705326893
21
20.8924690008
31
0.0000000000
11
12.7720013987
21
20.8690429320
31
0.0000000000
11
12.9477959214
21
20.8409660838
31
0.0000000000
11
13.1017803579
21
20.8100864556
31
0.0000000000
11
13.2379211393
21
20.7774768207
31
0.0000000000
11
13.3600993505
21
20.7435930422
31
0.0000000000
0
SPLINE
5
32E
100
AcDbEntity
8
0
100
AcDbSpline
62
9
6
CONTINUOUS
70
0
71
3
72
11
73
7
74
5
42
0.0000001000
43
0.0000001000
44
0.0000000001
12
0.4172581976
22
0.6072904729
32
0.0000000000
13
0.6503794166
23
0.3430760302
33
0.0000000000
40
0.0000000000
40
0.0000000000
40
0.0000000000
40
0.0000000000
40
0.1092349266
40
0.4504571591
40
0.8321016251
40
1.0000000000
40
1.0000000000
40
1.0000000000
40
1.0000000000
10
9.7063370318
20
20.0747166303
30
0.0000000000
10
9.7215300880
20
20.0968290738
30
0.0000000000
10
9.7879958890
20
20.1854218368
30
0.0000000000
10
9.9344311585
20
20.3289855463
30
0.0000000000
10
10.1146140614
20
20.4535233085
30
0.0000000000
10
10.2321260737
20
20.5194412614
30
0.0000000000
10
10.2685252894
20
20.5386418974
30
0.0000000000
11
9.7063370318
21
20.0747166303
31
0.0000000000
11
9.7545188296
21
20.1391567050
31
0.0000000000
11
9.9315531306
21
20.3167409535
31
0.0000000000
11
10.1609135040
21
20.4781435403
31
0.0000000000
11
10.2685252894
21
20.5386418974
31
0.0000000000
0
SPLINE
5
32F
100
AcDbEntity
8
0
100
AcDbSpline
62
9
6
CONTINUOUS
70
0
71
3
72
8
73
4
74
2
42
0.0000001000
43
0.0000001000
44
0.0000000001
12
0.0229905951
22
-0.0188212009
32
0.0000000000
13
0.0226249144
23
-0.0192665028
33
0.0000000000
40
0.0000000000
40
0.0000000000
40
0.0000000000
40
0.0000000000
40
1.0000000000
40
1.0000000000
40
1.0000000000
40
1.0000000000
10
14.3022666574
20
20.3256262671
30
0.0000000000
10
14.3099301891
20
20.3193525335
30
0.0000000000
10
14.3175349566
20
20.3130053069
30
0.0000000000
10
14.3250765947
20
20.3065831393
30
0.0000000000
11
14.3022666574
21
20.3256262671
31
0.0000000000
11
14.3250765947
21
20.3065831393
31
0.0000000000
0
SPLINE
5
330
100
AcDbEntity
8
0
100
AcDbSpline
62
0
6
CONTINUOUS
70
0
71
3
72
10
73
6
74
4
42
0.0000001000
43
0.0000001000
44
0.0000000001
12
-0.0809117024
22
0.0245489425
32
0.0000000000
13
-0.0751620072
23
-0.0375810036
33
0.0000000000
40
0.0000000000
40
0.0000000000
40
0.0000000000
40
0.0000000000
40
0.1915809123
40
0.5741137005
40
1.0000000000
40
1.0000000000
40
1.0000000000
40
1.0000000000
10
13.4416851210
20
20.7546662013
30
0.0000000000
10
13.4365180751
20
20.7562339042
30
0.0000000000
10
13.4205215224
20
20.7593970345
30
0.0000000000
10
13.3921714192
20
20.7570145840
30
0.0000000000
10
13.3707431813
20
20.7489149576
30
0.0000000000
10
13.3600730249
20
20.7435798794
30
0.0000000000
11
13.4416851210
21
20.7546662013
31
0.0000000000
11
13.4258108839
21
20.7578404280
31
0.0000000000
11
13.3937342324
21
20.7557355686
31
0.0000000000
11
13.3600730249
21
20.7435798794
31
0.0000000000
0
SPLINE
5
331
100
AcDbEntity
8
0
100
AcDbSpline
62
9
6
CONTINUOUS
70
0
71
3
72
8
73
4
74
2
42
0.0000001000
43
0.0000001000
44
0.0000000001
12
0.0513448526
22
-0.0432714134
32
0.0000000000
13
0.0491638499
23
-0.0457595352
33
0.0000000000
40
0.0000000000
40
0.0000000000
40
0.0000000000
40
0.0000000000
40
1.0000000000
40
1.0000000000
40
1.0000000000
40
1.0000000000
10
14.2086300582
20
20.3193302587
30
0.0000000000
10
14.2257450091
20
20.3049064542
30
0.0000000000
10
14.2425211355
20
20.2900717526
30
0.0000000000
10
14.2589090855
20
20.2748185742
30
0.0000000000
11
14.2086300582
21
20.3193302587
31
0.0000000000
11
14.2589090855
21
20.2748185742
31
0.0000000000
0
SPLINE
5
332
100
AcDbEntity
8
0
100
AcDbSpline
62
0
6
CONTINUOUS
70
0
71
3
72
10
73
6
74
4
42
0.0000001000
43
0.0000001000
44
0.0000000001
12
0.0000000000
22
-0.3264524381
32
0.0000000000
13
-0.3024227821
23
-0.1281163157
33
0.0000000000
40
0.0000000000
40
0.0000000000
40
0.0000000000
40
0.0000000000
40
0.3857313724
40
0.7185800997
40
1.0000000000
40
1.0000000000
40
1.0000000000
40
1.0000000000
10
-1.1182872405
20
-24.8467662486
30
0.0000000000
10
-1.1182872405
20
-24.8887405643
30
0.0000000000
10
-1.1273287556
20
-24.9675599009
30
0.0000000000
10
-1.1757805294
20
-25.0683495379
30
0.0000000000
10
-1.2312305597
20
-25.1106850482
30
0.0000000000
10
-1.2595998228
20
-25.1227032085
30
0.0000000000
11
-1.1182872405
21
-24.8467662486
31
0.0000000000
11
-1.1354212223
21
-24.9715180632
31
0.0000000000
11
-1.1858146003
21
-25.0677851202
31
0.0000000000
11
-1.2595998228
21
-25.1227032085
31
0.0000000000
0
SPLINE
5
333
100
AcDbEntity
8
0
100
AcDbSpline
62
0
6
CONTINUOUS
70
0
71
3
72
12
73
8
74
6
42
0.0000001000
43
0.0000001000
44
0.0000000001
12
0.6572844934
22
-0.3286422467
32
0.0000000000
13
0.0000000000
23
-0.7348664039
33
0.0000000000
40
0.0000000000
40
0.0000000000
40
0.0000000000
40
0.0000000000
40
0.1797212782
40
0.3828442773
40
0.5944932733
40
0.8055203065
40
1.0000000000
40
1.0000000000
40
1.0000000000
40
1.0000000000
10
-1.4715715064
20
13.3481929188
30
0.0000000000
10
-1.4321955033
20
13.3285049172
30
0.0000000000
10
-1.3549652619
20
13.2730073940
30
0.0000000000
10
-1.2585021117
20
13.1626644205
30
0.0000000000
10
-1.1814249172
20
13.0290451858
30
0.0000000000
10
-1.1314208654
20
12.8854718976
30
0.0000000000
10
-1.1182872405
20
12.7859787566
30
0.0000000000
10
-1.1182872405
20
12.7383398922
30
0.0000000000
11
-1.4715715064
21
13.3481929188
31
0.0000000000
11
-1.3630157306
21
13.2729704038
31
0.0000000000
11
-1.2637744863
21
13.1614706673
31
0.0000000000
11
-1.1858146003
21
13.0268861237
31
0.0000000000
11
-1.1354212223
21
12.8802256886
31
0.0000000000
11
-1.1182872405
21
12.7383398922
31
0.0000000000
0
SPLINE
5
334
100
AcDbEntity
8
0
100
AcDbSpline
62
0
6
CONTINUOUS
70
0
71
3
72
10
73
6
74
4
42
0.0000001000
43
0.0000001000
44
0.0000000001
12
0.2107254494
22
0.1240719010
32
0.0000000000
13
0.2166943249
23
-0.1083471625
33
0.0000000000
40
0.0000000000
40
0.0000000000
40
0.0000000000
40
0.0000000000
40
0.1185361847
40
0.5312773703
40
1.0000000000
40
1.0000000000
40
1.0000000000
40
1.0000000000
10
-16.6611765982
20
20.8344937229
30
0.0000000000
10
-16.6528504012
20
20.8393960595
30
0.0000000000
10
-16.6139534893
20
20.8585149127
30
0.0000000000
10
-16.5302204913
20
20.8666551493
30
0.0000000000
10
-16.4612746891
20
20.8430445101
30
0.0000000000
10
-16.4274181778
20
20.8261162545
30
0.0000000000
11
-16.6611765982
21
20.8344937229
31
0.0000000000
11
-16.6352151979
21
20.8471910230
31
0.0000000000
11
-16.5359739536
21
20.8594495154
31
0.0000000000
11
-16.4274181778
21
20.8261162545
31
0.0000000000
0
SPLINE
5
335
100
AcDbEntity
8
0
100
AcDbSpline
62
9
6
CONTINUOUS
70
0
71
3
72
14
73
10
74
8
42
0.0000001000
43
0.0000001000
44
0.0000000001
12
0.1010628832
22
1.8716361833
32
0.0000000000
13
1.4978805115
23
1.1326370919
33
0.0000000000
40
0.0000000000
40
0.0000000000
40
0.0000000000
40
0.0000000000
40
0.1526017017
40
0.3134054078
40
0.4784271986
40
0.6431519993
40
0.8033133509
40
0.9548433960
40
1.0000000000
40
1.0000000000
40
1.0000000000
40
1.0000000000
10
-20.4584202893
20
17.3381849297
30
0.0000000000
10
-20.4532795000
20
17.4333898852
30
0.0000000000
10
-20.4268290875
20
17.6282612851
30
0.0000000000
10
-20.3462787882
20
17.9169408232
30
0.0000000000
10
-20.2268977861
20
18.2001095006
30
0.0000000000
10
-20.0736391285
20
18.4659750745
30
0.0000000000
10
-19.8928165753
20
18.7035407524
30
0.0000000000
10
-19.7340663919
20
18.8611286806
30
0.0000000000
10
-19.6378459609
20
18.9380504024
30
0.0000000000
10
-19.6152995618
20
18.9550990839
30
0.0000000000
11
-20.4584202893
21
17.3381849297
31
0.0000000000
11
-20.4212821509
21
17.6217946264
31
0.0000000000
11
-20.3410371620
21
17.9123207013
31
0.0000000000
11
-20.2210883030
21
18.1974266090
31
0.0000000000
11
-20.0666394726
21
18.4647739670
31
0.0000000000
11
-19.8841648344
21
18.7031504115
31
0.0000000000
11
-19.6815681123
21
18.9022062301
31
0.0000000000
11
-19.6152995618
21
18.9550990839
31
0.0000000000
0
SPLINE
5
336
100
AcDbEntity
8
0
100
AcDbSpline
62
9
6
CONTINUOUS
70
0
71
3
72
8
73
4
74
2
42
0.0000001000
43
0.0000001000
44
0.0000000001
12
0.1418892379
22
0.1072909438
32
0.0000000000
13
0.1537993033
23
0.0887160608
33
0.0000000000
40
0.0000000000
40
0.0000000000
40
0.0000000000
40
0.0000000000
40
1.0000000000
40
1.0000000000
40
1.0000000000
40
1.0000000000
10
-19.6152995618
20
18.9550990839
30
0.0000000000
10
-19.5680031492
20
18.9908627319
30
0.0000000000
10
-19.5187023759
20
19.0239354338
30
0.0000000000
10
-19.4674359414
20
19.0535074540
30
0.0000000000
11
-19.6152995618
21
18.9550990839
31
0.0000000000
11
-19.4674359414
21
19.0535074540
31
0.0000000000
0
SPLINE
5
337
100
AcDbEntity
8
0
100
AcDbSpline
62
9
6
CONTINUOUS
70
0
71
3
72
11
73
7
74
5
42
0.0000001000
43
0.0000001000
44
0.0000000001
12
0.0502361720
22
-0.8589270061
32
0.0000000000
13
0.7716329920
23
-0.3882711149
33
0.0000000000
40
0.0000000000
40
0.0000000000
40
0.0000000000
40
0.0000000000
40
0.2893559898
40
0.5507098616
40
0.7885833927
40
1.0000000000
40
1.0000000000
40
1.0000000000
40
1.0000000000
10
-5.6339215421
20
-25.7120797580
30
0.0000000000
10
-5.6290761630
20
-25.7949249827
30
0.0000000000
10
-5.6063422516
20
-25.9524166880
30
0.0000000000
10
-5.5256591663
20
-26.1659851604
30
0.0000000000
10
-5.4036959070
20
-26.3330350330
30
0.0000000000
10
-5.2974793571
20
-26.4099159857
30
0.0000000000
10
-5.2431006806
20
-26.4372783063
30
0.0000000000
11
-5.6339215421
21
-25.7120797580
31
0.0000000000
11
-5.5959071955
21
-25.9581207912
31
0.0000000000
11
-5.5137736431
21
-26.1674518256
31
0.0000000000
11
-5.3909960776
21
-26.3312000966
31
0.0000000000
11
-5.2431006806
21
-26.4372783063
31
0.0000000000
0
SPLINE
5
338
100
AcDbEntity
8
0
100
AcDbSpline
62
9
6
CONTINUOUS
70
0
71
3
72
8
73
4
74
2
42
0.0000001000
43
0.0000001000
44
0.0000000001
12
-0.1064074639
22
-1.9145865608
32
0.0000000000
13
-0.0955201396
23
-1.9151991936
33
0.0000000000
40
0.0000000000
40
0.0000000000
40
0.0000000000
40
0.0000000000
40
1.0000000000
40
1.0000000000
40
1.0000000000
40
1.0000000000
10
-5.6339215421
20
9.9259355561
30
0.0000000000
10
-5.6693906967
20
9.2877400358
30
0.0000000000
10
-5.7030531038
20
8.6494364840
30
0.0000000000
10
-5.7348931503
20
8.0110367528
30
0.0000000000
11
-5.6339215421
21
9.9259355561
31
0.0000000000
11
-5.7348931503
21
8.0110367528
31
0.0000000000
0
SPLINE
5
339
100
AcDbEntity
8
0
100
AcDbSpline
62
9
6
CONTINUOUS
70
0
71
3
72
11
73
7
74
5
42
0.0000001000
43
0.0000001000
44
0.0000000001
12
-1.6806500386
22
-33.6973921011
32
0.0000000000
13
1.9780418352
23
-33.6805643372
33
0.0000000000
40
0.0000000000
40
0.0000000000
40
0.0000000000
40
0.0000000000
40
0.2127652408
40
0.4788510235
40
0.7412989154
40
1.0000000000
40
1.0000000000
40
1.0000000000
40
1.0000000000
10
-5.7348931503
20
8.0110367528
30
0.0000000000
10
-5.8540877871
20
5.6211588375
30
0.0000000000
10
-6.0648703242
20
0.2394484117
30
0.0000000000
10
-6.1844960237
20
-8.0975545963
30
0.0000000000
10
-6.0591951807
20
-16.9512473919
30
0.0000000000
10
-5.8044953981
20
-22.8076802504
30
0.0000000000
10
-5.6339215421
20
-25.7120797580
30
0.0000000000
11
-5.7348931503
21
8.0110367528
31
0.0000000000
11
-6.0150415882
21
0.8379811864
31
0.0000000000
11
-6.1421441335
21
-8.1384805257
31
0.0000000000
11
-6.0150415224
21
-16.9921924294
31
0.0000000000
11
-5.6339215421
21
-25.7120797580
31
0.0000000000
0
SPLINE
5
33A
100
AcDbEntity
8
0
100
AcDbSpline
62
9
6
CONTINUOUS
70
0
71
3
72
14
73
10
74
8
42
0.0000001000
43
0.0000001000
44
0.0000000001
12
-1.2040917007
22
-0.6576261793
32
0.0000000000
13
-0.0762836193
23
-1.3698502928
33
0.0000000000
40
0.0000000000
40
0.0000000000
40
0.0000000000
40
0.0000000000
40
0.1286647501
40
0.2679116047
40
0.4145847052
40
0.5650057958
40
0.7153614689
40
0.8616917854
40
1.0000000000
40
1.0000000000
40
1.0000000000
40
1.0000000000
10
-4.2537693151
20
11.0265880651
30
0.0000000000
10
-4.3054107010
20
10.9983836291
30
0.0000000000
10
-4.4072453053
20
10.9289093327
30
0.0000000000
10
-4.5452560825
20
10.7979614802
30
0.0000000000
10
-4.6696347411
20
10.6411168406
30
0.0000000000
10
-4.7750214455
20
10.4650603140
30
0.0000000000
10
-4.8570504092
20
10.2771310653
30
0.0000000000
10
-4.9122771286
20
10.0854282749
30
0.0000000000
10
-4.9303546125
20
9.9559165396
30
0.0000000000
10
-4.9338714962
20
9.8927626902
30
0.0000000000
11
-4.2537693151
21
11.0265880651
31
0.0000000000
11
-4.4003054505
21
10.9281600835
31
0.0000000000
11
-4.5395396894
21
10.7973502656
31
0.0000000000
11
-4.6649804395
21
10.6400011980
31
0.0000000000
11
-4.7711204377
21
10.4630142658
31
0.0000000000
11
-4.8534832628
21
10.2738862616
31
0.0000000000
11
-4.9085224948
21
10.0808169979
31
0.0000000000
11
-4.9338714962
21
9.8927626902
31
0.0000000000
0
SPLINE
5
33B
100
AcDbEntity
8
0
100
AcDbSpline
62
9
6
CONTINUOUS
70
0
71
3
72
10
73
6
74
4
42
0.0000001000
43
0.0000001000
44
0.0000000001
12
0.0130269110
22
-0.2424768830
32
0.0000000000
13
0.2139256154
23
-0.1072581440
33
0.0000000000
40
0.0000000000
40
0.0000000000
40
0.0000000000
40
0.0000000000
40
0.1512313455
40
0.5342654564
40
1.0000000000
40
1.0000000000
40
1.0000000000
40
1.0000000000
10
-20.6045655743
20
-18.1221449159
30
0.0000000000
10
-20.6039088819
20
-18.1343682843
30
0.0000000000
10
-20.5965908658
20
-18.1772070423
30
0.0000000000
10
-20.5492716602
20
-18.2455925728
30
0.0000000000
10
-20.4916311169
20
-18.2831790973
30
0.0000000000
10
-20.4584202673
20
-18.2998303716
30
0.0000000000
11
-20.6045655743
21
-18.1221449159
31
0.0000000000
11
-20.5983266572
21
-18.1581155013
31
0.0000000000
11
-20.5496255923
21
-18.2357708845
31
0.0000000000
11
-20.4584202673
21
-18.2998303716
31
0.0000000000
0
SPLINE
5
33C
100
AcDbEntity
8
0
100
AcDbSpline
62
9
6
CONTINUOUS
70
0
71
3
72
12
73
8
74
6
42
0.0000001000
43
0.0000001000
44
0.0000000001
12
-0.0325006670
22
0.7310287928
32
0.0000000000
13
-0.6495264340
23
0.3370086064
33
0.0000000000
40
0.0000000000
40
0.0000000000
40
0.0000000000
40
0.0000000000
40
0.1932111100
40
0.4029617224
40
0.6161707066
40
0.8190513604
40
1.0000000000
40
1.0000000000
40
1.0000000000
40
1.0000000000
10
-4.2537693151
20
11.0265880651
30
0.0000000000
10
-4.2558624784
20
11.0736690266
30
0.0000000000
10
-4.2730569535
20
11.1714171333
30
0.0000000000
10
-4.3273523028
20
11.3123450704
30
0.0000000000
10
-4.4067894700
20
11.4437017093
30
0.0000000000
10
-4.5039277870
20
11.5532411401
30
0.0000000000
10
-4.5804250786
20
11.6092634288
30
0.0000000000
10
-4.6196020535
20
11.6295905117
30
0.0000000000
11
-4.2537693151
21
11.0265880651
31
0.0000000000
11
-4.2765614496
21
11.1661212261
31
0.0000000000
11
-4.3310846403
21
11.3095957135
31
0.0000000000
11
-4.4120084923
21
11.4429834232
31
0.0000000000
11
-4.5114209910
21
11.5532420430
31
0.0000000000
11
-4.6196020535
21
11.6295905117
31
0.0000000000
0
SPLINE
5
33D
100
AcDbEntity
8
0
100
AcDbSpline
62
9
6
CONTINUOUS
70
0
71
3
72
12
73
8
74
6
42
0.0000001000
43
0.0000001000
44
0.0000000001
12
-0.6658521363
22
-0.2663845926
32
0.0000000000
13
-0.6410515844
23
0.3215162278
33
0.0000000000
40
0.0000000000
40
0.0000000000
40
0.0000000000
40
0.0000000000
40
0.1828792131
40
0.3895418780
40
0.6052465107
40
0.8137513792
40
1.0000000000
40
1.0000000000
40
1.0000000000
40
1.0000000000
10
-4.9338714962
20
9.8927626902
30
0.0000000000
10
-4.9744616678
20
9.8765239553
30
0.0000000000
10
-5.0652477466
20
9.8526958776
30
0.0000000000
10
-5.2097432937
20
9.8391956706
30
0.0000000000
10
-5.3609149524
20
9.8464038132
30
0.0000000000
10
-5.5047208717
20
9.8736619884
30
0.0000000000
10
-5.5941231857
20
9.9059749180
30
0.0000000000
10
-5.6339215102
20
9.9259355694
30
0.0000000000
11
-4.9338714962
21
9.8927626902
31
0.0000000000
11
-5.0601924544
21
9.8574874526
31
0.0000000000
11
-5.2076741139
21
9.8428082055
31
0.0000000000
11
-5.3621956620
21
9.8501304314
31
0.0000000000
11
-5.5089622431
21
9.8787530551
31
0.0000000000
11
-5.6339215102
21
9.9259355694
31
0.0000000000
0
SPLINE
5
33E
100
AcDbEntity
8
0
100
AcDbSpline
62
9
6
CONTINUOUS
70
0
71
3
72
10
73
6
74
4
42
0.0000001000
43
0.0000001000
44
0.0000000001
12
-0.0101600645
22
-0.2415720333
32
0.0000000000
13
0.2124452555
23
-0.1058943005
33
0.0000000000
40
0.0000000000
40
0.0000000000
40
0.0000000000
40
0.0000000000
40
0.1818275071
40
0.5379992864
40
1.0000000000
40
1.0000000000
40
1.0000000000
40
1.0000000000
10
-20.6044432849
20
17.5114763463
30
0.0000000000
10
-20.6050590780
20
17.4968348661
30
0.0000000000
10
-20.5987763152
20
17.4528451848
30
0.0000000000
10
-20.5464423543
20
17.3889478259
30
0.0000000000
10
-20.4911241754
20
17.3544979698
30
0.0000000000
10
-20.4584075555
20
17.3381902224
30
0.0000000000
11
-20.6044432849
21
17.5114763463
31
0.0000000000
11
-20.5983139123
21
17.4681985245
31
0.0000000000
11
-20.5496119476
21
17.3990888057
31
0.0000000000
11
-20.4584075555
21
17.3381902224
31
0.0000000000
0
SPLINE
5
33F
100
AcDbEntity
8
0
100
AcDbSpline
62
9
6
CONTINUOUS
70
0
71
3
72
10
73
6
74
4
42
0.0000001000
43
0.0000001000
44
0.0000000001
12
0.2100289573
22
0.1237505318
32
0.0000000000
13
0.2173276728
23
-0.1047068202
33
0.0000000000
40
0.0000000000
40
0.0000000000
40
0.0000000000
40
0.0000000000
40
0.1159896849
40
0.5234590077
40
1.0000000000
40
1.0000000000
40
1.0000000000
40
1.0000000000
10
-19.7005279011
20
19.0622261040
30
0.0000000000
10
-19.6924075036
20
19.0670106991
30
0.0000000000
10
-19.6541730211
20
19.0857370084
30
0.0000000000
10
-19.5708310095
20
19.0931101582
30
0.0000000000
10
-19.5019577897
20
19.0701398180
30
0.0000000000
10
-19.4674359414
20
19.0535074540
30
0.0000000000
11
-19.7005279011
21
19.0622261040
31
0.0000000000
11
-19.6751985463
21
19.0745796229
31
0.0000000000
11
-19.5776078049
21
19.0863358313
31
0.0000000000
11
-19.4674359414
21
19.0535074540
31
0.0000000000
0
SPLINE
5
340
100
AcDbEntity
8
0
100
AcDbSpline
62
9
6
CONTINUOUS
70
0
71
3
72
12
73
8
74
6
42
0.0000001000
43
0.0000001000
44
0.0000000001
12
-0.6294211043
22
-0.3560027299
32
0.0000000000
13
-0.6471389696
23
0.3226763461
33
0.0000000000
40
0.0000000000
40
0.0000000000
40
0.0000000000
40
0.0000000000
40
0.1896724680
40
0.3981058516
40
0.6119385057
40
0.8167876524
40
1.0000000000
40
1.0000000000
40
1.0000000000
40
1.0000000000
10
-4.9338714963
20
-25.6858559317
30
0.0000000000
10
-4.9736661144
20
-25.7083639038
30
0.0000000000
10
-5.0633482971
20
-25.7449035180
30
0.0000000000
10
-5.2084457094
20
-25.7747142229
30
0.0000000000
10
-5.3602278186
20
-25.7805027390
30
0.0000000000
10
-5.5047424233
20
-25.7617557421
30
0.0000000000
10
-5.5943915555
20
-25.7317807686
30
0.0000000000
10
-5.6339128388
20
-25.7120746717
30
0.0000000000
11
-4.9338714963
21
-25.6858559317
31
0.0000000000
11
-5.0601918302
21
-25.7392896027
31
0.0000000000
11
-5.2076717923
21
-25.7703888360
31
0.0000000000
11
-5.3621910610
21
-25.7761760662
31
0.0000000000
11
-5.5089553431
21
-25.7560972009
31
0.0000000000
11
-5.6339128388
21
-25.7120746717
31
0.0000000000
0
SPLINE
5
341
100
AcDbEntity
8
0
100
AcDbSpline
62
9
6
CONTINUOUS
70
0
71
3
72
10
73
6
74
4
42
0.0000001000
43
0.0000001000
44
0.0000000001
12
-0.0143128387
22
-0.3357569865
32
0.0000000000
13
-0.3113946552
23
-0.1315092082
33
0.0000000000
40
0.0000000000
40
0.0000000000
40
0.0000000000
40
0.0000000000
40
0.3855988216
40
0.7180311562
40
1.0000000000
40
1.0000000000
40
1.0000000000
40
1.0000000000
10
-4.2537693151
20
-26.1629142646
30
0.0000000000
10
-4.2556089863
20
-26.2060700974
30
0.0000000000
10
-4.2683446031
20
-26.2866642403
30
0.0000000000
10
-4.3212101681
20
-26.3885117191
30
0.0000000000
10
-4.3783115183
20
-26.4317427811
30
0.0000000000
10
-4.4075793819
20
-26.4441032809
30
0.0000000000
11
-4.2537693151
21
-26.1629142646
31
0.0000000000
11
-4.2765618938
21
-26.2904791147
31
0.0000000000
11
-4.3310857464
21
-26.3879882266
31
0.0000000000
11
-4.4075793819
21
-26.4441032809
31
0.0000000000
0
SPLINE
5
342
100
AcDbEntity
8
0
100
AcDbSpline
62
9
6
CONTINUOUS
70
0
71
3
72
14
73
10
74
8
42
0.0000001000
43
0.0000001000
44
0.0000000001
12
-1.8005544749
22
-0.9940019501
32
0.0000000000
13
-0.1135777622
23
-2.0535667474
33
0.0000000000
40
0.0000000000
40
0.0000000000
40
0.0000000000
40
0.0000000000
40
0.1287990799
40
0.2677581697
40
0.4141784612
40
0.5644311075
40
0.7147299208
40
0.8610824470
40
1.0000000000
40
1.0000000000
40
1.0000000000
40
1.0000000000
10
-4.6196020551
20
11.6295905109
30
0.0000000000
10
-4.6969053083
20
11.5869149987
30
0.0000000000
10
-4.8489492774
20
11.4820456660
30
0.0000000000
10
-5.0546984616
20
11.2849705124
30
0.0000000000
10
-5.2398886764
20
11.0494812401
30
0.0000000000
10
-5.3968449647
20
10.7853419074
30
0.0000000000
10
-5.5191052026
20
10.5034760044
30
0.0000000000
10
-5.6015973576
20
10.2156163426
30
0.0000000000
10
-5.6286622271
20
10.0210277119
30
0.0000000000
10
-5.6339215421
20
9.9259355561
30
0.0000000000
11
-4.6196020551
21
11.6295905109
31
0.0000000000
11
-4.8387764280
21
11.4808103880
31
0.0000000000
11
-5.0461434326
21
11.2841397106
31
0.0000000000
11
-5.2329154054
21
11.0479119334
31
0.0000000000
11
-5.3910011056
21
10.7823830103
31
0.0000000000
11
-5.5137743999
21
10.4986893203
31
0.0000000000
11
-5.5959089577
21
10.2091080298
31
0.0000000000
11
-5.6339215421
21
9.9259355561
31
0.0000000000
0
SPLINE
5
343
100
AcDbEntity
8
0
100
AcDbSpline
62
9
6
CONTINUOUS
70
0
71
3
72
11
73
7
74
5
42
0.0000001000
43
0.0000001000
44
0.0000000001
12
-0.7656820748
22
0.3833126265
32
0.0000000000
13
-0.0486803688
23
0.8514161388
33
0.0000000000
40
0.0000000000
40
0.0000000000
40
0.0000000000
40
0.0000000000
40
0.2102032797
40
0.4468870218
40
0.7087311205
40
1.0000000000
40
1.0000000000
40
1.0000000000
40
1.0000000000
10
-20.0755866190
20
-19.0210377297
30
0.0000000000
10
-20.1292362467
20
-18.9941798726
30
0.0000000000
10
-20.2337778460
20
-18.9179504868
30
0.0000000000
10
-20.3529840203
20
-18.7518175350
30
0.0000000000
10
-20.4315940720
20
-18.5393066265
30
0.0000000000
10
-20.4536939305
20
-18.3824940593
30
0.0000000000
10
-20.4584202893
20
-18.2998303844
30
0.0000000000
11
-20.0755866190
21
-19.0210377297
31
0.0000000000
11
-20.2210835919
21
-18.9161563394
31
0.0000000000
11
-20.3410363438
21
-18.7538204752
31
0.0000000000
11
-20.4212804176
21
-18.5454341801
31
0.0000000000
11
-20.4584202893
21
-18.2998303844
31
0.0000000000
0
SPLINE
5
344
100
AcDbEntity
8
0
100
AcDbSpline
62
9
6
CONTINUOUS
70
0
71
3
72
14
73
10
74
8
42
0.0000001000
43
0.0000001000
44
0.0000000001
12
0.0591050695
22
-1.0034861683
32
0.0000000000
13
0.9269341065
23
0.3889358064
33
0.0000000000
40
0.0000000000
40
0.0000000000
40
0.0000000000
40
0.0000000000
40
0.1647478018
40
0.3143568999
40
0.4507811361
40
0.5797726840
40
0.7096074968
40
0.8481308070
40
1.0000000000
40
1.0000000000
40
1.0000000000
40
1.0000000000
10
-4.9338714962
20
-25.6858559317
30
0.0000000000
10
-4.9306256862
20
-25.7409633119
30
0.0000000000
10
-4.9154095606
20
-25.8459889668
30
0.0000000000
10
-4.8613529049
20
-25.9885697672
30
0.0000000000
10
-4.7779419376
20
-26.1024118405
30
0.0000000000
10
-4.6678121401
20
-26.1804208709
30
0.0000000000
10
-4.5372476805
20
-26.2170846259
30
0.0000000000
10
-4.3946663176
20
-26.2115028326
30
0.0000000000
10
-4.3006935600
20
-26.1826033869
30
0.0000000000
10
-4.2537693151
20
-26.1629142646
30
0.0000000000
11
-4.9338714962
21
-25.6858559317
31
0.0000000000
11
-4.9085022291
21
-25.8495099201
31
0.0000000000
11
-4.8534286033
21
-25.9894538502
31
0.0000000000
11
-4.7710028071
21
-26.0990557230
31
0.0000000000
11
-4.6648356816
21
-26.1734983235
31
0.0000000000
11
-4.5394300223
21
-26.2096525211
31
0.0000000000
11
-4.4002312780
21
-26.2059817709
31
0.0000000000
11
-4.2537693151
21
-26.1629142646
31
0.0000000000
0
SPLINE
5
345
100
AcDbEntity
8
0
100
AcDbSpline
62
9
6
CONTINUOUS
70
0
71
3
72
11
73
7
74
5
42
0.0000001000
43
0.0000001000
44
0.0000000001
12
-1.9753715817
22
-35.5418623533
32
0.0000000000
13
2.0870319740
23
-35.5354804381
33
0.0000000000
40
0.0000000000
40
0.0000000000
40
0.0000000000
40
0.0000000000
40
0.2551005825
40
0.5068772897
40
0.7552118341
40
1.0000000000
40
1.0000000000
40
1.0000000000
40
1.0000000000
10
-4.9338714962
20
9.8927626902
30
0.0000000000
10
-5.1018443099
20
6.8705127609
30
0.0000000000
10
-5.3549575317
20
0.8605696964
30
0.0000000000
10
-5.4835441813
20
-8.1006732213
30
0.0000000000
10
-5.3584486655
20
-16.9396235353
30
0.0000000000
10
-5.1041650726
20
-22.7863009047
30
0.0000000000
10
-4.9338714962
20
-25.6858559317
30
0.0000000000
11
-4.9338714962
21
9.8927626902
31
0.0000000000
11
-5.3143662562
21
0.8199952376
31
0.0000000000
11
-5.4412615577
21
-8.1415299149
31
0.0000000000
11
-5.3143666834
21
-16.9805129331
31
0.0000000000
11
-4.9338714962
21
-25.6858559317
31
0.0000000000
0
SPLINE
5
346
100
AcDbEntity
8
0
100
AcDbSpline
62
9
6
CONTINUOUS
70
0
71
3
72
8
73
4
74
2
42
0.0000001000
43
0.0000001000
44
0.0000000001
12
-0.0104903827
22
0.1847717806
32
0.0000000000
13
-0.0103750491
23
0.1847787221
33
0.0000000000
40
0.0000000000
40
0.0000000000
40
0.0000000000
40
0.0000000000
40
1.0000000000
40
1.0000000000
40
1.0000000000
40
1.0000000000
10
-20.4584202893
20
-18.2998303844
30
0.0000000000
10
-20.4619170835
20
-18.2382397909
30
0.0000000000
10
-20.4653946467
20
-18.1766480332
30
0.0000000000
10
-20.4688529964
20
-18.1150551259
30
0.0000000000
11
-20.4584202893
21
-18.2998303844
31
0.0000000000
11
-20.4688529964
21
-18.1150551259
31
0.0000000000
0
SPLINE
5
347
100
AcDbEntity
8
0
100
AcDbSpline
62
9
6
CONTINUOUS
70
0
71
3
72
11
73
7
74
5
42
0.0000001000
43
0.0000001000
44
0.0000000001
12
-1.9884517842
22
35.4141531934
32
0.0000000000
13
1.8992505918
23
35.4189667070
33
0.0000000000
40
0.0000000000
40
0.0000000000
40
0.0000000000
40
0.0000000000
40
0.2406567931
40
0.4902317330
40
0.7433897627
40
1.0000000000
40
1.0000000000
40
1.0000000000
40
1.0000000000
10
-20.4688529964
20
-18.1150551259
30
0.0000000000
10
-20.6283644730
20
-15.2741696130
30
0.0000000000
10
-20.8700348704
20
-9.4821398860
30
0.0000000000
10
-20.9901325990
20
-0.6925588367
30
0.0000000000
10
-20.8656953676
20
8.2855784608
30
0.0000000000
10
-20.6208760043
20
14.3085617789
30
0.0000000000
10
-20.4584202893
20
17.3381849297
30
0.0000000000
11
-20.4688529964
21
-18.1150551259
31
0.0000000000
11
-20.8264849971
21
-9.5864706920
31
0.0000000000
11
-20.9492337061
21
-0.7349357394
31
0.0000000000
11
-20.8264850604
21
8.2437029225
31
0.0000000000
11
-20.4584202893
21
17.3381849297
31
0.0000000000
0
SPLINE
5
348
100
AcDbEntity
8
0
100
AcDbSpline
62
9
6
CONTINUOUS
70
0
71
3
72
46
73
42
74
40
42
0.0000001000
43
0.0000001000
44
0.0000000001
12
-0.1283052253
22
2.6520032074
32
1.6792888783
13
-0.1703435071
23
4.0948663602
33
2.5608679347
40
0.0000000000
40
0.0000000000
40
0.0000000000
40
0.0000000000
40
0.1250000000
40
0.1875000000
40
0.2500000000
40
0.3125000000
40
0.3750000000
40
0.4375000000
40
0.5000000000
40
0.5312500000
40
0.5625000000
40
0.5781250000
40
0.5937500000
40
0.6093750000
40
0.6250000000
40
0.6406250000
40
0.6484375000
40
0.6523437500
40
0.6562500000
40
0.6601562500
40
0.6640625000
40
0.6650390625
40
0.6660156250
40
0.6669921875
40
0.6679687500
40
0.6699218750
40
0.6718750000
40
0.6757812500
40
0.6796875000
40
0.6875000000
40
0.6953125000
40
0.7031250000
40
0.7187500000
40
0.7343750000
40
0.7500000000
40
0.7812500000
40
0.8125000000
40
0.8437500000
40
0.8750000000
40
0.9375000000
40
1.0000000000
40
1.0000000000
40
1.0000000000
40
1.0000000000
10
-9.2100577971
20
-21.6872422871
30
4.6845496220
10
-9.2154038481
20
-21.5767421534
30
4.7545199920
10
-9.2234195179
20
-21.4109900154
30
4.8594727316
10
-9.2341207049
20
-21.1899949149
30
4.9994209789
10
-9.2421125266
20
-21.0242292142
30
5.1043540116
10
-9.2502338090
20
-20.8585371395
30
5.2093940247
10
-9.2578713174
20
-20.6925699365
30
5.3140342690
10
-9.2653789333
20
-20.5265288621
30
5.4185671761
10
-9.2716649298
20
-20.3881781626
30
5.5057024333
10
-9.2766875134
20
-20.2774940687
30
5.5754055048
10
-9.2798273373
20
-20.2083169146
30
5.6189705095
10
-9.2823390480
20
-20.1529751038
30
5.6538223926
10
-9.2842228506
20
-20.1114687656
30
5.6799613160
10
-9.2861066490
20
-20.0699623913
30
5.7061002555
10
-9.2879904446
20
-20.0284561417
30
5.7322391197
10
-9.2895602873
20
-19.9938672148
30
5.7540217441
10
-9.2906591511
20
-19.9696557211
30
5.7692691151
10
-9.2912871140
20
-19.9558194030
30
5.7779826262
10
-9.2917579713
20
-19.9454454851
30
5.7845157097
10
-9.2922292679
20
-19.9350588742
30
5.7910566287
10
-9.2925815087
20
-19.9273045045
30
5.7959403488
10
-9.2928182513
20
-19.9220795771
30
5.7992303289
10
-9.2929332024
20
-19.9195659458
30
5.8008143086
10
-9.2930614514
20
-19.9166680544
30
5.8026354962
10
-9.2932957243
20
-19.9109758198
30
5.8061924245
10
-9.2935669005
20
-19.9044865603
30
5.8102521275
10
-9.2940128898
20
-19.8937538882
30
5.8169636227
10
-9.2945662308
20
-19.8804578395
30
5.8252790431
10
-9.2954538934
20
-19.8591172101
30
5.8386250457
10
-9.2965626767
20
-19.8324643941
30
5.8552933688
10
-9.2978935569
20
-19.8004711827
30
5.8753014262
10
-9.2996679450
20
-19.7578170019
30
5.9019767158
10
-9.3018859709
20
-19.7044980976
30
5.9353215553
10
-9.3045475845
20
-19.6405159168
30
5.9753350513
10
-9.3080964088
20
-19.5552061662
30
6.0286864880
10
-9.3125324370
20
-19.4485690385
30
6.0953757467
10
-9.3178556718
20
-19.3206044592
30
6.1754028730
10
-9.3231789064
20
-19.1926398869
30
6.2554299951
10
-9.3302765525
20
-19.0220204548
30
6.3621328260
10
-9.3391486102
20
-18.8087461654
30
6.4955113641
10
-9.3462462563
20
-18.6381267337
30
6.6022141947
10
-9.3497950794
20
-18.5528170179
30
6.6555656100
11
-9.2100577971
21
-21.6872422871
31
4.6845496220
11
-9.2260959503
21
-21.3557418861
31
4.8944607318
11
-9.2341150268
21
-21.1899916857
31
4.9994162867
11
-9.2421341034
21
-21.0242414852
31
5.1043718416
11
-9.2501531800
21
-20.8584912848
31
5.2093273965
11
-9.2578496686
21
-20.6925576246
31
5.3140163794
11
-9.2653848633
21
-20.5265322346
31
5.4185720764
11
-9.2729200579
21
-20.3605068446
31
5.5231277733
11
-9.2766876552
21
-20.2774941496
31
5.5754056218
11
-9.2804552526
21
-20.1944814546
31
5.6276834702
11
-9.2823390512
21
-20.1529751071
31
5.6538223945
11
-9.2842228499
21
-20.1114687596
31
5.6799613187
11
-9.2861066486
21
-20.0699624121
31
5.7061002429
11
-9.2879904472
21
-20.0284560646
31
5.7322391672
11
-9.2898742459
21
-19.9869497171
31
5.7583780914
11
-9.2908161452
21
-19.9661965433
31
5.7714475535
11
-9.2912870949
21
-19.9558199565
31
5.7779822846
11
-9.2917580446
21
-19.9454433696
31
5.7845170156
11
-9.2922289942
21
-19.9350667827
31
5.7910517467
11
-9.2926999439
21
-19.9246901958
31
5.7975864778
11
-9.2928176813
21
-19.9220960491
31
5.7992201605
11
-9.2929354187
21
-19.9195019024
31
5.8008538433
11
-9.2930693607
21
-19.9164395070
31
5.8027765810
11
-9.2932357118
21
-19.9124406140
31
5.8052774286
11
-9.2935684139
21
-19.9044428282
31
5.8102791238
11
-9.2939011161
21
-19.8964450423
31
5.8152808190
11
-9.2945665204
21
-19.8804494706
31
5.8252842093
11
-9.2952319247
21
-19.8644538989
31
5.8352875997
11
-9.2965627334
21
-19.8324627554
31
5.8552943804
11
-9.2978935420
21
-19.8004716120
31
5.8753011612
11
-9.2992243507
21
-19.7684804685
31
5.8953079419
11
-9.3018859680
21
-19.7044981817
31
5.9353215034
11
-9.3045475853
21
-19.6405158948
31
5.9753350649
11
-9.3072092026
21
-19.5765336079
31
6.0153486264
11
-9.3125324372
21
-19.4485690342
31
6.0953757493
11
-9.3178556718
21
-19.3206044604
31
6.1754028723
11
-9.3231789064
21
-19.1926398866
31
6.2554299952
11
-9.3285021410
21
-19.0646753129
31
6.3354571182
11
-9.3391486102
21
-18.8087461654
31
6.4955113641
11
-9.3497950794
21
-18.5528170179
31
6.6555656100
0
SPLINE
5
349
100
AcDbEntity
8
0
100
AcDbSpline
62
9
6
CONTINUOUS
70
0
71
3
72
46
73
42
74
40
42
0.0000001000
43
0.0000001000
44
0.0000000001
12
0.1086506042
22
-2.6631162067
32
-1.6630097700
13
0.1941663043
23
-4.0813966154
33
-2.5805993707
40
0.0000000000
40
0.0000000000
40
0.0000000000
40
0.0000000000
40
0.1250000000
40
0.1875000000
40
0.2500000000
40
0.3125000000
40
0.3750000000
40
0.4375000000
40
0.5000000000
40
0.5312500000
40
0.5625000000
40
0.5781250000
40
0.5937500000
40
0.6093750000
40
0.6250000000
40
0.6406250000
40
0.6484375000
40
0.6523437500
40
0.6562500000
40
0.6601562500
40
0.6640625000
40
0.6650390625
40
0.6660156250
40
0.6669921875
40
0.6679687500
40
0.6699218750
40
0.6718750000
40
0.6757812500
40
0.6796875000
40
0.6875000000
40
0.6953125000
40
0.7031250000
40
0.7187500000
40
0.7343750000
40
0.7500000000
40
0.7812500000
40
0.8125000000
40
0.8437500000
40
0.8750000000
40
0.9375000000
40
1.0000000000
40
1.0000000000
40
1.0000000000
40
1.0000000000
10
-7.9355815202
20
-19.2599237170
30
7.8803105325
10
-7.9310544117
20
-19.3708868923
30
7.8110184588
10
-7.9242603411
20
-19.5373297396
30
7.7070775191
10
-7.9152152117
20
-19.7592611984
30
7.5685009157
10
-7.9083972862
20
-19.9256906365
30
7.4645401727
10
-7.9017088585
20
-20.0921928675
30
7.3606869337
10
-7.8945365181
20
-20.2584230830
30
7.2564319688
10
-7.8872342480
20
-20.4245802628
30
7.1520691410
10
-7.8811786813
20
-20.5630612506
30
7.0651247394
10
-7.8763280126
20
-20.6738425476
30
6.9955640579
10
-7.8732970540
20
-20.7430812556
30
6.9520892217
10
-7.8708721384
20
-20.7984721417
30
6.9173092274
10
-7.8690534722
20
-20.8400153088
30
6.8912242537
10
-7.8672347987
20
-20.8815585057
30
6.8651392546
10
-7.8654161335
20
-20.9231015809
30
6.8390543352
10
-7.8639005579
20
-20.9577211912
30
6.8173166580
10
-7.8628396959
20
-20.9819541717
30
6.8021007622
10
-7.8622334253
20
-20.9958027549
30
6.7934052180
10
-7.8617789019
20
-21.0061859082
30
6.7868856632
10
-7.8613236922
20
-21.0165816149
30
6.7803580683
10
-7.8609842090
20
-21.0243431980
30
6.7754849148
10
-7.8607548945
20
-21.0295723253
30
6.7722010872
10
-7.8606455807
20
-21.0320891440
30
6.7706217765
10
-7.8605154916
20
-21.0349859950
30
6.7687990649
10
-7.8602431869
20
-21.0406567258
30
6.7652106364
10
-7.8599366529
20
-21.0471259935
30
6.7611216480
10
-7.8594272832
20
-21.0578228295
30
6.7543576575
10
-7.8587970477
20
-21.0710754009
30
6.7459785486
10
-7.8577850512
20
-21.0923457302
30
6.7325295653
10
-7.8565212975
20
-21.1189109237
30
6.7157328866
10
-7.8550042614
20
-21.1507988800
30
6.6955706440
10
-7.8529817324
20
-21.1933127584
30
6.6686898295
10
-7.8504535073
20
-21.2464562717
30
6.6350880650
10
-7.8474196646
20
-21.3102279889
30
6.5947662670
10
-7.8433745313
20
-21.3952571194
30
6.5410037581
10
-7.8383181181
20
-21.5015434728
30
6.4738006603
10
-7.8322504208
20
-21.6290871224
30
6.3931569265
10
-7.8261827239
20
-21.7566307652
30
6.3125131971
10
-7.8180924612
20
-21.9266889580
30
6.2049882230
10
-7.8079796328
20
-22.1392616982
30
6.0705820059
10
-7.7998893701
20
-22.3093198905
30
5.9630570321
10
-7.7958442388
20
-22.3943489867
30
5.9092945452
11
-7.9355815202
21
-19.2599237170
31
7.8803105325
11
-7.9220001947
21
-19.5928132428
31
7.6724343113
11
-7.9152095319
21
-19.7592580058
31
7.5684962007
11
-7.9084188692
21
-19.9257027687
31
7.4645580900
11
-7.9016282064
21
-20.0921475316
31
7.3606199794
11
-7.8945148632
21
-20.2584109104
31
7.2564139916
11
-7.8872401797
21
-20.4245835970
31
7.1520740653
11
-7.8799654962
21
-20.5907562837
31
7.0477341390
11
-7.8763281544
21
-20.6738426271
31
6.9955641758
11
-7.8726908127
21
-20.7569289704
31
6.9433942127
11
-7.8708721418
21
-20.7984721421
31
6.9173092311
11
-7.8690534710
21
-20.8400153138
31
6.8912242495
11
-7.8672348001
21
-20.8815584854
31
6.8651392679
11
-7.8654161292
21
-20.9231016571
31
6.8390542863
11
-7.8635974583
21
-20.9646448288
31
6.8129693048
11
-7.8626881229
21
-20.9854164146
31
6.7999268140
11
-7.8622334552
21
-20.9958022075
31
6.7934055686
11
-7.8617787875
21
-21.0061880004
31
6.7868843232
11
-7.8613241198
21
-21.0165737934
31
6.7803630778
11
-7.8608694520
21
-21.0269595863
31
6.7738418324
11
-7.8607557851
21
-21.0295560345
31
6.7722115210
11
-7.8606421182
21
-21.0321524827
31
6.7705812097
11
-7.8605031351
21
-21.0352120278
31
6.7686542966
11
-7.8603135195
21
-21.0391977667
31
6.7661341800
11
-7.8599342885
21
-21.0471692445
31
6.7610939469
11
-7.8595550574
21
-21.0551407223
31
6.7560537137
11
-7.8587965953
21
-21.0710836778
31
6.7459732474
11
-7.8580381331
21
-21.0870266333
31
6.7358927811
11
-7.8565212089
21
-21.1189125444
31
6.7157318486
11
-7.8550042846
21
-21.1507984554
31
6.6955709160
11
-7.8534873604
21
-21.1826843665
31
6.6754099834
11
-7.8504535119
21
-21.2464561886
31
6.6350881182
11
-7.8474196634
21
-21.3102280107
31
6.5947662531
11
-7.8443858149
21
-21.3739998328
31
6.5544443879
11
-7.8383181179
21
-21.5015434771
31
6.4738006576
11
-7.8322504209
21
-21.6290871213
31
6.3931569272
11
-7.8261827238
21
-21.7566307655
31
6.3125131969
11
-7.8201150268
21
-21.8841744098
31
6.2318694666
11
-7.8079796328
21
-22.1392616982
31
6.0705820059
11
-7.7958442388
21
-22.3943489867
31
5.9092945452
0
SPLINE
5
34A
100
AcDbEntity
8
0
100
AcDbSpline
62
9
6
CONTINUOUS
70
0
71
3
72
56
73
52
74
50
42
0.0000001000
43
0.0000001000
44
0.0000000001
12
0.1384505045
22
-3.5544064012
32
-2.2120063646
13
0.3090182041
23
-6.2969891630
33
-3.9923918749
40
0.0000000000
40
0.0000000000
40
0.0000000000
40
0.0000000000
40
0.1250000000
40
0.1875000000
40
0.2500000000
40
0.3125000000
40
0.3750000000
40
0.4375000000
40
0.5000000000
40
0.5312500000
40
0.5625000000
40
0.5937500000
40
0.6250000000
40
0.6406250000
40
0.6562500000
40
0.6718750000
40
0.6875000000
40
0.7031250000
40
0.7109375000
40
0.7187500000
40
0.7265625000
40
0.7343750000
40
0.7382812500
40
0.7421875000
40
0.7441406250
40
0.7460937500
40
0.7480468750
40
0.7490234375
40
0.7495117188
40
0.7500000000
40
0.7504882813
40
0.7509765625
40
0.7519531250
40
0.7539062500
40
0.7558593750
40
0.7578125000
40
0.7617187500
40
0.7656250000
40
0.7734375000
40
0.7812500000
40
0.7890625000
40
0.7968750000
40
0.8125000000
40
0.8281250000
40
0.8437500000
40
0.8593750000
40
0.8750000000
40
0.9062500000
40
0.9375000000
40
0.9687500000
40
1.0000000000
40
1.0000000000
40
1.0000000000
40
1.0000000000
10
-8.6638916347
20
-18.3540554806
30
7.6113007221
10
-8.6581228637
20
-18.5021557473
30
7.5191337903
10
-8.6494992876
20
-18.7243226971
30
7.3809079940
10
-8.6378828644
20
-19.0204790979
30
7.1965085262
10
-8.6294663512
20
-19.2427618959
30
7.0584549406
10
-8.6199257823
20
-19.4644158037
30
6.9194664972
10
-8.6107130493
20
-19.6862532434
30
6.7807506440
10
-8.6013130283
20
-19.9079854455
30
6.6418792880
10
-8.5938307745
20
-20.0929601295
30
6.5264443419
10
-8.5870959825
20
-20.2405176582
30
6.4334752952
10
-8.5821452455
20
-20.3512423777
30
6.3638317299
10
-8.5771675751
20
-20.4619519144
30
6.2941658303
10
-8.5730256638
20
-20.5542133270
30
6.2361160117
10
-8.5697108478
20
-20.6280217315
30
6.1896750896
10
-8.5672249082
20
-20.6833781324
30
6.1548445409
10
-8.5647389224
20
-20.7387345063
30
6.1200139544
10
-8.5622529489
20
-20.7940908903
30
6.0851833762
10
-8.5601813020
20
-20.8402211992
30
6.0561578982
10
-8.5585239839
20
-20.8771254680
30
6.0329375026
10
-8.5572809984
20
-20.9048036113
30
6.0155222430
10
-8.5560380008
20
-20.9324819767
30
5.9981068414
10
-8.5550022072
20
-20.9555465896
30
5.9835944494
10
-8.5541734879
20
-20.9739998287
30
5.9719835444
10
-8.5536557304
20
-20.9855295770
30
5.9647289861
10
-8.5532410847
20
-20.9947614510
30
5.9589201696
10
-8.5529313040
20
-21.0016632464
30
5.9545777123
10
-8.5526693249
20
-21.0074850782
30
5.9509139686
10
-8.5524934529
20
-21.0114223286
30
5.9484377165
10
-8.5523812231
20
-21.0138877114
30
5.9468847353
10
-8.5523300986
20
-21.0151296099
30
5.9461086914
10
-8.5521526486
20
-21.0186923000
30
5.9438468696
10
-8.5519601123
20
-21.0226330354
30
5.9413493633
10
-8.5516026437
20
-21.0299064918
30
5.9367372621
10
-8.5511027077
20
-21.0400999553
30
5.9302747868
10
-8.5504981902
20
-21.0524165144
30
5.9224657814
10
-8.5496937716
20
-21.0688091131
30
5.9120726476
10
-8.5486876988
20
-21.0893099555
30
5.8990747680
10
-8.5470782896
20
-21.1221056617
30
5.8782817724
10
-8.5450664226
20
-21.1631022303
30
5.8522892886
10
-8.5426522275
20
-21.2122972829
30
5.8210988393
10
-8.5402380202
20
-21.2614925574
30
5.7899082479
10
-8.5370190814
20
-21.3270861792
30
5.7483208423
10
-8.5329954065
20
-21.4090782331
30
5.6963365683
10
-8.5281669971
20
-21.5074686864
30
5.6339554468
10
-8.5233385877
20
-21.6058591427
30
5.5715743234
10
-8.5185101782
20
-21.7042495982
30
5.5091932004
10
-8.5120722990
20
-21.8354368725
30
5.4260183697
10
-8.5040249499
20
-21.9994209652
30
5.3220498313
10
-8.4943681310
20
-22.1962018766
30
5.1972875852
10
-8.4847113122
20
-22.3929827879
30
5.0725253391
10
-8.4782734329
20
-22.5241700622
30
4.9893505084
10
-8.4750544933
20
-22.5897636993
30
4.9477630930
11
-8.6638916347
21
-18.3540554806
31
7.6113007221
11
-8.6465853217
21
-18.7983562807
31
7.3347999266
11
-8.6379321651
21
-19.0205066808
31
7.1965495288
11
-8.6292790086
21
-19.2426570809
31
7.0582991310
11
-8.6199804216
21
-19.4644463924
31
6.9195119289
11
-8.6106818347
21
-19.6862357038
31
6.7807247269
11
-8.6013832477
21
-19.9080250153
31
6.6419375248
11
-8.5920846607
21
-20.1298143268
31
6.5031503227
11
-8.5871127087
21
-20.2405270870
31
6.4334891651
11
-8.5821407566
21
-20.3512398472
31
6.3638280075
11
-8.5771688046
21
-20.4619526074
31
6.2941668499
11
-8.5721968525
21
-20.5726653677
31
6.2245056922
11
-8.5697108765
21
-20.6280217478
31
6.1896751134
11
-8.5672249005
21
-20.6833781279
31
6.1548445346
11
-8.5647389244
21
-20.7387345080
31
6.1200139558
11
-8.5622529484
21
-20.7940908881
31
6.0851833770
11
-8.5597669724
21
-20.8494472682
31
6.0503527982
11
-8.5585239844
21
-20.8771254583
31
6.0329375088
11
-8.5572809964
21
-20.9048036483
31
6.0155222194
11
-8.5560380084
21
-20.9324818384
31
5.9981069300
11
-8.5547950203
21
-20.9601600284
31
5.9806916405
11
-8.5541735263
21
-20.9739991234
31
5.9719839958
11
-8.5535520323
21
-20.9878382185
31
5.9632763511
11
-8.5532412853
21
-20.9947577660
31
5.9589225288
11
-8.5529305383
21
-21.0016773135
31
5.9545687064
11
-8.5526197913
21
-21.0085968610
31
5.9502148841
11
-8.5524644178
21
-21.0120566348
31
5.9480379729
11
-8.5523867311
21
-21.0137865217
31
5.9469495173
11
-8.5523090443
21
-21.0155164085
31
5.9458610617
11
-8.5521581565
21
-21.0185911103
31
5.9439116516
11
-8.5520072687
21
-21.0216658120
31
5.9419622415
11
-8.5517054931
21
-21.0278152155
31
5.9380634214
11
-8.5511019420
21
-21.0401140224
31
5.9302657810
11
-8.5504983908
21
-21.0524128294
31
5.9224681406
11
-8.5498948396
21
-21.0647116364
31
5.9146705002
11
-8.5486877372
21
-21.0893092503
31
5.8990752194
11
-8.5474806349
21
-21.1139068642
31
5.8834799387
11
-8.5450664302
21
-21.1631020920
31
5.8522893772
11
-8.5426522254
21
-21.2122973199
31
5.8210988156
11
-8.5402380207
21
-21.2614925477
31
5.7899082541
11
-8.5378238160
21
-21.3106877755
31
5.7587176926
11
-8.5329954066
21
-21.4090782312
31
5.6963365695
11
-8.5281669971
21
-21.5074686869
31
5.6339554465
11
-8.5233385877
21
-21.6058591426
31
5.5715743235
11
-8.5185101782
21
-21.7042495982
31
5.5091932004
11
-8.5136817688
21
-21.8026400539
31
5.4468120774
11
-8.5040249499
21
-21.9994209652
31
5.3220498313
11
-8.4943681310
21
-22.1962018766
31
5.1972875852
11
-8.4847113122
21
-22.3929827879
31
5.0725253391
11
-8.4750544933
21
-22.5897636993
31
4.9477630930
0
SPLINE
5
34B
100
AcDbEntity
8
0
100
AcDbSpline
62
0
6
CONTINUOUS
70
0
71
3
72
15
73
11
74
9
42
0.0000001000
43
0.0000001000
44
0.0000000001
12
0.0000000000
22
-0.2765187015
32
0.0000000000
13
0.2476701277
23
-0.1238065108
33
0.0000000000
40
0.0000000000
40
0.0000000000
40
0.0000000000
40
0.0000000000
40
0.1372038061
40
0.2753693855
40
0.4143226051
40
0.5538334203
40
0.6936450402
40
0.8334813200
40
0.9730599772
40
1.0000000000
40
1.0000000000
40
1.0000000000
40
1.0000000000
10
-16.0138161783
20
22.4486834463
30
0.0000000000
10
-16.0138161783
20
22.4360369736
30
0.0000000000
10
-16.0118828724
20
22.4106133621
30
0.0000000000
10
-16.0032027449
20
22.3732774909
30
0.0000000000
10
-15.9888381495
20
22.3374977837
30
0.0000000000
10
-15.9690718370
20
22.3042183144
30
0.0000000000
10
-15.9443639210
20
22.2743162610
30
0.0000000000
10
-15.9153336722
20
22.2485768160
30
0.0000000000
10
-15.8914817823
20
22.2332626259
30
0.0000000000
10
-15.8778371336
20
22.2261856641
30
0.0000000000
10
-15.8756130540
20
22.2250738807
30
0.0000000000
11
-16.0138161783
21
22.4486834463
31
0.0000000000
11
-16.0109373794
21
22.4108534057
31
0.0000000000
11
-16.0022873552
21
22.3736401403
31
0.0000000000
11
-15.9879713403
21
22.3379835667
31
0.0000000000
11
-15.9682715048
21
22.3048153836
31
0.0000000000
11
-15.9436453582
21
22.2750128787
31
0.0000000000
11
-15.9147132909
21
22.2493594352
31
0.0000000000
11
-15.8822343013
21
22.2285081794
31
0.0000000000
11
-15.8756130540
21
22.2250738807
31
0.0000000000
0
SPLINE
5
34C
100
AcDbEntity
8
0
100
AcDbSpline
62
0
6
CONTINUOUS
70
0
71
3
72
14
73
10
74
8
42
0.0000001000
43
0.0000001000
44
0.0000000001
12
0.2472867605
22
-0.1236433802
32
0.0000000000
13
0.0000162066
23
-0.2767915247
33
0.0000000000
40
0.0000000000
40
0.0000000000
40
0.0000000000
40
0.0000000000
40
0.1437525298
40
0.2886119094
40
0.4331946815
40
0.5818895261
40
0.7310838435
40
0.8800925955
40
1.0000000000
40
1.0000000000
40
1.0000000000
40
1.0000000000
10
-12.1995370157
20
23.4149042225
30
0.0000000000
10
-12.1876876499
20
23.4089795396
30
0.0000000000
10
-12.1648040161
20
23.3951640741
30
0.0000000000
10
-12.1342225039
20
23.3692469433
30
0.0000000000
10
-12.1078625021
20
23.3384313229
30
0.0000000000
10
-12.0866179743
20
23.3034086494
30
0.0000000000
10
-12.0712583552
20
23.2649923071
30
0.0000000000
10
-12.0629900554
20
23.2271780928
30
0.0000000000
10
-12.0613411953
20
23.2023673285
30
0.0000000000
10
-12.0613405475
20
23.1913042108
30
0.0000000000
11
-12.1995370157
21
23.4149042225
31
0.0000000000
11
-12.1655142216
21
23.3943607682
31
0.0000000000
11
-12.1349592471
21
23.3684687649
31
0.0000000000
11
-12.1089759649
21
23.3380919393
31
0.0000000000
11
-12.0876546409
21
23.3029427322
31
0.0000000000
11
-12.0723413272
21
23.2646420648
31
0.0000000000
11
-12.0635411005
21
23.2243957618
31
0.0000000000
11
-12.0613405475
21
23.1913042108
31
0.0000000000
0
SPLINE
5
34D
100
AcDbEntity
8
0
100
AcDbSpline
62
0
6
CONTINUOUS
70
0
71
3
72
12
73
8
74
6
42
0.0000001000
43
0.0000001000
44
0.0000000001
12
0.1092654299
22
0.1327690321
32
0.0000000000
13
-0.0000091156
23
0.1721535490
33
0.0000000000
40
0.0000000000
40
0.0000000000
40
0.0000000000
40
0.0000000000
40
0.2418743207
40
0.4850837206
40
0.7284006780
40
0.9716604195
40
1.0000000000
40
1.0000000000
40
1.0000000000
40
1.0000000000
10
-12.1183052315
20
22.6850781574
30
0.0000000000
10
-12.1094957310
20
22.6957826306
30
0.0000000000
10
-12.0935869002
20
22.7187697612
30
0.0000000000
10
-12.0757911739
20
22.7567425740
30
0.0000000000
10
-12.0645482507
20
22.7972381505
30
0.0000000000
10
-12.0614918746
20
22.8267309257
30
0.0000000000
10
-12.0613404884
20
22.8423164759
30
0.0000000000
10
-12.0613405745
20
22.8439427290
30
0.0000000000
11
-12.1183052315
21
22.6850781574
31
0.0000000000
11
-12.0946395187
21
22.7192786171
31
0.0000000000
11
-12.0768910966
21
22.7571452114
31
0.0000000000
11
-12.0656996231
21
22.7974587770
31
0.0000000000
11
-12.0613879845
21
22.8390642970
31
0.0000000000
11
-12.0613405745
21
22.8439427290
31
0.0000000000
0
SPLINE
5
34E
100
AcDbEntity
8
0
100
AcDbSpline
62
0
6
CONTINUOUS
70
0
71
3
72
13
73
9
74
7
42
0.0000001000
43
0.0000001000
44
0.0000000001
12
-0.2048013009
22
0.1024006505
32
0.0000000000
13
-0.2060921486
23
-0.1004031776
33
0.0000000000
40
0.0000000000
40
0.0000000000
40
0.0000000000
40
0.0000000000
40
0.1780417675
40
0.3605922599
40
0.5441907093
40
0.7285502135
40
0.9149400794
40
1.0000000000
40
1.0000000000
40
1.0000000000
40
1.0000000000
10
-13.5368631763
20
24.0835673028
30
0.0000000000
10
-13.5490175715
20
24.0896445004
30
0.0000000000
10
-13.5746886207
20
24.0999602477
30
0.0000000000
10
-13.6154348806
20
24.1089289022
30
0.0000000000
10
-13.6576032123
20
24.1109904040
30
0.0000000000
10
-13.6998097807
20
24.1059061859
30
0.0000000000
10
-13.7333114456
20
24.0959136791
30
0.0000000000
10
-13.7523133018
20
24.0875553390
30
0.0000000000
10
-13.7581566957
20
24.0847085769
30
0.0000000000
11
-13.5368631763
21
24.0835673028
31
0.0000000000
11
-13.5746914570
21
24.0987651991
31
0.0000000000
11
-13.6155133156
21
24.1077524770
31
0.0000000000
11
-13.6575026348
21
24.1098043043
31
0.0000000000
11
-13.6994133524
21
24.1047558575
31
0.0000000000
11
-13.7403114468
21
24.0925571892
31
0.0000000000
11
-13.7581566957
21
24.0847085769
31
0.0000000000
0
SPLINE
5
34F
100
AcDbEntity
8
0
100
AcDbSpline
62
0
6
CONTINUOUS
70
0
71
3
72
14
73
10
74
8
42
0.0000001000
43
0.0000001000
44
0.0000000001
12
0.0000000000
22
0.2738582159
32
0.0000000000
13
0.2439931792
23
0.1251474837
33
0.0000000000
40
0.0000000000
40
0.0000000000
40
0.0000000000
40
0.0000000000
40
0.1562679989
40
0.3143610164
40
0.4733409827
40
0.6327902268
40
0.7925669787
40
0.9524347924
40
1.0000000000
40
1.0000000000
40
1.0000000000
40
1.0000000000
10
-16.0138161783
20
22.7886573805
30
0.0000000000
10
-16.0138161783
20
22.8029224723
30
0.0000000000
10
-16.0113480674
20
22.8316795288
30
0.0000000000
10
-16.0002642602
20
22.8736576543
30
0.0000000000
10
-15.9819598972
20
22.9133651637
30
0.0000000000
10
-15.9569467098
20
22.9494129713
30
0.0000000000
10
-15.9259787444
20
22.9806124809
30
0.0000000000
10
-15.8984366092
20
23.0000197240
30
0.0000000000
10
-15.8817913740
20
23.0091127258
30
0.0000000000
10
-15.8779228453
20
23.0110969479
30
0.0000000000
11
-16.0138161783
21
22.7886573805
31
0.0000000000
11
-16.0101533071
21
22.8312956141
31
0.0000000000
11
-15.9991029410
21
22.8731567255
31
0.0000000000
11
-15.9808751246
21
22.9126953336
31
0.0000000000
11
-15.9559816597
21
22.9485711940
31
0.0000000000
11
-15.9251568080
21
22.9796264911
31
0.0000000000
11
-15.8893678568
21
23.0048442811
31
0.0000000000
11
-15.8779228453
21
23.0110969479
31
0.0000000000
0
SPLINE
5
350
100
AcDbEntity
8
0
100
AcDbSpline
62
0
6
CONTINUOUS
70
0
71
3
72
9
73
5
74
3
42
0.0000001000
43
0.0000001000
44
0.0000000001
12
0.0576442133
22
-0.0288194541
32
0.0000000000
13
0.0630899563
23
-0.0131749282
33
0.0000000000
40
0.0000000000
40
0.0000000000
40
0.0000000000
40
0.0000000000
40
0.5477719738
40
1.0000000000
40
1.0000000000
40
1.0000000000
40
1.0000000000
10
-14.5506347813
20
21.5625843595
30
0.0000000000
10
-14.5401094864
20
21.5573221964
30
0.0000000000
10
-14.5202140317
20
21.5490723444
30
0.0000000000
10
-14.4994399598
20
21.5434550550
30
0.0000000000
10
-14.4899296110
20
21.5414690311
30
0.0000000000
11
-14.5506347813
21
21.5625843595
31
0.0000000000
11
-14.5180495087
21
21.5490740322
31
0.0000000000
11
-14.4899296110
21
21.5414690311
31
0.0000000000
0
SPLINE
5
351
100
AcDbEntity
8
0
100
AcDbSpline
62
0
6
CONTINUOUS
70
0
71
3
72
14
73
10
74
8
42
0.0000001000
43
0.0000001000
44
0.0000000001
12
0.0000000000
22
0.2764437653
32
0.0000000000
13
-0.2475925103
23
0.1237730878
33
0.0000000000
40
0.0000000000
40
0.0000000000
40
0.0000000000
40
0.0000000000
40
0.1550886622
40
0.3119188690
40
0.4696359821
40
0.6278490431
40
0.7864071094
40
0.9450859973
40
1.0000000000
40
1.0000000000
40
1.0000000000
40
1.0000000000
10
1.3029777498
20
16.5091383426
30
0.0000000000
10
1.3029777498
20
16.5234294405
30
0.0000000000
10
1.3005011358
20
16.5522327227
30
0.0000000000
10
1.2893818984
20
16.5942712109
30
0.0000000000
10
1.2710234041
20
16.6340253458
30
0.0000000000
10
1.2459359052
20
16.6701075488
30
0.0000000000
10
1.2148741042
20
16.7013242267
30
0.0000000000
10
1.1866663272
20
16.7211347037
30
0.0000000000
10
1.1693058225
20
16.7304824202
30
0.0000000000
10
1.1647737239
20
16.7327480454
30
0.0000000000
11
1.3029777498
21
16.5091383426
31
0.0000000000
11
1.2993015112
21
16.5518537331
31
0.0000000000
11
1.2882177678
21
16.5937677342
31
0.0000000000
11
1.2699372116
21
16.6333502258
31
0.0000000000
11
1.2449696619
21
16.6692605013
31
0.0000000000
11
1.2140526404
21
16.7003316469
31
0.0000000000
11
1.1781550812
21
16.7255422143
31
0.0000000000
11
1.1647737239
21
16.7327480454
31
0.0000000000
0
SPLINE
5
352
100
AcDbEntity
8
0
100
AcDbSpline
62
0
6
CONTINUOUS
70
0
71
3
72
12
73
8
74
6
42
0.0000001000
43
0.0000001000
44
0.0000000001
12
0.1092654299
22
0.1327690321
32
0.0000000000
13
-0.0000091156
23
0.1721535490
33
0.0000000000
40
0.0000000000
40
0.0000000000
40
0.0000000000
40
0.0000000000
40
0.2418743207
40
0.4850837206
40
0.7284006780
40
0.9716604195
40
1.0000000000
40
1.0000000000
40
1.0000000000
40
1.0000000000
10
1.2460129329
20
16.0029190752
30
0.0000000000
10
1.2548224334
20
16.0136235484
30
0.0000000000
10
1.2707312643
20
16.0366106790
30
0.0000000000
10
1.2885269905
20
16.0745834918
30
0.0000000000
10
1.2997699137
20
16.1150790683
30
0.0000000000
10
1.3028262898
20
16.1445718435
30
0.0000000000
10
1.3029776761
20
16.1601573937
30
0.0000000000
10
1.3029775899
20
16.1617836468
30
0.0000000000
11
1.2460129329
21
16.0029190752
31
0.0000000000
11
1.2696786457
21
16.0371195349
31
0.0000000000
11
1.2874270678
21
16.0749861292
31
0.0000000000
11
1.2986185414
21
16.1152996948
31
0.0000000000
11
1.3029301799
21
16.1569052148
31
0.0000000000
11
1.3029775899
21
16.1617836468
31
0.0000000000
0
SPLINE
5
353
100
AcDbEntity
8
0
100
AcDbSpline
62
0
6
CONTINUOUS
70
0
71
3
72
13
73
9
74
7
42
0.0000001000
43
0.0000001000
44
0.0000000001
12
0.2058509839
22
0.1002765354
32
0.0000000000
13
0.2050420785
23
-0.1025286694
33
0.0000000000
40
0.0000000000
40
0.0000000000
40
0.0000000000
40
0.0000000000
40
0.1774292252
40
0.3593739775
40
0.5423737539
40
0.7260526449
40
0.9117680367
40
1.0000000000
40
1.0000000000
40
1.0000000000
40
1.0000000000
10
-0.3938320825
20
17.4025531205
30
0.0000000000
10
-0.3816574223
20
17.4084837832
30
0.0000000000
10
-0.3559716909
20
17.4185062898
30
0.0000000000
10
-0.3152793297
20
17.4270583097
30
0.0000000000
10
-0.2732397481
20
17.4287362970
30
0.0000000000
10
-0.2312270712
20
17.4233184061
30
0.0000000000
10
-0.1976715846
20
17.4130261433
30
0.0000000000
10
-0.1785696219
20
17.4044202665
30
0.0000000000
10
-0.1725392002
20
17.4014048312
30
0.0000000000
11
-0.3938320825
21
17.4025531205
31
0.0000000000
11
-0.3559831999
21
17.4173185558
31
0.0000000000
11
-0.3152132613
21
17.4258888288
31
0.0000000000
11
-0.2733440063
21
17.4275591116
31
0.0000000000
11
-0.2316313469
21
17.4221800454
31
0.0000000000
11
-0.1909764060
21
17.4097101737
31
0.0000000000
11
-0.1725392002
21
17.4014048312
31
0.0000000000
0
SPLINE
5
354
100
AcDbEntity
8
0
100
AcDbSpline
62
0
6
CONTINUOUS
70
0
71
3
72
15
73
11
74
9
42
0.0000001000
43
0.0000001000
44
0.0000000001
12
-0.2439506743
22
-0.1251622802
32
0.0000000000
13
0.0000014006
23
-0.2741811330
33
0.0000000000
40
0.0000000000
40
0.0000000000
40
0.0000000000
40
0.0000000000
40
0.0876380150
40
0.2288020977
40
0.3706943526
40
0.5134367074
40
0.6570526056
40
0.8015691041
40
0.9468109791
40
1.0000000000
40
1.0000000000
40
1.0000000000
40
1.0000000000
10
-2.5136176842
20
16.3289319273
30
0.0000000000
10
-2.5207441351
20
16.3252756027
30
0.0000000000
10
-2.5388883025
20
16.3148371636
30
0.0000000000
10
-2.5659923063
20
16.2943379042
30
0.0000000000
10
-2.5931095891
20
16.2662611327
30
0.0000000000
10
-2.6156633913
20
16.2341244080
30
0.0000000000
10
-2.6330201297
20
16.1986378982
30
0.0000000000
10
-2.6446446190
20
16.1606418603
30
0.0000000000
10
-2.6489693647
20
16.1294937841
30
0.0000000000
10
-2.6494980339
20
16.1113591041
30
0.0000000000
10
-2.6494980090
20
16.1064979621
30
0.0000000000
11
-2.5136176842
21
16.3289319273
31
0.0000000000
11
-2.5344360683
21
16.3169542829
31
0.0000000000
11
-2.5652751064
21
16.2936291498
31
0.0000000000
11
-2.5922759082
21
16.2656733072
31
0.0000000000
11
-2.6147363346
21
16.2336693063
31
0.0000000000
11
-2.6320203838
21
16.1983315575
31
0.0000000000
11
-2.6436007490
21
16.1604784308
31
0.0000000000
11
-2.6490728102
21
16.1210729703
31
0.0000000000
11
-2.6494980090
21
16.1064979621
31
0.0000000000
0
SPLINE
5
355
100
AcDbEntity
8
0
100
AcDbSpline
62
0
6
CONTINUOUS
70
0
71
3
72
15
73
11
74
9
42
0.0000001000
43
0.0000001000
44
0.0000000001
12
0.0000000000
22
-0.2765187015
32
0.0000000000
13
0.2476701277
23
-0.1238065108
33
0.0000000000
40
0.0000000000
40
0.0000000000
40
0.0000000000
40
0.0000000000
40
0.1372038061
40
0.2753693855
40
0.4143226051
40
0.5538334203
40
0.6936450402
40
0.8334813200
40
0.9730599772
40
1.0000000000
40
1.0000000000
40
1.0000000000
40
1.0000000000
10
-2.6494980139
20
15.7665243641
30
0.0000000000
10
-2.6494980139
20
15.7538778914
30
0.0000000000
10
-2.6475647079
20
15.7284542799
30
0.0000000000
10
-2.6388845805
20
15.6911184086
30
0.0000000000
10
-2.6245199850
20
15.6553387015
30
0.0000000000
10
-2.6047536726
20
15.6220592322
30
0.0000000000
10
-2.5800457566
20
15.5921571788
30
0.0000000000
10
-2.5510155077
20
15.5664177338
30
0.0000000000
10
-2.5271636178
20
15.5511035437
30
0.0000000000
10
-2.5135189692
20
15.5440265818
30
0.0000000000
10
-2.5112948896
20
15.5429147984
30
0.0000000000
11
-2.6494980139
21
15.7665243641
31
0.0000000000
11
-2.6466192150
21
15.7286943235
31
0.0000000000
11
-2.6379691908
21
15.6914810581
31
0.0000000000
11
-2.6236531759
21
15.6558244845
31
0.0000000000
11
-2.6039533404
21
15.6226563014
31
0.0000000000
11
-2.5793271938
21
15.5928537965
31
0.0000000000
11
-2.5503951264
21
15.5672003530
31
0.0000000000
11
-2.5179161368
21
15.5463490972
31
0.0000000000
11
-2.5112948896
21
15.5429147984
31
0.0000000000
0
SPLINE
5
356
100
AcDbEntity
8
0
100
AcDbSpline
62
0
6
CONTINUOUS
70
0
71
3
72
9
73
5
74
3
42
0.0000001000
43
0.0000001000
44
0.0000000001
12
0.0576442133
22
-0.0288194541
32
0.0000000000
13
0.0630899563
23
-0.0131749282
33
0.0000000000
40
0.0000000000
40
0.0000000000
40
0.0000000000
40
0.0000000000
40
0.5477719738
40
1.0000000000
40
1.0000000000
40
1.0000000000
40
1.0000000000
10
-1.1863166168
20
14.8804252773
30
0.0000000000
10
-1.1757913220
20
14.8751631142
30
0.0000000000
10
-1.1558958672
20
14.8669132621
30
0.0000000000
10
-1.1351217953
20
14.8612959728
30
0.0000000000
10
-1.1256114465
20
14.8593099488
30
0.0000000000
11
-1.1863166168
21
14.8804252773
31
0.0000000000
11
-1.1537313442
21
14.8669149500
31
0.0000000000
11
-1.1256114465
21
14.8593099488
31
0.0000000000
0
SPLINE
5
357
100
AcDbEntity
8
0
100
AcDbSpline
62
0
6
CONTINUOUS
70
0
71
3
72
15
73
11
74
9
42
0.0000001000
43
0.0000001000
44
0.0000000001
12
0.0000000000
22
0.2765182040
32
0.0000000000
13
-0.2476700014
23
0.1238064973
33
0.0000000000
40
0.0000000000
40
0.0000000000
40
0.0000000000
40
0.0000000000
40
0.1373009697
40
0.2755659395
40
0.4146200475
40
0.5542324944
40
0.6941457036
40
0.8340827172
40
0.9737605279
40
1.0000000000
40
1.0000000000
40
1.0000000000
40
1.0000000000
10
1.3029777498
20
-25.1381724539
30
0.0000000000
10
1.3029777498
20
-25.1255170480
30
0.0000000000
10
1.3010416904
20
-25.1000752762
30
0.0000000000
10
1.2923492261
20
-25.0627138810
30
0.0000000000
10
1.2779643801
20
-25.0269120328
30
0.0000000000
10
1.2581707844
20
-24.9936158604
30
0.0000000000
10
1.2334299598
20
-24.9637043160
30
0.0000000000
10
1.2043630157
20
-24.9379639779
30
0.0000000000
10
1.1805390139
20
-24.9226919159
30
0.0000000000
10
1.1669410273
20
-24.9156458268
30
0.0000000000
10
1.1647747839
20
-24.9145629544
30
0.0000000000
11
1.3029777498
21
-25.1381724539
31
0.0000000000
11
1.3000948825
21
-25.1003158461
31
0.0000000000
11
1.2914326002
21
-25.0630772852
31
0.0000000000
11
1.2770964650
21
-25.0273988039
31
0.0000000000
11
1.2573695242
21
-24.9942141176
31
0.0000000000
11
1.2327106844
21
-24.9644022831
31
0.0000000000
11
1.2037421790
21
-24.9387480650
31
0.0000000000
11
1.1712251529
21
-24.9179054530
31
0.0000000000
11
1.1647747839
21
-24.9145629544
31
0.0000000000
0
SPLINE
5
358
100
AcDbEntity
8
0
100
AcDbSpline
62
0
6
CONTINUOUS
70
0
71
3
72
15
73
11
74
9
42
0.0000001000
43
0.0000001000
44
0.0000000001
12
0.2439506743
22
0.1251622802
32
0.0000000000
13
-0.0000014006
23
0.2741811330
33
0.0000000000
40
0.0000000000
40
0.0000000000
40
0.0000000000
40
0.0000000000
40
0.0876380150
40
0.2288020977
40
0.3706943526
40
0.5134367074
40
0.6570526056
40
0.8015691041
40
0.9468109791
40
1.0000000000
40
1.0000000000
40
1.0000000000
40
1.0000000000
10
1.1670974201
20
-25.7079624593
30
0.0000000000
10
1.1742238710
20
-25.7043061347
30
0.0000000000
10
1.1923680385
20
-25.6938676956
30
0.0000000000
10
1.2194720422
20
-25.6733684363
30
0.0000000000
10
1.2465893251
20
-25.6452916648
30
0.0000000000
10
1.2691431273
20
-25.6131549400
30
0.0000000000
10
1.2864998657
20
-25.5776684302
30
0.0000000000
10
1.2981243549
20
-25.5396723924
30
0.0000000000
10
1.3024491006
20
-25.5085243162
30
0.0000000000
10
1.3029777698
20
-25.4903896362
30
0.0000000000
10
1.3029777450
20
-25.4855284942
30
0.0000000000
11
1.1670974201
21
-25.7079624593
31
0.0000000000
11
1.1879158042
21
-25.6959848150
31
0.0000000000
11
1.2187548423
21
-25.6726596819
31
0.0000000000
11
1.2457556441
21
-25.6447038393
31
0.0000000000
11
1.2682160706
21
-25.6126998384
31
0.0000000000
11
1.2855001197
21
-25.5773620895
31
0.0000000000
11
1.2970804850
21
-25.5395089628
31
0.0000000000
11
1.3025525461
21
-25.5001035024
31
0.0000000000
11
1.3029777450
21
-25.4855284942
31
0.0000000000
0
SPLINE
5
359
100
AcDbEntity
8
0
100
AcDbSpline
62
0
6
CONTINUOUS
70
0
71
3
72
13
73
9
74
7
42
0.0000001000
43
0.0000001000
44
0.0000000001
12
-0.2058509839
22
-0.1002765354
32
0.0000000000
13
-0.2050420785
23
0.1025286694
33
0.0000000000
40
0.0000000000
40
0.0000000000
40
0.0000000000
40
0.0000000000
40
0.1774292252
40
0.3593739775
40
0.5423737539
40
0.7260526449
40
0.9117680367
40
1.0000000000
40
1.0000000000
40
1.0000000000
40
1.0000000000
10
-0.9650296623
20
-26.7602977470
30
0.0000000000
10
-0.9772043225
20
-26.7662284096
30
0.0000000000
10
-1.0028900539
20
-26.7762509162
30
0.0000000000
10
-1.0435824151
20
-26.7848029362
30
0.0000000000
10
-1.0856219966
20
-26.7864809234
30
0.0000000000
10
-1.1276346736
20
-26.7810630325
30
0.0000000000
10
-1.1611901602
20
-26.7707707698
30
0.0000000000
10
-1.1802921229
20
-26.7621648930
30
0.0000000000
10
-1.1863225446
20
-26.7591494577
30
0.0000000000
11
-0.9650296623
21
-26.7602977470
31
0.0000000000
11
-1.0028785449
21
-26.7750631823
31
0.0000000000
11
-1.0436484835
21
-26.7836334553
31
0.0000000000
11
-1.0855177384
21
-26.7853037380
31
0.0000000000
11
-1.1272303978
21
-26.7799246719
31
0.0000000000
11
-1.1678853388
21
-26.7674548002
31
0.0000000000
11
-1.1863225446
21
-26.7591494577
31
0.0000000000
0
SPLINE
5
35A
100
AcDbEntity
8
0
100
AcDbSpline
62
0
6
CONTINUOUS
70
0
71
3
72
14
73
10
74
8
42
0.0000001000
43
0.0000001000
44
0.0000000001
12
-0.2472867605
22
0.1236433802
32
0.0000000000
13
-0.0000162066
23
0.2767915247
33
0.0000000000
40
0.0000000000
40
0.0000000000
40
0.0000000000
40
0.0000000000
40
0.1437525298
40
0.2886119094
40
0.4331946815
40
0.5818895261
40
0.7310838435
40
0.8800925955
40
1.0000000000
40
1.0000000000
40
1.0000000000
40
1.0000000000
10
-2.5113014128
20
-26.0966605071
30
0.0000000000
10
-2.5231507786
20
-26.0907358242
30
0.0000000000
10
-2.5460344123
20
-26.0769203587
30
0.0000000000
10
-2.5766159246
20
-26.0510032279
30
0.0000000000
10
-2.6029759264
20
-26.0201876075
30
0.0000000000
10
-2.6242204542
20
-25.9851649340
30
0.0000000000
10
-2.6395800733
20
-25.9467485918
30
0.0000000000
10
-2.6478483730
20
-25.9089343774
30
0.0000000000
10
-2.6494972332
20
-25.8841236131
30
0.0000000000
10
-2.6494978809
20
-25.8730604954
30
0.0000000000
11
-2.5113014128
21
-26.0966605071
31
0.0000000000
11
-2.5453242069
21
-26.0761170528
31
0.0000000000
11
-2.5758791813
21
-26.0502250496
31
0.0000000000
11
-2.6018624636
21
-26.0198482239
31
0.0000000000
11
-2.6231837875
21
-25.9846990168
31
0.0000000000
11
-2.6384971013
21
-25.9463983494
31
0.0000000000
11
-2.6472973280
21
-25.9061520465
31
0.0000000000
11
-2.6494978809
21
-25.8730604954
31
0.0000000000
0
SPLINE
5
35B
100
AcDbEntity
8
0
100
AcDbSpline
62
0
6
CONTINUOUS
70
0
71
3
72
13
73
9
74
7
42
0.0000001000
43
0.0000001000
44
0.0000000001
12
0.0000447718
22
-0.2369216055
32
0.0000000000
13
-0.2087426030
23
-0.1103503620
33
0.0000000000
40
0.0000000000
40
0.0000000000
40
0.0000000000
40
0.0000000000
40
0.0662401735
40
0.2209740190
40
0.3878784249
40
0.5714556151
40
0.7754283906
40
1.0000000000
40
1.0000000000
40
1.0000000000
40
1.0000000000
10
6.4592066577
20
18.1349301707
30
0.0000000000
10
6.4592076463
20
18.1296989280
30
0.0000000000
10
6.4581518616
20
18.1122490104
30
0.0000000000
10
6.4500644785
20
18.0824291339
30
0.0000000000
10
6.4302587921
20
18.0475461846
30
0.0000000000
10
6.4011704058
20
18.0146781632
30
0.0000000000
10
6.3635126371
20
17.9843444640
30
0.0000000000
10
6.3345115393
20
17.9669254243
30
0.0000000000
10
6.3188856518
20
17.9586649048
30
0.0000000000
11
6.4592066577
21
18.1349301707
31
0.0000000000
11
6.4582555311
21
18.1192786703
31
0.0000000000
11
6.4489521149
21
18.0839479395
31
0.0000000000
11
6.4298584212
21
18.0494735729
31
0.0000000000
11
6.4014528425
21
18.0167328718
31
0.0000000000
11
6.3641824793
21
17.9862300690
31
0.0000000000
11
6.3188856518
21
17.9586649048
31
0.0000000000
0
SPLINE
5
35C
100
AcDbEntity
8
0
100
AcDbSpline
62
0
6
CONTINUOUS
70
0
71
3
72
8
73
4
74
2
42
0.0000001000
43
0.0000001000
44
0.0000000001
12
0.0000412117
22
0.0720960897
32
0.0000000000
13
-0.0075589918
23
0.0716375399
33
0.0000000000
40
0.0000000000
40
0.0000000000
40
0.0000000000
40
0.0000000000
40
1.0000000000
40
1.0000000000
40
1.0000000000
40
1.0000000000
10
6.4592160933
20
18.7561099755
30
0.0000000000
10
6.4592298305
20
18.7801420054
30
0.0000000000
10
6.4578448324
20
18.8041719099
30
0.0000000000
10
6.4553251685
20
18.8280510899
30
0.0000000000
11
6.4592160933
21
18.7561099755
31
0.0000000000
11
6.4553251685
21
18.8280510899
31
0.0000000000
0
SPLINE
5
35D
100
AcDbEntity
8
0
100
AcDbSpline
62
0
6
CONTINUOUS
70
0
71
3
72
9
73
5
74
3
42
0.0000001000
43
0.0000001000
44
0.0000000001
12
-0.0524116030
22
-0.0162835663
32
0.0000000000
13
-0.0493400830
23
-0.0240351174
33
0.0000000000
40
0.0000000000
40
0.0000000000
40
0.0000000000
40
0.0000000000
40
0.4899934872
40
1.0000000000
40
1.0000000000
40
1.0000000000
40
1.0000000000
10
-4.5522897385
20
23.7088758935
30
0.0000000000
10
-4.5608501866
20
23.7062162796
30
0.0000000000
10
-4.5781013542
20
23.7000624666
30
0.0000000000
10
-4.5948330086
20
23.6926198107
30
0.0000000000
10
-4.6032209298
20
23.6885337886
30
0.0000000000
11
-4.5522897385
21
23.7088758935
31
0.0000000000
11
-4.5776313743
21
23.6998761801
31
0.0000000000
11
-4.6032209298
21
23.6885337886
31
0.0000000000
0
SPLINE
5
35E
100
AcDbEntity
8
0
100
AcDbSpline
62
0
6
CONTINUOUS
70
0
71
3
72
9
73
5
74
3
42
0.0000001000
43
0.0000001000
44
0.0000000001
12
-0.0502803636
22
-0.0161753641
32
0.0000000000
13
-0.0473762501
23
-0.0233505524
33
0.0000000000
40
0.0000000000
40
0.0000000000
40
0.0000000000
40
0.0000000000
40
0.4902123986
40
1.0000000000
40
1.0000000000
40
1.0000000000
40
1.0000000000
10
1.0009330047
20
20.9308234042
30
0.0000000000
10
0.9927169855
20
20.9281802829
30
0.0000000000
10
0.9761669795
20
20.9221180528
30
0.0000000000
10
0.9601075815
20
20.9148627778
30
0.0000000000
10
0.9520569732
20
20.9108948371
30
0.0000000000
11
1.0009330047
21
20.9308234042
31
0.0000000000
11
0.9766088463
21
20.9219500237
31
0.0000000000
11
0.9520569732
21
20.9108948371
31
0.0000000000
0
SPLINE
5
35F
100
AcDbEntity
8
0
100
AcDbSpline
62
0
6
CONTINUOUS
70
0
71
3
72
8
73
4
74
2
42
0.0000001000
43
0.0000001000
44
0.0000000001
12
-0.0092280959
22
-0.0045472994
32
0.0000000000
13
-0.0094869024
23
-0.0039806798
33
0.0000000000
40
0.0000000000
40
0.0000000000
40
0.0000000000
40
0.0000000000
40
1.0000000000
40
1.0000000000
40
1.0000000000
40
1.0000000000
10
0.9239365287
20
-24.2678882312
30
0.0000000000
10
0.9208604968
20
-24.2694039977
30
0.0000000000
10
0.9177382755
20
-24.2708264916
30
0.0000000000
10
0.9145759746
20
-24.2721533849
30
0.0000000000
11
0.9239365287
21
-24.2678882312
31
0.0000000000
11
0.9145759746
21
-24.2721533849
31
0.0000000000
0
SPLINE
5
360
100
AcDbEntity
8
0
100
AcDbSpline
62
0
6
CONTINUOUS
70
0
71
3
72
10
73
6
74
4
42
0.0000001000
43
0.0000001000
44
0.0000000001
12
-0.0009473905
22
0.0129284418
32
0.0000000000
13
-0.0113269603
23
0.0063928555
33
0.0000000000
40
0.0000000000
40
0.0000000000
40
0.0000000000
40
0.0000000000
40
0.0987828997
40
0.8567589871
40
1.0000000000
40
1.0000000000
40
1.0000000000
40
1.0000000000
10
-3.8233627831
20
23.4153017362
30
0.0000000000
10
-3.8233939784
20
23.4157274392
30
0.0000000000
10
-3.8238483044
20
23.4194167374
30
0.0000000000
10
-3.8264026308
20
23.4236668005
30
0.0000000000
10
-3.8296758319
20
23.4258218334
30
0.0000000000
10
-3.8302166603
20
23.4261270731
30
0.0000000000
11
-3.8233627831
21
23.4153017362
31
0.0000000000
11
-3.8235217973
21
23.4165775408
31
0.0000000000
11
-3.8286598702
21
23.4250944644
31
0.0000000000
11
-3.8302166603
21
23.4261270731
31
0.0000000000
0
SPLINE
5
361
100
AcDbEntity
8
0
100
AcDbSpline
62
0
6
CONTINUOUS
70
0
71
3
72
10
73
6
74
4
42
0.0000001000
43
0.0000001000
44
0.0000000001
12
-0.0009920622
22
0.0129891822
32
0.0000000000
13
-0.0113660186
23
0.0063151626
33
0.0000000000
40
0.0000000000
40
0.0000000000
40
0.0000000000
40
0.0000000000
40
0.0811237922
40
0.8361333356
40
1.0000000000
40
1.0000000000
40
1.0000000000
40
1.0000000000
10
1.7316091594
20
20.6378019170
30
0.0000000000
10
1.7315823328
20
20.6381531609
30
0.0000000000
10
1.7311591945
20
20.6417739299
30
0.0000000000
10
1.7287173416
20
20.6460934604
30
0.0000000000
10
1.7253927732
20
20.6482992335
30
0.0000000000
10
1.7247719360
20
20.6486441817
30
0.0000000000
11
1.7316091594
21
20.6378019170
31
0.0000000000
11
1.7314849886
21
20.6388556681
31
0.0000000000
11
1.7265441660
21
20.6474564264
31
0.0000000000
11
1.7247719360
21
20.6486441817
31
0.0000000000
0
SPLINE
5
362
100
AcDbEntity
8
0
100
AcDbSpline
62
0
6
CONTINUOUS
70
0
71
3
72
12
73
8
74
6
42
0.0000001000
43
0.0000001000
44
0.0000000001
12
0.2232195028
22
0.0718104737
32
0.0000000000
13
0.2099080423
23
-0.1048629522
33
0.0000000000
40
0.0000000000
40
0.0000000000
40
0.0000000000
40
0.0000000000
40
0.1665047016
40
0.3506519844
40
0.5559548999
40
0.7852900837
40
1.0000000000
40
1.0000000000
40
1.0000000000
40
1.0000000000
10
1.0009330047
20
20.9308234042
30
0.0000000000
10
1.0133220369
20
20.9348089980
30
0.0000000000
10
1.0403629080
20
20.9404299882
30
0.0000000000
10
1.0840306373
20
20.9411054751
30
0.0000000000
10
1.1320346854
20
20.9337224655
30
0.0000000000
10
1.1806799389
20
20.9187031035
30
0.0000000000
10
1.2124771240
20
20.9046335379
30
0.0000000000
10
1.2275002368
20
20.8971284993
30
0.0000000000
11
1.0009330047
21
20.9308234042
31
0.0000000000
11
1.0391154024
21
20.9389758396
31
0.0000000000
11
1.0822847086
21
20.9399350821
31
0.0000000000
11
1.1299119830
21
20.9329232284
31
0.0000000000
11
1.1813840008
21
20.9173515215
31
0.0000000000
11
1.2275002368
21
20.8971284993
31
0.0000000000
0
SPLINE
5
363
100
AcDbEntity
8
0
100
AcDbSpline
62
0
6
CONTINUOUS
70
0
71
3
72
12
73
8
74
6
42
0.0000001000
43
0.0000001000
44
0.0000000001
12
0.2221403376
22
0.0690159568
32
0.0000000000
13
0.2082362667
23
-0.1040158412
33
0.0000000000
40
0.0000000000
40
0.0000000000
40
0.0000000000
40
0.0000000000
40
0.1675752984
40
0.3529382434
40
0.5596034574
40
0.7905636802
40
1.0000000000
40
1.0000000000
40
1.0000000000
40
1.0000000000
10
-4.5522897385
20
23.7088758935
30
0.0000000000
10
-4.5398813274
20
23.7127310167
30
0.0000000000
10
-4.5128351735
20
23.7180962564
30
0.0000000000
10
-4.4692326263
20
23.7184579380
30
0.0000000000
10
-4.4213329944
20
23.7108242004
30
0.0000000000
10
-4.3733094448
20
23.6957814329
30
0.0000000000
10
-4.3420483196
20
23.6818957611
30
0.0000000000
10
-4.3275109072
20
23.6746341961
30
0.0000000000
11
-4.5522897385
21
23.7088758935
31
0.0000000000
11
-4.5140959885
21
23.7166677630
31
0.0000000000
11
-4.4709827058
21
23.7173135688
31
0.0000000000
11
-4.4234614458
21
23.7100488884
31
0.0000000000
11
-4.3721036820
21
23.6942778850
31
0.0000000000
11
-4.3275109072
21
23.6746341961
31
0.0000000000
0
SPLINE
5
364
100
AcDbEntity
8
0
100
AcDbSpline
62
0
6
CONTINUOUS
70
0
71
3
72
18
73
14
74
12
42
0.0000001000
43
0.0000001000
44
0.0000000001
12
0.5927084124
22
-0.2963542062
32
0.0000000000
13
-0.0000000000
23
-0.6626681505
33
0.0000000000
40
0.0000000000
40
0.0000000000
40
0.0000000000
40
0.0000000000
40
0.0792653594
40
0.1637066815
40
0.2524724019
40
0.3451271580
40
0.4401120866
40
0.5368851972
40
0.6335836001
40
0.7296003675
40
0.8232033591
40
0.9137385471
40
1.0000000000
40
1.0000000000
40
1.0000000000
40
1.0000000000
10
1.4448779022
20
14.8840427308
30
0.0000000000
10
1.4605383173
20
14.8762125232
30
0.0000000000
10
1.4917427325
20
14.8576966328
30
0.0000000000
10
1.5359811560
20
14.8235546215
30
0.0000000000
10
1.5783936167
20
14.7827812019
30
0.0000000000
10
1.6180701857
20
14.7362541895
30
0.0000000000
10
1.6542964885
20
14.6848228558
30
0.0000000000
10
1.6862761488
20
14.6296178949
30
0.0000000000
10
1.7134326563
20
14.5716368835
30
0.0000000000
10
1.7351691507
20
14.5121563335
30
0.0000000000
10
1.7510861647
20
14.4522611709
30
0.0000000000
10
1.7608425725
20
14.3932414789
30
0.0000000000
10
1.7631728929
20
14.3541638484
30
0.0000000000
10
1.7631728929
20
14.3351096092
30
0.0000000000
11
1.4448779022
21
14.8840427308
31
0.0000000000
11
1.4901654362
21
14.8574328449
31
0.0000000000
11
1.5345774210
21
14.8233929584
31
0.0000000000
11
1.5770790242
21
14.7827276564
31
0.0000000000
11
1.6169957729
21
14.7360743170
31
0.0000000000
11
1.6532920532
21
14.6846499785
31
0.0000000000
11
1.6854588256
21
14.6291724344
31
0.0000000000
11
1.7126285058
21
14.5711386464
31
0.0000000000
11
1.7344236567
21
14.5113607341
31
0.0000000000
11
1.7502739320
21
14.4513923509
31
0.0000000000
11
1.7599350587
21
14.3921805536
31
0.0000000000
11
1.7631728929
21
14.3351096092
31
0.0000000000
0
SPLINE
5
365
100
AcDbEntity
8
0
100
AcDbSpline
62
0
6
CONTINUOUS
70
0
71
3
72
14
73
10
74
8
42
0.0000001000
43
0.0000001000
44
0.0000000001
12
0.0000000000
22
-0.2848381485
32
0.0000000000
13
-0.2560447979
23
-0.1262256058
33
0.0000000000
40
0.0000000000
40
0.0000000000
40
0.0000000000
40
0.0000000000
40
0.1893369747
40
0.3665734988
40
0.5311546098
40
0.6848972396
40
0.8292569482
40
0.9687228975
40
1.0000000000
40
1.0000000000
40
1.0000000000
40
1.0000000000
10
1.7631728929
20
-23.6681418495
30
0.0000000000
10
1.7631728929
20
-23.6861186472
30
0.0000000000
10
1.7612141095
20
-23.7209709361
30
0.0000000000
10
1.7517800481
20
-23.7706755573
30
0.0000000000
10
1.7360686681
20
-23.8152471603
30
0.0000000000
10
1.7143234436
20
-23.8537175446
30
0.0000000000
10
1.6868385868
20
-23.8852919657
30
0.0000000000
10
1.6624440147
20
-23.9030749063
30
0.0000000000
10
1.6480620499
20
-23.9106436728
30
0.0000000000
10
1.6453926034
20
-23.9119596632
30
0.0000000000
11
1.7631728929
21
-23.6681418495
31
0.0000000000
11
1.7599350587
21
-23.7219749597
31
0.0000000000
11
1.7502739320
21
-23.7715256302
31
0.0000000000
11
1.7344236567
21
-23.8156437381
31
0.0000000000
11
1.7126285058
21
-23.8536264996
31
0.0000000000
11
1.6854588256
21
-23.8844906073
31
0.0000000000
11
1.6532920532
21
-23.9078013791
31
0.0000000000
11
1.6453926034
21
-23.9119596632
31
0.0000000000
0
SPLINE
5
366
100
AcDbEntity
8
0
100
AcDbSpline
62
0
6
CONTINUOUS
70
0
71
3
72
8
73
4
74
2
42
0.0000001000
43
0.0000001000
44
0.0000000001
12
0.0054396925
22
0.0082024836
32
0.0000000000
13
-0.0009218575
23
0.0086694883
33
0.0000000000
40
0.0000000000
40
0.0000000000
40
0.0000000000
40
0.0000000000
40
1.0000000000
40
1.0000000000
40
1.0000000000
40
1.0000000000
10
6.4553251685
20
-18.8598442616
30
0.0000000000
10
6.4571383993
20
-18.8571101004
30
0.0000000000
10
6.4597012129
20
-18.8533256523
30
0.0000000000
10
6.4593939271
20
-18.8504358229
30
0.0000000000
11
6.4553251685
21
-18.8598442616
31
0.0000000000
11
6.4593939271
21
-18.8504358229
31
0.0000000000
0
SPLINE
5
367
100
AcDbEntity
8
0
100
AcDbSpline
62
0
6
CONTINUOUS
70
0
71
3
72
17
73
13
74
11
42
0.0000001000
43
0.0000001000
44
0.0000000001
12
1.0551396127
22
0.5296213678
32
0.0000000000
13
0.9898942831
23
0.6433721347
33
0.0000000000
40
0.0000000000
40
0.0000000000
40
0.0000000000
40
0.0000000000
40
0.0675213051
40
0.1418306670
40
0.2230260770
40
0.3118684727
40
0.4084188083
40
0.5131016756
40
0.6257109067
40
0.7455368430
40
0.8710698098
40
1.0000000000
40
1.0000000000
40
1.0000000000
40
1.0000000000
10
5.4373501932
20
-19.4567993475
30
0.0000000000
10
5.4610983278
20
-19.4448791055
30
0.0000000000
10
5.5107647070
20
-19.4194061796
30
0.0000000000
10
5.5883005299
20
-19.3782741235
30
0.0000000000
10
5.6726986346
20
-19.3321884284
30
0.0000000000
10
5.7642256008
20
-19.2809086808
30
0.0000000000
10
5.8632456823
20
-19.2241046549
30
0.0000000000
10
5.9697772003
20
-19.1616097041
30
0.0000000000
10
6.0835627171
20
-19.0933894821
30
0.0000000000
10
6.2036805697
20
-19.0197864201
30
0.0000000000
10
6.3284974805
20
-18.9415727728
30
0.0000000000
10
6.4127827490
20
-18.8874942922
30
0.0000000000
10
6.4553251685
20
-18.8598442616
30
0.0000000000
11
5.4373501932
21
-19.4567993475
31
0.0000000000
11
5.5083064232
21
-19.4204701856
31
0.0000000000
11
5.5858266319
21
-19.3793956565
31
0.0000000000
11
5.6699768875
21
-19.3334853799
31
0.0000000000
11
5.7614954837
21
-19.2822436478
31
0.0000000000
11
5.8603807666
21
-19.2255441739
31
0.0000000000
11
5.9669899041
21
-19.1630249414
31
0.0000000000
11
6.0810194459
21
-19.0946725443
31
0.0000000000
11
6.2016439864
21
-19.0207636804
31
0.0000000000
11
6.3272252756
21
-18.9420625819
31
0.0000000000
11
6.4553251685
21
-18.8598442616
31
0.0000000000
0
SPLINE
5
368
100
AcDbEntity
8
0
100
AcDbSpline
62
0
6
CONTINUOUS
70
0
71
3
72
15
73
11
74
9
42
0.0000001000
43
0.0000001000
44
0.0000000001
12
0.0000000000
22
0.6311300022
32
0.0000000000
13
-0.5654420458
23
0.2826653478
33
0.0000000000
40
0.0000000000
40
0.0000000000
40
0.0000000000
40
0.0000000000
40
0.1606293349
40
0.3126800366
40
0.4557227302
40
0.5905083928
40
0.7175351878
40
0.8389320932
40
0.9563750069
40
1.0000000000
40
1.0000000000
40
1.0000000000
40
1.0000000000
10
-1.1713202490
20
22.3291320348
30
0.0000000000
10
-1.1713202490
20
22.3629246990
30
0.0000000000
10
-1.1744553297
20
22.4287660427
30
0.0000000000
10
-1.1893865548
20
22.5236750913
30
0.0000000000
10
-1.2142615844
20
22.6108869368
30
0.0000000000
10
-1.2487788390
20
22.6890846746
30
0.0000000000
10
-1.2925803719
20
22.7571993272
30
0.0000000000
10
-1.3450777521
20
22.8140700736
30
0.0000000000
10
-1.3931772491
20
22.8495971731
30
0.0000000000
10
-1.4229787839
20
22.8658845286
30
0.0000000000
10
-1.4312012524
20
22.8699949533
30
0.0000000000
11
-1.1713202490
21
22.3291320348
31
0.0000000000
11
-1.1764175880
21
22.4303817978
31
0.0000000000
11
-1.1916482841
21
22.5251291939
31
0.0000000000
11
-1.2167567974
21
22.6118458390
31
0.0000000000
11
-1.2514556797
21
22.6895145517
31
0.0000000000
11
-1.2951195852
21
22.7567511476
31
0.0000000000
11
-1.3472985750
21
22.8128542029
31
0.0000000000
11
-1.4070095461
21
22.8567704097
31
0.0000000000
11
-1.4312012524
21
22.8699949533
31
0.0000000000
0
SPLINE
5
369
100
AcDbEntity
8
0
100
AcDbSpline
62
0
6
CONTINUOUS
70
0
71
3
72
14
73
10
74
8
42
0.0000001000
43
0.0000001000
44
0.0000000001
12
0.2708906112
22
0.1349093253
32
0.0000000000
13
0.2717712229
23
-0.1267148392
33
0.0000000000
40
0.0000000000
40
0.0000000000
40
0.0000000000
40
0.0000000000
40
0.2329202022
40
0.4399164115
40
0.6194083446
40
0.7700461865
40
0.8880329346
40
0.9699863429
40
1.0000000000
40
1.0000000000
40
1.0000000000
40
1.0000000000
10
-4.9392223817
20
24.3781393406
30
0.0000000000
10
-4.9181904164
20
24.3886137097
30
0.0000000000
10
-4.8782964179
20
24.4080707462
30
0.0000000000
10
-4.8215932744
20
24.4342728749
30
0.0000000000
10
-4.7716473469
20
24.4554972106
30
0.0000000000
10
-4.7296557561
20
24.4716684436
30
0.0000000000
10
-4.6950088961
20
24.4815764747
30
0.0000000000
10
-4.6736334114
20
24.4863826656
30
0.0000000000
10
-4.6603197457
20
24.4844361180
30
0.0000000000
10
-4.6576007963
20
24.4831683928
30
0.0000000000
11
-4.9392223817
21
24.3781393406
31
0.0000000000
11
-4.8758396005
21
24.4089796843
31
0.0000000000
11
-4.8189154104
21
24.4351273546
31
0.0000000000
11
-4.7688940655
21
24.4563028782
31
0.0000000000
11
-4.7261635370
21
24.4721857085
31
0.0000000000
11
-4.6918566572
21
24.4820823159
31
0.0000000000
11
-4.6672486229
21
24.4851716694
31
0.0000000000
11
-4.6576007963
21
24.4831683928
31
0.0000000000
0
SPLINE
5
36A
100
AcDbEntity
8
0
100
AcDbSpline
62
0
6
CONTINUOUS
70
0
71
3
72
11
73
7
74
5
42
0.0000001000
43
0.0000001000
44
0.0000000001
12
-0.3714534514
22
0.3656050754
32
0.0000000000
13
-0.4665225503
23
0.2329349302
33
0.0000000000
40
0.0000000000
40
0.0000000000
40
0.0000000000
40
0.0000000000
40
0.3313178509
40
0.6331039431
40
0.9049039262
40
1.0000000000
40
1.0000000000
40
1.0000000000
40
1.0000000000
10
6.4553251685
20
18.8280510899
30
0.0000000000
10
6.4143021154
20
18.8684282525
30
0.0000000000
10
6.3327284735
20
18.9424499946
30
0.0000000000
10
6.2072717051
20
19.0375340335
30
0.0000000000
10
6.1083725439
20
19.0988318603
30
0.0000000000
10
6.0518880757
20
19.1284672681
30
0.0000000000
10
6.0370999214
20
19.1358510006
30
0.0000000000
11
6.4553251685
21
18.8280510899
31
0.0000000000
11
6.3272252756
21
18.9438495041
31
0.0000000000
11
6.2016439864
21
19.0385561159
31
0.0000000000
11
6.0810194459
21
19.1128362473
31
0.0000000000
11
6.0370999214
21
19.1358510006
31
0.0000000000
0
SPLINE
5
36B
100
AcDbEntity
8
0
100
AcDbSpline
62
0
6
CONTINUOUS
70
0
71
3
72
13
73
9
74
7
42
0.0000001000
43
0.0000001000
44
0.0000000001
12
0.4109068760
22
0.2010615886
32
0.0000000000
13
0.4098481622
23
-0.2048837263
33
0.0000000000
40
0.0000000000
40
0.0000000000
40
0.0000000000
40
0.0000000000
40
0.2005143800
40
0.3892497752
40
0.5669911938
40
0.7362259433
40
0.8992258387
40
1.0000000000
40
1.0000000000
40
1.0000000000
40
1.0000000000
10
2.3703842493
20
20.7233360251
30
0.0000000000
10
2.3978484951
20
20.7367746050
30
0.0000000000
10
2.4527382626
20
20.7598359754
30
0.0000000000
10
2.5364705686
20
20.7824787246
30
0.0000000000
10
2.6179876828
20
20.7917278265
30
0.0000000000
10
2.6960389906
20
20.7873086089
30
0.0000000000
10
2.7605299468
20
20.7713626681
30
0.0000000000
10
2.7976720665
20
20.7555569383
30
0.0000000000
10
2.8114394348
20
20.7486746097
30
0.0000000000
11
2.3703842493
21
20.7233360251
31
0.0000000000
11
2.4550876053
21
20.7585392003
31
0.0000000000
11
2.5385303423
21
20.7807142901
31
0.0000000000
11
2.6193624976
21
20.7895137247
31
0.0000000000
11
2.6966387402
21
20.7848270067
31
0.0000000000
11
2.7689791019
21
20.7667448197
31
0.0000000000
11
2.8114394348
21
20.7486746097
31
0.0000000000
0
SPLINE
5
36C
100
AcDbEntity
8
0
100
AcDbSpline
62
0
6
CONTINUOUS
70
0
71
3
72
15
73
11
74
9
42
0.0000001000
43
0.0000001000
44
0.0000000001
12
0.0548220266
22
0.1975428018
32
0.0000000000
13
0.1824057236
23
0.0935775889
33
0.0000000000
40
0.0000000000
40
0.0000000000
40
0.0000000000
40
0.0000000000
40
0.1029198788
40
0.2104743225
40
0.3238712053
40
0.4440050724
40
0.5714710301
40
0.7065956718
40
0.8494731527
40
1.0000000000
40
1.0000000000
40
1.0000000000
40
1.0000000000
10
-10.4325599998
20
20.7651034056
30
0.0000000000
10
-10.4306792410
20
20.7718804327
30
0.0000000000
10
-10.4257629327
20
20.7854614446
30
0.0000000000
10
-10.4153750705
20
20.8050737129
30
0.0000000000
10
-10.4019266081
20
20.8241801498
30
0.0000000000
10
-10.3855171453
20
20.8426617324
30
0.0000000000
10
-10.3662568403
20
20.8604126268
30
0.0000000000
10
-10.3442698947
20
20.8773278658
30
0.0000000000
10
-10.3196971480
20
20.8933054609
30
0.0000000000
10
-10.3021380445
20
20.9030215851
30
0.0000000000
10
-10.2929857250
20
20.9077168983
30
0.0000000000
11
-10.4325599998
21
20.7651034056
31
0.0000000000
11
-10.4254325485
21
20.7849625995
31
0.0000000000
11
-10.4151774197
21
20.8044822711
31
0.0000000000
11
-10.4018603442
21
20.8235373297
31
0.0000000000
11
-10.3855666733
21
20.8420056640
31
0.0000000000
11
-10.3664008323
21
20.8597689235
31
0.0000000000
11
-10.3444856472
21
20.8767132792
31
0.0000000000
11
-10.3199615593
21
20.8927301501
31
0.0000000000
11
-10.2929857250
21
20.9077168983
31
0.0000000000
0
SPLINE
5
36D
100
AcDbEntity
8
0
100
AcDbSpline
62
0
6
CONTINUOUS
70
0
71
3
72
9
73
5
74
3
42
0.0000001000
43
0.0000001000
44
0.0000000001
12
-0.0110755293
22
-0.0399089786
32
0.0000000000
13
0.0000076398
23
-0.0414526487
33
0.0000000000
40
0.0000000000
40
0.0000000000
40
0.0000000000
40
0.0000000000
40
0.7184555853
40
1.0000000000
40
1.0000000000
40
1.0000000000
40
1.0000000000
10
-10.4325599998
20
20.7651034056
30
0.0000000000
10
-10.4352124251
20
20.7555457961
30
0.0000000000
10
-10.4370261902
20
20.7417309221
30
0.0000000000
10
-10.4373843370
20
20.7279067506
30
0.0000000000
10
-10.4373836200
20
20.7240164967
30
0.0000000000
11
-10.4325599998
21
20.7651034056
31
0.0000000000
11
-10.4370672857
21
20.7356902501
31
0.0000000000
11
-10.4373836200
21
20.7240164967
31
0.0000000000
0
SPLINE
5
36E
100
AcDbEntity
8
0
100
AcDbSpline
62
0
6
CONTINUOUS
70
0
71
3
72
16
73
12
74
10
42
0.0000001000
43
0.0000001000
44
0.0000000001
12
0.0000699534
22
-0.3795606888
32
0.0000000000
13
0.2340882352
23
-0.2983680849
33
0.0000000000
40
0.0000000000
40
0.0000000000
40
0.0000000000
40
0.0000000000
40
0.0597108165
40
0.1596350220
40
0.2670631249
40
0.3804958614
40
0.4987285191
40
0.6207319988
40
0.7455653644
40
0.8723118181
40
1.0000000000
40
1.0000000000
40
1.0000000000
40
1.0000000000
10
-10.4373836200
20
20.7240164967
30
0.0000000000
10
-10.4373822277
20
20.7164618705
30
0.0000000000
10
-10.4363546696
20
20.6962836073
30
0.0000000000
10
-10.4312675875
20
20.6628380280
30
0.0000000000
10
-10.4213865061
20
20.6234600975
30
0.0000000000
10
-10.4076516478
20
20.5828116785
30
0.0000000000
10
-10.3903764744
20
20.5415398111
30
0.0000000000
10
-10.3698408047
20
20.5001780974
30
0.0000000000
10
-10.3463056543
20
20.4592026642
30
0.0000000000
10
-10.3200340792
20
20.4190670915
30
0.0000000000
10
-10.3008982633
20
20.3931894255
30
0.0000000000
10
-10.2909348296
20
20.3804900661
30
0.0000000000
11
-10.4373836200
21
20.7240164967
31
0.0000000000
11
-10.4363318515
21
20.7013927607
31
0.0000000000
11
-10.4308444936
21
20.6638971914
31
0.0000000000
11
-10.4210645095
21
20.6243477439
31
0.0000000000
11
-10.4073827985
21
20.5835635415
31
0.0000000000
11
-10.3901297317
21
20.5421775860
31
0.0000000000
11
-10.3695931294
21
20.5007167719
31
0.0000000000
11
-10.3460377522
21
20.4596514937
31
0.0000000000
11
-10.3197242679
21
20.4194267058
31
0.0000000000
11
-10.2909348296
21
20.3804900661
31
0.0000000000
0
SPLINE
5
36F
100
AcDbEntity
8
0
100
AcDbSpline
62
0
6
CONTINUOUS
70
0
71
3
72
12
73
8
74
6
42
0.0000001000
43
0.0000001000
44
0.0000000001
12
-0.1036473351
22
0.0575883075
32
0.0000000000
13
-0.1140958085
23
-0.0365305522
33
0.0000000000
40
0.0000000000
40
0.0000000000
40
0.0000000000
40
0.0000000000
40
0.0896567935
40
0.2460014419
40
0.4536088281
40
0.7075585950
40
1.0000000000
40
1.0000000000
40
1.0000000000
40
1.0000000000
10
1.7247719360
20
20.6486441817
30
0.0000000000
10
1.7216743735
20
20.6503652427
30
0.0000000000
10
1.7112658793
20
20.6517805823
30
0.0000000000
10
1.6934797754
20
20.6508729403
30
0.0000000000
10
1.6690341582
20
20.6462630291
30
0.0000000000
10
1.6399354384
20
20.6387227300
30
0.0000000000
10
1.6190515218
20
20.6323273351
30
0.0000000000
10
1.6079294089
20
20.6287663197
30
0.0000000000
11
1.7247719360
21
20.6486441817
31
0.0000000000
11
1.7141888006
21
20.6511435219
31
0.0000000000
11
1.6954661528
21
20.6506088339
31
0.0000000000
11
1.6709581270
21
20.6463715980
31
0.0000000000
11
1.6414647166
21
20.6389064951
31
0.0000000000
11
1.6079294089
21
20.6287663197
31
0.0000000000
0
SPLINE
5
370
100
AcDbEntity
8
0
100
AcDbSpline
62
9
6
CONTINUOUS
70
0
71
3
72
9
73
5
74
3
42
0.0000001000
43
0.0000001000
44
0.0000000001
12
-0.0223884934
22
0.0111968202
32
0.0000000000
13
-0.0244544470
23
0.0050162765
33
0.0000000000
40
0.0000000000
40
0.0000000000
40
0.0000000000
40
0.0000000000
40
0.0763221131
40
1.0000000000
40
1.0000000000
40
1.0000000000
40
1.0000000000
10
1.1647749306
20
-24.9145626611
30
0.0000000000
10
1.1642053515
20
-24.9142778061
30
0.0000000000
10
1.1567037206
20
-24.9106220422
30
0.0000000000
10
1.1487096772
20
-24.9079844655
30
0.0000000000
10
1.1411803333
20
-24.9064399909
30
0.0000000000
11
1.1647749306
21
-24.9145626611
31
0.0000000000
11
1.1630574025
21
-24.9137257059
31
0.0000000000
11
1.1411803333
21
-24.9064399909
31
0.0000000000
0
SPLINE
5
371
100
AcDbEntity
8
0
100
AcDbSpline
62
0
6
CONTINUOUS
70
0
71
3
72
12
73
8
74
6
42
0.0000001000
43
0.0000001000
44
0.0000000001
12
-0.1050141181
22
0.0592692178
32
0.0000000000
13
-0.1158177379
23
-0.0372589604
33
0.0000000000
40
0.0000000000
40
0.0000000000
40
0.0000000000
40
0.0000000000
40
0.0920800339
40
0.2482692595
40
0.4555035979
40
0.7087319974
40
1.0000000000
40
1.0000000000
40
1.0000000000
40
1.0000000000
10
-3.8302166603
20
23.4261270731
30
0.0000000000
10
-3.8334398948
20
23.4279462436
30
0.0000000000
10
-3.8441014163
20
23.4292804291
30
0.0000000000
10
-3.8622461479
20
23.4282796313
30
0.0000000000
10
-3.8869989338
20
23.4235182466
30
0.0000000000
10
-3.9164459552
20
23.4158213967
30
0.0000000000
10
-3.9375697966
20
23.4093145860
30
0.0000000000
10
-3.9488144636
20
23.4056971384
30
0.0000000000
11
-3.8302166603
21
23.4261270731
31
0.0000000000
11
-3.8412421763
21
23.4286773474
31
0.0000000000
11
-3.8602333461
21
23.4280209661
31
0.0000000000
11
-3.8850623925
21
23.4236385835
31
0.0000000000
11
-3.9149114448
21
23.4160093399
31
0.0000000000
11
-3.9488144636
21
23.4056971384
31
0.0000000000
0
SPLINE
5
372
100
AcDbEntity
8
0
100
AcDbSpline
62
9
6
CONTINUOUS
70
0
71
3
72
8
73
4
74
2
42
0.0000001000
43
0.0000001000
44
0.0000000001
12
0.0000005211
22
-0.0033637153
32
0.0000000000
13
-0.0001765736
23
-0.0033584326
33
0.0000000000
40
0.0000000000
40
0.0000000000
40
0.0000000000
40
0.0000000000
40
1.0000000000
40
1.0000000000
40
1.0000000000
40
1.0000000000
10
1.3029648204
20
-25.4855288102
30
0.0000000000
10
1.3029649941
20
-25.4866500486
30
0.0000000000
10
1.3029356700
20
-25.4877712645
30
0.0000000000
10
1.3028768122
20
-25.4888907420
30
0.0000000000
11
1.3029648204
21
-25.4855288102
31
0.0000000000
11
1.3028768122
21
-25.4888907420
31
0.0000000000
0
SPLINE
5
373
100
AcDbEntity
8
0
100
AcDbSpline
62
9
6
CONTINUOUS
70
0
71
3
72
12
73
8
74
6
42
0.0000001000
43
0.0000001000
44
0.0000000001
12
-0.0061175928
22
-0.1163567158
32
0.0000000000
13
-0.1034334345
23
-0.0523219968
33
0.0000000000
40
0.0000000000
40
0.0000000000
40
0.0000000000
40
0.0000000000
40
0.0613769059
40
0.2566653078
40
0.4737396016
40
0.7206646150
40
1.0000000000
40
1.0000000000
40
1.0000000000
40
1.0000000000
10
1.3028768122
20
-25.4888907420
30
0.0000000000
10
1.3027516525
20
-25.4912712804
30
0.0000000000
10
1.3016697890
20
-25.5011933202
30
0.0000000000
10
1.2953511523
20
-25.5187206854
30
0.0000000000
10
1.2799825201
20
-25.5393857970
30
0.0000000000
10
1.2580004527
20
-25.5581452447
30
0.0000000000
10
1.2404107656
20
-25.5685296675
30
0.0000000000
10
1.2307798928
20
-25.5734014625
30
0.0000000000
11
1.3028768122
21
-25.4888907420
31
0.0000000000
11
1.3021003403
21
-25.4959922777
31
0.0000000000
11
1.2947193536
21
-25.5173918066
31
0.0000000000
11
1.2800425086
21
-25.5378298707
31
0.0000000000
11
1.2585126472
21
-25.5566895743
31
0.0000000000
11
1.2307798928
21
-25.5734014625
31
0.0000000000
0
SPLINE
5
374
100
AcDbEntity
8
0
100
AcDbSpline
62
9
6
CONTINUOUS
70
0
71
3
72
12
73
8
74
6
42
0.0000001000
43
0.0000001000
44
0.0000000001
12
0.0000170319
22
-0.1199032704
32
0.0000000000
13
-0.1064189820
23
-0.0538322416
33
0.0000000000
40
0.0000000000
40
0.0000000000
40
0.0000000000
40
0.0000000000
40
0.0879493585
40
0.2777155935
40
0.4886520367
40
0.7285846261
40
1.0000000000
40
1.0000000000
40
1.0000000000
40
1.0000000000
10
1.3029648332
20
-25.1381724557
30
0.0000000000
10
1.3029653325
20
-25.1416875943
30
0.0000000000
10
1.3020514344
20
-25.1527866191
30
0.0000000000
10
1.2953390176
20
-25.1713847077
30
0.0000000000
10
1.2799701658
20
-25.1920414363
30
0.0000000000
10
1.2579925357
20
-25.2107937450
30
0.0000000000
10
1.2404078088
20
-25.2211747867
30
0.0000000000
10
1.2307798928
20
-25.2260450860
30
0.0000000000
11
1.3029648332
21
-25.1381724557
31
0.0000000000
11
1.3020955472
21
-25.1486643915
31
0.0000000000
11
1.2947083475
21
-25.1700562983
31
0.0000000000
11
1.2800304547
21
-25.1904865754
31
0.0000000000
11
1.2585045599
21
-25.2093390372
31
0.0000000000
11
1.2307798928
21
-25.2260450860
31
0.0000000000
0
SPLINE
5
375
100
AcDbEntity
8
0
100
AcDbSpline
62
9
6
CONTINUOUS
70
0
71
3
72
13
73
9
74
7
42
0.0000001000
43
0.0000001000
44
0.0000000001
12
0.1395220717
22
0.0716304565
32
0.0000000000
13
-0.0007403311
23
0.1563941954
33
0.0000000000
40
0.0000000000
40
0.0000000000
40
0.0000000000
40
0.0000000000
40
0.0921946381
40
0.2497146995
40
0.4163695902
40
0.5959673761
40
0.7904363280
40
1.0000000000
40
1.0000000000
40
1.0000000000
40
1.0000000000
10
1.1670957517
20
-25.7079592096
30
0.0000000000
10
1.1713834807
20
-25.7057578950
30
0.0000000000
10
1.1825432552
20
-25.6989082900
30
0.0000000000
10
1.1984877638
20
-25.6838552203
30
0.0000000000
10
1.2129913384
20
-25.6617098751
30
0.0000000000
10
1.2234248251
20
-25.6353454247
30
0.0000000000
10
1.2296252626
20
-25.6054317307
30
0.0000000000
10
1.2308316083
20
-25.5843263098
30
0.0000000000
10
1.2307798928
20
-25.5734014625
30
0.0000000000
11
1.1670957517
21
-25.7079592096
31
0.0000000000
11
1.1794061478
21
-25.7004032183
31
0.0000000000
11
1.1974104950
21
-25.6835880077
31
0.0000000000
11
1.2118571399
21
-25.6618938992
31
0.0000000000
11
1.2223901383
21
-25.6358552309
31
0.0000000000
11
1.2287499534
21
-25.6061134482
31
0.0000000000
11
1.2307798928
21
-25.5734014625
31
0.0000000000
0
SPLINE
5
376
100
AcDbEntity
8
0
100
AcDbSpline
62
0
6
CONTINUOUS
70
0
71
3
72
8
73
4
74
2
42
0.0000001000
43
0.0000001000
44
0.0000000001
12
0.0031252547
22
0.0016020349
32
0.0000000000
13
0.0030623916
23
0.0017186206
33
0.0000000000
40
0.0000000000
40
0.0000000000
40
0.0000000000
40
0.0000000000
40
1.0000000000
40
1.0000000000
40
1.0000000000
40
1.0000000000
10
0.6384072815
20
-25.9791896276
30
0.0000000000
10
0.6394490330
20
-25.9786556159
30
0.0000000000
10
0.6404807137
20
-25.9781020638
30
0.0000000000
10
0.6415015109
20
-25.9775291902
30
0.0000000000
11
0.6384072815
21
-25.9791896276
31
0.0000000000
11
0.6415015109
21
-25.9775291902
31
0.0000000000
0
SPLINE
5
377
100
AcDbEntity
8
0
100
AcDbSpline
62
0
6
CONTINUOUS
70
0
71
3
72
13
73
9
74
7
42
0.0000001000
43
0.0000001000
44
0.0000000001
12
0.1339245570
22
0.0751587447
32
0.0000000000
13
-0.0000000000
23
0.1532497058
33
0.0000000000
40
0.0000000000
40
0.0000000000
40
0.0000000000
40
0.0000000000
40
0.1437253460
40
0.2929995974
40
0.4514947733
40
0.6216146730
40
0.8044628653
40
1.0000000000
40
1.0000000000
40
1.0000000000
40
1.0000000000
10
0.6415015109
20
-25.9775291902
30
0.0000000000
10
0.6479176287
20
-25.9739284513
30
0.0000000000
10
0.6601210482
20
-25.9650318577
30
0.0000000000
10
0.6753786481
20
-25.9475018401
30
0.0000000000
10
0.6874611613
20
-25.9261235474
30
0.0000000000
10
0.6961844832
20
-25.9013725881
30
0.0000000000
10
0.7014248187
20
-25.8737568173
30
0.0000000000
10
0.7025127211
20
-25.8544011906
30
0.0000000000
10
0.7025127211
20
-25.8444125211
30
0.0000000000
11
0.6415015109
21
-25.9775291902
31
0.0000000000
11
0.6593360449
21
-25.9646037032
31
0.0000000000
11
0.6744508760
21
-25.9474320984
31
0.0000000000
11
0.6865383107
21
-25.9263639728
31
0.0000000000
11
0.6953523045
21
-25.9018282558
31
0.0000000000
11
0.7007134696
21
-25.8743244644
31
0.0000000000
11
0.7025127211
21
-25.8444125211
31
0.0000000000
0
SPLINE
5
378
100
AcDbEntity
8
0
100
AcDbSpline
62
9
6
CONTINUOUS
70
0
71
3
72
13
73
9
74
7
42
0.0000001000
43
0.0000001000
44
0.0000000001
12
0.1432602364
22
0.0698555072
32
0.0000000000
13
0.0007575955
23
0.1589430906
33
0.0000000000
40
0.0000000000
40
0.0000000000
40
0.0000000000
40
0.0000000000
40
0.1029995317
40
0.2582084770
40
0.4228143965
40
0.6004233616
40
0.7927869796
40
1.0000000000
40
1.0000000000
40
1.0000000000
40
1.0000000000
10
-0.9650309582
20
-26.7602950894
30
0.0000000000
10
-0.9601123791
20
-26.7578967278
30
0.0000000000
10
-0.9483039896
20
-26.7508070489
30
0.0000000000
10
-0.9318527962
20
-26.7352717345
30
0.0000000000
10
-0.9172572851
20
-26.7130818265
30
0.0000000000
10
-0.9066564650
20
-26.6866437316
30
0.0000000000
10
-0.9002192770
20
-26.6566249270
30
0.0000000000
10
-0.8988203976
20
-26.6354254801
30
0.0000000000
10
-0.8987680697
20
-26.6244471208
30
0.0000000000
11
-0.9650309582
21
-26.7602950894
31
0.0000000000
11
-0.9509719730
21
-26.7518590655
31
0.0000000000
11
-0.9329390165
21
-26.7350244262
31
0.0000000000
11
-0.9183919396
21
-26.7132781784
31
0.0000000000
11
-0.9076889243
21
-26.6871557639
31
0.0000000000
11
-0.9010935029
21
-26.6573003757
31
0.0000000000
11
-0.8987680697
21
-26.6244471208
31
0.0000000000
0
SPLINE
5
379
100
AcDbEntity
8
0
100
AcDbSpline
62
9
6
CONTINUOUS
70
0
71
3
72
11
73
7
74
5
42
0.0000001000
43
0.0000001000
44
0.0000000001
12
-0.1030106275
22
0.0514466816
32
0.0000000000
13
-0.1029660599
23
-0.0507493600
33
0.0000000000
40
0.0000000000
40
0.0000000000
40
0.0000000000
40
0.0000000000
40
0.2104276318
40
0.4530571361
40
0.7145536535
40
1.0000000000
40
1.0000000000
40
1.0000000000
40
1.0000000000
10
-12.1995373231
20
23.4149036069
30
0.0000000000
10
-12.2067627506
20
23.4185122081
30
0.0000000000
10
-12.2233395473
20
23.4242534791
30
0.0000000000
10
-12.2509291353
20
23.4261544166
30
0.0000000000
10
-12.2809252018
20
23.4208956008
30
0.0000000000
10
-12.3005148801
20
23.4131430712
30
0.0000000000
10
-12.3103119753
20
23.4083143314
30
0.0000000000
11
-12.1995373231
21
23.4149036069
31
0.0000000000
11
-12.2223589602
21
23.4228668818
31
0.0000000000
11
-12.2501281837
21
23.4250158101
31
0.0000000000
11
-12.2797435930
21
23.4201156968
31
0.0000000000
11
-12.3103119753
21
23.4083143314
31
0.0000000000
0
SPLINE
5
37A
100
AcDbEntity
8
0
100
AcDbSpline
62
9
6
CONTINUOUS
70
0
71
3
72
12
73
8
74
6
42
0.0000001000
43
0.0000001000
44
0.0000000001
12
0.0000163378
22
-0.1199034860
32
0.0000000000
13
-0.1064189665
23
-0.0538322337
33
0.0000000000
40
0.0000000000
40
0.0000000000
40
0.0000000000
40
0.0000000000
40
0.0880854918
40
0.2778925619
40
0.4888642308
40
0.7288398944
40
1.0000000000
40
1.0000000000
40
1.0000000000
40
1.0000000000
10
-12.0613533430
20
22.8439410360
30
0.0000000000
10
-12.0613528633
20
22.8404204502
30
0.0000000000
10
-12.0622688157
20
22.8293143082
30
0.0000000000
10
-12.0689892411
20
22.8107099795
30
0.0000000000
10
-12.0843658023
20
22.7900531880
30
0.0000000000
10
-12.1063416032
20
22.7713097192
30
0.0000000000
10
-12.1239194122
20
22.7609341342
30
0.0000000000
10
-12.1335382716
20
22.7560684161
30
0.0000000000
11
-12.0613533430
21
22.8439410360
31
0.0000000000
11
-12.0622253362
21
22.8334329833
31
0.0000000000
11
-12.0696197334
21
22.8120384141
31
0.0000000000
11
-12.0843049462
21
22.7916082286
31
0.0000000000
11
-12.1058383776
21
22.7727565823
31
0.0000000000
11
-12.1335382716
21
22.7560684161
31
0.0000000000
0
SPLINE
5
37B
100
AcDbEntity
8
0
100
AcDbSpline
62
9
6
CONTINUOUS
70
0
71
3
72
12
73
8
74
6
42
0.0000001000
43
0.0000001000
44
0.0000000001
12
0.0000185756
22
-0.1199034577
32
0.0000000000
13
-0.1064188592
23
-0.0538321795
33
0.0000000000
40
0.0000000000
40
0.0000000000
40
0.0000000000
40
0.0000000000
40
0.0877085976
40
0.2775184703
40
0.4885030637
40
0.7285009587
40
1.0000000000
40
1.0000000000
40
1.0000000000
40
1.0000000000
10
-12.0613533441
20
23.1912974449
30
0.0000000000
10
-12.0613528010
20
23.1877919235
30
0.0000000000
10
-12.0622634037
20
23.1767008141
30
0.0000000000
10
-12.0689670121
20
23.1581055697
30
0.0000000000
10
-12.0843356443
20
23.1374404581
30
0.0000000000
10
-12.1063177117
20
23.1186810103
30
0.0000000000
10
-12.1239073988
20
23.1082965876
30
0.0000000000
10
-12.1335382716
20
23.1034247926
30
0.0000000000
11
-12.0613533441
21
23.1912974449
31
0.0000000000
11
-12.0622178241
21
23.1808339774
31
0.0000000000
11
-12.0695988108
21
23.1594344485
31
0.0000000000
11
-12.0842756558
21
23.1389963843
31
0.0000000000
11
-12.1058055172
21
23.1201366807
31
0.0000000000
11
-12.1335382716
21
23.1034247926
31
0.0000000000
0
SPLINE
5
37C
100
AcDbEntity
8
0
100
AcDbSpline
62
9
6
CONTINUOUS
70
0
71
3
72
11
73
7
74
5
42
0.0000001000
43
0.0000001000
44
0.0000000001
12
-0.1030106275
22
0.0514466816
32
0.0000000000
13
-0.1029660599
23
-0.0507493600
33
0.0000000000
40
0.0000000000
40
0.0000000000
40
0.0000000000
40
0.0000000000
40
0.2104276318
40
0.4530571361
40
0.7145536535
40
1.0000000000
40
1.0000000000
40
1.0000000000
40
1.0000000000
10
-13.5368634837
20
24.0835666872
30
0.0000000000
10
-13.5440889112
20
24.0871752883
30
0.0000000000
10
-13.5606657078
20
24.0929165593
30
0.0000000000
10
-13.5882552959
20
24.0948174969
30
0.0000000000
10
-13.6182513624
20
24.0895586811
30
0.0000000000
10
-13.6378410406
20
24.0818061515
30
0.0000000000
10
-13.6476381358
20
24.0769774117
30
0.0000000000
11
-13.5368634837
21
24.0835666872
31
0.0000000000
11
-13.5596851207
21
24.0915299621
31
0.0000000000
11
-13.5874543442
21
24.0936788904
31
0.0000000000
11
-13.6170697535
21
24.0887787771
31
0.0000000000
11
-13.6476381358
21
24.0769774117
31
0.0000000000
0
SPLINE
5
37D
100
AcDbEntity
8
0
100
AcDbSpline
62
0
6
CONTINUOUS
70
0
71
3
72
14
73
10
74
8
42
0.0000001000
43
0.0000001000
44
0.0000000001
12
-0.5575549069
22
0.2783874290
32
0.0000000000
13
-0.5613902463
23
-0.2698899959
33
0.0000000000
40
0.0000000000
40
0.0000000000
40
0.0000000000
40
0.0000000000
40
0.1238265934
40
0.3054769581
40
0.4682472532
40
0.6158055794
40
0.7510618594
40
0.8780877179
40
1.0000000000
40
1.0000000000
40
1.0000000000
40
1.0000000000
10
6.0370999214
20
19.1358510006
30
0.0000000000
10
6.0140865465
20
19.1473415896
30
0.0000000000
10
5.9564295277
20
19.1739112236
30
0.0000000000
10
5.8647525613
20
19.2069004583
30
0.0000000000
10
5.7649613050
20
19.2299199788
30
0.0000000000
10
5.6725957101
20
19.2388922748
30
0.0000000000
10
5.5872737626
20
19.2350469275
30
0.0000000000
10
5.5087577429
20
19.2192506459
30
0.0000000000
10
5.4601636486
20
19.2008206882
30
0.0000000000
10
5.4373501932
20
19.1898530531
30
0.0000000000
11
6.0370999214
21
19.1358510006
31
0.0000000000
11
5.9669899041
21
19.1680524059
31
0.0000000000
11
5.8603807666
21
19.2059636040
31
0.0000000000
11
5.7614954837
21
19.2283561982
31
0.0000000000
11
5.6699768875
21
19.2368674017
31
0.0000000000
11
5.5858266319
21
19.2327563334
31
0.0000000000
11
5.5083064232
21
19.2169066725
31
0.0000000000
11
5.4373501932
21
19.1898530531
31
0.0000000000
0
SPLINE
5
37E
100
AcDbEntity
8
0
100
AcDbSpline
62
0
6
CONTINUOUS
70
0
71
3
72
13
73
9
74
7
42
0.0000001000
43
0.0000001000
44
0.0000000001
12
-0.4098481622
22
0.2048837263
32
0.0000000000
13
-0.4109068760
23
-0.2010615886
33
0.0000000000
40
0.0000000000
40
0.0000000000
40
0.0000000000
40
0.0000000000
40
0.1007741613
40
0.2637740567
40
0.4330088062
40
0.6107502248
40
0.7994856200
40
1.0000000000
40
1.0000000000
40
1.0000000000
40
1.0000000000
10
-1.4312012524
20
22.8699949533
30
0.0000000000
10
-1.4449686206
20
22.8768772818
30
0.0000000000
10
-1.4821107403
20
22.8926830116
30
0.0000000000
10
-1.5466016966
20
22.9086289525
30
0.0000000000
10
-1.6246530043
20
22.9130481700
30
0.0000000000
10
-1.7061701186
20
22.9037990682
30
0.0000000000
10
-1.7899024246
20
22.8811563189
30
0.0000000000
10
-1.8447921920
20
22.8580949486
30
0.0000000000
10
-1.8722564378
20
22.8446563686
30
0.0000000000
11
-1.4312012524
21
22.8699949533
31
0.0000000000
11
-1.4736615852
21
22.8880651632
31
0.0000000000
11
-1.5460019470
21
22.9061473503
31
0.0000000000
11
-1.6232781896
21
22.9108340682
31
0.0000000000
11
-1.7041103448
21
22.9020346337
31
0.0000000000
11
-1.7875530818
21
22.8798595439
31
0.0000000000
11
-1.8722564378
21
22.8446563686
31
0.0000000000
0
SPLINE
5
37F
100
AcDbEntity
8
0
100
AcDbSpline
62
9
6
CONTINUOUS
70
0
71
3
72
15
73
11
74
9
42
0.0000001000
43
0.0000001000
44
0.0000000001
12
0.2780829127
22
0.1167575739
32
0.0000000000
13
0.0086075025
23
0.3009495347
33
0.0000000000
40
0.0000000000
40
0.0000000000
40
0.0000000000
40
0.0000000000
40
0.0099549178
40
0.1319217730
40
0.2570172309
40
0.3880106334
40
0.5269549884
40
0.6750833079
40
0.8328366688
40
1.0000000000
40
1.0000000000
40
1.0000000000
40
1.0000000000
10
-1.0371828498
20
-25.0914274589
30
0.0000000000
10
-1.0362600856
20
-25.0910400216
30
0.0000000000
10
-1.0240762469
20
-25.0857997982
30
0.0000000000
10
-1.0015408783
20
-25.0728610057
30
0.0000000000
10
-0.9730331423
20
-25.0474424699
30
0.0000000000
10
-0.9488743552
20
-25.0157349626
30
0.0000000000
10
-0.9294234740
20
-24.9783567665
30
0.0000000000
10
-0.9149470157
20
-24.9359702350
30
0.0000000000
10
-0.9056394003
20
-24.8892980172
30
0.0000000000
10
-0.9030362547
20
-24.8567160487
30
0.0000000000
10
-0.9025566351
20
-24.8399468064
30
0.0000000000
11
-1.0371828498
21
-25.0914274589
31
0.0000000000
11
-1.0344247948
21
-25.0902411813
31
0.0000000000
11
-1.0025542397
21
-25.0720013724
31
0.0000000000
11
-0.9743486511
21
-25.0470427585
31
0.0000000000
11
-0.9502906302
21
-25.0157920170
31
0.0000000000
11
-0.9307910344
21
-24.9787824196
31
0.0000000000
11
-0.9161833312
21
-24.9366452486
31
0.0000000000
11
-0.9067179408
21
-24.8901027754
31
0.0000000000
11
-0.9025566351
21
-24.8399468064
31
0.0000000000
0
SPLINE
5
380
100
AcDbEntity
8
0
100
AcDbSpline
62
0
6
CONTINUOUS
70
0
71
3
72
14
73
10
74
8
42
0.0000001000
43
0.0000001000
44
0.0000000001
12
-0.0143361749
22
0.1348226850
32
0.0000000000
13
-0.1371207872
23
-0.0680129213
33
0.0000000000
40
0.0000000000
40
0.0000000000
40
0.0000000000
40
0.0000000000
40
0.0088887890
40
0.0574033857
40
0.1540063491
40
0.3018238188
40
0.4940560103
40
0.7280633603
40
1.0000000000
40
1.0000000000
40
1.0000000000
40
1.0000000000
10
6.4593939271
20
-18.8504358229
30
0.0000000000
10
6.4593514500
20
-18.8500363528
30
0.0000000000
10
6.4587229615
20
-18.8475669902
30
0.0000000000
10
6.4498306370
20
-18.8434295281
30
0.0000000000
10
6.4356282215
20
-18.8481706957
30
0.0000000000
10
6.4141492209
20
-18.8541297301
30
0.0000000000
10
6.3870745622
20
-18.8654479607
30
0.0000000000
10
6.3545426637
20
-18.8799219059
30
0.0000000000
10
6.3313150405
20
-18.8912052350
30
0.0000000000
10
6.3188856518
20
-18.8973703034
30
0.0000000000
11
6.4593939271
21
-18.8504358229
31
0.0000000000
11
6.4590924058
21
-18.8492938340
31
0.0000000000
11
6.4527573954
21
-18.8454196861
31
0.0000000000
11
6.4380842698
21
-18.8472448853
31
0.0000000000
11
6.4164641954
21
-18.8539135728
31
0.0000000000
11
6.3890940914
21
-18.8647122974
31
0.0000000000
11
6.3563842542
21
-18.8793055651
31
0.0000000000
11
6.3188856518
21
-18.8973703034
31
0.0000000000
0
SPLINE
5
381
100
AcDbEntity
8
0
100
AcDbSpline
62
0
6
CONTINUOUS
70
0
71
3
72
9
73
5
74
3
42
0.0000001000
43
0.0000001000
44
0.0000000001
12
-0.0518542419
22
-0.0166023986
32
0.0000000000
13
-0.0487246985
23
-0.0242982675
33
0.0000000000
40
0.0000000000
40
0.0000000000
40
0.0000000000
40
0.0000000000
40
0.4897603159
40
1.0000000000
40
1.0000000000
40
1.0000000000
40
1.0000000000
10
1.6079294089
20
20.6287663197
30
0.0000000000
10
1.5994640256
20
20.6260559211
30
0.0000000000
10
1.5824046026
20
20.6197987408
30
0.0000000000
10
1.5658744994
20
20.6122622666
30
0.0000000000
10
1.5575874078
20
20.6081296198
30
0.0000000000
11
1.6079294089
21
20.6287663197
31
0.0000000000
11
1.5828809342
21
20.6196200258
31
0.0000000000
11
1.5575874078
21
20.6081296198
31
0.0000000000
0
SPLINE
5
382
100
AcDbEntity
8
0
100
AcDbSpline
62
0
6
CONTINUOUS
70
0
71
3
72
9
73
5
74
3
42
0.0000001000
43
0.0000001000
44
0.0000000001
12
-0.0502803636
22
-0.0161753641
32
0.0000000000
13
-0.0473762501
23
-0.0233505524
33
0.0000000000
40
0.0000000000
40
0.0000000000
40
0.0000000000
40
0.0000000000
40
0.4902123986
40
1.0000000000
40
1.0000000000
40
1.0000000000
40
1.0000000000
10
-3.9488144636
20
23.4056971384
30
0.0000000000
10
-3.9570304828
20
23.4030540170
30
0.0000000000
10
-3.9735804888
20
23.3969917869
30
0.0000000000
10
-3.9896398868
20
23.3897365119
30
0.0000000000
10
-3.9976904951
20
23.3857685713
30
0.0000000000
11
-3.9488144636
21
23.4056971384
31
0.0000000000
11
-3.9731386220
21
23.3968237578
31
0.0000000000
11
-3.9976904951
21
23.3857685713
31
0.0000000000
0
SPLINE
5
383
100
AcDbEntity
8
0
100
AcDbSpline
62
9
6
CONTINUOUS
70
0
71
3
72
11
73
7
74
5
42
0.0000001000
43
0.0000001000
44
0.0000000001
12
-0.1030104797
22
0.0514472470
32
0.0000000000
13
-0.1029661750
23
-0.0507494167
33
0.0000000000
40
0.0000000000
40
0.0000000000
40
0.0000000000
40
0.0000000000
40
0.2108933070
40
0.4535967365
40
0.7151894577
40
1.0000000000
40
1.0000000000
40
1.0000000000
40
1.0000000000
10
-0.1725453147
20
17.4014076260
30
0.0000000000
10
-0.1797867216
20
17.4050242527
30
0.0000000000
10
-0.1963856287
20
17.4107675614
30
0.0000000000
10
-0.2240007362
20
17.4126551510
30
0.0000000000
10
-0.2539764770
20
17.4073843683
30
0.0000000000
10
-0.2735446873
20
17.3996363191
30
0.0000000000
10
-0.2833199714
20
17.3948183295
30
0.0000000000
11
-0.1725453147
21
17.4014076260
31
0.0000000000
11
-0.1954194701
21
17.4093820744
31
0.0000000000
11
-0.2231983305
21
17.4115168123
31
0.0000000000
11
-0.2528222137
21
17.4066000779
31
0.0000000000
11
-0.2833199714
21
17.3948183295
31
0.0000000000
0
SPLINE
5
384
100
AcDbEntity
8
0
100
AcDbSpline
62
9
6
CONTINUOUS
70
0
71
3
72
11
73
7
74
5
42
0.0000001000
43
0.0000001000
44
0.0000000001
12
-0.1030083465
22
0.0514339156
32
0.0000000000
13
-0.1029587907
23
-0.0507457772
33
0.0000000000
40
0.0000000000
40
0.0000000000
40
0.0000000000
40
0.0000000000
40
0.2101387732
40
0.4528529018
40
0.7144445734
40
1.0000000000
40
1.0000000000
40
1.0000000000
40
1.0000000000
10
1.1647737295
20
16.7327480558
30
0.0000000000
10
1.1575583803
20
16.7363508091
30
0.0000000000
10
1.1409912048
20
16.7420908690
30
0.0000000000
10
1.1134078956
20
16.7439972235
30
0.0000000000
10
1.0834022272
20
16.7387399222
30
0.0000000000
10
1.0638063363
20
16.7309854932
30
0.0000000000
10
1.0540061892
20
16.7261552492
30
0.0000000000
11
1.1647737295
21
16.7327480558
31
0.0000000000
11
1.1419855755
21
16.7407021668
31
0.0000000000
11
1.1142090888
21
16.7428576425
31
0.0000000000
11
1.0845844545
21
16.7379593569
31
0.0000000000
11
1.0540061892
21
16.7261552492
31
0.0000000000
0
SPLINE
5
385
100
AcDbEntity
8
0
100
AcDbSpline
62
9
6
CONTINUOUS
70
0
71
3
72
12
73
8
74
6
42
0.0000001000
43
0.0000001000
44
0.0000000001
12
0.0000163378
22
-0.1199034860
32
0.0000000000
13
-0.1064189665
23
-0.0538322337
33
0.0000000000
40
0.0000000000
40
0.0000000000
40
0.0000000000
40
0.0000000000
40
0.0880854918
40
0.2778925619
40
0.4888642308
40
0.7288398944
40
1.0000000000
40
1.0000000000
40
1.0000000000
40
1.0000000000
10
1.3029648214
20
16.1617819538
30
0.0000000000
10
1.3029653011
20
16.1582613680
30
0.0000000000
10
1.3020493488
20
16.1471552260
30
0.0000000000
10
1.2953289233
20
16.1285508973
30
0.0000000000
10
1.2799523621
20
16.1078941058
30
0.0000000000
10
1.2579765612
20
16.0891506370
30
0.0000000000
10
1.2403987522
20
16.0787750520
30
0.0000000000
10
1.2307798928
20
16.0739093339
30
0.0000000000
11
1.3029648214
21
16.1617819538
31
0.0000000000
11
1.3020928282
21
16.1512739011
31
0.0000000000
11
1.2946984311
21
16.1298793319
31
0.0000000000
11
1.2800132183
21
16.1094491464
31
0.0000000000
11
1.2584797868
21
16.0905975001
31
0.0000000000
11
1.2307798928
21
16.0739093339
31
0.0000000000
0
SPLINE
5
386
100
AcDbEntity
8
0
100
AcDbSpline
62
9
6
CONTINUOUS
70
0
71
3
72
12
73
8
74
6
42
0.0000001000
43
0.0000001000
44
0.0000000001
12
0.0000170319
22
-0.1199032704
32
0.0000000000
13
-0.1064189820
23
-0.0538322416
33
0.0000000000
40
0.0000000000
40
0.0000000000
40
0.0000000000
40
0.0000000000
40
0.0879493585
40
0.2777155935
40
0.4886520367
40
0.7285846261
40
1.0000000000
40
1.0000000000
40
1.0000000000
40
1.0000000000
10
1.3029648332
20
16.5091383407
30
0.0000000000
10
1.3029653325
20
16.5056232021
30
0.0000000000
10
1.3020514344
20
16.4945241773
30
0.0000000000
10
1.2953390176
20
16.4759260887
30
0.0000000000
10
1.2799701658
20
16.4552693601
30
0.0000000000
10
1.2579925357
20
16.4365170514
30
0.0000000000
10
1.2404078088
20
16.4261360097
30
0.0000000000
10
1.2307798928
20
16.4212657104
30
0.0000000000
11
1.3029648332
21
16.5091383407
31
0.0000000000
11
1.3020955472
21
16.4986464049
31
0.0000000000
11
1.2947083475
21
16.4772544981
31
0.0000000000
11
1.2800304547
21
16.4568242211
31
0.0000000000
11
1.2585045599
21
16.4379717592
31
0.0000000000
11
1.2307798928
21
16.4212657104
31
0.0000000000
0
SPLINE
5
387
100
AcDbEntity
8
0
100
AcDbSpline
62
0
6
CONTINUOUS
70
0
71
3
72
9
73
5
74
3
42
0.0000001000
43
0.0000001000
44
0.0000000001
12
0.0693756395
22
0.0339463200
32
0.0000000000
13
0.0595791810
23
0.0492628380
33
0.0000000000
40
0.0000000000
40
0.0000000000
40
0.0000000000
40
0.0000000000
40
0.6205159873
40
1.0000000000
40
1.0000000000
40
1.0000000000
40
1.0000000000
10
-3.9488144636
20
22.1783465413
30
0.0000000000
10
-3.9344648991
20
22.1853679527
30
0.0000000000
10
-3.9119367240
20
22.1980005581
30
0.0000000000
10
-3.8911176463
20
22.2132609373
30
0.0000000000
10
-3.8835811974
20
22.2194924238
30
0.0000000000
11
-3.9488144636
21
22.1783465413
31
0.0000000000
11
-3.9071647845
21
22.2020572182
31
0.0000000000
11
-3.8835811974
21
22.2194924238
31
0.0000000000
0
SPLINE
5
388
100
AcDbEntity
8
0
100
AcDbSpline
62
0
6
CONTINUOUS
70
0
71
3
72
12
73
8
74
6
42
0.0000001000
43
0.0000001000
44
0.0000000001
12
0.0982109201
22
0.0812053567
32
0.0000000000
13
-0.0001009044
23
0.1277827764
33
0.0000000000
40
0.0000000000
40
0.0000000000
40
0.0000000000
40
0.0000000000
40
0.1087243928
40
0.4110491813
40
0.6833519202
40
0.9357005562
40
1.0000000000
40
1.0000000000
40
1.0000000000
40
1.0000000000
10
-3.8835811974
20
22.2194924238
30
0.0000000000
10
-3.8800218899
20
22.2224354248
30
0.0000000000
10
-3.8668723815
20
22.2339332780
30
0.0000000000
10
-3.8472366165
20
22.2555373956
30
0.0000000000
10
-3.8298696473
20
22.2864615491
30
0.0000000000
10
-3.8239850934
20
22.3111321735
30
0.0000000000
10
-3.8234691140
20
22.3246168971
30
0.0000000000
10
-3.8234712767
20
22.3273556843
30
0.0000000000
11
-3.8835811974
21
22.2194924238
31
0.0000000000
11
-3.8731593050
21
22.2286226591
31
0.0000000000
11
-3.8476041054
21
22.2574058005
31
0.0000000000
11
-3.8310064948
21
22.2878429744
31
0.0000000000
11
-3.8237878487
21
22.3191495029
31
0.0000000000
11
-3.8234712767
21
22.3273556843
31
0.0000000000
0
SPLINE
5
389
100
AcDbEntity
8
0
100
AcDbSpline
62
9
6
CONTINUOUS
70
0
71
3
72
13
73
9
74
7
42
0.0000001000
43
0.0000001000
44
0.0000000001
12
0.1042574132
22
0.2242773967
32
0.0000000000
13
0.2153111876
23
0.1214755919
33
0.0000000000
40
0.0000000000
40
0.0000000000
40
0.0000000000
40
0.0000000000
40
0.0445430175
40
0.2486849799
40
0.4494408298
40
0.6434226657
40
0.8276878064
40
1.0000000000
40
1.0000000000
40
1.0000000000
40
1.0000000000
10
-1.3873267614
20
13.2930785121
30
0.0000000000
10
-1.3857787814
20
13.2964085094
30
0.0000000000
10
-1.3769268408
20
13.3149026657
30
0.0000000000
10
-1.3588495678
20
13.3473027464
30
0.0000000000
10
-1.3304008593
20
13.3877414826
30
0.0000000000
10
-1.2987747778
20
13.4236079291
30
0.0000000000
10
-1.2648525396
20
13.4539003541
30
0.0000000000
10
-1.2404084732
20
13.4704296179
30
0.0000000000
10
-1.2280415588
20
13.4774068598
30
0.0000000000
11
-1.3873267614
21
13.2930785121
31
0.0000000000
11
-1.3825708513
21
13.3030154675
31
0.0000000000
11
-1.3579639254
21
13.3470769194
31
0.0000000000
11
-1.3293522775
21
13.3876292951
31
0.0000000000
11
-1.2975484027
21
13.4235210146
31
0.0000000000
11
-1.2634554466
21
13.4537328482
31
0.0000000000
11
-1.2280415588
21
13.4774068598
31
0.0000000000
0
SPLINE
5
38A
100
AcDbEntity
8
0
100
AcDbSpline
62
0
6
CONTINUOUS
70
0
71
3
72
20
73
16
74
14
42
0.0000001000
43
0.0000001000
44
0.0000000001
12
-1.3024111658
22
0.6512055829
32
0.0000000000
13
-1.3024111658
23
-0.6512055829
33
0.0000000000
40
0.0000000000
40
0.0000000000
40
0.0000000000
40
0.0000000000
40
0.0678834314
40
0.1400779297
40
0.2159904514
40
0.2949087094
40
0.3760390083
40
0.4585186009
40
0.5414512991
40
0.6239308255
40
0.7050625766
40
0.7839873311
40
0.8599061851
40
0.9321078523
40
1.0000000000
40
1.0000000000
40
1.0000000000
40
1.0000000000
10
-3.5754833051
20
21.1089146062
30
0.0000000000
10
-3.6049540181
20
21.1236499627
30
0.0000000000
10
-3.6673023714
20
21.1510448198
30
0.0000000000
10
-3.7665743173
20
21.1850607310
30
0.0000000000
10
-3.8732964023
20
21.2128871387
30
0.0000000000
10
-3.9859269331
20
21.2341181274
30
0.0000000000
10
-4.1028481107
20
21.2484473690
30
0.0000000000
10
-4.2223709498
20
21.2556653737
30
0.0000000000
10
-4.3427653274
20
21.2556666883
30
0.0000000000
10
-4.4622889969
20
21.2484512989
30
0.0000000000
10
-4.5792142996
20
21.2341242587
30
0.0000000000
10
-4.6918521129
20
21.2128944079
30
0.0000000000
10
-4.7985841130
20
21.1850674836
30
0.0000000000
10
-4.8978667503
20
21.1510494369
30
0.0000000000
10
-4.9602223704
20
21.1236518548
30
0.0000000000
10
-4.9896968674
20
21.1089146062
30
0.0000000000
11
-3.5754833051
21
21.1089146062
31
0.0000000000
11
-3.6658610287
21
21.1489489662
31
0.0000000000
11
-3.7652341402
21
21.1832463711
31
0.0000000000
11
-3.8721528231
21
21.2113056347
31
0.0000000000
11
-3.9850565489
21
21.2327168991
31
0.0000000000
11
-4.1023063561
21
21.2471685399
31
0.0000000000
11
-4.2221873605
21
21.2544482598
31
0.0000000000
11
-4.3429489755
21
21.2544495857
31
0.0000000000
11
-4.4628300464
21
21.2471725506
31
0.0000000000
11
-4.5800822836
21
21.2327233404
31
0.0000000000
11
-4.6929957643
21
21.2113127425
31
0.0000000000
11
-4.7999238727
21
21.1832530692
31
0.0000000000
11
-4.8993073148
21
21.1489536000
31
0.0000000000
11
-4.9896968674
21
21.1089146062
31
0.0000000000
0
SPLINE
5
38B
100
AcDbEntity
8
0
100
AcDbSpline
62
9
6
CONTINUOUS
70
0
71
3
72
12
73
8
74
6
42
0.0000001000
43
0.0000001000
44
0.0000000001
12
0.2414877233
22
-0.0110946964
32
0.0000000000
13
0.2176246425
23
0.1050788335
33
0.0000000000
40
0.0000000000
40
0.0000000000
40
0.0000000000
40
0.0000000000
40
0.2097785180
40
0.4216219426
40
0.6266786276
40
0.8206750467
40
1.0000000000
40
1.0000000000
40
1.0000000000
40
1.0000000000
10
-1.1384029571
20
12.8911796416
30
0.0000000000
10
-1.1215166449
20
12.8904038319
30
0.0000000000
10
-1.0875125816
20
12.8902858911
30
0.0000000000
10
-1.0371350161
20
12.8944037591
30
0.0000000000
10
-0.9885707257
20
12.9027951565
30
0.0000000000
10
-0.9435779049
20
12.9151816011
30
0.0000000000
10
-0.9155651447
20
12.9263683988
30
0.0000000000
10
-0.9025566351
20
12.9326494844
30
0.0000000000
11
-1.1384029571
21
12.8911796416
31
0.0000000000
11
-1.0877065061
21
12.8910015114
31
0.0000000000
11
-1.0366854028
21
12.8952196661
31
0.0000000000
11
-0.9878711669
21
12.9037562851
31
0.0000000000
11
-0.9427143020
21
12.9163577068
31
0.0000000000
11
-0.9025566351
21
12.9326494844
31
0.0000000000
0
SPLINE
5
38C
100
AcDbEntity
8
0
100
AcDbSpline
62
9
6
CONTINUOUS
70
0
71
3
72
9
73
5
74
3
42
0.0000001000
43
0.0000001000
44
0.0000000001
12
0.0493511525
22
-0.0007350506
32
0.0000000000
13
0.0492436603
23
0.0033451449
33
0.0000000000
40
0.0000000000
40
0.0000000000
40
0.0000000000
40
0.0000000000
40
0.6518337499
40
1.0000000000
40
1.0000000000
40
1.0000000000
40
1.0000000000
10
-1.1198726557
20
-24.8819800891
30
0.0000000000
10
-1.1091497401
20
-24.8821397994
30
0.0000000000
10
-1.0926928264
20
-24.8819424873
30
0.0000000000
10
-1.0762618571
20
-24.8810678367
30
0.0000000000
10
-1.0705468636
20
-24.8806796146
30
0.0000000000
11
-1.1198726557
21
-24.8819800891
31
0.0000000000
11
-1.0877064200
21
-24.8815947776
31
0.0000000000
11
-1.0705468636
21
-24.8806796146
31
0.0000000000
0
SPLINE
5
38D
100
AcDbEntity
8
0
100
AcDbSpline
62
9
6
CONTINUOUS
70
0
71
3
72
11
73
7
74
5
42
0.0000001000
43
0.0000001000
44
0.0000000001
12
0.1734454466
22
0.0117822302
32
0.0000000000
13
0.1565015072
23
0.0755658743
33
0.0000000000
40
0.0000000000
40
0.0000000000
40
0.0000000000
40
0.0000000000
40
0.1957313796
40
0.4808747602
40
0.7506381558
40
1.0000000000
40
1.0000000000
40
1.0000000000
40
1.0000000000
10
-1.0705468636
20
-24.8806796146
30
0.0000000000
10
-1.0592306248
20
-24.8799108972
30
0.0000000000
10
-1.0314838335
20
-24.8772160705
30
0.0000000000
10
-0.9885706758
20
-24.8698011237
30
0.0000000000
10
-0.9435778798
20
-24.8574146810
30
0.0000000000
10
-0.9155651365
20
-24.8462278884
30
0.0000000000
10
-0.9025566351
20
-24.8399468064
30
0.0000000000
11
-1.0705468636
21
-24.8806796146
31
0.0000000000
11
-1.0366853298
21
-24.8773766168
31
0.0000000000
11
-0.9878711153
21
-24.8688399952
31
0.0000000000
11
-0.9427142764
21
-24.8562385759
31
0.0000000000
11
-0.9025566351
21
-24.8399468064
31
0.0000000000
0
SPLINE
5
38E
100
AcDbEntity
8
0
100
AcDbSpline
62
0
6
CONTINUOUS
70
0
71
3
72
13
73
9
74
7
42
0.0000001000
43
0.0000001000
44
0.0000000001
12
0.1815611921
22
0.0898911536
32
0.0000000000
13
-0.0001642098
23
0.2033186095
33
0.0000000000
40
0.0000000000
40
0.0000000000
40
0.0000000000
40
0.0000000000
40
0.2356480204
40
0.4477242760
40
0.6368784020
40
0.8073730356
40
0.9656626376
40
1.0000000000
40
1.0000000000
40
1.0000000000
40
1.0000000000
10
1.6079294089
20
19.4017163525
30
0.0000000000
10
1.6221909207
20
19.4087772433
30
0.0000000000
10
1.6485746649
20
19.4237470198
30
0.0000000000
10
1.6826811594
20
19.4502423252
30
0.0000000000
10
1.7085995215
20
19.4792128439
30
0.0000000000
10
1.7256056534
20
19.5102074724
30
0.0000000000
10
1.7310961656
20
19.5344810514
30
0.0000000000
10
1.7315203566
20
19.5475336861
30
0.0000000000
10
1.7315184771
20
19.5498608277
30
0.0000000000
11
1.6079294089
21
19.4017163525
31
0.0000000000
11
1.6492969504
21
19.4255480246
31
0.0000000000
11
1.6829873834
21
19.4522126716
31
0.0000000000
11
1.7082019401
21
19.4810706468
31
0.0000000000
11
1.7244402726
21
19.5115571446
31
0.0000000000
11
1.7312900543
21
19.5428858001
31
0.0000000000
11
1.7315184771
21
19.5498608277
31
0.0000000000
0
SPLINE
5
38F
100
AcDbEntity
8
0
100
AcDbSpline
62
9
6
CONTINUOUS
70
0
71
3
72
9
73
5
74
3
42
0.0000001000
43
0.0000001000
44
0.0000000001
12
0.0368203041
22
0.0745332786
32
0.0000000000
13
0.0491401357
23
0.0670552853
33
0.0000000000
40
0.0000000000
40
0.0000000000
40
0.0000000000
40
0.0000000000
40
0.6000580685
40
1.0000000000
40
1.0000000000
40
1.0000000000
40
1.0000000000
10
-16.4231497228
20
20.8239819730
30
0.0000000000
10
-16.4157849493
20
20.8388900714
30
0.0000000000
10
-16.4022507446
20
20.8631117634
30
0.0000000000
10
-16.3866847865
20
20.8860594719
30
0.0000000000
10
-16.3801337196
20
20.8949988787
30
0.0000000000
11
-16.4231497228
21
20.8239819730
31
0.0000000000
11
-16.3988107590
21
20.8675001920
31
0.0000000000
11
-16.3801337196
21
20.8949988787
31
0.0000000000
0
SPLINE
5
390
100
AcDbEntity
8
0
100
AcDbSpline
62
9
6
CONTINUOUS
70
0
71
3
72
11
73
7
74
5
42
0.0000001000
43
0.0000001000
44
0.0000000001
12
0.0901870395
22
0.1230667677
32
0.0000000000
13
0.1328224940
23
0.0749366108
33
0.0000000000
40
0.0000000000
40
0.0000000000
40
0.0000000000
40
0.0000000000
40
0.1075182906
40
0.4219717028
40
0.7206739709
40
1.0000000000
40
1.0000000000
40
1.0000000000
40
1.0000000000
10
-16.3801337196
20
20.8949988787
30
0.0000000000
10
-16.3769014675
20
20.8994095215
30
0.0000000000
10
-16.3639049400
20
20.9164920376
30
0.0000000000
10
-16.3396215978
20
20.9440312567
30
0.0000000000
10
-16.3056993367
20
20.9743237122
30
0.0000000000
10
-16.2812552490
20
20.9908529929
30
0.0000000000
10
-16.2688883224
20
20.9978302416
30
0.0000000000
11
-16.3801337196
21
20.8949988787
31
0.0000000000
11
-16.3701991109
21
20.9080525902
31
0.0000000000
11
-16.3383952238
21
20.9439443398
31
0.0000000000
11
-16.3043022436
21
20.9741562045
31
0.0000000000
11
-16.2688883224
21
20.9978302416
31
0.0000000000
0
SPLINE
5
391
100
AcDbEntity
8
0
100
AcDbSpline
62
0
6
CONTINUOUS
70
0
71
3
72
18
73
14
74
12
42
0.0000001000
43
0.0000001000
44
0.0000000001
12
0.5869601654
22
-0.3037687940
32
0.0000000000
13
0.0121903658
23
-0.6607943030
33
0.0000000000
40
0.0000000000
40
0.0000000000
40
0.0000000000
40
0.0000000000
40
0.0800911536
40
0.1656705909
40
0.2557094162
40
0.3487497091
40
0.4452873656
40
0.5437795334
40
0.6418426131
40
0.7373388472
40
0.8291839846
40
0.9169353089
40
1.0000000000
40
1.0000000000
40
1.0000000000
40
1.0000000000
10
0.7254307746
20
14.5442193888
30
0.0000000000
10
0.7411008802
20
14.5361096577
30
0.0000000000
10
0.7723268237
20
14.5169771469
30
0.0000000000
10
0.8165616621
20
14.4819181123
30
0.0000000000
10
0.8588546528
20
14.4403668079
30
0.0000000000
10
0.8985075163
20
14.3931137313
30
0.0000000000
10
0.9348335078
20
14.3409762268
30
0.0000000000
10
0.9670746413
20
14.2849416184
30
0.0000000000
10
0.9943466150
20
14.2265822662
30
0.0000000000
10
1.0160598375
20
14.1674935618
30
0.0000000000
10
1.0319644821
20
14.1089301262
30
0.0000000000
10
1.0419856348
20
14.0518575564
30
0.0000000000
10
1.0448016450
20
14.0142501013
30
0.0000000000
10
1.0451391747
20
13.9959538764
30
0.0000000000
11
0.7254307746
21
14.5442193888
31
0.0000000000
11
0.7706924913
21
14.5167738695
31
0.0000000000
11
0.8151410923
21
14.4817973276
31
0.0000000000
11
0.8576908607
21
14.4401964628
31
0.0000000000
11
0.8972941897
21
14.3931569682
31
0.0000000000
11
0.9338177925
21
14.3408428104
31
0.0000000000
11
0.9663014666
21
14.2844330804
31
0.0000000000
11
0.9937267186
21
14.2257111684
31
0.0000000000
11
1.0154485802
21
14.1664528279
31
0.0000000000
11
1.0312776012
21
14.1078519576
31
0.0000000000
11
1.0411877149
21
14.0507094962
31
0.0000000000
11
1.0451391747
21
13.9959538764
31
0.0000000000
0
SPLINE
5
392
100
AcDbEntity
8
0
100
AcDbSpline
62
9
6
CONTINUOUS
70
0
71
3
72
19
73
15
74
13
42
0.0000001000
43
0.0000001000
44
0.0000000001
12
-0.0194183290
22
0.6602037235
32
0.0000000000
13
-0.5877900374
23
0.3012455809
33
0.0000000000
40
0.0000000000
40
0.0000000000
40
0.0000000000
40
0.0000000000
40
0.0782031204
40
0.1602380621
40
0.2453842681
40
0.3327850298
40
0.4215061433
40
0.5105659740
40
0.5989682148
40
0.6857399593
40
0.7699702346
40
0.8508452746
40
0.9276838323
40
1.0000000000
40
1.0000000000
40
1.0000000000
40
1.0000000000
10
-0.9025566351
20
12.9326494844
30
0.0000000000
10
-0.9030628264
20
12.9498594815
30
0.0000000000
10
-0.9060026283
20
12.9850854320
30
0.0000000000
10
-0.9155555096
20
13.0383276982
30
0.0000000000
10
-0.9302030552
20
13.0924986911
30
0.0000000000
10
-0.9496980589
20
13.1466798907
30
0.0000000000
10
-0.9737104298
20
13.1999601284
30
0.0000000000
10
-1.0018348003
20
13.2514395237
30
0.0000000000
10
-1.0335957294
20
13.3002486265
30
0.0000000000
10
-1.0684572528
20
13.3455636236
30
0.0000000000
10
-1.1058320386
20
13.3866209788
30
0.0000000000
10
-1.1450969861
20
13.4227314652
30
0.0000000000
10
-1.1855898046
20
13.4532840059
30
0.0000000000
10
-1.2138726512
20
13.4701452178
30
0.0000000000
10
-1.2280415588
20
13.4774068598
30
0.0000000000
11
-0.9025566351
21
12.9326494844
31
0.0000000000
11
-0.9067179408
21
12.9841339054
31
0.0000000000
11
-0.9161833312
21
13.0374839297
31
0.0000000000
11
-0.9307910344
21
13.0917918001
31
0.0000000000
11
-0.9502906302
21
13.1461259749
31
0.0000000000
11
-0.9743486511
21
13.1995590575
31
0.0000000000
11
-1.0025542397
21
13.2511787928
31
0.0000000000
11
-1.0344247948
21
13.3001023180
31
0.0000000000
11
-1.0694149821
21
13.3454931712
31
0.0000000000
11
-1.1069273936
21
13.3865768763
31
0.0000000000
11
-1.1463220400
21
13.4226524590
31
0.0000000000
11
-1.1869237600
21
13.4531018992
31
0.0000000000
11
-1.2280415588
21
13.4774068598
31
0.0000000000
0
SPLINE
5
393
100
AcDbEntity
8
0
100
AcDbSpline
62
0
6
CONTINUOUS
70
0
71
3
72
14
73
10
74
8
42
0.0000001000
43
0.0000001000
44
0.0000000001
12
-0.0052092242
22
-0.2874031231
32
0.0000000000
13
-0.2584466977
23
-0.1273539546
33
0.0000000000
40
0.0000000000
40
0.0000000000
40
0.0000000000
40
0.0000000000
40
0.1835404691
40
0.3567784977
40
0.5196852288
40
0.6735837214
40
0.8201099346
40
0.9610997788
40
1.0000000000
40
1.0000000000
40
1.0000000000
40
1.0000000000
10
1.0451391747
20
-24.0223832182
30
0.0000000000
10
1.0448204735
20
-24.0399665862
30
0.0000000000
10
1.0423774475
20
-24.0741550413
30
0.0000000000
10
1.0326589622
20
-24.1231369062
30
0.0000000000
10
1.0169732863
20
-24.1675927120
30
0.0000000000
10
0.9953042578
20
-24.2066179850
30
0.0000000000
10
0.9677580010
20
-24.2391235422
30
0.0000000000
10
0.9425315472
20
-24.2580883414
30
0.0000000000
10
0.9272877399
20
-24.2662368655
30
0.0000000000
10
0.9239365287
20
-24.2678882312
30
0.0000000000
11
1.0451391747
21
-24.0223832182
31
0.0000000000
11
1.0411877149
21
-24.0749938025
31
0.0000000000
11
1.0312776012
21
-24.1237950683
31
0.0000000000
11
1.0154485802
21
-24.1678662106
31
0.0000000000
11
0.9937267186
21
-24.2064041998
31
0.0000000000
11
0.9663014666
21
-24.2383708448
31
0.0000000000
11
0.9338177925
21
-24.2626050234
31
0.0000000000
11
0.9239365287
21
-24.2678882312
31
0.0000000000
0
SPLINE
5
394
100
AcDbEntity
8
0
100
AcDbSpline
62
9
6
CONTINUOUS
70
0
71
3
72
13
73
9
74
7
42
0.0000001000
43
0.0000001000
44
0.0000000001
12
-0.1966819898
22
0.0959378006
32
0.0000000000
13
-0.1894504138
23
-0.1104097849
33
0.0000000000
40
0.0000000000
40
0.0000000000
40
0.0000000000
40
0.0000000000
40
0.2069376301
40
0.4000873589
40
0.5806593907
40
0.7510508911
40
0.9148672687
40
1.0000000000
40
1.0000000000
40
1.0000000000
40
1.0000000000
10
-16.2688883224
20
20.9978302416
30
0.0000000000
10
-16.2824552906
20
21.0044479553
30
0.0000000000
10
-16.3094932629
20
21.0156928808
30
0.0000000000
10
-16.3506580740
20
21.0263137620
30
0.0000000000
10
-16.3903902728
20
21.0298820329
30
0.0000000000
10
-16.4280072021
20
21.0262410737
30
0.0000000000
10
-16.4574240137
20
21.0170382936
30
0.0000000000
10
-16.4736667561
20
21.0087709628
30
0.0000000000
10
-16.4790428998
20
21.0056378006
30
0.0000000000
11
-16.2688883224
21
20.9978302416
31
0.0000000000
11
-16.3107796619
21
21.0150298502
31
0.0000000000
11
-16.3517622463
21
21.0253725622
31
0.0000000000
11
-16.3911384950
21
21.0286824270
31
0.0000000000
11
-16.4282336886
21
21.0249025245
31
0.0000000000
11
-16.4624149507
21
21.0140973959
31
0.0000000000
11
-16.4790428998
21
21.0056378006
31
0.0000000000
0
SPLINE
5
395
100
AcDbEntity
8
0
100
AcDbSpline
62
0
6
CONTINUOUS
70
0
71
3
72
14
73
10
74
8
42
0.0000001000
43
0.0000001000
44
0.0000000001
12
0.3059071454
22
0.1650439230
32
0.0000000000
13
0.0001988577
23
0.3478834403
33
0.0000000000
40
0.0000000000
40
0.0000000000
40
0.0000000000
40
0.0000000000
40
0.1305043793
40
0.2658109274
40
0.4106550843
40
0.5721545864
40
0.7551546246
40
0.9655967099
40
1.0000000000
40
1.0000000000
40
1.0000000000
40
1.0000000000
10
6.3188856518
20
18.4559948618
30
0.0000000000
10
6.3321930592
20
18.4631745133
30
0.0000000000
10
6.3578567399
20
18.4806647928
30
0.0000000000
10
6.3910391084
20
18.5151961708
30
0.0000000000
10
6.4187895069
20
18.5585510026
30
0.0000000000
10
6.4403992386
20
18.6112666349
30
0.0000000000
10
6.4548970052
20
18.6741683734
30
0.0000000000
10
6.4589232541
20
18.7237275632
30
0.0000000000
10
6.4592138128
20
18.7521205305
30
0.0000000000
10
6.4592160933
20
18.7561099755
30
0.0000000000
11
6.3188856518
21
18.4559948618
31
0.0000000000
11
6.3563842542
21
18.4815206372
31
0.0000000000
11
6.3890940914
21
18.5153141015
31
0.0000000000
11
6.4164641954
21
18.5575708490
31
0.0000000000
11
6.4380842698
21
18.6093760217
31
0.0000000000
11
6.4527573954
21
18.6712694607
31
0.0000000000
11
6.4590924058
21
18.7441421447
31
0.0000000000
11
6.4592160933
21
18.7561099755
31
0.0000000000
0
SPLINE
5
396
100
AcDbEntity
8
0
100
AcDbSpline
62
9
6
CONTINUOUS
70
0
71
3
72
12
73
8
74
6
42
0.0000001000
43
0.0000001000
44
0.0000000001
12
-0.1076883182
22
0.0538441591
32
0.0000000000
13
-0.0000315578
23
0.1210491130
33
0.0000000000
40
0.0000000000
40
0.0000000000
40
0.0000000000
40
0.0000000000
40
0.2693056108
40
0.5081068042
40
0.7180046111
40
0.9065740696
40
1.0000000000
40
1.0000000000
40
1.0000000000
40
1.0000000000
10
-2.5762747092
20
-25.9614420570
30
0.0000000000
10
-2.5859417320
20
-25.9566085457
30
0.0000000000
10
-2.6036343803
20
-25.9462880370
30
0.0000000000
10
-2.6258183979
20
-25.9276245814
30
0.0000000000
10
-2.6414369020
20
-25.9070253727
30
0.0000000000
10
-2.6484747081
20
-25.8882092843
30
0.0000000000
10
-2.6494841002
20
-25.8768302007
30
0.0000000000
10
-2.6494850830
20
-25.8730604920
30
0.0000000000
11
-2.5762747092
21
-25.9614420570
31
0.0000000000
11
-2.6041364723
21
-25.9448574373
31
0.0000000000
11
-2.6258995246
21
-25.9260686977
31
0.0000000000
11
-2.6408317485
21
-25.9056804949
31
0.0000000000
11
-2.6484832107
21
-25.8843050622
31
0.0000000000
11
-2.6494850830
21
-25.8730604920
31
0.0000000000
0
SPLINE
5
397
100
AcDbEntity
8
0
100
AcDbSpline
62
9
6
CONTINUOUS
70
0
71
3
72
14
73
10
74
8
42
0.0000001000
43
0.0000001000
44
0.0000000001
12
0.0000000000
22
0.2525393502
32
0.0000000000
13
0.1611079767
23
0.1944745311
33
0.0000000000
40
0.0000000000
40
0.0000000000
40
0.0000000000
40
0.0000000000
40
0.1319506529
40
0.2705192506
40
0.4141315362
40
0.5609363994
40
0.7089193506
40
0.8560272290
40
1.0000000000
40
1.0000000000
40
1.0000000000
40
1.0000000000
10
-1.2512900294
20
-26.2839604628
30
0.0000000000
10
-1.2512900294
20
-26.2728528854
30
0.0000000000
10
-1.2498647838
20
-26.2500648781
30
0.0000000000
10
-1.2439185192
20
-26.2156552394
30
0.0000000000
10
-1.2342385321
20
-26.1808050795
30
0.0000000000
10
-1.2210390065
20
-26.1462859692
30
0.0000000000
10
-1.2046100143
20
-26.1128534225
30
0.0000000000
10
-1.1853267811
20
-26.0812643201
30
0.0000000000
10
-1.1706334023
20
-26.0615993014
30
0.0000000000
10
-1.1629016817
20
-26.0522662890
30
0.0000000000
11
-1.2512900294
21
-26.2839604628
31
0.0000000000
11
-1.2493146167
21
-26.2506963347
31
0.0000000000
11
-1.2434325247
21
-26.2162002090
31
0.0000000000
11
-1.2337748515
21
-26.1812419585
31
0.0000000000
11
-1.2205575928
21
-26.1466040328
31
0.0000000000
11
-1.2040772577
21
-26.1130625818
31
0.0000000000
11
-1.1847014002
21
-26.0813649812
31
0.0000000000
11
-1.1629016817
21
-26.0522662890
31
0.0000000000
0
SPLINE
5
398
100
AcDbEntity
8
0
100
AcDbSpline
62
9
6
CONTINUOUS
70
0
71
3
72
16
73
12
74
10
42
0.0000001000
43
0.0000001000
44
0.0000000001
12
0.3244997977
22
-0.1622498989
32
0.0000000000
13
0.3252488264
23
0.1607431159
33
0.0000000000
40
0.0000000000
40
0.0000000000
40
0.0000000000
40
0.0000000000
40
0.0994120303
40
0.2072568011
40
0.3215286602
40
0.4398233547
40
0.5595118345
40
0.6778920309
40
0.7923205275
40
0.9003973600
40
1.0000000000
40
1.0000000000
40
1.0000000000
40
1.0000000000
10
-1.2512900294
20
-26.2839604628
30
0.0000000000
10
-1.2405369681
20
-26.2893369934
30
0.0000000000
10
-1.2172970637
20
-26.2989357448
30
0.0000000000
10
-1.1798425224
20
-26.3096211956
30
0.0000000000
10
-1.1392687905
20
-26.3169500622
30
0.0000000000
10
-1.0967796799
20
-26.3206999932
30
0.0000000000
10
-1.0536295794
20
-26.3207595765
30
0.0000000000
10
-1.0111009798
20
-26.3171271509
30
0.0000000000
10
-0.9704491202
20
-26.3099110246
30
0.0000000000
10
-0.9328914805
20
-26.2993337687
30
0.0000000000
10
-0.9095666170
20
-26.2898099996
30
0.0000000000
10
-0.8987680697
20
-26.2844731867
30
0.0000000000
11
-1.2512900294
21
-26.2839604628
31
0.0000000000
11
-1.2180348296
21
-26.2979214927
31
0.0000000000
11
-1.1804497591
21
-26.3087947651
31
0.0000000000
11
-1.1396679826
21
-26.3162523453
31
0.0000000000
11
-1.0969205005
21
-26.3200690217
31
0.0000000000
11
-1.0534973465
21
-26.3201296604
31
0.0000000000
11
-1.0107082279
21
-26.3164324772
31
0.0000000000
11
-0.9698478515
21
-26.3090898855
31
0.0000000000
11
-0.9321445483
21
-26.2983231843
31
0.0000000000
11
-0.8987680697
21
-26.2844731867
31
0.0000000000
0
SPLINE
5
399
100
AcDbEntity
8
0
100
AcDbSpline
62
9
6
CONTINUOUS
70
0
71
3
72
16
73
12
74
10
42
0.0000001000
43
0.0000001000
44
0.0000000001
12
0.3244998133
22
-0.1622499067
32
0.0000000000
13
0.3252488420
23
0.1607431237
33
0.0000000000
40
0.0000000000
40
0.0000000000
40
0.0000000000
40
0.0000000000
40
0.0994323383
40
0.2073014579
40
0.3215967344
40
0.4399139280
40
0.5596214320
40
0.6780188419
40
0.7924556374
40
0.9005366119
40
1.0000000000
40
1.0000000000
40
1.0000000000
40
1.0000000000
10
-1.2512900294
20
-26.6239343969
30
0.0000000000
10
-1.2405347710
20
-26.6293120261
30
0.0000000000
10
-1.2172896942
20
-26.6389125239
30
0.0000000000
10
-1.1798268494
20
-26.6495990090
30
0.0000000000
10
-1.1392443789
20
-26.6569274791
30
0.0000000000
10
-1.0967471942
20
-26.6606755775
30
0.0000000000
10
-1.0535899604
20
-26.6607320584
30
0.0000000000
10
-1.0110562759
20
-26.6570954402
30
0.0000000000
10
-0.9704016427
20
-26.6498743199
30
0.0000000000
10
-0.9328600952
20
-26.6392962265
30
0.0000000000
10
-0.9095515203
20
-26.6297764727
30
0.0000000000
10
-0.8987680697
20
-26.6244471208
30
0.0000000000
11
-1.2512900294
21
-26.6239343969
31
0.0000000000
11
-1.2180278624
21
-26.6378978692
31
0.0000000000
11
-1.1804339566
21
-26.6487723953
31
0.0000000000
11
-1.1396434704
21
-26.6562295873
31
0.0000000000
11
-1.0968876277
21
-26.6600444338
31
0.0000000000
11
-1.0534575653
21
-26.6601019149
31
0.0000000000
11
-1.0106625524
21
-26.6564003807
31
0.0000000000
11
-0.9698000135
21
-26.6490527897
31
0.0000000000
11
-0.9320967276
21
-26.6382805496
31
0.0000000000
11
-0.8987680697
21
-26.6244471208
31
0.0000000000
0
SPLINE
5
39A
100
AcDbEntity
8
0
100
AcDbSpline
62
9
6
CONTINUOUS
70
0
71
3
72
13
73
9
74
7
42
0.0000001000
43
0.0000001000
44
0.0000000001
12
0.0000000000
22
-0.1576180845
32
0.0000000000
13
0.1414342334
23
-0.0706502910
33
0.0000000000
40
0.0000000000
40
0.0000000000
40
0.0000000000
40
0.0000000000
40
0.2298914335
40
0.4413768014
40
0.6350160381
40
0.8139797593
40
0.9842026521
40
1.0000000000
40
1.0000000000
40
1.0000000000
40
1.0000000000
10
-1.2512900294
20
-26.6239343969
30
0.0000000000
10
-1.2512900294
20
-26.6360127461
30
0.0000000000
10
-1.2497149619
20
-26.6592525899
30
0.0000000000
10
-1.2420031036
20
-26.6918894043
30
0.0000000000
10
-1.2291620931
20
-26.7200215274
30
0.0000000000
10
-1.2114159823
20
-26.7427390473
30
0.0000000000
10
-1.1957777749
20
-26.7542785444
30
0.0000000000
10
-1.1870672030
20
-26.7587772210
30
0.0000000000
10
-1.1863224411
20
-26.7591492501
30
0.0000000000
11
-1.2512900294
21
-26.6239343969
31
0.0000000000
11
-1.2486224182
21
-26.6600711166
31
0.0000000000
11
-1.2406999914
21
-26.6924498949
31
0.0000000000
11
-1.2277619402
21
-26.7200929963
31
0.0000000000
11
-1.2101988654
21
-26.7421661722
31
0.0000000000
11
-1.1885413153
21
-26.7580031699
31
0.0000000000
11
-1.1863224411
21
-26.7591492501
31
0.0000000000
0
SPLINE
5
39B
100
AcDbEntity
8
0
100
AcDbSpline
62
9
6
CONTINUOUS
70
0
71
3
72
13
73
9
74
7
42
0.0000001000
43
0.0000001000
44
0.0000000001
12
0.0000000000
22
-0.1576249946
32
0.0000000000
13
0.1414459411
23
-0.0706424616
33
0.0000000000
40
0.0000000000
40
0.0000000000
40
0.0000000000
40
0.0000000000
40
0.2298075353
40
0.4412202786
40
0.6347996717
40
0.8137106878
40
0.9838813490
40
1.0000000000
40
1.0000000000
40
1.0000000000
40
1.0000000000
10
-2.5762747092
20
-25.9614420570
30
0.0000000000
10
-2.5762747092
20
-25.9735165275
30
0.0000000000
10
-2.5747006301
20
-25.9967491096
30
0.0000000000
10
-2.5669938785
20
-26.0293767472
30
0.0000000000
10
-2.5541614181
20
-26.0575032308
30
0.0000000000
10
-2.5364268375
20
-26.0802198497
30
0.0000000000
10
-2.5207837804
20
-26.0917732502
30
0.0000000000
10
-2.5120610779
20
-26.0962803378
30
0.0000000000
10
-2.5113011053
20
-26.0966598916
30
0.0000000000
11
-2.5762747092
21
-25.9614420570
31
0.0000000000
11
-2.5736088807
21
-25.9975672408
31
0.0000000000
11
-2.5656917976
21
-26.0299370458
31
0.0000000000
11
-2.5527622424
21
-26.0575751855
31
0.0000000000
11
-2.5352101757
21
-26.0796480825
31
0.0000000000
11
-2.5135649750
21
-26.0954900091
31
0.0000000000
11
-2.5113011053
21
-26.0966598916
31
0.0000000000
0
SPLINE
5
39C
100
AcDbEntity
8
0
100
AcDbSpline
62
9
6
CONTINUOUS
70
0
71
3
72
17
73
13
74
11
42
0.0000001000
43
0.0000001000
44
0.0000000001
12
0.1277377480
22
0.3379491278
32
0.0000000000
13
-0.3233084791
23
0.1612394883
33
0.0000000000
40
0.0000000000
40
0.0000000000
40
0.0000000000
40
0.0000000000
40
0.1079665248
40
0.2163330014
40
0.3239872346
40
0.4299647735
40
0.5334072708
40
0.6336591436
40
0.7303266763
40
0.8233421704
40
0.9130060587
40
1.0000000000
40
1.0000000000
40
1.0000000000
40
1.0000000000
10
1.2307798928
20
-25.2260450860
30
0.0000000000
10
1.2353770264
20
-25.2138826884
30
0.0000000000
10
1.2430725180
20
-25.1889106852
30
0.0000000000
10
1.2499395341
20
-25.1504084309
30
0.0000000000
10
1.2520241016
20
-25.1115858642
30
0.0000000000
10
1.2492672537
20
-25.0733964485
30
0.0000000000
10
1.2417285063
20
-25.0367583806
30
0.0000000000
10
1.2295767143
20
-25.0025572267
30
0.0000000000
10
1.2130876772
20
-24.9716235466
30
0.0000000000
10
1.1926317033
20
-24.9447168654
30
0.0000000000
10
1.1686947951
20
-24.9225241032
30
0.0000000000
10
1.1505556262
20
-24.9111156104
30
0.0000000000
10
1.1411803333
20
-24.9064399909
30
0.0000000000
11
1.2307798928
21
-25.2260450860
31
0.0000000000
11
1.2422836025
21
-25.1887733455
31
0.0000000000
11
1.2491543428
21
-25.1502298062
31
0.0000000000
11
1.2512120720
21
-25.1113904637
31
0.0000000000
11
1.2484059180
21
-25.0732053842
31
0.0000000000
11
1.2408044015
21
-25.0366144469
31
0.0000000000
11
1.2285939411
21
-25.0025152737
31
0.0000000000
11
1.2120741960
21
-24.9717448671
31
0.0000000000
11
1.1916505303
21
-24.9450582756
31
0.0000000000
11
1.1678244446
21
-24.9231105984
31
0.0000000000
11
1.1411803333
21
-24.9064399909
31
0.0000000000
0
SPLINE
5
39D
100
AcDbEntity
8
0
100
AcDbSpline
62
9
6
CONTINUOUS
70
0
71
3
72
17
73
13
74
11
42
0.0000001000
43
0.0000001000
44
0.0000000001
12
-0.1868918885
22
0.3018127970
32
0.0000000000
13
-0.3165617962
23
0.1606492193
33
0.0000000000
40
0.0000000000
40
0.0000000000
40
0.0000000000
40
0.0000000000
40
0.0801625557
40
0.1705174121
40
0.2692324543
40
0.3741793727
40
0.4830270029
40
0.5933228732
40
0.7025703915
40
0.8083048570
40
0.9081703016
40
1.0000000000
40
1.0000000000
40
1.0000000000
40
1.0000000000
10
-0.8987680697
20
-26.2844731867
30
0.0000000000
10
-0.9037619802
20
-26.2764084916
30
0.0000000000
10
-0.9152411545
20
-26.2597810140
30
0.0000000000
10
-0.9351536714
20
-26.2348889885
30
0.0000000000
10
-0.9584322492
20
-26.2090094555
30
0.0000000000
10
-0.9845161089
20
-26.1827773886
30
0.0000000000
10
-1.0127754152
20
-26.1568334470
30
0.0000000000
10
-1.0425223499
20
-26.1318122536
30
0.0000000000
10
-1.0730310529
20
-26.1083245860
30
0.0000000000
10
-1.1035567717
20
-26.0869412297
30
0.0000000000
10
-1.1333518822
20
-26.0681808168
30
0.0000000000
10
-1.1532117570
20
-26.0571837454
30
0.0000000000
10
-1.1629016817
20
-26.0522662890
30
0.0000000000
11
-0.8987680697
21
-26.2844731867
31
0.0000000000
11
-0.9148052687
21
-26.2609654372
31
0.0000000000
11
-0.9347604886
21
-26.2358534331
31
0.0000000000
11
-0.9581441803
21
-26.2097532319
31
0.0000000000
11
-0.9843826857
21
-26.1833051340
31
0.0000000000
11
-1.0128323117
21
-26.1571579744
31
0.0000000000
11
-1.0427951207
21
-26.1319532057
31
0.0000000000
11
-1.0735360533
21
-26.1083091610
31
0.0000000000
11
-1.1043009611
21
-26.0868058854
31
0.0000000000
11
-1.1343351070
21
-26.0679709057
31
0.0000000000
11
-1.1629016817
21
-26.0522662890
31
0.0000000000
0
SPLINE
5
39E
100
AcDbEntity
8
0
100
AcDbSpline
62
0
6
CONTINUOUS
70
0
71
3
72
18
73
14
74
12
42
0.0000001000
43
0.0000001000
44
0.0000000001
12
-0.3676899257
22
0.0766266790
32
0.0000000000
13
-0.3359375292
23
0.1679687646
33
0.0000000000
40
0.0000000000
40
0.0000000000
40
0.0000000000
40
0.0000000000
40
0.0673245931
40
0.1433581532
40
0.2271915054
40
0.3177035839
40
0.4135654075
40
0.5132355259
40
0.6149524434
40
0.7167266008
40
0.8163395312
40
0.9113680775
40
1.0000000000
40
1.0000000000
40
1.0000000000
40
1.0000000000
10
-0.1894854468
20
-25.4352969285
30
0.0000000000
10
-0.1977369717
20
-25.4335773085
30
0.0000000000
10
-0.2152376885
20
-25.4295786560
30
0.0000000000
10
-0.2427776419
20
-25.4224548116
30
0.0000000000
10
-0.2729298900
20
-25.4138744098
30
0.0000000000
10
-0.3052648130
20
-25.4039240455
30
0.0000000000
10
-0.3392816276
20
-25.3927217435
30
0.0000000000
10
-0.3744063471
20
-25.3804198665
30
0.0000000000
10
-0.4099890096
20
-25.3672061134
30
0.0000000000
10
-0.4453042878
20
-25.3533117654
30
0.0000000000
10
-0.4795447798
20
-25.3389956634
30
0.0000000000
10
-0.5119495601
20
-25.3245729077
30
0.0000000000
10
-0.5326496426
20
-25.3145529338
30
0.0000000000
10
-0.5425745723
20
-25.3095904689
30
0.0000000000
11
-0.1894854468
21
-25.4352969285
31
0.0000000000
11
-0.2141474045
21
-25.4297120703
31
0.0000000000
11
-0.2418034929
21
-25.4225940237
31
0.0000000000
11
-0.2720949861
21
-25.4140002817
31
0.0000000000
11
-0.3045918541
21
-25.4040182813
31
0.0000000000
11
-0.3387932292
21
-25.3927664156
31
0.0000000000
11
-0.3741253207
21
-25.3803960138
31
0.0000000000
11
-0.4099385648
21
-25.3670940238
31
0.0000000000
11
-0.4455048208
21
-25.3530863131
31
0.0000000000
11
-0.4800171911
21
-25.3386408248
31
0.0000000000
11
-0.5125984168
21
-25.3240681305
31
0.0000000000
11
-0.5425745723
21
-25.3095904689
31
0.0000000000
0
SPLINE
5
39F
100
AcDbEntity
8
0
100
AcDbSpline
62
0
6
CONTINUOUS
70
0
71
3
72
13
73
9
74
7
42
0.0000001000
43
0.0000001000
44
0.0000000001
12
-0.2206694136
22
0.1103347068
32
0.0000000000
13
-0.0000090274
23
0.2474874123
33
0.0000000000
40
0.0000000000
40
0.0000000000
40
0.0000000000
40
0.0000000000
40
0.2181056656
40
0.4173085111
40
0.5980290005
40
0.7641011752
40
0.9198313393
40
1.0000000000
40
1.0000000000
40
1.0000000000
40
1.0000000000
10
-10.2909348296
20
19.2999067553
30
0.0000000000
10
-10.3069779127
20
19.3079282969
30
0.0000000000
10
-10.3368415986
20
19.3250660274
30
0.0000000000
10
-10.3757372646
20
19.3554812439
30
0.0000000000
10
-10.4060083488
20
19.3890103858
30
0.0000000000
10
-10.4268861275
20
19.4250952364
30
0.0000000000
10
-10.4360240164
20
19.4572578741
30
0.0000000000
10
-10.4373730552
20
19.4767180499
30
0.0000000000
10
-10.4373732964
20
19.4833316280
30
0.0000000000
11
-10.2909348296
21
19.2999067553
31
0.0000000000
11
-10.3374507778
21
19.3269585086
31
0.0000000000
11
-10.3759368971
21
19.3575231630
31
0.0000000000
11
-10.4055117903
21
19.3908891979
31
0.0000000000
11
-10.4257034146
21
19.4265410716
31
0.0000000000
11
-10.4359925887
21
19.4635588303
31
0.0000000000
11
-10.4373732964
21
19.4833316280
31
0.0000000000
0
SPLINE
5
3A0
100
AcDbEntity
8
0
100
AcDbSpline
62
0
6
CONTINUOUS
70
0
71
3
72
17
73
13
74
11
42
0.0000001000
43
0.0000001000
44
0.0000000001
12
-0.4345868483
22
-0.0321613807
32
0.0000000000
13
-0.4202201649
23
-0.1153910576
33
0.0000000000
40
0.0000000000
40
0.0000000000
40
0.0000000000
40
0.0000000000
40
0.1190594671
40
0.2358227810
40
0.3491116527
40
0.4582120724
40
0.5626289027
40
0.6619448783
40
0.7557608845
40
0.8436671436
40
0.9252339727
40
1.0000000000
40
1.0000000000
40
1.0000000000
40
1.0000000000
10
-4.3568053501
20
17.7272260807
30
0.0000000000
10
-4.3740525763
20
17.7259497084
30
0.0000000000
10
-4.4081053170
20
17.7218855817
30
0.0000000000
10
-4.4580283338
20
17.7128894306
30
0.0000000000
10
-4.5061236943
20
17.7021713743
30
0.0000000000
10
-4.5521474757
20
17.6905209416
30
0.0000000000
10
-4.5959710616
20
17.6784951064
30
0.0000000000
10
-4.6374989125
20
17.6665121047
30
0.0000000000
10
-4.6766376389
20
17.6549060577
30
0.0000000000
10
-4.7132826200
20
17.6439597095
30
0.0000000000
10
-4.7473116770
20
17.6339246073
30
0.0000000000
10
-4.7691549991
20
17.6277122933
30
0.0000000000
10
-4.7796277299
20
17.6248365163
30
0.0000000000
11
-4.3568053501
21
17.7272260807
31
0.0000000000
11
-4.4083527540
21
17.7213329843
31
0.0000000000
11
-4.4584546702
21
17.7124541701
31
0.0000000000
11
-4.5066610238
21
17.7018054565
31
0.0000000000
11
-4.5527656462
21
17.6901983122
31
0.0000000000
11
-4.5966578147
21
17.6782010496
31
0.0000000000
11
-4.6382511133
21
17.6662382768
31
0.0000000000
11
-4.6774566272
21
17.6546485208
31
0.0000000000
11
-4.7141715757
21
17.6437184054
31
0.0000000000
11
-4.7482760791
21
17.6337026114
31
0.0000000000
11
-4.7796277299
21
17.6248365163
31
0.0000000000
0
SPLINE
5
3A1
100
AcDbEntity
8
0
100
AcDbSpline
62
0
6
CONTINUOUS
70
0
71
3
72
18
73
14
74
12
42
0.0000001000
43
0.0000001000
44
0.0000000001
12
-0.6362934147
22
-0.3550712700
32
0.0000000000
13
-0.6517330228
23
0.3258665114
33
0.0000000000
40
0.0000000000
40
0.0000000000
40
0.0000000000
40
0.0000000000
40
0.0824711995
40
0.1703927471
40
0.2624911810
40
0.3579786781
40
0.4549885733
40
0.5527374323
40
0.6491673466
40
0.7435257574
40
0.8339975930
40
0.9198803357
40
1.0000000000
40
1.0000000000
40
1.0000000000
40
1.0000000000
10
-4.0745838106
20
16.5657889687
30
0.0000000000
10
-4.0920757710
20
16.5560279175
30
0.0000000000
10
-4.1294202990
20
16.5379750933
30
0.0000000000
10
-4.1893479872
20
16.5159710214
30
0.0000000000
10
-4.2540265866
20
16.4984950903
30
0.0000000000
10
-4.3220707579
20
16.4859231806
30
0.0000000000
10
-4.3922415133
20
16.4784795292
30
0.0000000000
10
-4.4630015362
20
16.4763254258
30
0.0000000000
10
-4.5330802172
20
16.4794961228
30
0.0000000000
10
-4.6009475206
20
16.4879172263
30
0.0000000000
10
-4.6653818488
20
16.5014365241
30
0.0000000000
10
-4.7250132751
20
16.5197604340
30
0.0000000000
10
-4.7622221862
20
16.5355504336
30
0.0000000000
10
-4.7796277299
20
16.5442532055
30
0.0000000000
11
-4.0745838106
21
16.5657889687
31
0.0000000000
11
-4.1285904494
21
16.5394355221
31
0.0000000000
11
-4.1886717030
21
16.5171969839
31
0.0000000000
11
-4.2534267037
21
16.4995808213
31
0.0000000000
11
-4.3218333428
21
16.4868680617
31
0.0000000000
11
-4.3921228357
21
16.4793802582
31
0.0000000000
11
-4.4633157317
21
16.4772204018
31
0.0000000000
11
-4.5335064022
21
16.4804425654
31
0.0000000000
11
-4.6017273329
21
16.4889969692
31
0.0000000000
11
-4.6662182756
21
16.5026638522
31
0.0000000000
11
-4.7259818652
21
16.5212240523
31
0.0000000000
11
-4.7796277299
21
16.5442532055
31
0.0000000000
0
SPLINE
5
3A2
100
AcDbEntity
8
0
100
AcDbSpline
62
0
6
CONTINUOUS
70
0
71
3
72
15
73
11
74
9
42
0.0000001000
43
0.0000001000
44
0.0000000001
12
0.2920381734
22
0.0216121378
32
0.0000000000
13
0.2617849119
23
0.1312327670
33
0.0000000000
40
0.0000000000
40
0.0000000000
40
0.0000000000
40
0.0000000000
40
0.1351029999
40
0.2684611536
40
0.3994593397
40
0.5275107857
40
0.6520655059
40
0.7726194422
40
0.8887245170
40
1.0000000000
40
1.0000000000
40
1.0000000000
40
1.0000000000
10
-4.3568053501
20
17.7272260807
30
0.0000000000
10
-4.3436536056
20
17.7281993689
30
0.0000000000
10
-4.3175559327
20
17.7306647168
30
0.0000000000
10
-4.2789121362
20
17.7359474594
30
0.0000000000
10
-4.2412070073
20
17.7427631450
30
0.0000000000
10
-4.2046817167
20
17.7510681742
30
0.0000000000
10
-4.1695687875
20
17.7608095118
30
0.0000000000
10
-4.1360911037
20
17.7719253986
30
0.0000000000
10
-4.1044629295
20
17.7843445127
30
0.0000000000
10
-4.0842938914
20
17.7936482779
30
0.0000000000
10
-4.0745838106
20
17.7985159411
30
0.0000000000
11
-4.3568053501
21
17.7272260807
31
0.0000000000
11
-4.3174183940
21
17.7309555222
31
0.0000000000
11
-4.2787278064
21
17.7362574645
31
0.0000000000
11
-4.2409815339
21
17.7430979246
31
0.0000000000
11
-4.2044214671
21
17.7514330609
31
0.0000000000
11
-4.1692818936
21
17.7612094542
31
0.0000000000
11
-4.1357879916
21
17.7723644515
31
0.0000000000
11
-4.1041543935
21
17.7848265672
31
0.0000000000
11
-4.0745838106
21
17.7985159411
31
0.0000000000
0
SPLINE
5
3A3
100
AcDbEntity
8
0
100
AcDbSpline
62
0
6
CONTINUOUS
70
0
71
3
72
12
73
8
74
6
42
0.0000001000
43
0.0000001000
44
0.0000000001
12
-0.1102678630
22
0.0551339315
32
0.0000000000
13
0.0000431003
23
0.1238634223
33
0.0000000000
40
0.0000000000
40
0.0000000000
40
0.0000000000
40
0.0000000000
40
0.2639844433
40
0.5000320475
40
0.7098796605
40
0.9030370166
40
1.0000000000
40
1.0000000000
40
1.0000000000
40
1.0000000000
10
-15.2398588861
20
21.3957041299
30
0.0000000000
10
-15.2495618862
20
21.4005556300
30
0.0000000000
10
-15.2673532850
20
21.4110421916
30
0.0000000000
10
-15.2895565162
20
21.4302625906
30
0.0000000000
10
-15.3051466664
20
21.4517568160
30
0.0000000000
10
-15.3120784681
20
21.4714627365
30
0.0000000000
10
-15.3130720758
20
21.4834408378
30
0.0000000000
10
-15.3130706828
20
21.4874442268
30
0.0000000000
11
-15.2398588861
21
21.3957041299
31
0.0000000000
11
-15.2677475893
21
21.4124787422
31
0.0000000000
11
-15.2895160530
21
21.4317915674
31
0.0000000000
11
-15.3044030982
21
21.4529497441
31
0.0000000000
11
-15.3120696010
21
21.4754949562
31
0.0000000000
11
-15.3130706828
21
21.4874442268
31
0.0000000000
0
SPLINE
5
3A4
100
AcDbEntity
8
0
100
AcDbSpline
62
9
6
CONTINUOUS
70
0
71
3
72
12
73
8
74
6
42
0.0000001000
43
0.0000001000
44
0.0000000001
12
-0.1076943729
22
0.0538471865
32
0.0000000000
13
-0.0000171956
23
0.1210555811
33
0.0000000000
40
0.0000000000
40
0.0000000000
40
0.0000000000
40
0.0000000000
40
0.2698679985
40
0.5085458692
40
0.7183426644
40
0.9068161760
40
1.0000000000
40
1.0000000000
40
1.0000000000
40
1.0000000000
10
-15.9405928736
20
22.7002690328
30
0.0000000000
10
-15.9502806286
20
22.7051129103
30
0.0000000000
10
-15.9679887046
20
22.7154455246
30
0.0000000000
10
-15.9901764819
20
22.7341283703
30
0.0000000000
10
-16.0057774908
20
22.7547266626
30
0.0000000000
10
-16.0127983863
20
22.7735311382
30
0.0000000000
10
-16.0138027275
20
22.7848972416
30
0.0000000000
10
-16.0138032616
20
22.7886573823
30
0.0000000000
11
-15.9405928736
21
22.7002690328
31
0.0000000000
11
-15.9685114541
21
22.7168941515
31
0.0000000000
11
-15.9902563417
21
22.7356836785
31
0.0000000000
11
-16.0051717019
21
22.7560709138
31
0.0000000000
11
-16.0128076813
21
22.7774409702
31
0.0000000000
11
-16.0138032616
21
22.7886573823
31
0.0000000000
0
SPLINE
5
3A5
100
AcDbEntity
8
0
100
AcDbSpline
62
9
6
CONTINUOUS
70
0
71
3
72
12
73
8
74
6
42
0.0000001000
43
0.0000001000
44
0.0000000001
12
-0.1076943729
22
0.0538471865
32
0.0000000000
13
-0.0000171956
23
0.1210555811
33
0.0000000000
40
0.0000000000
40
0.0000000000
40
0.0000000000
40
0.0000000000
40
0.2698679985
40
0.5085458692
40
0.7183426644
40
0.9068161760
40
1.0000000000
40
1.0000000000
40
1.0000000000
40
1.0000000000
10
-15.9405928736
20
22.3602950987
30
0.0000000000
10
-15.9502806286
20
22.3651389762
30
0.0000000000
10
-15.9679887046
20
22.3754715904
30
0.0000000000
10
-15.9901764819
20
22.3941544361
30
0.0000000000
10
-16.0057774908
20
22.4147527284
30
0.0000000000
10
-16.0127983863
20
22.4335572041
30
0.0000000000
10
-16.0138027275
20
22.4449233075
30
0.0000000000
10
-16.0138032616
20
22.4486834482
30
0.0000000000
11
-15.9405928736
21
22.3602950987
31
0.0000000000
11
-15.9685114541
21
22.3769202174
31
0.0000000000
11
-15.9902563417
21
22.3957097443
31
0.0000000000
11
-16.0051717019
21
22.4160969796
31
0.0000000000
11
-16.0128076813
21
22.4374670361
31
0.0000000000
11
-16.0138032616
21
22.4486834482
31
0.0000000000
0
SPLINE
5
3A6
100
AcDbEntity
8
0
100
AcDbSpline
62
0
6
CONTINUOUS
70
0
71
3
72
16
73
12
74
10
42
0.0000001000
43
0.0000001000
44
0.0000000001
12
-0.3181001630
22
-0.1775096618
32
0.0000000000
13
-0.3258188377
23
0.1629094188
33
0.0000000000
40
0.0000000000
40
0.0000000000
40
0.0000000000
40
0.0000000000
40
0.1015317281
40
0.2109604255
40
0.3257087647
40
0.4443865650
40
0.5632983290
40
0.6811168266
40
0.7942087475
40
0.9013085838
40
1.0000000000
40
1.0000000000
40
1.0000000000
40
1.0000000000
10
-0.1898280665
20
14.0577226605
30
0.0000000000
10
-0.2005938196
20
14.0517150396
30
0.0000000000
10
-0.2238780110
20
14.0408380807
30
0.0000000000
10
-0.2614819502
20
14.0283578435
30
0.0000000000
10
-0.3021996089
20
14.0193588469
30
0.0000000000
10
-0.3447241969
20
14.0141328771
30
0.0000000000
10
-0.3879199928
20
14.0128151198
30
0.0000000000
10
-0.4303787113
20
14.0154453057
30
0.0000000000
10
-0.4709750855
20
14.0219530764
30
0.0000000000
10
-0.5084141842
20
14.0321230418
30
0.0000000000
10
-0.5316363192
20
14.0415928464
30
0.0000000000
10
-0.5423548267
20
14.0469521002
30
0.0000000000
11
-0.1898280665
21
14.0577226605
31
0.0000000000
11
-0.2232546571
21
14.0418923232
31
0.0000000000
11
-0.2610444830
21
14.0292064037
31
0.0000000000
11
-0.3018419241
21
14.0201058847
31
0.0000000000
11
-0.3447461083
21
14.0147958150
31
0.0000000000
11
-0.3880429334
21
14.0134816224
31
0.0000000000
11
-0.4308761418
21
14.0161862659
31
0.0000000000
11
-0.4715381025
21
14.0228025921
31
0.0000000000
11
-0.5091470153
21
14.0331784552
31
0.0000000000
11
-0.5423548267
21
14.0469521002
31
0.0000000000
0
SPLINE
5
3A7
100
AcDbEntity
8
0
100
AcDbSpline
62
0
6
CONTINUOUS
70
0
71
3
72
17
73
13
74
11
42
0.0000001000
43
0.0000001000
44
0.0000000001
12
-0.2294513963
22
-0.2746147531
32
0.0000000000
13
-0.3508093918
23
0.0730982191
33
0.0000000000
40
0.0000000000
40
0.0000000000
40
0.0000000000
40
0.0000000000
40
0.1024078346
40
0.2073608763
40
0.3139613845
40
0.4212415645
40
0.5281961079
40
0.6338184200
40
0.7371485950
40
0.8373446592
40
0.9337922181
40
1.0000000000
40
1.0000000000
40
1.0000000000
40
1.0000000000
10
-0.1894854468
20
14.8670320829
30
0.0000000000
10
-0.1973179870
20
14.8576578489
30
0.0000000000
10
-0.2140520844
20
14.8393902279
30
0.0000000000
10
-0.2417106045
20
14.8140722752
30
0.0000000000
10
-0.2719504316
20
14.7909239105
30
0.0000000000
10
-0.3043478640
20
14.7704508015
30
0.0000000000
10
-0.3384197458
20
14.7531479674
30
0.0000000000
10
-0.3736176748
20
14.7395004819
30
0.0000000000
10
-0.4093282294
20
14.7299760966
30
0.0000000000
10
-0.4448660688
20
14.7250221885
30
0.0000000000
10
-0.4763426877
20
14.7250452009
30
0.0000000000
10
-0.4956087531
20
14.7277715098
30
0.0000000000
10
-0.5033508570
20
14.7293847335
30
0.0000000000
11
-0.1894854468
21
14.8670320829
31
0.0000000000
11
-0.2142206871
21
14.8399915127
31
0.0000000000
11
-0.2419169201
21
14.8146236016
31
0.0000000000
11
-0.2722118346
21
14.7914403484
31
0.0000000000
11
-0.3046785687
21
14.7709520020
31
0.0000000000
11
-0.3388251457
21
14.7536621627
31
0.0000000000
11
-0.3740916408
21
14.7400631016
31
0.0000000000
11
-0.4098453958
21
14.7306294111
31
0.0000000000
11
-0.4453755427
21
14.7258078671
31
0.0000000000
11
-0.4798893767
21
14.7260014050
31
0.0000000000
11
-0.5033508570
21
14.7293847335
31
0.0000000000
0
SPLINE
5
3A8
100
AcDbEntity
8
0
100
AcDbSpline
62
9
6
CONTINUOUS
70
0
71
3
72
16
73
12
74
10
42
0.0000001000
43
0.0000001000
44
0.0000000001
12
-0.1071013126
22
-0.2788208586
32
0.0000000000
13
-0.2929014228
23
0.0611244404
33
0.0000000000
40
0.0000000000
40
0.0000000000
40
0.0000000000
40
0.0000000000
40
0.1289394256
40
0.2552269787
40
0.3778356690
40
0.4961472378
40
0.6098996248
40
0.7192818507
40
0.8249559230
40
0.9280345409
40
1.0000000000
40
1.0000000000
40
1.0000000000
40
1.0000000000
10
-0.8987680697
20
15.0151309527
30
0.0000000000
10
-0.9033712636
20
15.0031472856
30
0.0000000000
10
-0.9139501201
20
14.9799570403
30
0.0000000000
10
-0.9338496876
20
14.9479125893
30
0.0000000000
10
-0.9572026603
20
14.9196293799
30
0.0000000000
10
-0.9834519497
20
14.8958145025
30
0.0000000000
10
-1.0119821552
20
14.8770589210
30
0.0000000000
10
-1.0421180856
20
14.8638482637
30
0.0000000000
10
-1.0731307681
20
14.8565469416
30
0.0000000000
10
-1.1012452265
20
14.8554956124
30
0.0000000000
10
-1.1185850961
20
14.8578440909
30
0.0000000000
10
-1.1256113579
20
14.8593103737
30
0.0000000000
11
-0.8987680697
21
15.0151309527
31
0.0000000000
11
-0.9147908012
21
14.9801102285
31
0.0000000000
11
-0.9347437296
21
14.9480996280
31
0.0000000000
11
-0.9581257409
21
14.9199146631
31
0.0000000000
11
-0.9843652333
21
14.8962452305
31
0.0000000000
11
-1.0128167373
21
14.8776743679
31
0.0000000000
11
-1.0427823437
21
14.8646576860
31
0.0000000000
11
-1.0735265615
21
14.8575147401
31
0.0000000000
11
-1.1042949909
21
14.8564208033
31
0.0000000000
11
-1.1256113579
21
14.8593103737
31
0.0000000000
0
SPLINE
5
3A9
100
AcDbEntity
8
0
100
AcDbSpline
62
9
6
CONTINUOUS
70
0
71
3
72
13
73
9
74
7
42
0.0000001000
43
0.0000001000
44
0.0000000001
12
0.0000000000
22
-0.1577052419
32
0.0000000000
13
0.1414334405
23
-0.0707430069
33
0.0000000000
40
0.0000000000
40
0.0000000000
40
0.0000000000
40
0.0000000000
40
0.1984713040
40
0.3837230347
40
0.5554551366
40
0.7150768613
40
0.8655112998
40
1.0000000000
40
1.0000000000
40
1.0000000000
40
1.0000000000
10
-1.2512900294
20
15.0156436766
30
0.0000000000
10
-1.2512900294
20
15.0052103549
30
0.0000000000
10
-1.2501045876
20
14.9850080263
30
0.0000000000
10
-1.2443710904
20
14.9562710491
30
0.0000000000
10
-1.2348167964
20
14.9307036863
30
0.0000000000
10
-1.2215893339
20
14.9089044847
30
0.0000000000
10
-1.2053115027
20
14.8918490188
30
0.0000000000
10
-1.1926570973
20
14.8835966705
30
0.0000000000
10
-1.1863166974
20
14.8804252922
30
0.0000000000
11
-1.2512900294
21
15.0156436766
31
0.0000000000
11
-1.2493212648
21
14.9844056905
31
0.0000000000
11
-1.2434459133
21
14.9557874036
31
0.0000000000
11
-1.2337952943
21
14.9304821216
31
0.0000000000
11
-1.2205842102
21
14.9090541870
31
0.0000000000
11
-1.2041083651
21
14.8919840693
31
0.0000000000
11
-1.1863166974
21
14.8804252922
31
0.0000000000
0
SPLINE
5
3AA
100
AcDbEntity
8
0
100
AcDbSpline
62
9
6
CONTINUOUS
70
0
71
3
72
12
73
8
74
6
42
0.0000001000
43
0.0000001000
44
0.0000000001
12
0.0394571701
22
-0.0644708193
32
0.0000000000
13
-0.0470503763
23
-0.0602926704
33
0.0000000000
40
0.0000000000
40
0.0000000000
40
0.0000000000
40
0.0000000000
40
0.3202471868
40
0.5827560865
40
0.7893654968
40
0.9519858353
40
1.0000000000
40
1.0000000000
40
1.0000000000
40
1.0000000000
10
-12.1335382716
20
22.7560684161
30
0.0000000000
10
-12.1293262557
20
22.7491862166
30
0.0000000000
10
-12.1221949628
20
22.7363134279
30
0.0000000000
10
-12.1149517468
20
22.7176932214
30
0.0000000000
10
-12.1122579983
20
22.7018598132
30
0.0000000000
10
-12.1142175829
20
22.6911116757
30
0.0000000000
10
-12.1171525229
20
22.6866096676
30
0.0000000000
10
-12.1179055511
20
22.6856447002
30
0.0000000000
11
-12.1335382716
21
22.7560684161
31
0.0000000000
11
-12.1220271416
21
22.7347741535
31
0.0000000000
11
-12.1151603554
21
22.7161580369
31
0.0000000000
11
-12.1131063730
21
22.7006767678
31
0.0000000000
11
-12.1159155838
21
22.6887101416
31
0.0000000000
11
-12.1179055511
21
22.6856447002
31
0.0000000000
0
SPLINE
5
3AB
100
AcDbEntity
8
0
100
AcDbSpline
62
9
6
CONTINUOUS
70
0
71
3
72
8
73
4
74
2
42
0.0000001000
43
0.0000001000
44
0.0000000001
12
-0.0004250474
22
-0.0005446767
32
0.0000000000
13
-0.0004425495
23
-0.0005313987
33
0.0000000000
40
0.0000000000
40
0.0000000000
40
0.0000000000
40
0.0000000000
40
1.0000000000
40
1.0000000000
40
1.0000000000
40
1.0000000000
10
-12.1179055511
20
22.6856447002
30
0.0000000000
10
-12.1180472335
20
22.6854631413
30
0.0000000000
10
-12.1181918900
20
22.6852837513
30
0.0000000000
10
-12.1183394065
20
22.6851066183
30
0.0000000000
11
-12.1179055511
21
22.6856447002
31
0.0000000000
11
-12.1183394065
21
22.6851066183
31
0.0000000000
0
SPLINE
5
3AC
100
AcDbEntity
8
0
100
AcDbSpline
62
9
6
CONTINUOUS
70
0
71
3
72
13
73
9
74
7
42
0.0000001000
43
0.0000001000
44
0.0000000001
12
0.0000000000
22
-0.1577052419
32
0.0000000000
13
0.1414334405
23
-0.0707430069
33
0.0000000000
40
0.0000000000
40
0.0000000000
40
0.0000000000
40
0.0000000000
40
0.1984713040
40
0.3837230347
40
0.5554551366
40
0.7150768613
40
0.8655112998
40
1.0000000000
40
1.0000000000
40
1.0000000000
40
1.0000000000
10
-2.5762747092
20
15.6781360165
30
0.0000000000
10
-2.5762747092
20
15.6677026948
30
0.0000000000
10
-2.5750892674
20
15.6475003662
30
0.0000000000
10
-2.5693557702
20
15.6187633890
30
0.0000000000
10
-2.5598014762
20
15.5931960262
30
0.0000000000
10
-2.5465740137
20
15.5713968246
30
0.0000000000
10
-2.5302961825
20
15.5543413587
30
0.0000000000
10
-2.5176417771
20
15.5460890104
30
0.0000000000
10
-2.5113013773
20
15.5429176321
30
0.0000000000
11
-2.5762747092
21
15.6781360165
31
0.0000000000
11
-2.5743059446
21
15.6468980304
31
0.0000000000
11
-2.5684305931
21
15.6182797435
31
0.0000000000
11
-2.5587799741
21
15.5929744615
31
0.0000000000
11
-2.5455688900
21
15.5715465269
31
0.0000000000
11
-2.5290930449
21
15.5544764092
31
0.0000000000
11
-2.5113013773
21
15.5429176321
31
0.0000000000
0
SPLINE
5
3AD
100
AcDbEntity
8
0
100
AcDbSpline
62
0
6
CONTINUOUS
70
0
71
3
72
18
73
14
74
12
42
0.0000001000
43
0.0000001000
44
0.0000000001
12
0.0000000000
22
0.3680541714
32
0.0000000000
13
-0.3291976587
23
0.1645988293
33
0.0000000000
40
0.0000000000
40
0.0000000000
40
0.0000000000
40
0.0000000000
40
0.0862976154
40
0.1767716919
40
0.2704937047
40
0.3663768358
40
0.4632356557
40
0.5598417779
40
0.6549778366
40
0.7474918948
40
0.8363544548
40
0.9207205835
40
1.0000000000
40
1.0000000000
40
1.0000000000
40
1.0000000000
10
-12.6618054433
20
22.8399859726
30
0.0000000000
10
-12.6618054433
20
22.8505733717
30
0.0000000000
10
-12.6630996403
20
22.8722745320
30
0.0000000000
10
-12.6685190534
20
22.9050662940
30
0.0000000000
10
-12.6773566383
20
22.9383241468
30
0.0000000000
10
-12.6894343198
20
22.9713774290
30
0.0000000000
10
-12.7045095852
20
23.0035656979
30
0.0000000000
10
-12.7222798304
20
23.0342426446
30
0.0000000000
10
-12.7423890113
20
23.0627930287
30
0.0000000000
10
-12.7644345312
20
23.0886443635
30
0.0000000000
10
-12.7879803770
20
23.1112806107
30
0.0000000000
10
-12.8125548558
20
23.1302453950
30
0.0000000000
10
-12.8298796142
20
23.1405257450
30
0.0000000000
10
-12.8385791470
20
23.1448755114
30
0.0000000000
11
-12.6618054433
21
22.8399859726
31
0.0000000000
11
-12.6636046948
21
22.8716971673
31
0.0000000000
11
-12.6689658599
21
22.9045621239
31
0.0000000000
11
-12.6777798537
21
22.9379118346
31
0.0000000000
11
-12.6898672884
21
22.9710673949
31
0.0000000000
11
-12.7049821196
21
23.0033538308
31
0.0000000000
11
-12.7228166535
21
23.0341138518
31
0.0000000000
11
-12.7430078141
21
23.0627212441
31
0.0000000000
11
-12.7651445412
21
23.0885936313
31
0.0000000000
11
-12.7887761681
21
23.1112043384
31
0.0000000000
11
-12.8134216062
21
23.1300931170
31
0.0000000000
11
-12.8385791470
21
23.1448755114
31
0.0000000000
0
SPLINE
5
3AE
100
AcDbEntity
8
0
100
AcDbSpline
62
9
6
CONTINUOUS
70
0
71
3
72
17
73
13
74
11
42
0.0000001000
43
0.0000001000
44
0.0000000001
12
-0.0017609283
22
0.3677011443
32
0.0000000000
13
-0.3281085688
23
0.1659879499
33
0.0000000000
40
0.0000000000
40
0.0000000000
40
0.0000000000
40
0.0000000000
40
0.0949037743
40
0.1950106697
40
0.2988560415
40
0.4049423265
40
0.5116330326
40
0.6172719431
40
0.7202542280
40
0.8191214814
40
0.9126578051
40
1.0000000000
40
1.0000000000
40
1.0000000000
40
1.0000000000
10
-14.2630862341
20
22.0372639690
30
0.0000000000
10
-14.2631419404
20
22.0488960445
30
0.0000000000
10
-14.2648165846
20
22.0728077884
30
0.0000000000
10
-14.2714718893
20
22.1088947586
30
0.0000000000
10
-14.2821891357
20
22.1454203680
30
0.0000000000
10
-14.2967046069
20
22.1814749590
30
0.0000000000
10
-14.3146671185
20
22.2161891340
30
0.0000000000
10
-14.3356418360
20
22.2487211008
30
0.0000000000
10
-14.3591216445
20
22.2782838424
30
0.0000000000
10
-14.3845458214
20
22.3041651989
30
0.0000000000
10
-14.4112998286
20
22.3257364963
30
0.0000000000
10
-14.4303073636
20
22.3373209239
30
0.0000000000
10
-14.4398599378
20
22.3421535079
30
0.0000000000
11
-14.2630862341
21
22.0372639690
31
0.0000000000
11
-14.2654038089
21
22.0720835525
31
0.0000000000
11
-14.2719929199
21
22.1082988544
31
0.0000000000
11
-14.2826909693
21
22.1449541102
31
0.0000000000
11
-14.2972358312
21
22.1811495481
31
0.0000000000
11
-14.3152683616
21
22.2159903169
31
0.0000000000
11
-14.3363448877
21
22.2486190756
31
0.0000000000
11
-14.3599460978
21
22.2782316243
31
0.0000000000
11
-14.3854906338
21
22.3040984251
31
0.0000000000
11
-14.4123491971
21
22.3255821768
31
0.0000000000
11
-14.4398599378
21
22.3421535079
31
0.0000000000
0
SPLINE
5
3AF
100
AcDbEntity
8
0
100
AcDbSpline
62
0
6
CONTINUOUS
70
0
71
3
72
12
73
8
74
6
42
0.0000001000
43
0.0000001000
44
0.0000000001
12
-0.1102678630
22
0.0551339315
32
0.0000000000
13
0.0000431003
23
0.1238634223
33
0.0000000000
40
0.0000000000
40
0.0000000000
40
0.0000000000
40
0.0000000000
40
0.2639844433
40
0.5000320475
40
0.7098796605
40
0.9030370166
40
1.0000000000
40
1.0000000000
40
1.0000000000
40
1.0000000000
10
-1.8755407217
20
14.7135450477
30
0.0000000000
10
-1.8852437218
20
14.7183965477
30
0.0000000000
10
-1.9030351206
20
14.7288831094
30
0.0000000000
10
-1.9252383518
20
14.7481035084
30
0.0000000000
10
-1.9408285019
20
14.7695977338
30
0.0000000000
10
-1.9477603037
20
14.7893036543
30
0.0000000000
10
-1.9487539114
20
14.8012817556
30
0.0000000000
10
-1.9487525183
20
14.8052851446
30
0.0000000000
11
-1.8755407217
21
14.7135450477
31
0.0000000000
11
-1.9034294249
21
14.7303196599
31
0.0000000000
11
-1.9251978886
21
14.7496324851
31
0.0000000000
11
-1.9400849338
21
14.7707906619
31
0.0000000000
11
-1.9477514366
21
14.7933358740
31
0.0000000000
11
-1.9487525183
21
14.8052851446
31
0.0000000000
0
SPLINE
5
3B0
100
AcDbEntity
8
0
100
AcDbSpline
62
9
6
CONTINUOUS
70
0
71
3
72
12
73
8
74
6
42
0.0000001000
43
0.0000001000
44
0.0000000001
12
-0.1076943729
22
0.0538471865
32
0.0000000000
13
-0.0000171956
23
0.1210555811
33
0.0000000000
40
0.0000000000
40
0.0000000000
40
0.0000000000
40
0.0000000000
40
0.2698679985
40
0.5085458692
40
0.7183426644
40
0.9068161760
40
1.0000000000
40
1.0000000000
40
1.0000000000
40
1.0000000000
10
-2.5762747092
20
15.6781360165
30
0.0000000000
10
-2.5859624642
20
15.6829798940
30
0.0000000000
10
-2.6036705402
20
15.6933125082
30
0.0000000000
10
-2.6258583175
20
15.7119953539
30
0.0000000000
10
-2.6414593264
20
15.7325936462
30
0.0000000000
10
-2.6484802219
20
15.7513981219
30
0.0000000000
10
-2.6494845631
20
15.7627642253
30
0.0000000000
10
-2.6494850972
20
15.7665243660
30
0.0000000000
11
-2.5762747092
21
15.6781360165
31
0.0000000000
11
-2.6041932896
21
15.6947611352
31
0.0000000000
11
-2.6259381773
21
15.7135506621
31
0.0000000000
11
-2.6408535375
21
15.7339378974
31
0.0000000000
11
-2.6484895169
21
15.7553079538
31
0.0000000000
11
-2.6494850972
21
15.7665243660
31
0.0000000000
0
SPLINE
5
3B1
100
AcDbEntity
8
0
100
AcDbSpline
62
9
6
CONTINUOUS
70
0
71
3
72
12
73
8
74
6
42
0.0000001000
43
0.0000001000
44
0.0000000001
12
-0.1076940550
22
0.0538470275
32
0.0000000000
13
-0.0000193486
23
0.1210555530
33
0.0000000000
40
0.0000000000
40
0.0000000000
40
0.0000000000
40
0.0000000000
40
0.2692912651
40
0.5080797378
40
0.7179663636
40
0.9065257771
40
1.0000000000
40
1.0000000000
40
1.0000000000
40
1.0000000000
10
-2.5762747092
20
16.0181099506
30
0.0000000000
10
-2.5859417320
20
16.0229434620
30
0.0000000000
10
-2.6036343803
20
16.0332639706
30
0.0000000000
10
-2.6258183979
20
16.0519274263
30
0.0000000000
10
-2.6414369020
20
16.0725266350
30
0.0000000000
10
-2.6484754703
20
16.0913447612
30
0.0000000000
10
-2.6494844815
20
16.1027261062
30
0.0000000000
10
-2.6494850844
20
16.1064979642
30
0.0000000000
11
-2.5762747092
21
16.0181099506
31
0.0000000000
11
-2.6041364723
21
16.0346945704
31
0.0000000000
11
-2.6258995246
21
16.0534833099
31
0.0000000000
11
-2.6408317485
21
16.0738715128
31
0.0000000000
11
-2.6484832107
21
16.0952469454
31
0.0000000000
11
-2.6494850844
21
16.1064979642
31
0.0000000000
0
SPLINE
5
3B2
100
AcDbEntity
8
0
100
AcDbSpline
62
9
6
CONTINUOUS
70
0
71
3
72
12
73
8
74
6
42
0.0000001000
43
0.0000001000
44
0.0000000001
12
-0.1051861438
22
0.0519803419
32
0.0000000000
13
-0.1046736161
23
-0.0537305865
33
0.0000000000
40
0.0000000000
40
0.0000000000
40
0.0000000000
40
0.0000000000
40
0.2546644038
40
0.4903262845
40
0.7095488276
40
0.9179069590
40
1.0000000000
40
1.0000000000
40
1.0000000000
40
1.0000000000
10
-2.4005264532
20
16.3224867656
30
0.0000000000
10
-2.4094555088
20
16.3268992798
30
0.0000000000
10
-2.4273122521
20
16.3341600649
30
0.0000000000
10
-2.4546273186
20
16.3399275150
30
0.0000000000
10
-2.4807866866
20
16.3398961395
30
0.0000000000
10
-2.5003474656
20
16.3350866970
30
0.0000000000
10
-2.5107461377
20
16.3304018306
30
0.0000000000
10
-2.5136104629
20
16.3289315282
30
0.0000000000
11
-2.4005264532
21
16.3224867656
31
0.0000000000
11
-2.4282791785
21
16.3335579476
31
0.0000000000
11
-2.4553755778
21
16.3390629812
31
0.0000000000
11
-2.4810957634
21
16.3388403347
31
0.0000000000
11
-2.5048081831
21
16.3328947863
31
0.0000000000
11
-2.5136104629
21
16.3289315282
31
0.0000000000
0
SPLINE
5
3B3
100
AcDbEntity
8
0
100
AcDbSpline
62
9
6
CONTINUOUS
70
0
71
3
72
17
73
13
74
11
42
0.0000001000
43
0.0000001000
44
0.0000000001
12
0.0017352843
22
0.3683326427
32
0.0000000000
13
-0.3302054118
23
0.1632064119
33
0.0000000000
40
0.0000000000
40
0.0000000000
40
0.0000000000
40
0.0000000000
40
0.0952855389
40
0.1954450498
40
0.2992254493
40
0.4051614696
40
0.5116692082
40
0.6171330614
40
0.7199975207
40
0.8188410132
40
0.9125015613
40
1.0000000000
40
1.0000000000
40
1.0000000000
40
1.0000000000
10
-12.1335382716
20
23.1034247926
30
0.0000000000
10
-12.1334831557
20
23.1151237174
30
0.0000000000
10
-12.1349568636
20
23.1391456822
30
0.0000000000
10
-12.1413876588
20
23.1753858483
30
0.0000000000
10
-12.1519416048
20
23.2120088472
30
0.0000000000
10
-12.1663620931
20
23.2481233668
30
0.0000000000
10
-12.1842995701
20
23.2828585445
30
0.0000000000
10
-12.2053202615
20
23.3153733759
30
0.0000000000
10
-12.2289155136
20
23.3448806327
30
0.0000000000
10
-12.2545223565
20
23.3706699455
30
0.0000000000
10
-12.2815068006
20
23.3921026256
30
0.0000000000
10
-12.3006811559
20
23.4035542293
30
0.0000000000
10
-12.3103119753
20
23.4083143314
30
0.0000000000
11
-12.1335382716
21
23.1034247926
31
0.0000000000
11
-12.1355682110
21
23.1384632037
31
0.0000000000
11
-12.1419280262
21
23.1748033180
31
0.0000000000
11
-12.1524610245
21
23.2115496538
31
0.0000000000
11
-12.1669076694
21
23.2477969266
31
0.0000000000
11
-12.1849120166
21
23.2826522312
31
0.0000000000
11
-12.2060302454
21
23.3152566559
31
0.0000000000
11
-12.2297426651
21
23.3448079534
31
0.0000000000
11
-12.2554628506
21
23.3705759930
31
0.0000000000
11
-12.2825592499
21
23.3919287428
31
0.0000000000
11
-12.3103119753
21
23.4083143314
31
0.0000000000
0
SPLINE
5
3B4
100
AcDbEntity
8
0
100
AcDbSpline
62
0
6
CONTINUOUS
70
0
71
3
72
12
73
8
74
6
42
0.0000001000
43
0.0000001000
44
0.0000000001
12
-0.1029117008
22
0.0514558504
32
0.0000000000
13
-0.1036858895
23
-0.0504661476
33
0.0000000000
40
0.0000000000
40
0.0000000000
40
0.0000000000
40
0.0000000000
40
0.2365135992
40
0.4564779312
40
0.6620569350
40
0.8571721465
40
1.0000000000
40
1.0000000000
40
1.0000000000
40
1.0000000000
10
-0.8177698501
20
17.1344708629
30
0.0000000000
10
-0.8258831890
20
17.1385275324
30
0.0000000000
10
-0.8421012487
20
17.1453202943
30
0.0000000000
10
-0.8669099889
20
17.1512793859
30
0.0000000000
10
-0.8908431764
20
17.1524650367
30
0.0000000000
10
-0.9115843705
20
17.1490642184
30
0.0000000000
10
-0.9237650162
20
17.1444024211
30
0.0000000000
10
-0.9287014272
20
17.1419997640
30
0.0000000000
11
-0.8177698501
21
17.1344708629
31
0.0000000000
11
-0.8429273908
21
17.1448460093
31
0.0000000000
11
-0.8675728290
21
17.1506026688
31
0.0000000000
11
-0.8912044559
21
17.1516235886
31
0.0000000000
11
-0.9133411829
21
17.1478879285
31
0.0000000000
11
-0.9287014272
21
17.1419997640
31
0.0000000000
0
SPLINE
5
3B5
100
AcDbEntity
8
0
100
AcDbSpline
62
9
6
CONTINUOUS
70
0
71
3
72
12
73
8
74
6
42
0.0000001000
43
0.0000001000
44
0.0000000001
12
-0.1023063227
22
0.0517475591
32
0.0000000000
13
-0.1033354543
23
-0.0503876774
33
0.0000000000
40
0.0000000000
40
0.0000000000
40
0.0000000000
40
0.0000000000
40
0.2591427862
40
0.4984240280
40
0.7211919206
40
0.9333519805
40
1.0000000000
40
1.0000000000
40
1.0000000000
40
1.0000000000
10
-0.2833199714
20
17.3948183295
30
0.0000000000
10
-0.2921572865
20
17.3992883317
30
0.0000000000
10
-0.3098362613
20
17.4066494299
30
0.0000000000
10
-0.3369365003
20
17.4125344555
30
0.0000000000
10
-0.3629265342
20
17.4125795540
30
0.0000000000
10
-0.3817417584
20
17.4079610988
30
0.0000000000
10
-0.3915350855
20
17.4036698758
30
0.0000000000
10
-0.3938307866
20
17.4025504629
30
0.0000000000
11
-0.2833199714
21
17.3948183295
31
0.0000000000
11
-0.3108246670
21
17.4060523515
31
0.0000000000
11
-0.3376774574
21
17.4116663198
31
0.0000000000
11
-0.3632171661
21
17.4115220059
31
0.0000000000
11
-0.3868149478
21
17.4056229631
31
0.0000000000
11
-0.3938307866
21
17.4025504629
31
0.0000000000
0
SPLINE
5
3B6
100
AcDbEntity
8
0
100
AcDbSpline
62
9
6
CONTINUOUS
70
0
71
3
72
12
73
8
74
6
42
0.0000001000
43
0.0000001000
44
0.0000000001
12
-0.1023063762
22
0.0517475861
32
0.0000000000
13
-0.1033358100
23
-0.0503876481
33
0.0000000000
40
0.0000000000
40
0.0000000000
40
0.0000000000
40
0.0000000000
40
0.2587066551
40
0.4980489301
40
0.7208658535
40
0.9330787874
40
1.0000000000
40
1.0000000000
40
1.0000000000
40
1.0000000000
10
-13.6476381358
20
24.0769774117
30
0.0000000000
10
-13.6564605826
20
24.0814398933
30
0.0000000000
10
-13.6741249374
20
24.0887974383
30
0.0000000000
10
-13.7012109688
20
24.0946888485
30
0.0000000000
10
-13.7272072233
20
24.0947433291
30
0.0000000000
10
-13.7460382380
20
24.0901281846
30
0.0000000000
10
-13.7558438248
20
24.0858335328
30
0.0000000000
10
-13.7581489440
20
24.0847095319
30
0.0000000000
11
-13.6476381358
21
24.0769774117
31
0.0000000000
11
-13.6750949064
21
24.0881965711
31
0.0000000000
11
-13.7019526899
21
24.0938209126
31
0.0000000000
11
-13.7274980829
21
24.0936856623
31
0.0000000000
11
-13.7511038320
21
24.0877934492
31
0.0000000000
11
-13.7581489440
21
24.0847095319
31
0.0000000000
0
SPLINE
5
3B7
100
AcDbEntity
8
0
100
AcDbSpline
62
0
6
CONTINUOUS
70
0
71
3
72
12
73
8
74
6
42
0.0000001000
43
0.0000001000
44
0.0000000001
12
-0.1029117008
22
0.0514558504
32
0.0000000000
13
-0.1036858895
23
-0.0504661476
33
0.0000000000
40
0.0000000000
40
0.0000000000
40
0.0000000000
40
0.0000000000
40
0.2365135992
40
0.4564779312
40
0.6620569350
40
0.8571721465
40
1.0000000000
40
1.0000000000
40
1.0000000000
40
1.0000000000
10
-14.1820880145
20
23.8166299451
30
0.0000000000
10
-14.1902013534
20
23.8206866146
30
0.0000000000
10
-14.2064194131
20
23.8274793765
30
0.0000000000
10
-14.2312281533
20
23.8334384681
30
0.0000000000
10
-14.2551613409
20
23.8346241189
30
0.0000000000
10
-14.2759025349
20
23.8312233006
30
0.0000000000
10
-14.2880831806
20
23.8265615034
30
0.0000000000
10
-14.2930195916
20
23.8241588462
30
0.0000000000
11
-14.1820880145
21
23.8166299451
31
0.0000000000
11
-14.2072455553
21
23.8270050915
31
0.0000000000
11
-14.2318909934
21
23.8327617510
31
0.0000000000
11
-14.2555226203
21
23.8337826708
31
0.0000000000
11
-14.2776593474
21
23.8300470107
31
0.0000000000
11
-14.2930195916
21
23.8241588462
31
0.0000000000
0
SPLINE
5
3B8
100
AcDbEntity
8
0
100
AcDbSpline
62
9
6
CONTINUOUS
70
0
71
3
72
12
73
8
74
6
42
0.0000001000
43
0.0000001000
44
0.0000000001
12
-0.1051788256
22
0.0519767254
32
0.0000000000
13
-0.1046705139
23
-0.0537184034
33
0.0000000000
40
0.0000000000
40
0.0000000000
40
0.0000000000
40
0.0000000000
40
0.2551656286
40
0.4908310022
40
0.7100613736
40
0.9184212323
40
1.0000000000
40
1.0000000000
40
1.0000000000
40
1.0000000000
10
-15.7648446176
20
23.0046458478
30
0.0000000000
10
-15.7737906247
20
23.0090667390
30
0.0000000000
10
-15.7916659566
20
23.0163322485
30
0.0000000000
10
-15.8190012006
20
23.0220928061
30
0.0000000000
10
-15.8451594371
20
23.0220488938
30
0.0000000000
10
-15.8646968979
20
23.0172337223
30
0.0000000000
10
-15.8750751851
20
23.0125550528
30
0.0000000000
10
-15.8779214823
20
23.0110942924
30
0.0000000000
11
-15.7648446176
21
23.0046458478
31
0.0000000000
11
-15.7926518443
21
23.0157335004
31
0.0000000000
11
-15.8197489240
21
23.0212275702
31
0.0000000000
11
-15.8454681292
21
23.0209926399
31
0.0000000000
11
-15.8691758587
21
23.0150345611
31
0.0000000000
11
-15.8779214823
21
23.0110942924
31
0.0000000000
0
SPLINE
5
3B9
100
AcDbEntity
8
0
100
AcDbSpline
62
9
6
CONTINUOUS
70
0
71
3
72
16
73
12
74
10
42
0.0000001000
43
0.0000001000
44
0.0000000001
12
0.0000000000
22
0.3668353278
32
0.0000000000
13
0.3271697111
23
0.1659160566
33
0.0000000000
40
0.0000000000
40
0.0000000000
40
0.0000000000
40
0.0000000000
40
0.1057462244
40
0.2176783737
40
0.3337616387
40
0.4519372886
40
0.5699765672
40
0.6856792930
40
0.7969948807
40
0.9021857006
40
1.0000000000
40
1.0000000000
40
1.0000000000
40
1.0000000000
10
-14.6156081938
20
22.0377766929
30
0.0000000000
10
-14.6156081938
20
22.0507071765
30
0.0000000000
10
-14.6136714805
20
22.0773473502
30
0.0000000000
10
-14.6056857678
20
22.1174597845
30
0.0000000000
10
-14.5927539097
20
22.1578594063
30
0.0000000000
10
-14.5752644311
20
22.1973158008
30
0.0000000000
10
-14.5537330464
20
22.2346678161
30
0.0000000000
10
-14.5287965905
20
22.2688093410
30
0.0000000000
10
-14.5011819305
20
22.2987366810
30
0.0000000000
10
-14.4717042370
20
22.3235627115
30
0.0000000000
10
-14.4505272299
20
22.3367438536
30
0.0000000000
10
-14.4398599378
20
22.3421535079
30
0.0000000000
11
-14.6156081938
21
22.0377766929
31
0.0000000000
11
-14.6129544556
21
22.0764772657
31
0.0000000000
11
-14.6050472422
21
22.1167693781
31
0.0000000000
11
-14.5921251513
21
22.1573448528
31
0.0000000000
11
-14.5745754497
21
22.1969846997
31
0.0000000000
11
-14.5529293463
21
22.2344869777
31
0.0000000000
11
-14.5278393241
21
22.2687210392
31
0.0000000000
11
-14.5000628375
21
22.2986530015
31
0.0000000000
11
-14.4704382032
21
22.3233793502
31
0.0000000000
11
-14.4398599378
21
22.3421535079
31
0.0000000000
0
SPLINE
5
3BA
100
AcDbEntity
8
0
100
AcDbSpline
62
9
6
CONTINUOUS
70
0
71
3
72
16
73
12
74
10
42
0.0000001000
43
0.0000001000
44
0.0000000001
12
0.0000000000
22
0.3668353278
32
0.0000000000
13
0.3271697111
23
0.1659160566
33
0.0000000000
40
0.0000000000
40
0.0000000000
40
0.0000000000
40
0.0000000000
40
0.1057462244
40
0.2176783737
40
0.3337616387
40
0.4519372886
40
0.5699765672
40
0.6856792930
40
0.7969948807
40
0.9021857006
40
1.0000000000
40
1.0000000000
40
1.0000000000
40
1.0000000000
10
-15.9405928736
20
22.7002690328
30
0.0000000000
10
-15.9405928736
20
22.7131995164
30
0.0000000000
10
-15.9386561603
20
22.7398396901
30
0.0000000000
10
-15.9306704476
20
22.7799521244
30
0.0000000000
10
-15.9177385895
20
22.8203517462
30
0.0000000000
10
-15.9002491109
20
22.8598081407
30
0.0000000000
10
-15.8787177262
20
22.8971601560
30
0.0000000000
10
-15.8537812703
20
22.9313016809
30
0.0000000000
10
-15.8261666103
20
22.9612290209
30
0.0000000000
10
-15.7966889168
20
22.9860550514
30
0.0000000000
10
-15.7755119097
20
22.9992361935
30
0.0000000000
10
-15.7648446176
20
23.0046458478
30
0.0000000000
11
-15.9405928736
21
22.7002690328
31
0.0000000000
11
-15.9379391354
21
22.7389696056
31
0.0000000000
11
-15.9300319220
21
22.7792617181
31
0.0000000000
11
-15.9171098311
21
22.8198371928
31
0.0000000000
11
-15.8995601296
21
22.8594770396
31
0.0000000000
11
-15.8779140261
21
22.8969793176
31
0.0000000000
11
-15.8528240040
21
22.9312133791
31
0.0000000000
11
-15.8250475173
21
22.9611453414
31
0.0000000000
11
-15.7954228830
21
22.9858716901
31
0.0000000000
11
-15.7648446176
21
23.0046458478
31
0.0000000000
0
SPLINE
5
3BB
100
AcDbEntity
8
0
100
AcDbSpline
62
9
6
CONTINUOUS
70
0
71
3
72
16
73
12
74
10
42
0.0000001000
43
0.0000001000
44
0.0000000001
12
0.3244997853
22
-0.1622498927
32
0.0000000000
13
0.3252488140
23
0.1607431098
33
0.0000000000
40
0.0000000000
40
0.0000000000
40
0.0000000000
40
0.0000000000
40
0.0993975665
40
0.2072257761
40
0.3214778804
40
0.4397526696
40
0.5594233631
40
0.6777881460
40
0.7922153527
40
0.9002936437
40
1.0000000000
40
1.0000000000
40
1.0000000000
40
1.0000000000
10
-14.6156081938
20
21.6978027588
30
0.0000000000
10
-14.6048566975
20
21.6924270106
30
0.0000000000
10
-14.5816203894
20
21.6828294672
30
0.0000000000
10
-14.5441720238
20
21.6721448448
30
0.0000000000
10
-14.5036052612
20
21.6648158008
30
0.0000000000
10
-14.4611232667
20
21.6610645484
30
0.0000000000
10
-14.4179796159
20
21.6610025003
30
0.0000000000
10
-14.3754549447
20
21.6646315343
30
0.0000000000
10
-14.3348042889
20
21.6718438489
30
0.0000000000
10
-14.2972335318
20
21.6824206990
30
0.0000000000
10
-14.2738960255
20
21.6919476650
30
0.0000000000
10
-14.2630862341
20
21.6972900349
30
0.0000000000
11
-14.6156081938
21
21.6978027588
31
0.0000000000
11
-14.5823579563
21
21.6838434686
31
0.0000000000
11
-14.5447789025
21
21.6729710247
31
0.0000000000
11
-14.5040044319
21
21.6655133446
31
0.0000000000
11
-14.4612643191
21
21.6616953549
31
0.0000000000
11
-14.4178476233
21
21.6616322077
31
0.0000000000
11
-14.3750638097
21
21.6653258076
31
0.0000000000
11
-14.3342032555
21
21.6726647540
31
0.0000000000
11
-14.2964983317
21
21.6834277014
31
0.0000000000
11
-14.2630862341
21
21.6972900349
31
0.0000000000
0
SPLINE
5
3BC
100
AcDbEntity
8
0
100
AcDbSpline
62
9
6
CONTINUOUS
70
0
71
3
72
16
73
12
74
10
42
0.0000001000
43
0.0000001000
44
0.0000000001
12
0.3244997853
22
-0.1622498927
32
0.0000000000
13
0.3252488140
23
0.1607431098
33
0.0000000000
40
0.0000000000
40
0.0000000000
40
0.0000000000
40
0.0000000000
40
0.0993975665
40
0.2072257761
40
0.3214778804
40
0.4397526696
40
0.5594233631
40
0.6777881460
40
0.7922153527
40
0.9002936437
40
1.0000000000
40
1.0000000000
40
1.0000000000
40
1.0000000000
10
-14.6156081938
20
22.0377766929
30
0.0000000000
10
-14.6048566975
20
22.0324009447
30
0.0000000000
10
-14.5816203894
20
22.0228034013
30
0.0000000000
10
-14.5441720238
20
22.0121187789
30
0.0000000000
10
-14.5036052612
20
22.0047897350
30
0.0000000000
10
-14.4611232667
20
22.0010384825
30
0.0000000000
10
-14.4179796159
20
22.0009764344
30
0.0000000000
10
-14.3754549447
20
22.0046054684
30
0.0000000000
10
-14.3348042889
20
22.0118177831
30
0.0000000000
10
-14.2972335318
20
22.0223946331
30
0.0000000000
10
-14.2738960255
20
22.0319215991
30
0.0000000000
10
-14.2630862341
20
22.0372639690
30
0.0000000000
11
-14.6156081938
21
22.0377766929
31
0.0000000000
11
-14.5823579563
21
22.0238174027
31
0.0000000000
11
-14.5447789025
21
22.0129449589
31
0.0000000000
11
-14.5040044319
21
22.0054872788
31
0.0000000000
11
-14.4612643191
21
22.0016692891
31
0.0000000000
11
-14.4178476233
21
22.0016061419
31
0.0000000000
11
-14.3750638097
21
22.0052997417
31
0.0000000000
11
-14.3342032555
21
22.0126386881
31
0.0000000000
11
-14.2964983317
21
22.0234016355
31
0.0000000000
11
-14.2630862341
21
22.0372639690
31
0.0000000000
0
SPLINE
5
3BD
100
AcDbEntity
8
0
100
AcDbSpline
62
9
6
CONTINUOUS
70
0
71
3
72
17
73
13
74
11
42
0.0000001000
43
0.0000001000
44
0.0000000001
12
0.0017352842
22
0.3683326171
32
0.0000000000
13
-0.3302053889
23
0.1632064006
33
0.0000000000
40
0.0000000000
40
0.0000000000
40
0.0000000000
40
0.0000000000
40
0.0950922099
40
0.1952326481
40
0.2989961559
40
0.4049274728
40
0.5114338416
40
0.6169036358
40
0.7197770578
40
0.8186406362
40
0.9123223783
40
1.0000000000
40
1.0000000000
40
1.0000000000
40
1.0000000000
10
1.2307798928
20
16.4212657104
30
0.0000000000
10
1.2308348969
20
16.4329408979
30
0.0000000000
10
1.2293659787
20
16.4569366651
30
0.0000000000
10
1.2229481254
20
16.4931505484
30
0.0000000000
10
1.2124035123
20
16.5297710118
30
0.0000000000
10
1.1979917919
20
16.5658859994
30
0.0000000000
10
1.1800617319
20
16.6006249784
30
0.0000000000
10
1.1590472098
20
16.6331457706
30
0.0000000000
10
1.1354559775
20
16.6626617158
30
0.0000000000
10
1.1098509383
20
16.6884615389
30
0.0000000000
10
1.0828507679
20
16.7099178715
30
0.0000000000
10
1.0636567302
20
16.7213853995
30
0.0000000000
10
1.0540061892
20
16.7261552492
30
0.0000000000
11
1.2307798928
21
16.4212657104
31
0.0000000000
11
1.2287582728
21
16.4562332712
31
0.0000000000
11
1.2224077777
21
16.4925678811
31
0.0000000000
11
1.2118845207
21
16.5293105330
31
0.0000000000
11
1.1974463294
21
16.5655593062
31
0.0000000000
11
1.1794497031
21
16.6004180271
31
0.0000000000
11
1.1583374302
21
16.6330289124
31
0.0000000000
11
1.1346297007
21
16.6625882013
31
0.0000000000
11
1.1089104955
21
16.6883676676
31
0.0000000000
11
1.0818134158
21
16.7097321611
31
0.0000000000
11
1.0540061892
21
16.7261552492
31
0.0000000000
0
SPLINE
5
3BE
100
AcDbEntity
8
0
100
AcDbSpline
62
9
6
CONTINUOUS
70
0
71
3
72
17
73
13
74
11
42
0.0000001000
43
0.0000001000
44
0.0000000001
12
-0.0017609283
22
0.3677011356
32
0.0000000000
13
-0.3281085610
23
0.1659879460
33
0.0000000000
40
0.0000000000
40
0.0000000000
40
0.0000000000
40
0.0000000000
40
0.0950752777
40
0.1951772889
40
0.2990147184
40
0.4050813897
40
0.5117509338
40
0.6173654056
40
0.7203223727
40
0.8191647087
40
0.9126778229
40
1.0000000000
40
1.0000000000
40
1.0000000000
40
1.0000000000
10
-0.8987680697
20
15.3551048868
30
0.0000000000
10
-0.8988238766
20
15.3667579827
30
0.0000000000
10
-0.9005027461
20
15.3906902085
30
0.0000000000
10
-0.9071680945
20
15.4267950429
30
0.0000000000
10
-0.9178899173
20
15.4633151466
30
0.0000000000
10
-0.9324079799
20
15.4993622097
30
0.0000000000
10
-0.9503707618
20
15.5340672073
30
0.0000000000
10
-0.9713439007
20
15.5665898061
30
0.0000000000
10
-0.9948203650
20
15.5961434674
30
0.0000000000
10
-1.0202398292
20
15.6220167714
30
0.0000000000
10
-1.0469882214
20
15.6435816489
30
0.0000000000
10
-1.0659913888
20
15.6551629494
30
0.0000000000
10
-1.0755417734
20
15.6599944257
30
0.0000000000
11
-0.8987680697
21
15.3551048868
31
0.0000000000
11
-0.9010935029
21
15.3899871485
31
0.0000000000
11
-0.9076889243
21
15.4261994753
31
0.0000000000
11
-0.9183919396
21
15.4628502380
31
0.0000000000
11
-0.9329390165
21
15.4990370120
31
0.0000000000
11
-0.9509719730
21
15.5338687970
31
0.0000000000
11
-0.9720467970
21
15.5664879559
31
0.0000000000
11
-0.9956445787
21
15.5960913311
31
0.0000000000
11
-1.0211842874
21
15.6219500209
31
0.0000000000
11
-1.0480370778
21
15.6434273256
31
0.0000000000
11
-1.0755417734
21
15.6599944257
31
0.0000000000
0
SPLINE
5
3BF
100
AcDbEntity
8
0
100
AcDbSpline
62
0
6
CONTINUOUS
70
0
71
3
72
18
73
14
74
12
42
0.0000001000
43
0.0000001000
44
0.0000000001
12
0.0000000000
22
0.3680541714
32
0.0000000000
13
-0.3291976587
23
0.1645988293
33
0.0000000000
40
0.0000000000
40
0.0000000000
40
0.0000000000
40
0.0000000000
40
0.0862976154
40
0.1767716919
40
0.2704937047
40
0.3663768358
40
0.4632356557
40
0.5598417779
40
0.6549778366
40
0.7474918948
40
0.8363544548
40
0.9207205835
40
1.0000000000
40
1.0000000000
40
1.0000000000
40
1.0000000000
10
0.7025127211
20
16.1578268903
30
0.0000000000
10
0.7025127211
20
16.1684142895
30
0.0000000000
10
0.7012185242
20
16.1901154498
30
0.0000000000
10
0.6957991110
20
16.2229072118
30
0.0000000000
10
0.6869615261
20
16.2561650646
30
0.0000000000
10
0.6748838446
20
16.2892183467
30
0.0000000000
10
0.6598085792
20
16.3214066157
30
0.0000000000
10
0.6420383340
20
16.3520835623
30
0.0000000000
10
0.6219291532
20
16.3806339465
30
0.0000000000
10
0.5998836333
20
16.4064852813
30
0.0000000000
10
0.5763377874
20
16.4291215285
30
0.0000000000
10
0.5517633086
20
16.4480863128
30
0.0000000000
10
0.5344385502
20
16.4583666628
30
0.0000000000
10
0.5257390174
20
16.4627164292
30
0.0000000000
11
0.7025127211
21
16.1578268903
31
0.0000000000
11
0.7007134696
21
16.1895380851
31
0.0000000000
11
0.6953523045
21
16.2224030416
31
0.0000000000
11
0.6865383107
21
16.2557527524
31
0.0000000000
11
0.6744508760
21
16.2889083127
31
0.0000000000
11
0.6593360449
21
16.3211947486
31
0.0000000000
11
0.6415015109
21
16.3519547696
31
0.0000000000
11
0.6213103503
21
16.3805621619
31
0.0000000000
11
0.5991736233
21
16.4064345490
31
0.0000000000
11
0.5755419963
21
16.4290452562
31
0.0000000000
11
0.5508965582
21
16.4479340347
31
0.0000000000
11
0.5257390174
21
16.4627164292
31
0.0000000000
0
SPLINE
5
3C0
100
AcDbEntity
8
0
100
AcDbSpline
62
9
6
CONTINUOUS
70
0
71
3
72
16
73
12
74
10
42
0.0000001000
43
0.0000001000
44
0.0000000001
12
0.3244998133
22
-0.1622499067
32
0.0000000000
13
0.3252488420
23
0.1607431237
33
0.0000000000
40
0.0000000000
40
0.0000000000
40
0.0000000000
40
0.0000000000
40
0.0994323383
40
0.2073014579
40
0.3215967344
40
0.4399139280
40
0.5596214320
40
0.6780188419
40
0.7924556374
40
0.9005366119
40
1.0000000000
40
1.0000000000
40
1.0000000000
40
1.0000000000
10
-1.2512900294
20
15.3556176107
30
0.0000000000
10
-1.2405347710
20
15.3502399815
30
0.0000000000
10
-1.2172896942
20
15.3406394838
30
0.0000000000
10
-1.1798268494
20
15.3299529987
30
0.0000000000
10
-1.1392443789
20
15.3226245286
30
0.0000000000
10
-1.0967471942
20
15.3188764301
30
0.0000000000
10
-1.0535899604
20
15.3188199492
30
0.0000000000
10
-1.0110562759
20
15.3224565675
30
0.0000000000
10
-0.9704016427
20
15.3296776878
30
0.0000000000
10
-0.9328600952
20
15.3402557811
30
0.0000000000
10
-0.9095515203
20
15.3497755349
30
0.0000000000
10
-0.8987680697
20
15.3551048868
30
0.0000000000
11
-1.2512900294
21
15.3556176107
31
0.0000000000
11
-1.2180278624
21
15.3416541384
31
0.0000000000
11
-1.1804339566
21
15.3307796123
31
0.0000000000
11
-1.1396434704
21
15.3233224204
31
0.0000000000
11
-1.0968876277
21
15.3195075738
31
0.0000000000
11
-1.0534575653
21
15.3194500928
31
0.0000000000
11
-1.0106625524
21
15.3231516269
31
0.0000000000
11
-0.9698000135
21
15.3304992179
31
0.0000000000
11
-0.9320967276
21
15.3412714581
31
0.0000000000
11
-0.8987680697
21
15.3551048868
31
0.0000000000
0
SPLINE
5
3C1
100
AcDbEntity
8
0
100
AcDbSpline
62
9
6
CONTINUOUS
70
0
71
3
72
16
73
12
74
10
42
0.0000001000
43
0.0000001000
44
0.0000000001
12
0.3244997853
22
-0.1622498927
32
0.0000000000
13
0.3252488140
23
0.1607431098
33
0.0000000000
40
0.0000000000
40
0.0000000000
40
0.0000000000
40
0.0000000000
40
0.0993975665
40
0.2072257761
40
0.3214778804
40
0.4397526696
40
0.5594233631
40
0.6777881460
40
0.7922153527
40
0.9002936437
40
1.0000000000
40
1.0000000000
40
1.0000000000
40
1.0000000000
10
-1.2512900294
20
15.0156436766
30
0.0000000000
10
-1.2405385330
20
15.0102679284
30
0.0000000000
10
-1.2173022250
20
15.0006703850
30
0.0000000000
10
-1.1798538594
20
14.9899857626
30
0.0000000000
10
-1.1392870968
20
14.9826567186
30
0.0000000000
10
-1.0968051023
20
14.9789054662
30
0.0000000000
10
-1.0536614515
20
14.9788434180
30
0.0000000000
10
-1.0111367803
20
14.9824724521
30
0.0000000000
10
-0.9704861244
20
14.9896847667
30
0.0000000000
10
-0.9329153674
20
15.0002616168
30
0.0000000000
10
-0.9095778611
20
15.0097885828
30
0.0000000000
10
-0.8987680697
20
15.0151309527
30
0.0000000000
11
-1.2512900294
21
15.0156436766
31
0.0000000000
11
-1.2180397919
21
15.0016843863
31
0.0000000000
11
-1.1804607381
21
14.9908119425
31
0.0000000000
11
-1.1396862675
21
14.9833542624
31
0.0000000000
11
-1.0969461546
21
14.9795362727
31
0.0000000000
11
-1.0535294588
21
14.9794731255
31
0.0000000000
11
-1.0107456452
21
14.9831667254
31
0.0000000000
11
-0.9698850911
21
14.9905056718
31
0.0000000000
11
-0.9321801673
21
15.0012686192
31
0.0000000000
11
-0.8987680697
21
15.0151309527
31
0.0000000000
0
SPLINE
5
3C2
100
AcDbEntity
8
0
100
AcDbSpline
62
9
6
CONTINUOUS
70
0
71
3
72
16
73
12
74
10
42
0.0000001000
43
0.0000001000
44
0.0000000001
12
0.0000000000
22
0.3668353135
32
0.0000000000
13
0.3271696984
23
0.1659160502
33
0.0000000000
40
0.0000000000
40
0.0000000000
40
0.0000000000
40
0.0000000000
40
0.1059944465
40
0.2179178100
40
0.3339870493
40
0.4521282173
40
0.5701305017
40
0.6857921014
40
0.7970666299
40
0.9022188411
40
1.0000000000
40
1.0000000000
40
1.0000000000
40
1.0000000000
10
-2.5762747092
20
16.0181099506
30
0.0000000000
10
-2.5762747092
20
16.0310707859
30
0.0000000000
10
-2.5743313657
20
16.0577403716
30
0.0000000000
10
-2.5663299987
20
16.0978776781
30
0.0000000000
10
-2.5533914134
20
16.1382677540
30
0.0000000000
10
-2.5358988337
20
16.1777112440
30
0.0000000000
10
-2.5143685442
20
16.2150479193
30
0.0000000000
10
-2.4894363447
20
16.2491744136
30
0.0000000000
10
-2.4618287551
20
16.2790880618
30
0.0000000000
10
-2.4323599742
20
16.3039031165
30
0.0000000000
10
-2.4111901306
20
16.3170789443
30
0.0000000000
10
-2.4005264532
20
16.3224867656
30
0.0000000000
11
-2.5762747092
21
16.0181099506
31
0.0000000000
11
-2.5736088807
21
16.0569009629
31
0.0000000000
11
-2.5656917976
21
16.0971878509
31
0.0000000000
11
-2.5527622424
21
16.1377555459
31
0.0000000000
11
-2.5352101757
21
16.1773805096
31
0.0000000000
11
-2.5135649750
21
16.2148676369
31
0.0000000000
11
-2.4884794683
21
16.2490863009
31
0.0000000000
11
-2.4607102448
21
16.2790044527
31
0.0000000000
11
-2.4310948355
21
16.3037197487
31
0.0000000000
11
-2.4005264532
21
16.3224867656
31
0.0000000000
0
SPLINE
5
3C3
100
AcDbEntity
8
0
100
AcDbSpline
62
9
6
CONTINUOUS
70
0
71
3
72
16
73
12
74
10
42
0.0000001000
43
0.0000001000
44
0.0000000001
12
0.0000000000
22
0.3668353723
32
0.0000000000
13
0.3271697508
23
0.1659160768
33
0.0000000000
40
0.0000000000
40
0.0000000000
40
0.0000000000
40
0.0000000000
40
0.1060309842
40
0.2179954349
40
0.3341066423
40
0.4522880781
40
0.5703246963
40
0.6860166841
40
0.7972999717
40
0.9024556757
40
1.0000000000
40
1.0000000000
40
1.0000000000
40
1.0000000000
10
-1.2512900294
20
15.3556176107
30
0.0000000000
10
-1.2512900294
20
15.3685829159
30
0.0000000000
10
-1.2493453296
20
15.3952620164
30
0.0000000000
10
-1.2413386108
20
15.4354132581
30
0.0000000000
10
-1.2283915944
20
15.4758165601
30
0.0000000000
10
-1.2108882375
20
15.5152709553
30
0.0000000000
10
-1.1893455414
20
15.5526153891
30
0.0000000000
10
-1.1644011588
20
15.5867442470
30
0.0000000000
10
-1.1367826724
20
15.6166549980
30
0.0000000000
10
-1.1073273843
20
15.6414437111
30
0.0000000000
10
-1.0861796242
20
15.6545997018
30
0.0000000000
10
-1.0755417734
20
15.6599944257
30
0.0000000000
11
-1.2512900294
21
15.3556176107
31
0.0000000000
11
-1.2486224182
21
15.3944219416
31
0.0000000000
11
-1.2406999914
21
15.4347231467
31
0.0000000000
11
-1.2277619402
21
15.4753042993
31
0.0000000000
11
-1.2101988654
21
15.5149405499
31
0.0000000000
11
-1.1885413153
21
15.5524350977
31
0.0000000000
11
-1.1634422746
21
15.5866576693
31
0.0000000000
11
-1.1356634143
21
15.6165712676
31
0.0000000000
11
-1.1060395311
21
15.6412784164
31
0.0000000000
11
-1.0755417734
21
15.6599944257
31
0.0000000000
0
SPLINE
5
3C4
100
AcDbEntity
8
0
100
AcDbSpline
62
0
6
CONTINUOUS
70
0
71
3
72
16
73
12
74
10
42
0.0000001000
43
0.0000001000
44
0.0000000001
12
-0.3181001630
22
-0.1775096618
32
0.0000000000
13
-0.3258188377
23
0.1629094188
33
0.0000000000
40
0.0000000000
40
0.0000000000
40
0.0000000000
40
0.0000000000
40
0.1015317281
40
0.2109604255
40
0.3257087647
40
0.4443865650
40
0.5632983290
40
0.6811168266
40
0.7942087475
40
0.9013085838
40
1.0000000000
40
1.0000000000
40
1.0000000000
40
1.0000000000
10
-13.5541462309
20
20.7398817427
30
0.0000000000
10
-13.5649119840
20
20.7338741218
30
0.0000000000
10
-13.5881961754
20
20.7229971629
30
0.0000000000
10
-13.6258001146
20
20.7105169257
30
0.0000000000
10
-13.6665177733
20
20.7015179291
30
0.0000000000
10
-13.7090423613
20
20.6962919593
30
0.0000000000
10
-13.7522381572
20
20.6949742020
30
0.0000000000
10
-13.7946968757
20
20.6976043880
30
0.0000000000
10
-13.8352932500
20
20.7041121586
30
0.0000000000
10
-13.8727323486
20
20.7142821241
30
0.0000000000
10
-13.8959544836
20
20.7237519286
30
0.0000000000
10
-13.9066729911
20
20.7291111824
30
0.0000000000
11
-13.5541462309
21
20.7398817427
31
0.0000000000
11
-13.5875728215
21
20.7240514054
31
0.0000000000
11
-13.6253626474
21
20.7113654859
31
0.0000000000
11
-13.6661600885
21
20.7022649669
31
0.0000000000
11
-13.7090642727
21
20.6969548972
31
0.0000000000
11
-13.7523610978
21
20.6956407046
31
0.0000000000
11
-13.7951943063
21
20.6983453481
31
0.0000000000
11
-13.8358562669
21
20.7049616743
31
0.0000000000
11
-13.8734651797
21
20.7153375374
31
0.0000000000
11
-13.9066729911
21
20.7291111824
31
0.0000000000
0
SPLINE
5
3C5
100
AcDbEntity
8
0
100
AcDbSpline
62
9
6
CONTINUOUS
70
0
71
3
72
12
73
8
74
6
42
0.0000001000
43
0.0000001000
44
0.0000000001
12
0.0394571701
22
-0.0644708193
32
0.0000000000
13
-0.0470503763
23
-0.0602926704
33
0.0000000000
40
0.0000000000
40
0.0000000000
40
0.0000000000
40
0.0000000000
40
0.3202471868
40
0.5827560865
40
0.7893654968
40
0.9519858353
40
1.0000000000
40
1.0000000000
40
1.0000000000
40
1.0000000000
10
1.2307798928
20
16.0739093339
30
0.0000000000
10
1.2349919088
20
16.0670271344
30
0.0000000000
10
1.2421232016
20
16.0541543457
30
0.0000000000
10
1.2493664176
20
16.0355341391
30
0.0000000000
10
1.2520601661
20
16.0197007310
30
0.0000000000
10
1.2501005815
20
16.0089525935
30
0.0000000000
10
1.2471656415
20
16.0044505854
30
0.0000000000
10
1.2464126134
20
16.0034856180
30
0.0000000000
11
1.2307798928
21
16.0739093339
31
0.0000000000
11
1.2422910228
21
16.0526150713
31
0.0000000000
11
1.2491578090
21
16.0339989547
31
0.0000000000
11
1.2512117915
21
16.0185176856
31
0.0000000000
11
1.2484025807
21
16.0065510594
31
0.0000000000
11
1.2464126134
21
16.0034856180
31
0.0000000000
0
SPLINE
5
3C6
100
AcDbEntity
8
0
100
AcDbSpline
62
9
6
CONTINUOUS
70
0
71
3
72
8
73
4
74
2
42
0.0000001000
43
0.0000001000
44
0.0000000001
12
-0.0004250474
22
-0.0005446767
32
0.0000000000
13
-0.0004425495
23
-0.0005313987
33
0.0000000000
40
0.0000000000
40
0.0000000000
40
0.0000000000
40
0.0000000000
40
1.0000000000
40
1.0000000000
40
1.0000000000
40
1.0000000000
10
1.2464126134
20
16.0034856180
30
0.0000000000
10
1.2462709309
20
16.0033040591
30
0.0000000000
10
1.2461262745
20
16.0031246690
30
0.0000000000
10
1.2459787580
20
16.0029475361
30
0.0000000000
11
1.2464126134
21
16.0034856180
31
0.0000000000
11
1.2459787580
21
16.0029475361
31
0.0000000000
0
SPLINE
5
3C7
100
AcDbEntity
8
0
100
AcDbSpline
62
9
6
CONTINUOUS
70
0
71
3
72
16
73
12
74
10
42
0.0000001000
43
0.0000001000
44
0.0000000001
12
-0.1071013126
22
-0.2788208586
32
0.0000000000
13
-0.2929014228
23
0.0611244404
33
0.0000000000
40
0.0000000000
40
0.0000000000
40
0.0000000000
40
0.0000000000
40
0.1289394256
40
0.2552269787
40
0.3778356690
40
0.4961472378
40
0.6098996248
40
0.7192818507
40
0.8249559230
40
0.9280345409
40
1.0000000000
40
1.0000000000
40
1.0000000000
40
1.0000000000
10
-14.2630862341
20
21.6972900349
30
0.0000000000
10
-14.2676894281
20
21.6853063678
30
0.0000000000
10
-14.2782682845
20
21.6621161225
30
0.0000000000
10
-14.2981678520
20
21.6300716715
30
0.0000000000
10
-14.3215208247
20
21.6017884621
30
0.0000000000
10
-14.3477701141
20
21.5779735847
30
0.0000000000
10
-14.3763003196
20
21.5592180032
30
0.0000000000
10
-14.4064362500
20
21.5460073459
30
0.0000000000
10
-14.4374489325
20
21.5387060238
30
0.0000000000
10
-14.4655633910
20
21.5376546946
30
0.0000000000
10
-14.4829032605
20
21.5400031731
30
0.0000000000
10
-14.4899295223
20
21.5414694559
30
0.0000000000
11
-14.2630862341
21
21.6972900349
31
0.0000000000
11
-14.2791089657
21
21.6622693108
31
0.0000000000
11
-14.2990618941
21
21.6302587102
31
0.0000000000
11
-14.3224439053
21
21.6020737453
31
0.0000000000
11
-14.3486833978
21
21.5784043127
31
0.0000000000
11
-14.3771349017
21
21.5598334502
31
0.0000000000
11
-14.4071005081
21
21.5468167682
31
0.0000000000
11
-14.4378447259
21
21.5396738223
31
0.0000000000
11
-14.4686131553
21
21.5385798855
31
0.0000000000
11
-14.4899295223
21
21.5414694559
31
0.0000000000
0
SPLINE
5
3C8
100
AcDbEntity
8
0
100
AcDbSpline
62
0
6
CONTINUOUS
70
0
71
3
72
17
73
13
74
11
42
0.0000001000
43
0.0000001000
44
0.0000000001
12
-0.2294273874
22
-0.2745860184
32
0.0000000000
13
-0.3507545324
23
0.0730876322
33
0.0000000000
40
0.0000000000
40
0.0000000000
40
0.0000000000
40
0.0000000000
40
0.1021290578
40
0.2069692756
40
0.3135965558
40
0.4210071725
40
0.5281537764
40
0.6339835246
40
0.7374908139
40
0.8377935992
40
0.9342474805
40
1.0000000000
40
1.0000000000
40
1.0000000000
40
1.0000000000
10
-13.5538036112
20
21.5491911652
30
0.0000000000
10
-13.5616140122
20
21.5398434280
30
0.0000000000
10
-13.5783122723
20
21.5216102382
30
0.0000000000
10
-13.6059282572
20
21.4963162813
30
0.0000000000
10
-13.6361613281
20
21.4731569217
30
0.0000000000
10
-13.6685848001
20
21.4526542215
30
0.0000000000
10
-13.7027067142
20
21.4353186020
30
0.0000000000
10
-13.7379654412
20
21.4216472305
30
0.0000000000
10
-13.7737309247
20
21.4121162083
30
0.0000000000
10
-13.8093025755
20
21.4071702568
30
0.0000000000
10
-13.8407323153
20
21.4072171463
30
0.0000000000
10
-13.8599471663
20
21.4099288254
30
0.0000000000
10
-13.8676348310
20
21.4115307241
30
0.0000000000
11
-13.5538036112
21
21.5491911652
31
0.0000000000
11
-13.5784655690
21
21.5222239478
31
0.0000000000
11
-13.6061216574
21
21.4968777985
31
0.0000000000
11
-13.6364131506
21
21.4736808833
31
0.0000000000
11
-13.6689100185
21
21.4531603635
31
0.0000000000
11
-13.7031113936
21
21.4358354833
31
0.0000000000
11
-13.7384434851
21
21.4222112242
31
0.0000000000
11
-13.7742567292
21
21.4127697561
31
0.0000000000
11
-13.8098229852
21
21.4079582451
31
0.0000000000
11
-13.8443353555
21
21.4081712157
31
0.0000000000
11
-13.8676348310
21
21.4115307241
31
0.0000000000
0
SPLINE
5
3C9
100
AcDbEntity
8
0
100
AcDbSpline
62
9
6
CONTINUOUS
70
0
71
3
72
13
73
9
74
7
42
0.0000001000
43
0.0000001000
44
0.0000000001
12
0.0000000000
22
-0.1577052419
32
0.0000000000
13
0.1414334405
23
-0.0707430069
33
0.0000000000
40
0.0000000000
40
0.0000000000
40
0.0000000000
40
0.0000000000
40
0.1984713040
40
0.3837230347
40
0.5554551366
40
0.7150768613
40
0.8655112998
40
1.0000000000
40
1.0000000000
40
1.0000000000
40
1.0000000000
10
-14.6156081938
20
21.6978027588
30
0.0000000000
10
-14.6156081938
20
21.6873694371
30
0.0000000000
10
-14.6144227520
20
21.6671671085
30
0.0000000000
10
-14.6086892548
20
21.6384301313
30
0.0000000000
10
-14.5991349608
20
21.6128627685
30
0.0000000000
10
-14.5859074983
20
21.5910635669
30
0.0000000000
10
-14.5696296671
20
21.5740081010
30
0.0000000000
10
-14.5569752617
20
21.5657557527
30
0.0000000000
10
-14.5506348619
20
21.5625843744
30
0.0000000000
11
-14.6156081938
21
21.6978027588
31
0.0000000000
11
-14.6136394292
21
21.6665647727
31
0.0000000000
11
-14.6077640777
21
21.6379464858
31
0.0000000000
11
-14.5981134587
21
21.6126412038
31
0.0000000000
11
-14.5849023746
21
21.5912132692
31
0.0000000000
11
-14.5684265295
21
21.5741431515
31
0.0000000000
11
-14.5506348619
21
21.5625843744
31
0.0000000000
0
SPLINE
5
3CA
100
AcDbEntity
8
0
100
AcDbSpline
62
9
6
CONTINUOUS
70
0
71
3
72
13
73
9
74
7
42
0.0000001000
43
0.0000001000
44
0.0000000001
12
0.0000000000
22
-0.1577052419
32
0.0000000000
13
0.1414334405
23
-0.0707430069
33
0.0000000000
40
0.0000000000
40
0.0000000000
40
0.0000000000
40
0.0000000000
40
0.1984713040
40
0.3837230347
40
0.5554551366
40
0.7150768613
40
0.8655112998
40
1.0000000000
40
1.0000000000
40
1.0000000000
40
1.0000000000
10
-15.9405928736
20
22.3602950987
30
0.0000000000
10
-15.9405928736
20
22.3498617770
30
0.0000000000
10
-15.9394074319
20
22.3296594485
30
0.0000000000
10
-15.9336739346
20
22.3009224712
30
0.0000000000
10
-15.9241196406
20
22.2753551084
30
0.0000000000
10
-15.9108921782
20
22.2535559068
30
0.0000000000
10
-15.8946143470
20
22.2365004409
30
0.0000000000
10
-15.8819599416
20
22.2282480927
30
0.0000000000
10
-15.8756195417
20
22.2250767143
30
0.0000000000
11
-15.9405928736
21
22.3602950987
31
0.0000000000
11
-15.9386241091
21
22.3290571126
31
0.0000000000
11
-15.9327487576
21
22.3004388257
31
0.0000000000
11
-15.9230981385
21
22.2751335437
31
0.0000000000
11
-15.9098870545
21
22.2537056091
31
0.0000000000
11
-15.8934112094
21
22.2366354914
31
0.0000000000
11
-15.8756195417
21
22.2250767143
31
0.0000000000
0
SPLINE
5
3CB
100
AcDbEntity
8
0
100
AcDbSpline
62
0
6
CONTINUOUS
70
0
71
3
72
14
73
10
74
8
42
0.0000001000
43
0.0000001000
44
0.0000000001
12
2.8097613847
22
-1.9761901945
32
0.0000000000
13
0.4056178449
23
-3.4063522347
33
0.0000000000
40
0.0000000000
40
0.0000000000
40
0.0000000000
40
0.0000000000
40
0.0033010965
40
0.1610791799
40
0.3265967867
40
0.4968334814
40
0.6684327003
40
0.8379247332
40
1.0000000000
40
1.0000000000
40
1.0000000000
40
1.0000000000
10
19.4252444550
20
19.1640001766
30
0.0000000000
10
19.4283362194
20
19.1618256451
30
0.0000000000
10
19.5789976365
20
19.0554356472
30
0.0000000000
10
19.8643372609
20
18.8120749204
30
0.0000000000
10
20.2360125659
20
18.3849875408
30
0.0000000000
10
20.5560368530
20
17.8991818244
30
0.0000000000
10
20.8139890432
20
17.3727222880
30
0.0000000000
10
21.0000623802
20
16.8267068772
30
0.0000000000
10
21.0736329747
20
16.4532393734
30
0.0000000000
10
21.0955465148
20
16.2692108910
30
0.0000000000
11
19.4252444550
21
19.1640001766
31
0.0000000000
11
19.4345072462
21
19.1574592842
31
0.0000000000
11
19.8482904401
21
18.8085843996
31
0.0000000000
11
20.2224778634
21
18.3815513970
31
0.0000000000
11
20.5444700905
21
17.8943769858
31
0.0000000000
11
20.8034260195
21
17.3657557729
31
0.0000000000
11
20.9899893292
21
16.8150878629
31
0.0000000000
11
21.0955465148
21
16.2692108910
31
0.0000000000
0
SPLINE
5
3CC
100
AcDbEntity
8
0
100
AcDbSpline
62
0
6
CONTINUOUS
70
0
71
3
72
17
73
13
74
11
42
0.0000001000
43
0.0000001000
44
0.0000000001
12
-5.1745059933
22
-2.4834839930
32
0.0000000000
13
-3.3223513121
23
4.7027664214
33
0.0000000000
40
0.0000000000
40
0.0000000000
40
0.0000000000
40
0.0000000000
40
0.0989933629
40
0.2078934989
40
0.3235740109
40
0.4423378969
40
0.5602465604
40
0.6734300159
40
0.7783969604
40
0.8723951075
40
0.9538863062
40
1.0000000000
40
1.0000000000
40
1.0000000000
40
1.0000000000
10
14.0197912232
20
20.1600526270
30
0.0000000000
10
13.8490439734
20
20.0781031496
30
0.0000000000
10
13.4752525799
20
19.9371211038
30
0.0000000000
10
12.8712350554
20
19.7955858860
30
0.0000000000
10
12.2176270727
20
19.7180926784
30
0.0000000000
10
11.5424306201
20
19.7080969532
30
0.0000000000
10
10.8744039601
20
19.7660108340
30
0.0000000000
10
10.2420346007
20
19.8893131477
30
0.0000000000
10
9.6719691333
20
20.0727158474
30
0.0000000000
10
9.1875673264
20
20.3087184621
30
0.0000000000
10
8.8439934722
20
20.5623390725
30
0.0000000000
10
8.6807958081
20
20.7469378436
30
0.0000000000
10
8.6297271777
20
20.8192251539
30
0.0000000000
11
14.0197912232
21
20.1600526270
31
0.0000000000
11
13.4898259905
21
19.9551870279
31
0.0000000000
11
12.8819411247
21
19.8097313580
31
0.0000000000
11
12.2227775798
21
19.7300522504
31
0.0000000000
11
11.5411980425
21
19.7196287450
31
0.0000000000
11
10.8670486561
21
19.7789074247
31
0.0000000000
11
10.2298300627
21
19.9052846939
31
0.0000000000
11
9.6574234926
21
20.0932232728
31
0.0000000000
11
9.1748665425
21
20.3344979584
31
0.0000000000
11
8.8032720965
21
20.6185530817
31
0.0000000000
11
8.6297271777
21
20.8192251539
31
0.0000000000
0
SPLINE
5
3CD
100
AcDbEntity
8
0
100
AcDbSpline
62
0
6
CONTINUOUS
70
0
71
3
72
11
73
7
74
5
42
0.0000001000
43
0.0000001000
44
0.0000000001
12
-0.1972829907
22
-1.4667781808
32
0.0000000000
13
-1.2426230935
23
-0.8037181254
33
0.0000000000
40
0.0000000000
40
0.0000000000
40
0.0000000000
40
0.0000000000
40
0.2782870673
40
0.5375663993
40
0.7760465392
40
1.0000000000
40
1.0000000000
40
1.0000000000
40
1.0000000000
10
21.0951781290
20
15.4918072582
30
0.0000000000
10
21.0768776940
20
15.3557454588
30
0.0000000000
10
21.0206063500
20
15.0949566612
30
0.0000000000
10
20.8688638476
20
14.7405416848
30
0.0000000000
10
20.6586486036
20
14.4493945228
30
0.0000000000
10
20.4823734726
20
14.3002893558
30
0.0000000000
10
20.3896102252
20
14.2402908705
30
0.0000000000
11
21.0951781290
21
15.4918072582
31
0.0000000000
11
21.0055278007
21
15.0898319969
31
0.0000000000
11
20.8518666027
21
14.7382388836
31
0.0000000000
11
20.6433588031
21
14.4534931312
31
0.0000000000
11
20.3896102252
21
14.2402908705
31
0.0000000000
0
SPLINE
5
3CE
100
AcDbEntity
8
0
100
AcDbSpline
62
0
6
CONTINUOUS
70
0
71
3
72
9
73
5
74
3
42
0.0000001000
43
0.0000001000
44
0.0000000001
12
0.0805032316
22
-0.0400182778
32
0.0000000000
13
0.0440211412
23
-0.0774534332
33
0.0000000000
40
0.0000000000
40
0.0000000000
40
0.0000000000
40
0.0000000000
40
0.5776521227
40
1.0000000000
40
1.0000000000
40
1.0000000000
40
1.0000000000
10
18.7851653549
20
21.5082663206
30
0.0000000000
10
18.8006663091
20
21.5005607729
30
0.0000000000
10
18.8252745960
20
21.4835112400
30
0.0000000000
10
18.8426942271
20
21.4595977144
30
0.0000000000
10
18.8488916390
20
21.4486936167
30
0.0000000000
11
18.7851653549
21
21.5082663206
31
0.0000000000
11
18.8266976426
21
21.4785729845
31
0.0000000000
11
18.8488916390
21
21.4486936167
31
0.0000000000
0
SPLINE
5
3CF
100
AcDbEntity
8
0
100
AcDbSpline
62
0
6
CONTINUOUS
70
0
71
3
72
8
73
4
74
2
42
0.0000001000
43
0.0000001000
44
0.0000000001
12
-0.0127078930
22
0.0945252562
32
0.0000000000
13
-0.0000401484
23
0.0954891009
33
0.0000000000
40
0.0000000000
40
0.0000000000
40
0.0000000000
40
0.0000000000
40
1.0000000000
40
1.0000000000
40
1.0000000000
40
1.0000000000
10
8.9902420107
20
20.4601166278
30
0.0000000000
10
8.9860060463
20
20.4916250465
30
0.0000000000
10
8.9838765768
20
20.5234584399
30
0.0000000000
10
8.9838631940
20
20.5552881402
30
0.0000000000
11
8.9902420107
21
20.4601166278
31
0.0000000000
11
8.9838631940
21
20.5552881402
31
0.0000000000
0
SPLINE
5
3D0
100
AcDbEntity
8
0
100
AcDbSpline
62
0
6
CONTINUOUS
70
0
71
3
72
8
73
4
74
2
42
0.0000001000
43
0.0000001000
44
0.0000000001
12
0.0347701664
22
0.0886537224
32
0.0000000000
13
0.0447727398
23
0.0843081090
33
0.0000000000
40
0.0000000000
40
0.0000000000
40
0.0000000000
40
0.0000000000
40
1.0000000000
40
1.0000000000
40
1.0000000000
40
1.0000000000
10
9.0331317523
20
20.4283514171
30
0.0000000000
10
9.0447218078
20
20.4579026579
30
0.0000000000
10
9.0581291841
20
20.4867847508
30
0.0000000000
10
9.0730534307
20
20.5148874538
30
0.0000000000
11
9.0331317523
21
20.4283514171
31
0.0000000000
11
9.0730534307
21
20.5148874538
31
0.0000000000
0
SPLINE
5
3D1
100
AcDbEntity
8
0
100
AcDbSpline
62
0
6
CONTINUOUS
70
0
71
3
72
10
73
6
74
4
42
0.0000001000
43
0.0000001000
44
0.0000000001
12
0.4425582357
22
0.8333474372
32
0.0000000000
13
0.8378681910
23
0.4172763015
33
0.0000000000
40
0.0000000000
40
0.0000000000
40
0.0000000000
40
0.0000000000
40
0.1200370186
40
0.5237798663
40
1.0000000000
40
1.0000000000
40
1.0000000000
40
1.0000000000
10
9.0730534307
20
20.5148874538
30
0.0000000000
10
9.0907612211
20
20.5482316344
30
0.0000000000
10
9.1773469886
20
20.6889407451
30
0.0000000000
10
9.4020396188
20
20.9110028167
30
0.0000000000
10
9.6389365385
20
21.0539779849
30
0.0000000000
10
9.7719397724
20
21.1202164436
30
0.0000000000
11
9.0730534307
21
20.5148874538
31
0.0000000000
11
9.1320813280
21
20.6114441516
31
0.0000000000
11
9.3940015430
21
20.8838708542
31
0.0000000000
11
9.7719397724
21
21.1202164436
31
0.0000000000
0
SPLINE
5
3D2
100
AcDbEntity
8
0
100
AcDbSpline
62
0
6
CONTINUOUS
70
0
71
3
72
9
73
5
74
3
42
0.0000001000
43
0.0000001000
44
0.0000000001
12
0.0106663684
22
0.0090786330
32
0.0000000000
13
0.0127529169
23
0.0061391259
33
0.0000000000
40
0.0000000000
40
0.0000000000
40
0.0000000000
40
0.0000000000
40
0.2069259316
40
1.0000000000
40
1.0000000000
40
1.0000000000
40
1.0000000000
10
-5.0156539933
20
20.5859137600
30
0.0000000000
10
-5.0149182772
20
20.5865399615
30
0.0000000000
10
-5.0112820656
20
20.5894684256
30
0.0000000000
10
-5.0072524631
20
20.5918951839
30
0.0000000000
10
-5.0038811272
20
20.5935181111
30
0.0000000000
11
-5.0156539933
21
20.5859137600
31
0.0000000000
11
-5.0133965799
21
20.5877304296
31
0.0000000000
11
-5.0038811272
21
20.5935181111
31
0.0000000000
0
SPLINE
5
3D3
100
AcDbEntity
8
0
100
AcDbSpline
62
0
6
CONTINUOUS
70
0
71
3
72
8
73
4
74
2
42
0.0000001000
43
0.0000001000
44
0.0000000001
12
-0.0048558860
22
0.0023366752
32
0.0000000000
13
-0.0050374721
23
0.0019716051
33
0.0000000000
40
0.0000000000
40
0.0000000000
40
0.0000000000
40
0.0000000000
40
1.0000000000
40
1.0000000000
40
1.0000000000
40
1.0000000000
10
-3.6998247954
20
20.6627402567
30
0.0000000000
10
-3.7014434241
20
20.6635191485
30
0.0000000000
10
-3.7030953432
20
20.6642375172
30
0.0000000000
10
-3.7047745005
20
20.6648947189
30
0.0000000000
11
-3.6998247954
21
20.6627402567
31
0.0000000000
11
-3.7047745005
21
20.6648947189
31
0.0000000000
0
SPLINE
5
3D4
100
AcDbEntity
8
0
100
AcDbSpline
62
0
6
CONTINUOUS
70
0
71
3
72
9
73
5
74
3
42
0.0000001000
43
0.0000001000
44
0.0000000001
12
0.9054891150
22
0.4430665209
32
0.0000000000
13
0.9917138392
23
0.1835975831
33
0.0000000000
40
0.0000000000
40
0.0000000000
40
0.0000000000
40
0.0000000000
40
0.4756865472
40
1.0000000000
40
1.0000000000
40
1.0000000000
40
1.0000000000
10
10.4546499704
20
21.0185477861
30
0.0000000000
10
10.5982263006
20
21.0888013806
30
0.0000000000
10
10.9130413517
20
21.2104404080
30
0.0000000000
10
11.2403127856
20
21.2897831206
30
0.0000000000
10
11.4136357547
20
21.3218706815
30
0.0000000000
11
10.4546499704
21
21.0185477861
31
0.0000000000
11
10.9005514715
21
21.1949547660
31
0.0000000000
11
11.4136357547
21
21.3218706815
31
0.0000000000
0
SPLINE
5
3D5
100
AcDbEntity
8
0
100
AcDbSpline
62
0
6
CONTINUOUS
70
0
71
3
72
8
73
4
74
2
42
0.0000001000
43
0.0000001000
44
0.0000000001
12
0.0430919465
22
0.0079776816
32
0.0000000000
13
0.0431614237
23
0.0075872680
33
0.0000000000
40
0.0000000000
40
0.0000000000
40
0.0000000000
40
0.0000000000
40
1.0000000000
40
1.0000000000
40
1.0000000000
40
1.0000000000
10
11.4136357547
20
21.3218706815
30
0.0000000000
10
11.4279997369
20
21.3245299087
30
0.0000000000
10
11.4423756019
20
21.3271238003
30
0.0000000000
10
11.4567627431
20
21.3296528896
30
0.0000000000
11
11.4136357547
21
21.3218706815
31
0.0000000000
11
11.4567627431
21
21.3296528896
31
0.0000000000
0
SPLINE
5
3D6
100
AcDbEntity
8
0
100
AcDbSpline
62
0
6
CONTINUOUS
70
0
71
3
72
12
73
8
74
6
42
0.0000001000
43
0.0000001000
44
0.0000000001
12
2.6726183419
22
0.4698147097
32
0.0000000000
13
2.5172594171
23
-1.0100518358
33
0.0000000000
40
0.0000000000
40
0.0000000000
40
0.0000000000
40
0.0000000000
40
0.1891330471
40
0.4015031319
40
0.6106462864
40
0.8128917822
40
1.0000000000
40
1.0000000000
40
1.0000000000
40
1.0000000000
10
11.4567627431
20
21.3296528896
30
0.0000000000
10
11.6252562267
20
21.3592720521
30
0.0000000000
10
11.9862276597
20
21.4032812888
30
0.0000000000
10
12.5391498988
20
21.4151685111
30
0.0000000000
10
13.1023006121
20
21.3697554090
30
0.0000000000
10
13.6349812498
20
21.2689254538
30
0.0000000000
10
13.9717683296
20
21.1623633822
30
0.0000000000
10
14.1287683041
20
21.0993670493
30
0.0000000000
11
11.4567627431
21
21.3296528896
31
0.0000000000
11
11.9659084197
21
21.3927029567
31
0.0000000000
11
12.5417897025
21
21.4053583942
31
0.0000000000
11
13.1071667333
21
21.3590814973
31
0.0000000000
11
13.6458232566
21
21.2553216922
31
0.0000000000
11
14.1287683041
21
21.0993670493
31
0.0000000000
0
SPLINE
5
3D7
100
AcDbEntity
8
0
100
AcDbSpline
62
0
6
CONTINUOUS
70
0
71
3
72
9
73
5
74
3
42
0.0000001000
43
0.0000001000
44
0.0000000001
12
0.3939059375
22
-0.2455531162
32
0.0000000000
13
0.3140289600
23
-0.3446568510
33
0.0000000000
40
0.0000000000
40
0.0000000000
40
0.0000000000
40
0.0000000000
40
0.8454370983
40
1.0000000000
40
1.0000000000
40
1.0000000000
40
1.0000000000
10
14.5586886611
20
20.8844068707
30
0.0000000000
10
14.6696962254
20
20.8152069660
30
0.0000000000
10
14.7946066009
20
20.7216479993
30
0.0000000000
10
14.9025130101
20
20.6096881723
30
0.0000000000
10
14.9186920859
20
20.5919311180
30
0.0000000000
11
14.5586886611
21
20.8844068707
31
0.0000000000
11
14.8687501352
21
20.6438582529
31
0.0000000000
11
14.9186920859
21
20.5919311180
31
0.0000000000
0
SPLINE
5
3D8
100
AcDbEntity
8
0
100
AcDbSpline
62
0
6
CONTINUOUS
70
0
71
3
72
11
73
7
74
5
42
0.0000001000
43
0.0000001000
44
0.0000000001
12
0.3262280274
22
0.1565718709
32
0.0000000000
13
0.3238457816
23
-0.1636276983
33
0.0000000000
40
0.0000000000
40
0.0000000000
40
0.0000000000
40
0.0000000000
40
0.3587516005
40
0.6489332751
40
0.8693094087
40
1.0000000000
40
1.0000000000
40
1.0000000000
40
1.0000000000
10
17.5829736328
20
21.8701881432
30
0.0000000000
10
17.6219852418
20
21.8889116130
30
0.0000000000
10
17.6940695896
20
21.9198264553
30
0.0000000000
10
17.7954948299
20
21.9482872174
30
0.0000000000
10
17.8732171798
20
21.9541887544
30
0.0000000000
10
17.9157402457
20
21.9437753910
30
0.0000000000
10
17.9298481113
20
21.9366471908
30
0.0000000000
11
17.5829736328
21
21.8701881432
31
0.0000000000
11
17.7027954961
21
21.9201379849
31
0.0000000000
11
17.8043866316
21
21.9466908144
31
0.0000000000
11
17.8840765042
21
21.9496376309
31
0.0000000000
11
17.9298481113
21
21.9366471908
31
0.0000000000
0
SPLINE
5
3D9
100
AcDbEntity
8
0
100
AcDbSpline
62
0
6
CONTINUOUS
70
0
71
3
72
8
73
4
74
2
42
0.0000001000
43
0.0000001000
44
0.0000000001
12
0.0797475511
22
0.0421718187
32
0.0000000000
13
0.0733001715
23
0.0532622531
33
0.0000000000
40
0.0000000000
40
0.0000000000
40
0.0000000000
40
0.0000000000
40
1.0000000000
40
1.0000000000
40
1.0000000000
40
1.0000000000
10
18.4162753070
20
-12.0596514713
30
0.0000000000
10
18.4428578240
20
-12.0455941984
30
0.0000000000
10
18.4684270400
20
-12.0295117499
30
0.0000000000
10
18.4928604305
20
-12.0117576656
30
0.0000000000
11
18.4162753070
21
-12.0596514713
31
0.0000000000
11
18.4928604305
21
-12.0117576656
31
0.0000000000
0
SPLINE
5
3DA
100
AcDbEntity
8
0
100
AcDbSpline
62
0
6
CONTINUOUS
70
0
71
3
72
12
73
8
74
6
42
0.0000001000
43
0.0000001000
44
0.0000000001
12
-0.3358595244
22
0.6065084203
32
0.0000000000
13
-0.6209571294
23
0.3109334736
33
0.0000000000
40
0.0000000000
40
0.0000000000
40
0.0000000000
40
0.0000000000
40
0.2502428407
40
0.4926390483
40
0.7267158171
40
0.9517013437
40
1.0000000000
40
1.0000000000
40
1.0000000000
40
1.0000000000
10
13.9800714290
20
23.6601511170
30
0.0000000000
10
13.9520559485
20
23.7107425803
30
0.0000000000
10
13.8912910594
20
23.8073763317
30
0.0000000000
10
13.7850358348
20
23.9379954945
30
0.0000000000
10
13.6663102680
20
24.0491971727
30
0.0000000000
10
13.5689360417
20
24.1154822228
30
0.0000000000
10
13.5129628836
20
24.1449859628
30
0.0000000000
10
13.5029657520
20
24.1499918524
30
0.0000000000
11
13.9800714290
21
23.6601511170
31
0.0000000000
11
13.8874164581
21
23.8068287437
31
0.0000000000
11
13.7809779686
21
23.9368753568
31
0.0000000000
11
13.6620659983
21
24.0473104509
31
0.0000000000
11
13.5326375633
21
24.1343636690
31
0.0000000000
11
13.5029657520
21
24.1499918524
31
0.0000000000
0
SPLINE
5
3DB
100
AcDbEntity
8
0
100
AcDbSpline
62
0
6
CONTINUOUS
70
0
71
3
72
10
73
6
74
4
42
0.0000001000
43
0.0000001000
44
0.0000000001
12
0.0000000000
22
0.1676031565
32
0.0000000000
13
-0.0299150324
23
0.1649118216
33
0.0000000000
40
0.0000000000
40
0.0000000000
40
0.0000000000
40
0.0000000000
40
0.3435972797
40
0.6770404716
40
1.0000000000
40
1.0000000000
40
1.0000000000
40
1.0000000000
10
13.9943765370
20
23.4933592535
30
0.0000000000
10
13.9943765370
20
23.5125552497
30
0.0000000000
10
13.9933594717
20
23.5503900634
30
0.0000000000
10
13.9886345044
20
23.6060872989
30
0.0000000000
10
13.9832918772
20
23.6423978356
30
0.0000000000
10
13.9800714290
20
23.6601511170
30
0.0000000000
11
13.9943765370
21
23.4933592535
31
0.0000000000
11
13.9927822511
21
23.5509251695
31
0.0000000000
11
13.9880066430
21
23.6066068833
31
0.0000000000
11
13.9800714290
21
23.6601511170
31
0.0000000000
0
SPLINE
5
3DC
100
AcDbEntity
8
0
100
AcDbSpline
62
0
6
CONTINUOUS
70
0
71
3
72
10
73
6
74
4
42
0.0000001000
43
0.0000001000
44
0.0000000001
12
0.4675157425
22
0.2204791290
32
0.0000000000
13
0.4640495619
23
-0.2326489632
33
0.0000000000
40
0.0000000000
40
0.0000000000
40
0.0000000000
40
0.0000000000
40
0.4022292438
40
0.7975341686
40
1.0000000000
40
1.0000000000
40
1.0000000000
40
1.0000000000
10
4.7216097475
20
28.3008700859
30
0.0000000000
10
4.7842925821
20
28.3304311370
30
0.0000000000
10
4.9207962517
20
28.3671784832
30
0.0000000000
10
5.0955890367
20
28.3448215090
30
0.0000000000
10
5.1916062675
20
28.3057011452
30
0.0000000000
10
5.2229243276
20
28.2899999899
30
0.0000000000
11
4.7216097475
21
28.3008700859
31
0.0000000000
11
4.9227189274
21
28.3536151252
31
0.0000000000
11
5.1255923861
21
28.3292466978
31
0.0000000000
11
5.2229243276
21
28.2899999899
31
0.0000000000
0
SPLINE
5
3DD
100
AcDbEntity
8
0
100
AcDbSpline
62
0
6
CONTINUOUS
70
0
71
3
72
11
73
7
74
5
42
0.0000001000
43
0.0000001000
44
0.0000000001
12
-0.0005530099
22
1.3152806035
32
0.0000000000
13
1.1617158973
23
0.5910853428
33
0.0000000000
40
0.0000000000
40
0.0000000000
40
0.0000000000
40
0.0000000000
40
0.1128244776
40
0.3637915958
40
0.6561428388
40
1.0000000000
40
1.0000000000
40
1.0000000000
40
1.0000000000
10
8.9838631940
20
20.5552881402
30
0.0000000000
10
8.9838423964
20
20.6047534226
30
0.0000000000
10
9.0002538738
20
20.7642206734
30
0.0000000000
10
9.1263617589
20
21.0285406197
30
0.0000000000
10
9.4015688104
20
21.3052178310
30
0.0000000000
10
9.6387849956
20
21.4512885322
30
0.0000000000
10
9.7719397724
20
21.5190381749
30
0.0000000000
11
8.9838631940
21
20.5552881402
31
0.0000000000
11
8.9991685109
21
20.7024236678
31
0.0000000000
11
9.1320882920
21
21.0013230288
31
0.0000000000
11
9.3940083270
21
21.2781031200
31
0.0000000000
11
9.7719397724
21
21.5190381749
31
0.0000000000
0
SPLINE
5
3DE
100
AcDbEntity
8
0
100
AcDbSpline
62
9
6
CONTINUOUS
70
0
71
3
72
13
73
9
74
7
42
0.0000001000
43
0.0000001000
44
0.0000000001
12
2.6830837636
22
-2.0865554763
32
0.0000000000
13
0.3951198230
23
-3.3722527706
33
0.0000000000
40
0.0000000000
40
0.0000000000
40
0.0000000000
40
0.0000000000
40
0.1430654645
40
0.3111628389
40
0.4853210607
40
0.6611336422
40
0.8340938414
40
1.0000000000
40
1.0000000000
40
1.0000000000
40
1.0000000000
10
19.4256674095
20
19.0771073913
30
0.0000000000
10
19.5536196178
20
18.9776027152
30
0.0000000000
10
19.8154365255
20
18.7403402483
30
0.0000000000
10
20.1702379502
20
18.3188742794
30
0.0000000000
10
20.4879331051
20
17.8242470166
30
0.0000000000
10
20.7447519605
20
17.2893395724
30
0.0000000000
10
20.9304191893
20
16.7356857746
30
0.0000000000
10
21.0039389040
20
16.3577683162
30
0.0000000000
10
21.0257898414
20
16.1712758152
30
0.0000000000
11
19.4256674095
21
19.0771073913
31
0.0000000000
11
19.7871157534
21
18.7524596202
31
0.0000000000
11
20.1560785823
21
18.3170105736
31
0.0000000000
11
20.4763351011
21
17.8199201937
31
0.0000000000
11
20.7345986972
21
17.2817403232
31
0.0000000000
11
20.9202704218
21
16.7246092587
31
0.0000000000
11
21.0257898414
21
16.1712758152
31
0.0000000000
0
SPLINE
5
3DF
100
AcDbEntity
8
0
100
AcDbSpline
62
9
6
CONTINUOUS
70
0
71
3
72
9
73
5
74
3
42
0.0000001000
43
0.0000001000
44
0.0000000001
12
0.0834985162
22
0.0405909185
32
0.0000000000
13
0.0820757583
23
-0.0410378701
33
0.0000000000
40
0.0000000000
40
0.0000000000
40
0.0000000000
40
0.0000000000
40
0.3911568196
40
1.0000000000
40
1.0000000000
40
1.0000000000
40
1.0000000000
10
-4.9423333115
20
20.6243048787
30
0.0000000000
10
-4.9314463068
20
20.6295973502
30
0.0000000000
10
-4.9001307516
20
20.6367566282
30
0.0000000000
10
-4.8696067615
20
20.6270745501
30
0.0000000000
10
-4.8529496729
20
20.6187460076
30
0.0000000000
11
-4.9423333115
21
20.6243048787
31
0.0000000000
11
-4.9070688332
21
20.6326213619
31
0.0000000000
11
-4.8529496729
21
20.6187460076
31
0.0000000000
0
SPLINE
5
3E0
100
AcDbEntity
8
0
100
AcDbSpline
62
0
6
CONTINUOUS
70
0
71
3
72
9
73
5
74
3
42
0.0000001000
43
0.0000001000
44
0.0000000001
12
0.0445300804
22
0.0214363327
32
0.0000000000
13
0.0485110141
23
-0.0093721482
33
0.0000000000
40
0.0000000000
40
0.0000000000
40
0.0000000000
40
0.0000000000
40
0.6593616495
40
1.0000000000
40
1.0000000000
40
1.0000000000
40
1.0000000000
10
-5.0038811272
20
20.5935181111
30
0.0000000000
10
-4.9940939848
20
20.5982295430
30
0.0000000000
10
-4.9770066589
20
20.6015191475
30
0.0000000000
10
-4.9605603966
20
20.5997422443
30
0.0000000000
10
-4.9550521593
20
20.5986780732
30
0.0000000000
11
-5.0038811272
21
20.5935181111
31
0.0000000000
11
-4.9718392374
21
20.6003649174
31
0.0000000000
11
-4.9550521593
21
20.5986780732
31
0.0000000000
0
SPLINE
5
3E1
100
AcDbEntity
8
0
100
AcDbSpline
62
0
6
CONTINUOUS
70
0
71
3
72
8
73
4
74
2
42
0.0000001000
43
0.0000001000
44
0.0000000001
12
0.0180871120
22
-0.0034943630
32
0.0000000000
13
0.0173343632
23
-0.0062854896
33
0.0000000000
40
0.0000000000
40
0.0000000000
40
0.0000000000
40
0.0000000000
40
1.0000000000
40
1.0000000000
40
1.0000000000
40
1.0000000000
10
-4.9550521593
20
20.5986780732
30
0.0000000000
10
-4.9490231220
20
20.5975132856
30
0.0000000000
10
-4.9431066887
20
20.5957987306
30
0.0000000000
10
-4.9373285677
20
20.5937035674
30
0.0000000000
11
-4.9550521593
21
20.5986780732
31
0.0000000000
11
-4.9373285677
21
20.5937035674
31
0.0000000000
0
SPLINE
5
3E2
100
AcDbEntity
8
0
100
AcDbSpline
62
0
6
CONTINUOUS
70
0
71
3
72
8
73
4
74
2
42
0.0000001000
43
0.0000001000
44
0.0000000001
12
0.0188670856
22
-0.0068412591
32
0.0000000000
13
0.0177845228
23
-0.0088922614
33
0.0000000000
40
0.0000000000
40
0.0000000000
40
0.0000000000
40
0.0000000000
40
1.0000000000
40
1.0000000000
40
1.0000000000
40
1.0000000000
10
-4.9373285677
20
20.5937035674
30
0.0000000000
10
-4.9310395392
20
20.5914231477
30
0.0000000000
10
-4.9249143636
20
20.5886918366
30
0.0000000000
10
-4.9189861893
20
20.5857277494
30
0.0000000000
11
-4.9373285677
21
20.5937035674
31
0.0000000000
11
-4.9189861893
21
20.5857277494
31
0.0000000000
0
SPLINE
5
3E3
100
AcDbEntity
8
0
100
AcDbSpline
62
0
6
CONTINUOUS
70
0
71
3
72
9
73
5
74
3
42
0.0000001000
43
0.0000001000
44
0.0000000001
12
-0.0425425169
22
0.0166506220
32
0.0000000000
13
-0.0443678858
23
-0.0094687990
33
0.0000000000
40
0.0000000000
40
0.0000000000
40
0.0000000000
40
0.0000000000
40
0.6327635049
40
1.0000000000
40
1.0000000000
40
1.0000000000
40
1.0000000000
10
-3.7047745005
20
20.6648947189
30
0.0000000000
10
-3.7137476179
20
20.6684066875
30
0.0000000000
10
-3.7291577142
20
20.6711964459
30
0.0000000000
10
-3.7442038677
20
20.6693782344
30
0.0000000000
10
-3.7496350366
20
20.6682191382
30
0.0000000000
11
-3.7047745005
21
20.6648947189
31
0.0000000000
11
-3.7331037920
21
20.6700922187
31
0.0000000000
11
-3.7496350366
21
20.6682191382
31
0.0000000000
0
SPLINE
5
3E4
100
AcDbEntity
8
0
100
AcDbSpline
62
0
6
CONTINUOUS
70
0
71
3
72
8
73
4
74
2
42
0.0000001000
43
0.0000001000
44
0.0000000001
12
-0.0362442222
22
-0.0077350824
32
0.0000000000
13
-0.0319496368
23
-0.0180291141
33
0.0000000000
40
0.0000000000
40
0.0000000000
40
0.0000000000
40
0.0000000000
40
1.0000000000
40
1.0000000000
40
1.0000000000
40
1.0000000000
10
-3.7496350366
20
20.6682191382
30
0.0000000000
10
-3.7617164440
20
20.6656407774
30
0.0000000000
10
-3.7733310976
20
20.6606309508
30
0.0000000000
10
-3.7839809766
20
20.6546212461
30
0.0000000000
11
-3.7496350366
21
20.6682191382
31
0.0000000000
11
-3.7839809766
21
20.6546212461
31
0.0000000000
0
SPLINE
5
3E5
100
AcDbEntity
8
0
100
AcDbSpline
62
9
6
CONTINUOUS
70
0
71
3
72
15
73
11
74
9
42
0.0000001000
43
0.0000001000
44
0.0000000001
12
-0.0004838748
22
-0.9471491821
32
0.0000000000
13
-0.9303146154
23
-0.1765262808
33
0.0000000000
40
0.0000000000
40
0.0000000000
40
0.0000000000
40
0.0000000000
40
0.1597705046
40
0.3389246713
40
0.4945224996
40
0.6315687447
40
0.7529212461
40
0.8551658971
40
0.9357247660
40
1.0000000000
40
1.0000000000
40
1.0000000000
40
1.0000000000
10
19.4250645105
20
16.7322265915
30
0.0000000000
10
19.4250387408
20
16.6817844239
30
0.0000000000
10
19.4219397776
20
16.5747848887
30
0.0000000000
10
19.4075295420
20
16.4192280345
30
0.0000000000
10
19.3829473874
20
16.2722069256
30
0.0000000000
10
19.3507043201
20
16.1453870132
30
0.0000000000
10
19.3108151567
20
16.0384427549
30
0.0000000000
10
19.2630938599
20
15.9544415769
30
0.0000000000
10
19.2076585396
20
15.8976525350
30
0.0000000000
10
19.1643349233
20
15.8789740568
30
0.0000000000
10
19.1444028601
20
15.8751919675
30
0.0000000000
11
19.4250645105
21
16.7322265915
31
0.0000000000
11
19.4206109704
21
16.5809904775
31
0.0000000000
11
19.4046413722
21
16.4121001545
31
0.0000000000
11
19.3798480462
21
16.2668633694
31
0.0000000000
11
19.3471035790
21
16.1412913688
31
0.0000000000
11
19.3056528732
21
16.0341174675
31
0.0000000000
11
19.2558332711
21
15.9511022585
31
0.0000000000
11
19.2006551194
21
15.8984299840
31
0.0000000000
11
19.1444028601
21
15.8751919675
31
0.0000000000
0
SPLINE
5
3E6
100
AcDbEntity
8
0
100
AcDbSpline
62
0
6
CONTINUOUS
70
0
71
3
72
11
73
7
74
5
42
0.0000001000
43
0.0000001000
44
0.0000000001
12
-0.4852019859
22
0.2429564486
32
0.0000000000
13
-0.4888892684
23
-0.2333475648
33
0.0000000000
40
0.0000000000
40
0.0000000000
40
0.0000000000
40
0.0000000000
40
0.2151496444
40
0.4815741433
40
0.7413841525
40
1.0000000000
40
1.0000000000
40
1.0000000000
40
1.0000000000
10
13.5029657520
20
24.1499918524
30
0.0000000000
10
13.4681687404
20
24.1674158503
30
0.0000000000
10
13.3874409240
20
24.2007641959
30
0.0000000000
10
13.2550945330
20
24.2278217116
30
0.0000000000
10
13.1119804259
20
24.2213416944
30
0.0000000000
10
13.0216774616
20
24.1920244403
30
0.0000000000
10
12.9795326241
20
24.1719086476
30
0.0000000000
11
13.5029657520
21
24.1499918524
31
0.0000000000
11
13.3949905569
21
24.1940652642
31
0.0000000000
11
13.2533967221
21
24.2220266230
31
0.0000000000
11
13.1128249964
21
24.2150437320
31
0.0000000000
11
12.9795326241
21
24.1719086476
31
0.0000000000
0
SPLINE
5
3E7
100
AcDbEntity
8
0
100
AcDbSpline
62
9
6
CONTINUOUS
70
0
71
3
72
16
73
12
74
10
42
0.0000001000
43
0.0000001000
44
0.0000000001
12
0.9802047426
22
0.4901152703
32
0.0000000000
13
1.0203687440
23
-0.3998273901
33
0.0000000000
40
0.0000000000
40
0.0000000000
40
0.0000000000
40
0.0000000000
40
0.1065851681
40
0.2322188005
40
0.3685398708
40
0.5049439376
40
0.6315095828
40
0.7436505269
40
0.8416552080
40
0.9265683540
40
1.0000000000
40
1.0000000000
40
1.0000000000
40
1.0000000000
10
-4.8529496729
20
20.6187460076
30
0.0000000000
10
-4.8181245772
20
20.6361590138
30
0.0000000000
10
-4.7395209799
20
20.6687414104
30
0.0000000000
10
-4.6097190261
20
20.7054583726
30
0.0000000000
10
-4.4660152389
20
20.7299899874
30
0.0000000000
10
-4.3203202751
20
20.7404998365
30
0.0000000000
10
-4.1831422444
20
20.7381798806
30
0.0000000000
10
-4.0606181083
20
20.7259561202
30
0.0000000000
10
-3.9544260533
20
20.7068633566
30
0.0000000000
10
-3.8637168154
20
20.6832537816
30
0.0000000000
10
-3.8089568245
20
20.6644079385
30
0.0000000000
10
-3.7839810390
20
20.6546212773
30
0.0000000000
11
-4.8529496729
21
20.6187460076
31
0.0000000000
11
-4.7452976505
21
20.6640785873
31
0.0000000000
11
-4.6129690220
21
20.7021011509
31
0.0000000000
11
-4.4657627562
21
20.7275822386
31
0.0000000000
11
-4.3166726677
21
20.7384588769
31
0.0000000000
11
-4.1779889481
21
20.7360694971
31
0.0000000000
11
-4.0557125178
21
20.7237431091
31
0.0000000000
11
-3.9500321507
21
20.7045779470
31
0.0000000000
11
-3.8600193866
21
20.6809706049
31
0.0000000000
11
-3.7839810390
21
20.6546212773
31
0.0000000000
0
SPLINE
5
3E8
100
AcDbEntity
8
0
100
AcDbSpline
62
0
6
CONTINUOUS
70
0
71
3
72
9
73
5
74
3
42
0.0000001000
43
0.0000001000
44
0.0000000001
12
0.1017925988
22
0.0597500795
32
0.0000000000
13
0.0019321412
23
0.1172050621
33
0.0000000000
40
0.0000000000
40
0.0000000000
40
0.0000000000
40
0.0000000000
40
0.6048398563
40
1.0000000000
40
1.0000000000
40
1.0000000000
40
1.0000000000
10
21.0257898414
20
16.1712758152
30
0.0000000000
10
21.0463125816
20
16.1833222250
30
0.0000000000
10
21.0792619432
20
16.2066619496
30
0.0000000000
10
21.0956526709
20
16.2465159094
30
0.0000000000
10
21.0959071726
20
16.2619541658
30
0.0000000000
11
21.0257898414
21
16.1712758152
31
0.0000000000
11
21.0801130901
21
16.2175972397
31
0.0000000000
11
21.0959071726
21
16.2619541658
31
0.0000000000
0
SPLINE
5
3E9
100
AcDbEntity
8
0
100
AcDbSpline
62
0
6
CONTINUOUS
70
0
71
3
72
9
73
5
74
3
42
0.0000001000
43
0.0000001000
44
0.0000000001
12
0.0993653308
22
0.0600936649
32
0.0000000000
13
0.0171131586
23
0.1164304519
33
0.0000000000
40
0.0000000000
40
0.0000000000
40
0.0000000000
40
0.0000000000
40
0.6372717166
40
1.0000000000
40
1.0000000000
40
1.0000000000
40
1.0000000000
10
21.0257898414
20
15.4015824955
30
0.0000000000
10
21.0468974130
20
15.4143478265
30
0.0000000000
10
21.0783848107
20
15.4397117637
30
0.0000000000
10
21.0928416265
20
15.4777812825
30
0.0000000000
10
21.0949107687
20
15.4918588218
30
0.0000000000
11
21.0257898414
21
15.4015824955
31
0.0000000000
11
21.0801130901
21
15.4518351964
31
0.0000000000
11
21.0949107687
21
15.4918588218
31
0.0000000000
0
SPLINE
5
3EA
100
AcDbEntity
8
0
100
AcDbSpline
62
9
6
CONTINUOUS
70
0
71
3
72
11
73
7
74
5
42
0.0000001000
43
0.0000001000
44
0.0000000001
12
-0.1792509079
22
-1.3506125296
32
0.0000000000
13
-1.1501220707
23
-0.7422907232
33
0.0000000000
40
0.0000000000
40
0.0000000000
40
0.0000000000
40
0.0000000000
40
0.3376838368
40
0.6424825920
40
0.9220154394
40
1.0000000000
40
1.0000000000
40
1.0000000000
40
1.0000000000
10
21.0257898414
20
15.4015824955
30
0.0000000000
10
21.0056131299
20
15.2495558218
30
0.0000000000
10
20.9412438597
20
14.9624920148
30
0.0000000000
10
20.7570268468
20
14.5815375644
30
0.0000000000
10
20.5523007874
20
14.3545945246
30
0.0000000000
10
20.4194480163
20
14.2596787435
30
0.0000000000
10
20.3895507616
20
14.2403830049
30
0.0000000000
11
21.0257898414
21
15.4015824955
31
0.0000000000
11
20.9202700063
21
14.9537673024
31
0.0000000000
11
20.7345999890
21
14.5823110273
31
0.0000000000
11
20.4763428132
21
14.3023989461
31
0.0000000000
11
20.3895507616
21
14.2403830049
31
0.0000000000
0
SPLINE
5
3EB
100
AcDbEntity
8
0
100
AcDbSpline
62
0
6
CONTINUOUS
70
0
71
3
72
10
73
6
74
4
42
0.0000001000
43
0.0000001000
44
0.0000000001
12
0.0688353095
22
-0.0346078612
32
0.0000000000
13
0.0688561728
23
-0.0345663327
33
0.0000000000
40
0.0000000000
40
0.0000000000
40
0.0000000000
40
0.0000000000
40
0.3366399695
40
0.6699724299
40
1.0000000000
40
1.0000000000
40
1.0000000000
40
1.0000000000
10
14.1287683041
20
21.0993670493
30
0.0000000000
10
14.1364925429
20
21.0954835861
30
0.0000000000
10
14.1518658831
20
21.0877563141
30
0.0000000000
10
14.1748144091
20
21.0762271707
30
0.0000000000
10
14.1900390942
20
21.0685822841
30
0.0000000000
10
14.1976139060
20
21.0647796698
30
0.0000000000
11
14.1287683041
21
21.0993670493
31
0.0000000000
11
14.1519421666
21
21.0877189398
31
0.0000000000
11
14.1748906429
21
21.0761898474
31
0.0000000000
11
14.1976139060
21
21.0647796698
31
0.0000000000
0
SPLINE
5
3EC
100
AcDbEntity
8
0
100
AcDbSpline
62
0
6
CONTINUOUS
70
0
71
3
72
17
73
13
74
11
42
0.0000001000
43
0.0000001000
44
0.0000000001
12
4.5899663101
22
2.2459247388
32
0.0000000000
13
1.6141943122
23
-4.8728460310
33
0.0000000000
40
0.0000000000
40
0.0000000000
40
0.0000000000
40
0.0000000000
40
0.1014114781
40
0.2132344602
40
0.3317625723
40
0.4526419610
40
0.5713092592
40
0.6833980556
40
0.7851760625
40
0.8740748660
40
0.9494603387
40
1.0000000000
40
1.0000000000
40
1.0000000000
40
1.0000000000
10
10.4546499704
20
21.4602207420
30
0.0000000000
10
10.6098083930
20
21.5361415912
30
0.0000000000
10
10.9511722725
20
21.6654217753
30
0.0000000000
10
11.5034833072
20
21.7911427384
30
0.0000000000
10
12.0997823907
20
21.8539663102
30
0.0000000000
10
12.7108974360
20
21.8506724426
30
0.0000000000
10
13.3071306600
20
21.7814531290
30
0.0000000000
10
13.8595603228
20
21.6497219272
30
0.0000000000
10
14.3419447855
20
21.4618362088
30
0.0000000000
10
14.7322800893
20
21.2258597712
30
0.0000000000
10
14.9966202746
20
20.9663947064
30
0.0000000000
10
15.1000430548
20
20.7734029926
30
0.0000000000
10
15.1272366660
20
20.6913123300
30
0.0000000000
11
10.4546499704
21
21.4602207420
31
0.0000000000
11
10.9375862004
21
21.6481451974
31
0.0000000000
11
11.4941102244
21
21.7777406131
31
0.0000000000
11
12.0963143058
21
21.8425096587
31
0.0000000000
11
12.7139975932
21
21.8392058034
31
0.0000000000
11
13.3161902938
21
21.7679962166
31
0.0000000000
11
13.8726939059
21
21.6324534275
31
0.0000000000
11
14.3556099291
21
21.4393736481
31
0.0000000000
11
14.7407241642
21
21.1984382983
31
0.0000000000
11
15.0087261837
21
20.9217282717
31
0.0000000000
11
15.1272366660
21
20.6913123300
31
0.0000000000
0
SPLINE
5
3ED
100
AcDbEntity
8
0
100
AcDbSpline
62
0
6
CONTINUOUS
70
0
71
3
72
10
73
6
74
4
42
0.0000001000
43
0.0000001000
44
0.0000000001
12
-0.1427014240
22
-0.0384475772
32
0.0000000000
13
-0.1316907136
23
0.0670780782
33
0.0000000000
40
0.0000000000
40
0.0000000000
40
0.0000000000
40
0.0000000000
40
0.3629298368
40
0.6918616620
40
1.0000000000
40
1.0000000000
40
1.0000000000
40
1.0000000000
10
19.2886737152
20
15.8644158738
30
0.0000000000
10
19.2714101804
20
15.8597646162
30
0.0000000000
10
19.2375156533
20
15.8539140476
30
0.0000000000
10
19.1878221584
20
15.8574125835
30
0.0000000000
10
19.1579291793
20
15.8683063300
30
0.0000000000
10
19.1444028601
20
15.8751961059
30
0.0000000000
11
19.2886737152
21
15.8644158738
31
0.0000000000
11
19.2357162086
21
15.8559025320
31
0.0000000000
11
19.1872594519
21
15.8597952798
31
0.0000000000
11
19.1444028601
21
15.8751961059
31
0.0000000000
0
SPLINE
5
3EE
100
AcDbEntity
8
0
100
AcDbSpline
62
9
6
CONTINUOUS
70
0
71
3
72
17
73
13
74
11
42
0.0000001000
43
0.0000001000
44
0.0000000001
12
0.5106511167
22
-1.5135318677
32
0.0000000000
13
-1.0730780427
23
-1.1820185755
33
0.0000000000
40
0.0000000000
40
0.0000000000
40
0.0000000000
40
0.0000000000
40
0.0281573111
40
0.1607578197
40
0.2987142601
40
0.4348980290
40
0.5589127074
40
0.6679101762
40
0.7639654363
40
0.8504241823
40
0.9296471852
40
1.0000000000
40
1.0000000000
40
1.0000000000
40
1.0000000000
10
19.4253368057
20
17.4015686506
30
0.0000000000
10
19.4301296598
20
17.3873629880
30
0.0000000000
10
19.4564851901
20
17.3059188584
30
0.0000000000
10
19.4948825934
20
17.1513386161
30
0.0000000000
10
19.5244436047
20
16.9365195952
30
0.0000000000
10
19.5320886481
20
16.7244378866
30
0.0000000000
10
19.5208299064
20
16.5280266792
30
0.0000000000
10
19.4955304669
20
16.3545316154
30
0.0000000000
10
19.4598105066
20
16.2033594236
30
0.0000000000
10
19.4147186098
20
16.0712989565
30
0.0000000000
10
19.3602658399
20
15.9577316041
30
0.0000000000
10
19.3139865548
20
15.8921732557
30
0.0000000000
10
19.2888218678
20
15.8644538111
30
0.0000000000
11
19.4253368057
21
17.4015686506
31
0.0000000000
11
19.4391875879
21
17.3587789674
31
0.0000000000
11
19.4905636219
21
17.1534173319
31
0.0000000000
11
19.5208598656
21
16.9352699824
31
0.0000000000
11
19.5287801206
21
16.7180032163
31
0.0000000000
11
19.5173102473
21
16.5203520486
31
0.0000000000
11
19.4918904675
21
16.3482093456
31
0.0000000000
11
19.4561198175
21
16.1990919400
31
0.0000000000
11
19.4108363375
21
16.0687041902
31
0.0000000000
11
19.3549169874
21
15.9552618333
31
0.0000000000
11
19.2888218678
21
15.8644538111
31
0.0000000000
0
SPLINE
5
3EF
100
AcDbEntity
8
0
100
AcDbSpline
62
0
6
CONTINUOUS
70
0
71
3
72
10
73
6
74
4
42
0.0000001000
43
0.0000001000
44
0.0000000001
12
0.3128288885
22
-0.1337260017
32
0.0000000000
13
0.2936766765
23
-0.1717514678
33
0.0000000000
40
0.0000000000
40
0.0000000000
40
0.0000000000
40
0.0000000000
40
0.3436742333
40
0.6771155609
40
1.0000000000
40
1.0000000000
40
1.0000000000
40
1.0000000000
10
14.1976139060
20
21.0647796698
30
0.0000000000
10
14.2334509822
20
21.0494602761
30
0.0000000000
10
14.3035016059
20
21.0179503935
30
0.0000000000
10
14.4049924272
20
20.9672873193
30
0.0000000000
10
14.4701254137
20
20.9312052700
30
0.0000000000
10
14.5017332900
20
20.9127199778
30
0.0000000000
11
14.1976139060
21
21.0647796698
31
0.0000000000
11
14.3042177205
21
21.0167542039
31
0.0000000000
11
14.4056823581
21
20.9660218851
31
0.0000000000
11
14.5017332900
21
20.9127199778
31
0.0000000000
0
SPLINE
5
3F0
100
AcDbEntity
8
0
100
AcDbSpline
62
0
6
CONTINUOUS
70
0
71
3
72
10
73
6
74
4
42
0.0000001000
43
0.0000001000
44
0.0000000001
12
-0.0569681475
22
0.0282873954
32
0.0000000000
13
-0.0569430832
23
0.0283378166
33
0.0000000000
40
0.0000000000
40
0.0000000000
40
0.0000000000
40
0.0000000000
40
0.3292255450
40
0.6625645537
40
1.0000000000
40
1.0000000000
40
1.0000000000
40
1.0000000000
10
14.5586886611
20
20.8844068707
30
0.0000000000
10
14.5524368713
20
20.8875111818
30
0.0000000000
10
14.5398561458
20
20.8937605364
30
0.0000000000
10
14.5208710421
20
20.9031982811
30
0.0000000000
10
14.5081381615
20
20.9095325832
30
0.0000000000
10
14.5017332900
20
20.9127199778
30
0.0000000000
11
14.5586886611
21
20.8844068707
31
0.0000000000
11
14.5399347134
21
20.8937226664
31
0.0000000000
11
14.5209492683
21
20.9031605347
31
0.0000000000
11
14.5017332900
21
20.9127199778
31
0.0000000000
0
SPLINE
5
3F1
100
AcDbEntity
8
0
100
AcDbSpline
62
9
6
CONTINUOUS
70
0
71
3
72
16
73
12
74
10
42
0.0000001000
43
0.0000001000
44
0.0000000001
12
0.5110188232
22
0.1854871851
32
0.0000000000
13
-0.4480543492
23
-0.3092310790
33
0.0000000000
40
0.0000000000
40
0.0000000000
40
0.0000000000
40
0.0000000000
40
0.1387277394
40
0.2514431064
40
0.3481568259
40
0.4395521704
40
0.5322819928
40
0.6337702645
40
0.7600392496
40
0.9306796276
40
1.0000000000
40
1.0000000000
40
1.0000000000
40
1.0000000000
10
19.2894572981
20
13.9091547883
30
0.0000000000
10
19.3130881268
20
13.9177321942
30
0.0000000000
10
19.3582431903
20
13.9280475692
30
0.0000000000
10
19.4222609862
20
13.9225247729
30
0.0000000000
10
19.4725576809
20
13.8986798694
30
0.0000000000
10
19.5089047366
20
13.8615500400
30
0.0000000000
10
19.5298427442
20
13.8128174622
30
0.0000000000
10
19.5298485310
20
13.7530550995
30
0.0000000000
10
19.4993375681
20
13.6854823745
30
0.0000000000
10
19.4517365834
20
13.6377767559
30
0.0000000000
10
19.4167725250
20
13.6117477608
30
0.0000000000
10
19.4064194269
20
13.6046024229
30
0.0000000000
11
19.2894572981
21
13.9091547883
31
0.0000000000
11
19.3632431483
21
13.9247605542
31
0.0000000000
11
19.4241914302
21
13.9184247226
31
0.0000000000
11
19.4715686656
21
13.8956256557
31
0.0000000000
11
19.5061863185
21
13.8599837725
31
0.0000000000
11
19.5259557899
21
13.8136101533
31
0.0000000000
11
19.5263838989
21
13.7584386105
31
0.0000000000
11
19.4998686208
21
13.6951213235
31
0.0000000000
11
19.4366584753
21
13.6272227290
31
0.0000000000
11
19.4064194269
21
13.6046024229
31
0.0000000000
0
SPLINE
5
3F2
100
AcDbEntity
8
0
100
AcDbSpline
62
0
6
CONTINUOUS
70
0
71
3
72
10
73
6
74
4
42
0.0000001000
43
0.0000001000
44
0.0000000001
12
0.1184263218
22
0.1824556407
32
0.0000000000
13
0.1726214877
23
0.1323505818
33
0.0000000000
40
0.0000000000
40
0.0000000000
40
0.0000000000
40
0.0000000000
40
0.3396114372
40
0.6748972628
40
1.0000000000
40
1.0000000000
40
1.0000000000
40
1.0000000000
10
19.1444028601
20
13.7483556431
30
0.0000000000
10
19.1578091712
20
13.7690103172
30
0.0000000000
10
19.1861695464
20
13.8090065177
30
0.0000000000
10
19.2346366912
20
13.8631460288
30
0.0000000000
10
19.2707507254
20
13.8948122762
30
0.0000000000
10
19.2894572981
20
13.9091547883
30
0.0000000000
11
19.1444028601
21
13.7483556431
31
0.0000000000
11
19.1874527930
21
13.8083873509
31
0.0000000000
11
19.2361888658
21
13.8626438672
31
0.0000000000
11
19.2894572981
21
13.9091547883
31
0.0000000000
0
SPLINE
5
3F3
100
AcDbEntity
8
0
100
AcDbSpline
62
9
6
CONTINUOUS
70
0
71
3
72
14
73
10
74
8
42
0.0000001000
43
0.0000001000
44
0.0000000001
12
0.3313413263
22
0.2801643173
32
0.0000000000
13
0.0177896522
23
-0.4343792717
33
0.0000000000
40
0.0000000000
40
0.0000000000
40
0.0000000000
40
0.0000000000
40
0.1932143504
40
0.3479655584
40
0.4785999006
40
0.6113143176
40
0.7614374664
40
0.9360257860
40
1.0000000000
40
1.0000000000
40
1.0000000000
40
1.0000000000
10
19.1444028601
20
13.7483810859
30
0.0000000000
10
19.1657428265
20
13.7664250081
30
0.0000000000
10
19.2065710036
20
13.7962622353
30
0.0000000000
10
19.2746091042
20
13.8191836745
30
0.0000000000
10
19.3365193923
20
13.8034009109
30
0.0000000000
10
19.3800763652
20
13.7597037284
30
0.0000000000
10
19.4096197929
20
13.6997334827
30
0.0000000000
10
19.4217110118
20
13.6443229394
30
0.0000000000
10
19.4243612177
20
13.6098298313
30
0.0000000000
10
19.4247405774
20
13.6005668072
30
0.0000000000
11
19.1444028601
21
13.7483810859
31
0.0000000000
11
19.2137475954
21
13.7954990583
31
0.0000000000
11
19.2785338959
21
13.8131521495
31
0.0000000000
11
19.3334423704
21
13.7990771720
31
0.0000000000
11
19.3757043208
21
13.7599605564
31
0.0000000000
11
19.4057160804
21
13.7021459110
31
0.0000000000
11
19.4225967362
21
13.6282947458
31
0.0000000000
11
19.4247405774
21
13.6005668072
31
0.0000000000
0
SPLINE
5
3F4
100
AcDbEntity
8
0
100
AcDbSpline
62
9
6
CONTINUOUS
70
0
71
3
72
8
73
4
74
2
42
0.0000001000
43
0.0000001000
44
0.0000000001
12
0.0006089547
22
-0.0148691664
32
0.0000000000
13
0.0000451894
23
-0.0148818414
33
0.0000000000
40
0.0000000000
40
0.0000000000
40
0.0000000000
40
0.0000000000
40
1.0000000000
40
1.0000000000
40
1.0000000000
40
1.0000000000
10
19.4247405774
20
13.6005668072
30
0.0000000000
10
19.4249435623
20
13.5956104184
30
0.0000000000
10
19.4250516855
20
13.5906502600
30
0.0000000000
10
19.4250667486
20
13.5856896462
30
0.0000000000
11
19.4247405774
21
13.6005668072
31
0.0000000000
11
19.4250667486
21
13.5856896462
31
0.0000000000
0
SPLINE
5
3F5
100
AcDbEntity
8
0
100
AcDbSpline
62
9
6
CONTINUOUS
70
0
71
3
72
10
73
6
74
4
42
0.0000001000
43
0.0000001000
44
0.0000000001
12
0.3379182741
22
0.1680100621
32
0.0000000000
13
0.2064570199
23
-0.1231720741
33
0.0000000000
40
0.0000000000
40
0.0000000000
40
0.0000000000
40
0.0000000000
40
0.5528431638
40
0.8966842034
40
1.0000000000
40
1.0000000000
40
1.0000000000
40
1.0000000000
10
18.7302523844
20
20.9120069521
30
0.0000000000
10
18.7925243204
20
20.9429680235
30
0.0000000000
10
18.9035979034
20
20.9873719242
30
0.0000000000
10
18.9972549992
20
21.0450344397
30
0.0000000000
10
19.0750043788
20
21.0477025886
30
0.0000000000
10
19.0821144692
20
21.0434607149
30
0.0000000000
11
18.7302523844
21
20.9120069521
31
0.0000000000
11
18.9191887100
21
21.0004970781
31
0.0000000000
11
19.0409912114
21
21.0452356005
31
0.0000000000
11
19.0821144692
21
21.0434607149
31
0.0000000000
0
SPLINE
5
3F6
100
AcDbEntity
8
0
100
AcDbSpline
62
0
6
CONTINUOUS
70
0
71
3
72
10
73
6
74
4
42
0.0000001000
43
0.0000001000
44
0.0000000001
12
0.3438955784
22
0.1670469634
32
0.0000000000
13
0.3487847238
23
-0.1733814122
33
0.0000000000
40
0.0000000000
40
0.0000000000
40
0.0000000000
40
0.0000000000
40
0.4928988897
40
0.8577287441
40
1.0000000000
40
1.0000000000
40
1.0000000000
40
1.0000000000
10
18.4162753070
20
21.4535373062
30
0.0000000000
10
18.4727772232
20
21.4809830604
30
0.0000000000
10
18.5750866299
20
21.5210845294
30
0.0000000000
10
18.7044493538
20
21.5370980065
30
0.0000000000
10
18.7686246747
20
21.5164887177
30
0.0000000000
10
18.7851653549
20
21.5082663206
30
0.0000000000
11
18.4162753070
21
21.4535373062
31
0.0000000000
11
18.5932186948
21
21.5183652415
31
0.0000000000
11
18.7325027408
21
21.5257915205
31
0.0000000000
11
18.7851653549
21
21.5082663206
31
0.0000000000
0
SPLINE
5
3F7
100
AcDbEntity
8
0
100
AcDbSpline
62
9
6
CONTINUOUS
70
0
71
3
72
10
73
6
74
4
42
0.0000001000
43
0.0000001000
44
0.0000000001
12
0.4129960644
22
0.2138349615
32
0.0000000000
13
-0.0004675496
23
0.4732063061
33
0.0000000000
40
0.0000000000
40
0.0000000000
40
0.0000000000
40
0.0000000000
40
0.4694993439
40
0.8436933517
40
1.0000000000
40
1.0000000000
40
1.0000000000
40
1.0000000000
10
19.1444028601
20
19.4803733774
30
0.0000000000
10
19.2090366538
20
19.5138385021
30
0.0000000000
10
19.3196603487
20
19.5866473149
30
0.0000000000
10
19.4131371051
20
19.7191749215
30
0.0000000000
10
19.4241989760
20
19.8027689905
30
0.0000000000
10
19.4241746156
20
19.8274240877
30
0.0000000000
11
19.1444028601
21
19.4803733774
31
0.0000000000
11
19.3223221000
21
19.6069503140
31
0.0000000000
11
19.4143357552
21
19.7546622721
31
0.0000000000
11
19.4241746156
21
19.8274240877
31
0.0000000000
0
SPLINE
5
3F8
100
AcDbEntity
8
0
100
AcDbSpline
62
9
6
CONTINUOUS
70
0
71
3
72
11
73
7
74
5
42
0.0000001000
43
0.0000001000
44
0.0000000001
12
0.0042604951
22
1.5061461745
32
0.0000000000
13
-0.7590731809
23
1.3008852205
33
0.0000000000
40
0.0000000000
40
0.0000000000
40
0.0000000000
40
0.0000000000
40
0.2342640028
40
0.4825180982
40
0.7397109404
40
1.0000000000
40
1.0000000000
40
1.0000000000
40
1.0000000000
10
19.1444028601
20
19.4803733774
30
0.0000000000
10
19.1447355536
20
19.5979853213
30
0.0000000000
10
19.1252893228
20
19.8405418301
30
0.0000000000
10
19.0442511371
20
20.2039994275
30
0.0000000000
10
18.9135033928
20
20.5665328966
30
0.0000000000
10
18.7961118659
20
20.7991382218
30
0.0000000000
10
18.7302523844
20
20.9120069521
30
0.0000000000
11
19.1444028601
21
19.4803733774
31
0.0000000000
11
19.1179766738
21
19.8322196180
31
0.0000000000
11
19.0377689173
21
20.1974240077
31
0.0000000000
11
18.9068605034
21
20.5620055715
31
0.0000000000
11
18.7302523844
21
20.9120069521
31
0.0000000000
0
SPLINE
5
3F9
100
AcDbEntity
8
0
100
AcDbSpline
62
9
6
CONTINUOUS
70
0
71
3
72
10
73
6
74
4
42
0.0000001000
43
0.0000001000
44
0.0000000001
12
0.4131244232
22
0.2139014344
32
0.0000000000
13
-0.0007181262
23
0.4733552251
33
0.0000000000
40
0.0000000000
40
0.0000000000
40
0.0000000000
40
0.0000000000
40
0.4693514452
40
0.8434285385
40
1.0000000000
40
1.0000000000
40
1.0000000000
40
1.0000000000
10
19.1444028601
20
-10.8146150956
30
0.0000000000
10
19.2090363751
20
-10.7811501132
30
0.0000000000
10
19.3196597141
20
-10.7083415638
30
0.0000000000
10
19.4131658654
20
-10.5757731247
30
0.0000000000
10
19.4242119090
20
-10.4921219481
30
0.0000000000
10
19.4241744296
20
-10.4674173083
30
0.0000000000
11
19.1444028601
21
-10.8146150956
31
0.0000000000
11
19.3223214294
21
-10.6880388360
31
0.0000000000
11
19.4143353927
21
-10.5403274241
31
0.0000000000
11
19.4241744296
21
-10.4674173083
31
0.0000000000
0
SPLINE
5
3FA
100
AcDbEntity
8
0
100
AcDbSpline
62
0
6
CONTINUOUS
70
0
71
3
72
13
73
9
74
7
42
0.0000001000
43
0.0000001000
44
0.0000000001
12
-1.2216085478
22
1.7291788613
32
0.0000000000
13
1.9045951207
23
0.9090660445
33
0.0000000000
40
0.0000000000
40
0.0000000000
40
0.0000000000
40
0.0000000000
40
0.0632729889
40
0.2280262989
40
0.3868013967
40
0.5604024198
40
0.7630772263
40
1.0000000000
40
1.0000000000
40
1.0000000000
40
1.0000000000
10
8.6297271777
20
20.8192251539
30
0.0000000000
10
8.6039622364
20
20.8556952588
30
0.0000000000
10
8.5183629437
20
20.9922440740
30
0.0000000000
10
8.4270766915
20
21.2566806900
30
0.0000000000
10
8.4686071323
20
21.6155382145
30
0.0000000000
10
8.6635094473
20
21.9471717826
30
0.0000000000
10
8.9862530054
20
22.2399070625
30
0.0000000000
10
9.2562940386
20
22.3948014099
30
0.0000000000
10
9.4067080248
20
22.4665942262
30
0.0000000000
11
8.6297271777
21
20.8192251539
31
0.0000000000
11
8.5589051301
21
20.9329638863
31
0.0000000000
11
8.4524751319
21
21.2639734457
31
0.0000000000
11
8.4886607914
21
21.5970964245
31
0.0000000000
11
8.6658986968
21
21.9177439260
31
0.0000000000
11
8.9764468692
21
22.2118737527
31
0.0000000000
11
9.4067080248
21
22.4665942262
31
0.0000000000
0
SPLINE
5
3FB
100
AcDbEntity
8
0
100
AcDbSpline
62
9
6
CONTINUOUS
70
0
71
3
72
8
73
4
74
2
42
0.0000001000
43
0.0000001000
44
0.0000000001
12
0.0695898339
22
0.0503800385
32
0.0000000000
13
0.0638775185
23
0.0578817235
33
0.0000000000
40
0.0000000000
40
0.0000000000
40
0.0000000000
40
0.0000000000
40
1.0000000000
40
1.0000000000
40
1.0000000000
40
1.0000000000
10
18.7302523844
20
-11.8320981946
30
0.0000000000
10
18.7534489957
20
-11.8153048485
30
0.0000000000
10
18.7757288997
20
-11.7971648708
30
0.0000000000
10
18.7970214059
20
-11.7778709630
30
0.0000000000
11
18.7302523844
21
-11.8320981946
31
0.0000000000
11
18.7970214059
21
-11.7778709630
31
0.0000000000
0
SPLINE
5
3FC
100
AcDbEntity
8
0
100
AcDbSpline
62
9
6
CONTINUOUS
70
0
71
3
72
8
73
4
74
2
42
0.0000001000
43
0.0000001000
44
0.0000000001
12
0.0582004263
22
0.0527375055
32
0.0000000000
13
0.0531218960
23
0.0580478515
33
0.0000000000
40
0.0000000000
40
0.0000000000
40
0.0000000000
40
0.0000000000
40
1.0000000000
40
1.0000000000
40
1.0000000000
40
1.0000000000
10
18.7970214059
20
-11.7778709630
30
0.0000000000
10
18.8164215480
20
-11.7602917945
30
0.0000000000
10
18.8350020024
20
-11.7417546915
30
0.0000000000
10
18.8527093011
20
-11.7224054077
30
0.0000000000
11
18.7970214059
21
-11.7778709630
31
0.0000000000
11
18.8527093011
21
-11.7224054077
31
0.0000000000
0
SPLINE
5
3FD
100
AcDbEntity
8
0
100
AcDbSpline
62
9
6
CONTINUOUS
70
0
71
3
72
8
73
4
74
2
42
0.0000001000
43
0.0000001000
44
0.0000000001
12
0.0572618321
22
0.0625716809
32
0.0000000000
13
0.0509736043
23
0.0676862434
33
0.0000000000
40
0.0000000000
40
0.0000000000
40
0.0000000000
40
0.0000000000
40
1.0000000000
40
1.0000000000
40
1.0000000000
40
1.0000000000
10
18.8527093011
20
-11.7224054077
30
0.0000000000
10
18.8717965784
20
-11.7015481807
30
0.0000000000
10
18.8898693020
20
-11.6797472491
30
0.0000000000
10
18.9068605035
20
-11.6571851680
30
0.0000000000
11
18.8527093011
21
-11.7224054077
31
0.0000000000
11
18.9068605035
21
-11.6571851680
31
0.0000000000
0
SPLINE
5
3FE
100
AcDbEntity
8
0
100
AcDbSpline
62
9
6
CONTINUOUS
70
0
71
3
72
10
73
6
74
4
42
0.0000001000
43
0.0000001000
44
0.0000000001
12
0.5369646529
22
0.7130184476
32
0.0000000000
13
-0.0025220222
23
0.8888385242
33
0.0000000000
40
0.0000000000
40
0.0000000000
40
0.0000000000
40
0.0000000000
40
0.3018435755
40
0.6343822032
40
1.0000000000
40
1.0000000000
40
1.0000000000
40
1.0000000000
10
18.9068605035
20
-11.6571851680
30
0.0000000000
10
18.9608869470
20
-11.5854451554
30
0.0000000000
10
19.0514528798
20
-11.4184962659
30
0.0000000000
10
19.1294478036
20
-11.1304343923
30
0.0000000000
10
19.1447102255
20
-10.9229401566
30
0.0000000000
10
19.1444028601
20
-10.8146150956
30
0.0000000000
11
18.9068605035
21
-11.6571851680
31
0.0000000000
11
19.0377689173
21
-11.4229989234
31
0.0000000000
11
19.1179766738
21
-11.1385153526
31
0.0000000000
11
19.1444028601
21
-10.8146150956
31
0.0000000000
0
SPLINE
5
3FF
100
AcDbEntity
8
0
100
AcDbSpline
62
0
6
CONTINUOUS
70
0
71
3
72
14
73
10
74
8
42
0.0000001000
43
0.0000001000
44
0.0000000001
12
1.8041906603
22
1.3832907868
32
0.0000000000
13
1.5348215646
23
1.6771762294
33
0.0000000000
40
0.0000000000
40
0.0000000000
40
0.0000000000
40
0.0000000000
40
0.1725379741
40
0.3339036828
40
0.4849089703
40
0.6263531152
40
0.7589085543
40
0.8832346171
40
1.0000000000
40
1.0000000000
40
1.0000000000
40
1.0000000000
10
19.2894572981
20
13.9091547883
30
0.0000000000
10
19.3932210985
20
13.9887115183
30
0.0000000000
10
19.5932572069
20
14.1436860453
30
0.0000000000
10
19.8809814160
20
14.3722877406
30
0.0000000000
10
20.1470993278
20
14.5901532312
30
0.0000000000
10
20.3926326609
20
14.7986227143
30
0.0000000000
10
20.6182985546
20
14.9991603242
30
0.0000000000
10
20.8243166893
20
15.1934743311
30
0.0000000000
10
20.9520404393
20
15.3242569038
30
0.0000000000
10
21.0117784485
20
15.3895356120
30
0.0000000000
11
19.2894572981
21
13.9091547883
31
0.0000000000
11
19.5994398102
21
14.1495225030
31
0.0000000000
11
19.8865490361
21
14.3778924662
31
0.0000000000
11
20.1520289971
21
14.5955569599
31
0.0000000000
11
20.3969513156
21
14.8039275962
31
0.0000000000
11
20.6219234948
21
15.0044385816
31
0.0000000000
11
20.8271007189
21
15.1988432115
31
0.0000000000
11
21.0117784485
21
15.3895356120
31
0.0000000000
0
SPLINE
5
400
100
AcDbEntity
8
0
100
AcDbSpline
62
0
6
CONTINUOUS
70
0
71
3
72
10
73
6
74
4
42
0.0000001000
43
0.0000001000
44
0.0000000001
12
-0.0158580756
22
-0.0095905672
32
0.0000000000
13
-0.0125114623
23
-0.0136719001
33
0.0000000000
40
0.0000000000
40
0.0000000000
40
0.0000000000
40
0.0000000000
40
0.2975018526
40
0.6320331384
40
1.0000000000
40
1.0000000000
40
1.0000000000
40
1.0000000000
10
21.0257898414
20
15.4015824955
30
0.0000000000
10
21.0242172391
20
15.4006314250
30
0.0000000000
10
21.0210122998
20
15.3983827206
30
0.0000000000
10
21.0163449419
20
15.3943240856
30
0.0000000000
10
21.0133130497
20
15.3912125474
30
0.0000000000
10
21.0117784485
20
15.3895356120
30
0.0000000000
11
21.0257898414
21
15.4015824955
31
0.0000000000
11
21.0212565722
21
15.3984443449
31
0.0000000000
11
21.0165569910
21
15.3944007481
31
0.0000000000
11
21.0117784485
21
15.3895356120
31
0.0000000000
0
SPLINE
5
401
100
AcDbEntity
8
0
100
AcDbSpline
62
0
6
CONTINUOUS
70
0
71
3
72
10
73
6
74
4
42
0.0000001000
43
0.0000001000
44
0.0000000001
12
-0.0126253866
22
-0.0074108321
32
0.0000000000
13
-0.0146157929
23
0.0008363107
33
0.0000000000
40
0.0000000000
40
0.0000000000
40
0.0000000000
40
0.0000000000
40
0.3423927021
40
0.6733057469
40
1.0000000000
40
1.0000000000
40
1.0000000000
40
1.0000000000
10
21.0257898414
20
16.1712758152
30
0.0000000000
10
21.0243488946
20
16.1704300103
30
0.0000000000
10
21.0213650529
20
16.1690013462
30
0.0000000000
10
21.0166025671
20
16.1677979959
30
0.0000000000
10
21.0133700804
20
16.1676703978
30
0.0000000000
10
21.0117784485
20
16.1677614704
30
0.0000000000
11
21.0257898414
21
16.1712758152
31
0.0000000000
11
21.0212565722
21
16.1691369153
31
0.0000000000
11
21.0165569910
21
16.1679609885
31
0.0000000000
11
21.0117784485
21
16.1677614704
31
0.0000000000
0
SPLINE
5
402
100
AcDbEntity
8
0
100
AcDbSpline
62
0
6
CONTINUOUS
70
0
71
3
72
14
73
10
74
8
42
0.0000001000
43
0.0000001000
44
0.0000000001
12
-1.7521132354
22
0.1002553292
32
0.0000000000
13
-1.6947961951
23
-0.4556509384
33
0.0000000000
40
0.0000000000
40
0.0000000000
40
0.0000000000
40
0.0000000000
40
0.1051894665
40
0.2225381452
40
0.3520734827
40
0.4940494466
40
0.6488970478
40
0.8172915870
40
1.0000000000
40
1.0000000000
40
1.0000000000
40
1.0000000000
10
21.0117784485
20
16.1677614704
30
0.0000000000
10
20.9503438297
20
16.1712767386
30
0.0000000000
10
20.8198642374
20
16.1694074252
30
0.0000000000
10
20.6147125899
20
16.1502252146
30
0.0000000000
10
20.3895802954
20
16.1170090702
30
0.0000000000
10
20.1443682886
20
16.0711857082
30
0.0000000000
10
19.8783847514
20
16.0134369650
30
0.0000000000
10
19.5906398270
20
15.9440314176
30
0.0000000000
10
19.3918915563
20
15.8921662938
30
0.0000000000
10
19.2886737152
20
15.8644158738
30
0.0000000000
11
21.0117784485
21
16.1677614704
31
0.0000000000
11
20.8271739241
21
16.1672182398
31
0.0000000000
11
20.6220223610
21
16.1491636507
31
0.0000000000
11
20.3970191868
21
16.1167086329
31
0.0000000000
11
20.1520014452
21
16.0714379578
31
0.0000000000
11
19.8863539426
21
16.0141508504
31
0.0000000000
11
19.5989947090
21
15.9451435491
31
0.0000000000
11
19.2886737152
21
15.8644158738
31
0.0000000000
0
SPLINE
5
403
100
AcDbEntity
8
0
100
AcDbSpline
62
0
6
CONTINUOUS
70
0
71
3
72
12
73
8
74
6
42
0.0000001000
43
0.0000001000
44
0.0000000001
12
0.3574638683
22
-0.1787319342
32
0.0000000000
13
0.1831865687
23
-0.3554660431
33
0.0000000000
40
0.0000000000
40
0.0000000000
40
0.0000000000
40
0.0000000000
40
0.2031183317
40
0.4232477690
40
0.6568612733
40
0.8991014728
40
1.0000000000
40
1.0000000000
40
1.0000000000
40
1.0000000000
10
11.7333844908
20
21.2257917892
30
0.0000000000
10
11.7575869790
20
21.2136905451
30
0.0000000000
10
11.8055582118
20
21.1834046646
30
0.0000000000
10
11.8714367495
20
21.1253719631
30
0.0000000000
10
11.9320964575
20
21.0548894589
30
0.0000000000
10
11.9746244746
20
20.9906707015
30
0.0000000000
10
11.9965844289
20
20.9505317287
30
0.0000000000
10
12.0027455139
20
20.9385763953
30
0.0000000000
11
11.7333844908
21
21.2257917892
31
0.0000000000
11
11.8023582897
21
21.1829850145
31
0.0000000000
11
11.8686815422
21
21.1251832771
31
0.0000000000
11
11.9298054762
21
21.0546075868
31
0.0000000000
11
11.9833809940
21
20.9739700789
31
0.0000000000
11
12.0027455139
21
20.9385763953
31
0.0000000000
0
ENDSEC
0
SECTION
2
OBJECTS
0
DICTIONARY
5
C
100
AcDbDictionary
280
0
281
1
3
ACAD_GROUP
350
D
3
ACAD_MLINESTYLE
350
17
3
ACAD_LAYOUT
350
1A
3
ACAD_PLOTSETTINGS
350
19
3
ACAD_PLOTSTYLENAME
350
E
0
DICTIONARY
5
D
102
{ACAD_REACTORS
330
C
102
}
100
AcDbDictionary
280
0
281
1
0
ACDBDICTIONARYWDFLT
5
E
102
{ACAD_REACTORS
330
C
102
}
100
AcDbDictionary
281
1
3
Normal
350
F
100
AcDbDictionaryWithDefault
340
F
0
DICTIONARY
5
17
102
{ACAD_REACTORS
330
C
102
}
100
AcDbDictionary
280
0
281
1
3
Standard
350
18
0
DICTIONARY
5
19
102
{ACAD_REACTORS
330
C
102
}
100
AcDbDictionary
281
1
0
DICTIONARY
5
1A
102
{ACAD_REACTORS
330
C
102
}
100
AcDbDictionary
281
1
3
Layout1
350
1E
3
Model
350
22
0
ACDBPLACEHOLDER
5
F
102
{ACAD_REACTORS
330
E
102
}
0
MLINESTYLE
5
18
102
{ACAD_REACTORS
330
17
102
}
100
AcDbMlineStyle
2
STANDARD
70
0
3

62
256
51
90.0
52
90.0
71
2
49
0.5
62
256
6
BYLAYER
49
-0.5
62
256
6
BYLAYER
0
LAYOUT
5
1E
102
{ACAD_REACTORS
330
1A
102
}
100
AcDbPlotSettings
1

2

4

6

40
0.0
41
0.0
42
0.0
43
0.0
44
0.0
45
0.0
46
0.0
47
0.0
48
0.0
49
0.0
140
0.0
141
0.0
142
1.0
143
1.0
70
0
72
0
73
0
74
0
7

75
0
147
1.0
148
0.0
149
0.0
100
AcDbLayout
1
Layout1
70
0
71
0
10
0.0
20
0.0
11
0.0
21
0.0
12
0.0
22
0.0
32
0.0
14
0.0
24
0.0
34
0.0
15
0.0
25
0.0
35
0.0
146
0.0
13
0.0
23
0.0
33
0.0
16
0.0
26
0.0
36
0.0
17
0.0
27
0.0
37
0.0
76
0
330
1B
331
0
345
0
346
0
0
LAYOUT
5
22
102
{ACAD_REACTORS
330
1A
102
}
100
AcDbPlotSettings
1

2

4

6

40
0.0
41
0.0
42
0.0
43
0.0
44
0.0
45
0.0
46
0.0
47
0.0
48
0.0
49
0.0
140
0.0
141
0.0
142
1.0
143
1.0
70
0
72
0
73
0
74
0
7

75
0
147
1.0
148
0.0
149
0.0
100
AcDbLayout
1
Model
70
0
71
0
10
0.0
20
0.0
11
0.0
21
0.0
12
0.0
22
0.0
32
0.0
14
0.0
24
0.0
34
0.0
15
0.0
25
0.0
35
0.0
146
0.0
13
0.0
23
0.0
33
0.0
16
0.0
26
0.0
36
0.0
17
0.0
27
0.0
37
0.0
76
0
330
1F
331
0
345
0
346
0
0
ENDSEC
0
EOF
