  0
SECTION
  2
HEADER
  9
$ACADVER
  1
AC1021
  9
$DWGCODEPAGE
  3
ANSI_1252
  9
$EXTMAX
 10
297.0
 20
210.0
 30
0.0
  9
$EXTMIN
 10
0.0
 20
0.0
 30
0.0
  9
$LIMMIN
 10
0.0
 20
0.0
  9
$LIMMAX
 10
297.0
 20
210.0
  9
$VIEWCTR
 10
148.5
 20
105.0
  9
$VIEWSIZE
 40
210.0
  9
$CLAYER
  8
0
  9
$LTSCALE
 40
16.335
  9
$CELTYPE
  6
BYLAYER
  9
$DIMSCALE
 40
1.0
  9
$DIMASZ
 40
3.0
  9
$DIMEXO
 40
0.5
  9
$DIMDLI
 40
11.286
  9
$DIMEXE
 40
1.5
  9
$DIMCEN
 40
2.673
  9
$DIMLFAC
 40
1.0
  9
$DIMBLK
  1
_FILLED
  9
$DIMALT
 70
0
  9
$DIMALTF
 40
25.4
  9
$DIMTXT
 40
3.0
  9
$DIMTOL
 70
1
  9
$DIMLIM
 70
0
  9
$DIMTFAC
 40
1.0
  9
$DIMTP
 40
0.01
  9
$DIMTM
 40
0.01
  9
$DIMGAP
 40
0.625
  9
$DIMDSEP
 70
44
  9
$AUNITS
 70
0
  9
$PDMODE
 70
3
  9
$PDSIZE
 40
3.0
  9
$HANDSEED
  5
511
  9
$TILEMODE
 70
1
  9
$MEASUREMENT
 70
1
  9
$INSUNITS
 70
4
  0
ENDSEC
  0
SECTION
  2
CLASSES
  0
CLASS
  1
ACDBDICTIONARYWDFLT
  2
AcDbDictionaryWithDefault
  3
AutoCAD 2000
 90
0
 91
1
280
0
281
0
  0
CLASS
  1
ACDBPLACEHOLDER
  2
AcDbPlaceHolder
  3
AutoCAD 2000
 90
0
 91
1
280
0
281
0
  0
CLASS
  1
LAYOUT
  2
AcDbLayout
  3
AutoCAD 2000
 90
0
 91
0
280
0
281
0
  0
ENDSEC
  0
SECTION
  2
TABLES
  0
TABLE
  2
VPORT
  5
8
100
AcDbSymbolTable
 70
2
  0
VPORT
  5
1F4
100
AcDbSymbolTableRecord
100
AcDbViewportTableRecord
  2
*ACTIVE
 70
0
 10
0.0
 20
0.0
 11
1.0
 21
1.0
 12
148.5
 22
105.0
 13
0.0
 23
0.0
 14
1.0
 24
1.0
 15
0.0
 25
0.0
 16
0.0
 26
0.0
 36
1.0
 17
0.0
 27
0.0
 37
0.0
 40
210.0
 41
1.4142857143
 42
50.0
 43
0.0
 44
0.0
 50
0.0
 51
0.0
 71
0
 72
100
 73
1
 74
1
 75
0
 76
0
 77
0
 78
0
  0
ENDTAB
  0
TABLE
  2
LTYPE
  5
5
100
AcDbSymbolTable
 70
6
  0
LTYPE
  5
14
100
AcDbSymbolTableRecord
100
AcDbLinetypeTableRecord
  2
BYBLOCK
 70
0
  3

 72
65
 73
0
 40
0.0
  0
LTYPE
  5
15
100
AcDbSymbolTableRecord
100
AcDbLinetypeTableRecord
  2
BYLAYER
 70
0
  3

 72
65
 73
0
 40
0.0
  0
LTYPE
  5
16
100
AcDbSymbolTableRecord
100
AcDbLinetypeTableRecord
  2
CONTINUOUS
 70
64
  3
Solid line
 72
65
 73
0
 40
0.0
  0
LTYPE
  5
1F5
100
AcDbSymbolTableRecord
100
AcDbLinetypeTableRecord
  2
CENTER
 70
64
  3
____ _ ____ _ ____ _ ____ _ ____ _ ____ _ ____
 72
65
 73
4
 40
0.6
 49
0.375
 74
0
 49
-0.075
 74
0
 49
0.075
 74
0
 49
-0.075
 74
0
  0
LTYPE
  5
1F6
100
AcDbSymbolTableRecord
100
AcDbLinetypeTableRecord
  2
HIDDEN
 70
64
  3
- - - - - - - - - - - - - - - - - - - -
 72
65
 73
2
 40
0.2
 49
0.1
 74
0
 49
-0.1
 74
0
  0
LTYPE
  5
1F7
100
AcDbSymbolTableRecord
100
AcDbLinetypeTableRecord
  2
PHANTOM
 70
64
  3
_____ _ _ _____ _ _ _____ _ _ _____
 72
65
 73
6
 40
0.8
 49
0.45
 74
0
 49
-0.05
 74
0
 49
0.1
 74
0
 49
-0.05
 74
0
 49
0.1
 74
0
 49
-0.05
 74
0
  0
LTYPE
  5
1F8
100
AcDbSymbolTableRecord
100
AcDbLinetypeTableRecord
  2
DOT
 70
64
  3
. . . . . . . . . . . . . . . . . . . .
 72
65
 73
2
 40
0.2
 49
0.1
 74
0
 49
-0.1
 74
0
  0
LTYPE
  5
1F9
100
AcDbSymbolTableRecord
100
AcDbLinetypeTableRecord
  2
DASHED
 70
64
  3
- - - - - - - - - - - - - - - - - - - -
 72
65
 73
2
 40
0.2
 49
0.1
 74
0
 49
-0.1
 74
0
  0
ENDTAB
  0
TABLE
  2
LAYER
  5
2
100
AcDbSymbolTable
 70
36
  0
LAYER
  5
10
100
AcDbSymbolTableRecord
100
AcDbLayerTableRecord
  2
0
 70
0
 62
7
  6
CONTINUOUS
370
-3
390
F
  0
LAYER
  5
1FA
100
AcDbSymbolTableRecord
100
AcDbLayerTableRecord
  2
DEFAULT_1
 70
0
 62
7
  6
CENTER
370
-3
390
F
  0
LAYER
  5
1FB
100
AcDbSymbolTableRecord
100
AcDbLayerTableRecord
  2
DEFAULT_2
 70
0
 62
7
  6
HIDDEN
370
-3
390
F
  0
LAYER
  5
1FC
100
AcDbSymbolTableRecord
100
AcDbLayerTableRecord
  2
DEFAULT_3
 70
0
 62
7
  6
PHANTOM
370
-3
390
F
  0
LAYER
  5
1FD
100
AcDbSymbolTableRecord
100
AcDbLayerTableRecord
  2
ASSI
 70
0
 62
7
  6
CONTINUOUS
370
-3
390
F
  0
LAYER
  5
1FE
100
AcDbSymbolTableRecord
100
AcDbLayerTableRecord
  2
CIRCUITO_LETTORE_SA
 70
0
 62
7
  6
CONTINUOUS
370
-3
390
F
  0
LAYER
  5
1FF
100
AcDbSymbolTableRecord
100
AcDbLayerTableRecord
  2
COORDINATE
 70
0
 62
7
  6
CONTINUOUS
370
-3
390
F
  0
LAYER
  5
200
100
AcDbSymbolTableRecord
100
AcDbLayerTableRecord
  2
COORD_ORIGINE
 70
0
 62
7
  6
CONTINUOUS
370
-3
390
F
  0
LAYER
  5
201
100
AcDbSymbolTableRecord
100
AcDbLayerTableRecord
  2
CORPO
 70
0
 62
7
  6
CONTINUOUS
370
-3
390
F
  0
LAYER
  5
202
100
AcDbSymbolTableRecord
100
AcDbLayerTableRecord
  2
COSMETICI
 70
0
 62
7
  6
CONTINUOUS
370
-3
390
F
  0
LAYER
  5
203
100
AcDbSymbolTableRecord
100
AcDbLayerTableRecord
  2
CURVE
 70
0
 62
7
  6
CONTINUOUS
370
-3
390
F
  0
LAYER
  5
204
100
AcDbSymbolTableRecord
100
AcDbLayerTableRecord
  2
DRAFT
 70
0
 62
7
  6
CONTINUOUS
370
-3
390
F
  0
LAYER
  5
205
100
AcDbSymbolTableRecord
100
AcDbLayerTableRecord
  2
IGES_SCRITTE
 70
0
 62
7
  6
CONTINUOUS
370
-3
390
F
  0
LAYER
  5
206
100
AcDbSymbolTableRecord
100
AcDbLayerTableRecord
  2
INTF_2
 70
0
 62
7
  6
CONTINUOUS
370
-3
390
F
  0
LAYER
  5
207
100
AcDbSymbolTableRecord
100
AcDbLayerTableRecord
  2
INTF_5
 70
0
 62
7
  6
CONTINUOUS
370
-3
390
F
  0
LAYER
  5
208
100
AcDbSymbolTableRecord
100
AcDbLayerTableRecord
  2
INTF_CYAN
 70
0
 62
7
  6
CONTINUOUS
370
-3
390
F
  0
LAYER
  5
209
100
AcDbSymbolTableRecord
100
AcDbLayerTableRecord
  2
NOTE
 70
0
 62
7
  6
CONTINUOUS
370
-3
390
F
  0
LAYER
  5
20A
100
AcDbSymbolTableRecord
100
AcDbLayerTableRecord
  2
PIANI
 70
0
 62
7
  6
CONTINUOUS
370
-3
390
F
  0
LAYER
  5
20B
100
AcDbSymbolTableRecord
100
AcDbLayerTableRecord
  2
PIANI_DI_RIFERIMENTO
 70
0
 62
7
  6
CONTINUOUS
370
-3
390
F
  0
LAYER
  5
20C
100
AcDbSymbolTableRecord
100
AcDbLayerTableRecord
  2
PIANI_ORIGINE
 70
0
 62
7
  6
CONTINUOUS
370
-3
390
F
  0
LAYER
  5
20D
100
AcDbSymbolTableRecord
100
AcDbLayerTableRecord
  2
PUNTI
 70
0
 62
7
  6
CONTINUOUS
370
-3
390
F
  0
LAYER
  5
20E
100
AcDbSymbolTableRecord
100
AcDbLayerTableRecord
  2
RACCORDO
 70
0
 62
7
  6
CONTINUOUS
370
-3
390
F
  0
LAYER
  5
20F
100
AcDbSymbolTableRecord
100
AcDbLayerTableRecord
  2
RGB__255__255__255__
 70
0
 62
7
  6
CONTINUOUS
370
-3
390
F
  0
LAYER
  5
210
100
AcDbSymbolTableRecord
100
AcDbLayerTableRecord
  2
SMUSSO
 70
0
 62
7
  6
CONTINUOUS
370
-3
390
F
  0
LAYER
  5
211
100
AcDbSymbolTableRecord
100
AcDbLayerTableRecord
  2
SNAPLINE
 70
0
 62
7
  6
CONTINUOUS
370
-3
390
F
  0
LAYER
  5
212
100
AcDbSymbolTableRecord
100
AcDbLayerTableRecord
  2
SUPERFICI
 70
0
 62
7
  6
CONTINUOUS
370
-3
390
F
  0
LAYER
  5
213
100
AcDbSymbolTableRecord
100
AcDbLayerTableRecord
  2
TRASH
 70
0
 62
7
  6
CONTINUOUS
370
-3
390
F
  0
ENDTAB
  0
TABLE
  2
STYLE
  5
3
100
AcDbSymbolTable
 70
1
  0
STYLE
  5
11
100
AcDbSymbolTableRecord
100
AcDbTextStyleTableRecord
  2
STANDARD
 70
0
 40
0.0
 41
0.8
 50
0.0
 71
0
 42
0.2
  3
txt
  4

  0
STYLE
  5
214
100
AcDbSymbolTableRecord
100
AcDbTextStyleTableRecord
  2
TEXTSTYLE_1
 70
0
 40
0.0
 41
0.8
 50
0.0
 71
0
 42
0.2
  3
gdt
  4

  0
ENDTAB
  0
TABLE
  2
VIEW
  5
6
100
AcDbSymbolTable
 70
0
  0
ENDTAB
  0
TABLE
  2
UCS
  5
7
100
AcDbSymbolTable
 70
0
  0
ENDTAB
  0
TABLE
  2
APPID
  5
9
100
AcDbSymbolTable
 70
1
  0
APPID
  5
215
100
AcDbSymbolTableRecord
100
AcDbRegAppTableRecord
  2
ACAD
 70
0
  0
ENDTAB
  0
TABLE
  2
BLOCK_RECORD
  5
1
100
AcDbSymbolTable
 70
0
  0
BLOCK_RECORD
  5
216
100
AcDbSymbolTableRecord
100
AcDbBlockTableRecord
  2
*Model_Space
  0
BLOCK_RECORD
  5
217
100
AcDbSymbolTableRecord
100
AcDbBlockTableRecord
  2
*Paper_Space
  0
ENDTAB
  0
TABLE
  2
DIMSTYLE
  5
A
100
AcDbSymbolTable
 70
1
100
AcDbDimStyleTable
 71
0
  0
DIMSTYLE
105
218
100
AcDbSymbolTableRecord
100
AcDbDimStyleTableRecord
  2
STANDARD
 70
0
  3

  4

 40
1.0
 41
3.0
 42
0.5
 43
0.38
 44
1.5
 45
0.0
 46
0.0
 47
0.01
 48
0.01
140
3.0
141
0.09
142
0.0
143
25.4
144
1.0
145
0.0
146
1.0
147
0.625
 71
1.0
 72
0.0
 73
0
 74
0
 75
0
 76
0
 77
1
 78
8
170
0
171
1
172
0
173
0
174
0
175
0
176
0
177
0
178
0
270
2
271
2
272
2
273
2
274
2
275
0
280
0
281
0
282
0
283
1
284
8
285
0
286
0
287
3
288
0
340
11
278
44
  0
ENDTAB
  0
ENDSEC
  0
SECTION
  2
BLOCKS
  0
BLOCK
  5
20
100
AcDbEntity
  8
0
100
AcDbBlockBegin
  2
*Model_Space
 70
0
 10
0.0
 20
0.0
 30
0.0
  3
*Model_Space
  1

  0
ENDBLK
  5
21
100
AcDbEntity
  8
0
100
AcDbBlockEnd
  0
BLOCK
  5
1C
100
AcDbEntity
  8
0
100
AcDbBlockBegin
  2
*Paper_Space
 70
0
 10
0.0
 20
0.0
 30
0.0
  3
*Paper_Space
  1

  0
ENDBLK
  5
1D
100
AcDbEntity
  8
0
100
AcDbBlockEnd
  0
ENDSEC
  0
SECTION
  2
ENTITIES
  0
LWPOLYLINE
  5
219
100
AcDbEntity
  8
RACCORDO
100
AcDbPolyline
 62
253
  6
CONTINUOUS
 90
6
 70
0
 10
-35.7057679213
 20
28.4324062822
 10
-35.6928907039
 20
28.4624179932
 10
-35.6776067677
 20
28.4913706735
 10
-35.6601365544
 20
28.5188265781
 10
-35.6408126094
 20
28.5442453931
 10
-35.6201150936
 20
28.5670403189
  0
LWPOLYLINE
  5
21A
100
AcDbEntity
  8
RACCORDO
100
AcDbPolyline
 62
253
  6
CONTINUOUS
 90
3
 70
0
 10
-35.6201150936
 20
28.5670403189
 10
-35.5984744636
 20
28.5868349391
 10
-35.5762256853
 20
28.6034147205
  0
LWPOLYLINE
  5
21B
100
AcDbEntity
  8
RACCORDO
100
AcDbPolyline
 62
253
  6
CONTINUOUS
 90
4
 70
0
 10
-39.7152431721
 20
24.4090706692
 10
-39.6322582472
 20
24.4785662483
 10
-39.5477902527
 20
24.5403246878
 10
-39.4624122531
 20
24.5939401867
  0
LWPOLYLINE
  5
21C
100
AcDbEntity
  8
RACCORDO
100
AcDbPolyline
 62
7
  6
CONTINUOUS
 90
3
 70
0
 10
-40.5983663237
 20
-12.5990187321
 10
-40.5904505033
 20
-12.710153331
 10
-40.5724014246
 20
-12.8273591539
  0
LWPOLYLINE
  5
21D
100
AcDbEntity
  8
RACCORDO
100
AcDbPolyline
 62
253
  6
CONTINUOUS
 90
10
 70
0
 10
-40.4548614012
 20
-12.7731622678
 10
-40.570954553
 20
-8.8775638088
 10
-40.6580330552
 20
-4.9657854156
 10
-40.7160895032
 20
-1.0381540434
 10
-40.7451189606
 20
2.9050020095
 10
-40.7451189605
 20
6.8633532482
 10
-40.716089503
 20
10.8365690101
 10
-40.658033055
 20
14.8243173332
 10
-40.5709545529
 20
18.8262649831
 10
-40.4548614012
 20
22.8420775998
  0
LWPOLYLINE
  5
21E
100
AcDbEntity
  8
RACCORDO
100
AcDbPolyline
 62
253
  6
CONTINUOUS
 90
8
 70
0
 10
-40.5983839072
 20
23.0134439946
 10
-40.5984148587
 20
23.0079261953
 10
-40.5937349381
 20
22.977838975
 10
-40.5809388412
 20
22.9480846286
 10
-40.5602406622
 20
22.9191609826
 10
-40.531986707
 20
22.8915519651
 10
-40.4966496986
 20
22.8657195088
 10
-40.4548208685
 20
22.8420958222
  0
LWPOLYLINE
  5
21F
100
AcDbEntity
  8
RACCORDO
100
AcDbPolyline
 62
7
  6
CONTINUOUS
 90
10
 70
0
 10
-40.598414167
 20
23.0136202466
 10
-40.7119588468
 20
19.0978547674
 10
-40.8002981511
 20
15.065910934
 10
-40.8591824696
 20
11.0483328991
 10
-40.8886039862
 20
7.0455065894
 10
-40.8885610118
 20
3.05775132
 10
-40.8590529999
 20
-0.9146383273
 10
-40.8000806206
 20
-4.8713436306
 10
-40.7116506664
 20
-8.8119855556
 10
-40.5983959199
 20
-12.5990682602
  0
LWPOLYLINE
  5
220
100
AcDbEntity
  8
RACCORDO
100
AcDbPolyline
 62
253
  6
CONTINUOUS
 90
16
 70
0
 10
-40.4548614012
 20
22.8420775998
 10
-40.4478415046
 20
22.9515306275
 10
-40.433853648
 20
23.0635454216
 10
-40.4129799497
 20
23.1773765372
 10
-40.3853649167
 20
23.2922174159
 10
-40.3511740753
 20
23.4073464516
 10
-40.3105656541
 20
23.5221312632
 10
-40.2637299869
 20
23.6359156802
 10
-40.2109932178
 20
23.7477969647
 10
-40.152793083
 20
23.856787992
 10
-40.0895326731
 20
23.9621528929
 10
-40.0216474687
 20
24.0631770427
 10
-39.9497350723
 20
24.1589853844
 10
-39.8744131204
 20
24.2488534747
 10
-39.7961246566
 20
24.3323437607
 10
-39.7152431721
 20
24.4090706692
  0
LWPOLYLINE
  5
221
100
AcDbEntity
  8
RACCORDO
100
AcDbPolyline
 62
7
  6
CONTINUOUS
 90
5
 70
0
 10
-35.7801801805
 20
28.5043210351
 10
-35.7921787335
 20
28.4724101314
 10
-35.7997859452
 20
28.4387647765
 10
-35.8026898247
 20
28.4043869566
 10
-35.8027187405
 20
28.4006014789
  0
LWPOLYLINE
  5
222
100
AcDbEntity
  8
RACCORDO
100
AcDbPolyline
 62
253
  6
CONTINUOUS
 90
12
 70
0
 10
-34.0519887986
 20
27.3092172134
 10
-34.0650691734
 20
27.2798220548
 10
-34.0809225055
 20
27.2524434985
 10
-34.0992785423
 20
27.2275482683
 10
-34.1198243674
 20
27.2055607545
 10
-34.142209735
 20
27.1868557795
 10
-34.1660530405
 20
27.1717522081
 10
-34.1909478258
 20
27.1605075116
 10
-34.2164697081
 20
27.153313379
 10
-34.2421836145
 20
27.150292449
 10
-34.2676511986
 20
27.1514962197
 10
-34.2788322921
 20
27.1533960526
  0
LWPOLYLINE
  5
223
100
AcDbEntity
  8
RACCORDO
100
AcDbPolyline
 62
253
  6
CONTINUOUS
 90
8
 70
0
 10
-34.3682408981
 20
27.7992227576
 10
-34.3530971439
 20
27.8280578106
 10
-34.3358242295
 20
27.8553648927
 10
-34.3167155174
 20
27.8806802216
 10
-34.2960955488
 20
27.9035738433
 10
-34.2743145323
 20
27.9236569336
 10
-34.2517423954
 20
27.9405884024
 10
-34.2287625023
 20
27.9540806863
  0
LINE
  5
224
100
AcDbEntity
  8
RACCORDO
100
AcDbLine
 62
253
  6
CONTINUOUS
 10
-31.9070440024
 20
28.2970295496
 11
-31.9070802637
 21
28.2969852877
  0
LINE
  5
225
100
AcDbEntity
  8
RACCORDO
100
AcDbLine
 62
253
  6
CONTINUOUS
 10
-32.4507080078
 20
27.7248682986
 11
-31.922440836
 21
28.3678204543
  0
LINE
  5
226
100
AcDbEntity
  8
RACCORDO
100
AcDbLine
 62
7
  6
CONTINUOUS
 10
-32.4507080078
 20
27.6353378322
 11
-31.9070802637
 21
28.2969852877
  0
LWPOLYLINE
  5
227
100
AcDbEntity
  8
RACCORDO
100
AcDbPolyline
 62
7
  6
CONTINUOUS
 90
12
 70
0
 10
-33.3407681905
 20
27.1607136905
 10
-33.3635133301
 20
27.13602593
 10
-33.3884833981
 20
27.1125555181
 10
-33.4155679614
 20
27.0907633918
 10
-33.4447603762
 20
27.071170431
 10
-33.4756845698
 20
27.054168521
 10
-33.507611203
 20
27.0400420967
 10
-33.5402160309
 20
27.029240291
 10
-33.5731338198
 20
27.0221604911
 10
-33.6055092962
 20
27.0190386629
 10
-33.6367140592
 20
27.020193809
 10
-33.6543807946
 20
27.0230100071
  0
LWPOLYLINE
  5
228
100
AcDbEntity
  8
RACCORDO
100
AcDbPolyline
 62
7
  6
CONTINUOUS
 90
15
 70
0
 10
-39.6907252607
 20
24.6027109433
 10
-39.7955213987
 20
24.5352370744
 10
-39.9020614441
 20
24.4527446213
 10
-40.0032669279
 20
24.3598594451
 10
-40.0987395172
 20
24.257396736
 10
-40.1877044188
 20
24.1464682784
 10
-40.2697307057
 20
24.027858193
 10
-40.3442788404
 20
23.9024220133
 10
-40.4103492151
 20
23.7717480465
 10
-40.4674964588
 20
23.6367939197
 10
-40.5151730863
 20
23.4985168968
 10
-40.552619814
 20
23.3586114285
 10
-40.5794091855
 20
23.2181290697
 10
-40.5950652959
 20
23.0776701626
 10
-40.5983839072
 20
23.0134439946
  0
LWPOLYLINE
  5
229
100
AcDbEntity
  8
RACCORDO
100
AcDbPolyline
 62
7
  6
CONTINUOUS
 90
6
 70
0
 10
-35.6668328483
 20
28.6230210014
 10
-35.694834074
 20
28.6062608238
 10
-35.7208177032
 20
28.585631593
 10
-35.74410411
 20
28.5614311977
 10
-35.7640496762
 20
28.5341481129
 10
-35.7801801805
 20
28.5043210351
  0
LINE
  5
22A
100
AcDbEntity
  8
RACCORDO
100
AcDbLine
 62
253
  6
CONTINUOUS
 10
-35.5762256853
 20
28.6034147205
 11
-35.5537471821
 21
28.6165730263
  0
LINE
  5
22B
100
AcDbEntity
  8
RACCORDO
100
AcDbLine
 62
7
  6
CONTINUOUS
 10
-39.6910992127
 20
24.602532236
 11
-35.0997257885
 21
27.2797234799
  0
LINE
  5
22C
100
AcDbEntity
  8
RACCORDO
100
AcDbLine
 62
253
  6
CONTINUOUS
 10
-35.0997257885
 20
27.1377859869
 11
-39.4624122531
 21
24.5939401867
  0
LINE
  5
22D
100
AcDbEntity
  8
RACCORDO
100
AcDbLine
 62
7
  6
CONTINUOUS
 10
-34.0840761927
 20
29.4350051256
 11
-35.6668328483
 21
28.6230210014
  0
LINE
  5
22E
100
AcDbEntity
  8
RACCORDO
100
AcDbLine
 62
253
  6
CONTINUOUS
 10
-33.9709905789
 20
29.4285571236
 11
-35.5537471821
 21
28.6165730263
  0
LINE
  5
22F
100
AcDbEntity
  8
RACCORDO
100
AcDbLine
 62
253
  6
CONTINUOUS
 10
-32.6274817115
 20
28.7568026898
 11
-34.2287625023
 21
27.9540806863
  0
LINE
  5
230
100
AcDbEntity
  8
RACCORDO
100
AcDbLine
 62
7
  6
CONTINUOUS
 10
-34.0823386065
 20
29.4358739657
 11
-34.0840761927
 21
29.4350051256
  0
LINE
  5
231
100
AcDbEntity
  8
RACCORDO
100
AcDbLine
 62
253
  6
CONTINUOUS
 10
-32.0992145397
 20
29.0202415099
 11
-32.6274817115
 21
28.7568026898
  0
LINE
  5
232
100
AcDbEntity
  8
RACCORDO
100
AcDbLine
 62
7
  6
CONTINUOUS
 10
-33.5470528114
 20
29.6966393812
 11
-34.082338677
 21
29.4358846789
  0
LINE
  5
233
100
AcDbEntity
  8
RACCORDO
100
AcDbLine
 62
253
  6
CONTINUOUS
 10
-33.4365407003
 20
29.6889045902
 11
-33.9709905789
 21
29.4285571236
  0
LINE
  5
234
100
AcDbEntity
  8
RACCORDO
100
AcDbLine
 62
7
  6
CONTINUOUS
 10
-33.5298995682
 20
29.7042130235
 11
-33.5470240565
 21
29.6966533825
  0
LWPOLYLINE
  5
235
100
AcDbEntity
  8
RACCORDO
100
AcDbPolyline
 62
7
  6
CONTINUOUS
 90
10
 70
0
 10
-40.5724014246
 20
-12.8273591539
 10
-40.5446160591
 20
-12.9390648918
 10
-40.5072853357
 20
-13.0446660483
 10
-40.4608617068
 20
-13.1431256981
 10
-40.4058682704
 20
-13.2336528321
 10
-40.3427062092
 20
-13.3159294935
 10
-40.2719949955
 20
-13.3893986808
 10
-40.1945817134
 20
-13.4533843394
 10
-40.1113540491
 20
-13.5073666496
 10
-40.071523057
 20
-13.5286713409
  0
LWPOLYLINE
  5
236
100
AcDbEntity
  8
RACCORDO
100
AcDbPolyline
 62
253
  6
CONTINUOUS
 90
7
 70
0
 10
-40.5983959199
 20
-12.5990682602
 10
-40.5937749085
 20
-12.6299838798
 10
-40.5809809837
 20
-12.6622898389
 10
-40.5602839126
 20
-12.693262619
 10
-40.5320300195
 20
-12.7223839527
 10
-40.4966920769
 20
-12.7491665523
 10
-40.4548613948
 20
-12.7731622643
  0
LWPOLYLINE
  5
237
100
AcDbEntity
  8
0
100
AcDbPolyline
 62
7
  6
CONTINUOUS
 90
37
 70
0
 10
-36.9717697508
 20
9.5287774209
 10
-36.9666432285
 20
9.3310924319
 10
-36.9484898134
 20
9.1317687234
 10
-36.9173145597
 20
8.9308038927
 10
-36.8726797825
 20
8.7267988786
 10
-36.8150321272
 20
8.5211484762
 10
-36.7457063925
 20
8.3180394869
 10
-36.6644580871
 20
8.1173926401
 10
-36.5715468892
 20
7.9192798915
 10
-36.4690695435
 20
7.7281121136
 10
-36.3568299368
 20
7.5440412934
 10
-36.2350416934
 20
7.3669069597
 10
-36.1064195197
 20
7.2006496575
 10
-35.9708093438
 20
7.0454926067
 10
-35.8283803638
 20
6.9012052316
 10
-35.6823328356
 20
6.7710470644
 10
-35.5325850728
 20
6.6553325138
 10
-35.3792275112
 20
6.5537429072
 10
-35.2257172265
 20
6.4685888175
 10
-35.0720499507
 20
6.4002435901
 10
-34.9182299437
 20
6.3483338835
 10
-34.7677249539
 20
6.3140512742
 10
-34.6206067234
 20
6.2977971092
 10
-34.4767947121
 20
6.2991743291
 10
-34.339526855
 20
6.3181775763
 10
-34.2089301678
 20
6.3552271199
 10
-34.08486236
 20
6.4099101188
 10
-33.9701580848
 20
6.4809712152
 10
-33.865053112
 20
6.5687566894
 10
-33.769294145
 20
6.6729287524
 10
-33.6849856452
 20
6.791204277
 10
-33.6123521752
 20
6.92399507
 10
-33.5511537667
 20
7.0708967449
 10
-33.5028044529
 20
7.2283987883
 10
-33.4677746464
 20
7.3953314574
 10
-33.4455865434
 20
7.5728680031
 10
-33.4362358481
 20
7.7610104634
  0
LWPOLYLINE
  5
238
100
AcDbEntity
  8
RACCORDO
100
AcDbPolyline
 62
253
  6
CONTINUOUS
 90
5
 70
0
 10
-35.7294954381
 20
28.3121962113
 10
-35.7279811692
 20
28.3412309489
 10
-35.7234630952
 20
28.3712886629
 10
-35.7160168619
 20
28.4018546556
 10
-35.7057679213
 20
28.4324062822
  0
LINE
  5
239
100
AcDbEntity
  8
RACCORDO
100
AcDbLine
 62
7
  6
CONTINUOUS
 10
-32.4507080078
 20
26.8497624901
 11
-33.3407681905
 21
26.3530815688
  0
LINE
  5
23A
100
AcDbEntity
  8
RACCORDO
100
AcDbLine
 62
7
  6
CONTINUOUS
 10
-30.0818882894
 20
26.5196440767
 11
-29.7283469002
 21
26.7010175016
  0
LWPOLYLINE
  5
23B
100
AcDbEntity
  8
RACCORDO
100
AcDbPolyline
 62
253
  6
CONTINUOUS
 90
7
 70
0
 10
-39.690742116
 20
24.6027398885
 10
-39.6731268939
 20
24.6116630924
 10
-39.6361226791
 20
24.6233050003
 10
-39.5958397741
 20
24.6273575853
 10
-39.5529666309
 20
24.6237515868
 10
-39.5082359687
 20
24.6125486329
 10
-39.4624122531
 20
24.5939401867
  0
LINE
  5
23C
100
AcDbEntity
  8
RACCORDO
100
AcDbLine
 62
253
  6
CONTINUOUS
 10
-32.4507080078
 20
28.451913151
 11
-34.0519887986
 21
27.6491911475
  0
LINE
  5
23D
100
AcDbEntity
  8
RACCORDO
100
AcDbLine
 62
253
  6
CONTINUOUS
 10
-31.922440836
 20
28.7153519711
 11
-32.4507080078
 21
28.451913151
  0
LINE
  5
23E
100
AcDbEntity
  8
RACCORDO
100
AcDbLine
 62
7
  6
CONTINUOUS
 10
-24.7281249462
 20
29.9900665191
 11
-31.0426652728
 21
26.8452902146
  0
LINE
  5
23F
100
AcDbEntity
  8
RACCORDO
100
AcDbLine
 62
7
  6
CONTINUOUS
 10
-23.7377170281
 20
29.0217855063
 11
-28.384844016
 21
26.7313344522
  0
LINE
  5
240
100
AcDbEntity
  8
RACCORDO
100
AcDbLine
 62
7
  6
CONTINUOUS
 10
-29.7283469002
 20
26.7010175016
 11
-24.341192303
 21
29.3252711638
  0
LINE
  5
241
100
AcDbEntity
  8
CORPO
100
AcDbLine
 62
7
  6
CONTINUOUS
 10
-23.7151987135
 20
29.7294743709
 11
-8.0552386173
 21
36.9617628965
  0
LINE
  5
242
100
AcDbEntity
  8
CORPO
100
AcDbLine
 62
253
  6
CONTINUOUS
 10
-23.226278441
 20
29.4850142346
 11
-17.991225202
 21
31.9027353041
  0
LWPOLYLINE
  5
243
100
AcDbEntity
  8
CORPO
100
AcDbPolyline
 62
253
  6
CONTINUOUS
 90
9
 70
0
 10
-8.0379432198
 20
36.9694716753
 10
-8.0104002071
 20
36.9807269852
 10
-7.9817310003
 20
36.9911089108
 10
-7.9525780432
 20
37.0003557383
 10
-7.9229593425
 20
37.0084617528
 10
-7.8928933328
 20
37.0154218808
 10
-7.8623985902
 20
37.0212318191
 10
-7.8314938202
 20
37.0258880356
 10
-7.8001980395
 20
37.0293876853
  0
LWPOLYLINE
  5
244
100
AcDbEntity
  8
RACCORDO
100
AcDbPolyline
 62
253
  6
CONTINUOUS
 90
4
 70
0
 10
11.0201569437
 20
-36.9543867464
 10
11.0510514092
 20
-36.9492140105
 10
11.0803381375
 20
-36.9420763581
 10
11.1075197244
 20
-36.9330950147
  0
LINE
  5
245
100
AcDbEntity
  8
RACCORDO
100
AcDbLine
 62
253
  6
CONTINUOUS
 10
10.9881794511
 20
-36.9575067122
 11
11.0201569437
 21
-36.9543867464
  0
LWPOLYLINE
  5
246
100
AcDbEntity
  8
RACCORDO
100
AcDbPolyline
 62
253
  6
CONTINUOUS
 90
3
 70
0
 10
10.9231569707
 20
-36.9574121406
 10
10.9556620354
 20
-36.9585209187
 10
10.9881794511
 20
-36.9575067122
  0
LINE
  5
247
100
AcDbEntity
  8
RACCORDO
100
AcDbLine
 62
7
  6
CONTINUOUS
 10
-35.7997725286
 20
28.0223427968
 11
-35.8027181602
 21
28.0608804929
  0
LWPOLYLINE
  5
248
100
AcDbEntity
  8
RACCORDO
100
AcDbPolyline
 62
253
  6
CONTINUOUS
 90
6
 70
0
 10
-35.7294954381
 20
27.9722222772
 10
-35.7282880491
 20
27.9475647757
 10
-35.7246823677
 20
27.9244514512
 10
-35.7187276367
 20
27.9031980417
 10
-35.7104895546
 20
27.8840648052
 10
-35.7000890526
 20
27.8673512767
  0
LWPOLYLINE
  5
249
100
AcDbEntity
  8
RACCORDO
100
AcDbPolyline
 62
253
  6
CONTINUOUS
 90
9
 70
0
 10
-34.4045107583
 20
27.3097299373
 10
-34.4033033693
 20
27.2850724358
 10
-34.3996976878
 20
27.2619591113
 10
-34.3937429569
 20
27.2407057018
 10
-34.3855048748
 20
27.2215724653
 10
-34.3751043728
 20
27.2048589368
 10
-34.3627511399
 20
27.1908578827
 10
-34.3486670232
 20
27.1797346471
 10
-34.3395459726
 20
27.1745157431
  0
LWPOLYLINE
  5
24A
100
AcDbEntity
  8
0
100
AcDbPolyline
 62
7
  6
CONTINUOUS
 90
22
 70
0
 10
-33.9090754833
 20
8.4084741238
 10
-33.9124922582
 20
8.5216894415
 10
-33.9253550929
 20
8.6399537467
 10
-33.9478985096
 20
8.762126062
 10
-33.9805500056
 20
8.8880007699
 10
-34.0231529171
 20
9.0151012826
 10
-34.0741855062
 20
9.138787506
 10
-34.1319615932
 20
9.2562597077
 10
-34.1961416733
 20
9.3679254548
 10
-34.2667195296
 20
9.47405407
 10
-34.3432242756
 20
9.5738634964
 10
-34.4245750405
 20
9.6658806422
 10
-34.5100297622
 20
9.7492246203
 10
-34.5987639212
 20
9.8230195907
 10
-34.6897385834
 20
9.8863357486
 10
-34.7818424079
 20
9.9383661597
 10
-34.8740800142
 20
9.9785406027
 10
-34.9654367404
 20
10.0064163618
 10
-35.054772248
 20
10.0216739482
 10
-35.1410489229
 20
10.0242050292
 10
-35.2234387014
 20
10.0140586786
 10
-35.3011656536
 20
9.9913655964
  0
LWPOLYLINE
  5
24B
100
AcDbEntity
  8
0
100
AcDbPolyline
 62
7
  6
CONTINUOUS
 90
37
 70
0
 10
-33.4362358481
 20
7.7610104634
 10
-33.441292934
 20
7.9587455289
 10
-33.4592457621
 20
8.1581864474
 10
-33.4900993856
 20
8.3593307537
 10
-33.534298391
 20
8.5635755983
 10
-33.5914071501
 20
8.7695194665
 10
-33.6601136483
 20
8.9729603436
 10
-33.7406788215
 20
9.1739700517
 10
-33.8328569254
 20
9.3724694524
 10
-33.9345816213
 20
9.5640273737
 10
-34.0460684303
 20
9.7484808609
 10
-34.1671193498
 20
9.9259844817
 10
-34.295051112
 20
10.0925817544
 10
-34.4300355908
 20
10.2480398334
 10
-34.5719160404
 20
10.3925843488
 10
-34.7175169044
 20
10.5229462332
 10
-34.8669320032
 20
10.6388046083
 10
-35.0200762639
 20
10.7404761894
 10
-35.1735044259
 20
10.8256489503
 10
-35.3272252582
 20
10.8939481026
 10
-35.4812299825
 20
10.9457484391
 10
-35.6320448972
 20
10.9798633137
 10
-35.779594617
 20
10.9958941547
 10
-35.9239457294
 20
10.9942437207
 10
-36.0618361012
 20
10.974928024
 10
-36.1931270099
 20
10.9375329993
 10
-36.3179419026
 20
10.8824799976
 10
-36.4334125759
 20
10.8110378395
 10
-36.5392894793
 20
10.722865371
 10
-36.6358046273
 20
10.6183121419
 10
-36.7208155738
 20
10.49968141
 10
-36.7940820274
 20
10.3665673377
 10
-36.8558288754
 20
10.2193831812
 10
-36.9046178205
 20
10.061657795
 10
-36.9399685054
 20
9.8945679303
 10
-36.9623539116
 20
9.7169404401
 10
-36.9717697508
 20
9.5287774209
  0
LWPOLYLINE
  5
24C
100
AcDbEntity
  8
RACCORDO
100
AcDbPolyline
 62
253
  6
CONTINUOUS
 90
48
 70
0
 10
-35.7344549166
 20
9.2010545487
 10
-35.7334389857
 20
9.1505254596
 10
-35.7303932795
 20
9.0991030259
 10
-35.7253250661
 20
9.0469143758
 10
-35.7182492678
 20
8.9941061501
 10
-35.7091818062
 20
8.9407917135
 10
-35.6981329886
 20
8.8870493562
 10
-35.6851168788
 20
8.8329831622
 10
-35.6701650117
 20
8.7787548806
 10
-35.6533187451
 20
8.7245301846
 10
-35.6346086773
 20
8.6704203005
 10
-35.6140861338
 20
8.6165850025
 10
-35.5918440565
 20
8.5632607138
 10
-35.5679750625
 20
8.5106411621
 10
-35.5425198462
 20
8.4587898254
 10
-35.5155010635
 20
8.4077457037
 10
-35.4869658368
 20
8.35760425
 10
-35.4570004748
 20
8.3085232126
 10
-35.4256848667
 20
8.2606349501
 10
-35.3930969117
 20
8.2140589571
 10
-35.3593168926
 20
8.1689103331
 10
-35.3244344748
 20
8.1253085481
 10
-35.288543131
 20
8.0833685407
 10
-35.2517259756
 20
8.0431855885
 10
-35.2140604244
 20
8.004844679
 10
-35.1756481342
 20
7.9684503539
 10
-35.13657528
 20
7.9340853012
 10
-35.0968961323
 20
7.9018033163
 10
-35.0566607984
 20
7.8716597161
 10
-35.0160137514
 20
7.8437771488
 10
-34.9751539847
 20
7.818292862
 10
-34.9342470681
 20
7.7952959793
 10
-34.8933327949
 20
7.7747948032
 10
-34.8524232726
 20
7.7567953088
 10
-34.8115617148
 20
7.7413300749
 10
-34.770910167
 20
7.7284740706
 10
-34.7306574319
 20
7.7182870486
 10
-34.6909584313
 20
7.7107946009
 10
-34.6518533727
 20
7.7059905661
 10
-34.6133581178
 20
7.7038766417
 10
-34.5755202288
 20
7.7044688497
 10
-34.5384889027
 20
7.7077785489
 10
-34.5024290471
 20
7.7137912253
 10
-34.4674711164
 20
7.7224716097
 10
-34.4336533075
 20
7.7337963253
 10
-34.4009985648
 20
7.7477572218
 10
-34.369556375
 20
7.764346481
 10
-34.3394463569
 20
7.783514887
  0
LWPOLYLINE
  5
24D
100
AcDbEntity
  8
RACCORDO
100
AcDbPolyline
 62
253
  6
CONTINUOUS
 90
64
 70
0
 10
-34.0916815865
 20
8.3796678837
 10
-34.0926974909
 20
8.4301969861
 10
-34.0957431836
 20
8.4816194266
 10
-34.1008113962
 20
8.533808077
 10
-34.1078872149
 20
8.5866162925
 10
-34.1169547098
 20
8.6399307124
 10
-34.1280035487
 20
8.6936730591
 10
-34.1410196542
 20
8.7477392553
 10
-34.1559715048
 20
8.8019675451
 10
-34.1728177595
 20
8.856192247
 10
-34.1915278271
 20
8.9103021312
 10
-34.2120503748
 20
8.9641374271
 10
-34.2342924552
 20
9.0174617143
 10
-34.2581614488
 20
9.0700812662
 10
-34.2836166636
 20
9.1219326037
 10
-34.310635445
 20
9.1729767261
 10
-34.3391706711
 20
9.22311818
 10
-34.3691360328
 20
9.2721992176
 10
-34.4004516406
 20
9.3200874802
 10
-34.4330395952
 20
9.3666634734
 10
-34.466819614
 20
9.4118120976
 10
-34.5017020314
 20
9.4554138828
 10
-34.5375933747
 20
9.4973538904
 10
-34.5744105296
 20
9.5375368428
 10
-34.6120760805
 20
9.5758777525
 10
-34.6504883706
 20
9.6122720777
 10
-34.6895612249
 20
9.6466371303
 10
-34.7292403725
 20
9.6789191152
 10
-34.7694757059
 20
9.7090627157
 10
-34.8101227523
 20
9.7369452833
 10
-34.8509825186
 20
9.7624295704
 10
-34.8918894351
 20
9.785426453
 10
-34.9328037085
 20
9.8059276291
 10
-34.9737132309
 20
9.8239271234
 10
-35.0145747886
 20
9.8393923573
 10
-35.0552263362
 20
9.8522483617
 10
-35.0954790712
 20
9.8624353839
 10
-35.1351780717
 20
9.8699278315
 10
-35.1742831302
 20
9.8747318664
 10
-35.2127783852
 20
9.8768457907
 10
-35.2506162744
 20
9.8762535827
 10
-35.2876476008
 20
9.8729438834
 10
-35.3237074566
 20
9.8669312068
 10
-35.3586653872
 20
9.8582508225
 10
-35.392483196
 20
9.8469261069
 10
-35.4251379387
 20
9.8329652104
 10
-35.4565801288
 20
9.816375951
 10
-35.4866901473
 20
9.7972075448
 10
-35.5153444845
 20
9.7755381273
 10
-35.5424490197
 20
9.7514522724
 10
-35.5679685772
 20
9.7249953649
 10
-35.5918743873
 20
9.6961982093
 10
-35.6141209462
 20
9.6651029262
 10
-35.6346301103
 20
9.6318050431
 10
-35.6533291904
 20
9.59642139
 10
-35.6701714016
 20
9.5590489797
 10
-35.6851203134
 20
9.5197781764
 10
-35.6981345078
 20
9.4787327188
 10
-35.7091823326
 20
9.436042127
 10
-35.718249376
 20
9.3917966407
 10
-35.7253249973
 20
9.3460651257
 10
-35.7303931666
 20
9.2989453172
 10
-35.7334389257
 20
9.2505685234
 10
-35.7344549166
 20
9.2010545487
  0
LWPOLYLINE
  5
24E
100
AcDbEntity
  8
RACCORDO
100
AcDbPolyline
 62
253
  6
CONTINUOUS
 90
42
 70
0
 10
-33.9589527852
 20
8.3835354729
 10
-33.9600461208
 20
8.437909228
 10
-33.9633236192
 20
8.4932442581
 10
-33.9687774593
 20
8.5494037732
 10
-33.9763915522
 20
8.6062299745
 10
-33.9861488001
 20
8.6636009
 10
-33.9980382086
 20
8.7214323357
 10
-34.0120446934
 20
8.7796122747
 10
-34.0281342644
 20
8.8379666342
 10
-34.0462623557
 20
8.8963171256
 10
-34.0663960164
 20
8.9545440665
 10
-34.088480044
 20
9.0124755317
 10
-34.1124144442
 20
9.0698571079
 10
-34.1380995597
 20
9.1264803232
 10
-34.1654915915
 20
9.1822768703
 10
-34.1945661558
 20
9.2372047834
 10
-34.2252725433
 20
9.291161348
 10
-34.25751788
 20
9.3439768128
 10
-34.2912161989
 20
9.3955087478
 10
-34.3262836738
 20
9.4456285664
 10
-34.3626339132
 20
9.4942124115
 10
-34.4001704294
 20
9.5411317231
 10
-34.4387926376
 20
9.586262817
 10
-34.4784110994
 20
9.6295031665
 10
-34.5189425086
 20
9.6707613183
 10
-34.5602774735
 20
9.709924777
 10
-34.6023232626
 20
9.7469045626
 10
-34.6450214763
 20
9.7816427853
 10
-34.6883181948
 20
9.8140799183
 10
-34.7320579521
 20
9.8440839823
 10
-34.7760266142
 20
9.8715072888
 10
-34.8200460135
 20
9.8962539342
 10
-34.8640733294
 20
9.9183149836
 10
-34.908095533
 20
9.9376840053
 10
-34.9520661223
 20
9.9543259411
 10
-34.9958107224
 20
9.9681601184
 10
-35.0391261654
 20
9.979122239
 10
-35.081845742
 20
9.9871847638
 10
-35.1239261854
 20
9.992354323
 10
-35.1653504272
 20
9.9946290898
 10
-35.2060672865
 20
9.9939918237
 10
-35.2459162143
 20
9.9904303011
  0
LINE
  5
24F
100
AcDbEntity
  8
RACCORDO
100
AcDbLine
 62
7
  6
CONTINUOUS
 10
-35.8027187428
 20
28.4005845589
 11
-35.8027187428
 21
28.0606106248
  0
LINE
  5
250
100
AcDbEntity
  8
RACCORDO
100
AcDbLine
 62
253
  6
CONTINUOUS
 10
-35.7294954381
 20
28.3121962113
 11
-35.7294954381
 21
27.9722222772
  0
LINE
  5
251
100
AcDbEntity
  8
RACCORDO
100
AcDbLine
 62
7
  6
CONTINUOUS
 10
-35.0997257885
 20
27.1006315488
 11
-35.0997257885
 21
27.5546056505
  0
LINE
  5
252
100
AcDbEntity
  8
RACCORDO
100
AcDbLine
 62
253
  6
CONTINUOUS
 10
-35.0265024838
 20
27.008919854
 11
-35.0265024838
 21
27.5179939981
  0
LINE
  5
253
100
AcDbEntity
  8
RACCORDO
100
AcDbLine
 62
253
  6
CONTINUOUS
 10
-34.4045107583
 20
27.3097299373
 11
-34.4045107583
 21
27.6497038714
  0
LINE
  5
254
100
AcDbEntity
  8
RACCORDO
100
AcDbLine
 62
253
  6
CONTINUOUS
 10
-34.0519887986
 20
27.3092172134
 11
-34.0519887986
 21
27.6491911475
  0
LINE
  5
255
100
AcDbEntity
  8
RACCORDO
100
AcDbLine
 62
253
  6
CONTINUOUS
 10
-33.6932901502
 20
27.0230634328
 11
-33.6932901502
 21
26.3423136871
  0
LINE
  5
256
100
AcDbEntity
  8
RACCORDO
100
AcDbLine
 62
253
  6
CONTINUOUS
 10
-33.3407681905
 20
27.1607136905
 11
-33.3407681905
 21
26.3530815688
  0
LWPOLYLINE
  5
257
100
AcDbEntity
  8
RACCORDO
100
AcDbPolyline
 62
7
  6
CONTINUOUS
 90
19
 70
0
 10
-35.7560090601
 20
9.2320636101
 10
-35.7548169721
 20
9.2875890846
 10
-35.751240581
 20
9.3419090823
 10
-35.7452817713
 20
9.3949036001
 10
-35.73693638
 20
9.4465018957
 10
-35.7262172145
 20
9.4965343675
 10
-35.7131757471
 20
9.5447518932
 10
-35.6978409815
 20
9.5910709934
 10
-35.6802536952
 20
9.6353819668
 10
-35.6605326375
 20
9.677438372
 10
-35.6387638959
 20
9.7171446268
 10
-35.6150082204
 20
9.7544663842
 10
-35.5893907379
 20
9.7892831288
 10
-35.5620454779
 20
9.8215048579
 10
-35.5330413846
 20
9.8511359942
 10
-35.5024190708
 20
9.8781936556
 10
-35.4702610811
 20
9.9026446642
 10
-35.4367001401
 20
9.9244279215
 10
-35.4018532556
 20
9.9435112001
  0
LWPOLYLINE
  5
258
100
AcDbEntity
  8
RACCORDO
100
AcDbPolyline
 62
7
  6
CONTINUOUS
 90
8
 70
0
 10
-31.8502430897
 20
28.4558106751
 10
-31.8508362784
 20
28.4384805048
 10
-31.8545445446
 20
28.4095164765
 10
-31.8616232655
 20
28.3811234485
 10
-31.8719969034
 20
28.3536944242
 10
-31.8855524791
 20
28.3275994129
 10
-31.9021284025
 20
28.3032116532
 10
-31.9070440024
 20
28.2970295496
  0
LWPOLYLINE
  5
259
100
AcDbEntity
  8
RACCORDO
100
AcDbPolyline
 62
253
  6
CONTINUOUS
 90
6
 70
0
 10
-34.4045107583
 20
27.6497038714
 10
-34.4030095751
 20
27.678610142
 10
-34.3985315217
 20
27.7085266531
 10
-34.391152653
 20
27.7389453043
 10
-34.3809982914
 20
27.7693494667
 10
-34.3682408981
 20
27.7992227576
  0
LWPOLYLINE
  5
25A
100
AcDbEntity
  8
RACCORDO
100
AcDbPolyline
 62
253
  6
CONTINUOUS
 90
7
 70
0
 10
-31.850242979
 20
28.8032246032
 10
-31.8521733168
 20
28.7877210337
 10
-31.8583547546
 20
28.7716410359
 10
-31.8686850095
 20
28.7561053218
 10
-31.8829845829
 20
28.7413804659
 10
-31.901006721
 20
28.7277181243
 10
-31.922440836
 20
28.7153519711
  0
LWPOLYLINE
  5
25B
100
AcDbEntity
  8
RACCORDO
100
AcDbPolyline
 62
253
  6
CONTINUOUS
 90
7
 70
0
 10
-31.850242979
 20
28.4556930865
 10
-31.8522309878
 20
28.4399605389
 10
-31.8584426263
 20
28.4239417503
 10
-31.8687764665
 20
28.4084615992
 10
-31.8830595064
 20
28.3937831939
 10
-31.9010493618
 20
28.3801584871
 10
-31.922440836
 20
28.3678204543
  0
LINE
  5
25C
100
AcDbEntity
  8
CORPO
100
AcDbLine
 62
7
  6
CONTINUOUS
 10
-25.9336172123
 20
25.5057210504
 11
-24.84931011
 21
26.4415706868
  0
LINE
  5
25D
100
AcDbEntity
  8
CORPO
100
AcDbLine
 62
7
  6
CONTINUOUS
 10
-23.4778352994
 20
24.2778300939
 11
-22.3744363759
 21
25.2041338197
  0
LWPOLYLINE
  5
25E
100
AcDbEntity
  8
CORPO
100
AcDbPolyline
 62
7
  6
CONTINUOUS
 90
27
 70
0
 10
-22.3623110689
 20
25.2104118812
 10
-22.3415477962
 20
25.2214959118
 10
-22.32150099
 20
25.2328678332
 10
-22.3021706503
 20
25.2445276454
 10
-22.2835403284
 20
25.2564865935
 10
-22.265626473
 20
25.2687334323
 10
-22.2484784298
 20
25.2812344272
 10
-22.2320983058
 20
25.2939902826
 10
-22.2164839941
 20
25.307000294
 10
-22.2016785193
 20
25.3202286123
 10
-22.1876841185
 20
25.3336758325
 10
-22.1744985548
 20
25.3473413596
 10
-22.1621581418
 20
25.3611875596
 10
-22.150665203
 20
25.3752149383
 10
-22.1400174149
 20
25.3894229899
 10
-22.1302441213
 20
25.4037725631
 10
-22.121347736
 20
25.4182640486
 10
-22.1133258451
 20
25.4328970556
 10
-22.1062005512
 20
25.447631261
 10
-22.0999743297
 20
25.4624669358
 10
-22.0946447053
 20
25.4774038089
 10
-22.090226354
 20
25.4924007448
 10
-22.0867217858
 20
25.5074579167
 10
-22.0841284908
 20
25.5225751514
 10
-22.0824536151
 20
25.5377107935
 10
-22.0816996919
 20
25.5528648893
 10
-22.0816524282
 20
25.5577410664
  0
LINE
  5
25F
100
AcDbEntity
  8
CORPO
100
AcDbLine
 62
7
  6
CONTINUOUS
 10
-22.3744363759
 20
25.2041338197
 11
-22.3623110689
 21
25.2104118812
  0
LINE
  5
260
100
AcDbEntity
  8
0
100
AcDbLine
 62
7
  6
CONTINUOUS
 10
-24.7785994319
 20
26.7208417847
 11
-24.0714926507
 21
27.0743951753
  0
LINE
  5
261
100
AcDbEntity
  8
0
100
AcDbLine
 62
7
  6
CONTINUOUS
 10
-22.3201547536
 20
27.5965107333
 11
-23.7179392601
 21
26.89761848
  0
LINE
  5
262
100
AcDbEntity
  8
CIRCUITO_LETTORE_SA
100
AcDbLine
 62
7
  6
CONTINUOUS
 10
-14.3441938982
 20
30.0792196522
 11
-12.6517181346
 21
30.9254575341
  0
LINE
  5
263
100
AcDbEntity
  8
DRAFT
100
AcDbLine
 62
7
  6
CONTINUOUS
 10
-24.0714926507
 20
27.6269533646
 11
-23.7377170281
 21
27.7902737198
  0
LINE
  5
264
100
AcDbEntity
  8
RACCORDO
100
AcDbLine
 62
7
  6
CONTINUOUS
 10
-21.6611590023
 20
28.4565835471
 11
-23.7179392601
 21
27.4501766693
  0
LINE
  5
265
100
AcDbEntity
  8
CORPO
100
AcDbLine
 62
7
  6
CONTINUOUS
 10
-24.84931011
 20
26.4415706868
 11
-24.8367539871
 21
26.4476333403
  0
LWPOLYLINE
  5
266
100
AcDbEntity
  8
RACCORDO
100
AcDbPolyline
 62
7
  6
CONTINUOUS
 90
10
 70
0
 10
-32.4507080078
 20
28.451913151
 10
-32.4535574529
 20
28.4907694369
 10
-32.4616600288
 20
28.5311462406
 10
-32.474769553
 20
28.5718167863
 10
-32.4924877161
 20
28.6115453735
 10
-32.5142761836
 20
28.6491249211
 10
-32.5394729523
 20
28.6834136424
 10
-32.5673124642
 20
28.7133697367
 10
-32.5969488666
 20
28.7380830422
 10
-32.6274817115
 20
28.7568026898
  0
LWPOLYLINE
  5
267
100
AcDbEntity
  8
RACCORDO
100
AcDbPolyline
 62
253
  6
CONTINUOUS
 90
13
 70
0
 10
-34.0519887986
 20
27.6491911475
 10
-34.0536411537
 20
27.678274131
 10
-34.058299587
 20
27.7083950723
 10
-34.065885249
 20
27.7390342882
 10
-34.0762690567
 20
27.7696637516
 10
-34.089272804
 20
27.7997529432
 10
-34.104671291
 20
27.8287782898
 10
-34.1222403667
 20
27.856297287
 10
-34.1416432794
 20
27.8817648936
 10
-34.1623962123
 20
27.9045905802
 10
-34.1840658866
 20
27.9243949342
 10
-34.2063148137
 20
27.9409610143
 10
-34.2287625023
 20
27.9540806863
  0
LWPOLYLINE
  5
268
100
AcDbEntity
  8
RACCORDO
100
AcDbPolyline
 62
253
  6
CONTINUOUS
 90
5
 70
0
 10
-31.922440836
 20
28.7153519711
 10
-31.9238413022
 20
28.744560899
 10
-31.9282876637
 20
28.7747878762
 10
-31.935704755
 20
28.8055113775
 10
-31.9459664254
 20
28.8362019095
  0
LINE
  5
269
100
AcDbEntity
  8
RACCORDO
100
AcDbLine
 62
7
  6
CONTINUOUS
 10
-30.2245815788
 20
26.3363179268
 11
-30.22321547
 21
26.3056163846
  0
LINE
  5
26A
100
AcDbEntity
  8
RACCORDO
100
AcDbLine
 62
7
  6
CONTINUOUS
 10
-32.4507080078
 20
26.8497624901
 11
-32.4507080078
 21
28.451913151
  0
LINE
  5
26B
100
AcDbEntity
  8
RACCORDO
100
AcDbLine
 62
253
  6
CONTINUOUS
 10
-31.922440836
 20
28.7153519711
 11
-31.922440836
 21
28.3678204543
  0
LINE
  5
26C
100
AcDbEntity
  8
RACCORDO
100
AcDbLine
 62
7
  6
CONTINUOUS
 10
-31.850242979
 20
28.8032246032
 11
-31.850242979
 21
28.4556930865
  0
LINE
  5
26D
100
AcDbEntity
  8
RACCORDO
100
AcDbLine
 62
7
  6
CONTINUOUS
 10
-30.2262840034
 20
26.3360742136
 11
-30.2262840034
 21
25.0952573235
  0
LINE
  5
26E
100
AcDbEntity
  8
RACCORDO
100
AcDbLine
 62
253
  6
CONTINUOUS
 10
-30.079837394
 20
25.9924172446
 11
-30.079837394
 21
24.9118339338
  0
LWPOLYLINE
  5
26F
100
AcDbEntity
  8
RACCORDO
100
AcDbPolyline
 62
7
  6
CONTINUOUS
 90
3
 70
0
 10
-30.2214625643
 20
26.3770305841
 10
-30.2244566824
 20
26.3443537059
 10
-30.2245815788
 20
26.3363179268
  0
LWPOLYLINE
  5
270
100
AcDbEntity
  8
RACCORDO
100
AcDbPolyline
 62
253
  6
CONTINUOUS
 90
6
 70
0
 10
-22.3421758082
 20
21.7483309702
 10
-22.3294239777
 20
21.7784649212
 10
-22.3142413959
 20
21.8075614159
 10
-22.2969318399
 20
21.8350587865
 10
-22.2777611233
 20
21.8605526975
 10
-22.2570602817
 20
21.8836044411
  0
LWPOLYLINE
  5
271
100
AcDbEntity
  8
RACCORDO
100
AcDbPolyline
 62
7
  6
CONTINUOUS
 90
7
 70
0
 10
-22.4198162914
 20
21.8130128319
 10
-22.4054416178
 20
21.8424947004
 10
-22.3872834826
 20
21.8699034795
 10
-22.3657201704
 20
21.8946576029
 10
-22.3409838829
 20
21.9164616067
 10
-22.3135927374
 20
21.9348207685
 10
-22.3025272817
 20
21.940855455
  0
LWPOLYLINE
  5
272
100
AcDbEntity
  8
0
100
AcDbPolyline
 62
7
  6
CONTINUOUS
 90
19
 70
0
 10
-36.3627987287
 20
-6.0215951005
 10
-36.4085228191
 20
-6.1108194801
 10
-36.443988416
 20
-6.2124269568
 10
-36.4677884845
 20
-6.3223864335
 10
-36.4794540129
 20
-6.4410337017
 10
-36.4794540129
 20
-6.5680329699
 10
-36.4677884845
 20
-6.6983457665
 10
-36.443988416
 20
-6.8321053116
 10
-36.4085228191
 20
-6.9691783852
 10
-36.3627987287
 20
-7.1041268552
 10
-36.3064037028
 20
-7.2368653022
 10
-36.2397501834
 20
-7.3674791455
 10
-36.1654825312
 20
-7.4907865118
 10
-36.0832946203
 20
-7.6064936448
 10
-35.9934925766
 20
-7.7148943008
 10
-35.8996391374
 20
-7.8116878752
 10
-35.8029218818
 20
-7.8954408333
 10
-35.7021532307
 20
-7.9675867099
 10
-35.5973331841
 20
-8.0281255049
  0
LWPOLYLINE
  5
273
100
AcDbEntity
  8
0
100
AcDbPolyline
 62
7
  6
CONTINUOUS
 90
23
 70
0
 10
-36.3627987287
 20
-6.0215951005
 10
-36.3982511788
 20
-6.0874580546
 10
-36.4279074942
 20
-6.1603175622
 10
-36.4510990614
 20
-6.2385309764
 10
-36.4676790265
 20
-6.3222199172
 10
-36.4777942434
 20
-6.4112627646
 10
-36.4812166605
 20
-6.5036520119
 10
-36.4777942434
 20
-6.5994636764
 10
-36.4676790265
 20
-6.6986217407
 10
-36.4510990614
 20
-6.7988906465
 10
-36.4279074942
 20
-6.900295628
 10
-36.3982511788
 20
-7.002811451
 10
-36.3627987287
 20
-7.1041268552
 10
-36.3214184783
 20
-7.2042145718
 10
-36.2742420932
 20
-7.3031018696
 10
-36.2223331841
 20
-7.3985592948
 10
-36.1655842462
 20
-7.490508934
 10
-36.1041027842
 20
-7.5790287007
 10
-36.0392749223
 20
-7.6621228811
 10
-35.9710246433
 20
-7.739668227
 10
-35.8994279644
 20
-7.8117879866
 10
-35.8260990614
 20
-7.8768561912
 10
-35.751575993
 20
-7.9343308509
  0
LWPOLYLINE
  5
274
100
AcDbEntity
  8
RACCORDO
100
AcDbPolyline
 62
253
  6
CONTINUOUS
 90
14
 70
0
 10
-34.1381065537
 20
7.8197295767
 10
-34.1123818224
 20
7.8507178201
 10
-34.088442597
 20
7.88417906
 10
-34.0663729623
 20
7.9200104919
 10
-34.0462511258
 20
7.9580863784
 10
-34.0281274132
 20
7.9983023046
 10
-34.0120410431
 20
8.0405610574
 10
-33.9980366265
 20
8.0847295312
 10
-33.9861482617
 20
8.1306683828
 10
-33.9763914234
 20
8.1782804587
 10
-33.9687774943
 20
8.2274915879
 10
-33.9633236996
 20
8.2781965873
 10
-33.9600461573
 20
8.3302541865
 10
-33.9589527852
 20
8.3835354729
  0
LWPOLYLINE
  5
275
100
AcDbEntity
  8
RACCORDO
100
AcDbPolyline
 62
253
  6
CONTINUOUS
 90
15
 70
0
 10
-34.2836874858
 20
7.8292701588
 10
-34.2581679291
 20
7.8557270659
 10
-34.2342621191
 20
7.8845242214
 10
-34.2120155582
 20
7.9156195056
 10
-34.1915063913
 20
7.9489173901
 10
-34.1728073114
 20
7.9843010431
 10
-34.1559651081
 20
8.0216734494
 10
-34.1410162072
 20
8.0609442473
 10
-34.1280020157
 20
8.1019897034
 10
-34.1169541761
 20
8.1446803026
 10
-34.1078871098
 20
8.1889258003
 10
-34.1008114749
 20
8.2346573222
 10
-34.0957433068
 20
8.2817771301
 10
-34.092697558
 20
8.3301539187
 10
-34.0916815865
 20
8.3796678837
  0
LWPOLYLINE
  5
276
100
AcDbEntity
  8
RACCORDO
100
AcDbPolyline
 62
253
  6
CONTINUOUS
 90
3
 70
0
 10
-22.2570602817
 20
21.8836044411
 10
-22.2351856391
 20
21.9038192897
 10
-22.2125122284
 20
21.9208526172
  0
LINE
  5
277
100
AcDbEntity
  8
RACCORDO
100
AcDbLine
 62
253
  6
CONTINUOUS
 10
-22.2125122284
 20
21.9208526172
 11
-22.1894290177
 21
21.934413944
  0
LINE
  5
278
100
AcDbEntity
  8
RACCORDO
100
AcDbLine
 62
7
  6
CONTINUOUS
 10
-23.5058072258
 20
22.3773120991
 11
-23.863486375
 21
22.1777161472
  0
LINE
  5
279
100
AcDbEntity
  8
RACCORDO
100
AcDbLine
 62
7
  6
CONTINUOUS
 10
-20.7197580283
 20
22.7528460434
 11
-22.3025146838
 21
21.9408619192
  0
LINE
  5
27A
100
AcDbEntity
  8
RACCORDO
100
AcDbLine
 62
253
  6
CONTINUOUS
 10
-20.6066724145
 20
22.7463980414
 11
-22.1894290177
 21
21.934413944
  0
LINE
  5
27B
100
AcDbEntity
  8
RACCORDO
100
AcDbLine
 62
7
  6
CONTINUOUS
 10
-23.863486375
 20
23.4104431195
 11
-23.5058072258
 21
23.5897476644
  0
LINE
  5
27C
100
AcDbEntity
  8
RACCORDO
100
AcDbLine
 62
7
  6
CONTINUOUS
 10
-20.7180204421
 20
22.7537148835
 11
-20.7197580283
 21
22.7528460434
  0
LINE
  5
27D
100
AcDbEntity
  8
RACCORDO
100
AcDbLine
 62
7
  6
CONTINUOUS
 10
-23.5058072258
 20
23.5897476644
 11
-18.1809731556
 21
26.2451615901
  0
LINE
  5
27E
100
AcDbEntity
  8
DRAFT
100
AcDbLine
 62
7
  6
CONTINUOUS
 10
-23.5058072258
 20
22.3773120991
 11
-18.1809731556
 21
25.013643531
  0
LINE
  5
27F
100
AcDbEntity
  8
RACCORDO
100
AcDbLine
 62
7
  6
CONTINUOUS
 10
-18.7879695598
 20
26.5469117722
 11
-23.4350965477
 21
24.2564607181
  0
LINE
  5
280
100
AcDbEntity
  8
RACCORDO
100
AcDbLine
 62
7
  6
CONTINUOUS
 10
-17.4185183151
 20
26.3352632036
 11
-18.0573790917
 21
26.0226610785
  0
LINE
  5
281
100
AcDbEntity
  8
RACCORDO
100
AcDbLine
 62
7
  6
CONTINUOUS
 10
-20.1827346469
 20
23.014480299
 11
-20.7180205125
 21
22.7537255967
  0
LINE
  5
282
100
AcDbEntity
  8
RACCORDO
100
AcDbLine
 62
253
  6
CONTINUOUS
 10
-20.0722225358
 20
23.0067455079
 11
-20.6066724145
 21
22.7463980414
  0
LWPOLYLINE
  5
283
100
AcDbEntity
  8
RACCORDO
100
AcDbPolyline
 62
7
  6
CONTINUOUS
 90
12
 70
0
 10
-17.4185183151
 20
26.3352632036
 10
-17.3722232348
 20
26.3560178526
 10
-17.3265330301
 20
26.3728888535
 10
-17.2814477008
 20
26.3858762064
 10
-17.2367819704
 20
26.3950019544
 10
-17.1927211156
 20
26.4002440543
 10
-17.1498209665
 20
26.4015363767
 10
-17.1080962274
 20
26.3988288847
 10
-17.0675321941
 20
26.3921716151
 10
-17.0286405842
 20
26.38164855
 10
-16.9914425845
 20
26.367210716
 10
-16.9774903278
 20
26.3605826436
  0
LWPOLYLINE
  5
284
100
AcDbEntity
  8
RACCORDO
100
AcDbPolyline
 62
7
  6
CONTINUOUS
 90
5
 70
0
 10
-24.4090251212
 20
23.2834151767
 10
-24.4535622702
 20
23.2703789283
 10
-24.4948593108
 20
23.2575093492
 10
-24.5331196674
 20
23.2461080135
 10
-24.5685302943
 20
23.2367636947
  0
LINE
  5
285
100
AcDbEntity
  8
RACCORDO
100
AcDbLine
 62
253
  6
CONTINUOUS
 10
13.2616824818
 20
-35.523845344
 11
12.73341531
 21
-35.4153430669
  0
LINE
  5
286
100
AcDbEntity
  8
RACCORDO
100
AcDbLine
 62
253
  6
CONTINUOUS
 10
13.1722686864
 20
-35.204278538
 11
12.73341531
 21
-35.1141412113
  0
LWPOLYLINE
  5
287
100
AcDbEntity
  8
RACCORDO
100
AcDbPolyline
 62
7
  6
CONTINUOUS
 90
13
 70
0
 10
11.8433551273
 20
-35.7309521078
 10
11.8208434941
 20
-35.7254706559
 10
11.7957758921
 20
-35.7191758715
 10
11.7684364465
 20
-35.7118789803
 10
11.7392082882
 20
-35.7031560516
 10
11.70845618
 20
-35.6931039032
 10
11.6765117313
 20
-35.6823196861
 10
11.6438725947
 20
-35.6706641616
 10
11.6111107034
 20
-35.6580486284
 10
11.5787475629
 20
-35.6451530465
 10
11.5474228589
 20
-35.6321886703
 10
11.5178751307
 20
-35.6189256391
 10
11.4908331677
 20
-35.6054393839
  0
LWPOLYLINE
  5
288
100
AcDbEntity
  8
RACCORDO
100
AcDbPolyline
 62
253
  6
CONTINUOUS
 90
6
 70
0
 10
10.7796125596
 20
-36.9219097952
 10
10.8041027584
 20
-36.9326537114
 10
10.8311793832
 20
-36.9417139704
 10
10.860382566
 20
-36.9489366931
 10
10.8912163215
 20
-36.9541992093
 10
10.9231569707
 20
-36.9574121406
  0
LWPOLYLINE
  5
289
100
AcDbEntity
  8
RACCORDO
100
AcDbPolyline
 62
253
  6
CONTINUOUS
 90
13
 70
0
 10
10.7796125596
 20
-36.581935861
 10
10.8041027584
 20
-36.5926797773
 10
10.8311793832
 20
-36.6017400363
 10
10.860382566
 20
-36.608962759
 10
10.8912163215
 20
-36.6142252752
 10
10.9231569707
 20
-36.6174382064
 10
10.9556620354
 20
-36.6185469845
 10
10.9881794511
 20
-36.6175327781
 10
11.0201569437
 20
-36.6144128122
 10
11.0510514092
 20
-36.6092400764
 10
11.0803381375
 20
-36.602102424
 10
11.1075197244
 20
-36.5931210806
 10
11.1321345192
 20
-36.5824485849
  0
LWPOLYLINE
  5
28A
100
AcDbEntity
  8
RACCORDO
100
AcDbPolyline
 62
7
  6
CONTINUOUS
 90
9
 70
0
 10
10.844583386
 20
-37.0571270102
 10
10.8591058561
 20
-37.0638167804
 10
10.8895127142
 20
-37.0744104849
 10
10.9211373673
 20
-37.0810235777
 10
10.9535160459
 20
-37.0835049363
 10
10.9861415212
 20
-37.0817447394
 10
11.0184189299
 20
-37.0757038569
 10
11.0497353064
 20
-37.0654406461
 10
11.0658699879
 20
-37.0582745767
  0
LWPOLYLINE
  5
28B
100
AcDbEntity
  8
RACCORDO
100
AcDbPolyline
 62
7
  6
CONTINUOUS
 90
9
 70
0
 10
6.5939613595
 20
-36.8614039811
 10
6.6086039076
 20
-36.8686272234
 10
6.7120253448
 20
-36.9106597778
 10
6.8224165248
 20
-36.9399779522
 10
6.9388671961
 20
-36.9554906297
 10
7.0596923654
 20
-36.9562793103
 10
7.1827139529
 20
-36.9419522039
 10
7.3066205965
 20
-36.9124210107
 10
7.4269617926
 20
-36.8692090446
  0
LINE
  5
28C
100
AcDbEntity
  8
RACCORDO
100
AcDbLine
 62
253
  6
CONTINUOUS
 10
-40.4548614012
 20
-12.7731622678
 11
6.2036874766
 21
-36.1024367067
  0
LINE
  5
28D
100
AcDbEntity
  8
RACCORDO
100
AcDbLine
 62
7
  6
CONTINUOUS
 10
6.5972004529
 20
-36.8630584522
 11
-40.0713584638
 21
-13.5287780349
  0
LWPOLYLINE
  5
28E
100
AcDbEntity
  8
RACCORDO
100
AcDbPolyline
 62
253
  6
CONTINUOUS
 90
12
 70
0
 10
-40.0713584638
 20
-13.5287780349
 10
-40.0897576045
 20
-13.5190977373
 10
-40.1530072336
 20
-13.4784610709
 10
-40.2111832805
 20
-13.4290244946
 10
-40.2638851197
 20
-13.3711305071
 10
-40.3106779234
 20
-13.3053091054
 10
-40.3512320707
 20
-13.2321549981
 10
-40.3853738774
 20
-13.1521280562
 10
-40.4129664172
 20
-13.0656332305
 10
-40.4338401168
 20
-12.9731923272
 10
-40.4478353785
 20
-12.8754827975
 10
-40.4548614012
 20
-12.7731622678
  0
LWPOLYLINE
  5
28F
100
AcDbEntity
  8
RACCORDO
100
AcDbPolyline
 62
253
  6
CONTINUOUS
 90
12
 70
0
 10
-20.6876706342
 20
20.6270581312
 10
-20.700751009
 20
20.5976629726
 10
-20.7166043411
 20
20.5702844163
 10
-20.7349603779
 20
20.5453891861
 10
-20.755506203
 20
20.5234016723
 10
-20.7778915706
 20
20.5046966973
 10
-20.8017348761
 20
20.4895931259
 10
-20.8266296614
 20
20.4783484294
 10
-20.8521515437
 20
20.4711542967
 10
-20.8778654501
 20
20.4681333668
 10
-20.9033330341
 20
20.4693371375
 10
-20.9145141277
 20
20.4712369704
  0
LINE
  5
290
100
AcDbEntity
  8
0
100
AcDbLine
 62
7
  6
CONTINUOUS
 10
-36.3214184783
 20
-5.9628876343
 11
-36.3627987287
 21
-6.0215951005
  0
LINE
  5
291
100
AcDbEntity
  8
RACCORDO
100
AcDbLine
 62
7
  6
CONTINUOUS
 10
-18.5219781019
 20
21.6442019295
 11
-18.5427456083
 21
21.6148463031
  0
LINE
  5
292
100
AcDbEntity
  8
0
100
AcDbLine
 62
7
  6
CONTINUOUS
 10
-36.3064037028
 20
-5.9452516794
 11
-36.3627987287
 21
-6.0215951005
  0
LINE
  5
293
100
AcDbEntity
  8
RACCORDO
100
AcDbLine
 62
253
  6
CONTINUOUS
 10
-19.0863898434
 20
21.0427092163
 11
-18.5581226716
 21
21.6856613721
  0
LINE
  5
294
100
AcDbEntity
  8
RACCORDO
100
AcDbLine
 62
7
  6
CONTINUOUS
 10
-19.0863898434
 20
20.95317875
 11
-18.5427620992
 21
21.6148262055
  0
LWPOLYLINE
  5
295
100
AcDbEntity
  8
RACCORDO
100
AcDbPolyline
 62
7
  6
CONTINUOUS
 90
12
 70
0
 10
-19.9764500261
 20
20.4785546083
 10
-19.9991951657
 20
20.4538668478
 10
-20.0241652336
 20
20.4303964359
 10
-20.0512497969
 20
20.4086043096
 10
-20.0804422118
 20
20.3890113488
 10
-20.1113664054
 20
20.3720094388
 10
-20.1432930386
 20
20.3578830145
 10
-20.1758978665
 20
20.3470812088
 10
-20.2088156554
 20
20.3400014089
 10
-20.2411911318
 20
20.3368795807
 10
-20.2723958947
 20
20.3380347268
 10
-20.2900626302
 20
20.3408509249
  0
LWPOLYLINE
  5
296
100
AcDbEntity
  8
CIRCUITO_LETTORE_SA
100
AcDbPolyline
 62
7
  6
CONTINUOUS
 90
7
 70
0
 10
-11.230269221
 20
28.5222573136
 10
-11.1930009804
 20
28.558130262
 10
-11.1258963989
 20
28.6391326574
 10
-11.0734198726
 20
28.7220948407
 10
-11.0359036942
 20
28.8070613305
 10
-11.0130155711
 20
28.8939876082
 10
-11.0052715252
 20
28.9809138858
  0
LWPOLYLINE
  5
297
100
AcDbEntity
  8
RACCORDO
100
AcDbPolyline
 62
253
  6
CONTINUOUS
 90
3
 70
0
 10
-34.3394463569
 20
7.783514887
 10
-34.3107920202
 20
7.8051843043
 10
-34.2836874858
 20
7.8292701588
  0
LWPOLYLINE
  5
298
100
AcDbEntity
  8
0
100
AcDbPolyline
 62
7
  6
CONTINUOUS
 90
9
 70
0
 10
-34.2154532286
 20
7.7427851029
 10
-34.1496355968
 20
7.7889571013
 10
-34.0899716132
 20
7.847167587
 10
-34.0368716193
 20
7.917971915
 10
-33.9918887345
 20
8.0004184221
 10
-33.9564537665
 20
8.09215273
 10
-33.9309252482
 20
8.1913172229
 10
-33.9151396491
 20
8.2971890069
 10
-33.9090754171
 20
8.408474157
  0
LINE
  5
299
100
AcDbEntity
  8
RACCORDO
100
AcDbLine
 62
7
  6
CONTINUOUS
 10
-19.0863898434
 20
20.1676034078
 11
-19.9764500261
 21
19.6709224866
  0
LINE
  5
29A
100
AcDbEntity
  8
CORPO
100
AcDbLine
 62
7
  6
CONTINUOUS
 10
-18.4859248146
 20
21.9479410284
 11
-16.4347394139
 21
23.0137082021
  0
LINE
  5
29B
100
AcDbEntity
  8
RACCORDO
100
AcDbLine
 62
253
  6
CONTINUOUS
 10
-19.263163547
 20
22.0746436076
 11
-20.8644443379
 21
21.2719216041
  0
LINE
  5
29C
100
AcDbEntity
  8
RACCORDO
100
AcDbLine
 62
253
  6
CONTINUOUS
 10
-19.0863898434
 20
21.7697540688
 11
-20.6876706342
 21
20.9670320653
  0
LINE
  5
29D
100
AcDbEntity
  8
RACCORDO
100
AcDbLine
 62
253
  6
CONTINUOUS
 10
-18.7348963753
 20
22.3380824277
 11
-19.263163547
 21
22.0746436076
  0
LINE
  5
29E
100
AcDbEntity
  8
RACCORDO
100
AcDbLine
 62
253
  6
CONTINUOUS
 10
-18.5581226716
 20
22.0331928889
 11
-19.0863898434
 21
21.7697540688
  0
LINE
  5
29F
100
AcDbEntity
  8
RACCORDO
100
AcDbLine
 62
7
  6
CONTINUOUS
 10
-14.3515523712
 20
24.8017802316
 11
-19.0350892508
 21
22.5501562363
  0
LINE
  5
2A0
100
AcDbEntity
  8
CORPO
100
AcDbLine
 62
7
  6
CONTINUOUS
 10
-16.4347394139
 20
23.0137082021
 11
-12.7655475965
 21
24.7082625762
  0
LWPOLYLINE
  5
2A1
100
AcDbEntity
  8
RACCORDO
100
AcDbPolyline
 62
7
  6
CONTINUOUS
 90
6
 70
0
 10
-20.1827346469
 20
23.014480299
 10
-20.1446148695
 20
23.0293216658
 10
-20.1040459642
 20
23.0378216478
 10
-20.0622465708
 20
23.03948629
 10
-20.0199724149
 20
23.033984696
 10
-19.9792003501
 20
23.0213629069
  0
LWPOLYLINE
  5
2A2
100
AcDbEntity
  8
0
100
AcDbPolyline
 62
7
  6
CONTINUOUS
 90
3
 70
0
 10
2.5358603905
 20
-26.9931107439
 10
2.6041106695
 20
-26.983815677
 10
2.6321100104
 20
-26.9759264013
  0
LINE
  5
2A3
100
AcDbEntity
  8
0
100
AcDbLine
 62
7
  6
CONTINUOUS
 10
2.4642637116
 20
-26.9936338247
 11
2.5358603905
 21
-26.9931107439
  0
LINE
  5
2A4
100
AcDbEntity
  8
0
100
AcDbLine
 62
7
  6
CONTINUOUS
 10
2.3909348087
 20
-26.9853731262
 11
2.4642637116
 21
-26.9936338247
  0
LINE
  5
2A5
100
AcDbEntity
  8
0
100
AcDbLine
 62
7
  6
CONTINUOUS
 10
2.3164117403
 20
-26.9683247175
 11
2.3909348087
 21
-26.9853731262
  0
LWPOLYLINE
  5
2A6
100
AcDbEntity
  8
RACCORDO
100
AcDbPolyline
 62
253
  6
CONTINUOUS
 90
3
 70
0
 10
13.1953628184
 20
-35.2122062206
 10
13.1895273315
 20
-35.2095604214
 10
13.1722686864
 20
-35.204278538
  0
LINE
  5
2A7
100
AcDbEntity
  8
RACCORDO
100
AcDbLine
 62
7
  6
CONTINUOUS
 10
9.5196011762
 20
-36.3946359054
 11
10.844585856
 21
-37.0571282453
  0
LINE
  5
2A8
100
AcDbEntity
  8
RACCORDO
100
AcDbLine
 62
253
  6
CONTINUOUS
 10
9.4546278797
 20
-36.2594174553
 11
10.7796125596
 21
-36.9219097952
  0
LINE
  5
2A9
100
AcDbEntity
  8
RACCORDO
100
AcDbLine
 62
253
  6
CONTINUOUS
 10
10.7796125596
 20
-36.581935861
 11
9.5619186216
 21
-35.973088892
  0
LINE
  5
2AA
100
AcDbEntity
  8
RACCORDO
100
AcDbLine
 62
253
  6
CONTINUOUS
 10
10.8680009072
 20
-36.3502416872
 11
9.8618757117
 21
-35.8471790895
  0
LINE
  5
2AB
100
AcDbEntity
  8
RACCORDO
100
AcDbLine
 62
7
  6
CONTINUOUS
 10
11.0102395718
 20
-35.365142586
 11
11.4903189393
 21
-35.6051822697
  0
LINE
  5
2AC
100
AcDbEntity
  8
RACCORDO
100
AcDbLine
 62
253
  6
CONTINUOUS
 10
12.73341531
 20
-34.9848518498
 11
13.1722686864
 21
-35.204278538
  0
LINE
  5
2AD
100
AcDbEntity
  8
RACCORDO
100
AcDbLine
 62
7
  6
CONTINUOUS
 10
12.73341531
 20
-34.9812317002
 11
13.1956837377
 21
-35.212365914
  0
LINE
  5
2AE
100
AcDbEntity
  8
RACCORDO
100
AcDbLine
 62
7
  6
CONTINUOUS
 10
9.506592597
 20
-36.3876439022
 11
9.5195832589
 21
-36.3946269443
  0
LWPOLYLINE
  5
2AF
100
AcDbEntity
  8
RACCORDO
100
AcDbPolyline
 62
253
  6
CONTINUOUS
 90
7
 70
0
 10
9.4546278797
 20
-36.2594174553
 10
9.4331400472
 20
-36.2471723559
 10
9.4150195293
 20
-36.2336340435
 10
9.4005740838
 20
-36.219032452
 10
9.3900490515
 20
-36.2036155743
 10
9.3836231889
 20
-36.1876452497
 10
9.381404575
 20
-36.1710291076
  0
LWPOLYLINE
  5
2B0
100
AcDbEntity
  8
0
100
AcDbPolyline
 62
7
  6
CONTINUOUS
 90
3
 70
0
 10
-35.751575993
 20
-7.9343308509
 10
-35.6753207006
 20
-7.9847539555
 10
-35.5973331841
 20
-8.0281255049
  0
LWPOLYLINE
  5
2B1
100
AcDbEntity
  8
RACCORDO
100
AcDbPolyline
 62
7
  6
CONTINUOUS
 90
8
 70
0
 10
-30.22321547
 20
26.3056163846
 10
-30.2169432413
 20
26.2628237021
 10
-30.2047164413
 20
26.218009988
 10
-30.1871080623
 20
26.1724566472
 10
-30.1656893094
 20
26.1264424479
 10
-30.1408436834
 20
26.0805015355
 10
-30.1121640602
 20
26.0356302099
 10
-30.079837394
 20
25.9924172446
  0
LINE
  5
2B2
100
AcDbEntity
  8
DRAFT
100
AcDbLine
 62
253
  6
CONTINUOUS
 10
-24.7785994319
 20
26.4735269961
 11
-24.7785994319
 21
26.7208417847
  0
LINE
  5
2B3
100
AcDbEntity
  8
RACCORDO
100
AcDbLine
 62
253
  6
CONTINUOUS
 10
-24.5685302943
 20
22.1561803839
 11
-24.5685302943
 21
23.2367636947
  0
LINE
  5
2B4
100
AcDbEntity
  8
DRAFT
100
AcDbLine
 62
7
  6
CONTINUOUS
 10
-24.0714926507
 20
27.0743951753
 11
-24.0714926507
 21
27.6269533646
  0
LINE
  5
2B5
100
AcDbEntity
  8
RACCORDO
100
AcDbLine
 62
253
  6
CONTINUOUS
 10
-23.863486375
 20
22.1777161472
 11
-23.863486375
 21
23.4104431195
  0
LINE
  5
2B6
100
AcDbEntity
  8
DRAFT
100
AcDbLine
 62
253
  6
CONTINUOUS
 10
-23.7377170281
 20
27.7902737198
 11
-23.7377170281
 21
29.0217855063
  0
LINE
  5
2B7
100
AcDbEntity
  8
DRAFT
100
AcDbLine
 62
7
  6
CONTINUOUS
 10
-23.7179392601
 20
26.89761848
 11
-23.7179392601
 21
27.4501766693
  0
LINE
  5
2B8
100
AcDbEntity
  8
RACCORDO
100
AcDbLine
 62
7
  6
CONTINUOUS
 10
-23.6123675208
 20
27.9392968485
 11
-23.6123675208
 21
29.171571027
  0
LINE
  5
2B9
100
AcDbEntity
  8
DRAFT
100
AcDbLine
 62
7
  6
CONTINUOUS
 10
-23.5058072258
 20
23.5897476644
 11
-23.5058072258
 21
22.3773120991
  0
LINE
  5
2BA
100
AcDbEntity
  8
DRAFT
100
AcDbLine
 62
253
  6
CONTINUOUS
 10
-23.3643858695
 20
26.3151957085
 11
-23.3643858695
 21
26.7208417847
  0
LINE
  5
2BB
100
AcDbEntity
  8
RACCORDO
100
AcDbLine
 62
7
  6
CONTINUOUS
 10
-22.4384005784
 20
21.7184254767
 11
-22.4384005784
 21
21.3784515426
  0
LINE
  5
2BC
100
AcDbEntity
  8
CORPO
100
AcDbLine
 62
7
  6
CONTINUOUS
 10
-22.3744363759
 20
24.7792332213
 11
-22.3744363759
 21
25.2041338197
  0
LINE
  5
2BD
100
AcDbEntity
  8
RACCORDO
100
AcDbLine
 62
253
  6
CONTINUOUS
 10
-22.3651772737
 20
21.6300371291
 11
-22.3651772737
 21
21.290063195
  0
LINE
  5
2BE
100
AcDbEntity
  8
CORPO
100
AcDbLine
 62
253
  6
CONTINUOUS
 10
-22.3623110689
 20
25.2104118812
 11
-22.3623110689
 21
24.7852094777
  0
LINE
  5
2BF
100
AcDbEntity
  8
CORPO
100
AcDbLine
 62
7
  6
CONTINUOUS
 10
-22.0816508693
 20
25.5577410664
 11
-22.0816508693
 21
24.9235397733
  0
LINE
  5
2C0
100
AcDbEntity
  8
RACCORDO
100
AcDbLine
 62
7
  6
CONTINUOUS
 10
-21.7354076241
 20
20.4184724666
 11
-21.7354076241
 21
20.8724465683
  0
LINE
  5
2C1
100
AcDbEntity
  8
RACCORDO
100
AcDbLine
 62
253
  6
CONTINUOUS
 10
-21.6621843194
 20
20.3267607718
 11
-21.6621843194
 21
20.8358349159
  0
LWPOLYLINE
  5
2C2
100
AcDbEntity
  8
RACCORDO
100
AcDbPolyline
 62
253
  6
CONTINUOUS
 90
5
 70
0
 10
-22.3651772737
 20
21.6300371291
 10
-22.3637413892
 20
21.6582941356
 10
-22.3594171736
 20
21.687734934
 10
-22.352216542
 20
21.7178900644
 10
-22.3421758082
 20
21.7483309702
  0
LWPOLYLINE
  5
2C3
100
AcDbEntity
  8
RACCORDO
100
AcDbPolyline
 62
253
  6
CONTINUOUS
 90
13
 70
0
 10
-21.0401925938
 20
20.9675447892
 10
-21.0386783249
 20
20.9965795268
 10
-21.0341602509
 20
21.0266372408
 10
-21.0267140176
 20
21.0572032334
 10
-21.016465077
 20
21.0877548601
 10
-21.0035878596
 20
21.1177665711
 10
-20.9883039235
 20
21.1467192514
 10
-20.9708337102
 20
21.174175156
 10
-20.9515097652
 20
21.199593971
 10
-20.9308122493
 20
21.2223888968
 10
-20.9091716193
 20
21.242183517
 10
-20.886922841
 20
21.2587632984
 10
-20.8644443379
 20
21.2719216041
  0
LWPOLYLINE
  5
2C4
100
AcDbEntity
  8
RACCORDO
100
AcDbPolyline
 62
7
  6
CONTINUOUS
 90
4
 70
0
 10
-22.4384005784
 20
21.7184254767
 10
-22.4363520294
 20
21.7503599142
 10
-22.4301549401
 20
21.7821016492
 10
-22.4198162914
 20
21.8130128319
  0
LINE
  5
2C5
100
AcDbEntity
  8
0
100
AcDbLine
 62
7
  6
CONTINUOUS
 10
-36.2742420932
 20
-5.9111767216
 11
-36.3214184783
 21
-5.9628876343
  0
LWPOLYLINE
  5
2C6
100
AcDbEntity
  8
CIRCUITO_LETTORE_SA
100
AcDbPolyline
 62
7
  6
CONTINUOUS
 90
7
 70
0
 10
-7.6947353151
 20
26.7544903607
 10
-7.6574670745
 20
26.790363309
 10
-7.5903624929
 20
26.8713657045
 10
-7.5378859666
 20
26.9543278877
 10
-7.5003697882
 20
27.0392943776
 10
-7.4774816651
 20
27.1262206552
 10
-7.4697376192
 20
27.2131469328
  0
LINE
  5
2C7
100
AcDbEntity
  8
0
100
AcDbLine
 62
7
  6
CONTINUOUS
 10
-34.2431920522
 20
7.7277568299
 11
-34.2154532286
 21
7.7427851029
  0
LWPOLYLINE
  5
2C8
100
AcDbEntity
  8
RACCORDO
100
AcDbPolyline
 62
253
  6
CONTINUOUS
 90
6
 70
0
 10
-34.2838192674
 20
7.7074432223
 10
-34.2579702182
 20
7.7213961334
 10
-34.2255692188
 20
7.742023003
 10
-34.1947346588
 20
7.7653411779
 10
-34.1655678195
 20
7.791259648
 10
-34.1381065537
 20
7.8197295767
  0
LINE
  5
2C9
100
AcDbEntity
  8
0
100
AcDbLine
 62
7
  6
CONTINUOUS
 10
-35.4018532561
 20
9.9435111999
 11
-35.343396449
 21
9.9727396034
  0
LINE
  5
2CA
100
AcDbEntity
  8
CIRCUITO_LETTORE_SA
100
AcDbLine
 62
7
  6
CONTINUOUS
 10
-3.7375921804
 20
24.7759187933
 11
-2.0451164168
 21
25.6221566752
  0
LINE
  5
2CB
100
AcDbEntity
  8
0
100
AcDbLine
 62
7
  6
CONTINUOUS
 10
-34.2838192673
 20
7.7074432224
 11
-34.2431920522
 21
7.7277568299
  0
LINE
  5
2CC
100
AcDbEntity
  8
0
100
AcDbLine
 62
7
  6
CONTINUOUS
 10
-35.3011656536
 20
9.9913655964
 11
-35.343396449
 21
9.9727396034
  0
LINE
  5
2CD
100
AcDbEntity
  8
0
100
AcDbLine
 62
7
  6
CONTINUOUS
 10
2.2401564478
 20
-26.9424925297
 11
2.3164117403
 21
-26.9683247175
  0
LWPOLYLINE
  5
2CE
100
AcDbEntity
  8
0
100
AcDbPolyline
 62
7
  6
CONTINUOUS
 90
6
 70
0
 10
2.1621689313
 20
-26.9078765626
 10
2.2669889779
 20
-26.9521578141
 10
2.367757629
 20
-26.9807805887
 10
2.4644748846
 20
-26.9937448862
 10
2.5583283238
 20
-26.990804751
 10
2.6322655162
 20
-26.9754918571
  0
LINE
  5
2CF
100
AcDbEntity
  8
0
100
AcDbLine
 62
7
  6
CONTINUOUS
 10
2.1621689313
 20
-26.9078765626
 11
2.2401564478
 21
-26.9424925297
  0
LWPOLYLINE
  5
2D0
100
AcDbEntity
  8
RACCORDO
100
AcDbPolyline
 62
253
  6
CONTINUOUS
 90
17
 70
0
 10
1.5806900796
 20
-27.6990998188
 10
1.6949090779
 20
-27.7498731435
 10
1.806281002
 20
-27.7878213468
 10
1.9148070476
 20
-27.8129437917
 10
2.0213162169
 20
-27.8251886572
 10
2.124984301
 20
-27.8246052126
 10
2.2233334029
 20
-27.811344072
 10
2.3161402116
 20
-27.7851239841
 10
2.4036360725
 20
-27.7462219293
 10
2.4840246118
 20
-27.6956261172
 10
2.5571671319
 20
-27.6331356101
 10
2.623211485
 20
-27.5589464915
 10
2.6807893539
 20
-27.4746434459
 10
2.7297619737
 20
-27.379989567
 10
2.7702762036
 20
-27.2752174856
 10
2.8013890048
 20
-27.162617871
 10
2.8228882307
 20
-27.0419731247
  0
LWPOLYLINE
  5
2D1
100
AcDbEntity
  8
RACCORDO
100
AcDbPolyline
 62
253
  6
CONTINUOUS
 90
11
 70
0
 10
1.8727239403
 20
-27.1151063148
 10
1.9555081108
 20
-27.1521661599
 10
2.0372020623
 20
-27.1800335576
 10
2.1171802253
 20
-27.1985629448
 10
2.1948192757
 20
-27.2076919849
 10
2.2695527642
 20
-27.2074137405
 10
2.3408717046
 20
-27.1977701314
 10
2.4082233517
 20
-27.1789108479
 10
2.4711384557
 20
-27.1510377003
 10
2.5292653662
 20
-27.1143412663
 10
2.5455238099
 20
-27.1018014933
  0
LINE
  5
2D2
100
AcDbEntity
  8
RACCORDO
100
AcDbLine
 62
253
  6
CONTINUOUS
 10
-36.1788120358
 20
-8.8193487611
 11
1.5806900775
 21
-27.6990998136
  0
LINE
  5
2D3
100
AcDbEntity
  8
RACCORDO
100
AcDbLine
 62
253
  6
CONTINUOUS
 10
-35.8867781751
 20
-8.2353552571
 11
1.8727239403
 21
-27.1151063148
  0
LINE
  5
2D4
100
AcDbEntity
  8
0
100
AcDbLine
 62
7
  6
CONTINUOUS
 10
-35.5973331841
 20
-8.0281255049
 11
2.1621689313
 21
-26.9078765626
  0
LINE
  5
2D5
100
AcDbEntity
  8
RACCORDO
100
AcDbLine
 62
253
  6
CONTINUOUS
 10
13.1946864557
 20
-35.2178181036
 11
13.1722686864
 21
-35.204278538
  0
LWPOLYLINE
  5
2D6
100
AcDbEntity
  8
RACCORDO
100
AcDbPolyline
 62
253
  6
CONTINUOUS
 90
7
 70
0
 10
-36.109208586
 20
-5.9517419296
 10
-36.1349502988
 20
-5.9359834129
 10
-36.1700846336
 20
-5.9032684191
 10
-36.1985526932
 20
-5.8612487601
 10
-36.219689017
 20
-5.8109053328
 10
-36.2329992452
 20
-5.7534138194
 10
-36.238171881
 20
-5.690116953
  0
LINE
  5
2D7
100
AcDbEntity
  8
RACCORDO
100
AcDbLine
 62
7
  6
CONTINUOUS
 10
-22.4354543642
 20
21.3401837146
 11
-22.4383999957
 21
21.3787214107
  0
LWPOLYLINE
  5
2D8
100
AcDbEntity
  8
RACCORDO
100
AcDbPolyline
 62
253
  6
CONTINUOUS
 90
13
 70
0
 10
-20.6876706342
 20
20.9670320653
 10
-20.6893091064
 20
20.9959845345
 10
-20.6939264658
 20
21.0259626969
 10
-20.7014437117
 20
21.0564536396
 10
-20.7117322273
 20
21.0869356768
 10
-20.724615981
 20
21.1168872748
 10
-20.7398745374
 20
21.1457959755
 10
-20.7572468299
 20
21.1731671642
 10
-20.7764356264
 20
21.1985325325
 10
-20.7971126154
 20
21.2214580907
 10
-20.8189240232
 20
21.2415515929
 10
-20.8414966665
 20
21.2584692484
 10
-20.8644443379
 20
21.2719216041
  0
LWPOLYLINE
  5
2D9
100
AcDbEntity
  8
RACCORDO
100
AcDbPolyline
 62
253
  6
CONTINUOUS
 90
6
 70
0
 10
-22.3651772737
 20
21.290063195
 10
-22.3639698847
 20
21.2654056934
 10
-22.3603642032
 20
21.242292369
 10
-22.3544094722
 20
21.2210389595
 10
-22.3461713902
 20
21.201905723
 10
-22.3357708882
 20
21.1851921945
  0
LWPOLYLINE
  5
2DA
100
AcDbEntity
  8
RACCORDO
100
AcDbPolyline
 62
253
  6
CONTINUOUS
 90
9
 70
0
 10
-21.0401925938
 20
20.627570855
 10
-21.0389852048
 20
20.6029133535
 10
-21.0353795234
 20
20.5798000291
 10
-21.0294247924
 20
20.5585466196
 10
-21.0211867104
 20
20.5394133831
 10
-21.0107862084
 20
20.5226998546
 10
-20.9984329754
 20
20.5086988005
 10
-20.9843488587
 20
20.4975755649
 10
-20.9752278082
 20
20.4923566609
  0
LWPOLYLINE
  5
2DB
100
AcDbEntity
  8
RACCORDO
100
AcDbPolyline
 62
7
  6
CONTINUOUS
 90
15
 70
0
 10
-20.9602228135
 20
27.9410592133
 10
-20.9617725309
 20
27.9970027395
 10
-20.9662514614
 20
28.0507721207
 10
-20.9736596049
 20
28.1023673569
 10
-20.9840529833
 20
28.1519879614
 10
-20.9973755748
 20
28.1994344208
 10
-21.013459314
 20
28.2441081955
 10
-21.0323391803
 20
28.28597416
 10
-21.0539801943
 20
28.3250674397
 10
-21.0781093536
 20
28.3608948705
 10
-21.1047581786
 20
28.3934150797
 10
-21.1338951488
 20
28.4226694401
 10
-21.1651526997
 20
28.4482889062
 10
-21.1985576953
 20
28.4702274301
 10
-21.2201310149
 20
28.4819029871
  0
LWPOLYLINE
  5
2DC
100
AcDbEntity
  8
CORPO
100
AcDbPolyline
 62
7
  6
CONTINUOUS
 90
6
 70
0
 10
-22.0816524282
 20
25.5577410664
 10
-22.0818641881
 20
25.5680373924
 10
-22.0829466499
 20
25.5831865089
 10
-22.0849469261
 20
25.5982983074
 10
-22.087865168
 20
25.6133867193
 10
-22.0917013756
 20
25.6284517445
  0
LINE
  5
2DD
100
AcDbEntity
  8
RACCORDO
100
AcDbLine
 62
253
  6
CONTINUOUS
 10
-21.0401925938
 20
20.627570855
 11
-21.0401925938
 21
20.9675447892
  0
LINE
  5
2DE
100
AcDbEntity
  8
RACCORDO
100
AcDbLine
 62
7
  6
CONTINUOUS
 10
-20.9602228135
 20
27.9410592133
 11
-20.9602228135
 21
27.6702589207
  0
LINE
  5
2DF
100
AcDbEntity
  8
RACCORDO
100
AcDbLine
 62
253
  6
CONTINUOUS
 10
-20.6876706342
 20
20.6270581312
 11
-20.6876706342
 21
20.9670320653
  0
LINE
  5
2E0
100
AcDbEntity
  8
RACCORDO
100
AcDbLine
 62
253
  6
CONTINUOUS
 10
-20.3289719857
 20
20.3409043506
 11
-20.3289719857
 21
19.6601546049
  0
LINE
  5
2E1
100
AcDbEntity
  8
RACCORDO
100
AcDbLine
 62
253
  6
CONTINUOUS
 10
-19.9764500261
 20
20.4785546083
 11
-19.9764500261
 21
19.6709224866
  0
LINE
  5
2E2
100
AcDbEntity
  8
RACCORDO
100
AcDbLine
 62
7
  6
CONTINUOUS
 10
-19.0863898434
 20
20.1676034078
 11
-19.0863898434
 21
21.7697540688
  0
LINE
  5
2E3
100
AcDbEntity
  8
RACCORDO
100
AcDbLine
 62
253
  6
CONTINUOUS
 10
-18.5581226716
 20
22.0331928889
 11
-18.5581226716
 21
21.6856613721
  0
LINE
  5
2E4
100
AcDbEntity
  8
RACCORDO
100
AcDbLine
 62
7
  6
CONTINUOUS
 10
-18.4859248146
 20
22.121065521
 11
-18.4859248146
 21
21.7735340043
  0
LINE
  5
2E5
100
AcDbEntity
  8
DRAFT
100
AcDbLine
 62
253
  6
CONTINUOUS
 10
-18.1809731556
 20
25.013643531
 11
-18.1809731556
 21
26.2451615901
  0
LINE
  5
2E6
100
AcDbEntity
  8
RACCORDO
100
AcDbLine
 62
7
  6
CONTINUOUS
 10
-18.0573790917
 20
25.1618026339
 11
-18.0573790917
 21
26.3940768124
  0
LWPOLYLINE
  5
2E7
100
AcDbEntity
  8
RACCORDO
100
AcDbPolyline
 62
7
  6
CONTINUOUS
 90
5
 70
0
 10
-18.4859248146
 20
21.7735340043
 10
-18.4881846918
 20
21.7400005921
 10
-18.4949993707
 20
21.706790376
 10
-18.506321524
 20
21.6746283475
 10
-18.5219781019
 20
21.6442019295
  0
LWPOLYLINE
  5
2E8
100
AcDbEntity
  8
RACCORDO
100
AcDbPolyline
 62
253
  6
CONTINUOUS
 90
7
 70
0
 10
-18.4859248146
 20
21.7735340043
 10
-18.4879542853
 20
21.7576389062
 10
-18.4941942169
 20
21.7416501599
 10
-18.5045396886
 20
21.7262029271
 10
-18.5188149934
 20
21.7115595629
 10
-18.5367776801
 20
21.6979687695
 10
-18.5581226716
 20
21.6856613721
  0
LWPOLYLINE
  5
2E9
100
AcDbEntity
  8
RACCORDO
100
AcDbPolyline
 62
253
  6
CONTINUOUS
 90
7
 70
0
 10
-18.4859248146
 20
22.121065521
 10
-18.4881096606
 20
22.1045757557
 10
-18.4945681976
 20
22.0884810792
 10
-18.5051034599
 20
22.0730511945
 10
-18.5194166004
 20
22.0585671347
 10
-18.5372110696
 20
22.045215591
 10
-18.5581226716
 20
22.0331928889
  0
LWPOLYLINE
  5
2EA
100
AcDbEntity
  8
CIRCUITO_LETTORE_SA
100
AcDbPolyline
 62
7
  6
CONTINUOUS
 90
7
 70
0
 10
-4.1592014092
 20
24.9867234077
 10
-4.1219331686
 20
25.022596356
 10
-4.054828587
 20
25.1035987515
 10
-4.0023520607
 20
25.1865609348
 10
-3.9648358823
 20
25.2715274246
 10
-3.9419477592
 20
25.3584537022
 10
-3.9342037133
 20
25.4453799799
  0
LINE
  5
2EB
100
AcDbEntity
  8
0
100
AcDbLine
 62
7
  6
CONTINUOUS
 10
-36.2547948891
 20
-5.8957281663
 11
-36.3064037028
 21
-5.9452516794
  0
LINE
  5
2EC
100
AcDbEntity
  8
0
100
AcDbLine
 62
7
  6
CONTINUOUS
 10
-36.2555991375
 20
-5.8955363803
 11
-36.2742420932
 21
-5.9111767216
  0
LINE
  5
2ED
100
AcDbEntity
  8
CIRCUITO_LETTORE_SA
100
AcDbLine
 62
7
  6
CONTINUOUS
 10
0.8586018973
 20
22.4778217545
 11
2.551077661
 21
23.3240596363
  0
LWPOLYLINE
  5
2EE
100
AcDbEntity
  8
RACCORDO
100
AcDbPolyline
 62
7
  6
CONTINUOUS
 90
46
 70
0
 10
-34.2838192668
 20
7.7074432226
 10
-34.3194859778
 20
7.6912241966
 10
-34.3565602014
 20
7.6775621181
 10
-34.3949545798
 20
7.6665405394
 10
-34.4345891188
 20
7.6582321961
 10
-34.4753558059
 20
7.6527067041
 10
-34.5171227
 20
7.6500216042
 10
-34.5597794989
 20
7.6502171988
 10
-34.6032432868
 20
7.6533256405
 10
-34.6474308449
 20
7.6593757748
 10
-34.6923167658
 20
7.6684068136
 10
-34.7377428188
 20
7.6804305078
 10
-34.7834282822
 20
7.6953934484
 10
-34.829257598
 20
7.7132609288
 10
-34.8751568302
 20
7.7340093583
 10
-34.9209038517
 20
7.7575358889
 10
-34.9663865267
 20
7.7837692585
 10
-35.0115273456
 20
7.8126534906
 10
-35.0561531763
 20
7.8440629799
 10
-35.1001605582
 20
7.8779037499
 10
-35.143466977
 20
7.9140932481
 10
-35.1859300778
 20
7.9524912133
 10
-35.22744106
 20
7.9929723681
 10
-35.2679335114
 20
8.0354466585
 10
-35.3073283653
 20
8.0798103431
 10
-35.3455405388
 20
8.1259489337
 10
-35.3824885502
 20
8.1737467577
 10
-35.4180978282
 20
8.2230922622
 10
-35.4522912324
 20
8.2738657625
 10
-35.4849919407
 20
8.3259417652
 10
-35.5161276405
 20
8.3791950005
 10
-35.5456244821
 20
8.4334898071
 10
-35.5734201057
 20
8.4887035593
 10
-35.5994614997
 20
8.5447283143
 10
-35.6236904021
 20
8.6014422113
 10
-35.6460432269
 20
8.6587026018
 10
-35.6664627428
 20
8.7163701351
 10
-35.6848959647
 20
8.7743044147
 10
-35.701297506
 20
8.832376446
 10
-35.7156268082
 20
8.8904657435
 10
-35.7278423241
 20
8.9484383021
 10
-35.7379059736
 20
9.0061596589
 10
-35.7457854014
 20
9.063513029
 10
-35.7514485161
 20
9.120372619
 10
-35.7548650496
 20
9.1766003896
 10
-35.7560090601
 20
9.2320636101
  0
LWPOLYLINE
  5
2EF
100
AcDbEntity
  8
RACCORDO
100
AcDbPolyline
 62
253
  6
CONTINUOUS
 90
3
 70
0
 10
-36.238171883
 20
-5.690116948
 10
-36.3524463214
 20
-5.6393586011
 10
-36.4639371369
 20
-5.6014618241
  0
LINE
  5
2F0
100
AcDbEntity
  8
RACCORDO
100
AcDbLine
 62
7
  6
CONTINUOUS
 10
1.6516354642
 20
-24.8321664254
 11
-36.1082915479
 21
-5.9522035914
  0
LINE
  5
2F1
100
AcDbEntity
  8
RACCORDO
100
AcDbLine
 62
253
  6
CONTINUOUS
 10
1.5213302324
 20
-24.5698680057
 11
-36.238171881
 21
-5.690116953
  0
LINE
  5
2F2
100
AcDbEntity
  8
RACCORDO
100
AcDbLine
 62
253
  6
CONTINUOUS
 10
-36.1082915479
 20
-5.9522035914
 11
-36.109208586
 21
-5.9517419296
  0
LWPOLYLINE
  5
2F3
100
AcDbEntity
  8
RACCORDO
100
AcDbPolyline
 62
7
  6
CONTINUOUS
 90
25
 70
0
 10
1.6516219899
 20
-24.8321935922
 10
1.7293985064
 20
-24.8752811078
 10
1.8156579354
 20
-24.9325020309
 10
1.9045677919
 20
-25.0017683174
 10
1.9944384788
 20
-25.0826093667
 10
2.0835639427
 20
-25.1741895356
 10
2.1705922208
 20
-25.275710203
 10
2.254209356
 20
-25.3861080314
 10
2.3330914826
 20
-25.5040392213
 10
2.4062736809
 20
-25.6284272558
 10
2.4725995812
 20
-25.7575297564
 10
2.5308154269
 20
-25.8888296604
 10
2.5802595542
 20
-26.0203510256
 10
2.6207119031
 20
-26.1507138984
 10
2.6519343563
 20
-26.2781332703
 10
2.6737624731
 20
-26.399937573
 10
2.6867226061
 20
-26.5157878998
 10
2.6911901558
 20
-26.6266730865
 10
2.6871082891
 20
-26.7315718229
 10
2.6747780126
 20
-26.8274768162
 10
2.6552844615
 20
-26.9111678983
 10
2.6305223857
 20
-26.9803628469
 10
2.6025179075
 20
-27.0348653361
 10
2.5732542287
 20
-27.0751231116
 10
2.5454167797
 20
-27.101872253
  0
LINE
  5
2F4
100
AcDbEntity
  8
RACCORDO
100
AcDbLine
 62
253
  6
CONTINUOUS
 10
1.6358199979
 20
-24.6334882293
 11
1.5213302324
 21
-24.5698680057
  0
LWPOLYLINE
  5
2F5
100
AcDbEntity
  8
RACCORDO
100
AcDbPolyline
 62
253
  6
CONTINUOUS
 90
7
 70
0
 10
1.6512105557
 20
-24.8319546432
 10
1.6245447483
 20
-24.8157293318
 10
1.5894112865
 20
-24.7830122033
 10
1.5609449206
 20
-24.7409914459
 10
1.539810626
 20
-24.6906486658
 10
1.5265021007
 20
-24.6331598723
 10
1.5213302324
 20
-24.5698680057
  0
LINE
  5
2F6
100
AcDbEntity
  8
RACCORDO
100
AcDbLine
 62
253
  6
CONTINUOUS
 10
1.7479019297
 20
-24.7073826437
 11
1.6358199979
 21
-24.6334882293
  0
LWPOLYLINE
  5
2F7
100
AcDbEntity
  8
RACCORDO
100
AcDbPolyline
 62
7
  6
CONTINUOUS
 90
3
 70
0
 10
9.4543036236
 20
-36.3474809509
 10
9.4791179429
 20
-36.3692934642
 10
9.506592597
 20
-36.3876439022
  0
LWPOLYLINE
  5
2F8
100
AcDbEntity
  8
RACCORDO
100
AcDbPolyline
 62
253
  6
CONTINUOUS
 90
6
 70
0
 10
-31.9459664254
 20
28.8362019095
 10
-31.9588966117
 20
28.8663278815
 10
-31.9742714119
 20
28.8953650716
 10
-31.9918672115
 20
28.9228707068
 10
-32.0113469155
 20
28.9482999178
 10
-32.0322243648
 20
28.9710633462
  0
LWPOLYLINE
  5
2F9
100
AcDbEntity
  8
RACCORDO
100
AcDbPolyline
 62
7
  6
CONTINUOUS
 90
5
 70
0
 10
-31.8735203973
 20
28.9085660994
 10
-31.8612438916
 20
28.8765692433
 10
-31.8533924694
 20
28.8427816068
 10
-31.8502929499
 20
28.8082228933
 10
-31.850242984
 20
28.8032496199
  0
LWPOLYLINE
  5
2FA
100
AcDbEntity
  8
RACCORDO
100
AcDbPolyline
 62
7
  6
CONTINUOUS
 90
10
 70
0
 10
-19.0863898434
 20
21.7697540688
 10
-19.0892392885
 20
21.8086103547
 10
-19.0973418644
 20
21.8489871584
 10
-19.1104513886
 20
21.8896577041
 10
-19.1281695517
 20
21.9293862913
 10
-19.1499580192
 20
21.9669658389
 10
-19.1751547879
 20
22.0012545602
 10
-19.2029942998
 20
22.0312106545
 10
-19.2326307022
 20
22.05592396
 10
-19.263163547
 20
22.0746436076
  0
LWPOLYLINE
  5
2FB
100
AcDbEntity
  8
RACCORDO
100
AcDbPolyline
 62
253
  6
CONTINUOUS
 90
5
 70
0
 10
-18.5581226716
 20
22.0331928889
 10
-18.5595102782
 20
22.0622707909
 10
-18.5639162566
 20
22.0923546437
 10
-18.5712652224
 20
22.1229297265
 10
-18.5814314382
 20
22.1534729136
  0
LWPOLYLINE
  5
2FC
100
AcDbEntity
  8
RACCORDO
100
AcDbPolyline
 62
253
  6
CONTINUOUS
 90
10
 70
0
 10
-35.8867781751
 20
-8.2353552571
 10
-35.9408318685
 20
-8.2795392289
 10
-35.9920057943
 20
-8.3324924776
 10
-36.0390234511
 20
-8.3928941175
 10
-36.0807120131
 20
-8.4592374675
 10
-36.1160315854
 20
-8.5298676346
 10
-36.1441011433
 20
-8.6030227942
 10
-36.164220509
 20
-8.6768781372
 10
-36.1758878177
 20
-8.7495913883
 10
-36.1788120358
 20
-8.8193487611
  0
LWPOLYLINE
  5
2FD
100
AcDbEntity
  8
0
100
AcDbPolyline
 62
253
  6
CONTINUOUS
 90
7
 70
0
 10
-33.9091773443
 20
8.4008939641
 10
-33.8030144747
 20
8.2994221628
 10
-33.7074815149
 20
8.1955108207
 10
-33.6228294279
 20
8.0894329105
 10
-33.5492805927
 20
7.9814670964
 10
-33.4870282203
 20
7.8718970021
 10
-33.4362358465
 20
7.7610104658
  0
LWPOLYLINE
  5
2FE
100
AcDbEntity
  8
CIRCUITO_LETTORE_SA
100
AcDbPolyline
 62
7
  6
CONTINUOUS
 90
7
 70
0
 10
3.9725265745
 20
20.9208594159
 10
4.0097948151
 20
20.9567323642
 10
4.0768993967
 20
21.0377347597
 10
4.1293759229
 20
21.120696943
 10
4.1668921013
 20
21.2056634328
 10
4.1897802245
 20
21.2925897104
 10
4.1975242704
 20
21.3795159881
  0
LWPOLYLINE
  5
2FF
100
AcDbEntity
  8
RACCORDO
100
AcDbPolyline
 62
253
  6
CONTINUOUS
 90
3
 70
0
 10
-3.8003099402
 20
12.6571377422
 10
-3.7786693102
 20
12.6769323624
 10
-3.7564205319
 20
12.6935121438
  0
LINE
  5
300
100
AcDbEntity
  8
RACCORDO
100
AcDbLine
 62
253
  6
CONTINUOUS
 10
-35.8867781751
 20
-8.2353552571
 11
-35.5973331841
 21
-8.0281255049
  0
LINE
  5
301
100
AcDbEntity
  8
0
100
AcDbLine
 62
253
  6
CONTINUOUS
 10
-34.1002038616
 20
-6.9562474345
 11
-35.5973331841
 21
-8.0281255049
  0
LWPOLYLINE
  5
302
100
AcDbEntity
  8
RACCORDO
100
AcDbPolyline
 62
7
  6
CONTINUOUS
 90
6
 70
0
 10
-3.8470276949
 20
12.7131184247
 10
-3.8750289206
 20
12.6963582471
 10
-3.9010125498
 20
12.6757290163
 10
-3.9242989566
 20
12.651528621
 10
-3.9442445228
 20
12.6242455362
 10
-3.9603750271
 20
12.5944184584
  0
LINE
  5
303
100
AcDbEntity
  8
RACCORDO
100
AcDbLine
 62
253
  6
CONTINUOUS
 10
-3.7564205319
 20
12.6935121438
 11
-3.7339420287
 21
12.7066704496
  0
LINE
  5
304
100
AcDbEntity
  8
RACCORDO
100
AcDbLine
 62
7
  6
CONTINUOUS
 10
-2.2642710393
 20
13.5251025489
 11
-3.8470276949
 21
12.7131184247
  0
LINE
  5
305
100
AcDbEntity
  8
RACCORDO
100
AcDbLine
 62
253
  6
CONTINUOUS
 10
-2.1511854256
 20
13.5186545469
 11
-3.7339420287
 21
12.7066704496
  0
LINE
  5
306
100
AcDbEntity
  8
RACCORDO
100
AcDbLine
 62
253
  6
CONTINUOUS
 10
-0.8076765581
 20
12.8469001132
 11
-2.4089573489
 21
12.0441781096
  0
LINE
  5
307
100
AcDbEntity
  8
RACCORDO
100
AcDbLine
 62
253
  6
CONTINUOUS
 10
-0.6309028544
 20
12.5420105743
 11
-2.2321836452
 21
11.7392885708
  0
LINE
  5
308
100
AcDbEntity
  8
RACCORDO
100
AcDbLine
 62
7
  6
CONTINUOUS
 10
-2.2625334531
 20
13.525971389
 11
-2.2642710393
 21
13.5251025489
  0
LINE
  5
309
100
AcDbEntity
  8
RACCORDO
100
AcDbLine
 62
253
  6
CONTINUOUS
 10
-0.2794093863
 20
13.1103389332
 11
-0.8076765581
 21
12.8469001132
  0
LINE
  5
30A
100
AcDbEntity
  8
RACCORDO
100
AcDbLine
 62
253
  6
CONTINUOUS
 10
-0.1026356826
 20
12.8054493944
 11
-0.6309028544
 21
12.5420105743
  0
LINE
  5
30B
100
AcDbEntity
  8
RACCORDO
100
AcDbLine
 62
7
  6
CONTINUOUS
 10
-1.727247658
 20
13.7867368045
 11
-2.2625335236
 21
13.5259821022
  0
LINE
  5
30C
100
AcDbEntity
  8
RACCORDO
100
AcDbLine
 62
253
  6
CONTINUOUS
 10
-1.6167355469
 20
13.7790020135
 11
-2.1511854256
 21
13.5186545469
  0
LINE
  5
30D
100
AcDbEntity
  8
RACCORDO
100
AcDbLine
 62
7
  6
CONTINUOUS
 10
-1.7100944148
 20
13.7943104468
 11
-1.7272189031
 21
13.7867508059
  0
LWPOLYLINE
  5
30E
100
AcDbEntity
  8
RACCORDO
100
AcDbPolyline
 62
253
  6
CONTINUOUS
 90
3
 70
0
 10
-36.4639371369
 20
-5.6014618241
 10
-36.5726431336
 20
-5.5764259904
 10
-36.6793912757
 20
-5.564303574
  0
LWPOLYLINE
  5
30F
100
AcDbEntity
  8
DRAFT
100
AcDbPolyline
 62
7
  6
CONTINUOUS
 90
9
 70
0
 10
-0.8362121319
 20
-11.3821854668
 10
-0.6441490476
 20
-11.4679106425
 10
-0.4531615668
 20
-11.5324767866
 10
-0.2646959866
 20
-11.575344184
 10
-0.0801108874
 20
-11.5961281103
 10
0.0991122204
 20
-11.5946094786
 10
0.2713988924
 20
-11.5708032579
 10
0.4353556931
 20
-11.5249277623
 10
0.5811715786
 20
-11.4618309799
  0
LWPOLYLINE
  5
310
100
AcDbEntity
  8
0
100
AcDbPolyline
 62
7
  6
CONTINUOUS
 90
58
 70
0
 10
-1.8683114372
 20
-14.3846858962
 10
-2.1025845489
 20
-14.259628733
 10
-2.3348815712
 20
-14.1199817828
 10
-2.565200435
 20
-13.9657440126
 10
-2.794254246
 20
-13.7963199126
 10
-3.0213215826
 20
-13.6123008419
 10
-3.2442468076
 20
-13.4154651843
 10
-3.4630095482
 20
-13.2056973894
 10
-3.6776145281
 20
-12.9831052126
 10
-3.8859428506
 20
-12.7498015524
 10
-4.0877826867
 20
-12.505821862
 10
-4.2833246111
 20
-12.2511201369
 10
-4.4710535057
 20
-11.9876871871
 10
-4.651069228
 20
-11.7151946477
 10
-4.8232467877
 20
-11.4339584662
 10
-4.9857357969
 20
-11.1469369324
 10
-5.1382687219
 20
-10.8543710871
 10
-5.2810881559
 20
-10.5560076497
 10
-5.413112352
 20
-10.2540651582
 10
-5.534373095
 20
-9.9481604546
 10
-5.6448143345
 20
-9.6386648847
 10
-5.7432279771
 20
-9.3289314274
 10
-5.8293856751
 20
-9.0193364031
 10
-5.9034979843
 20
-8.7094949527
 10
-5.9650217361
 20
-8.4016215317
 10
-6.0139070254
 20
-8.0953307983
 10
-6.0501902948
 20
-7.7910017467
 10
-6.0734657454
 20
-7.4919991817
 10
-6.0835921899
 20
-7.1987640084
 10
-6.0807079295
 20
-6.9108541664
 10
-6.0648347132
 20
-6.6303140589
 10
-6.0358287393
 20
-6.3568495436
 10
-5.9938367001
 20
-6.0907564082
 10
-5.9393243775
 20
-5.8349679546
 10
-5.8722605437
 20
-5.5899014491
 10
-5.7926898349
 20
-5.3551463055
 10
-5.7011996845
 20
-5.1323978144
 10
-5.5975783354
 20
-4.9215090641
 10
-5.4820553613
 20
-4.7226356909
 10
-5.3558867687
 20
-4.537929936
 10
-5.2191298193
 20
-4.3677238499
 10
-5.071751481
 20
-4.2116970813
 10
-4.9148777272
 20
-4.0710258241
 10
-4.7482768574
 20
-3.9457312958
 10
-4.5722055412
 20
-3.8358042359
 10
-4.3885257534
 20
-3.7423767355
 10
-4.197352831
 20
-3.6656578825
 10
-3.9985965311
 20
-3.6054505228
 10
-3.7938124615
 20
-3.5622783141
 10
-3.5828161732
 20
-3.5363118935
 10
-3.3658133949
 20
-3.5273906932
 10
-3.1449451994
 20
-3.5355416448
 10
-2.9201951144
 20
-3.5609032353
 10
-2.6915952844
 20
-3.6033443671
 10
-2.4613588066
 20
-3.6624871648
 10
-2.2302262604
 20
-3.738207025
 10
-1.9974653941
 20
-3.8306324693
 10
-1.7630782787
 20
-3.9397644716
  0
LWPOLYLINE
  5
311
100
AcDbEntity
  8
RACCORDO
100
AcDbPolyline
 62
253
  6
CONTINUOUS
 90
3
 70
0
 10
13.2334914206
 20
-35.2558099189
 10
13.2152114558
 20
-35.2350932194
 10
13.1946864557
 20
-35.2178181036
  0
LWPOLYLINE
  5
312
100
AcDbEntity
  8
RACCORDO
100
AcDbPolyline
 62
253
  6
CONTINUOUS
 90
13
 70
0
 10
11.1321345192
 20
-36.5824485849
 10
11.1192001314
 20
-36.5631888445
 10
11.1034921965
 20
-36.5426994909
 10
11.0852501837
 20
-36.5213155565
 10
11.0647382572
 20
-36.4993696309
 10
11.0423052742
 20
-36.4772555058
 10
11.0183973945
 20
-36.4554210918
 10
10.9934501554
 20
-36.43426174
 10
10.9678679799
 20
-36.4141181575
 10
10.9420932079
 20
-36.3953382849
 10
10.9165686099
 20
-36.378243902
 10
10.8917296109
 20
-36.3631257857
 10
10.8680009072
 20
-36.3502416872
  0
LWPOLYLINE
  5
313
100
AcDbEntity
  8
RACCORDO
100
AcDbPolyline
 62
253
  6
CONTINUOUS
 90
7
 70
0
 10
-31.922440836
 20
28.3678204543
 10
-31.912488042
 20
28.3498914005
 10
-31.9057519808
 20
28.333777011
 10
-31.9023463887
 20
28.3197522512
 10
-31.9023277876
 20
28.3080568924
 10
-31.9056944528
 20
28.2988886984
 10
-31.9070440024
 20
28.2970295496
  0
LWPOLYLINE
  5
314
100
AcDbEntity
  8
CORPO
100
AcDbPolyline
 62
7
  6
CONTINUOUS
 90
14
 70
0
 10
-22.0917013756
 20
25.6284517445
 10
-22.094862859
 20
25.6383396344
 10
-22.0984341869
 20
25.647622141
 10
-22.1024075851
 20
25.6562954189
 10
-22.106775374
 20
25.6643169745
 10
-22.111529423
 20
25.6717220329
 10
-22.1166609834
 20
25.678623558
 10
-22.1221607947
 20
25.6850268925
 10
-22.128021352
 20
25.6909203389
 10
-22.1342367334
 20
25.6963914649
 10
-22.1407984635
 20
25.7014435232
 10
-22.1476988938
 20
25.7060675808
 10
-22.1549343745
 20
25.7103329321
 10
-22.1604278798
 20
25.7132263678
  0
LWPOLYLINE
  5
315
100
AcDbEntity
  8
CIRCUITO_LETTORE_SA
100
AcDbPolyline
 62
7
  6
CONTINUOUS
 90
25
 70
0
 10
-11.0052715252
 20
28.9809138858
 10
-11.0130155711
 20
29.0678401634
 10
-11.0359036942
 20
29.1547664411
 10
-11.0734198726
 20
29.2397329309
 10
-11.1258963989
 20
29.3226951142
 10
-11.1930009804
 20
29.4036975097
 10
-11.2732207176
 20
29.4809138858
 10
-11.3668535357
 20
29.554258239
 10
-11.4736015094
 20
29.6238165729
 10
-11.5910579628
 20
29.688020667
 10
-11.7194661509
 20
29.7467488937
 10
-11.8585828187
 20
29.8001228805
 10
-12.0052715252
 20
29.8469392896
 10
-12.1597042775
 20
29.8870491582
 10
-12.3217090684
 20
29.920601449
 10
-12.4876334349
 20
29.9468397121
 10
-12.6575664146
 20
29.9655978013
 10
-12.8314189699
 20
29.9770418629
 10
-13.0052715252
 20
29.9809138858
 10
-13.1791240804
 20
29.9770418629
 10
-13.3529766357
 20
29.9655978013
 10
-13.5229096154
 20
29.9468397121
 10
-13.6888339819
 20
29.920601449
 10
-13.8508387728
 20
29.8870491582
 10
-13.9225846695
 20
29.8684150379
  0
LINE
  5
316
100
AcDbEntity
  8
CORPO
100
AcDbLine
 62
7
  6
CONTINUOUS
 10
-7.1216831744
 20
36.245679681
 11
-7.1216347234
 21
28.1604158285
  0
LWPOLYLINE
  5
317
100
AcDbEntity
  8
RACCORDO
100
AcDbPolyline
 62
7
  6
CONTINUOUS
 90
5
 70
0
 10
-3.9603750271
 20
12.5944184584
 10
-3.9723735801
 20
12.5625075547
 10
-3.9799807918
 20
12.5288621998
 10
-3.9828846713
 20
12.4944843799
 10
-3.9829135871
 20
12.4906989022
  0
LWPOLYLINE
  5
318
100
AcDbEntity
  8
RACCORDO
100
AcDbPolyline
 62
253
  6
CONTINUOUS
 90
6
 70
0
 10
-3.8859627679
 20
12.5225037055
 10
-3.8730855505
 20
12.5525154165
 10
-3.8578016143
 20
12.5814680968
 10
-3.840331401
 20
12.6089240014
 10
-3.821007456
 20
12.6343428164
 10
-3.8003099402
 20
12.6571377422
  0
LINE
  5
319
100
AcDbEntity
  8
RACCORDO
100
AcDbLine
 62
253
  6
CONTINUOUS
 10
-0.087238849
 20
12.3871269729
 11
-0.0872751103
 21
12.387082711
  0
LINE
  5
31A
100
AcDbEntity
  8
RACCORDO
100
AcDbLine
 62
253
  6
CONTINUOUS
 10
-0.6309028544
 20
11.8149657219
 11
-0.1026356826
 21
12.4579178776
  0
LINE
  5
31B
100
AcDbEntity
  8
RACCORDO
100
AcDbLine
 62
7
  6
CONTINUOUS
 10
-0.6309028544
 20
11.7254352555
 11
-0.0872751103
 21
12.387082711
  0
LWPOLYLINE
  5
31C
100
AcDbEntity
  8
RACCORDO
100
AcDbPolyline
 62
7
  6
CONTINUOUS
 90
12
 70
0
 10
-1.5209630371
 20
11.2508111138
 10
-1.5437081767
 20
11.2261233533
 10
-1.5686782447
 20
11.2026529414
 10
-1.595762808
 20
11.1808608151
 10
-1.6249552228
 20
11.1612678543
 10
-1.6558794164
 20
11.1442659443
 10
-1.6878060496
 20
11.13013952
 10
-1.7204108775
 20
11.1193377143
 10
-1.7533286664
 20
11.1122579144
 10
-1.7857041428
 20
11.1091360862
 10
-1.8169089058
 20
11.1102912323
 10
-1.8345756412
 20
11.1131074304
  0
LWPOLYLINE
  5
31D
100
AcDbEntity
  8
CIRCUITO_LETTORE_SA
100
AcDbPolyline
 62
7
  6
CONTINUOUS
 90
7
 70
0
 10
7.5080604804
 20
19.1530924629
 10
7.545328721
 20
19.1889654113
 10
7.6124333026
 20
19.2699678067
 10
7.6649098289
 20
19.35292999
 10
7.7024260073
 20
19.4378964798
 10
7.7253141304
 20
19.5248227575
 10
7.7330581763
 20
19.6117490351
  0
LINE
  5
31E
100
AcDbEntity
  8
RACCORDO
100
AcDbLine
 62
7
  6
CONTINUOUS
 10
-0.6309028544
 20
10.9398599134
 11
-1.5209630371
 21
10.4431789921
  0
LINE
  5
31F
100
AcDbEntity
  8
RACCORDO
100
AcDbLine
 62
7
  6
CONTINUOUS
 10
1.737916864
 20
10.6097415
 11
2.0914582532
 21
10.7911149249
  0
LINE
  5
320
100
AcDbEntity
  8
CORPO
100
AcDbLine
 62
7
  6
CONTINUOUS
 10
-0.1013920333
 20
11.3746535948
 11
3.3642504593
 21
13.1142132655
  0
LINE
  5
321
100
AcDbEntity
  8
CIRCUITO_LETTORE_SA
100
AcDbLine
 62
7
  6
CONTINUOUS
 10
11.4652036151
 20
17.1745208956
 11
13.1576793788
 21
18.0207587774
  0
LINE
  5
322
100
AcDbEntity
  8
RACCORDO
100
AcDbLine
 62
7
  6
CONTINUOUS
 10
7.0916802072
 20
14.0801639424
 11
0.7771398806
 21
10.9353876379
  0
LINE
  5
323
100
AcDbEntity
  8
CORPO
100
AcDbLine
 62
7
  6
CONTINUOUS
 10
3.3642504593
 20
13.1142132655
 11
6.90754781
 21
14.871714873
  0
LINE
  5
324
100
AcDbEntity
  8
RACCORDO
100
AcDbLine
 62
7
  6
CONTINUOUS
 10
8.0820881253
 20
13.1118829296
 11
3.4349611374
 21
10.8214318755
  0
LINE
  5
325
100
AcDbEntity
  8
DRAFT
100
AcDbLine
 62
7
  6
CONTINUOUS
 10
7.7483125027
 20
11.7170507879
 11
8.0820881253
 21
11.8803711431
  0
LINE
  5
326
100
AcDbEntity
  8
CORPO
100
AcDbLine
 62
253
  6
CONTINUOUS
 10
6.90754781
 20
14.2741083896
 11
12.1537428361
 21
16.8302512851
  0
LINE
  5
327
100
AcDbEntity
  8
CORPO
100
AcDbLine
 62
253
  6
CONTINUOUS
 10
7.5286760834
 20
14.1075369724
 11
12.3658506394
 21
16.4643897608
  0
LINE
  5
328
100
AcDbEntity
  8
RACCORDO
100
AcDbLine
 62
7
  6
CONTINUOUS
 10
2.0914582532
 20
10.7911149249
 11
7.4786128504
 21
13.4153685871
  0
LWPOLYLINE
  5
329
100
AcDbEntity
  8
0
100
AcDbPolyline
 62
7
  6
CONTINUOUS
 90
28
 70
0
 10
-0.3167038303
 20
-11.1427708786
 10
-0.4814021417
 20
-11.0688013236
 10
-0.6436290353
 20
-10.9863006516
 10
-0.8028587384
 20
-10.8953031671
 10
-0.9603991112
 20
-10.7946409711
 10
-1.1136723937
 20
-10.6855431937
 10
-1.2572655156
 20
-10.5722311022
 10
-1.3903805714
 20
-10.4564211843
 10
-1.5150081481
 20
-10.3373742941
 10
-1.6310119766
 20
-10.2160370147
 10
-1.7389638075
 20
-10.0926267905
 10
-1.8395639016
 20
-9.9670367508
 10
-1.9329515263
 20
-9.8397172881
 10
-2.0197996845
 20
-9.7102909721
 10
-2.1004906099
 20
-9.578572052
 10
-2.1747710311
 20
-9.4453696931
 10
-2.2430925252
 20
-9.3102588592
 10
-2.3057889039
 20
-9.172767921
 10
-2.3625302953
 20
-9.0338102671
 10
-2.4135111229
 20
-8.8931473398
 10
-2.4589655139
 20
-8.750139953
 10
-2.4986896504
 20
-8.6053199157
 10
-2.5326631109
 20
-8.45864879
 10
-2.5609237242
 20
-8.3095362907
 10
-2.5833241467
 20
-8.1578560991
 10
-2.5996691547
 20
-8.00346617
 10
-2.6097107325
 20
-7.846186251
 10
-2.6131359014
 20
-7.6859457057
  0
LINE
  5
32A
100
AcDbEntity
  8
RACCORDO
100
AcDbLine
 62
253
  6
CONTINUOUS
 10
-35.7000890526
 20
27.8673512767
 11
-35.6877358197
 21
27.8533502226
  0
LWPOLYLINE
  5
32B
100
AcDbEntity
  8
RACCORDO
100
AcDbPolyline
 62
253
  6
CONTINUOUS
 90
6
 70
0
 10
-18.5814314382
 20
22.1534729136
 10
-18.5942409648
 20
22.1834616251
 10
-18.6094746371
 20
22.2123827679
 10
-18.6268718138
 20
22.2397415145
 10
-18.6461348373
 20
22.2650697694
 10
-18.6669341261
 20
22.2879341776
  0
LWPOLYLINE
  5
32C
100
AcDbEntity
  8
RACCORDO
100
AcDbPolyline
 62
7
  6
CONTINUOUS
 90
4
 70
0
 10
-18.5060337992
 20
22.2193005505
 10
-18.4950734128
 20
22.188077413
 10
-18.4883152441
 20
22.155554658
 10
-18.485924973
 20
22.1212062133
  0
LWPOLYLINE
  5
32D
100
AcDbEntity
  8
CIRCUITO_LETTORE_SA
100
AcDbPolyline
 62
7
  6
CONTINUOUS
 90
25
 70
0
 10
-7.4697376192
 20
27.2131469328
 10
-7.4774816651
 20
27.3000732105
 10
-7.5003697882
 20
27.3869994881
 10
-7.5378859666
 20
27.471965978
 10
-7.5903624929
 20
27.5549281612
 10
-7.6574670745
 20
27.6359305567
 10
-7.7376868116
 20
27.7131469328
 10
-7.8313196298
 20
27.7864912861
 10
-7.9380676035
 20
27.85604962
 10
-8.0555240568
 20
27.920253714
 10
-8.183932245
 20
27.9789819407
 10
-8.3230489128
 20
28.0323559276
 10
-8.4697376192
 20
28.0791723366
 10
-8.6241703715
 20
28.1192822052
 10
-8.7861751625
 20
28.152834496
 10
-8.952099529
 20
28.1790727591
 10
-9.1220325087
 20
28.1978308483
 10
-9.2958850639
 20
28.2092749099
 10
-9.4697376192
 20
28.2131469328
 10
-9.6435901745
 20
28.2092749099
 10
-9.8174427298
 20
28.1978308483
 10
-9.9873757094
 20
28.1790727591
 10
-10.153300076
 20
28.152834496
 10
-10.3153048669
 20
28.1192822052
 10
-10.3870507636
 20
28.1006480849
  0
LWPOLYLINE
  5
32E
100
AcDbEntity
  8
RACCORDO
100
AcDbPolyline
 62
253
  6
CONTINUOUS
 90
6
 70
0
 10
-3.9096902847
 20
12.0623197005
 10
-3.9084828957
 20
12.037662199
 10
-3.9048772143
 20
12.0145488745
 10
-3.8989224833
 20
11.993295465
 10
-3.8906844012
 20
11.9741622285
 10
-3.8802838992
 20
11.9574487
  0
LWPOLYLINE
  5
32F
100
AcDbEntity
  8
DRAFT
100
AcDbPolyline
 62
7
  6
CONTINUOUS
 90
19
 70
0
 10
-3.0220940967
 20
-7.5531926289
 10
-3.015780152
 20
-7.7946051898
 10
-2.9926841894
 20
-8.0426069209
 10
-2.952998004
 20
-8.2953178803
 10
-2.897058307
 20
-8.5508395885
 10
-2.8252873742
 20
-8.8072177915
 10
-2.7381940757
 20
-9.0624570322
 10
-2.6364719348
 20
-9.3145955771
 10
-2.5209051769
 20
-9.5617513347
 10
-2.3922981669
 20
-9.8020795329
 10
-2.2516915977
 20
-10.0336581074
 10
-2.1001175448
 20
-10.2548308812
 10
-1.938449276
 20
-10.4641932816
 10
-1.7675098908
 20
-10.6605032372
 10
-1.588925176
 20
-10.8417110042
 10
-1.4049412948
 20
-11.0055286928
 10
-1.2173303487
 20
-11.1506417133
 10
-1.0272684328
 20
-11.2764427323
 10
-0.8362121319
 20
-11.3821854668
  0
LWPOLYLINE
  5
330
100
AcDbEntity
  8
CORPO
100
AcDbPolyline
 62
7
  6
CONTINUOUS
 90
51
 70
0
 10
-7.1216831744
 20
36.245679681
 10
-7.1219547195
 20
36.2739239447
 10
-7.1224493587
 20
36.3018484543
 10
-7.1231472029
 20
36.3294420907
 10
-7.1240681413
 20
36.3567159731
 10
-7.1252718414
 20
36.3837034581
 10
-7.1267587854
 20
36.410408216
 10
-7.1285284912
 20
36.4368265766
 10
-7.1306391801
 20
36.462980886
 10
-7.1330866118
 20
36.4888575474
 10
-7.1358750266
 20
36.5144701576
 10
-7.1390753673
 20
36.5398818524
 10
-7.1426787385
 20
36.5650911616
 10
-7.1466940356
 20
36.5900995553
 10
-7.1512188876
 20
36.6149745802
 10
-7.1562579631
 20
36.6397754852
 10
-7.1618065935
 20
36.6644430213
 10
-7.1679484019
 20
36.6888669882
 10
-7.1747044621
 20
36.7130965648
 10
-7.1820537003
 20
36.7370825723
 10
-7.1900165182
 20
36.760567274
 10
-7.1986166699
 20
36.7835503767
 10
-7.2078304013
 20
36.8060321736
 10
-7.2176068526
 20
36.8277558074
 10
-7.227968024
 20
36.848698431
 10
-7.2388919152
 20
36.8688828915
 10
-7.2502616653
 20
36.8881208731
 10
-7.2620560229
 20
36.9063450213
 10
-7.2742962393
 20
36.9236226905
 10
-7.2869292079
 20
36.9399676287
 10
-7.2999431643
 20
36.9553685958
 10
-7.3133498729
 20
36.9698368318
 10
-7.3271315199
 20
36.9834198048
 10
-7.3412928966
 20
36.9961278233
 10
-7.3558292117
 20
37.0079505788
 10
-7.3707082783
 20
37.0189046144
 10
-7.3859337603
 20
37.0289927958
 10
-7.4015019937
 20
37.0382122573
 10
-7.4173697995
 20
37.0465709451
 10
-7.4335335079
 20
37.0540671667
 10
-7.4499967888
 20
37.0607026146
 10
-7.4667274725
 20
37.0664903121
 10
-7.4837307489
 20
37.071431576
 10
-7.5010014281
 20
37.0755250895
 10
-7.5184917709
 20
37.0787799261
 10
-7.536194519
 20
37.0811950859
 10
-7.5541169307
 20
37.0827715687
 10
-7.5722330416
 20
37.0835214475
 10
-7.5905545777
 20
37.0834439622
 10
-7.6090698131
 20
37.0825398728
 10
-7.6271819325
 20
37.0808838914
  0
LINE
  5
331
100
AcDbEntity
  8
RACCORDO
100
AcDbLine
 62
7
  6
CONTINUOUS
 10
-3.9829135894
 20
12.4906819822
 11
-3.9829135894
 21
12.1507080481
  0
LINE
  5
332
100
AcDbEntity
  8
RACCORDO
100
AcDbLine
 62
253
  6
CONTINUOUS
 10
-3.9096902847
 20
12.4022936346
 11
-3.9096902847
 21
12.0623197005
  0
LINE
  5
333
100
AcDbEntity
  8
RACCORDO
100
AcDbLine
 62
7
  6
CONTINUOUS
 10
-3.2799206351
 20
11.1907289721
 11
-3.2799206351
 21
11.6447030738
  0
LINE
  5
334
100
AcDbEntity
  8
RACCORDO
100
AcDbLine
 62
253
  6
CONTINUOUS
 10
-3.2066973304
 20
11.0990172773
 11
-3.2066973304
 21
11.6080914214
  0
LWPOLYLINE
  5
335
100
AcDbEntity
  8
RACCORDO
100
AcDbPolyline
 62
253
  6
CONTINUOUS
 90
13
 70
0
 10
-2.5847056049
 20
11.7398012947
 10
-2.5832044217
 20
11.7687075653
 10
-2.5787263683
 20
11.7986240764
 10
-2.5713474996
 20
11.8290427276
 10
-2.561193138
 20
11.85944689
 10
-2.5484357447
 20
11.8893201809
 10
-2.5332919905
 20
11.9181552339
 10
-2.5160190761
 20
11.945462316
 10
-2.496910364
 20
11.9707776449
 10
-2.4762903954
 20
11.9936712666
 10
-2.4545093789
 20
12.0137543569
 10
-2.431937242
 20
12.0306858257
 10
-2.4089573489
 20
12.0441781096
  0
LWPOLYLINE
  5
336
100
AcDbEntity
  8
RACCORDO
100
AcDbPolyline
 62
253
  6
CONTINUOUS
 90
5
 70
0
 10
-3.9096902847
 20
12.4022936346
 10
-3.9081760158
 20
12.4313283722
 10
-3.9036579418
 20
12.4613860862
 10
-3.8962117085
 20
12.4919520789
 10
-3.8859627679
 20
12.5225037055
  0
LWPOLYLINE
  5
337
100
AcDbEntity
  8
RACCORDO
100
AcDbPolyline
 62
253
  6
CONTINUOUS
 90
12
 70
0
 10
-2.2321836452
 20
11.3993146367
 10
-2.24526402
 20
11.3699194781
 10
-2.2611173521
 20
11.3425409218
 10
-2.2794733889
 20
11.3176456916
 10
-2.300019214
 20
11.2956581778
 10
-2.3224045816
 20
11.2769532029
 10
-2.3462478871
 20
11.2618496314
 10
-2.3711426724
 20
11.2506049349
 10
-2.3966645547
 20
11.2434108023
 10
-2.4223784611
 20
11.2403898723
 10
-2.4478460452
 20
11.241593643
 10
-2.4590271387
 20
11.2434934759
  0
LWPOLYLINE
  5
338
100
AcDbEntity
  8
CIRCUITO_LETTORE_SA
100
AcDbPolyline
 62
7
  6
CONTINUOUS
 90
7
 70
0
 10
11.0435943863
 20
17.38532551
 10
11.0808626269
 20
17.4211984583
 10
11.1479672085
 20
17.5022008538
 10
11.2004437348
 20
17.585163037
 10
11.2379599132
 20
17.6701295269
 10
11.2608480363
 20
17.7570558045
 10
11.2685920822
 20
17.8439820821
  0
LINE
  5
339
100
AcDbEntity
  8
CORPO
100
AcDbLine
 62
7
  6
CONTINUOUS
 10
7.6930795604
 20
8.692372664
 11
7.7836678417
 21
8.7394410648
  0
LINE
  5
33A
100
AcDbEntity
  8
DRAFT
100
AcDbLine
 62
7
  6
CONTINUOUS
 10
6.6860708166
 20
9.1958770359
 11
7.0412057215
 21
9.3772402365
  0
LINE
  5
33B
100
AcDbEntity
  8
0
100
AcDbLine
 62
7
  6
CONTINUOUS
 10
7.0412057215
 20
10.810939208
 11
7.7483125027
 21
11.1644925986
  0
LINE
  5
33C
100
AcDbEntity
  8
0
100
AcDbLine
 62
7
  6
CONTINUOUS
 10
8.1018658933
 20
10.9877159033
 11
9.4996503998
 21
11.6866081566
  0
LINE
  5
33D
100
AcDbEntity
  8
CIRCUITO_LETTORE_SA
100
AcDbLine
 62
7
  6
CONTINUOUS
 10
13.9354968381
 20
13.2135150844
 11
14.2183395505
 21
13.3549364406
  0
LINE
  5
33E
100
AcDbEntity
  8
RACCORDO
100
AcDbLine
 62
7
  6
CONTINUOUS
 10
13.0318355936
 20
10.6370091955
 11
8.3847086057
 21
8.3465581414
  0
LINE
  5
33F
100
AcDbEntity
  8
RACCORDO
100
AcDbLine
 62
7
  6
CONTINUOUS
 10
10.1586461511
 20
12.5466809704
 11
8.1018658933
 21
11.5402740926
  0
LINE
  5
340
100
AcDbEntity
  8
CORPO
100
AcDbLine
 62
7
  6
CONTINUOUS
 10
9.3039474213
 20
9.3649419211
 11
9.3165035442
 21
9.3710045746
  0
LINE
  5
341
100
AcDbEntity
  8
CORPO
100
AcDbLine
 62
7
  6
CONTINUOUS
 10
21.7439992262
 20
16.0318144368
 11
12.3658506394
 21
11.6021438295
  0
LINE
  5
342
100
AcDbEntity
  8
CORPO
100
AcDbLine
 62
253
  6
CONTINUOUS
 10
21.8739783214
 20
16.0212754517
 11
12.3658506394
 21
11.5302105752
  0
LINE
  5
343
100
AcDbEntity
  8
CORPO
100
AcDbLine
 62
7
  6
CONTINUOUS
 10
29.7623414558
 20
18.3620817574
 11
13.4450624179
 21
10.6904219791
  0
LINE
  5
344
100
AcDbEntity
  8
CORPO
100
AcDbLine
 62
253
  6
CONTINUOUS
 10
29.8936866073
 20
18.3522100676
 11
13.5501471846
 21
10.668203823
  0
LWPOLYLINE
  5
345
100
AcDbEntity
  8
CORPO
100
AcDbPolyline
 62
253
  6
CONTINUOUS
 90
18
 70
0
 10
21.8739783214
 20
16.0212754517
 10
21.8824623517
 20
16.0252188235
 10
21.8909320103
 20
16.0287393537
 10
21.8993737137
 20
16.0318310745
 10
21.9077746229
 20
16.0344889073
 10
21.9161205026
 20
16.0367079698
 10
21.9243957979
 20
16.0384839628
 10
21.9325865078
 20
16.0398139387
 10
21.9406802321
 20
16.0406959417
 10
21.9486640645
 20
16.0411285592
 10
21.956525249
 20
16.0411110824
 10
21.9642511143
 20
16.0406435218
 10
21.9718291767
 20
16.0397266274
 10
21.9792472437
 20
16.0383618806
 10
21.9864934538
 20
16.0365514695
 10
21.9935562074
 20
16.0342982923
 10
22.0004241827
 20
16.0316059575
 10
22.0062912224
 20
16.0288802916
  0
LINE
  5
346
100
AcDbEntity
  8
CORPO
100
AcDbLine
 62
7
  6
CONTINUOUS
 10
7.7836678417
 20
8.7394410648
 11
8.7570385346
 21
9.1889759072
  0
LWPOLYLINE
  5
347
100
AcDbEntity
  8
RACCORDO
100
AcDbPolyline
 62
7
  6
CONTINUOUS
 90
12
 70
0
 10
14.4012868383
 20
10.4253606269
 10
14.4475819186
 20
10.4461152759
 10
14.4932721233
 20
10.4629862768
 10
14.5383574526
 20
10.4759736297
 10
14.583023183
 20
10.4850993777
 10
14.6270840378
 20
10.4903414776
 10
14.6699841869
 20
10.4916338
 10
14.711708926
 20
10.488926308
 10
14.7522729593
 20
10.4822690384
 10
14.7911645692
 20
10.4717459733
 10
14.8283625689
 20
10.4573081393
 10
14.8423148256
 20
10.4506800669
  0
LWPOLYLINE
  5
348
100
AcDbEntity
  8
CORPO
100
AcDbPolyline
 62
7
  6
CONTINUOUS
 90
23
 70
0
 10
21.7439992262
 20
16.0318144368
 10
21.7550359487
 20
16.036757948
 10
21.7662752613
 20
16.0412572797
 10
21.7776953045
 20
16.0453022489
 10
21.7892122869
 20
16.0488664186
 10
21.8008633986
 20
16.0519650347
 10
21.812812121
 20
16.0546298929
 10
21.8251734584
 20
16.0568549377
 10
21.8377877978
 20
16.0585803366
 10
21.8504079946
 20
16.059764899
 10
21.8628966399
 20
16.060410097
 10
21.8753407539
 20
16.0605349215
 10
21.8878308722
 20
16.0601408406
 10
21.9003895251
 20
16.0592178969
 10
21.9129422504
 20
16.0577627113
 10
21.9254358882
 20
16.0557777731
 10
21.9378664404
 20
16.053260769
 10
21.9501915828
 20
16.0502173607
 10
21.9623105547
 20
16.0466761501
 10
21.9741645245
 20
16.0426662476
 10
21.9857864401
 20
16.0381878026
 10
21.9972194499
 20
16.0332276098
 10
22.0062967532
 20
16.028877526
  0
LWPOLYLINE
  5
349
100
AcDbEntity
  8
RACCORDO
100
AcDbPolyline
 62
253
  6
CONTINUOUS
 90
3
 70
0
 10
11.6595739061
 20
7.1122153976
 10
11.6403851096
 20
7.1061130528
 10
11.6370705065
 20
7.1045777223
  0
LWPOLYLINE
  5
34A
100
AcDbEntity
  8
RACCORDO
100
AcDbPolyline
 62
253
  6
CONTINUOUS
 90
31
 70
0
 10
-36.4365660067
 20
-5.8849073898
 10
-36.4844878005
 20
-5.8995856562
 10
-36.5478572918
 20
-5.9279233399
 10
-36.6064002261
 20
-5.9651043186
 10
-36.6596666129
 20
-6.010807161
 10
-36.7072660478
 20
-6.0646565315
 10
-36.7489335454
 20
-6.1263175628
 10
-36.7843412527
 20
-6.1953531846
 10
-36.8131841561
 20
-6.2712177785
 10
-36.8352719028
 20
-6.3533707453
 10
-36.8504055969
 20
-6.4412129239
 10
-36.8584381659
 20
-6.5340584352
 10
-36.8593408297
 20
-6.6311709055
 10
-36.8530824603
 20
-6.7318039589
 10
-36.8396935051
 20
-6.8351854474
 10
-36.8193398934
 20
-6.9404950322
 10
-36.7921705981
 20
-7.0469015918
 10
-36.7583786821
 20
-7.1536136731
 10
-36.718279923
 20
-7.2598640262
 10
-36.672185048
 20
-7.3648025866
 10
-36.6204115181
 20
-7.4676793264
 10
-36.563324252
 20
-7.5678901696
 10
-36.5013117054
 20
-7.6646796218
 10
-36.4348138081
 20
-7.7572849924
 10
-36.3642929303
 20
-7.8451057822
 10
-36.290228302
 20
-7.927464965
 10
-36.2131627037
 20
-8.0036638333
 10
-36.1336867793
 20
-8.0731087548
 10
-36.0523946725
 20
-8.1352260478
 10
-35.969883108
 20
-8.1894683059
 10
-35.8867781751
 20
-8.2353552571
  0
LWPOLYLINE
  5
34B
100
AcDbEntity
  8
RACCORDO
100
AcDbPolyline
 62
7
  6
CONTINUOUS
 90
5
 70
0
 10
7.4107800322
 20
7.3735126
 10
7.3662428832
 20
7.3604763516
 10
7.3249458426
 20
7.3476067725
 10
7.286685486
 20
7.3362054368
 10
7.2512748591
 20
7.326861118
  0
LWPOLYLINE
  5
34C
100
AcDbEntity
  8
RACCORDO
100
AcDbPolyline
 62
253
  6
CONTINUOUS
 90
33
 70
0
 10
-36.6793912757
 20
-5.564303574
 10
-36.783349806
 20
-5.5650395893
 10
-36.8820287242
 20
-5.578471842
 10
-36.975198044
 20
-5.6048775697
 10
-37.0630797219
 20
-5.6439753207
 10
-37.143862135
 20
-5.6947651062
 10
-37.2173980566
 20
-5.7574428263
 10
-37.2838255681
 20
-5.8318077695
 10
-37.3417627758
 20
-5.9162659542
 10
-37.3910638927
 20
-6.0110456123
 10
-37.4318666231
 20
-6.1159142431
 10
-37.4632174562
 20
-6.228588417
 10
-37.4849025819
 20
-6.3492862351
 10
-37.4971310086
 20
-6.4777870409
 10
-37.4995878227
 20
-6.6111515695
 10
-37.4920281452
 20
-6.7495076479
 10
-37.4746968302
 20
-6.8927274084
 10
-37.4480184531
 20
-7.0374906256
 10
-37.4117847588
 20
-7.1837899776
 10
-37.3662087885
 20
-7.3316352949
 10
-37.3123514585
 20
-7.4777344111
 10
-37.2500820339
 20
-7.6219933863
 10
-37.1795393431
 20
-7.7645104352
 10
-37.1021918061
 20
-7.902283302
 10
-37.0179045341
 20
-8.0352600389
 10
-36.92682157
 20
-8.1634974474
 10
-36.8308315035
 20
-8.2841573409
 10
-36.7297152143
 20
-8.3971867049
 10
-36.6236998658
 20
-8.5026428294
 10
-36.5153439383
 20
-8.597853234
 10
-36.405502018
 20
-8.6819280287
 10
-36.2933243182
 20
-8.7557596586
 10
-36.1788120358
 20
-8.8193487611
  0
LWPOLYLINE
  5
34D
100
AcDbEntity
  8
DRAFT
100
AcDbPolyline
 62
7
  6
CONTINUOUS
 90
9
 70
0
 10
-0.7889400149
 20
-5.9396513697
 10
-0.9810810685
 20
-5.8539167575
 10
-1.1720327464
 20
-5.7893098923
 10
-1.3603487313
 20
-5.7463651013
 10
-1.544644346
 20
-5.7254494943
 10
-1.7234665728
 20
-5.7267877476
 10
-1.8953229051
 20
-5.7503973263
 10
-2.0588411479
 20
-5.7960672079
 10
-2.1806585703
 20
-5.8471703008
  0
LINE
  5
34E
100
AcDbEntity
  8
0
100
AcDbLine
 62
7
  6
CONTINUOUS
 10
-1.7630782787
 20
-3.9397644716
 11
-1.5289677974
 21
-4.0648953444
  0
LWPOLYLINE
  5
34F
100
AcDbEntity
  8
0
100
AcDbPolyline
 62
7
  6
CONTINUOUS
 90
57
 70
0
 10
-1.5289677974
 20
-4.0648953444
 10
-1.2971375012
 20
-4.2047659551
 10
-1.0675853207
 20
-4.3593753306
 10
-0.8395954866
 20
-4.5293186259
 10
-0.6138754512
 20
-4.7139967729
 10
-0.3925562015
 20
-4.9116166263
 10
-0.1756462746
 20
-5.1222878595
 10
0.0368785154
 20
-5.3458934207
 10
0.2429371669
 20
-5.5802996456
 10
0.4423364417
 20
-5.8254613066
 10
0.6352908274
 20
-6.0814135765
 10
0.8203307349
 20
-6.3461434624
 10
0.9975756553
 20
-6.6199680217
 10
1.1669312193
 20
-6.9025582505
 10
1.3266050459
 20
-7.1909329934
 10
1.4763562794
 20
-7.4848387609
 10
1.6164507095
 20
-7.7845171023
 10
1.7458524795
 20
-8.087731034
 10
1.8646141003
 20
-8.39485441
 10
1.9727073295
 20
-8.7055016587
 10
2.0689697834
 20
-9.0162992082
 10
2.1531934352
 20
-9.3268627772
 10
2.2256041193
 20
-9.6375679269
 10
2.2856836781
 20
-9.9461839729
 10
2.3333932705
 20
-10.253092013
 10
2.3687852156
 20
-10.5579042359
 10
2.3914702373
 20
-10.8572403628
 10
2.4013099984
 20
-11.1506566874
 10
2.3984457182
 20
-11.4385952749
 10
2.3828991256
 20
-11.7190085249
 10
2.354523781
 20
-11.9921903341
 10
2.3134632185
 20
-12.2578479708
 10
2.26016583
 20
-12.5130579307
 10
2.1945854802
 20
-12.7574096848
 10
2.1167548824
 20
-12.9913200897
 10
2.0272328517
 20
-13.213110567
 10
1.9257922204
 20
-13.4229359339
 10
1.8126423368
 20
-13.6206499253
 10
1.6889902235
 20
-13.8041255823
 10
1.5548643894
 20
-13.9730457371
 10
1.4102121031
 20
-14.1277393483
 10
1.2561131226
 20
-14.2670513326
 10
1.0923106176
 20
-14.3909723661
 10
0.919036452
 20
-14.499524025
 10
0.7380999757
 20
-14.5915993049
 10
0.5495866268
 20
-14.6670028011
 10
0.3533858684
 20
-14.7259423186
 10
0.1510110827
 20
-14.7679166807
 10
-0.0577455255
 20
-14.7927663868
 10
-0.2726974442
 20
-14.8006615032
 10
-0.491740029
 20
-14.7915953136
 10
-0.7149087044
 20
-14.7654385526
 10
-0.942183719
 20
-14.7223282927
 10
-1.1713767615
 20
-14.6626568809
 10
-1.4017612748
 20
-14.586556537
 10
-1.634072143
 20
-14.4938991974
 10
-1.8683114372
 20
-14.3846858962
  0
LWPOLYLINE
  5
350
100
AcDbEntity
  8
RACCORDO
100
AcDbPolyline
 62
253
  6
CONTINUOUS
 90
7
 70
0
 10
-18.5581226716
 20
21.6856613721
 10
-18.5482740878
 20
21.6679445337
 10
-18.5415442154
 20
21.6519442113
 10
-18.5380765367
 20
21.6379474441
 10
-18.5379626152
 20
21.6262005209
 10
-18.5412414416
 20
21.6169423006
 10
-18.5427456083
 20
21.6148463031
  0
LWPOLYLINE
  5
351
100
AcDbEntity
  8
RACCORDO
100
AcDbPolyline
 62
7
  6
CONTINUOUS
 90
7
 70
0
 10
13.3134059487
 20
-35.3368869188
 10
13.2976906315
 20
-35.306415233
 10
13.2779507441
 20
-35.2783761667
 10
13.2545977168
 20
-35.2533376198
 10
13.228041498
 20
-35.2317243226
 10
13.198728944
 20
-35.213915142
 10
13.1953628184
 20
-35.2122062206
  0
LWPOLYLINE
  5
352
100
AcDbEntity
  8
CIRCUITO_LETTORE_SA
100
AcDbPolyline
 62
7
  6
CONTINUOUS
 90
25
 70
0
 10
-3.9342037133
 20
25.4453799799
 10
-3.9419477592
 20
25.5323062575
 10
-3.9648358823
 20
25.6192325352
 10
-4.0023520607
 20
25.704199025
 10
-4.054828587
 20
25.7871612083
 10
-4.1219331686
 20
25.8681636037
 10
-4.2021529057
 20
25.9453799799
 10
-4.2957857238
 20
26.0187243331
 10
-4.4025336975
 20
26.088282667
 10
-4.5199901509
 20
26.1524867611
 10
-4.648398339
 20
26.2112149878
 10
-4.7875150069
 20
26.2645889746
 10
-4.9342037133
 20
26.3114053837
 10
-5.0886364656
 20
26.3515152522
 10
-5.2506412565
 20
26.385067543
 10
-5.4165656231
 20
26.4113058062
 10
-5.5864986027
 20
26.4300638954
 10
-5.760351158
 20
26.4415079569
 10
-5.9342037133
 20
26.4453799799
 10
-6.1080562686
 20
26.4415079569
 10
-6.2819088238
 20
26.4300638954
 10
-6.4518418035
 20
26.4113058062
 10
-6.61776617
 20
26.385067543
 10
-6.779770961
 20
26.3515152522
 10
-6.8515168576
 20
26.3328811319
  0
LINE
  5
353
100
AcDbEntity
  8
RACCORDO
100
AcDbLine
 62
7
  6
CONTINUOUS
 10
-3.9799673752
 20
12.1124402201
 11
-3.9829130068
 21
12.1509779162
  0
LWPOLYLINE
  5
354
100
AcDbEntity
  8
RACCORDO
100
AcDbPolyline
 62
7
  6
CONTINUOUS
 90
10
 70
0
 10
-0.6309028544
 20
12.5420105743
 10
-0.6337522995
 20
12.5808668602
 10
-0.6418548754
 20
12.6212436639
 10
-0.6549643997
 20
12.6619142096
 10
-0.6726825627
 20
12.7016427968
 10
-0.6944710302
 20
12.7392223444
 10
-0.7196677989
 20
12.7735110657
 10
-0.7475073108
 20
12.80346716
 10
-0.7771437132
 20
12.8281804655
 10
-0.8076765581
 20
12.8469001132
  0
LWPOLYLINE
  5
355
100
AcDbEntity
  8
RACCORDO
100
AcDbPolyline
 62
253
  6
CONTINUOUS
 90
13
 70
0
 10
-2.2321836452
 20
11.7392885708
 10
-2.2338360003
 20
11.7683715543
 10
-2.2384944336
 20
11.7984924956
 10
-2.2460800956
 20
11.8291317115
 10
-2.2564639033
 20
11.8597611749
 10
-2.2694676506
 20
11.8898503665
 10
-2.2848661376
 20
11.9188757131
 10
-2.3024352133
 20
11.9463947103
 10
-2.3218381261
 20
11.9718623169
 10
-2.3425910589
 20
11.9946880035
 10
-2.3642607332
 20
12.0144923575
 10
-2.3865096603
 20
12.0310584376
 10
-2.4089573489
 20
12.0441781096
  0
LWPOLYLINE
  5
356
100
AcDbEntity
  8
RACCORDO
100
AcDbPolyline
 62
253
  6
CONTINUOUS
 90
9
 70
0
 10
-2.5847056049
 20
11.3998273606
 10
-2.5834982159
 20
11.3751698591
 10
-2.5798925345
 20
11.3520565346
 10
-2.5739378035
 20
11.3308031251
 10
-2.5656997214
 20
11.3116698886
 10
-2.5552992194
 20
11.2949563601
 10
-2.5429459865
 20
11.280955306
 10
-2.5288618698
 20
11.2698320704
 10
-2.5197408192
 20
11.2646131664
  0
LINE
  5
357
100
AcDbEntity
  8
RACCORDO
100
AcDbLine
 62
253
  6
CONTINUOUS
 10
-2.5847056049
 20
11.3998273606
 11
-2.5847056049
 21
11.7398012947
  0
LINE
  5
358
100
AcDbEntity
  8
RACCORDO
100
AcDbLine
 62
253
  6
CONTINUOUS
 10
-2.2321836452
 20
11.3993146367
 11
-2.2321836452
 21
11.7392885708
  0
LINE
  5
359
100
AcDbEntity
  8
RACCORDO
100
AcDbLine
 62
253
  6
CONTINUOUS
 10
-1.8734849968
 20
11.1131608561
 11
-1.8734849968
 21
10.4324111105
  0
LINE
  5
35A
100
AcDbEntity
  8
RACCORDO
100
AcDbLine
 62
253
  6
CONTINUOUS
 10
-1.5209630371
 20
11.2508111138
 11
-1.5209630371
 21
10.4431789921
  0
LINE
  5
35B
100
AcDbEntity
  8
RACCORDO
100
AcDbLine
 62
7
  6
CONTINUOUS
 10
-0.6309028544
 20
10.9398599134
 11
-0.6309028544
 21
12.5420105743
  0
LINE
  5
35C
100
AcDbEntity
  8
RACCORDO
100
AcDbLine
 62
253
  6
CONTINUOUS
 10
-0.1026356826
 20
12.8054493944
 11
-0.1026356826
 21
12.4579178776
  0
LINE
  5
35D
100
AcDbEntity
  8
RACCORDO
100
AcDbLine
 62
7
  6
CONTINUOUS
 10
-0.0304378256
 20
12.8933220265
 11
-0.0304378256
 21
12.5457905098
  0
LWPOLYLINE
  5
35E
100
AcDbEntity
  8
0
100
AcDbPolyline
 62
7
  6
CONTINUOUS
 90
10
 70
0
 10
-2.6131359014
 20
-7.6859457057
 10
-2.6118157281
 20
-7.5864492106
 10
-2.6078094293
 20
-7.4861453897
 10
-2.6010463574
 20
-7.3850712753
 10
-2.5914183843
 20
-7.2829448035
 10
-2.578867579
 20
-7.1801413041
 10
-2.5634826959
 20
-7.0777240354
 10
-2.5453425302
 20
-6.9761187446
 10
-2.5244200924
 20
-6.8750831849
 10
-2.5007367971
 20
-6.774704945
  0
LWPOLYLINE
  5
35F
100
AcDbEntity
  8
RACCORDO
100
AcDbPolyline
 62
7
  6
CONTINUOUS
 90
8
 70
0
 10
-0.0304379363
 20
12.5459080984
 10
-0.031031125
 20
12.5285779281
 10
-0.0347393912
 20
12.4996138998
 10
-0.0418181121
 20
12.4712208718
 10
-0.05219175
 20
12.4437918475
 10
-0.0657473257
 20
12.4176968362
 10
-0.0823232491
 20
12.3933090765
 10
-0.087238849
 20
12.3871269729
  0
LWPOLYLINE
  5
360
100
AcDbEntity
  8
RACCORDO
100
AcDbPolyline
 62
253
  6
CONTINUOUS
 90
7
 70
0
 10
-0.0304378256
 20
12.8933220265
 10
-0.0323681634
 20
12.877818457
 10
-0.0385496012
 20
12.8617384592
 10
-0.0488798561
 20
12.8462027451
 10
-0.0631794295
 20
12.8314778892
 10
-0.0812015676
 20
12.8178155476
 10
-0.1026356826
 20
12.8054493944
  0
LWPOLYLINE
  5
361
100
AcDbEntity
  8
RACCORDO
100
AcDbPolyline
 62
253
  6
CONTINUOUS
 90
7
 70
0
 10
-0.0304378256
 20
12.5457905098
 10
-0.0324258344
 20
12.5300579622
 10
-0.0386374729
 20
12.5140391736
 10
-0.0489713131
 20
12.4985590225
 10
-0.063254353
 20
12.4838806172
 10
-0.0812442084
 20
12.4702559104
 10
-0.1026356826
 20
12.4579178776
  0
LINE
  5
362
100
AcDbEntity
  8
CORPO
100
AcDbLine
 62
7
  6
CONTINUOUS
 10
8.219640319
 20
8.4290922847
 11
9.3039474213
 21
9.3649419211
  0
LINE
  5
363
100
AcDbEntity
  8
RACCORDO
100
AcDbLine
 62
253
  6
CONTINUOUS
 10
9.607292925
 20
6.0109500405
 11
9.6303761357
 21
6.0245113673
  0
LINE
  5
364
100
AcDbEntity
  8
RACCORDO
100
AcDbLine
 62
7
  6
CONTINUOUS
 10
8.3139979276
 20
6.4674095224
 11
7.9563187784
 21
6.2678135705
  0
LINE
  5
365
100
AcDbEntity
  8
RACCORDO
100
AcDbLine
 62
7
  6
CONTINUOUS
 10
11.1000471251
 20
6.8429434667
 11
9.5172904696
 21
6.0309593425
  0
LINE
  5
366
100
AcDbEntity
  8
RACCORDO
100
AcDbLine
 62
253
  6
CONTINUOUS
 10
11.2131327389
 20
6.8364954647
 11
9.6303761357
 21
6.0245113673
  0
LINE
  5
367
100
AcDbEntity
  8
RACCORDO
100
AcDbLine
 62
7
  6
CONTINUOUS
 10
7.9563187784
 20
7.5005405428
 11
8.3139979276
 21
7.6798450877
  0
LINE
  5
368
100
AcDbEntity
  8
RACCORDO
100
AcDbLine
 62
253
  6
CONTINUOUS
 10
12.5566416064
 20
6.1647410309
 11
10.9553608155
 21
5.3620190274
  0
LINE
  5
369
100
AcDbEntity
  8
RACCORDO
100
AcDbLine
 62
253
  6
CONTINUOUS
 10
12.73341531
 20
5.8598514921
 11
11.1321345192
 21
5.0571294886
  0
LINE
  5
36A
100
AcDbEntity
  8
RACCORDO
100
AcDbLine
 62
7
  6
CONTINUOUS
 10
11.1017847113
 20
6.8438123068
 11
11.1000471251
 21
6.8429434667
  0
LINE
  5
36B
100
AcDbEntity
  8
RACCORDO
100
AcDbLine
 62
7
  6
CONTINUOUS
 10
8.3139979276
 20
7.6798450877
 11
13.6388319978
 21
10.3352590134
  0
LINE
  5
36C
100
AcDbEntity
  8
RACCORDO
100
AcDbLine
 62
253
  6
CONTINUOUS
 10
13.0849087781
 20
6.428179851
 11
12.5566416064
 21
6.1647410309
  0
LINE
  5
36D
100
AcDbEntity
  8
RACCORDO
100
AcDbLine
 62
253
  6
CONTINUOUS
 10
13.2616824818
 20
6.1232903122
 11
12.73341531
 21
5.8598514921
  0
LINE
  5
36E
100
AcDbEntity
  8
DRAFT
100
AcDbLine
 62
7
  6
CONTINUOUS
 10
8.3139979276
 20
6.4674095224
 11
13.6388319978
 21
9.1037409543
  0
LINE
  5
36F
100
AcDbEntity
  8
RACCORDO
100
AcDbLine
 62
7
  6
CONTINUOUS
 10
14.4012868383
 20
10.4253606269
 11
13.7624260617
 21
10.1127585018
  0
LINE
  5
370
100
AcDbEntity
  8
RACCORDO
100
AcDbLine
 62
7
  6
CONTINUOUS
 10
11.6370705065
 20
7.1045777223
 11
11.1017846409
 21
6.84382302
  0
LINE
  5
371
100
AcDbEntity
  8
RACCORDO
100
AcDbLine
 62
253
  6
CONTINUOUS
 10
11.7475826176
 20
7.0968429312
 11
11.2131327389
 21
6.8364954647
  0
LINE
  5
372
100
AcDbEntity
  8
RACCORDO
100
AcDbLine
 62
7
  6
CONTINUOUS
 10
17.4682527822
 20
8.8918776549
 11
12.7847159026
 21
6.6402536596
  0
LWPOLYLINE
  5
373
100
AcDbEntity
  8
RACCORDO
100
AcDbPolyline
 62
7
  6
CONTINUOUS
 90
6
 70
0
 10
11.6370705065
 20
7.1045777223
 10
11.6751902838
 20
7.1194190891
 10
11.7157591892
 20
7.1279190711
 10
11.7575585826
 20
7.1295837133
 10
11.7998327384
 20
7.1240821193
 10
11.8406048033
 20
7.1114603302
  0
LWPOLYLINE
  5
374
100
AcDbEntity
  8
0
100
AcDbPolyline
 62
253
  6
CONTINUOUS
 90
7
 70
0
 10
-35.753670812
 20
9.3049975317
 10
-35.881656355
 20
9.3387431029
 10
-36.091580781
 20
9.3875604537
 10
-36.306123106
 20
9.4310797495
 10
-36.5247197321
 20
9.4691866661
 10
-36.746796411
 20
9.5017810974
 10
-36.9717697524
 20
9.5287774187
  0
LINE
  5
375
100
AcDbEntity
  8
RACCORDO
100
AcDbLine
 62
253
  6
CONTINUOUS
 10
-35.6877358197
 20
27.8533502226
 11
-35.673651703
 21
27.842226987
  0
LWPOLYLINE
  5
376
100
AcDbEntity
  8
RACCORDO
100
AcDbPolyline
 62
253
  6
CONTINUOUS
 90
3
 70
0
 10
-32.0322243648
 20
28.9710633462
 10
-32.0540627483
 20
28.9907833456
 10
-32.0765210713
 20
29.0072447277
  0
LINE
  5
377
100
AcDbEntity
  8
RACCORDO
100
AcDbLine
 62
253
  6
CONTINUOUS
 10
-22.3357708882
 20
21.1851921945
 11
-22.3234176553
 21
21.1711911404
  0
LWPOLYLINE
  5
378
100
AcDbEntity
  8
DRAFT
100
AcDbPolyline
 62
253
  6
CONTINUOUS
 90
10
 70
0
 10
-0.7889400149
 20
-5.9396513697
 10
-0.8650970181
 20
-5.6844819013
 10
-0.9495475869
 20
-5.4368859343
 10
-1.0421892352
 20
-5.1971639416
 10
-1.1429095368
 20
-4.9656068406
 10
-1.2515862614
 20
-4.7424956401
 10
-1.368087523
 20
-4.5281010991
 10
-1.4922719402
 20
-4.3226833988
 10
-1.6239888076
 20
-4.1264918261
 10
-1.7630782787
 20
-3.9397644716
  0
LWPOLYLINE
  5
379
100
AcDbEntity
  8
RACCORDO
100
AcDbPolyline
 62
253
  6
CONTINUOUS
 90
12
 70
0
 10
6.2036874766
 20
-36.1024367067
 10
6.2108859906
 20
-36.204843482
 10
6.2252133636
 20
-36.3027190675
 10
6.2465787946
 20
-36.3954058364
 10
6.2748270738
 20
-36.4822285318
 10
6.3097842399
 20
-36.5626631534
 10
6.351300202
 20
-36.6362981681
 10
6.3992057019
 20
-36.7026759179
 10
6.4531666927
 20
-36.7611994812
 10
6.5127219029
 20
-36.8113256391
 10
6.5774740703
 20
-36.8527135748
 10
6.5941293811
 20
-36.8615114285
  0
LWPOLYLINE
  5
37A
100
AcDbEntity
  8
RACCORDO
100
AcDbPolyline
 62
253
  6
CONTINUOUS
 90
5
 70
0
 10
-0.1026356826
 20
12.8054493944
 10
-0.1040361489
 20
12.8346583223
 10
-0.1084825103
 20
12.8648852995
 10
-0.1158996016
 20
12.8956088008
 10
-0.126161272
 20
12.9262993328
  0
LINE
  5
37B
100
AcDbEntity
  8
RACCORDO
100
AcDbLine
 62
7
  6
CONTINUOUS
 10
1.5952235746
 20
10.4264153501
 11
1.5965896834
 21
10.3957138079
  0
LWPOLYLINE
  5
37C
100
AcDbEntity
  8
DRAFT
100
AcDbPolyline
 62
7
  6
CONTINUOUS
 90
19
 70
0
 10
1.40237026
 20
-9.7654247993
 10
1.3959657636
 20
-9.5240733846
 10
1.372713467
 20
-9.2761776849
 10
1.3328053559
 20
-9.0236164386
 10
1.2765652973
 20
-8.7682931382
 10
1.2044284218
 20
-8.5121545418
 10
1.1169421098
 20
-8.2571758389
 10
1.0147989827
 20
-8.0053205713
 10
0.898783581
 20
-7.7584658323
 10
0.7697390678
 20
-7.5184260067
 10
0.6287126196
 20
-7.2871174195
 10
0.4767260746
 20
-7.0662008501
 10
0.3146644533
 20
-6.8570675121
 10
0.1433287624
 20
-6.6609678384
 10
-0.0356371917
 20
-6.4799467372
 10
-0.2199154763
 20
-6.3162599001
 10
-0.4077104582
 20
-6.1712126907
 10
-0.5978708296
 20
-6.0454267281
 10
-0.7889400149
 20
-5.9396513697
  0
LINE
  5
37D
100
AcDbEntity
  8
RACCORDO
100
AcDbLine
 62
7
  6
CONTINUOUS
 10
1.59352115
 20
10.4261716369
 11
1.59352115
 21
9.1853547468
  0
LINE
  5
37E
100
AcDbEntity
  8
RACCORDO
100
AcDbLine
 62
253
  6
CONTINUOUS
 10
1.7399677594
 20
10.0825146679
 11
1.7399677594
 21
9.0019313571
  0
LINE
  5
37F
100
AcDbEntity
  8
CORPO
100
AcDbLine
 62
7
  6
CONTINUOUS
 10
3.3642504593
 20
12.2238241074
 11
3.3642504593
 21
13.1142132655
  0
LWPOLYLINE
  5
380
100
AcDbEntity
  8
RACCORDO
100
AcDbPolyline
 62
7
  6
CONTINUOUS
 90
3
 70
0
 10
1.5983425891
 20
10.4671280074
 10
1.595348471
 20
10.4344511292
 10
1.5952235746
 20
10.4264153501
  0
LWPOLYLINE
  5
381
100
AcDbEntity
  8
DRAFT
100
AcDbPolyline
 62
253
  6
CONTINUOUS
 90
10
 70
0
 10
-0.8362121319
 20
-11.3821854668
 10
-0.9184072277
 20
-11.7177616631
 10
-1.0090209277
 20
-12.0538183386
 10
-1.1079407612
 20
-12.3899383761
 10
-1.2150439477
 20
-12.7257045794
 10
-1.3301975495
 20
-13.0607001918
 10
-1.4532586366
 20
-13.3945094129
 10
-1.5840744643
 20
-13.7267179149
 10
-1.7224826625
 20
-14.0569133568
 10
-1.8683114372
 20
-14.3846858962
  0
LWPOLYLINE
  5
382
100
AcDbEntity
  8
RACCORDO
100
AcDbPolyline
 62
253
  6
CONTINUOUS
 90
3
 70
0
 10
9.5627448717
 20
5.9737018644
 10
9.5846195143
 20
5.993916713
 10
9.607292925
 20
6.0109500405
  0
LWPOLYLINE
  5
383
100
AcDbEntity
  8
RACCORDO
100
AcDbPolyline
 62
253
  6
CONTINUOUS
 90
19
 70
0
 10
7.2197427317
 20
1.2528626943
 10
7.1323117504
 20
1.2002736862
 10
7.0458392603
 20
1.1395174946
 10
6.9608983259
 20
1.0709999202
 10
6.8780978435
 20
0.9952325106
 10
6.7979388681
 20
0.9126774805
 10
6.7208293138
 20
0.8237031914
 10
6.6472113873
 20
0.7287476147
 10
6.5777035622
 20
0.6285347753
 10
6.5129403757
 20
0.5239212627
 10
6.453360817
 20
0.4156199472
 10
6.3993644681
 20
0.3043684527
 10
6.3514154741
 20
0.1911406991
 10
6.309844205
 20
0.0768373114
 10
6.2748367688
 20
-0.0378834268
 10
6.2465651249
 20
-0.1523960001
 10
6.2251993769
 20
-0.2659810908
 10
6.2108794547
 20
-0.3778298522
 10
6.2036874766
 20
-0.4871968391
  0
LWPOLYLINE
  5
384
100
AcDbEntity
  8
RACCORDO
100
AcDbPolyline
 62
253
  6
CONTINUOUS
 90
19
 70
0
 10
7.5782588169
 20
0.6619202974
 10
7.5188938597
 20
0.6265509314
 10
7.4607822341
 20
0.5861631268
 10
7.40392394
 20
0.5407568835
 10
7.3479319977
 20
0.4899877015
 10
7.2931933869
 20
0.4342000808
 10
7.2408690473
 20
0.3744275222
 10
7.1909743715
 20
0.3105075665
 10
7.1434939669
 20
0.2426026729
 10
7.0995425952
 20
0.1722337205
 10
7.059237392
 20
0.0993484412
 10
7.0224612217
 20
0.0239991032
 10
6.9899774396
 20
-0.0521366101
 10
6.9619102131
 20
-0.1290297463
 10
6.9381353747
 20
-0.2067092578
 10
6.9190437771
 20
-0.2835843172
 10
6.9047657043
 20
-0.3591246489
 10
6.8951708723
 20
-0.4338605286
 10
6.890259281
 20
-0.5077919563
  0
LINE
  5
385
100
AcDbEntity
  8
RACCORDO
100
AcDbLine
 62
7
  6
CONTINUOUS
 10
12.73341531
 20
4.2576564658
 11
11.8433551273
 21
3.7606052091
  0
LINE
  5
386
100
AcDbEntity
  8
RACCORDO
100
AcDbLine
 62
253
  6
CONTINUOUS
 10
7.2197427317
 20
1.2528626943
 11
11.7530097371
 21
3.7277064007
  0
LINE
  5
387
100
AcDbEntity
  8
RACCORDO
100
AcDbLine
 62
253
  6
CONTINUOUS
 10
13.0761675998
 20
3.6633903044
 11
7.5782588169
 21
0.6619202974
  0
LINE
  5
388
100
AcDbEntity
  8
RACCORDO
100
AcDbLine
 62
7
  6
CONTINUOUS
 10
18.3497882408
 20
8.1580194635
 11
12.8582449125
 21
5.1952058527
  0
LWPOLYLINE
  5
389
100
AcDbEntity
  8
RACCORDO
100
AcDbPolyline
 62
7
  6
CONTINUOUS
 90
10
 70
0
 10
11.8433551273
 20
3.7606052091
 10
11.8346440541
 20
3.7559687241
 10
11.8255493203
 20
3.7515628079
 10
11.8160916741
 20
3.7473964383
 10
11.8062919352
 20
3.7434838815
 10
11.7961732085
 20
3.7398273305
 10
11.785761071
 20
3.7364166992
 10
11.7750803574
 20
3.7332528056
 10
11.7641548671
 20
3.7303475444
 10
11.7530097371
 20
3.7277064007
  0
LINE
  5
38A
100
AcDbEntity
  8
RACCORDO
100
AcDbLine
 62
7
  6
CONTINUOUS
 10
18.3497882408
 20
7.6606895066
 11
12.9916369036
 21
4.8281391263
  0
LINE
  5
38B
100
AcDbEntity
  8
RACCORDO
100
AcDbLine
 62
7
  6
CONTINUOUS
 10
17.961863291
 20
6.9921663076
 11
13.3724718768
 21
4.6377216397
  0
LINE
  5
38C
100
AcDbEntity
  8
CORPO
100
AcDbLine
 62
7
  6
CONTINUOUS
 10
14.6932953862
 20
5.1114222119
 11
13.5467973163
 21
4.5325126802
  0
LINE
  5
38D
100
AcDbEntity
  8
CORPO
100
AcDbLine
 62
253
  6
CONTINUOUS
 10
13.7940754818
 20
3.5786325338
 11
36.7089491423
 21
14.9445788001
  0
LINE
  5
38E
100
AcDbEntity
  8
RACCORDO
100
AcDbLine
 62
253
  6
CONTINUOUS
 10
13.4474876031
 20
4.6002137766
 11
12.7280382271
 21
4.2603893726
  0
LINE
  5
38F
100
AcDbEntity
  8
RACCORDO
100
AcDbLine
 62
253
  6
CONTINUOUS
 10
13.7940754818
 20
4.0024865998
 11
13.0761675998
 21
3.6633903044
  0
LWPOLYLINE
  5
390
100
AcDbEntity
  8
RACCORDO
100
AcDbPolyline
 62
253
  6
CONTINUOUS
 90
13
 70
0
 10
6.890259281
 20
-0.5077919563
 10
6.8419504457
 20
-0.526014987
 10
6.7887543383
 20
-0.5409840958
 10
6.7315610898
 20
-0.5524488045
 10
6.671327715
 20
-0.560217274
 10
6.6090620995
 20
-0.5641595145
 10
6.545806134
 20
-0.5642095605
 10
6.4826182811
 20
-0.5603665745
 10
6.4205558634
 20
-0.5526948613
 10
6.3606573718
 20
-0.5413227914
 10
6.3039250881
 20
-0.5264406539
 10
6.2513083142
 20
-0.5082974716
 10
6.2036874868
 20
-0.4871968345
  0
LINE
  5
391
100
AcDbEntity
  8
RACCORDO
100
AcDbLine
 62
7
  6
CONTINUOUS
 10
-36.4342965507
 20
-5.8843411634
 11
-36.4365660067
 21
-5.8849073898
  0
LWPOLYLINE
  5
392
100
AcDbEntity
  8
RACCORDO
100
AcDbPolyline
 62
7
  6
CONTINUOUS
 90
7
 70
0
 10
-36.4364617888
 20
-5.8849090043
 10
-36.4065564458
 20
-5.8793963629
 10
-36.3600097871
 20
-5.8778145793
 10
-36.3040346233
 20
-5.8839861581
 10
-36.2396359742
 20
-5.8993430538
 10
-36.168408596
 20
-5.9247687594
 10
-36.1092226702
 20
-5.9517701338
  0
LWPOLYLINE
  5
393
100
AcDbEntity
  8
RACCORDO
100
AcDbPolyline
 62
253
  6
CONTINUOUS
 90
6
 70
0
 10
10.9887294024
 20
4.6821069236
 10
11.0208046072
 20
4.6852772172
 10
11.0516828876
 20
4.6904937388
 10
11.0808224423
 20
4.6976403197
 10
11.1077828444
 20
4.7065830352
 10
11.1321345192
 20
4.7171555545
  0
LINE
  5
394
100
AcDbEntity
  8
RACCORDO
100
AcDbLine
 62
253
  6
CONTINUOUS
 10
-40.4548614012
 20
22.8420775998
 11
6.2036874766
 21
-0.4871968391
  0
LINE
  5
395
100
AcDbEntity
  8
RACCORDO
100
AcDbLine
 62
253
  6
CONTINUOUS
 10
-22.3234176553
 20
21.1711911404
 11
-22.3093335386
 21
21.1600679048
  0
LWPOLYLINE
  5
396
100
AcDbEntity
  8
RACCORDO
100
AcDbPolyline
 62
253
  6
CONTINUOUS
 90
3
 70
0
 10
-18.6669341261
 20
22.2879341776
 10
-18.6889138139
 20
22.3079435397
 10
-18.7116978384
 20
22.3247555048
  0
LINE
  5
397
100
AcDbEntity
  8
CIRCUITO_LETTORE_SA
100
AcDbLine
 62
7
  6
CONTINUOUS
 10
-2.0451164168
 20
25.6221566752
 11
-1.7471677077
 21
23.780706557
  0
LWPOLYLINE
  5
398
100
AcDbEntity
  8
RACCORDO
100
AcDbPolyline
 62
7
  6
CONTINUOUS
 90
8
 70
0
 10
1.5965896834
 20
10.3957138079
 10
1.6028619121
 20
10.3529211254
 10
1.6150887121
 20
10.3081074113
 10
1.6326970911
 20
10.2625540705
 10
1.654115844
 20
10.2165398712
 10
1.67896147
 20
10.1705989588
 10
1.7076410932
 20
10.1257276332
 10
1.7399677594
 20
10.0825146679
  0
LWPOLYLINE
  5
399
100
AcDbEntity
  8
RACCORDO
100
AcDbPolyline
 62
253
  6
CONTINUOUS
 90
13
 70
0
 10
7.5782588169
 20
0.6619202974
 10
7.5729446505
 20
0.7175419244
 10
7.5619046195
 20
0.7752254222
 10
7.5453271623
 20
0.833985125
 10
7.5234953589
 20
0.8928169148
 10
7.4967821057
 20
0.9507153686
 10
7.4656437537
 20
1.0066909422
 10
7.4306122505
 20
1.0597869824
 10
7.3922862199
 20
1.1090958176
 10
7.3513207912
 20
1.1537743314
 10
7.3084161415
 20
1.1930587208
 10
7.2643054846
 20
1.226277486
 10
7.2197427409
 20
1.2528626992
  0
LWPOLYLINE
  5
39A
100
AcDbEntity
  8
CIRCUITO_LETTORE_SA
100
AcDbPolyline
 62
7
  6
CONTINUOUS
 90
25
 70
0
 10
4.1975242704
 20
21.3795159881
 10
4.1897802245
 20
21.4664422657
 10
4.1668921013
 20
21.5533685433
 10
4.1293759229
 20
21.6383350332
 10
4.0768993967
 20
21.7212972164
 10
4.0097948151
 20
21.8022996119
 10
3.9295750779
 20
21.8795159881
 10
3.8359422598
 20
21.9528603413
 10
3.7291942861
 20
22.0224186752
 10
3.6117378327
 20
22.0866227692
 10
3.4833296446
 20
22.1453509959
 10
3.3442129768
 20
22.1987249828
 10
3.1975242704
 20
22.2455413918
 10
3.043091518
 20
22.2856512604
 10
2.8810867271
 20
22.3192035512
 10
2.7151623606
 20
22.3454418143
 10
2.5452293809
 20
22.3641999035
 10
2.3713768256
 20
22.3756439651
 10
2.1975242704
 20
22.3795159881
 10
2.0236717151
 20
22.3756439651
 10
1.8498191598
 20
22.3641999035
 10
1.6798861802
 20
22.3454418143
 10
1.5139618136
 20
22.3192035512
 10
1.3519570227
 20
22.2856512604
 10
1.280211126
 20
22.2670171401
  0
LWPOLYLINE
  5
39B
100
AcDbEntity
  8
RACCORDO
100
AcDbPolyline
 62
253
  6
CONTINUOUS
 90
19
 70
0
 10
6.890259281
 20
-36.0881288888
 10
6.895162403
 20
-36.1572862607
 10
6.9047506219
 20
-36.2227366502
 10
6.9190239376
 20
-36.2844800572
 10
6.9381087821
 20
-36.3429228658
 10
6.9618787235
 20
-36.3976586919
 10
6.9899544656
 20
-36.4474683839
 10
7.0224772794
 20
-36.4922672968
 10
7.059305894
 20
-36.5321400756
 10
7.0996372008
 20
-36.5661215029
 10
7.1435630785
 20
-36.5940276445
 10
7.1909916486
 20
-36.6160424347
 10
7.2408441665
 20
-36.6317524599
 10
7.2931479353
 20
-36.6409953975
 10
7.347875652
 20
-36.6439335703
 10
7.4038666638
 20
-36.6406405327
 10
7.4607340865
 20
-36.6311408032
 10
7.5188648042
 20
-36.6154098635
 10
7.5782588169
 20
-36.5934477136
  0
LWPOLYLINE
  5
39C
100
AcDbEntity
  8
RACCORDO
100
AcDbPolyline
 62
7
  6
CONTINUOUS
 90
7
 70
0
 10
9.381404575
 20
-36.1710291076
 10
9.3834592475
 20
-36.2030110229
 10
9.3896755665
 20
-36.2348014479
 10
9.4000468828
 20
-36.2657582913
 10
9.4144643774
 20
-36.2952745741
 10
9.4326743574
 20
-36.3227073695
 10
9.4543036236
 20
-36.3474809509
  0
LWPOLYLINE
  5
39D
100
AcDbEntity
  8
RACCORDO
100
AcDbPolyline
 62
253
  6
CONTINUOUS
 90
8
 70
0
 10
9.4546278797
 20
-36.2594174553
 10
9.4560637642
 20
-36.2862385774
 10
9.4603879798
 20
-36.3113551601
 10
9.4675886114
 20
-36.334309659
 10
9.4776293452
 20
-36.354709831
 10
9.4903811757
 20
-36.3720919515
 10
9.5055637575
 20
-36.3860058644
 10
9.5195832589
 20
-36.3946269443
  0
LINE
  5
39E
100
AcDbEntity
  8
CORPO
100
AcDbLine
 62
7
  6
CONTINUOUS
 10
6.90754781
 20
13.9884620655
 11
6.90754781
 21
14.871714873
  0
LINE
  5
39F
100
AcDbEntity
  8
DRAFT
100
AcDbLine
 62
253
  6
CONTINUOUS
 10
7.0412057215
 20
9.3772402365
 11
7.0412057215
 21
10.810939208
  0
LINE
  5
3A0
100
AcDbEntity
  8
RACCORDO
100
AcDbLine
 62
253
  6
CONTINUOUS
 10
7.2512748591
 20
6.2462778072
 11
7.2512748591
 21
7.326861118
  0
LINE
  5
3A1
100
AcDbEntity
  8
DRAFT
100
AcDbLine
 62
7
  6
CONTINUOUS
 10
7.7483125027
 20
11.1644925986
 11
7.7483125027
 21
11.7170507879
  0
LWPOLYLINE
  5
3A2
100
AcDbEntity
  8
RACCORDO
100
AcDbPolyline
 62
253
  6
CONTINUOUS
 90
10
 70
0
 10
6.2036874766
 20
-0.4871968391
 10
6.0834733205
 20
-4.5009489536
 10
5.9933040652
 20
-8.5013512268
 10
5.933187115
 20
-12.4880692989
 10
5.9031274066
 20
-16.4607699353
 10
5.9031274067
 20
-20.4191211741
 10
5.9331871153
 20
-24.3627923526
 10
5.9933040654
 20
-28.2914539759
 10
6.0834733207
 20
-32.2047777457
 10
6.2036874766
 20
-36.1024367067
  0
LWPOLYLINE
  5
3A3
100
AcDbEntity
  8
RACCORDO
100
AcDbPolyline
 62
253
  6
CONTINUOUS
 90
10
 70
0
 10
6.890259281
 20
-0.5077919563
 10
6.7701528674
 20
-4.5181462492
 10
6.6800730387
 20
-8.5145058198
 10
6.6200197948
 20
-12.496870668
 10
6.5899931111
 20
-16.4655756716
 10
6.5899930123
 20
-20.4202859528
 10
6.6200195725
 20
-24.3599968784
 10
6.6800728164
 20
-28.2843735708
 10
6.7701527192
 20
-32.1937509076
 10
6.890259281
 20
-36.0881288888
  0
LWPOLYLINE
  5
3A4
100
AcDbEntity
  8
RACCORDO
100
AcDbPolyline
 62
253
  6
CONTINUOUS
 90
19
 70
0
 10
2.8228882307
 20
-27.0419731247
 10
2.8349908129
 20
-26.9134983371
 10
2.8373929458
 20
-26.7801355343
 10
2.8298497333
 20
-26.6417582318
 10
2.8126060762
 20
-26.4984929392
 10
2.7860879744
 20
-26.353663757
 10
2.7500853348
 20
-26.2072869747
 10
2.7048034472
 20
-26.0593488591
 10
2.6512870048
 20
-25.9131307828
 10
2.5893965793
 20
-25.7687264434
 10
2.5192635179
 20
-25.6260464118
 10
2.4423355312
 20
-25.488099022
 10
2.3584673446
 20
-25.3549406515
 10
2.267795088
 20
-25.2265197343
 10
2.1721868071
 20
-25.1056836156
 10
2.0714136006
 20
-24.99248959
 10
1.9656963316
 20
-24.8868845814
 10
1.8575772251
 20
-24.7915506218
 10
1.7479019297
 20
-24.7073826437
  0
LWPOLYLINE
  5
3A5
100
AcDbEntity
  8
RACCORDO
100
AcDbPolyline
 62
253
  6
CONTINUOUS
 90
6
 70
0
 10
9.4776293452
 20
5.8384283935
 10
9.4903811757
 20
5.8685623445
 10
9.5055637575
 20
5.8976588392
 10
9.5228733135
 20
5.9251562098
 10
9.5420440301
 20
5.9506501208
 10
9.5627448717
 20
5.9737018644
  0
LWPOLYLINE
  5
3A6
100
AcDbEntity
  8
RACCORDO
100
AcDbPolyline
 62
7
  6
CONTINUOUS
 90
7
 70
0
 10
9.399988862
 20
5.9031102552
 10
9.4143635355
 20
5.9325921237
 10
9.4325216708
 20
5.9600009028
 10
9.454084983
 20
5.9847550262
 10
9.4788212705
 20
6.00655903
 10
9.506212416
 20
6.0249181918
 10
9.5172778717
 20
6.0309528783
  0
LINE
  5
3A7
100
AcDbEntity
  8
RACCORDO
100
AcDbLine
 62
7
  6
CONTINUOUS
 10
13.2978270515
 20
5.7342993528
 11
13.2770595451
 21
5.7049437264
  0
LINE
  5
3A8
100
AcDbEntity
  8
RACCORDO
100
AcDbLine
 62
253
  6
CONTINUOUS
 10
12.73341531
 20
5.1328066397
 11
13.2616824818
 21
5.7757587954
  0
LINE
  5
3A9
100
AcDbEntity
  8
RACCORDO
100
AcDbLine
 62
7
  6
CONTINUOUS
 10
12.73341531
 20
5.0432761733
 11
13.2770430542
 21
5.7049236288
  0
LWPOLYLINE
  5
3AA
100
AcDbEntity
  8
RACCORDO
100
AcDbPolyline
 62
7
  6
CONTINUOUS
 90
12
 70
0
 10
11.8433551273
 20
4.5686520316
 10
11.8206099877
 20
4.5439642711
 10
11.7956399198
 20
4.5204938592
 10
11.7685553565
 20
4.4987017329
 10
11.7393629416
 20
4.4791087721
 10
11.708438748
 20
4.4621068621
 10
11.6765121148
 20
4.4479804378
 10
11.6439072869
 20
4.4371786321
 10
11.610989498
 20
4.4300988322
 10
11.5786140216
 20
4.426977004
 10
11.5474092586
 20
4.4281321501
 10
11.5297425232
 20
4.4309483482
  0
LWPOLYLINE
  5
3AB
100
AcDbEntity
  8
0
100
AcDbPolyline
 62
7
  6
CONTINUOUS
 90
13
 70
0
 10
-1.7957669456
 20
-5.7981592615
 10
-1.8735665269
 20
-5.8409737579
 10
-1.9541261591
 20
-5.8943235274
 10
-2.0305743956
 20
-5.9547644056
 10
-2.102701697
 20
-6.0221307282
 10
-2.1703103675
 20
-6.0962378489
 10
-2.2332150964
 20
-6.1768826452
 10
-2.2912434662
 20
-6.2638440753
 10
-2.3442364251
 20
-6.3568837839
 10
-2.3920487232
 20
-6.4557467558
 10
-2.4345493102
 20
-6.5601620143
 10
-2.471621695
 20
-6.6698433646
 10
-2.5007367971
 20
-6.774704945
  0
LWPOLYLINE
  5
3AC
100
AcDbEntity
  8
DRAFT
100
AcDbPolyline
 62
7
  6
CONTINUOUS
 90
12
 70
0
 10
-2.1806585703
 20
-5.8471703008
 10
-2.2128776051
 20
-5.8634461409
 10
-2.356369298
 20
-5.9520904808
 10
-2.4882548077
 20
-6.0614177722
 10
-2.6074628786
 20
-6.1906166006
 10
-2.7130278152
 20
-6.3387025608
 10
-2.8041292573
 20
-6.5045585403
 10
-2.8800743338
 20
-6.6869634206
 10
-2.940256877
 20
-6.8845613792
 10
-2.9841969956
 20
-7.0958757901
 10
-3.0115503363
 20
-7.319314973
 10
-3.0220940967
 20
-7.5531926289
  0
LINE
  5
3AD
100
AcDbEntity
  8
0
100
AcDbLine
 62
7
  6
CONTINUOUS
 10
-1.7957669456
 20
-5.7981592615
 11
-1.6519535526
 21
-5.726252565
  0
LINE
  5
3AE
100
AcDbEntity
  8
CORPO
100
AcDbLine
 62
253
  6
CONTINUOUS
 10
13.7940754818
 20
0.4384929237
 11
38.1229473131
 21
12.5057927068
  0
LWPOLYLINE
  5
3AF
100
AcDbEntity
  8
0
100
AcDbPolyline
 62
7
  6
CONTINUOUS
 90
3
 70
0
 10
-1.6127734328
 20
-5.7259593525
 10
-1.7010069724
 20
-5.7561126202
 10
-1.7957669456
 20
-5.7981592615
  0
LWPOLYLINE
  5
3B0
100
AcDbEntity
  8
RACCORDO
100
AcDbPolyline
 62
7
  6
CONTINUOUS
 90
5
 70
0
 10
7.6740972389
 20
7.4292506825
 10
7.6170709161
 20
7.4235899066
 10
7.5616509652
 20
7.413183167
 10
7.5086330715
 20
7.4000355457
 10
7.4107800322
 20
7.3735126
  0
LWPOLYLINE
  5
3B1
100
AcDbEntity
  8
RACCORDO
100
AcDbPolyline
 62
253
  6
CONTINUOUS
 90
3
 70
0
 10
10.9235100139
 20
4.682142386
 10
10.9561010792
 20
4.681056709
 10
10.9887294024
 20
4.6821069236
  0
LINE
  5
3B2
100
AcDbEntity
  8
RACCORDO
100
AcDbLine
 62
7
  6
CONTINUOUS
 10
10.9052910257
 20
4.5613343937
 11
11.5294866227
 21
4.4310017739
  0
LINE
  5
3B3
100
AcDbEntity
  8
RACCORDO
100
AcDbLine
 62
253
  6
CONTINUOUS
 10
11.1321345192
 20
4.7171555545
 11
11.8433551273
 21
4.5686520316
  0
LWPOLYLINE
  5
3B4
100
AcDbEntity
  8
RACCORDO
100
AcDbPolyline
 62
7
  6
CONTINUOUS
 90
10
 70
0
 10
10.9052910257
 20
4.5613343937
 10
10.8976941323
 20
4.5630445234
 10
10.8901471658
 20
4.5649923498
 10
10.8826605325
 20
4.5671757446
 10
10.8752236
 20
4.5695991533
 10
10.8678690917
 20
4.5722529034
 10
10.8606680105
 20
4.57510762
 10
10.8536455077
 20
4.5781449714
 10
10.8467859526
 20
4.581363244
 10
10.8445773452
 20
4.5824540842
  0
LINE
  5
3B5
100
AcDbEntity
  8
RACCORDO
100
AcDbLine
 62
253
  6
CONTINUOUS
 10
-39.4624122531
 20
24.5939401867
 11
7.2197427317
 21
1.2528626943
  0
LWPOLYLINE
  5
3B6
100
AcDbEntity
  8
RACCORDO
100
AcDbPolyline
 62
253
  6
CONTINUOUS
 90
7
 70
0
 10
-22.3651772737
 20
21.6300371291
 10
-22.3866651062
 20
21.6422822285
 10
-22.4047856241
 20
21.6558205409
 10
-22.4192310696
 20
21.6704221323
 10
-22.4297561019
 20
21.68583901
 10
-22.4361819644
 20
21.7018093347
 10
-22.4384005784
 20
21.7184254767
  0
LWPOLYLINE
  5
3B7
100
AcDbEntity
  8
RACCORDO
100
AcDbPolyline
 62
253
  6
CONTINUOUS
 90
7
 70
0
 10
-35.7294954381
 20
27.9722222772
 10
-35.7510198025
 20
27.9844911633
 10
-35.7691664868
 20
27.9980598972
 10
-35.7836243465
 20
28.0126976773
 10
-35.7941453782
 20
28.0281561193
 10
-35.8005472228
 20
28.0441710043
 10
-35.8027187428
 20
28.0606106248
  0
LWPOLYLINE
  5
3B8
100
AcDbEntity
  8
RACCORDO
100
AcDbPolyline
 62
253
  6
CONTINUOUS
 90
7
 70
0
 10
-35.7294954381
 20
28.3121962113
 10
-35.7510697355
 20
28.3244976289
 10
-35.7692491862
 20
28.3381054283
 10
-35.7837200694
 20
28.3527871032
 10
-35.794232315
 20
28.3682921666
 10
-35.800602455
 20
28.384354454
 10
-35.8027187428
 20
28.4005845589
  0
LWPOLYLINE
  5
3B9
100
AcDbEntity
  8
RACCORDO
100
AcDbPolyline
 62
253
  6
CONTINUOUS
 90
7
 70
0
 10
-22.3651772737
 20
21.290063195
 10
-22.3867016381
 20
21.3023320811
 10
-22.4048483223
 20
21.3159008149
 10
-22.4193061821
 20
21.3305385951
 10
-22.4298272138
 20
21.3459970371
 10
-22.4362290584
 20
21.3620119221
 10
-22.4384005784
 20
21.3784515426
  0
LWPOLYLINE
  5
3BA
100
AcDbEntity
  8
RACCORDO
100
AcDbPolyline
 62
7
  6
CONTINUOUS
 90
8
 70
0
 10
-35.6643696043
 20
27.8369277316
 10
-35.6902420121
 20
27.8518379837
 10
-35.7173907936
 20
27.8725088424
 10
-35.7417021996
 20
27.8969486162
 10
-35.7624623116
 20
27.92456828
 10
-35.7792675175
 20
27.9548956744
 10
-35.7918463612
 20
27.987686129
 10
-35.7997725286
 20
28.0223427968
  0
LWPOLYLINE
  5
3BB
100
AcDbEntity
  8
RACCORDO
100
AcDbPolyline
 62
7
  6
CONTINUOUS
 90
8
 70
0
 10
-22.3000514399
 20
21.1547686494
 10
-22.3259238477
 20
21.1696789015
 10
-22.3530726292
 20
21.1903497602
 10
-22.3773840351
 20
21.214789534
 10
-22.3981441472
 20
21.2424091978
 10
-22.4149493531
 20
21.2727365922
 10
-22.4275281968
 20
21.3055270468
 10
-22.4354543642
 20
21.3401837146
  0
LINE
  5
3BC
100
AcDbEntity
  8
RACCORDO
100
AcDbLine
 62
253
  6
CONTINUOUS
 10
-3.8679306663
 20
11.9434476459
 11
-3.8538465496
 21
11.9323244103
  0
LINE
  5
3BD
100
AcDbEntity
  8
RACCORDO
100
AcDbLine
 62
253
  6
CONTINUOUS
 10
-3.8802838992
 20
11.9574487
 11
-3.8679306663
 21
11.9434476459
  0
LWPOLYLINE
  5
3BE
100
AcDbEntity
  8
RACCORDO
100
AcDbPolyline
 62
253
  6
CONTINUOUS
 90
7
 70
0
 10
-0.1026356826
 20
12.4579178776
 10
-0.0926828886
 20
12.4399888238
 10
-0.0859468274
 20
12.4238744343
 10
-0.0825412353
 20
12.4098496745
 10
-0.0825226342
 20
12.3981543157
 10
-0.0858892994
 20
12.3889861217
 10
-0.087238849
 20
12.3871269729
  0
LWPOLYLINE
  5
3BF
100
AcDbEntity
  8
RACCORDO
100
AcDbPolyline
 62
253
  6
CONTINUOUS
 90
6
 70
0
 10
-0.126161272
 20
12.9262993328
 10
-0.1390914583
 20
12.9564253048
 10
-0.1544662585
 20
12.9854624949
 10
-0.1720620581
 20
13.0129681301
 10
-0.1915417621
 20
13.0383973412
 10
-0.2124192115
 20
13.0611607695
  0
LWPOLYLINE
  5
3C0
100
AcDbEntity
  8
RACCORDO
100
AcDbPolyline
 62
7
  6
CONTINUOUS
 90
5
 70
0
 10
-0.0537152439
 20
12.9986635227
 10
-0.0414387382
 20
12.9666666666
 10
-0.033587316
 20
12.9328790301
 10
-0.0304877965
 20
12.8983203166
 10
-0.0304378307
 20
12.8933470432
  0
LWPOLYLINE
  5
3C1
100
AcDbEntity
  8
RACCORDO
100
AcDbPolyline
 62
253
  6
CONTINUOUS
 90
5
 70
0
 10
13.2785637118
 20
-35.3652970274
 10
13.271942754
 20
-35.3348191524
 10
13.2621046333
 20
-35.3061052413
 10
13.2492130023
 20
-35.2796163867
 10
13.2334914206
 20
-35.2558099189
  0
LWPOLYLINE
  5
3C2
100
AcDbEntity
  8
RACCORDO
100
AcDbPolyline
 62
7
  6
CONTINUOUS
 90
3
 70
0
 10
13.3316123603
 20
-35.4023795616
 10
13.3247720201
 20
-35.3691073501
 10
13.3134059487
 20
-35.3368869188
  0
LINE
  5
3C3
100
AcDbEntity
  8
RACCORDO
100
AcDbLine
 62
253
  6
CONTINUOUS
 10
13.2818425382
 20
-35.3969882308
 11
13.2785637118
 21
-35.3652970274
  0
LWPOLYLINE
  5
3C4
100
AcDbEntity
  8
CIRCUITO_LETTORE_SA
100
AcDbPolyline
 62
7
  6
CONTINUOUS
 90
25
 70
0
 10
7.7330581763
 20
19.6117490351
 10
7.7253141304
 20
19.6986753127
 10
7.7024260073
 20
19.7856015904
 10
7.6649098289
 20
19.8705680802
 10
7.6124333026
 20
19.9535302635
 10
7.545328721
 20
20.0345326589
 10
7.4651089839
 20
20.1117490351
 10
7.3714761657
 20
20.1850933883
 10
7.264728192
 20
20.2546517222
 10
7.1472717387
 20
20.3188558163
 10
7.0188635505
 20
20.377584043
 10
6.8797468827
 20
20.4309580298
 10
6.7330581763
 20
20.4777744389
 10
6.578625424
 20
20.5178843075
 10
6.416620633
 20
20.5514365982
 10
6.2506962665
 20
20.5776748614
 10
6.0807632868
 20
20.5964329506
 10
5.9069107316
 20
20.6078770121
 10
5.7330581763
 20
20.6117490351
 10
5.559205621
 20
20.6078770121
 10
5.3853530658
 20
20.5964329506
 10
5.2154200861
 20
20.5776748614
 10
5.0494957196
 20
20.5514365982
 10
4.8874909286
 20
20.5178843075
 10
4.8157450319
 20
20.4992501871
  0
LINE
  5
3C5
100
AcDbEntity
  8
RACCORDO
100
AcDbLine
 62
7
  6
CONTINUOUS
 10
9.3843507892
 20
5.4302811379
 11
9.3814051577
 21
5.468818834
  0
LINE
  5
3C6
100
AcDbEntity
  8
RACCORDO
100
AcDbLine
 62
7
  6
CONTINUOUS
 10
13.3338803388
 20
-35.4359727118
 11
13.3316123603
 21
-35.4023795616
  0
LWPOLYLINE
  5
3C7
100
AcDbEntity
  8
RACCORDO
100
AcDbPolyline
 62
253
  6
CONTINUOUS
 90
13
 70
0
 10
11.1321345192
 20
5.0571294886
 10
11.130496047
 20
5.0860819579
 10
11.1258786876
 20
5.1160601202
 10
11.1183614417
 20
5.1465510629
 10
11.1080729261
 20
5.1770331001
 10
11.0951891724
 20
5.2069846981
 10
11.079930616
 20
5.2358933988
 10
11.0625583235
 20
5.2632645875
 10
11.043369527
 20
5.2886299559
 10
11.022692538
 20
5.311555514
 10
11.0008811302
 20
5.3316490162
 10
10.9783084869
 20
5.3485666717
 10
10.9553608155
 20
5.3620190274
  0
LWPOLYLINE
  5
3C8
100
AcDbEntity
  8
RACCORDO
100
AcDbPolyline
 62
253
  6
CONTINUOUS
 90
8
 70
0
 10
10.7796125596
 20
-36.9219097952
 10
10.781048444
 20
-36.9487309173
 10
10.7853726597
 20
-36.9738475
 10
10.7925732912
 20
-36.9968019989
 10
10.802614025
 20
-37.0172021709
 10
10.8153658555
 20
-37.0345842914
 10
10.8305484373
 20
-37.0484982043
 10
10.844583386
 20
-37.0571270102
  0
LWPOLYLINE
  5
3C9
100
AcDbEntity
  8
RACCORDO
100
AcDbPolyline
 62
253
  6
CONTINUOUS
 90
6
 70
0
 10
9.4546278797
 20
5.3801606183
 10
9.4558352687
 20
5.3555031168
 10
9.4594409502
 20
5.3323897923
 10
9.4653956811
 20
5.3111363828
 10
9.4736337632
 20
5.2920031463
 10
9.4840342652
 20
5.2752896178
  0
LWPOLYLINE
  5
3CA
100
AcDbEntity
  8
RACCORDO
100
AcDbPolyline
 62
253
  6
CONTINUOUS
 90
9
 70
0
 10
10.7796125596
 20
4.7176682783
 10
10.7808199485
 20
4.6930107768
 10
10.78442563
 20
4.6698974524
 10
10.790380361
 20
4.6486440429
 10
10.798618443
 20
4.6295108064
 10
10.809018945
 20
4.6127972779
 10
10.8213721779
 20
4.5987962238
 10
10.8354562947
 20
4.5876729882
 10
10.8445773452
 20
4.5824540842
  0
LWPOLYLINE
  5
3CB
100
AcDbEntity
  8
RACCORDO
100
AcDbPolyline
 62
7
  6
CONTINUOUS
 90
15
 70
0
 10
10.8595823399
 20
12.0311566366
 10
10.8580326225
 20
12.0871001628
 10
10.853553692
 20
12.140869544
 10
10.8461455485
 20
12.1924647802
 10
10.8357521701
 20
12.2420853847
 10
10.8224295786
 20
12.2895318441
 10
10.8063458394
 20
12.3342056188
 10
10.7874659731
 20
12.3760715833
 10
10.7658249591
 20
12.415164863
 10
10.7416957998
 20
12.4509922938
 10
10.7150469748
 20
12.483512503
 10
10.6859100045
 20
12.5127668634
 10
10.6546524537
 20
12.5383863295
 10
10.6212474581
 20
12.5603248534
 10
10.5996741385
 20
12.5720004104
  0
LINE
  5
3CC
100
AcDbEntity
  8
RACCORDO
100
AcDbLine
 62
253
  6
CONTINUOUS
 10
7.9563187784
 20
6.2678135705
 11
7.9563187784
 21
7.5005405428
  0
LINE
  5
3CD
100
AcDbEntity
  8
DRAFT
100
AcDbLine
 62
253
  6
CONTINUOUS
 10
8.0820881253
 20
11.8803711431
 11
8.0820881253
 21
13.1118829296
  0
LINE
  5
3CE
100
AcDbEntity
  8
DRAFT
100
AcDbLine
 62
7
  6
CONTINUOUS
 10
8.1018658933
 20
10.9877159033
 11
8.1018658933
 21
11.5402740926
  0
LINE
  5
3CF
100
AcDbEntity
  8
RACCORDO
100
AcDbLine
 62
7
  6
CONTINUOUS
 10
8.2074376326
 20
12.0293942718
 11
8.2074376326
 21
13.2616684503
  0
LINE
  5
3D0
100
AcDbEntity
  8
DRAFT
100
AcDbLine
 62
7
  6
CONTINUOUS
 10
8.3139979276
 20
7.6798450877
 11
8.3139979276
 21
6.4674095224
  0
LINE
  5
3D1
100
AcDbEntity
  8
DRAFT
100
AcDbLine
 62
253
  6
CONTINUOUS
 10
8.4554192839
 20
9.3847979257
 11
8.4554192839
 21
10.810939208
  0
LINE
  5
3D2
100
AcDbEntity
  8
DRAFT
100
AcDbLine
 62
7
  6
CONTINUOUS
 10
8.4969185867
 20
10.0107666932
 11
8.4969185867
 21
9.3640482743
  0
LINE
  5
3D3
100
AcDbEntity
  8
RACCORDO
100
AcDbLine
 62
7
  6
CONTINUOUS
 10
9.381404575
 20
5.8085229
 11
9.381404575
 21
5.4685489659
  0
LINE
  5
3D4
100
AcDbEntity
  8
RACCORDO
100
AcDbLine
 62
7
  6
CONTINUOUS
 10
9.381404575
 20
-36.0488613566
 11
9.381404575
 21
-36.1710291076
  0
LINE
  5
3D5
100
AcDbEntity
  8
RACCORDO
100
AcDbLine
 62
253
  6
CONTINUOUS
 10
9.4546278797
 20
5.7201345524
 11
9.4546278797
 21
5.3801606183
  0
LINE
  5
3D6
100
AcDbEntity
  8
RACCORDO
100
AcDbLine
 62
253
  6
CONTINUOUS
 10
9.4546278797
 20
-36.0181251875
 11
9.4546278797
 21
-36.2594174553
  0
LINE
  5
3D7
100
AcDbEntity
  8
RACCORDO
100
AcDbLine
 62
7
  6
CONTINUOUS
 10
10.0843975293
 20
4.5085698899
 11
10.0843975293
 21
4.9625439916
  0
LINE
  5
3D8
100
AcDbEntity
  8
RACCORDO
100
AcDbLine
 62
253
  6
CONTINUOUS
 10
10.157620834
 20
4.4168581951
 11
10.157620834
 21
4.9259323392
  0
LINE
  5
3D9
100
AcDbEntity
  8
RACCORDO
100
AcDbLine
 62
253
  6
CONTINUOUS
 10
10.7796125596
 20
-36.9219097952
 11
10.7796125596
 21
-36.581935861
  0
LINE
  5
3DA
100
AcDbEntity
  8
RACCORDO
100
AcDbLine
 62
253
  6
CONTINUOUS
 10
10.7796125596
 20
4.7176682783
 11
10.7796125596
 21
5.0576422125
  0
LINE
  5
3DB
100
AcDbEntity
  8
RACCORDO
100
AcDbLine
 62
7
  6
CONTINUOUS
 10
10.8595823399
 20
12.0311566366
 11
10.8595823399
 21
11.760356344
  0
LINE
  5
3DC
100
AcDbEntity
  8
RACCORDO
100
AcDbLine
 62
253
  6
CONTINUOUS
 10
11.1321345192
 20
-36.922422519
 11
11.1321345192
 21
-36.5824485849
  0
LINE
  5
3DD
100
AcDbEntity
  8
RACCORDO
100
AcDbLine
 62
253
  6
CONTINUOUS
 10
11.1321345192
 20
4.7171555545
 11
11.1321345192
 21
5.0571294886
  0
LINE
  5
3DE
100
AcDbEntity
  8
RACCORDO
100
AcDbLine
 62
253
  6
CONTINUOUS
 10
11.4908331677
 20
4.4310017739
 11
11.4908331677
 21
3.7502520282
  0
LINE
  5
3DF
100
AcDbEntity
  8
RACCORDO
100
AcDbLine
 62
253
  6
CONTINUOUS
 10
11.4908331677
 20
-35.1634089154
 11
11.4908331677
 21
-35.6054393839
  0
LWPOLYLINE
  5
3E0
100
AcDbEntity
  8
RACCORDO
100
AcDbPolyline
 62
253
  6
CONTINUOUS
 90
5
 70
0
 10
9.4546278797
 20
5.7201345524
 10
9.4560637642
 20
5.748391559
 10
9.4603879798
 20
5.7778323573
 10
9.4675886114
 20
5.8079874877
 10
9.4776293452
 20
5.8384283935
  0
LWPOLYLINE
  5
3E1
100
AcDbEntity
  8
RACCORDO
100
AcDbPolyline
 62
253
  6
CONTINUOUS
 90
13
 70
0
 10
10.7796125596
 20
5.0576422125
 10
10.7811268285
 20
5.0866769501
 10
10.7856449025
 20
5.1167346641
 10
10.7930911358
 20
5.1473006568
 10
10.8033400764
 20
5.1778522834
 10
10.8162172938
 20
5.2078639944
 10
10.8315012299
 20
5.2368166747
 10
10.8489714432
 20
5.2642725793
 10
10.8682953882
 20
5.2896913943
 10
10.8889929041
 20
5.3124863201
 10
10.9106335341
 20
5.3322809403
 10
10.9328823124
 20
5.3488607217
 10
10.9553608155
 20
5.3620190274
  0
LWPOLYLINE
  5
3E2
100
AcDbEntity
  8
RACCORDO
100
AcDbPolyline
 62
7
  6
CONTINUOUS
 90
4
 70
0
 10
9.381404575
 20
5.8085229
 10
9.383453124
 20
5.8404573375
 10
9.3896502133
 20
5.8721990725
 10
9.399988862
 20
5.9031102552
  0
LWPOLYLINE
  5
3E3
100
AcDbEntity
  8
RACCORDO
100
AcDbPolyline
 62
253
  6
CONTINUOUS
 90
8
 70
0
 10
7.5782588169
 20
-36.5934477136
 10
7.572944093
 20
-36.6483847285
 10
7.5619029209
 20
-36.6993708629
 10
7.5453239988
 20
-36.7455347425
 10
7.5234906674
 20
-36.7860874077
 10
7.4967760673
 20
-36.8203357968
 10
7.4656367617
 20
-36.8476945906
 10
7.427527717
 20
-36.8690194978
  0
LWPOLYLINE
  5
3E4
100
AcDbEntity
  8
RACCORDO
100
AcDbPolyline
 62
253
  6
CONTINUOUS
 90
12
 70
0
 10
11.1321345192
 20
4.7171555545
 10
11.1190541444
 20
4.6877603959
 10
11.1032008123
 20
4.6603818396
 10
11.0848447755
 20
4.6354866094
 10
11.0642989504
 20
4.6134990956
 10
11.0419135828
 20
4.5947941206
 10
11.0180702773
 20
4.5796905492
 10
10.993175492
 20
4.5684458527
 10
10.9676536097
 20
4.5612517201
 10
10.9419397033
 20
4.5582307901
 10
10.9164721192
 20
4.5594345608
 10
10.9052910257
 20
4.5613343937
  0
LWPOLYLINE
  5
3E5
100
AcDbEntity
  8
0
100
AcDbPolyline
 62
7
  6
CONTINUOUS
 90
3
 70
0
 10
1.0145335881
 20
-11.0893128945
 10
0.9653142087
 20
-11.121907911
 10
0.8875146274
 20
-11.1647224075
  0
LWPOLYLINE
  5
3E6
100
AcDbEntity
  8
DRAFT
100
AcDbPolyline
 62
7
  6
CONTINUOUS
 90
11
 70
0
 10
0.5811715786
 20
-11.4618309799
 10
0.7338192194
 20
-11.3684413513
 10
0.8661857827
 20
-11.2588644251
 10
0.9858793614
 20
-11.1294063619
 10
1.0918951965
 20
-10.981067254
 10
1.1834114074
 20
-10.814957544
 10
1.2597305287
 20
-10.6323007255
 10
1.3202032939
 20
-10.4344820844
 10
1.3643365285
 20
-10.2229901257
 10
1.3917997043
 20
-9.9994083504
 10
1.40237026
 20
-9.7654247993
  0
LINE
  5
3E7
100
AcDbEntity
  8
0
100
AcDbLine
 62
7
  6
CONTINUOUS
 10
0.8875146274
 20
-11.1647224075
 11
1.0012998091
 21
-11.1078298166
  0
LWPOLYLINE
  5
3E8
100
AcDbEntity
  8
0
100
AcDbPolyline
 62
7
  6
CONTINUOUS
 90
13
 70
0
 10
0.8875146274
 20
-11.1647224075
 10
0.7927546542
 20
-11.2067690488
 10
0.7012277058
 20
-11.2380478187
 10
0.6065340127
 20
-11.2617709204
 10
0.5089331238
 20
-11.2778733306
 10
0.4086925563
 20
-11.2863109137
 10
0.3060870628
 20
-11.2870605429
 10
0.2013978776
 20
-11.2801201635
 10
0.0949119466
 20
-11.2655087985
 10
-0.0130788597
 20
-11.2432664968
 10
-0.122278546
 20
-11.213454223
 10
-0.2323878035
 20
-11.1761536903
 10
-0.3167038303
 20
-11.1427708786
  0
LINE
  5
3E9
100
AcDbEntity
  8
0
100
AcDbLine
 62
7
  6
CONTINUOUS
 10
10.8595823399
 20
11.760356344
 11
9.4996503998
 21
11.6866081566
  0
LWPOLYLINE
  5
3EA
100
AcDbEntity
  8
RACCORDO
100
AcDbPolyline
 62
253
  6
CONTINUOUS
 90
3
 70
0
 10
-2.4408081505
 20
11.3643014682
 10
-2.4082170852
 20
11.3632157913
 10
-2.375588762
 20
11.3642660058
  0
LWPOLYLINE
  5
3EB
100
AcDbEntity
  8
CORPO
100
AcDbPolyline
 62
7
  6
CONTINUOUS
 90
31
 70
0
 10
10.1525832709
 20
9.5063094213
 10
10.1224532204
 20
9.508227525
 10
10.0922763967
 20
9.509686646
 10
10.0620527997
 20
9.5106867841
 10
10.0317545667
 20
9.511228015
 10
10.0014095604
 20
9.5113102631
 10
9.971101369
 20
9.5109333015
 10
9.9408300847
 20
9.5100958636
 10
9.9105956153
 20
9.5087992161
 10
9.8804812715
 20
9.5070469321
 10
9.8504873996
 20
9.5048377564
 10
9.8206136534
 20
9.5021729442
 10
9.790942304
 20
9.4990598335
 10
9.7614738931
 20
9.4954971865
 10
9.732207879
 20
9.4914862411
 10
9.7032249081
 20
9.4870380484
 10
9.6745257617
 20
9.4821514016
 10
9.6461096584
 20
9.4768275076
 10
9.618054901
 20
9.4710810382
 10
9.5903625011
 20
9.4649108317
 10
9.5630314469
 20
9.4583180498
 10
9.5361370066
 20
9.4513208494
 10
9.50968037
 20
9.443918112
 10
9.4836603471
 20
9.4361109561
 10
9.4581486362
 20
9.4279208941
 10
9.4331466466
 20
9.4193468726
 10
9.4086529689
 20
9.4103899449
 10
9.3847350728
 20
9.4010747839
 10
9.3614154483
 20
9.391409614
 10
9.3386716054
 20
9.3813862109
 10
9.3165035442
 20
9.3710045746
  0
LINE
  5
3EC
100
AcDbEntity
  8
RACCORDO
100
AcDbLine
 62
7
  6
CONTINUOUS
 10
-2.4590271387
 20
11.2434934759
 11
-1.8348315417
 21
11.1131608561
  0
LINE
  5
3ED
100
AcDbEntity
  8
RACCORDO
100
AcDbLine
 62
253
  6
CONTINUOUS
 10
-2.2321836452
 20
11.3993146367
 11
-1.5209630371
 21
11.2508111138
  0
LWPOLYLINE
  5
3EE
100
AcDbEntity
  8
RACCORDO
100
AcDbPolyline
 62
7
  6
CONTINUOUS
 90
10
 70
0
 10
-2.4590271387
 20
11.2434934759
 10
-2.4666240321
 20
11.2452036056
 10
-2.4741709986
 20
11.247151432
 10
-2.481657632
 20
11.2493348268
 10
-2.4890945645
 20
11.2517582355
 10
-2.4964490727
 20
11.2544119856
 10
-2.5036501539
 20
11.2572667022
 10
-2.5106726567
 20
11.2603040537
 10
-2.5175322118
 20
11.2635223262
 10
-2.5197408192
 20
11.2646131664
  0
LWPOLYLINE
  5
3EF
100
AcDbEntity
  8
RACCORDO
100
AcDbPolyline
 62
7
  6
CONTINUOUS
 90
5
 70
0
 10
11.2131327389
 20
6.8364954647
 10
11.18227403
 20
6.848471594
 10
11.1523841497
 20
6.8535214297
 10
11.1243712483
 20
6.8514915421
 10
11.1017847113
 20
6.8438123068
  0
LWPOLYLINE
  5
3F0
100
AcDbEntity
  8
RACCORDO
100
AcDbPolyline
 62
253
  6
CONTINUOUS
 90
7
 70
0
 10
9.6303761357
 20
6.0245113673
 10
9.6070757726
 20
6.0341661409
 10
9.5841913106
 20
6.0399268106
 10
9.562118225
 20
6.0416917954
 10
9.5412376137
 20
6.0394283108
 10
9.5219118376
 20
6.0331731922
 10
9.5172904696
 20
6.0309593425
  0
LWPOLYLINE
  5
3F1
100
AcDbEntity
  8
RACCORDO
100
AcDbPolyline
 62
253
  6
CONTINUOUS
 90
7
 70
0
 10
-3.7339420287
 20
12.7066704496
 10
-3.7571405656
 20
12.716291198
 10
-3.7799245901
 20
12.7220518763
 10
-3.8019042779
 20
12.7238539219
 10
-3.8227035667
 20
12.7216665027
 10
-3.8419665902
 20
12.7155270444
 10
-3.8470276949
 20
12.7131184247
  0
LWPOLYLINE
  5
3F2
100
AcDbEntity
  8
RACCORDO
100
AcDbPolyline
 62
253
  6
CONTINUOUS
 90
5
 70
0
 10
11.7475826176
 20
7.0968429312
 10
11.7246349462
 20
7.1065891125
 10
11.7020623029
 20
7.1124554813
 10
11.6802508951
 20
7.114341667
 10
11.6595739061
 20
7.1122153976
  0
LWPOLYLINE
  5
3F3
100
AcDbEntity
  8
RACCORDO
100
AcDbPolyline
 62
253
  6
CONTINUOUS
 90
6
 70
0
 10
10.7796125596
 20
4.7176682783
 10
10.8041503318
 20
4.7069060961
 10
10.8312877995
 20
4.697832754
 10
10.8605633598
 20
4.6906038241
 10
10.8914802438
 20
4.6853433083
 10
10.9235100139
 20
4.682142386
  0
LWPOLYLINE
  5
3F4
100
AcDbEntity
  8
RACCORDO
100
AcDbPolyline
 62
253
  6
CONTINUOUS
 90
13
 70
0
 10
10.7796125596
 20
5.0576422125
 10
10.8042153947
 20
5.0468550638
 10
10.8314309935
 20
5.0377653384
 10
10.8607943433
 20
5.0305298968
 10
10.8918044701
 20
5.025273774
 10
10.9239290449
 20
5.022088704
 10
10.9566131048
 20
5.0210306102
 10
10.9893687856
 20
5.0221229831
 10
11.0215581386
 20
5.0253522516
 10
11.052417908
 20
5.0306198828
 10
11.0813860275
 20
5.037776453
 10
11.1080891149
 20
5.0466736876
 10
11.1321345192
 20
5.0571294886
  0
LWPOLYLINE
  5
3F5
100
AcDbEntity
  8
RACCORDO
100
AcDbPolyline
 62
253
  6
CONTINUOUS
 90
6
 70
0
 10
-2.5847056049
 20
11.3998273606
 10
-2.5601678327
 20
11.3890651783
 10
-2.5330303649
 20
11.3799918362
 10
-2.5037548046
 20
11.3727629063
 10
-2.4728379206
 20
11.3675023905
 10
-2.4408081505
 20
11.3643014682
  0
LWPOLYLINE
  5
3F6
100
AcDbEntity
  8
RACCORDO
100
AcDbPolyline
 62
253
  6
CONTINUOUS
 90
6
 70
0
 10
-21.0401925938
 20
20.627570855
 10
-21.0156548216
 20
20.6168086728
 10
-20.9885173539
 20
20.6077353307
 10
-20.9592417936
 20
20.6005064008
 10
-20.9283249096
 20
20.595245885
 10
-20.8962951395
 20
20.5920449627
  0
LWPOLYLINE
  5
3F7
100
AcDbEntity
  8
RACCORDO
100
AcDbPolyline
 62
253
  6
CONTINUOUS
 90
13
 70
0
 10
-21.0401925938
 20
20.9675447892
 10
-21.0155897587
 20
20.9567576405
 10
-20.9883741599
 20
20.9476679151
 10
-20.9590108101
 20
20.9404324735
 10
-20.9280006833
 20
20.9351763507
 10
-20.8958761085
 20
20.9319912807
 10
-20.8631920486
 20
20.9309331869
 10
-20.8304363678
 20
20.9320255598
 10
-20.7982470148
 20
20.9352548283
 10
-20.7673872454
 20
20.9405224595
 10
-20.7384191259
 20
20.9476790297
 10
-20.7117160385
 20
20.9565762643
 10
-20.6876706342
 20
20.9670320653
  0
LWPOLYLINE
  5
3F8
100
AcDbEntity
  8
RACCORDO
100
AcDbPolyline
 62
253
  6
CONTINUOUS
 90
6
 70
0
 10
-34.4045107583
 20
27.3097299373
 10
-34.3799729861
 20
27.298967755
 10
-34.3528355183
 20
27.2898944129
 10
-34.323559958
 20
27.282665483
 10
-34.292643074
 20
27.2774049672
 10
-34.2606133039
 20
27.2742040449
  0
LWPOLYLINE
  5
3F9
100
AcDbEntity
  8
RACCORDO
100
AcDbPolyline
 62
253
  6
CONTINUOUS
 90
13
 70
0
 10
-2.5847056049
 20
11.7398012947
 10
-2.5607841685
 20
11.729276461
 10
-2.5341869953
 20
11.72030209
 10
-2.5053044484
 20
11.7130614481
 10
-2.4745079315
 20
11.7077039234
 10
-2.4423577461
 20
11.7043806612
 10
-2.4096162389
 20
11.7031924894
 10
-2.3769217705
 20
11.7041548112
 10
-2.344761775
 20
11.7072455301
 10
-2.3136903467
 20
11.7124106575
 10
-2.2842406348
 20
11.7195604443
 10
-2.2569159516
 20
11.7285715133
 10
-2.2321836452
 20
11.7392885708
  0
LWPOLYLINE
  5
3FA
100
AcDbEntity
  8
RACCORDO
100
AcDbPolyline
 62
253
  6
CONTINUOUS
 90
5
 70
0
 10
-34.4045107583
 20
27.6497038714
 10
-34.3805893219
 20
27.6391790376
 10
-34.3539921487
 20
27.6302046667
 10
-34.3251096018
 20
27.6229640248
 10
-34.2943130849
 20
27.6176065001
  0
LINE
  5
3FB
100
AcDbEntity
  8
RACCORDO
100
AcDbLine
 62
7
  6
CONTINUOUS
 10
11.8406048033
 20
7.1114603302
 11
11.8583263942
 21
7.1034484065
  0
LWPOLYLINE
  5
3FC
100
AcDbEntity
  8
RACCORDO
100
AcDbPolyline
 62
253
  6
CONTINUOUS
 90
7
 70
0
 10
13.1954992674
 20
6.4348617239
 10
13.1912981504
 20
6.4368227752
 10
13.1719742054
 20
6.4429176452
 10
13.1512766896
 20
6.4450150551
 10
13.1296360596
 20
6.4431690453
 10
13.1073872813
 20
6.4375000484
 10
13.0849087781
 20
6.428179851
  0
LWPOLYLINE
  5
3FD
100
AcDbEntity
  8
RACCORDO
100
AcDbPolyline
 62
253
  6
CONTINUOUS
 90
7
 70
0
 10
11.8583263942
 20
7.1034484065
 10
11.8539719899
 20
7.1054858554
 10
11.8346480449
 20
7.1115807255
 10
11.813950529
 20
7.1136781354
 10
11.792309899
 20
7.1118321256
 10
11.7700611207
 20
7.1061631287
 10
11.7475826176
 20
7.0968429312
  0
LINE
  5
3FE
100
AcDbEntity
  8
RACCORDO
100
AcDbLine
 62
7
  6
CONTINUOUS
 10
-35.0265024838
 20
27.008919854
 11
-33.6932901502
 21
26.3423136871
  0
LINE
  5
3FF
100
AcDbEntity
  8
RACCORDO
100
AcDbLine
 62
7
  6
CONTINUOUS
 10
-21.6621843194
 20
20.3267607718
 11
-20.3289719857
 21
19.6601546049
  0
LINE
  5
400
100
AcDbEntity
  8
RACCORDO
100
AcDbLine
 62
7
  6
CONTINUOUS
 10
-3.2066973304
 20
11.0990172773
 11
-1.8734849968
 21
10.4324111105
  0
LINE
  5
401
100
AcDbEntity
  8
RACCORDO
100
AcDbLine
 62
7
  6
CONTINUOUS
 10
10.157620834
 20
4.4168581951
 11
11.4908331677
 21
3.7502520282
  0
LINE
  5
402
100
AcDbEntity
  8
RACCORDO
100
AcDbLine
 62
7
  6
CONTINUOUS
 10
7.2512748591
 20
6.2462778072
 11
1.7399677594
 21
9.0019313571
  0
LINE
  5
403
100
AcDbEntity
  8
RACCORDO
100
AcDbLine
 62
7
  6
CONTINUOUS
 10
-24.5685302943
 20
22.1561803839
 11
-30.079837394
 21
24.9118339338
  0
LINE
  5
404
100
AcDbEntity
  8
RACCORDO
100
AcDbLine
 62
7
  6
CONTINUOUS
 10
-35.6645221417
 20
27.8370038271
 11
-34.3395374618
 21
27.1745114872
  0
LINE
  5
405
100
AcDbEntity
  8
RACCORDO
100
AcDbLine
 62
7
  6
CONTINUOUS
 10
-22.3002039772
 20
21.1548447448
 11
-20.9752192974
 21
20.4923524049
  0
LINE
  5
406
100
AcDbEntity
  8
RACCORDO
100
AcDbLine
 62
7
  6
CONTINUOUS
 10
-3.8447169883
 20
11.9271012504
 11
-2.5197323084
 21
11.2646089105
  0
LINE
  5
407
100
AcDbEntity
  8
RACCORDO
100
AcDbLine
 62
7
  6
CONTINUOUS
 10
9.5196011762
 20
5.2449421682
 11
10.844585856
 21
4.5824498282
  0
LINE
  5
408
100
AcDbEntity
  8
RACCORDO
100
AcDbLine
 62
253
  6
CONTINUOUS
 10
-35.7294954381
 20
27.9722222772
 11
-34.4045107583
 21
27.3097299373
  0
LINE
  5
409
100
AcDbEntity
  8
RACCORDO
100
AcDbLine
 62
253
  6
CONTINUOUS
 10
-22.3651772737
 20
21.290063195
 11
-21.0401925938
 21
20.627570855
  0
LINE
  5
40A
100
AcDbEntity
  8
RACCORDO
100
AcDbLine
 62
253
  6
CONTINUOUS
 10
-3.9096902847
 20
12.0623197005
 11
-2.5847056049
 21
11.3998273606
  0
LINE
  5
40B
100
AcDbEntity
  8
RACCORDO
100
AcDbLine
 62
253
  6
CONTINUOUS
 10
9.4546278797
 20
5.3801606183
 11
10.7796125596
 21
4.7176682783
  0
LINE
  5
40C
100
AcDbEntity
  8
RACCORDO
100
AcDbLine
 62
253
  6
CONTINUOUS
 10
10.7796125596
 20
5.0576422125
 11
9.4546278797
 21
5.7201345524
  0
LINE
  5
40D
100
AcDbEntity
  8
RACCORDO
100
AcDbLine
 62
253
  6
CONTINUOUS
 10
-2.5847056049
 20
11.7398012947
 11
-3.9096902847
 21
12.4022936346
  0
LINE
  5
40E
100
AcDbEntity
  8
RACCORDO
100
AcDbLine
 62
253
  6
CONTINUOUS
 10
-21.0401925938
 20
20.9675447892
 11
-22.3651772737
 21
21.6300371291
  0
LINE
  5
40F
100
AcDbEntity
  8
RACCORDO
100
AcDbLine
 62
253
  6
CONTINUOUS
 10
-34.4045107583
 20
27.6497038714
 11
-35.7294954381
 21
28.3121962113
  0
LINE
  5
410
100
AcDbEntity
  8
DRAFT
100
AcDbLine
 62
7
  6
CONTINUOUS
 10
9.4083401521
 20
5.9202384101
 11
8.3139979276
 21
6.4674095224
  0
LINE
  5
411
100
AcDbEntity
  8
DRAFT
100
AcDbLine
 62
7
  6
CONTINUOUS
 10
1.59352115
 20
9.8276479112
 11
-0.6309028544
 21
10.9398599134
  0
LINE
  5
412
100
AcDbEntity
  8
DRAFT
100
AcDbLine
 62
7
  6
CONTINUOUS
 10
-3.9560425178
 20
12.6024297451
 11
-19.0863898434
 21
20.1676034078
  0
LINE
  5
413
100
AcDbEntity
  8
DRAFT
100
AcDbLine
 62
7
  6
CONTINUOUS
 10
-22.4114650013
 20
21.8301409868
 11
-23.5058072258
 21
22.3773120991
  0
LINE
  5
414
100
AcDbEntity
  8
DRAFT
100
AcDbLine
 62
7
  6
CONTINUOUS
 10
-30.2262840034
 20
25.7375504879
 11
-32.4507080078
 21
26.8497624901
  0
LINE
  5
415
100
AcDbEntity
  8
RACCORDO
100
AcDbLine
 62
253
  6
CONTINUOUS
 10
10.9553608155
 20
5.3620190274
 11
9.6303761357
 21
6.0245113673
  0
LINE
  5
416
100
AcDbEntity
  8
RACCORDO
100
AcDbLine
 62
253
  6
CONTINUOUS
 10
-2.4089573489
 20
12.0441781096
 11
-3.7339420287
 21
12.7066704496
  0
LINE
  5
417
100
AcDbEntity
  8
RACCORDO
100
AcDbLine
 62
253
  6
CONTINUOUS
 10
-20.8644443379
 20
21.2719216041
 11
-22.1894290177
 21
21.934413944
  0
LINE
  5
418
100
AcDbEntity
  8
RACCORDO
100
AcDbLine
 62
253
  6
CONTINUOUS
 10
-34.2287625023
 20
27.9540806863
 11
-35.5537471821
 21
28.6165730263
  0
LINE
  5
419
100
AcDbEntity
  8
RACCORDO
100
AcDbLine
 62
253
  6
CONTINUOUS
 10
7.2512748591
 20
7.326861118
 11
1.7399677594
 21
10.0825146679
  0
LINE
  5
41A
100
AcDbEntity
  8
RACCORDO
100
AcDbLine
 62
253
  6
CONTINUOUS
 10
-24.5685302943
 20
23.2367636947
 11
-30.079837394
 21
25.9924172446
  0
LINE
  5
41B
100
AcDbEntity
  8
RACCORDO
100
AcDbLine
 62
253
  6
CONTINUOUS
 10
7.6740972389
 20
7.4292506825
 11
1.5983425891
 21
10.4671280074
  0
LINE
  5
41C
100
AcDbEntity
  8
RACCORDO
100
AcDbLine
 62
253
  6
CONTINUOUS
 10
-24.1457079145
 20
23.3391532592
 11
-30.2214625643
 21
26.3770305841
  0
LINE
  5
41D
100
AcDbEntity
  8
RACCORDO
100
AcDbLine
 62
7
  6
CONTINUOUS
 10
-32.4507080078
 20
27.549311582
 11
-31.0426652728
 21
26.8452902146
  0
LINE
  5
41E
100
AcDbEntity
  8
DRAFT
100
AcDbLine
 62
7
  6
CONTINUOUS
 10
-19.0863898434
 20
20.8671524998
 11
-3.3195419928
 21
12.9837285746
  0
LINE
  5
41F
100
AcDbEntity
  8
DRAFT
100
AcDbLine
 62
7
  6
CONTINUOUS
 10
-0.6309028544
 20
11.6394090053
 11
0.7771398806
 21
10.9353876379
  0
LINE
  5
420
100
AcDbEntity
  8
RACCORDO
100
AcDbLine
 62
7
  6
CONTINUOUS
 10
12.73341531
 20
4.9572499231
 11
13.4474876031
 21
4.6002137766
  0
LINE
  5
421
100
AcDbEntity
  8
DRAFT
100
AcDbLine
 62
7
  6
CONTINUOUS
 10
-29.7283469002
 20
26.7010175016
 11
-23.5058072258
 21
23.5897476644
  0
LINE
  5
422
100
AcDbEntity
  8
DRAFT
100
AcDbLine
 62
7
  6
CONTINUOUS
 10
2.0914582532
 20
10.7911149249
 11
8.3139979276
 21
7.6798450877
  0
LINE
  5
423
100
AcDbEntity
  8
RACCORDO
100
AcDbLine
 62
7
  6
CONTINUOUS
 10
-33.9709905789
 20
29.4285571236
 11
-32.6274817115
 21
28.7568026898
  0
LINE
  5
424
100
AcDbEntity
  8
RACCORDO
100
AcDbLine
 62
7
  6
CONTINUOUS
 10
-20.6066724145
 20
22.7463980414
 11
-19.263163547
 21
22.0746436076
  0
LINE
  5
425
100
AcDbEntity
  8
RACCORDO
100
AcDbLine
 62
7
  6
CONTINUOUS
 10
-2.1511854256
 20
13.5186545469
 11
-0.8076765581
 21
12.8469001132
  0
LINE
  5
426
100
AcDbEntity
  8
RACCORDO
100
AcDbLine
 62
7
  6
CONTINUOUS
 10
11.2131327389
 20
6.8364954647
 11
12.5566416064
 21
6.1647410309
  0
LINE
  5
427
100
AcDbEntity
  8
CORPO
100
AcDbLine
 62
7
  6
CONTINUOUS
 10
14.492009029
 20
5.2120653905
 11
14.6932953862
 21
5.1114222119
  0
LINE
  5
428
100
AcDbEntity
  8
DRAFT
100
AcDbLine
 62
7
  6
CONTINUOUS
 10
8.3847086057
 20
8.3465581414
 11
3.4349611374
 21
10.8214318755
  0
LINE
  5
429
100
AcDbEntity
  8
DRAFT
100
AcDbLine
 62
7
  6
CONTINUOUS
 10
-23.4350965477
 20
24.2564607181
 11
-28.384844016
 21
26.7313344522
  0
LINE
  5
42A
100
AcDbEntity
  8
CORPO
100
AcDbLine
 62
7
  6
CONTINUOUS
 10
8.2874002268
 20
8.4875748723
 11
7.7836678417
 21
8.7394410648
  0
LWPOLYLINE
  5
42B
100
AcDbEntity
  8
RACCORDO
100
AcDbPolyline
 62
7
  6
CONTINUOUS
 90
7
 70
0
 10
-18.624305886
 20
22.3447643006
 10
-18.612912294
 20
22.3387071395
 10
-18.585827619
 20
22.3209925874
 10
-18.561197155
 20
22.2998677535
 10
-18.5394457859
 20
22.2756488036
 10
-18.5209379645
 20
22.2486611883
 10
-18.5060337992
 20
22.2193005505
  0
LWPOLYLINE
  5
42C
100
AcDbEntity
  8
RACCORDO
100
AcDbPolyline
 62
253
  6
CONTINUOUS
 90
7
 70
0
 10
9.4546278797
 20
5.7201345524
 10
9.4331400472
 20
5.7323796518
 10
9.4150195293
 20
5.7459179642
 10
9.4005740838
 20
5.7605195556
 10
9.3900490515
 20
5.7759364333
 10
9.3836231889
 20
5.791906758
 10
9.381404575
 20
5.8085229
  0
LWPOLYLINE
  5
42D
100
AcDbEntity
  8
RACCORDO
100
AcDbPolyline
 62
253
  6
CONTINUOUS
 90
7
 70
0
 10
-3.9096902847
 20
12.0623197005
 10
-3.9312146491
 20
12.0745885866
 10
-3.9493613334
 20
12.0881573205
 10
-3.9638191931
 20
12.1027951006
 10
-3.9743402248
 20
12.1182535426
 10
-3.9807420694
 20
12.1342684276
 10
-3.9829135894
 20
12.1507080481
  0
LWPOLYLINE
  5
42E
100
AcDbEntity
  8
RACCORDO
100
AcDbPolyline
 62
253
  6
CONTINUOUS
 90
7
 70
0
 10
-3.9096902847
 20
12.4022936346
 10
-3.9312645821
 20
12.4145950522
 10
-3.9494440328
 20
12.4282028516
 10
-3.963914916
 20
12.4428845265
 10
-3.9744271616
 20
12.4583895899
 10
-3.9807973016
 20
12.4744518773
 10
-3.9829135894
 20
12.4906819822
  0
LWPOLYLINE
  5
42F
100
AcDbEntity
  8
RACCORDO
100
AcDbPolyline
 62
253
  6
CONTINUOUS
 90
7
 70
0
 10
9.4546278797
 20
5.3801606183
 10
9.4331035153
 20
5.3924295044
 10
9.414956831
 20
5.4059982382
 10
9.4004989713
 20
5.4206360184
 10
9.3899779396
 20
5.4360944604
 10
9.383576095
 20
5.4521093454
 10
9.381404575
 20
5.4685489659
  0
LINE
  5
430
100
AcDbEntity
  8
RACCORDO
100
AcDbLine
 62
253
  6
CONTINUOUS
 10
-32.0765210713
 20
29.0072447277
 11
-32.0992145397
 21
29.0202415099
  0
LINE
  5
431
100
AcDbEntity
  8
RACCORDO
100
AcDbLine
 62
253
  6
CONTINUOUS
 10
-0.2567159179
 20
13.097342151
 11
-0.2794093863
 21
13.1103389332
  0
LINE
  5
432
100
AcDbEntity
  8
RACCORDO
100
AcDbLine
 62
253
  6
CONTINUOUS
 10
-18.7116978384
 20
22.3247555048
 11
-18.7348963753
 21
22.3380824277
  0
LWPOLYLINE
  5
433
100
AcDbEntity
  8
RACCORDO
100
AcDbPolyline
 62
7
  6
CONTINUOUS
 90
8
 70
0
 10
-3.8445644509
 20
11.9270251549
 10
-3.8704368587
 20
11.941935407
 10
-3.8975856402
 20
11.9626062657
 10
-3.9218970462
 20
11.9870460395
 10
-3.9426571582
 20
12.0146657033
 10
-3.9594623641
 20
12.0449930977
 10
-3.9720412079
 20
12.0777835523
 10
-3.9799673752
 20
12.1124402201
  0
LWPOLYLINE
  5
434
100
AcDbEntity
  8
RACCORDO
100
AcDbPolyline
 62
7
  6
CONTINUOUS
 90
8
 70
0
 10
9.5197537135
 20
5.2448660727
 10
9.4938813057
 20
5.2597763248
 10
9.4667325242
 20
5.2804471835
 10
9.4424211183
 20
5.3048869573
 10
9.4216610062
 20
5.3325066211
 10
9.4048558003
 20
5.3628340155
 10
9.3922769566
 20
5.3956244701
 10
9.3843507892
 20
5.4302811379
  0
LWPOLYLINE
  5
435
100
AcDbEntity
  8
RACCORDO
100
AcDbPolyline
 62
7
  6
CONTINUOUS
 90
6
 70
0
 10
-31.9884395802
 20
29.026831401
 10
-31.9601334844
 20
29.0102724534
 10
-31.9338263792
 20
28.9897860501
 10
-31.9102113845
 20
28.9656684184
 10
-31.8899493814
 20
28.9384155398
 10
-31.8735203973
 20
28.9085660994
  0
LWPOLYLINE
  5
436
100
AcDbEntity
  8
RACCORDO
100
AcDbPolyline
 62
7
  6
CONTINUOUS
 90
6
 70
0
 10
-0.1686344268
 20
13.1169288243
 10
-0.140328331
 20
13.1003698767
 10
-0.1140212258
 20
13.0798834734
 10
-0.0904062311
 20
13.0557658417
 10
-0.070144228
 20
13.0285129631
 10
-0.0537152439
 20
12.9986635227
  0
LWPOLYLINE
  5
437
100
AcDbEntity
  8
RACCORDO
100
AcDbPolyline
 62
7
  6
CONTINUOUS
 90
16
 70
0
 10
12.7280415061
 20
4.2603909214
 10
12.7665827342
 20
4.2377870735
 10
12.8041747522
 20
4.210498451
 10
12.8403839138
 20
4.1790755046
 10
12.8748032591
 20
4.1441332376
 10
12.9071292698
 20
4.106220316
 10
12.9371432569
 20
4.0657748562
 10
12.9645699736
 20
4.0233963071
 10
12.9892416698
 20
3.9795899717
 10
13.0111027954
 20
3.9345791496
 10
13.0299903858
 20
3.8888470366
 10
13.0457681584
 20
3.8428966475
 10
13.0583731765
 20
3.7969324723
 10
13.0676964121
 20
3.751336694
 10
13.0736426205
 20
3.7066698229
 10
13.0761675998
 20
3.6633903044
  0
LINE
  5
438
100
AcDbEntity
  8
RACCORDO
100
AcDbLine
 62
253
  6
CONTINUOUS
 10
9.4963874981
 20
5.2612885637
 11
9.5104716148
 21
5.2501653281
  0
LWPOLYLINE
  5
439
100
AcDbEntity
  8
RACCORDO
100
AcDbPolyline
 62
253
  6
CONTINUOUS
 90
3
 70
0
 10
-0.2124192115
 20
13.0611607695
 10
-0.2342575949
 20
13.0808807689
 10
-0.2567159179
 20
13.097342151
  0
LINE
  5
43A
100
AcDbEntity
  8
RACCORDO
100
AcDbLine
 62
253
  6
CONTINUOUS
 10
9.4840342652
 20
5.2752896178
 11
9.4963874981
 21
5.2612885637
  0
LWPOLYLINE
  5
43B
100
AcDbEntity
  8
CIRCUITO_LETTORE_SA
100
AcDbPolyline
 62
7
  6
CONTINUOUS
 90
25
 70
0
 10
11.2685920822
 20
17.8439820821
 10
11.2608480363
 20
17.9309083598
 10
11.2379599132
 20
18.0178346374
 10
11.2004437348
 20
18.1028011272
 10
11.1479672085
 20
18.1857633105
 10
11.0808626269
 20
18.266765706
 10
11.0006428898
 20
18.3439820821
 10
10.9070100717
 20
18.4173264353
 10
10.800262098
 20
18.4868847692
 10
10.6828056446
 20
18.5510888633
 10
10.5543974565
 20
18.60981709
 10
10.4152807886
 20
18.6631910769
 10
10.2685920822
 20
18.7100074859
 10
10.1141593299
 20
18.7501173545
 10
9.952154539
 20
18.7836696453
 10
9.7862301724
 20
18.8099079084
 10
9.6162971928
 20
18.8286659976
 10
9.4424446375
 20
18.8401100592
 10
9.2685920822
 20
18.8439820821
 10
9.094739527
 20
18.8401100592
 10
8.9208869717
 20
18.8286659976
 10
8.750953992
 20
18.8099079084
 10
8.5850296255
 20
18.7836696453
 10
8.4230248346
 20
18.7501173545
 10
8.3512789379
 20
18.7314832342
  0
LWPOLYLINE
  5
43C
100
AcDbEntity
  8
RACCORDO
100
AcDbPolyline
 62
7
  6
CONTINUOUS
 90
10
 70
0
 10
12.73341531
 20
5.8598514921
 10
12.7305658649
 20
5.898707778
 10
12.722463289
 20
5.9390845817
 10
12.7093537648
 20
5.9797551274
 10
12.6916356017
 20
6.0194837146
 10
12.6698471342
 20
6.0570632622
 10
12.6446503655
 20
6.0913519835
 10
12.6168108536
 20
6.1213080778
 10
12.5871744512
 20
6.1460213833
 10
12.5566416064
 20
6.1647410309
  0
LWPOLYLINE
  5
43D
100
AcDbEntity
  8
RACCORDO
100
AcDbPolyline
 62
253
  6
CONTINUOUS
 90
5
 70
0
 10
13.2616824818
 20
6.1232903122
 10
13.2602948752
 20
6.1523682142
 10
13.2558888968
 20
6.182452067
 10
13.248539931
 20
6.2130271498
 10
13.2383737152
 20
6.2435703369
  0
LINE
  5
43E
100
AcDbEntity
  8
RACCORDO
100
AcDbLine
 62
253
  6
CONTINUOUS
 10
11.8433551273
 20
4.5686520316
 11
11.8433551273
 21
3.7606052091
  0
LINE
  5
43F
100
AcDbEntity
  8
RACCORDO
100
AcDbLine
 62
253
  6
CONTINUOUS
 10
11.8433551273
 20
-35.0154345157
 11
11.8433551273
 21
-35.7309521078
  0
LINE
  5
440
100
AcDbEntity
  8
CORPO
100
AcDbLine
 62
7
  6
CONTINUOUS
 10
12.3658506394
 20
16.4643897608
 11
12.3658506394
 21
11.0562412952
  0
LINE
  5
441
100
AcDbEntity
  8
RACCORDO
100
AcDbLine
 62
7
  6
CONTINUOUS
 10
12.73341531
 20
-34.641823404
 11
12.73341531
 21
-36.1423879194
  0
LINE
  5
442
100
AcDbEntity
  8
RACCORDO
100
AcDbLine
 62
7
  6
CONTINUOUS
 10
12.73341531
 20
4.2577008312
 11
12.73341531
 21
5.8598514921
  0
LINE
  5
443
100
AcDbEntity
  8
RACCORDO
100
AcDbLine
 62
253
  6
CONTINUOUS
 10
13.2616824818
 20
6.1232903122
 11
13.2616824818
 21
5.7757587954
  0
LINE
  5
444
100
AcDbEntity
  8
RACCORDO
100
AcDbLine
 62
253
  6
CONTINUOUS
 10
13.2616824818
 20
-35.523845344
 11
13.2616824818
 21
-35.8713768607
  0
LINE
  5
445
100
AcDbEntity
  8
RACCORDO
100
AcDbLine
 62
7
  6
CONTINUOUS
 10
13.3338803388
 20
6.2111629443
 11
13.3338803388
 21
5.8636314276
  0
LINE
  5
446
100
AcDbEntity
  8
RACCORDO
100
AcDbLine
 62
7
  6
CONTINUOUS
 10
13.3338803388
 20
-35.4359727118
 11
13.3338803388
 21
-35.7835042285
  0
LINE
  5
447
100
AcDbEntity
  8
DRAFT
100
AcDbLine
 62
253
  6
CONTINUOUS
 10
13.6388319978
 20
9.1037409543
 11
13.6388319978
 21
10.3352590134
  0
LINE
  5
448
100
AcDbEntity
  8
RACCORDO
100
AcDbLine
 62
7
  6
CONTINUOUS
 10
13.7624260617
 20
9.2519000572
 11
13.7624260617
 21
10.4841742357
  0
LINE
  5
449
100
AcDbEntity
  8
CORPO
100
AcDbLine
 62
7
  6
CONTINUOUS
 10
13.7940754818
 20
0.4384929237
 11
13.7940754818
 21
-30.3674759603
  0
LINE
  5
44A
100
AcDbEntity
  8
RACCORDO
100
AcDbLine
 62
7
  6
CONTINUOUS
 10
13.7940754818
 20
4.0024865998
 11
13.7940754818
 21
-33.9314696364
  0
LINE
  5
44B
100
AcDbEntity
  8
CIRCUITO_LETTORE_SA
100
AcDbLine
 62
7
  6
CONTINUOUS
 10
14.2183395505
 20
13.3549364406
 11
14.2183395505
 21
12.4771476327
  0
LINE
  5
44C
100
AcDbEntity
  8
RACCORDO
100
AcDbLine
 62
253
  6
CONTINUOUS
 10
13.3338803388
 20
-35.7835042285
 11
13.3338801938
 21
-35.7836388563
  0
LWPOLYLINE
  5
44D
100
AcDbEntity
  8
RACCORDO
100
AcDbPolyline
 62
253
  6
CONTINUOUS
 90
10
 70
0
 10
10.7796125596
 20
-36.581935861
 10
10.7807719398
 20
-36.5566006059
 10
10.7842585145
 20
-36.5303025162
 10
10.7900612845
 20
-36.503379995
 10
10.7981524501
 20
-36.4761430148
 10
10.8084475769
 20
-36.4490072141
 10
10.8207703663
 20
-36.4224819218
 10
10.8349267325
 20
-36.3969724382
 10
10.8507422622
 20
-36.3727822157
 10
10.8680009072
 20
-36.3502416872
  0
LWPOLYLINE
  5
44E
100
AcDbEntity
  8
RACCORDO
100
AcDbPolyline
 62
7
  6
CONTINUOUS
 90
10
 70
0
 10
13.0761675998
 20
-34.285648924
 10
13.0736426205
 20
-34.3279004534
 10
13.0676964121
 20
-34.3679384407
 10
13.0583731765
 20
-34.405356485
 10
13.0457681584
 20
-34.4397173911
 10
13.0299903858
 20
-34.470739243
 10
13.0111027954
 20
-34.498233222
 10
12.9892416698
 20
-34.5218442698
 10
12.9645699736
 20
-34.5412630837
 10
12.9442127298
 20
-34.5529700271
  0
LWPOLYLINE
  5
44F
100
AcDbEntity
  8
RACCORDO
100
AcDbPolyline
 62
7
  6
CONTINUOUS
 90
5
 70
0
 10
13.3338803388
 20
5.8636314276
 10
13.3316204616
 20
5.8300980154
 10
13.3248057827
 20
5.7968877993
 10
13.3134836294
 20
5.7647257708
 10
13.2978270515
 20
5.7342993528
  0
LWPOLYLINE
  5
450
100
AcDbEntity
  8
RACCORDO
100
AcDbPolyline
 62
253
  6
CONTINUOUS
 90
7
 70
0
 10
13.3338803388
 20
5.8636314276
 10
13.3318508681
 20
5.8477363295
 10
13.3256109365
 20
5.8317475832
 10
13.3152654648
 20
5.8163003504
 10
13.30099016
 20
5.8016569862
 10
13.2830274732
 20
5.7880661928
 10
13.2616824818
 20
5.7757587954
  0
LWPOLYLINE
  5
451
100
AcDbEntity
  8
RACCORDO
100
AcDbPolyline
 62
253
  6
CONTINUOUS
 90
7
 70
0
 10
13.3338803388
 20
6.2111629443
 10
13.3316954928
 20
6.194673179
 10
13.3252369558
 20
6.1785785025
 10
13.3147016935
 20
6.1631486178
 10
13.300388553
 20
6.148664558
 10
13.2825940838
 20
6.1353130143
 10
13.2616824818
 20
6.1232903122
  0
LWPOLYLINE
  5
452
100
AcDbEntity
  8
RACCORDO
100
AcDbPolyline
 62
253
  6
CONTINUOUS
 90
6
 70
0
 10
-2.375588762
 20
11.3642660058
 10
-2.3435135572
 20
11.3674362994
 10
-2.3126352769
 20
11.372652821
 10
-2.2834957221
 20
11.3797994019
 10
-2.25653532
 20
11.3887421174
 10
-2.2321836452
 20
11.3993146367
  0
LWPOLYLINE
  5
453
100
AcDbEntity
  8
RACCORDO
100
AcDbPolyline
 62
7
  6
CONTINUOUS
 90
5
 70
0
 10
-2.1511854256
 20
13.5186545469
 10
-2.1820441344
 20
13.5306306762
 10
-2.2119340147
 20
13.5356805119
 10
-2.2399469162
 20
13.5336506243
 10
-2.2625334531
 20
13.525971389
  0
LWPOLYLINE
  5
454
100
AcDbEntity
  8
RACCORDO
100
AcDbPolyline
 62
7
  6
CONTINUOUS
 90
5
 70
0
 10
-20.6066724145
 20
22.7463980414
 10
-20.6375311234
 20
22.7583741706
 10
-20.6674210037
 20
22.7634240064
 10
-20.6954339051
 20
22.7613941188
 10
-20.7180204421
 20
22.7537148835
  0
LWPOLYLINE
  5
455
100
AcDbEntity
  8
RACCORDO
100
AcDbPolyline
 62
7
  6
CONTINUOUS
 90
5
 70
0
 10
-33.9709905789
 20
29.4285571236
 10
-34.0018492878
 20
29.4405332529
 10
-34.0317391681
 20
29.4455830886
 10
-34.0597520696
 20
29.443553201
 10
-34.0823386065
 20
29.4358739657
  0
LWPOLYLINE
  5
456
100
AcDbEntity
  8
RACCORDO
100
AcDbPolyline
 62
7
  6
CONTINUOUS
 90
6
 70
0
 10
-1.5059605873
 20
13.7855919046
 10
-1.5440455064
 20
13.8008640975
 10
-1.5846677919
 20
13.8097815885
 10
-1.6266000459
 20
13.8118289061
 10
-1.6690752686
 20
13.8066620165
 10
-1.7100944148
 20
13.7943104468
  0
LWPOLYLINE
  5
457
100
AcDbEntity
  8
RACCORDO
100
AcDbPolyline
 62
7
  6
CONTINUOUS
 90
6
 70
0
 10
-33.3257657407
 20
29.6954944813
 10
-33.3638506598
 20
29.7107666742
 10
-33.4044729453
 20
29.7196841652
 10
-33.4464051992
 20
29.7217314828
 10
-33.488880422
 20
29.7165645932
 10
-33.5298995682
 20
29.7042130235
  0
LWPOLYLINE
  5
458
100
AcDbEntity
  8
RACCORDO
100
AcDbPolyline
 62
253
  6
CONTINUOUS
 90
7
 70
0
 10
-22.1894290177
 20
21.934413944
 10
-22.2127293808
 20
21.9440687176
 10
-22.2356138428
 20
21.9498293873
 10
-22.2576869284
 20
21.9515943721
 10
-22.2785675397
 20
21.9493308875
 10
-22.2978933158
 20
21.9430757689
 10
-22.3025146838
 20
21.9408619192
  0
LWPOLYLINE
  5
459
100
AcDbEntity
  8
RACCORDO
100
AcDbPolyline
 62
253
  6
CONTINUOUS
 90
7
 70
0
 10
-35.5537471821
 20
28.6165730263
 10
-35.576945719
 20
28.6261937747
 10
-35.5997297435
 20
28.631954453
 10
-35.6217094313
 20
28.6337564986
 10
-35.6425087201
 20
28.6315690794
 10
-35.6617717436
 20
28.625429621
 10
-35.6668328483
 20
28.6230210014
  0
LWPOLYLINE
  5
45A
100
AcDbEntity
  8
RACCORDO
100
AcDbPolyline
 62
253
  6
CONTINUOUS
 90
7
 70
0
 10
-20.0722225358
 20
23.0067455079
 10
-20.0951702072
 20
23.0164916892
 10
-20.1177428505
 20
23.022358058
 10
-20.1395542583
 20
23.0242442437
 10
-20.1602312473
 20
23.0221179743
 10
-20.1794200438
 20
23.0160156295
 10
-20.1827346469
 20
23.014480299
  0
LWPOLYLINE
  5
45B
100
AcDbEntity
  8
RACCORDO
100
AcDbPolyline
 62
253
  6
CONTINUOUS
 90
7
 70
0
 10
-1.6167355469
 20
13.7790020135
 10
-1.6391832354
 20
13.7885758098
 10
-1.6614321626
 20
13.7944680528
 10
-1.6831018368
 20
13.7965020822
 10
-1.7038547697
 20
13.7945538449
 10
-1.7232576824
 20
13.7885659423
 10
-1.7272189031
 20
13.7867508059
  0
LWPOLYLINE
  5
45C
100
AcDbEntity
  8
RACCORDO
100
AcDbPolyline
 62
253
  6
CONTINUOUS
 90
7
 70
0
 10
-33.4365407003
 20
29.6889045902
 10
-33.4589883888
 20
29.6984783865
 10
-33.481237316
 20
29.7043706295
 10
-33.5029069902
 20
29.7064046589
 10
-33.5236599231
 20
29.7044564216
 10
-33.5430628358
 20
29.698468519
 10
-33.5470240565
 20
29.6966533825
  0
LWPOLYLINE
  5
45D
100
AcDbEntity
  8
0
100
AcDbPolyline
 62
7
  6
CONTINUOUS
 90
16
 70
0
 10
8.4554192839
 20
10.810939208
 10
8.3760148458
 20
10.8464262825
 10
8.2916630996
 20
10.8770710554
 10
8.2023640453
 20
10.9028735268
 10
8.1070373759
 20
10.9240104627
 10
8.0067633984
 20
10.940305097
 10
7.9047830335
 20
10.9512271312
 10
7.801039033
 20
10.9565998067
 10
7.695588645
 20
10.956599882
 10
7.5918445355
 20
10.9512273343
 10
7.4898639386
 20
10.9403054045
 10
7.38958962
 20
10.9240108516
 10
7.2942625428
 20
10.90287393
 10
7.2049630278
 20
10.8770713913
 10
7.120610754
 20
10.846426484
 10
7.0412057215
 20
10.810939208
  0
LWPOLYLINE
  5
45E
100
AcDbEntity
  8
0
100
AcDbPolyline
 62
7
  6
CONTINUOUS
 90
16
 70
0
 10
-23.3643858695
 20
26.7208417847
 10
-23.4437903076
 20
26.7563288592
 10
-23.5281420538
 20
26.7869736321
 10
-23.6174411081
 20
26.8127761034
 10
-23.7127677775
 20
26.8339130394
 10
-23.813041755
 20
26.8502076737
 10
-23.9150221198
 20
26.8611297079
 10
-24.0187661204
 20
26.8665023834
 10
-24.1242165084
 20
26.8665024587
 10
-24.2279606179
 20
26.861129911
 10
-24.3299412148
 20
26.8502079812
 10
-24.4302155334
 20
26.8339134283
 10
-24.5255426106
 20
26.8127765067
 10
-24.6148421256
 20
26.786973968
 10
-24.6991943994
 20
26.7563290607
 10
-24.7785994319
 20
26.7208417847
  0
LINE
  5
45F
100
AcDbEntity
  8
RACCORDO
100
AcDbLine
 62
7
  6
CONTINUOUS
 10
-19.9792003501
 20
23.0213629069
 11
-19.9614787592
 21
23.0133509832
  0
LWPOLYLINE
  5
460
100
AcDbEntity
  8
RACCORDO
100
AcDbPolyline
 62
253
  6
CONTINUOUS
 90
7
 70
0
 10
-18.624305886
 20
22.3447643006
 10
-18.628507003
 20
22.3467253519
 10
-18.647830948
 20
22.3528202219
 10
-18.6685284638
 20
22.3549176318
 10
-18.6901690938
 20
22.353071622
 10
-18.7124178721
 20
22.3474026251
 10
-18.7348963753
 20
22.3380824277
  0
LWPOLYLINE
  5
461
100
AcDbEntity
  8
RACCORDO
100
AcDbPolyline
 62
253
  6
CONTINUOUS
 90
7
 70
0
 10
-19.9614787592
 20
23.0133509832
 10
-19.9658331635
 20
23.0153884321
 10
-19.9851571085
 20
23.0214833022
 10
-20.0058546244
 20
23.0235807121
 10
-20.0274952544
 20
23.0217347023
 10
-20.0497440327
 20
23.0160657054
 10
-20.0722225358
 20
23.0067455079
  0
LWPOLYLINE
  5
462
100
AcDbEntity
  8
RACCORDO
100
AcDbPolyline
 62
253
  6
CONTINUOUS
 90
7
 70
0
 10
-0.1686344268
 20
13.1169288243
 10
-0.1723476591
 20
13.1186848667
 10
-0.1914563712
 20
13.1248914836
 10
-0.2120763398
 20
13.1271651367
 10
-0.2338573564
 20
13.1254672104
 10
-0.2564294932
 20
13.1198265423
 10
-0.2794093863
 20
13.1103389332
  0
LWPOLYLINE
  5
463
100
AcDbEntity
  8
RACCORDO
100
AcDbPolyline
 62
253
  6
CONTINUOUS
 90
7
 70
0
 10
-1.5059605873
 20
13.7855919046
 10
-1.5096738196
 20
13.787347947
 10
-1.5287825318
 20
13.7935545639
 10
-1.5494025004
 20
13.795828217
 10
-1.5711835169
 20
13.7941302907
 10
-1.5937556538
 20
13.7884896226
 10
-1.6167355469
 20
13.7790020135
  0
LWPOLYLINE
  5
464
100
AcDbEntity
  8
RACCORDO
100
AcDbPolyline
 62
253
  6
CONTINUOUS
 90
7
 70
0
 10
-31.9884395802
 20
29.026831401
 10
-31.9921528125
 20
29.0285874434
 10
-32.0112615246
 20
29.0347940603
 10
-32.0318814932
 20
29.0370677134
 10
-32.0536625098
 20
29.0353697871
 10
-32.0762346466
 20
29.029729119
 10
-32.0992145397
 20
29.0202415099
  0
LWPOLYLINE
  5
465
100
AcDbEntity
  8
RACCORDO
100
AcDbPolyline
 62
253
  6
CONTINUOUS
 90
7
 70
0
 10
-33.3257657407
 20
29.6954944813
 10
-33.329478973
 20
29.6972505237
 10
-33.3485876852
 20
29.7034571406
 10
-33.3692076538
 20
29.7057307937
 10
-33.3909886703
 20
29.7040328674
 10
-33.4135608071
 20
29.6983921993
 10
-33.4365407003
 20
29.6889045902
  0
LWPOLYLINE
  5
466
100
AcDbEntity
  8
CORPO
100
AcDbPolyline
 62
7
  6
CONTINUOUS
 90
14
 70
0
 10
10.4001968794
 20
9.4329139882
 10
10.3869231932
 20
9.4394041482
 10
10.3685604422
 20
9.4479379128
 10
10.3499786065
 20
9.4560549881
 10
10.3311720008
 20
9.4636870978
 10
10.3121448775
 20
9.4708372242
 10
10.2929043445
 20
9.477494323
 10
10.2734490096
 20
9.4835685616
 10
10.2537817398
 20
9.4890664515
 10
10.2339123776
 20
9.4939730987
 10
10.2138503219
 20
9.4981664654
 10
10.1936035646
 20
9.5016032652
 10
10.1731786507
 20
9.5043188796
 10
10.1525832709
 20
9.5063094213
  0
LWPOLYLINE
  5
467
100
AcDbEntity
  8
CORPO
100
AcDbPolyline
 62
7
  6
CONTINUOUS
 90
14
 70
0
 10
-23.7530606519
 20
26.5095427539
 10
-23.7663343381
 20
26.5160329139
 10
-23.7846970891
 20
26.5245666785
 10
-23.8032789248
 20
26.5326837538
 10
-23.8220855306
 20
26.5403158635
 10
-23.8411126538
 20
26.5474659898
 10
-23.8603531868
 20
26.5541230886
 10
-23.8798085217
 20
26.5601973272
 10
-23.8994757915
 20
26.5656952172
 10
-23.9193451537
 20
26.5706018643
 10
-23.9394072095
 20
26.5747952311
 10
-23.9596539667
 20
26.5782320309
 10
-23.9800788806
 20
26.5809476453
 10
-24.0006742604
 20
26.5829381869
  0
LINE
  5
468
100
AcDbEntity
  8
RACCORDO
100
AcDbLine
 62
253
  6
CONTINUOUS
 10
-33.4365407003
 20
29.6889045902
 11
-32.0992145397
 21
29.0202415099
  0
LINE
  5
469
100
AcDbEntity
  8
RACCORDO
100
AcDbLine
 62
253
  6
CONTINUOUS
 10
-20.0722225358
 20
23.0067455079
 11
-18.7348963753
 21
22.3380824277
  0
LINE
  5
46A
100
AcDbEntity
  8
RACCORDO
100
AcDbLine
 62
253
  6
CONTINUOUS
 10
-1.6167355469
 20
13.7790020135
 11
-0.2794093863
 21
13.1103389332
  0
LINE
  5
46B
100
AcDbEntity
  8
RACCORDO
100
AcDbLine
 62
253
  6
CONTINUOUS
 10
11.7475826176
 20
7.0968429312
 11
13.0849087781
 21
6.428179851
  0
LINE
  5
46C
100
AcDbEntity
  8
RACCORDO
100
AcDbLine
 62
7
  6
CONTINUOUS
 10
-33.3257657407
 20
29.6954944813
 11
-31.9884395802
 21
29.026831401
  0
LINE
  5
46D
100
AcDbEntity
  8
RACCORDO
100
AcDbLine
 62
7
  6
CONTINUOUS
 10
-19.9614787592
 20
23.0133509832
 11
-18.6241214157
 21
22.3446723188
  0
LINE
  5
46E
100
AcDbEntity
  8
RACCORDO
100
AcDbLine
 62
7
  6
CONTINUOUS
 10
-1.5059605873
 20
13.7855919046
 11
-0.1686344268
 21
13.1169288243
  0
LINE
  5
46F
100
AcDbEntity
  8
RACCORDO
100
AcDbLine
 62
7
  6
CONTINUOUS
 10
11.8583263942
 20
7.1034484065
 11
13.1956837377
 21
6.4347697421
  0
LINE
  5
470
100
AcDbEntity
  8
DRAFT
100
AcDbLine
 62
7
  6
CONTINUOUS
 10
8.4554192839
 20
9.3847979257
 11
8.4969185867
 21
9.3640482743
  0
LINE
  5
471
100
AcDbEntity
  8
CORPO
100
AcDbLine
 62
7
  6
CONTINUOUS
 10
9.8733186718
 20
9.0802562959
 11
9.3039474213
 21
9.3649419211
  0
LINE
  5
472
100
AcDbEntity
  8
CORPO
100
AcDbLine
 62
7
  6
CONTINUOUS
 10
-22.3744363759
 20
25.2041338197
 11
-24.84931011
 21
26.4415706868
  0
LWPOLYLINE
  5
473
100
AcDbEntity
  8
ASSI
100
AcDbPolyline
 62
7
  6
CONTINUOUS
 90
3
 70
0
 10
-21.8430801257
 20
25.0411252433
 10
-21.929082852
 20
25.0841266065
 10
-22.0816508693
 20
25.1661543587
  0
LINE
  5
474
100
AcDbEntity
  8
ASSI
100
AcDbLine
 62
7
  6
CONTINUOUS
 10
-22.0816508693
 20
25.3000514212
 11
-21.7024371885
 21
25.1104445808
  0
LINE
  5
475
100
AcDbEntity
  8
ASSI
100
AcDbLine
 62
7
  6
CONTINUOUS
 10
8.4969185867
 20
10.0107666932
 11
9.5891940271
 21
9.464628973
  0
LINE
  5
476
100
AcDbEntity
  8
CORPO
100
AcDbLine
 62
253
  6
CONTINUOUS
 10
-24.0006742604
 20
26.5829381869
 11
-22.0917013756
 21
25.6284517445
  0
LINE
  5
477
100
AcDbEntity
  8
CORPO
100
AcDbLine
 62
253
  6
CONTINUOUS
 10
10.1525832709
 20
9.5063094213
 11
10.4430637338
 21
9.3610691898
  0
LINE
  5
478
100
AcDbEntity
  8
CORPO
100
AcDbLine
 62
7
  6
CONTINUOUS
 10
-23.7530635358
 20
26.5095345416
 11
-22.160426662
 21
25.7132161047
  0
LINE
  5
479
100
AcDbEntity
  8
CORPO
100
AcDbLine
 62
7
  6
CONTINUOUS
 10
10.4001939955
 20
9.432905776
 11
10.4938271583
 21
9.3860891945
  0
LINE
  5
47A
100
AcDbEntity
  8
CORPO
100
AcDbLine
 62
7
  6
CONTINUOUS
 10
3.3642504593
 20
13.1142132655
 11
-16.4347394139
 21
23.0137082021
  0
LINE
  5
47B
100
AcDbEntity
  8
ASSI
100
AcDbLine
 62
7
  6
CONTINUOUS
 10
-23.3643858695
 20
26.7208417847
 11
-20.9174208029
 21
25.4973592514
  0
LINE
  5
47C
100
AcDbEntity
  8
ASSI
100
AcDbLine
 62
7
  6
CONTINUOUS
 10
8.4554192839
 20
10.810939208
 11
10.9023843505
 21
9.5874566747
  0
LINE
  5
47D
100
AcDbEntity
  8
0
100
AcDbLine
 62
7
  6
CONTINUOUS
 10
8.1018658933
 20
10.9877159033
 11
7.7483125027
 21
11.1644925986
  0
LINE
  5
47E
100
AcDbEntity
  8
0
100
AcDbLine
 62
7
  6
CONTINUOUS
 10
-23.7179392601
 20
26.89761848
 11
-24.0714926507
 21
27.0743951753
  0
LINE
  5
47F
100
AcDbEntity
  8
DRAFT
100
AcDbLine
 62
7
  6
CONTINUOUS
 10
-24.0714926507
 20
27.6269533646
 11
-23.7179392601
 21
27.4501766693
  0
LINE
  5
480
100
AcDbEntity
  8
DRAFT
100
AcDbLine
 62
7
  6
CONTINUOUS
 10
7.7483125027
 20
11.7170507879
 11
8.1018658933
 21
11.5402740926
  0
LINE
  5
481
100
AcDbEntity
  8
0
100
AcDbLine
 62
7
  6
CONTINUOUS
 10
12.3102000468
 20
10.2813333331
 11
9.4996503998
 21
11.6866081566
  0
LINE
  5
482
100
AcDbEntity
  8
0
100
AcDbLine
 62
7
  6
CONTINUOUS
 10
-19.5096051066
 20
26.1912359098
 11
-22.3201547536
 21
27.5965107333
  0
LWPOLYLINE
  5
483
100
AcDbEntity
  8
RACCORDO
100
AcDbPolyline
 62
7
  6
CONTINUOUS
 90
7
 70
0
 10
13.1954992674
 20
6.4348617239
 10
13.2068928594
 20
6.4288045628
 10
13.2339775344
 20
6.4110900107
 10
13.2586079984
 20
6.3899651768
 10
13.2803593675
 20
6.3657462269
 10
13.2988671889
 20
6.3387586116
 10
13.3137713542
 20
6.3093979738
  0
LINE
  5
484
100
AcDbEntity
  8
RACCORDO
100
AcDbLine
 62
253
  6
CONTINUOUS
 10
13.108107315
 20
6.4148529281
 11
13.0849087781
 21
6.428179851
  0
LWPOLYLINE
  5
485
100
AcDbEntity
  8
ASSI
100
AcDbPolyline
 62
7
  6
CONTINUOUS
 90
4
 70
0
 10
9.437957681
 20
9.4209967378
 10
9.1641149606
 20
9.579419942
 10
8.8231538786
 20
9.7917927248
 10
8.4969185867
 20
10.0107666932
  0
LWPOLYLINE
  5
486
100
AcDbEntity
  8
RACCORDO
100
AcDbPolyline
 62
253
  6
CONTINUOUS
 90
3
 70
0
 10
13.1528710273
 20
6.3780316009
 10
13.1308913395
 20
6.398040963
 10
13.108107315
 20
6.4148529281
  0
LWPOLYLINE
  5
487
100
AcDbEntity
  8
RACCORDO
100
AcDbPolyline
 62
253
  6
CONTINUOUS
 90
7
 70
0
 10
13.2616824818
 20
5.7757587954
 10
13.2715310656
 20
5.758041957
 10
13.278260938
 20
5.7420416346
 10
13.2817286167
 20
5.7280448674
 10
13.2818425382
 20
5.7162979443
 10
13.2785637118
 20
5.7070397239
 10
13.2770595451
 20
5.7049437264
  0
LWPOLYLINE
  5
488
100
AcDbEntity
  8
RACCORDO
100
AcDbPolyline
 62
253
  6
CONTINUOUS
 90
6
 70
0
 10
13.2383737152
 20
6.2435703369
 10
13.2255641886
 20
6.2735590484
 10
13.2103305163
 20
6.3024801912
 10
13.1929333396
 20
6.3298389378
 10
13.1736703161
 20
6.3551671927
 10
13.1528710273
 20
6.3780316009
  0
LWPOLYLINE
  5
489
100
AcDbEntity
  8
RACCORDO
100
AcDbPolyline
 62
7
  6
CONTINUOUS
 90
4
 70
0
 10
13.3137713542
 20
6.3093979738
 10
13.3247317405
 20
6.2781748363
 10
13.3314899093
 20
6.2456520813
 10
13.3338801804
 20
6.2113036366
  0
LINE
  5
48A
100
AcDbEntity
  8
RACCORDO
100
AcDbLine
 62
7
  6
CONTINUOUS
 10
18.101643917
 20
7.2360767489
 11
18.101643917
 21
7.5295096921
  0
LINE
  5
48B
100
AcDbEntity
  8
RACCORDO
100
AcDbLine
 62
253
  6
CONTINUOUS
 10
18.3497882408
 20
8.1580194635
 11
18.3497882408
 21
7.6606895066
  0
LINE
  5
48C
100
AcDbEntity
  8
RACCORDO
100
AcDbLine
 62
253
  6
CONTINUOUS
 10
18.3497882408
 20
-28.7112238212
 11
18.3497882408
 21
-29.1953457016
  0
LINE
  5
48D
100
AcDbEntity
  8
RACCORDO
100
AcDbLine
 62
7
  6
CONTINUOUS
 10
18.4901183406
 20
8.4584445903
 11
18.4901183406
 21
7.8369601959
  0
LINE
  5
48E
100
AcDbEntity
  8
RACCORDO
100
AcDbLine
 62
7
  6
CONTINUOUS
 10
18.4901183406
 20
-28.6355125129
 11
18.4901183406
 21
-29.1484416431
  0
LINE
  5
48F
100
AcDbEntity
  8
RACCORDO
100
AcDbLine
 62
7
  6
CONTINUOUS
 10
13.3315012937
 20
-35.8179115341
 11
13.3338801938
 21
-35.7836388563
  0
LWPOLYLINE
  5
490
100
AcDbEntity
  8
RACCORDO
100
AcDbPolyline
 62
253
  6
CONTINUOUS
 90
7
 70
0
 10
13.3338801938
 20
-35.7836388563
 10
13.331950001
 20
-35.7990077981
 10
13.3257685632
 20
-35.8150877958
 10
13.3154383084
 20
-35.83062351
 10
13.3011387349
 20
-35.8453483659
 10
13.2831165968
 20
-35.8590107075
 10
13.2616824818
 20
-35.8713768607
  0
LWPOLYLINE
  5
491
100
AcDbEntity
  8
RACCORDO
100
AcDbPolyline
 62
253
  6
CONTINUOUS
 90
7
 70
0
 10
13.3338803388
 20
-35.4359727118
 10
13.3318508681
 20
-35.4518678099
 10
13.3256109365
 20
-35.4678565562
 10
13.3152654648
 20
-35.483303789
 10
13.30099016
 20
-35.4979471531
 10
13.2830274732
 20
-35.5115379466
 10
13.2616824818
 20
-35.523845344
  0
LWPOLYLINE
  5
492
100
AcDbEntity
  8
RACCORDO
100
AcDbPolyline
 62
253
  6
CONTINUOUS
 90
6
 70
0
 10
-35.2459162143
 20
9.9904303011
 10
-35.2847197552
 20
9.9839601395
 10
-35.3223375284
 20
9.9746192909
 10
-35.3587284312
 20
9.9624329114
 10
-35.393867774
 20
9.9474097728
 10
-35.4018532556
 20
9.9435112001
  0
LINE
  5
493
100
AcDbEntity
  8
RACCORDO
100
AcDbLine
 62
7
  6
CONTINUOUS
 10
-20.9145141277
 20
20.4712369704
 11
-20.2903185307
 21
20.3409043506
  0
LINE
  5
494
100
AcDbEntity
  8
RACCORDO
100
AcDbLine
 62
253
  6
CONTINUOUS
 10
-20.6876706342
 20
20.6270581312
 11
-19.9764500261
 21
20.4785546083
  0
LWPOLYLINE
  5
495
100
AcDbEntity
  8
RACCORDO
100
AcDbPolyline
 62
7
  6
CONTINUOUS
 90
10
 70
0
 10
-20.9145141277
 20
20.4712369704
 10
-20.9221110211
 20
20.4729471001
 10
-20.9296579876
 20
20.4748949265
 10
-20.9371446209
 20
20.4770783213
 10
-20.9445815534
 20
20.47950173
 10
-20.9519360617
 20
20.4821554801
 10
-20.9591371429
 20
20.4850101967
 10
-20.9661596457
 20
20.4880475481
 10
-20.9730192007
 20
20.4912658207
 10
-20.9752278082
 20
20.4923566609
  0
LWPOLYLINE
  5
496
100
AcDbEntity
  8
RACCORDO
100
AcDbPolyline
 62
7
  6
CONTINUOUS
 90
12
 70
0
 10
10.5996741385
 20
12.5720004104
 10
10.5857218818
 20
12.5786284829
 10
10.5485238821
 20
12.5930663168
 10
10.5096322722
 20
12.603589382
 10
10.4690682389
 20
12.6102466515
 10
10.4273434998
 20
12.6129541436
 10
10.3844433507
 20
12.6116618212
 10
10.3403824959
 20
12.6064197212
 10
10.2957167654
 20
12.5972939733
 10
10.2506314362
 20
12.5843066204
 10
10.2049412315
 20
12.5674356194
 10
10.1586461511
 20
12.5466809704
  0
LWPOLYLINE
  5
497
100
AcDbEntity
  8
RACCORDO
100
AcDbPolyline
 62
7
  6
CONTINUOUS
 90
12
 70
0
 10
-21.2201310149
 20
28.4819029871
 10
-21.2340832716
 20
28.4885310596
 10
-21.2712812713
 20
28.5029688935
 10
-21.3101728812
 20
28.5134919587
 10
-21.3507369145
 20
28.5201492282
 10
-21.3924616536
 20
28.5228567203
 10
-21.4353618027
 20
28.5215643978
 10
-21.4794226575
 20
28.5163222979
 10
-21.524088388
 20
28.50719655
 10
-21.5691737172
 20
28.4942091971
 10
-21.6148639219
 20
28.4773381961
 10
-21.6611590023
 20
28.4565835471
  0
LINE
  5
498
100
AcDbEntity
  8
0
100
AcDbLine
 62
7
  6
CONTINUOUS
 10
13.9607214612
 20
10.2097867833
 11
13.7624260617
 21
10.3089344831
  0
LINE
  5
499
100
AcDbEntity
  8
0
100
AcDbLine
 62
7
  6
CONTINUOUS
 10
13.0720497672
 20
10.6541226303
 11
10.8595823399
 21
11.760356344
  0
LINE
  5
49A
100
AcDbEntity
  8
0
100
AcDbLine
 62
7
  6
CONTINUOUS
 10
-17.8590836922
 20
26.11968936
 11
-18.0573790917
 21
26.2188370598
  0
LINE
  5
49B
100
AcDbEntity
  8
0
100
AcDbLine
 62
7
  6
CONTINUOUS
 10
-18.7477553862
 20
26.564025207
 11
-20.9602228135
 21
27.6702589207
  0
LINE
  5
49C
100
AcDbEntity
  8
CORPO
100
AcDbLine
 62
7
  6
CONTINUOUS
 10
13.1319379102
 20
10.6731976598
 11
10.8595823399
 21
11.8093754449
  0
LINE
  5
49D
100
AcDbEntity
  8
RACCORDO
100
AcDbLine
 62
253
  6
CONTINUOUS
 10
-24.7281249462
 20
29.9900665191
 11
-21.6611590023
 21
28.4565835471
  0
LINE
  5
49E
100
AcDbEntity
  8
RACCORDO
100
AcDbLine
 62
253
  6
CONTINUOUS
 10
-17.4185183151
 20
26.3352632036
 11
-14.3515523712
 21
24.8017802316
  0
LINE
  5
49F
100
AcDbEntity
  8
RACCORDO
100
AcDbLine
 62
253
  6
CONTINUOUS
 10
7.0916802072
 20
14.0801639424
 11
10.1586461511
 21
12.5466809704
  0
LINE
  5
4A0
100
AcDbEntity
  8
RACCORDO
100
AcDbLine
 62
253
  6
CONTINUOUS
 10
14.4012868383
 20
10.4253606269
 11
17.4682527822
 21
8.8918776549
  0
LINE
  5
4A1
100
AcDbEntity
  8
RACCORDO
100
AcDbLine
 62
7
  6
CONTINUOUS
 10
-24.4464392423
 20
30.0950946353
 11
-21.2201159992
 21
28.4819330137
  0
LINE
  5
4A2
100
AcDbEntity
  8
RACCORDO
100
AcDbLine
 62
7
  6
CONTINUOUS
 10
-16.9774753121
 20
26.3606126702
 11
-13.7511520689
 21
24.7474510486
  0
LINE
  5
4A3
100
AcDbEntity
  8
RACCORDO
100
AcDbLine
 62
7
  6
CONTINUOUS
 10
7.3733659111
 20
14.1851920586
 11
10.5996891542
 21
12.572030437
  0
LINE
  5
4A4
100
AcDbEntity
  8
RACCORDO
100
AcDbLine
 62
7
  6
CONTINUOUS
 10
14.8423298413
 20
10.4507100935
 11
18.0686530845
 21
8.8375484719
  0
LINE
  5
4A5
100
AcDbEntity
  8
CORPO
100
AcDbLine
 62
7
  6
CONTINUOUS
 10
6.90754781
 20
14.871714873
 11
-12.7655475965
 21
24.7082625762
  0
LINE
  5
4A6
100
AcDbEntity
  8
CORPO
100
AcDbLine
 62
253
  6
CONTINUOUS
 10
14.2183395505
 20
12.8644710019
 11
14.6166812245
 21
12.6653001649
  0
LINE
  5
4A7
100
AcDbEntity
  8
CORPO
100
AcDbLine
 62
7
  6
CONTINUOUS
 10
14.2183395505
 20
12.9364109329
 11
14.6906676523
 21
12.700246882
  0
LINE
  5
4A8
100
AcDbEntity
  8
CIRCUITO_LETTORE_SA
100
AcDbLine
 62
7
  6
CONTINUOUS
 10
14.2183395505
 20
13.3549364406
 11
13.8857043253
 21
13.5212540532
  0
LINE
  5
4A9
100
AcDbEntity
  8
CIRCUITO_LETTORE_SA
100
AcDbLine
 62
7
  6
CONTINUOUS
 10
13.1576793788
 20
18.0207587774
 11
13.9354968381
 21
13.2135150844
  0
LWPOLYLINE
  5
4AA
100
AcDbEntity
  8
RACCORDO
100
AcDbPolyline
 62
253
  6
CONTINUOUS
 90
10
 70
0
 10
1.8727239403
 20
-27.1151063148
 10
1.8186738944
 20
-27.1592869093
 10
1.7675023661
 20
-27.2122365367
 10
1.7204858226
 20
-27.2726349184
 10
1.6787972855
 20
-27.3389757138
 10
1.6434767484
 20
-27.40960455
 10
1.6154053823
 20
-27.4827603589
 10
1.5952839047
 20
-27.5566185537
 10
1.5836149049
 20
-27.6293364592
 10
1.5806900775
 20
-27.6990998136
  0
LWPOLYLINE
  5
4AB
100
AcDbEntity
  8
RACCORDO
100
AcDbPolyline
 62
253
  6
CONTINUOUS
 90
6
 70
0
 10
-20.831075751
 20
20.5920095003
 10
-20.7990005462
 20
20.5951797939
 10
-20.7681222658
 20
20.6003963155
 10
-20.7389827111
 20
20.6075428964
 10
-20.712022309
 20
20.6164856119
 10
-20.6876706342
 20
20.6270581312
  0
LWPOLYLINE
  5
4AC
100
AcDbEntity
  8
RACCORDO
100
AcDbPolyline
 62
253
  6
CONTINUOUS
 90
3
 70
0
 10
-20.8962951395
 20
20.5920449627
 10
-20.8637040742
 20
20.5909592857
 10
-20.831075751
 20
20.5920095003
  0
LINE
  5
4AD
100
AcDbEntity
  8
RACCORDO
100
AcDbLine
 62
7
  6
CONTINUOUS
 10
-34.2788322921
 20
27.1533960526
 11
-33.6546366951
 21
27.0230634328
  0
LINE
  5
4AE
100
AcDbEntity
  8
RACCORDO
100
AcDbLine
 62
253
  6
CONTINUOUS
 10
-34.0519887986
 20
27.3092172134
 11
-33.3407681905
 21
27.1607136905
  0
LWPOLYLINE
  5
4AF
100
AcDbEntity
  8
RACCORDO
100
AcDbPolyline
 62
7
  6
CONTINUOUS
 90
10
 70
0
 10
-34.2788322921
 20
27.1533960526
 10
-34.2864291855
 20
27.1551061823
 10
-34.293976152
 20
27.1570540087
 10
-34.3014627854
 20
27.1592374035
 10
-34.3088997179
 20
27.1616608122
 10
-34.3162542261
 20
27.1643145623
 10
-34.3234553073
 20
27.1671692789
 10
-34.3304778101
 20
27.1702066303
 10
-34.3373373652
 20
27.1734249029
 10
-34.3395459726
 20
27.1745157431
  0
LINE
  5
4B0
100
AcDbEntity
  8
CORPO
100
AcDbLine
 62
7
  6
CONTINUOUS
 10
-17.991225202
 20
31.9027353041
 11
12.1537428361
 21
16.8302512851
  0
LINE
  5
4B1
100
AcDbEntity
  8
CIRCUITO_LETTORE_SA
100
AcDbLine
 62
7
  6
CONTINUOUS
 10
13.1576793788
 20
18.0207587774
 11
2.551077661
 21
23.3240596363
  0
LINE
  5
4B2
100
AcDbEntity
  8
CIRCUITO_LETTORE_SA
100
AcDbLine
 62
7
  6
CONTINUOUS
 10
-2.0451164168
 20
25.6221566752
 11
-12.6517181346
 21
30.9254575341
  0
LWPOLYLINE
  5
4B3
100
AcDbEntity
  8
RACCORDO
100
AcDbPolyline
 62
253
  6
CONTINUOUS
 90
5
 70
0
 10
13.2616824818
 20
-35.523845344
 10
13.2715310656
 20
-35.4931941177
 10
13.278260938
 20
-35.4614858605
 10
13.2817286167
 20
-35.4292470804
 10
13.2818425382
 20
-35.3969882308
  0
LINE
  5
4B4
100
AcDbEntity
  8
RACCORDO
100
AcDbLine
 62
7
  6
CONTINUOUS
 10
2.5455238099
 20
-27.1018014933
 11
2.5481258578
 21
-27.0996901668
  0
LINE
  5
4B5
100
AcDbEntity
  8
RACCORDO
100
AcDbLine
 62
253
  6
CONTINUOUS
 10
1.8727239403
 20
-27.1151063148
 11
2.1621689313
 21
-26.9078765626
  0
LINE
  5
4B6
100
AcDbEntity
  8
0
100
AcDbLine
 62
253
  6
CONTINUOUS
 10
2.6873699856
 20
-26.5318559449
 11
2.1621689313
 21
-26.9078765626
  0
LWPOLYLINE
  5
4B7
100
AcDbEntity
  8
RACCORDO
100
AcDbPolyline
 62
7
  6
CONTINUOUS
 90
5
 70
0
 10
-24.1457079145
 20
23.3391532592
 10
-24.2027342373
 20
23.3334924833
 10
-24.2581541882
 20
23.3230857437
 10
-24.3111720819
 20
23.3099381224
 10
-24.4090251212
 20
23.2834151767
  0
LWPOLYLINE
  5
4B8
100
AcDbEntity
  8
RACCORDO
100
AcDbPolyline
 62
253
  6
CONTINUOUS
 90
3
 70
0
 10
-34.2606133039
 20
27.2742040449
 10
-34.2280222386
 20
27.2731183679
 10
-34.1953939154
 20
27.2741685825
  0
LWPOLYLINE
  5
4B9
100
AcDbEntity
  8
CORPO
100
AcDbPolyline
 62
7
  6
CONTINUOUS
 90
31
 70
0
 10
-24.0006742604
 20
26.5829381869
 10
-24.0308043109
 20
26.5848562907
 10
-24.0609811346
 20
26.5863154117
 10
-24.0912047316
 20
26.5873155498
 10
-24.1215029646
 20
26.5878567807
 10
-24.1518479709
 20
26.5879390287
 10
-24.1821561624
 20
26.5875620672
 10
-24.2124274466
 20
26.5867246293
 10
-24.242661916
 20
26.5854279818
 10
-24.2727762598
 20
26.5836756977
 10
-24.3027701317
 20
26.5814665221
 10
-24.3326438779
 20
26.5788017099
 10
-24.3623152273
 20
26.5756885991
 10
-24.3917836383
 20
26.5721259522
 10
-24.4210496523
 20
26.5681150067
 10
-24.4500326232
 20
26.563666814
 10
-24.4787317696
 20
26.5587801673
 10
-24.5071478729
 20
26.5534562732
 10
-24.5352026303
 20
26.5477098038
 10
-24.5628950302
 20
26.5415395973
 10
-24.5902260844
 20
26.5349468154
 10
-24.6171205247
 20
26.5279496151
 10
-24.6435771614
 20
26.5205468777
 10
-24.6695971842
 20
26.5127397218
 10
-24.6951088951
 20
26.5045496598
 10
-24.7201108847
 20
26.4959756382
 10
-24.7446045625
 20
26.4870187105
 10
-24.7685224585
 20
26.4777035496
 10
-24.791842083
 20
26.4680383797
 10
-24.8145859259
 20
26.4580149766
 10
-24.8367539871
 20
26.4476333403
  0
LWPOLYLINE
  5
4BA
100
AcDbEntity
  8
RACCORDO
100
AcDbPolyline
 62
253
  6
CONTINUOUS
 90
9
 70
0
 10
-34.2943130849
 20
27.6176065001
 10
-34.2621628995
 20
27.6142832379
 10
-34.2294213923
 20
27.6130950661
 10
-34.1967269239
 20
27.6140573879
 10
-34.1645669284
 20
27.6171481068
 10
-34.1334955001
 20
27.6223132342
 10
-34.1040457882
 20
27.629463021
 10
-34.076721105
 20
27.63847409
 10
-34.0519887986
 20
27.6491911475
  0
LWPOLYLINE
  5
4BB
100
AcDbEntity
  8
CORPO
100
AcDbPolyline
 62
253
  6
CONTINUOUS
 90
17
 70
0
 10
21.8739783214
 20
16.0212754517
 10
21.8655863004
 20
16.0254067599
 10
21.8572048866
 20
16.0291085562
 10
21.8488476721
 20
16.0323748375
 10
21.8405282096
 20
16.0352003068
 10
21.8322599908
 20
16.0375803822
 10
21.8240564241
 20
16.0395112039
 10
21.8159308132
 20
16.0409896406
 10
21.8078963352
 20
16.0420132949
 10
21.7999660197
 20
16.0425805067
 10
21.7921527271
 20
16.0426903561
 10
21.7844691281
 20
16.042342665
 10
21.7769276832
 20
16.0415379972
 10
21.7695406222
 20
16.0402776577
 10
21.7623199247
 20
16.0385636903
 10
21.7552773003
 20
16.0363988747
 10
21.7484241701
 20
16.0337867213
  0
LINE
  5
4BC
100
AcDbEntity
  8
CORPO
100
AcDbLine
 62
253
  6
CONTINUOUS
 10
23.2840115805
 20
15.3162588221
 11
21.8739783214
 21
16.0212754517
  0
LINE
  5
4BD
100
AcDbEntity
  8
CORPO
100
AcDbLine
 62
7
  6
CONTINUOUS
 10
23.3600419534
 20
15.3520049261
 11
22.0062912224
 21
16.0288802916
  0
LWPOLYLINE
  5
4BE
100
AcDbEntity
  8
RACCORDO
100
AcDbPolyline
 62
253
  6
CONTINUOUS
 90
5
 70
0
 10
13.2381568924
 20
-35.9679465411
 10
13.2484185628
 20
-35.9476398167
 10
13.2558356541
 20
-35.9245019775
 10
13.2602820156
 20
-35.8989334336
 10
13.2616824818
 20
-35.8713768607
  0
LINE
  5
4BF
100
AcDbEntity
  8
0
100
AcDbLine
 62
7
  6
CONTINUOUS
 10
-20.9602228135
 20
27.6702589207
 11
-22.3201547536
 21
27.5965107333
  0
LWPOLYLINE
  5
4C0
100
AcDbEntity
  8
CORPO
100
AcDbPolyline
 62
253
  6
CONTINUOUS
 90
23
 70
0
 10
30.3312160037
 20
18.3732451393
 10
30.3158097797
 20
18.3805209428
 10
30.2984541232
 20
18.3877391732
 10
30.2807113476
 20
18.3941156093
 10
30.262598133
 20
18.3996442239
 10
30.244131175
 20
18.4043199397
 10
30.2253275026
 20
18.4081384671
 10
30.2062047879
 20
18.4110961533
 10
30.1867806495
 20
18.4131903123
 10
30.1670730084
 20
18.4144190524
 10
30.1471004094
 20
18.4147811234
 10
30.126881326
 20
18.4142762562
 10
30.1064343453
 20
18.4129049821
 10
30.0857785204
 20
18.4106684454
 10
30.0649327591
 20
18.4075687467
 10
30.0439164099
 20
18.4036088169
 10
30.0227494511
 20
18.3987922594
 10
30.0014515994
 20
18.3931236772
 10
29.9800422976
 20
18.3866083642
 10
29.9585412942
 20
18.3792521347
 10
29.9369684124
 20
18.3710617421
 10
29.9153435377
 20
18.3620449191
 10
29.8936866073
 20
18.3522100676
  0
LWPOLYLINE
  5
4C1
100
AcDbEntity
  8
CORPO
100
AcDbPolyline
 62
253
  6
CONTINUOUS
 90
22
 70
0
 10
37.143822023
 20
14.9669421297
 10
37.1327568
 20
14.9722502546
 10
37.1145201193
 20
14.9800584503
 10
37.0958458169
 20
14.9869162999
 10
37.0767534477
 20
14.992816622
 10
37.0572630046
 20
14.997753238
 10
37.0373948973
 20
15.0017209785
 10
37.017169931
 20
15.0047156887
 10
36.9966092844
 20
15.0067342325
 10
36.9757344879
 20
15.0077744962
 10
36.9545674009
 20
15.0078353905
 10
36.9331301887
 20
15.0069168516
 10
36.9114452997
 20
15.0050198415
 10
36.8895354413
 20
15.0021463464
 10
36.8674235569
 20
14.9982993756
 10
36.8451328011
 20
14.9934829573
 10
36.8226865161
 20
14.9877021352
 10
36.8001082067
 20
14.9809629628
 10
36.7774215162
 20
14.9732724969
 10
36.7546502011
 20
14.9646387909
 10
36.7318181069
 20
14.9550708855
 10
36.7089491423
 20
14.9445788001
  0
LWPOLYLINE
  5
4C2
100
AcDbEntity
  8
CORPO
100
AcDbPolyline
 62
253
  6
CONTINUOUS
 90
16
 70
0
 10
29.8936866073
 20
18.3522100676
 10
29.8845119785
 20
18.3566256546
 10
29.8753477647
 20
18.3605349275
 10
29.8662114072
 20
18.3639304463
 10
29.8571202941
 20
18.3668057486
 10
29.8480917276
 20
18.3691553622
 10
29.8391428907
 20
18.3709748153
 10
29.8302908148
 20
18.3722606452
 10
29.8215523469
 20
18.3730104047
 10
29.812944118
 20
18.3732226669
 10
29.8044825113
 20
18.3728970277
 10
29.7961836307
 20
18.372034107
 10
29.7880632705
 20
18.3706355471
 10
29.7801368854
 20
18.3687040096
 10
29.7724195608
 20
18.3662431706
 10
29.7649259841
 20
18.3632577136
  0
LWPOLYLINE
  5
4C3
100
AcDbEntity
  8
CORPO
100
AcDbPolyline
 62
7
  6
CONTINUOUS
 90
27
 70
0
 10
30.3312596639
 20
18.3732231446
 10
30.322151185
 20
18.3776771053
 10
30.3026793435
 20
18.3865369037
 10
30.2828176251
 20
18.3946843525
 10
30.2625817669
 20
18.4021058088
 10
30.2419768805
 20
18.4087911849
 10
30.2210239116
 20
18.4147246678
 10
30.1997448921
 20
18.4198916413
 10
30.1781453241
 20
18.4242823538
 10
30.1562456569
 20
18.4278833808
 10
30.1340693618
 20
18.4306817143
 10
30.1116245662
 20
18.4326671661
 10
30.0889335164
 20
18.4338285295
 10
30.0660172556
 20
18.4341554723
 10
30.0428795393
 20
18.4336377271
 10
30.0195410943
 20
18.4322653629
 10
29.996022035
 20
18.4300293152
 10
29.9723221325
 20
18.4269179164
 10
29.9484592429
 20
18.4229209702
 10
29.9244535544
 20
18.4180297892
 10
29.9003053085
 20
18.4122309105
 10
29.8760329306
 20
18.4055139089
 10
29.8516530824
 20
18.3978688739
 10
29.8271608653
 20
18.3892778278
 10
29.8025658015
 20
18.3797253478
 10
29.7778951587
 20
18.3692037483
 10
29.7623457744
 20
18.3620837164
  0
LINE
  5
4C4
100
AcDbEntity
  8
CORPO
100
AcDbLine
 62
253
  6
CONTINUOUS
 10
29.8936866073
 20
18.3522100676
 11
36.7089491423
 21
14.9445788001
  0
LWPOLYLINE
  5
4C5
100
AcDbEntity
  8
CORPO
100
AcDbPolyline
 62
253
  6
CONTINUOUS
 90
63
 70
0
 10
36.7089491423
 20
14.9445788001
 10
36.7445045728
 20
14.9265597084
 10
36.7800301192
 20
14.9074720257
 10
36.8155035251
 20
14.8873275551
 10
36.8509022662
 20
14.8661387659
 10
36.8862044847
 20
14.8439187713
 10
36.921388999
 20
14.820681278
 10
36.9564340066
 20
14.7964404939
 10
36.9913173494
 20
14.7712115299
 10
37.0260174484
 20
14.7450103658
 10
37.0605125456
 20
14.7178532898
 10
37.0947811233
 20
14.689757054
 10
37.1288021661
 20
14.6607392447
 10
37.1625543916
 20
14.6308178771
 10
37.1960167256
 20
14.600011455
 10
37.2291687216
 20
14.5683391333
 10
37.261989753
 20
14.535820481
 10
37.2944592366
 20
14.5024757053
 10
37.3265571079
 20
14.4683257091
 10
37.3582633171
 20
14.4333917208
 10
37.3895580972
 20
14.3976953643
 10
37.4204221845
 20
14.3612588744
 10
37.4508363627
 20
14.3241048526
 10
37.4807816365
 20
14.2862563619
 10
37.5102395025
 20
14.2477370025
 10
37.5391915971
 20
14.2085707363
 10
37.5676198972
 20
14.1687818327
 10
37.5955068881
 20
14.1283949577
 10
37.6228352633
 20
14.0874351436
 10
37.6495879566
 20
14.0459278714
 10
37.6757483426
 20
14.0038990173
 10
37.7013001464
 20
13.9613747483
 10
37.726227495
 20
13.9183814303
 10
37.7505149426
 20
13.8749457036
 10
37.7741474477
 20
13.8310945215
 10
37.7971102903
 20
13.7868551754
 10
37.8193891262
 20
13.7422552037
 10
37.8409701312
 20
13.6973224035
 10
37.8618399404
 20
13.652084643
 10
37.8819855564
 20
13.6065698818
 10
37.9013945416
 20
13.5608063879
 10
37.9200548447
 20
13.5148226573
 10
37.9379547401
 20
13.4686472268
 10
37.9550831796
 20
13.4223088504
 10
37.9714295774
 20
13.3758363276
 10
37.9869836289
 20
13.3292584213
 10
38.0017357831
 20
13.2826040731
 10
38.0156769226
 20
13.2359023607
 10
38.0287981535
 20
13.1891823273
 10
38.0410914219
 20
13.1424731566
 10
38.0525492074
 20
13.0958038264
 10
38.063164195
 20
13.0492030663
 10
38.0729299275
 20
13.0026998594
 10
38.0818404294
 20
12.9563232019
 10
38.0898898979
 20
12.9101017569
 10
38.097073495
 20
12.8640642261
 10
38.1033868534
 20
12.818239383
 10
38.1088257067
 20
12.7726558286
 10
38.1133868237
 20
12.7273422402
 10
38.1170675612
 20
12.6823265738
 10
38.1198653437
 20
12.6376361077
 10
38.121778421
 20
12.5932984503
 10
38.1228059051
 20
12.549341511
  0
LINE
  5
4C6
100
AcDbEntity
  8
RACCORDO
100
AcDbLine
 62
253
  6
CONTINUOUS
 10
11.4903189393
 20
-35.6051822697
 11
10.8680009072
 21
-36.3502416872
  0
LINE
  5
4C7
100
AcDbEntity
  8
RACCORDO
100
AcDbLine
 62
253
  6
CONTINUOUS
 10
11.8433551273
 20
-35.7309521078
 11
11.1321345192
 21
-36.5824485849
  0
LWPOLYLINE
  5
4C8
100
AcDbEntity
  8
RACCORDO
100
AcDbPolyline
 62
253
  6
CONTINUOUS
 90
6
 70
0
 10
-34.1953939154
 20
27.2741685825
 10
-34.1633187106
 20
27.2773388761
 10
-34.1324404303
 20
27.2825553977
 10
-34.1033008755
 20
27.2897019786
 10
-34.0763404734
 20
27.2986446941
 10
-34.0519887986
 20
27.3092172134
  0
LINE
  5
4C9
100
AcDbEntity
  8
CORPO
100
AcDbLine
 62
7
  6
CONTINUOUS
 10
30.3312160342
 20
18.3732451241
 11
37.143822023
 21
14.9669421297
  0
LINE
  5
4CA
100
AcDbEntity
  8
CORPO
100
AcDbLine
 62
7
  6
CONTINUOUS
 10
30.331262611
 20
18.3732218316
 11
30.3312160037
 21
18.3732451393
  0
LWPOLYLINE
  5
4CB
100
AcDbEntity
  8
RACCORDO
100
AcDbPolyline
 62
7
  6
CONTINUOUS
 90
6
 70
0
 10
12.6688889096
 20
-36.2773709041
 10
12.6916356017
 20
-36.2610811973
 10
12.7093537648
 20
-36.2389827409
 10
12.722463289
 20
-36.2112483298
 10
12.7305658649
 20
-36.1787206241
 10
12.73341531
 20
-36.1423879194
  0
LWPOLYLINE
  5
4CC
100
AcDbEntity
  8
CORPO
100
AcDbPolyline
 62
7
  6
CONTINUOUS
 90
39
 70
0
 10
37.636960108
 20
-18.3053176024
 10
37.6722431364
 20
-18.2852965683
 10
37.706959513
 20
-18.2642203179
 10
37.7410655413
 20
-18.242112899
 10
37.7745433487
 20
-18.2189844468
 10
37.8073986255
 20
-18.1948270373
 10
37.8396004278
 20
-18.1696572986
 10
37.871118498
 20
-18.143493081
 10
37.9019569623
 20
-18.1163236017
 10
37.9320863875
 20
-18.0881653266
 10
37.961476114
 20
-18.0590375731
 10
37.9901258007
 20
-18.0289290617
 10
38.0180063828
 20
-17.9978569176
 10
38.0450883811
 20
-17.9658409868
 10
38.0713684951
 20
-17.9328694443
 10
38.0968172579
 20
-17.8989607439
 10
38.1214072072
 20
-17.8641337871
 10
38.1451352414
 20
-17.8283719215
 10
38.1679699282
 20
-17.7916977883
 10
38.1898870134
 20
-17.7541254226
 10
38.2108898937
 20
-17.7156185992
 10
38.2309518717
 20
-17.6761881921
 10
38.2500411737
 20
-17.6358566277
 10
38.2681489969
 20
-17.5945979441
 10
38.2852562038
 20
-17.5524006083
 10
38.301321576
 20
-17.5093067812
 10
38.316305997
 20
-17.4653670641
 10
38.3301869441
 20
-17.4205932809
 10
38.3429390668
 20
-17.3750063576
 10
38.354528823
 20
-17.328668719
 10
38.3649385846
 20
-17.2815940534
 10
38.3741493857
 20
-17.2338004691
 10
38.3821358886
 20
-17.185355249
 10
38.3888848506
 20
-17.1362720854
 10
38.3943820472
 20
-17.086567194
 10
38.3986099803
 20
-17.0363089216
 10
38.4015575794
 20
-16.9855277015
 10
38.403215983
 20
-16.9342211435
 10
38.4036074918
 20
-16.8941645375
  0
LINE
  5
4CD
100
AcDbEntity
  8
CORPO
100
AcDbLine
 62
7
  6
CONTINUOUS
 10
13.7940754818
 20
-31.1691353704
 11
37.636960108
 21
-18.3053176024
  0
LINE
  5
4CE
100
AcDbEntity
  8
RACCORDO
100
AcDbLine
 62
7
  6
CONTINUOUS
 10
17.4682527822
 20
-29.7547747457
 11
13.7940754818
 21
-31.599007285
  0
LINE
  5
4CF
100
AcDbEntity
  8
RACCORDO
100
AcDbLine
 62
7
  6
CONTINUOUS
 10
18.3497882408
 20
-29.1953457016
 11
13.7940754818
 21
-31.4550128152
  0
LINE
  5
4D0
100
AcDbEntity
  8
RACCORDO
100
AcDbLine
 62
253
  6
CONTINUOUS
 10
13.0761675998
 20
-34.285648924
 11
13.7940754818
 21
-33.9314696364
  0
LINE
  5
4D1
100
AcDbEntity
  8
RACCORDO
100
AcDbLine
 62
7
  6
CONTINUOUS
 10
12.9442127298
 20
-34.5529700271
 11
13.6658206594
 21
-34.196965324
  0
LWPOLYLINE
  5
4D2
100
AcDbEntity
  8
RACCORDO
100
AcDbPolyline
 62
253
  6
CONTINUOUS
 90
13
 70
0
 10
6.8902592801
 20
-36.0881288883
 10
6.841950942
 20
-36.1108547237
 10
6.788756194
 20
-36.1302513672
 10
6.7315650634
 20
-36.1459942841
 10
6.6713344428
 20
-36.1578200721
 10
6.6090720799
 20
-36.1655308681
 10
6.5458197166
 20
-36.1689976592
 10
6.4826356588
 20
-36.1681624406
 10
6.4205770697
 20
-36.1630391869
 10
6.3606822818
 20
-36.1537136185
 10
6.303953424
 20
-36.1403417663
 10
6.2513396543
 20
-36.1231473609
 10
6.2037212793
 20
-36.1024180904
  0
LWPOLYLINE
  5
4D3
100
AcDbEntity
  8
RACCORDO
100
AcDbPolyline
 62
7
  6
CONTINUOUS
 90
3
 70
0
 10
12.9442127298
 20
-34.5529700271
 10
12.9371432569
 20
-34.5562729005
 10
12.9340388785
 20
-34.5576096628
  0
LINE
  5
4D4
100
AcDbEntity
  8
RACCORDO
100
AcDbLine
 62
253
  6
CONTINUOUS
 10
7.5782588169
 20
-36.5934477136
 11
13.0761675998
 21
-34.285648924
  0
LINE
  5
4D5
100
AcDbEntity
  8
RACCORDO
100
AcDbLine
 62
7
  6
CONTINUOUS
 10
12.9340330113
 20
-34.5576122419
 11
7.4269784996
 21
-36.8692490393
  0
LWPOLYLINE
  5
4D6
100
AcDbEntity
  8
CORPO
100
AcDbPolyline
 62
7
  6
CONTINUOUS
 90
52
 70
0
 10
38.4036074771
 20
12.8531185049
 10
38.4032233832
 20
12.8929985199
 10
38.401637129
 20
12.9437223725
 10
38.3988376257
 20
12.9944792062
 10
38.3948395282
 20
13.0452702941
 10
38.3896581338
 20
13.0960701644
 10
38.3833127435
 20
13.1468203522
 10
38.3758184541
 20
13.1975097258
 10
38.3671883752
 20
13.2481261765
 10
38.3574454584
 20
13.2986050257
 10
38.3466036526
 20
13.3489355217
 10
38.3346754107
 20
13.3991062666
 10
38.3216877492
 20
13.4490484537
 10
38.3076541129
 20
13.4987500632
 10
38.2925867783
 20
13.5482004848
 10
38.2765158153
 20
13.5973306949
 10
38.2594574779
 20
13.6461211279
 10
38.2414211592
 20
13.6945685423
 10
38.222431238
 20
13.7426268086
 10
38.2025042797
 20
13.7902734719
 10
38.1816462782
 20
13.8375072527
 10
38.1598682536
 20
13.8843126719
 10
38.1371787966
 20
13.9306761987
 10
38.113585024
 20
13.9765849493
 10
38.0890943668
 20
14.0220232476
 10
38.0637095089
 20
14.0669808191
 10
38.0374373818
 20
14.1114383767
 10
38.0102896576
 20
14.1553665093
 10
37.9822674578
 20
14.1987527774
 10
37.953374865
 20
14.2415771888
 10
37.9236278073
 20
14.2838016694
 10
37.8930248361
 20
14.3254129863
 10
37.861568718
 20
14.3663889294
 10
37.8292819272
 20
14.4066826123
 10
37.7961494504
 20
14.4462926451
 10
37.7621842522
 20
14.4851818185
 10
37.7274525316
 20
14.5232562358
 10
37.6919501396
 20
14.5605043834
 10
37.6556828622
 20
14.5969025808
 10
37.6187370265
 20
14.6323496624
 10
37.5811165254
 20
14.6668317821
 10
37.54282453
 20
14.7003332892
 10
37.5039531757
 20
14.732764454
 10
37.4645112808
 20
14.7641127032
 10
37.4245028739
 20
14.7943671748
 10
37.3840202187
 20
14.8234543685
 10
37.3430744431
 20
14.8513652232
 10
37.3016740634
 20
14.878091421
 10
37.2599146491
 20
14.9035722211
 10
37.2178389963
 20
14.9277866895
 10
37.1754353603
 20
14.9507466382
 10
37.1438249918
 20
14.9669406192
  0
LINE
  5
4D7
100
AcDbEntity
  8
CORPO
100
AcDbLine
 62
253
  6
CONTINUOUS
 10
38.1228059051
 20
12.549341511
 11
38.1229473131
 21
-17.2414914619
  0
LINE
  5
4D8
100
AcDbEntity
  8
CORPO
100
AcDbLine
 62
7
  6
CONTINUOUS
 10
38.4036075128
 20
12.8531218921
 11
38.4036075128
 21
-16.8941622767
  0
LWPOLYLINE
  5
4D9
100
AcDbEntity
  8
CORPO
100
AcDbPolyline
 62
253
  6
CONTINUOUS
 90
36
 70
0
 10
38.1229473131
 20
-17.2414914619
 10
38.1228059022
 20
-17.2842921342
 10
38.1217784143
 20
-17.3266298489
 10
38.1198653331
 20
-17.3684784065
 10
38.1170675482
 20
-17.4098118305
 10
38.1133868099
 20
-17.450604627
 10
38.1088256922
 20
-17.4908317776
 10
38.1033868376
 20
-17.5304685994
 10
38.0970734776
 20
-17.5694903011
 10
38.0898898789
 20
-17.6078722386
 10
38.081840408
 20
-17.6455905552
 10
38.0729299029
 20
-17.6826219865
 10
38.0631641678
 20
-17.7189434015
 10
38.0525491789
 20
-17.7545322605
 10
38.041091393
 20
-17.7893665664
 10
38.0287981243
 20
-17.8234246711
 10
38.0156768929
 20
-17.8566855243
 10
38.0017357528
 20
-17.8891284536
 10
37.9869835977
 20
-17.9207331144
 10
37.9714295448
 20
-17.9514798782
 10
37.9550831451
 20
-17.9813497357
 10
37.9379547036
 20
-18.0103240691
 10
37.9200548059
 20
-18.038384918
 10
37.9013945001
 20
-18.0655148823
 10
37.8819855127
 20
-18.0916970299
 10
37.8618398954
 20
-18.1169150901
 10
37.8409700857
 20
-18.1411534602
 10
37.8193890801
 20
-18.1643970977
 10
37.7971102435
 20
-18.186631594
 10
37.7741474002
 20
-18.207843124
 10
37.7505148944
 20
-18.2280184533
 10
37.726227446
 20
-18.2471450241
 10
37.7013000963
 20
-18.2652109914
 10
37.6757482914
 20
-18.2822051609
 10
37.649587904
 20
-18.2981169725
 10
37.6289525576
 20
-18.3096723756
  0
LWPOLYLINE
  5
4DA
100
AcDbEntity
  8
CORPO
100
AcDbPolyline
 62
253
  6
CONTINUOUS
 90
25
 70
0
 10
38.4036075128
 20
12.8531185049
 10
38.403328227
 20
12.8413056588
 10
38.4020401475
 20
12.8251385312
 10
38.399706546
 20
12.8090007068
 10
38.3963298663
 20
12.7929090845
 10
38.3919136443
 20
12.7768805148
 10
38.3864625044
 20
12.7609317823
 10
38.379982155
 20
12.7450795879
 10
38.372479382
 20
12.7293405314
 10
38.363962042
 20
12.7137310942
 10
38.3544390541
 20
12.6982676219
 10
38.3439203904
 20
12.6829663073
 10
38.3324170657
 20
12.6678431733
 10
38.3199411257
 20
12.6529140564
 10
38.3065056349
 20
12.6381945898
 10
38.2921246625
 20
12.6237001872
 10
38.2768132676
 20
12.6094460265
 10
38.2605874837
 20
12.5954470342
 10
38.2434643019
 20
12.5817178696
 10
38.2254616531
 20
12.5682729092
 10
38.2065983888
 20
12.5551262323
 10
38.186894262
 20
12.5422916054
 10
38.1663699062
 20
12.5297824685
 10
38.1450468136
 20
12.5176119208
 10
38.1229473131
 20
12.5057927068
  0
LWPOLYLINE
  5
4DB
100
AcDbEntity
  8
CORPO
100
AcDbPolyline
 62
253
  6
CONTINUOUS
 90
25
 70
0
 10
38.4036075128
 20
-16.8941645375
 10
38.4033282272
 20
-16.9059785069
 10
38.4020401478
 20
-16.9221456345
 10
38.3997065466
 20
-16.9382834589
 10
38.396329867
 20
-16.9543750813
 10
38.3919136452
 20
-16.9704036511
 10
38.3864625055
 20
-16.9863523837
 10
38.3799821562
 20
-17.0022045782
 10
38.3724793833
 20
-17.0179436348
 10
38.3639620434
 20
-17.0335530722
 10
38.3544390556
 20
-17.0490165446
 10
38.343920392
 20
-17.0643178594
 10
38.3324170672
 20
-17.0794409935
 10
38.3199411273
 20
-17.0943701105
 10
38.3065056365
 20
-17.1090895773
 10
38.292124664
 20
-17.1235839801
 10
38.276813269
 20
-17.1378381409
 10
38.2605874851
 20
-17.1518371334
 10
38.2434643032
 20
-17.1655662982
 10
38.2254616542
 20
-17.1790112587
 10
38.2065983897
 20
-17.1921579358
 10
38.1868942627
 20
-17.2049925629
 10
38.1663699067
 20
-17.2175016999
 10
38.1450468139
 20
-17.2296722477
 10
13.7940754818
 20
-30.3674759603
  0
LWPOLYLINE
  5
4DC
100
AcDbEntity
  8
RACCORDO
100
AcDbPolyline
 62
253
  6
CONTINUOUS
 90
4
 70
0
 10
13.1979944443
 20
-36.005940671
 10
13.209851906
 20
-35.9987074689
 10
13.2252267061
 20
-35.9850687658
 10
13.2381568924
 20
-35.9679465411
  0
LWPOLYLINE
  5
4DD
100
AcDbEntity
  8
RACCORDO
100
AcDbPolyline
 62
253
  6
CONTINUOUS
 90
8
 70
0
 10
11.0658729266
 20
-37.0582731452
 10
11.0804074009
 20
-37.049486683
 10
11.0957064748
 20
-37.0355888576
 10
11.1085865284
 20
-37.018179846
 10
11.1187626987
 20
-36.9977123744
 10
11.1261017579
 20
-36.9746544142
 10
11.1305640316
 20
-36.9494033653
 10
11.1321345192
 20
-36.922422519
  0
LWPOLYLINE
  5
4DE
100
AcDbEntity
  8
RACCORDO
100
AcDbPolyline
 62
7
  6
CONTINUOUS
 90
9
 70
0
 10
13.1978218336
 20
-36.0060289986
 10
13.2077445685
 20
-36.0006622605
 10
13.2346609014
 20
-35.9829164196
 10
13.2591301631
 20
-35.9617947023
 10
13.2807333538
 20
-35.9376109787
 10
13.2991108302
 20
-35.9106884868
 10
13.3139079082
 20
-35.8814190757
 10
13.3247896238
 20
-35.8503077358
 10
13.3315012937
 20
-35.8179115341
  0
LINE
  5
4DF
100
AcDbEntity
  8
RACCORDO
100
AcDbLine
 62
253
  6
CONTINUOUS
 10
13.2616824818
 20
-35.8713768607
 11
12.73341531
 21
-36.1423879194
  0
LINE
  5
4E0
100
AcDbEntity
  8
RACCORDO
100
AcDbLine
 62
7
  6
CONTINUOUS
 10
13.1979944443
 20
-36.005940671
 11
12.6688974718
 21
-36.2773774331
  0
LINE
  5
4E1
100
AcDbEntity
  8
RACCORDO
100
AcDbLine
 62
7
  6
CONTINUOUS
 10
12.6671537703
 20
-36.2782385198
 11
12.6688889096
 21
-36.2773709041
  0
LINE
  5
4E2
100
AcDbEntity
  8
RACCORDO
100
AcDbLine
 62
253
  6
CONTINUOUS
 10
12.73341531
 20
-36.1423879194
 11
11.1321345192
 21
-36.922422519
  0
LINE
  5
4E3
100
AcDbEntity
  8
RACCORDO
100
AcDbLine
 62
7
  6
CONTINUOUS
 10
12.6671537703
 20
-36.2782385198
 11
11.0658729266
 21
-37.0582731452
  0
LINE
  5
4E4
100
AcDbEntity
  8
RACCORDO
100
AcDbLine
 62
253
  6
CONTINUOUS
 10
11.1075197244
 20
-36.9330950147
 11
11.1321345192
 21
-36.922422519
  0
LWPOLYLINE
  5
4E5
100
AcDbEntity
  8
CORPO
100
AcDbPolyline
 62
7
  6
CONTINUOUS
 90
10
 70
0
 10
-7.6271819325
 20
37.0808838914
 10
-7.6464849463
 20
37.0782957595
 10
-7.6653848442
 20
37.0749557355
 10
-7.6843951894
 20
37.0708153629
 10
-7.703528402
 20
37.0658712742
 10
-7.7227720618
 20
37.060126837
 10
-7.742066798
 20
37.0536040564
 10
-7.7613928201
 20
37.0463102676
 10
-7.7807699185
 20
37.0382381354
 10
-7.8001980932
 20
37.0293876599
  0
LWPOLYLINE
  5
4E6
100
AcDbEntity
  8
CORPO
100
AcDbPolyline
 62
7
  6
CONTINUOUS
 90
14
 70
0
 10
-7.6271818877
 20
37.0808840864
 10
-7.6576950034
 20
37.077119387
 10
-7.6920875021
 20
37.0720654121
 10
-7.7262828048
 20
37.0661761704
 10
-7.7602599197
 20
37.0594564918
 10
-7.7939949972
 20
37.0519128815
 10
-7.8274677468
 20
37.0435523345
 10
-7.860659376
 20
37.03438219
 10
-7.8935481402
 20
37.0244113411
 10
-7.9261149661
 20
37.0136487469
 10
-7.9583410391
 20
37.0021042755
 10
-7.9902052342
 20
36.9897897283
 10
-8.0216886314
 20
36.9767170253
 10
-8.0552690811
 20
36.9617488141
  0
ELLIPSE
  5
4E7
100
AcDbEntity
  8
DRAFT
100
AcDbEllipse
 62
7
  6
CONTINUOUS
 10
20.6883665984
 20
13.8453584302
 30
0.0
 11
14.9999013592
 21
0.1076509184
 31
0.0
 40
0.5053247124
 41
-2.5233023825
 42
-2.4729656689
  0
ELLIPSE
  5
4E8
100
AcDbEntity
  8
DRAFT
100
AcDbEllipse
 62
7
  6
CONTINUOUS
 10
7.7483125027
 20
9.0236868459
 30
0.0
 11
0.9999934239
 21
0.0071767279
 31
0.0
 40
0.5053247124
 41
0.7817715775
 42
2.3525679043
  0
ELLIPSE
  5
4E9
100
AcDbEntity
  8
RACCORDO
100
AcDbEllipse
 62
7
  6
CONTINUOUS
 10
17.9901183406
 20
7.8342881493
 30
0.0
 11
0.499996712
 21
0.0035883639
 31
0.0
 40
0.5053247124
 41
-0.7715714568
 42
-0.0036265857
  0
ELLIPSE
  5
4EA
100
AcDbEntity
  8
RACCORDO
100
AcDbEllipse
 62
7
  6
CONTINUOUS
 10
13.4475403801
 20
4.1758187816
 30
0.0
 11
-0.2192305083
 21
0.4383081735
 31
0.0
 40
0.6122950388
 41
-2.2557482655
 42
-0.6847996396
  0
ELLIPSE
  5
4EB
100
AcDbEntity
  8
RACCORDO
100
AcDbEllipse
 62
7
  6
CONTINUOUS
 10
13.4475403801
 20
-33.7582667165
 30
0.0
 11
-0.2191716667
 21
0.4382558376
 31
0.0
 40
0.6124778111
 41
-3.1449090158
 42
-2.255529033
  0
ELLIPSE
  5
4EC
100
AcDbEntity
  8
RACCORDO
100
AcDbEllipse
 62
7
  6
CONTINUOUS
 10
-25.4413753953
 20
29.474528723
 30
0.0
 11
0.9987332359
 21
0.6172510855
 31
0.0
 40
0.0815198604
 41
0.0503394783
 42
0.7263320369
  0
ELLIPSE
  5
4ED
100
AcDbEntity
  8
RACCORDO
100
AcDbEllipse
 62
7
  6
CONTINUOUS
 10
6.3784297581
 20
13.5646261463
 30
0.0
 11
0.9987332359
 21
0.6172510855
 31
0.0
 40
0.0815198604
 41
0.0503394783
 42
0.7263320369
  0
ELLIPSE
  5
4EE
100
AcDbEntity
  8
RACCORDO
100
AcDbEllipse
 62
7
  6
CONTINUOUS
 10
18.1691620465
 20
-29.2454075421
 30
0.0
 11
0.9987332359
 21
0.6172510855
 31
0.0
 40
0.0815198604
 41
-2.3978073241
 42
-1.2985018509
  0
ELLIPSE
  5
4EF
100
AcDbEntity
  8
RACCORDO
100
AcDbEllipse
 62
7
  6
CONTINUOUS
 10
2.09352115
 20
10.4340108917
 30
0.0
 11
0.4999985559
 21
0.0023864752
 31
0.0
 40
0.5035541159
 41
2.3596088132
 42
3.0002042076
  0
ELLIPSE
  5
4F0
100
AcDbEntity
  8
RACCORDO
100
AcDbEllipse
 62
7
  6
CONTINUOUS
 10
-29.7262840034
 20
26.3439134684
 30
0.0
 11
0.4999985559
 21
0.0023864752
 31
0.0
 40
0.5035541159
 41
2.3596088132
 42
3.0002042076
  0
ELLIPSE
  5
4F1
100
AcDbEntity
  8
RACCORDO
100
AcDbEllipse
 62
7
  6
CONTINUOUS
 10
17.9610453262
 20
7.1649546881
 30
0.0
 11
0.0886155504
 21
0.1792981373
 31
0.0
 40
0.6088015717
 41
-2.4538695918
 42
-0.8888910292
  0
ELLIPSE
  5
4F2
100
AcDbEntity
  8
RACCORDO
100
AcDbEllipse
 62
7
  6
CONTINUOUS
 10
18.1691620465
 20
7.6692600021
 30
0.0
 11
-0.7417913999
 21
1.2002436976
 31
0.0
 40
0.5587454355
 41
5.1248137075
 42
6.2241191807
  0
ELLIPSE
  5
4F3
100
AcDbEntity
  8
RACCORDO
100
AcDbEllipse
 62
7
  6
CONTINUOUS
 10
-13.6506431069
 20
23.5791625788
 30
0.0
 11
-0.7417913999
 21
1.2002436976
 31
0.0
 40
0.5587454355
 41
5.1248137075
 42
6.2241191807
  0
ELLIPSE
  5
4F4
100
AcDbEntity
  8
RACCORDO
100
AcDbEllipse
 62
7
  6
CONTINUOUS
 10
17.9901183406
 20
-29.454627861
 30
0.0
 11
0.499366618
 21
0.3086255427
 31
0.0
 40
0.0815198604
 41
6.1080157147
 42
7.0007906979
  0
ELLIPSE
  5
4F5
100
AcDbEntity
  8
DRAFT
100
AcDbEllipse
 62
7
  6
CONTINUOUS
 10
13.334456074
 20
9.2541871687
 30
0.0
 11
0.4279673669
 21
-0.0030279657
 31
0.0
 40
0.4946372042
 41
-0.7760807437
 42
0.0034996556
  0
ELLIPSE
  5
4F6
100
AcDbEntity
  8
DRAFT
100
AcDbEllipse
 62
7
  6
CONTINUOUS
 10
7.7794676449
 20
12.0316813833
 30
0.0
 11
0.4279673669
 21
-0.0030279657
 31
0.0
 40
0.4946372042
 41
-0.7818985079
 42
0.0034996555
  0
ELLIPSE
  5
4F7
100
AcDbEntity
  8
DRAFT
100
AcDbEllipse
 62
7
  6
CONTINUOUS
 10
-18.4853490793
 20
25.1640897454
 30
0.0
 11
0.4279673669
 21
-0.0030279657
 31
0.0
 40
0.4946372042
 41
-0.7760807437
 42
0.0034996556
  0
ELLIPSE
  5
4F8
100
AcDbEntity
  8
RACCORDO
100
AcDbEllipse
 62
7
  6
CONTINUOUS
 10
-24.0403375085
 20
29.1730957465
 30
0.0
 11
0.4279688089
 21
-0.0020233653
 31
0.0
 40
0.4964289597
 41
-0.7830511342
 42
2.3527237553
  0
ELLIPSE
  5
4F9
100
AcDbEntity
  8
DRAFT
100
AcDbEllipse
 62
7
  6
CONTINUOUS
 10
-24.0403375085
 20
27.94158396
 30
0.0
 11
0.4279673669
 21
-0.0030279657
 31
0.0
 40
0.4946372042
 41
-0.7818985079
 42
0.0034996555
  0
ELLIPSE
  5
4FA
100
AcDbEntity
  8
RACCORDO
100
AcDbEllipse
 62
7
  6
CONTINUOUS
 10
-18.4853490793
 20
26.3956015319
 30
0.0
 11
0.4279688089
 21
-0.0020233653
 31
0.0
 40
0.4964289597
 41
-0.77723337
 42
2.3585415194
  0
ELLIPSE
  5
4FB
100
AcDbEntity
  8
RACCORDO
100
AcDbEllipse
 62
7
  6
CONTINUOUS
 10
7.7794676449
 20
13.2631931698
 30
0.0
 11
0.4279688089
 21
-0.0020233653
 31
0.0
 40
0.4964289597
 41
-0.7830511342
 42
2.3527237553
  0
ELLIPSE
  5
4FC
100
AcDbEntity
  8
RACCORDO
100
AcDbEllipse
 62
7
  6
CONTINUOUS
 10
13.334456074
 20
10.4856989552
 30
0.0
 11
0.4279688089
 21
-0.0020233653
 31
0.0
 40
0.4964289597
 41
-0.77723337
 42
2.3585415194
  0
ELLIPSE
  5
4FD
100
AcDbEntity
  8
RACCORDO
100
AcDbEllipse
 62
7
  6
CONTINUOUS
 10
17.9901183406
 20
8.7646308081
 30
0.0
 11
-0.3708957
 21
0.6001218488
 31
0.0
 40
0.5587454355
 41
-3.1744788413
 42
-2.2817038581
  0
ELLIPSE
  5
4FE
100
AcDbEntity
  8
RACCORDO
100
AcDbEllipse
 62
7
  6
CONTINUOUS
 10
7.6048282496
 20
6.4457477366
 30
0.0
 11
0.4998587701
 21
0.0223649649
 31
0.0
 40
0.5313301283
 41
-2.3799630874
 42
-0.8149845248
  0
ELLIPSE
  5
4FF
100
AcDbEntity
  8
RACCORDO
100
AcDbEllipse
 62
7
  6
CONTINUOUS
 10
7.6048282496
 20
7.6783573418
 30
0.0
 11
0.4999985559
 21
0.0023864752
 31
0.0
 40
0.5035541159
 41
-1.4342147631
 42
-0.7936193687
  0
ELLIPSE
  5
500
100
AcDbEntity
  8
RACCORDO
100
AcDbEllipse
 62
7
  6
CONTINUOUS
 10
-34.8497257885
 20
27.1086548187
 30
0.0
 11
0.249929385
 21
0.0111824824
 31
0.0
 40
0.5313301283
 41
3.1178240782
 42
3.9032222197
  0
ELLIPSE
  5
501
100
AcDbEntity
  8
RACCORDO
100
AcDbEllipse
 62
7
  6
CONTINUOUS
 10
-33.5165134549
 20
26.4420486519
 30
0.0
 11
0.249929385
 21
0.0111824824
 31
0.0
 40
0.5313301283
 41
-2.3799630874
 42
-0.8149845248
  0
ELLIPSE
  5
502
100
AcDbEntity
  8
RACCORDO
100
AcDbEllipse
 62
7
  6
CONTINUOUS
 10
2.09352115
 20
9.2014012865
 30
0.0
 11
0.4998587701
 21
0.0223649649
 31
0.0
 40
0.5313301283
 41
3.1178240563
 42
3.9032222197
  0
ELLIPSE
  5
503
100
AcDbEntity
  8
RACCORDO
100
AcDbEllipse
 62
7
  6
CONTINUOUS
 10
-21.4854076241
 20
20.4264957365
 30
0.0
 11
0.249929385
 21
0.0111824824
 31
0.0
 40
0.5313301283
 41
3.1178240567
 42
3.9032222197
  0
ELLIPSE
  5
504
100
AcDbEntity
  8
RACCORDO
100
AcDbEllipse
 62
7
  6
CONTINUOUS
 10
-24.2149769037
 20
22.3556503133
 30
0.0
 11
0.4998587701
 21
0.0223649649
 31
0.0
 40
0.5313301283
 41
-2.3799630874
 42
-0.8149845248
  0
ELLIPSE
  5
505
100
AcDbEntity
  8
RACCORDO
100
AcDbEllipse
 62
7
  6
CONTINUOUS
 10
-24.2149769037
 20
23.5882599185
 30
0.0
 11
0.4999985559
 21
0.0023864752
 31
0.0
 40
0.5035541159
 41
-1.4342147631
 42
-0.7936193687
  0
ELLIPSE
  5
506
100
AcDbEntity
  8
RACCORDO
100
AcDbEllipse
 62
7
  6
CONTINUOUS
 10
-29.7262840034
 20
25.1113038632
 30
0.0
 11
0.4998587701
 21
0.0223649649
 31
0.0
 40
0.5313301283
 41
3.1178240563
 42
3.9032222197
  0
ELLIPSE
  5
507
100
AcDbEntity
  8
RACCORDO
100
AcDbEllipse
 62
7
  6
CONTINUOUS
 10
-20.1521952904
 20
19.7598895696
 30
0.0
 11
0.249929385
 21
0.0111824824
 31
0.0
 40
0.5313301283
 41
-2.3799630874
 42
-0.8149845248
  0
ELLIPSE
  5
508
100
AcDbEntity
  8
RACCORDO
100
AcDbEllipse
 62
7
  6
CONTINUOUS
 10
11.667609863
 20
3.8499869929
 30
0.0
 11
0.249929385
 21
0.0111824824
 31
0.0
 40
0.5313301283
 41
-2.3799630874
 42
-1.24594668
  0
ELLIPSE
  5
509
100
AcDbEntity
  8
RACCORDO
100
AcDbEllipse
 62
7
  6
CONTINUOUS
 10
10.3343975293
 20
4.5165931598
 30
0.0
 11
0.249929385
 21
0.0111824824
 31
0.0
 40
0.5313301283
 41
3.1178240567
 42
3.9032222197
  0
ELLIPSE
  5
50A
100
AcDbEntity
  8
RACCORDO
100
AcDbEllipse
 62
7
  6
CONTINUOUS
 10
-3.0299206351
 20
11.198752242
 30
0.0
 11
0.249929385
 21
0.0111824824
 31
0.0
 40
0.5313301283
 41
3.1178240567
 42
3.9032222197
  0
ELLIPSE
  5
50B
100
AcDbEntity
  8
RACCORDO
100
AcDbEllipse
 62
7
  6
CONTINUOUS
 10
-1.6967083015
 20
10.5321460752
 30
0.0
 11
0.249929385
 21
0.0111824824
 31
0.0
 40
0.5313301283
 41
-2.3799630874
 42
-0.8149845248
  0
ELLIPSE
  5
50C
100
AcDbEntity
  8
CORPO
100
AcDbEllipse
 62
7
  6
CONTINUOUS
 10
12.1537105274
 20
16.5704202423
 30
0.0
 11
-0.1341309257
 21
0.268355469
 31
0.0
 40
0.612449815
 41
-2.2552827073
 42
-0.6846386796
  0
ELLIPSE
  5
50D
100
AcDbEntity
  8
CORPO
100
AcDbEllipse
 62
7
  6
CONTINUOUS
 10
-17.990794386
 20
30.1702052486
 30
0.0
 11
-0.8948036428
 21
1.7893404542
 31
0.0
 40
0.6121897086
 41
-0.6846338794
 42
-0.5093613913
  0
ELLIPSE
  5
50E
100
AcDbEntity
  8
CORPO
100
AcDbEllipse
 62
7
  6
CONTINUOUS
 10
-25.1915666852
 20
26.8446499755
 30
0.0
 11
39.8030906365
 21
19.7731942941
 31
0.0
 40
0.0349127004
 41
1.1013388261
 42
1.377877222
  0
ENDSEC
  0
SECTION
  2
OBJECTS
  0
DICTIONARY
  5
C
100
AcDbDictionary
280
0
281
1
  3
ACAD_GROUP
350
D
  3
ACAD_MLINESTYLE
350
17
  3
ACAD_LAYOUT
350
1A
  3
ACAD_PLOTSETTINGS
350
19
  3
ACAD_PLOTSTYLENAME
350
E
  0
DICTIONARY
  5
D
102
{ACAD_REACTORS
330
C
102
}
100
AcDbDictionary
280
0
281
1
  0
ACDBDICTIONARYWDFLT
  5
E
102
{ACAD_REACTORS
330
C
102
}
100
AcDbDictionary
281
1
  3
Normal
350
F
100
AcDbDictionaryWithDefault
340
F
  0
DICTIONARY
  5
17
102
{ACAD_REACTORS
330
C
102
}
100
AcDbDictionary
280
0
281
1
  3
Standard
350
18
  0
DICTIONARY
  5
19
102
{ACAD_REACTORS
330
C
102
}
100
AcDbDictionary
281
1
  0
DICTIONARY
  5
1A
102
{ACAD_REACTORS
330
C
102
}
100
AcDbDictionary
281
1
  3
Model
350
50F
  3
Layout1
350
510
  0
ACDBPLACEHOLDER
  5
F
102
{ACAD_REACTORS
330
E
102
}
  0
MLINESTYLE
  5
18
102
{ACAD_REACTORS
330
17
102
}
100
AcDbMlineStyle
  2
STANDARD
 70
0
  3

 62
256
 51
90.0
 52
90.0
 71
2
 49
0.5
 62
256
  6
BYLAYER
 49
-0.5
 62
256
  6
BYLAYER
  0
LAYOUT
  5
50F
102
{ACAD_REACTORS
330
1A
102
}
100
AcDbPlotSettings
  1

  2
none_device
  4
ISO_A4_(297.00_x_210.00_MM)
  6

 40
0.0
 41
0.0
 42
0.0
 43
0.0
 44
297.0
 45
210.0
 46
0.0
 47
0.0
 48
0.0
 49
0.0
140
0.0
141
0.0
142
1.0
143
1.0
 70
1024
 72
1
 73
0
 74
0
  7

 75
0
147
1.0
148
0.0
149
0.0
100
AcDbLayout
  1
Model
 70
0
 71
0
 10
0.0
 20
0.0
 11
297.0
 21
210.0
 12
0.0
 22
0.0
 32
0.0
 14
0.0
 24
0.0
 34
0.0
 15
0.0
 25
0.0
 35
0.0
146
0.0
 13
0.0
 23
0.0
 33
0.0
 16
1.0
 26
0.0
 36
0.0
 17
0.0
 27
1.0
 37
0.0
 76
0
330
216
345
0
346
0
  0
LAYOUT
  5
510
102
{ACAD_REACTORS
330
1A
102
}
100
AcDbPlotSettings
  1

  2
none_device
  4
ISO_A4_(297.00_x_210.00_MM)
  6

 40
0.0
 41
0.0
 42
0.0
 43
0.0
 44
297.0
 45
210.0
 46
0.0
 47
0.0
 48
0.0
 49
0.0
140
0.0
141
0.0
142
1.0
143
1.0
 70
0
 72
1
 73
0
 74
0
  7

 75
0
147
1.0
148
0.0
149
0.0
100
AcDbLayout
  1
Layout1
 70
0
 71
1
 10
0.0
 20
0.0
 11
297.0
 21
210.0
 12
0.0
 22
0.0
 32
0.0
 14
0.0
 24
0.0
 34
0.0
 15
0.0
 25
0.0
 35
0.0
146
0.0
 13
0.0
 23
0.0
 33
0.0
 16
1.0
 26
0.0
 36
0.0
 17
0.0
 27
1.0
 37
0.0
 76
0
330
217
345
0
346
0
  0
ENDSEC
  0
EOF
