  0
SECTION
  2
HEADER
  9
$ACADVER
  1
AC1024
  9
$DWGCODEPAGE
  3
ANSI_1252
  9
$EXTMAX
 10
297.0
 20
210.0
 30
0.0
  9
$EXTMIN
 10
0.0
 20
0.0
 30
0.0
  9
$LIMMIN
 10
0.0
 20
0.0
  9
$LIMMAX
 10
297.0
 20
210.0
  9
$VIEWCTR
 10
148.5
 20
105.0
  9
$VIEWSIZE
 40
210.0
  9
$CLAYER
  8
0
  9
$LTSCALE
 40
16.335
  9
$CELTYPE
  6
BYLAYER
  9
$DIMSCALE
 40
1.0
  9
$DIMASZ
 40
3.0
  9
$DIMEXO
 40
0.5
  9
$DIMDLI
 40
11.286
  9
$DIMEXE
 40
1.5
  9
$DIMCEN
 40
2.673
  9
$DIMLFAC
 40
1.0
  9
$DIMBLK
  1
_FILLED
  9
$DIMALT
 70
0
  9
$DIMALTF
 40
0.0393700787
  9
$DIMTXT
 40
3.0
  9
$DIMTOL
 70
1
  9
$DIMLIM
 70
0
  9
$DIMTFAC
 40
1.0
  9
$DIMTP
 40
0.01
  9
$DIMTM
 40
0.01
  9
$DIMGAP
 40
0.625
  9
$DIMDSEP
 70
44
  9
$AUNITS
 70
0
  9
$PDMODE
 70
3
  9
$PDSIZE
 40
3.0
  9
$HANDSEED
  5
3FA
  9
$TILEMODE
 70
1
  9
$MEASUREMENT
 70
1
  9
$INSUNITS
 70
4
  0
ENDSEC
  0
SECTION
  2
CLASSES
  0
CLASS
  1
ACDBDICTIONARYWDFLT
  2
AcDbDictionaryWithDefault
  3
AutoCAD 2000
 90
0
 91
1
280
0
281
0
  0
CLASS
  1
ACDBPLACEHOLDER
  2
AcDbPlaceHolder
  3
AutoCAD 2000
 90
0
 91
1
280
0
281
0
  0
CLASS
  1
LAYOUT
  2
AcDbLayout
  3
AutoCAD 2000
 90
0
 91
0
280
0
281
0
  0
ENDSEC
  0
SECTION
  2
TABLES
  0
TABLE
  2
VPORT
  5
8
100
AcDbSymbolTable
 70
2
  0
VPORT
  5
1F4
100
AcDbSymbolTableRecord
100
AcDbViewportTableRecord
  2
*ACTIVE
 70
0
 10
0.0
 20
0.0
 11
1.0
 21
1.0
 12
148.5
 22
105.0
 13
0.0
 23
0.0
 14
1.0
 24
1.0
 15
0.0
 25
0.0
 16
0.0
 26
0.0
 36
1.0
 17
0.0
 27
0.0
 37
0.0
 40
210.0
 41
1.4142857143
 42
50.0
 43
0.0
 44
0.0
 50
0.0
 51
0.0
 71
0
 72
100
 73
1
 74
1
 75
0
 76
0
 77
0
 78
0
  0
ENDTAB
  0
TABLE
  2
LTYPE
  5
5
100
AcDbSymbolTable
 70
6
  0
LTYPE
  5
14
100
AcDbSymbolTableRecord
100
AcDbLinetypeTableRecord
  2
BYBLOCK
 70
0
  3

 72
65
 73
0
 40
0.0
  0
LTYPE
  5
15
100
AcDbSymbolTableRecord
100
AcDbLinetypeTableRecord
  2
BYLAYER
 70
0
  3

 72
65
 73
0
 40
0.0
  0
LTYPE
  5
16
100
AcDbSymbolTableRecord
100
AcDbLinetypeTableRecord
  2
CONTINUOUS
 70
64
  3
Solid line
 72
65
 73
0
 40
0.0
  0
LTYPE
  5
1F5
100
AcDbSymbolTableRecord
100
AcDbLinetypeTableRecord
  2
CENTER
 70
64
  3
____ _ ____ _ ____ _ ____ _ ____ _ ____ _ ____
 72
65
 73
4
 40
0.6
 49
0.375
 74
0
 49
-0.075
 74
0
 49
0.075
 74
0
 49
-0.075
 74
0
  0
LTYPE
  5
1F6
100
AcDbSymbolTableRecord
100
AcDbLinetypeTableRecord
  2
HIDDEN
 70
64
  3
- - - - - - - - - - - - - - - - - - - -
 72
65
 73
2
 40
0.2
 49
0.1
 74
0
 49
-0.1
 74
0
  0
LTYPE
  5
1F7
100
AcDbSymbolTableRecord
100
AcDbLinetypeTableRecord
  2
PHANTOM
 70
64
  3
_____ _ _ _____ _ _ _____ _ _ _____
 72
65
 73
6
 40
0.8
 49
0.45
 74
0
 49
-0.05
 74
0
 49
0.1
 74
0
 49
-0.05
 74
0
 49
0.1
 74
0
 49
-0.05
 74
0
  0
LTYPE
  5
1F8
100
AcDbSymbolTableRecord
100
AcDbLinetypeTableRecord
  2
DOT
 70
64
  3
. . . . . . . . . . . . . . . . . . . .
 72
65
 73
2
 40
0.2
 49
0.1
 74
0
 49
-0.1
 74
0
  0
LTYPE
  5
1F9
100
AcDbSymbolTableRecord
100
AcDbLinetypeTableRecord
  2
DASHED
 70
64
  3
- - - - - - - - - - - - - - - - - - - -
 72
65
 73
2
 40
0.2
 49
0.1
 74
0
 49
-0.1
 74
0
  0
ENDTAB
  0
TABLE
  2
LAYER
  5
2
100
AcDbSymbolTable
 70
36
  0
LAYER
  5
10
100
AcDbSymbolTableRecord
100
AcDbLayerTableRecord
  2
0
 70
0
 62
7
  6
CONTINUOUS
370
-3
390
F
  0
LAYER
  5
1FA
100
AcDbSymbolTableRecord
100
AcDbLayerTableRecord
  2
DEFAULT_1
 70
0
 62
7
  6
CENTER
370
-3
390
F
  0
LAYER
  5
1FB
100
AcDbSymbolTableRecord
100
AcDbLayerTableRecord
  2
DEFAULT_2
 70
0
 62
7
  6
HIDDEN
370
-3
390
F
  0
LAYER
  5
1FC
100
AcDbSymbolTableRecord
100
AcDbLayerTableRecord
  2
DEFAULT_3
 70
0
 62
7
  6
PHANTOM
370
-3
390
F
  0
LAYER
  5
1FD
100
AcDbSymbolTableRecord
100
AcDbLayerTableRecord
  2
ASSI
 70
0
 62
7
  6
CONTINUOUS
370
-3
390
F
  0
LAYER
  5
1FE
100
AcDbSymbolTableRecord
100
AcDbLayerTableRecord
  2
COORDINATE
 70
0
 62
7
  6
CONTINUOUS
370
-3
390
F
  0
LAYER
  5
1FF
100
AcDbSymbolTableRecord
100
AcDbLayerTableRecord
  2
COORD_ORIGINE
 70
0
 62
7
  6
CONTINUOUS
370
-3
390
F
  0
LAYER
  5
200
100
AcDbSymbolTableRecord
100
AcDbLayerTableRecord
  2
CURVE
 70
0
 62
7
  6
CONTINUOUS
370
-3
390
F
  0
LAYER
  5
201
100
AcDbSymbolTableRecord
100
AcDbLayerTableRecord
  2
DRAFT
 70
0
 62
7
  6
CONTINUOUS
370
-3
390
F
  0
LAYER
  5
202
100
AcDbSymbolTableRecord
100
AcDbLayerTableRecord
  2
MARCHI_SOTTO
 70
0
 62
7
  6
CONTINUOUS
370
-3
390
F
  0
LAYER
  5
203
100
AcDbSymbolTableRecord
100
AcDbLayerTableRecord
  2
NOTE
 70
0
 62
7
  6
CONTINUOUS
370
-3
390
F
  0
LAYER
  5
204
100
AcDbSymbolTableRecord
100
AcDbLayerTableRecord
  2
PIANI
 70
0
 62
7
  6
CONTINUOUS
370
-3
390
F
  0
LAYER
  5
205
100
AcDbSymbolTableRecord
100
AcDbLayerTableRecord
  2
PIANI_ORIGINE
 70
0
 62
7
  6
CONTINUOUS
370
-3
390
F
  0
LAYER
  5
206
100
AcDbSymbolTableRecord
100
AcDbLayerTableRecord
  2
PUNTI
 70
0
 62
7
  6
CONTINUOUS
370
-3
390
F
  0
LAYER
  5
207
100
AcDbSymbolTableRecord
100
AcDbLayerTableRecord
  2
RACCORDO
 70
0
 62
7
  6
CONTINUOUS
370
-3
390
F
  0
LAYER
  5
208
100
AcDbSymbolTableRecord
100
AcDbLayerTableRecord
  2
SCRITTA_VIMAR
 70
0
 62
7
  6
CONTINUOUS
370
-3
390
F
  0
LAYER
  5
209
100
AcDbSymbolTableRecord
100
AcDbLayerTableRecord
  2
SNAPLINE
 70
0
 62
7
  6
CONTINUOUS
370
-3
390
F
  0
LAYER
  5
20A
100
AcDbSymbolTableRecord
100
AcDbLayerTableRecord
  2
SUPERFICI
 70
0
 62
7
  6
CONTINUOUS
370
-3
390
F
  0
LAYER
  5
20B
100
AcDbSymbolTableRecord
100
AcDbLayerTableRecord
  2
TRASH
 70
0
 62
7
  6
CONTINUOUS
370
-3
390
F
  0
LAYER
  5
20C
100
AcDbSymbolTableRecord
100
AcDbLayerTableRecord
  2
XSEC_DATUMS
 70
0
 62
7
  6
CONTINUOUS
370
-3
390
F
  0
ENDTAB
  0
TABLE
  2
STYLE
  5
3
100
AcDbSymbolTable
 70
1
  0
STYLE
  5
11
100
AcDbSymbolTableRecord
100
AcDbTextStyleTableRecord
  2
STANDARD
 70
0
 40
0.0
 41
0.8
 50
0.0
 71
0
 42
0.2
  3
txt
  4

  0
STYLE
  5
20D
100
AcDbSymbolTableRecord
100
AcDbTextStyleTableRecord
  2
TEXTSTYLE_1
 70
0
 40
0.0
 41
0.8
 50
0.0
 71
0
 42
0.2
  3
gdt
  4

  0
ENDTAB
  0
TABLE
  2
VIEW
  5
6
100
AcDbSymbolTable
 70
0
  0
ENDTAB
  0
TABLE
  2
UCS
  5
7
100
AcDbSymbolTable
 70
0
  0
ENDTAB
  0
TABLE
  2
APPID
  5
9
100
AcDbSymbolTable
 70
1
  0
APPID
  5
20E
100
AcDbSymbolTableRecord
100
AcDbRegAppTableRecord
  2
ACAD
 70
0
  0
ENDTAB
  0
TABLE
  2
BLOCK_RECORD
  5
1
100
AcDbSymbolTable
 70
0
  0
BLOCK_RECORD
  5
20F
100
AcDbSymbolTableRecord
100
AcDbBlockTableRecord
  2
*Model_Space
  0
BLOCK_RECORD
  5
210
100
AcDbSymbolTableRecord
100
AcDbBlockTableRecord
  2
*Paper_Space
  0
BLOCK_RECORD
  5
211
100
AcDbSymbolTableRecord
100
AcDbBlockTableRecord
  2
_FILLED
  0
ENDTAB
  0
TABLE
  2
DIMSTYLE
  5
A
100
AcDbSymbolTable
 70
1
100
AcDbDimStyleTable
 71
0
  0
DIMSTYLE
105
212
100
AcDbSymbolTableRecord
100
AcDbDimStyleTableRecord
  2
STANDARD
 70
0
  3

  4

 40
1.0
 41
3.0
 42
0.5
 43
0.38
 44
1.5
 45
0.0
 46
0.0
 47
0.01
 48
0.01
140
3.0
141
0.09
142
0.0
143
25.4
144
1.0
145
0.0
146
1.0
147
0.625
 71
1
 72
0
 73
0
 74
0
 75
0
 76
0
 77
1
 78
8
 79
2
170
0
171
1
172
0
173
0
174
0
175
0
176
0
177
0
178
0
270
2
179
2
271
2
272
2
273
2
274
2
275
0
280
0
281
0
282
0
283
1
284
8
285
0
286
0
287
3
288
0
340
11
278
44
341
211
342
211
343
211
344
211
  0
ENDTAB
  0
ENDSEC
  0
SECTION
  2
BLOCKS
  0
BLOCK
  5
20
100
AcDbEntity
  8
0
100
AcDbBlockBegin
  2
*Model_Space
 70
0
 10
0.0
 20
0.0
 30
0.0
  3
*Model_Space
  1

  0
ENDBLK
  5
21
100
AcDbEntity
  8
0
100
AcDbBlockEnd
  0
BLOCK
  5
1C
100
AcDbEntity
  8
0
100
AcDbBlockBegin
  2
*Paper_Space
 70
0
 10
0.0
 20
0.0
 30
0.0
  3
*Paper_Space
  1

  0
ENDBLK
  5
1D
100
AcDbEntity
  8
0
100
AcDbBlockEnd
  0
BLOCK
  5
213
100
AcDbEntity
  8
0
100
AcDbBlockBegin
  2
_FILLED
 70
64
 10
0.0
 20
0.0
  3
_FILLED
  1

  0
SOLID
  5
214
100
AcDbEntity
  8
0
  6
BYBLOCK
 62
0
100
AcDbTrace
 10
0.0
 20
0.0
 11
-1.0
 21
0.3166666667
 12
-1.0
 22
-0.3166666667
 13
-1.0
 23
-0.3166666667
  0
ENDBLK
  5
215
100
AcDbEntity
  8
0
  6
BYBLOCK
 62
0
100
AcDbBlockEnd
  0
ENDSEC
  0
SECTION
  2
ENTITIES
  0
LWPOLYLINE
  5
216
100
AcDbEntity
  8
RACCORDO
100
AcDbPolyline
 62
250
  6
CONTINUOUS
 90
16
 70
0
 10
-37.0331278093
 20
38.8679338495
 10
-36.9525573375
 20
38.9794639083
 10
-36.8494107742
 20
39.0950322022
 10
-36.7338147326
 20
39.1992461774
 10
-36.6066564399
 20
39.2914452149
 10
-36.4685228094
 20
39.3713248856
 10
-36.3199179332
 20
39.438624445
 10
-36.1614914626
 20
39.4929961429
 10
-35.9942530445
 20
39.5340313562
 10
-35.8192970807
 20
39.5614490231
 10
-35.6376608478
 20
39.5750973822
 10
-35.450338002
 20
39.5748966085
 10
-35.2584441262
 20
39.560827164
 10
-35.0630907484
 20
39.5329582972
 10
-34.8653751604
 20
39.4914382269
 10
-34.6664240495
 20
39.436482089
  0
LWPOLYLINE
  5
217
100
AcDbEntity
  8
RACCORDO
100
AcDbPolyline
 62
7
  6
CONTINUOUS
 90
9
 70
0
 10
-37.0341910846
 20
38.8662724583
 10
-37.0726652614
 20
38.8046563937
 10
-37.1511436108
 20
38.6606179907
 10
-37.218490804
 20
38.5087492317
 10
-37.2741506078
 20
38.3497744945
 10
-37.3176422977
 20
38.1844332644
 10
-37.3485395026
 20
38.0136730982
 10
-37.3666629772
 20
37.8382966666
 10
-37.3719875838
 20
37.6780715974
  0
LINE
  5
218
100
AcDbEntity
  8
RACCORDO
100
AcDbLine
 62
7
  6
CONTINUOUS
 10
-37.0340279778
 20
38.8665500397
 11
-35.030586387
 21
41.9425164336
  0
LINE
  5
219
100
AcDbEntity
  8
RACCORDO
100
AcDbLine
 62
250
  6
CONTINUOUS
 10
-34.6664240495
 20
39.436482089
 11
-32.667374715
 21
42.50570313
  0
LWPOLYLINE
  5
21A
100
AcDbEntity
  8
RACCORDO
100
AcDbPolyline
 62
250
  6
CONTINUOUS
 90
13
 70
0
 10
-34.6664240495
 20
39.436482089
 10
-34.7209172949
 20
39.3629627062
 10
-34.7741321931
 20
39.28064836
 10
-34.8253712406
 20
39.1906180142
 10
-34.8739628325
 20
39.094051772
 10
-34.9192700656
 20
38.9922154071
 10
-34.960699087
 20
38.8864437729
 10
-34.9977068783
 20
38.7781233048
 10
-35.0298083735
 20
38.6686738482
 10
-35.056582817
 20
38.5595300466
 10
-35.0776792785
 20
38.452122537
 10
-35.0928212532
 20
38.3478591977
 10
-35.1018102861
 20
38.2481066937
  0
LINE
  5
21B
100
AcDbEntity
  8
RACCORDO
100
AcDbLine
 62
250
  6
CONTINUOUS
 10
-35.5771579582
 20
-19.413726309
 11
-35.5867694535
 21
-19.3246861661
  0
LWPOLYLINE
  5
21C
100
AcDbEntity
  8
RACCORDO
100
AcDbPolyline
 62
250
  6
CONTINUOUS
 90
7
 70
0
 10
-35.5867694535
 20
-19.3246861661
 10
-35.5911963606
 20
-19.2812185966
 10
-35.5952576486
 20
-19.2386982874
 10
-35.5989656664
 20
-19.1973094206
 10
-35.6020162335
 20
-19.1567256768
 10
-35.6040981805
 20
-19.1169617528
 10
-35.6071514413
 20
-19.037861283
  0
LWPOLYLINE
  5
21D
100
AcDbEntity
  8
RACCORDO
100
AcDbPolyline
 62
250
  6
CONTINUOUS
 90
3
 70
0
 10
-35.5580167523
 20
-19.6031704185
 10
-35.5628803093
 20
-19.5538850771
 10
-35.5771579582
 20
-19.413726309
  0
LINE
  5
21E
100
AcDbEntity
  8
RACCORDO
100
AcDbLine
 62
7
  6
CONTINUOUS
 10
-37.3719873176
 20
37.6782041189
 11
-37.3719875838
 21
37.6780715974
  0
LINE
  5
21F
100
AcDbEntity
  8
RACCORDO
100
AcDbLine
 62
250
  6
CONTINUOUS
 10
-36.9642380849
 20
36.925676398
 11
-36.952316349
 21
37.1916366086
  0
LWPOLYLINE
  5
220
100
AcDbEntity
  8
RACCORDO
100
AcDbPolyline
 62
250
  6
CONTINUOUS
 90
3
 70
0
 10
-36.973913774
 20
36.7380063152
 10
-36.9714635613
 20
36.7828078033
 10
-36.9642380849
 20
36.925676398
  0
LWPOLYLINE
  5
221
100
AcDbEntity
  8
RACCORDO
100
AcDbPolyline
 62
250
  6
CONTINUOUS
 90
22
 70
0
 10
-36.9523129471
 20
37.1916394538
 10
-36.9423191718
 20
37.3111533889
 10
-36.9228309854
 20
37.4266085328
 10
-36.8938769099
 20
37.5373383926
 10
-36.8555783772
 20
37.6427526023
 10
-36.8080888896
 20
37.7423877982
 10
-36.7515199015
 20
37.8358235301
 10
-36.6860033899
 20
37.9226687895
 10
-36.611902869
 20
38.0023558918
 10
-36.5297544871
 20
38.0742494017
 10
-36.4401128149
 20
38.1378990532
 10
-36.3433628115
 20
38.1931536808
 10
-36.2398115159
 20
38.2398448118
 10
-36.1298449697
 20
38.2777215021
 10
-36.0141462225
 20
38.3065500567
 10
-35.8934464556
 20
38.326163691
 10
-35.7684103635
 20
38.3364398303
 10
-35.63966488
 20
38.3373466943
 10
-35.5079052032
 20
38.3289049492
 10
-35.3738125373
 20
38.3111440824
 10
-35.2381483793
 20
38.2841555759
 10
-35.1018077782
 20
38.2481090198
  0
LWPOLYLINE
  5
222
100
AcDbEntity
  8
RACCORDO
100
AcDbPolyline
 62
250
  6
CONTINUOUS
 90
9
 70
0
 10
-35.9531081471
 20
-19.357248345
 10
-35.9420222462
 20
-19.4345121057
 10
-35.9181645214
 20
-19.5081156121
 10
-35.8817351321
 20
-19.5790564998
 10
-35.8332093375
 20
-19.6464092724
 10
-35.7732202071
 20
-19.7092952438
 10
-35.7025503616
 20
-19.7668940022
 10
-35.6221217626
 20
-19.8184541129
 10
-35.5329836848
 20
-19.8633029216
  0
LWPOLYLINE
  5
223
100
AcDbEntity
  8
RACCORDO
100
AcDbPolyline
 62
250
  6
CONTINUOUS
 90
7
 70
0
 10
-36.7261657122
 20
9.071127413
 10
-36.7206748589
 20
9.014310854
 10
-36.6982603833
 20
8.9330141321
 10
-36.6591116606
 20
8.8545240532
 10
-36.6039028361
 20
8.7801922298
 10
-36.5335846119
 20
8.711298669
 10
-36.4493678755
 20
8.6490297302
  0
LINE
  5
224
100
AcDbEntity
  8
RACCORDO
100
AcDbLine
 62
250
  6
CONTINUOUS
 10
-35.5329836848
 20
-19.8633029216
 11
-35.5580167523
 21
-19.6031704185
  0
LWPOLYLINE
  5
225
100
AcDbEntity
  8
RACCORDO
100
AcDbPolyline
 62
7
  6
CONTINUOUS
 90
19
 70
0
 10
-35.9531454401
 20
-19.3560089862
 10
-35.9511062307
 20
-19.3901656277
 10
-35.9264742889
 20
-19.6089379374
 10
-35.8819132988
 20
-19.8291293395
 10
-35.8176028634
 20
-20.0497351279
 10
-35.7339739808
 20
-20.269418283
 10
-35.6318091888
 20
-20.4861902631
 10
-35.5115931345
 20
-20.6990912208
 10
-35.3739600727
 20
-20.9069493389
 10
-35.2204371374
 20
-21.107332572
 10
-35.0519416935
 20
-21.2991927455
 10
-34.8693878283
 20
-21.4814194523
 10
-34.6750859516
 20
-21.6517105239
 10
-34.4703563619
 20
-21.8091456614
 10
-34.2563741007
 20
-21.9527893883
 10
-34.0357805527
 20
-22.0810034619
 10
-33.8103052398
 20
-22.1930039905
 10
-33.5807903049
 20
-22.2884706113
 10
-33.4421452991
 20
-22.3374657645
  0
LINE
  5
226
100
AcDbEntity
  8
RACCORDO
100
AcDbLine
 62
7
  6
CONTINUOUS
 10
-35.9531738881
 20
-19.3560104454
 11
-35.9531081471
 21
-19.357248345
  0
LINE
  5
227
100
AcDbEntity
  8
RACCORDO
100
AcDbLine
 62
250
  6
CONTINUOUS
 10
-35.6071514413
 20
-19.037861283
 11
-35.6882974953
 21
-17.3584178887
  0
LINE
  5
228
100
AcDbEntity
  8
RACCORDO
100
AcDbLine
 62
250
  6
CONTINUOUS
 10
-35.6882974953
 20
-17.3584178887
 11
-35.7233217238
 21
-16.6131980834
  0
LINE
  5
229
100
AcDbEntity
  8
RACCORDO
100
AcDbLine
 62
250
  6
CONTINUOUS
 10
-35.7233217238
 20
-16.6131980834
 11
-35.7479753605
 21
-16.0687646623
  0
LINE
  5
22A
100
AcDbEntity
  8
RACCORDO
100
AcDbLine
 62
250
  6
CONTINUOUS
 10
-35.7479753605
 20
-16.0687646623
 11
-35.769178311
 21
-15.5798709585
  0
LINE
  5
22B
100
AcDbEntity
  8
RACCORDO
100
AcDbLine
 62
250
  6
CONTINUOUS
 10
-35.769178311
 20
-15.5798709585
 11
-35.7916158371
 21
-15.0369061535
  0
LINE
  5
22C
100
AcDbEntity
  8
RACCORDO
100
AcDbLine
 62
250
  6
CONTINUOUS
 10
-35.7916158371
 20
-15.0369061535
 11
-35.8151354816
 21
-14.4342878491
  0
LINE
  5
22D
100
AcDbEntity
  8
RACCORDO
100
AcDbLine
 62
250
  6
CONTINUOUS
 10
-35.8151354816
 20
-14.4342878491
 11
-35.8333604419
 21
-13.9396522518
  0
LINE
  5
22E
100
AcDbEntity
  8
RACCORDO
100
AcDbLine
 62
250
  6
CONTINUOUS
 10
-35.8333604419
 20
-13.9396522518
 11
-35.852029283
 21
-13.4053334285
  0
LINE
  5
22F
100
AcDbEntity
  8
RACCORDO
100
AcDbLine
 62
250
  6
CONTINUOUS
 10
-35.852029283
 20
-13.4053334285
 11
-35.8711131974
 21
-12.8282540002
  0
LINE
  5
230
100
AcDbEntity
  8
RACCORDO
100
AcDbLine
 62
250
  6
CONTINUOUS
 10
-35.8711131974
 20
-12.8282540002
 11
-35.890637775
 21
-12.2053334604
  0
LWPOLYLINE
  5
231
100
AcDbEntity
  8
RACCORDO
100
AcDbPolyline
 62
250
  6
CONTINUOUS
 90
10
 70
0
 10
-37.3719875838
 20
37.6780715974
 10
-37.3712874691
 20
37.6551049782
 10
-37.3605012787
 20
37.587298371
 10
-37.3368194703
 20
37.5206621029
 10
-37.3005509862
 20
37.4560654815
 10
-37.2521689693
 20
37.3943512064
 10
-37.1923045905
 20
37.3363243752
 10
-37.1217388141
 20
37.2827419807
 10
-37.0413922108
 20
37.2343030358
 10
-36.9523129471
 20
37.1916394538
  0
LINE
  5
232
100
AcDbEntity
  8
RACCORDO
100
AcDbLine
 62
250
  6
CONTINUOUS
 10
-35.890637775
 20
-12.2053334604
 11
-35.9247642743
 21
-11.0565456619
  0
LINE
  5
233
100
AcDbEntity
  8
RACCORDO
100
AcDbLine
 62
250
  6
CONTINUOUS
 10
-35.9247642743
 20
-11.0565456619
 11
-35.986998954
 21
-8.8914309229
  0
LINE
  5
234
100
AcDbEntity
  8
RACCORDO
100
AcDbLine
 62
250
  6
CONTINUOUS
 10
-35.986998954
 20
-8.8914309229
 11
-36.0415137401
 21
-6.9569574638
  0
LINE
  5
235
100
AcDbEntity
  8
RACCORDO
100
AcDbLine
 62
250
  6
CONTINUOUS
 10
-36.0415137401
 20
-6.9569574638
 11
-36.10362
 21
-4.7066068622
  0
LWPOLYLINE
  5
236
100
AcDbEntity
  8
RACCORDO
100
AcDbPolyline
 62
7
  6
CONTINUOUS
 90
6
 70
0
 10
-36.2167184707
 20
-10.8742708494
 10
-36.1681625395
 20
-12.6834325145
 10
-36.1176966414
 20
-14.4529695425
 10
-36.0642906973
 20
-16.1812316879
 10
-36.0090218189
 20
-17.8695613474
 10
-35.9531081471
 20
-19.357248345
  0
LINE
  5
237
100
AcDbEntity
  8
RACCORDO
100
AcDbLine
 62
250
  6
CONTINUOUS
 10
-36.10362
 20
-4.7066068622
 11
-36.1618512805
 21
-2.5521945037
  0
LINE
  5
238
100
AcDbEntity
  8
RACCORDO
100
AcDbLine
 62
7
  6
CONTINUOUS
 10
-36.3146057068
 20
-7.1460550714
 11
-36.2167184707
 21
-10.8742708494
  0
LINE
  5
239
100
AcDbEntity
  8
RACCORDO
100
AcDbLine
 62
250
  6
CONTINUOUS
 10
-36.1618512805
 20
-2.5521945037
 11
-36.2266208199
 21
-0.1062238532
  0
LINE
  5
23A
100
AcDbEntity
  8
RACCORDO
100
AcDbLine
 62
7
  6
CONTINUOUS
 10
-36.4148455945
 20
-3.2729012372
 11
-36.3146057068
 21
-7.1460550714
  0
LINE
  5
23B
100
AcDbEntity
  8
RACCORDO
100
AcDbLine
 62
250
  6
CONTINUOUS
 10
-36.2266208199
 20
-0.1062238532
 11
-36.3296210299
 21
3.8837159956
  0
LINE
  5
23C
100
AcDbEntity
  8
RACCORDO
100
AcDbLine
 62
7
  6
CONTINUOUS
 10
-36.5173723591
 20
0.7451240454
 11
-36.4148455945
 21
-3.2729012372
  0
LINE
  5
23D
100
AcDbEntity
  8
RACCORDO
100
AcDbLine
 62
7
  6
CONTINUOUS
 10
-36.6756834131
 20
7.0444728551
 11
-36.5173723591
 21
0.7451240454
  0
LINE
  5
23E
100
AcDbEntity
  8
RACCORDO
100
AcDbLine
 62
250
  6
CONTINUOUS
 10
-36.3296210299
 20
3.8837159956
 11
-36.4311254142
 21
7.9162651673
  0
LINE
  5
23F
100
AcDbEntity
  8
RACCORDO
100
AcDbLine
 62
250
  6
CONTINUOUS
 10
-36.4311254142
 20
7.9162651673
 11
-36.5514828787
 21
12.7889033367
  0
LINE
  5
240
100
AcDbEntity
  8
RACCORDO
100
AcDbLine
 62
7
  6
CONTINUOUS
 10
-36.9808016886
 20
19.4190569852
 11
-36.6756834131
 21
7.0444728551
  0
LINE
  5
241
100
AcDbEntity
  8
RACCORDO
100
AcDbLine
 62
7
  6
CONTINUOUS
 10
-37.098973058
 20
24.3397159523
 11
-36.9808016886
 21
19.4190569852
  0
LINE
  5
242
100
AcDbEntity
  8
RACCORDO
100
AcDbLine
 62
250
  6
CONTINUOUS
 10
-36.5514828787
 20
12.7889033367
 11
-36.6371557872
 21
16.3445577963
  0
LINE
  5
243
100
AcDbEntity
  8
RACCORDO
100
AcDbLine
 62
250
  6
CONTINUOUS
 10
-36.6371557872
 20
16.3445577963
 11
-36.6976709604
 21
18.9204346137
  0
LINE
  5
244
100
AcDbEntity
  8
RACCORDO
100
AcDbLine
 62
250
  6
CONTINUOUS
 10
-36.6976709604
 20
18.9204346137
 11
-36.7497272847
 21
21.1896072563
  0
LINE
  5
245
100
AcDbEntity
  8
RACCORDO
100
AcDbLine
 62
250
  6
CONTINUOUS
 10
-36.7497272847
 20
21.1896072563
 11
-36.8026996742
 21
23.5590766825
  0
LINE
  5
246
100
AcDbEntity
  8
RACCORDO
100
AcDbLine
 62
250
  6
CONTINUOUS
 10
-36.8026996742
 20
23.5590766825
 11
-36.8470163644
 21
25.5955241407
  0
LINE
  5
247
100
AcDbEntity
  8
RACCORDO
100
AcDbLine
 62
250
  6
CONTINUOUS
 10
-36.8470163644
 20
25.5955241407
 11
-36.8952555222
 21
27.8738879418
  0
LINE
  5
248
100
AcDbEntity
  8
RACCORDO
100
AcDbLine
 62
250
  6
CONTINUOUS
 10
-36.8952555222
 20
27.8738879418
 11
-36.9244431956
 21
29.3062060195
  0
LINE
  5
249
100
AcDbEntity
  8
RACCORDO
100
AcDbLine
 62
250
  6
CONTINUOUS
 10
-36.9244431956
 20
29.3062060195
 11
-36.9365096091
 21
29.9450639282
  0
LINE
  5
24A
100
AcDbEntity
  8
RACCORDO
100
AcDbLine
 62
250
  6
CONTINUOUS
 10
-36.9365096091
 20
29.9450639282
 11
-36.9467179606
 21
30.5369423713
  0
LINE
  5
24B
100
AcDbEntity
  8
RACCORDO
100
AcDbLine
 62
250
  6
CONTINUOUS
 10
-36.9467179606
 20
30.5369423713
 11
-36.9551639201
 21
31.0850609378
  0
LINE
  5
24C
100
AcDbEntity
  8
RACCORDO
100
AcDbLine
 62
250
  6
CONTINUOUS
 10
-36.9551639201
 20
31.0850609378
 11
-36.9620229666
 21
31.592583305
  0
LWPOLYLINE
  5
24D
100
AcDbEntity
  8
RACCORDO
100
AcDbPolyline
 62
7
  6
CONTINUOUS
 90
8
 70
0
 10
-37.3720195566
 20
37.6782041816
 10
-37.357154147
 20
36.4097800976
 10
-37.3328807343
 20
34.9794435464
 10
-37.3066293066
 20
33.5261902382
 10
-37.2772159245
 20
32.0519240255
 10
-37.2445996094
 20
30.5567383249
 10
-37.2096513031
 20
29.0391742697
 10
-37.098973058
 20
24.3397159523
  0
LINE
  5
24E
100
AcDbEntity
  8
RACCORDO
100
AcDbLine
 62
250
  6
CONTINUOUS
 10
-36.9620229666
 20
31.592583305
 11
-36.9690278242
 21
32.2113186967
  0
LINE
  5
24F
100
AcDbEntity
  8
RACCORDO
100
AcDbLine
 62
250
  6
CONTINUOUS
 10
-36.9854431787
 20
36.3698550323
 11
-36.9863468923
 21
36.4500666129
  0
LINE
  5
250
100
AcDbEntity
  8
RACCORDO
100
AcDbLine
 62
250
  6
CONTINUOUS
 10
-36.9690278242
 20
32.2113186967
 11
-36.9740282229
 21
32.7690851823
  0
LINE
  5
251
100
AcDbEntity
  8
RACCORDO
100
AcDbLine
 62
250
  6
CONTINUOUS
 10
-36.9740282229
 20
32.7690851823
 11
-36.9774878832
 21
33.2716664231
  0
LINE
  5
252
100
AcDbEntity
  8
RACCORDO
100
AcDbLine
 62
250
  6
CONTINUOUS
 10
-36.9774878832
 20
33.2716664231
 11
-36.9802249845
 21
33.8312800503
  0
LINE
  5
253
100
AcDbEntity
  8
RACCORDO
100
AcDbLine
 62
250
  6
CONTINUOUS
 10
-36.9802249845
 20
33.8312800503
 11
-36.9825608198
 21
34.5969215785
  0
LINE
  5
254
100
AcDbEntity
  8
RACCORDO
100
AcDbLine
 62
250
  6
CONTINUOUS
 10
-36.9825608198
 20
34.5969215785
 11
-36.9854431787
 21
36.3698550323
  0
LWPOLYLINE
  5
255
100
AcDbEntity
  8
RACCORDO
100
AcDbPolyline
 62
250
  6
CONTINUOUS
 90
7
 70
0
 10
-36.9863468923
 20
36.4500666129
 10
-36.9862311183
 20
36.4898117877
 10
-36.9851454236
 20
36.5294442714
 10
-36.9834176298
 20
36.5693165043
 10
-36.9814056873
 20
36.6102184082
 10
-36.9791089232
 20
36.6520167125
 10
-36.973913774
 20
36.7380063152
  0
LWPOLYLINE
  5
256
100
AcDbEntity
  8
RACCORDO
100
AcDbPolyline
 62
250
  6
CONTINUOUS
 90
7
 70
0
 10
-33.4427667006
 20
-22.3372594427
 10
-33.477785383
 20
-22.3202233539
 10
-33.5133774956
 20
-22.2893480767
 10
-33.5439289403
 20
-22.2466563401
 10
-33.5690392813
 20
-22.1927077128
 10
-33.588379403
 20
-22.1282093099
 10
-33.6016958238
 20
-22.0540065246
  0
LWPOLYLINE
  5
257
100
AcDbEntity
  8
RACCORDO
100
AcDbPolyline
 62
250
  6
CONTINUOUS
 90
3
 70
0
 10
-23.3901584117
 20
19.9679316735
 10
-23.4107462682
 20
19.9451567767
 10
-23.4731548416
 20
19.8902296672
  0
LWPOLYLINE
  5
258
100
AcDbEntity
  8
RACCORDO
100
AcDbPolyline
 62
250
  6
CONTINUOUS
 90
20
 70
0
 10
-23.4731548416
 20
19.8902296672
 10
-23.544253848
 20
19.8396418617
 10
-23.6232462707
 20
19.7939604471
 10
-23.7092466082
 20
19.7536975099
 10
-23.8012908007
 20
19.719304396
 10
-23.8983470369
 20
19.6911666505
 10
-23.9993273207
 20
19.6695996964
 10
-24.1030996679
 20
19.6548452981
 10
-24.208500795
 20
19.6470688518
 10
-24.3143491602
 20
19.6463575312
 10
-24.4194582081
 20
19.6527193101
 10
-24.5226496711
 20
19.6660828733
 10
-24.6227667775
 20
19.6862984158
 10
-24.718687219
 20
19.7131393222
 10
-24.8093320412
 20
19.746303183
 10
-24.8936893394
 20
19.7854192563
 10
-24.9708227982
 20
19.8300550543
 10
-25.0398674345
 20
19.8797143062
 10
-25.100042255
 20
19.9338400783
 10
-25.1506687076
 20
19.9918267352
  0
LWPOLYLINE
  5
259
100
AcDbEntity
  8
RACCORDO
100
AcDbPolyline
 62
250
  6
CONTINUOUS
 90
10
 70
0
 10
18.8325820022
 20
-27.831449046
 10
19.0202551149
 20
-27.8086451784
 10
19.2093538481
 20
-27.7933656922
 10
19.3991203233
 20
-27.7856718298
 10
19.588793986
 20
-27.7855944311
 10
19.7776146533
 20
-27.7931338105
 10
19.9648255614
 20
-27.8082597549
 10
20.1496763979
 20
-27.8309116453
 10
20.3314263091
 20
-27.8609986996
 10
20.5093468696
 20
-27.8984003366
  0
LWPOLYLINE
  5
25A
100
AcDbEntity
  8
RACCORDO
100
AcDbPolyline
 62
7
  6
CONTINUOUS
 90
13
 70
0
 10
32.0550854747
 20
-42.4510399946
 10
32.2884704898
 20
-42.5088448896
 10
32.5257633917
 20
-42.5497158473
 10
32.7601849544
 20
-42.5717521503
 10
32.9911796476
 20
-42.5748286675
 10
33.217080211
 20
-42.5587283494
 10
33.4350714677
 20
-42.5236803966
 10
33.6434692674
 20
-42.4703412077
 10
33.8415823241
 20
-42.3991921648
 10
34.0279961389
 20
-42.3110304023
 10
34.2013819907
 20
-42.2069883092
 10
34.3607342481
 20
-42.0881893081
 10
34.5109882048
 20
-41.9498749111
  0
LWPOLYLINE
  5
25B
100
AcDbEntity
  8
RACCORDO
100
AcDbPolyline
 62
250
  6
CONTINUOUS
 90
5
 70
0
 10
31.9087499451
 20
-42.1716350003
 10
31.7823067344
 20
-42.1396686887
 10
31.6597564835
 20
-42.1075143796
 10
31.5418945934
 20
-42.0755437754
 10
31.4305616748
 20
-42.0441660016
  0
LINE
  5
25C
100
AcDbEntity
  8
RACCORDO
100
AcDbLine
 62
7
  6
CONTINUOUS
 10
32.0555388682
 20
-42.4511914187
 11
32.0550793244
 21
-42.4510615792
  0
LINE
  5
25D
100
AcDbEntity
  8
RACCORDO
100
AcDbLine
 62
250
  6
CONTINUOUS
 10
27.768435738
 20
-40.9952969463
 11
26.9121563021
 21
-40.7526327147
  0
LINE
  5
25E
100
AcDbEntity
  8
RACCORDO
100
AcDbLine
 62
250
  6
CONTINUOUS
 10
26.9121563021
 20
-40.7526327147
 11
26.4479808315
 21
-40.6204788181
  0
LINE
  5
25F
100
AcDbEntity
  8
RACCORDO
100
AcDbLine
 62
250
  6
CONTINUOUS
 10
30.7600055432
 20
-41.850810868
 11
27.768435738
 21
-40.9952969463
  0
LINE
  5
260
100
AcDbEntity
  8
RACCORDO
100
AcDbLine
 62
250
  6
CONTINUOUS
 10
26.4479808315
 20
-40.6204788181
 11
25.9588584514
 21
-40.4797436561
  0
LINE
  5
261
100
AcDbEntity
  8
RACCORDO
100
AcDbLine
 62
250
  6
CONTINUOUS
 10
25.9588584514
 20
-40.4797436561
 11
24.0278156934
 21
-39.9195257371
  0
LINE
  5
262
100
AcDbEntity
  8
RACCORDO
100
AcDbLine
 62
250
  6
CONTINUOUS
 10
31.4305616748
 20
-42.0441660016
 11
30.7600055432
 21
-41.850810868
  0
LINE
  5
263
100
AcDbEntity
  8
RACCORDO
100
AcDbLine
 62
250
  6
CONTINUOUS
 10
24.0278156934
 20
-39.9195257371
 11
22.7567006062
 21
-39.549764184
  0
LINE
  5
264
100
AcDbEntity
  8
RACCORDO
100
AcDbLine
 62
250
  6
CONTINUOUS
 10
22.7567006062
 20
-39.549764184
 11
22.0694688248
 21
-39.3489112731
  0
LINE
  5
265
100
AcDbEntity
  8
RACCORDO
100
AcDbLine
 62
250
  6
CONTINUOUS
 10
22.0694688248
 20
-39.3489112731
 11
21.3444596311
 21
-39.1358746449
  0
LINE
  5
266
100
AcDbEntity
  8
RACCORDO
100
AcDbLine
 62
7
  6
CONTINUOUS
 10
26.7945052795
 20
-40.8959318357
 11
28.2029051269
 21
-41.3112942119
  0
LINE
  5
267
100
AcDbEntity
  8
RACCORDO
100
AcDbLine
 62
250
  6
CONTINUOUS
 10
21.3444596311
 20
-39.1358746449
 11
20.5801580684
 21
-38.9099025624
  0
LWPOLYLINE
  5
268
100
AcDbEntity
  8
RACCORDO
100
AcDbPolyline
 62
7
  6
CONTINUOUS
 90
3
 70
0
 10
28.2029051269
 20
-41.3112942119
 10
30.9213060157
 20
-42.1163196534
 10
32.0555388682
 20
-42.4511914187
  0
LINE
  5
269
100
AcDbEntity
  8
RACCORDO
100
AcDbLine
 62
250
  6
CONTINUOUS
 10
20.5801580684
 20
-38.9099025624
 11
19.7742176682
 21
-38.6700172985
  0
LINE
  5
26A
100
AcDbEntity
  8
RACCORDO
100
AcDbLine
 62
250
  6
CONTINUOUS
 10
19.7742176682
 20
-38.6700172985
 11
18.9238848406
 21
-38.4151401102
  0
LINE
  5
26B
100
AcDbEntity
  8
RACCORDO
100
AcDbLine
 62
250
  6
CONTINUOUS
 10
18.9238848406
 20
-38.4151401102
 11
18.0273965662
 21
-38.1445545605
  0
LINE
  5
26C
100
AcDbEntity
  8
RACCORDO
100
AcDbLine
 62
250
  6
CONTINUOUS
 10
18.0273965662
 20
-38.1445545605
 11
17.0819989995
 21
-37.8572528418
  0
LINE
  5
26D
100
AcDbEntity
  8
RACCORDO
100
AcDbLine
 62
250
  6
CONTINUOUS
 10
-12.8794772699
 20
-28.6484519065
 11
-15.5965843496
 21
-27.8207078111
  0
LWPOLYLINE
  5
26E
100
AcDbEntity
  8
RACCORDO
100
AcDbPolyline
 62
7
  6
CONTINUOUS
 90
3
 70
0
 10
-16.0947082055
 20
-27.7880324119
 10
-12.7632806018
 20
-28.806239708
 10
-11.2385973776
 20
-29.2734029381
  0
LINE
  5
26F
100
AcDbEntity
  8
RACCORDO
100
AcDbLine
 62
250
  6
CONTINUOUS
 10
-15.5965843496
 20
-27.8207078111
 11
-16.8175004644
 21
-27.4478942231
  0
LINE
  5
270
100
AcDbEntity
  8
RACCORDO
100
AcDbLine
 62
250
  6
CONTINUOUS
 10
17.0819989995
 20
-37.8572528418
 11
16.085026179
 21
-37.5523713894
  0
LINE
  5
271
100
AcDbEntity
  8
RACCORDO
100
AcDbLine
 62
7
  6
CONTINUOUS
 10
9.6920848169
 20
-35.7010126733
 11
-11.2385992392
 21
-29.2734023753
  0
LINE
  5
272
100
AcDbEntity
  8
RACCORDO
100
AcDbLine
 62
250
  6
CONTINUOUS
 10
-11.2040650707
 20
-29.1609463091
 11
-12.8794772699
 21
-28.6484519065
  0
LINE
  5
273
100
AcDbEntity
  8
RACCORDO
100
AcDbLine
 62
250
  6
CONTINUOUS
 10
-16.8175004644
 20
-27.4478942231
 11
-17.9590881249
 21
-27.0977213212
  0
LWPOLYLINE
  5
274
100
AcDbEntity
  8
RACCORDO
100
AcDbPolyline
 62
7
  6
CONTINUOUS
 90
8
 70
0
 10
14.5552721257
 20
-37.2003625658
 10
16.1762678444
 20
-37.6992332153
 10
17.7706760165
 20
-38.1876359695
 10
19.3395514078
 20
-38.6652011793
 10
20.8832414219
 20
-39.1317340667
 10
22.4012533336
 20
-39.5872236853
 10
23.8926201583
 20
-40.0322286006
 10
26.7945052795
 20
-40.8959318357
  0
LWPOLYLINE
  5
275
100
AcDbEntity
  8
RACCORDO
100
AcDbPolyline
 62
7
  6
CONTINUOUS
 90
3
 70
0
 10
9.6920827754
 20
-35.7010120305
 10
11.2303883798
 20
-36.1744828107
 10
14.5552721257
 20
-37.2003625658
  0
LINE
  5
276
100
AcDbEntity
  8
RACCORDO
100
AcDbLine
 62
250
  6
CONTINUOUS
 10
16.085026179
 20
-37.5523713894
 11
15.0348288914
 21
-37.2294752901
  0
LINE
  5
277
100
AcDbEntity
  8
RACCORDO
100
AcDbLine
 62
250
  6
CONTINUOUS
 10
10.9005052774
 20
-35.9506654041
 11
-11.2040650707
 21
-29.1609463091
  0
LINE
  5
278
100
AcDbEntity
  8
RACCORDO
100
AcDbLine
 62
250
  6
CONTINUOUS
 10
-17.9590881249
 20
-27.0977213212
 11
-19.0264983117
 21
-26.7683719662
  0
LINE
  5
279
100
AcDbEntity
  8
RACCORDO
100
AcDbLine
 62
250
  6
CONTINUOUS
 10
15.0348288914
 20
-37.2294752901
 11
13.9291738691
 21
-36.8880727497
  0
LINE
  5
27A
100
AcDbEntity
  8
RACCORDO
100
AcDbLine
 62
250
  6
CONTINUOUS
 10
13.9291738691
 20
-36.8880727497
 11
10.9005052774
 21
-35.9506654041
  0
LINE
  5
27B
100
AcDbEntity
  8
RACCORDO
100
AcDbLine
 62
250
  6
CONTINUOUS
 10
-19.0264983117
 20
-26.7683719662
 11
-20.0269012469
 21
-26.4575981631
  0
LINE
  5
27C
100
AcDbEntity
  8
RACCORDO
100
AcDbLine
 62
250
  6
CONTINUOUS
 10
-20.0269012469
 20
-26.4575981631
 11
-20.9659835847
 21
-26.1638070901
  0
LINE
  5
27D
100
AcDbEntity
  8
RACCORDO
100
AcDbLine
 62
250
  6
CONTINUOUS
 10
-20.9659835847
 20
-26.1638070901
 11
-21.8473752635
 21
-25.8860701641
  0
LWPOLYLINE
  5
27E
100
AcDbEntity
  8
RACCORDO
100
AcDbPolyline
 62
7
  6
CONTINUOUS
 90
7
 70
0
 10
-25.3842169745
 20
-24.8999289154
 10
-23.9102831366
 20
-25.3655198637
 10
-22.406608465
 20
-25.8379327303
 10
-20.8730254648
 20
-26.3163640702
 10
-19.3098540336
 20
-26.8005899262
 10
-17.7171386815
 20
-27.2908953553
 10
-16.0947082055
 20
-27.7880324119
  0
LINE
  5
27F
100
AcDbEntity
  8
RACCORDO
100
AcDbLine
 62
250
  6
CONTINUOUS
 10
-21.8473752635
 20
-25.8860701641
 11
-22.6761319109
 21
-25.6231112597
  0
LWPOLYLINE
  5
280
100
AcDbEntity
  8
RACCORDO
100
AcDbPolyline
 62
7
  6
CONTINUOUS
 90
4
 70
0
 10
-32.3122877478
 20
-22.6980405023
 10
-29.6348339962
 20
-23.5500298323
 10
-28.2495629287
 20
-23.9925755978
 10
-25.3842169745
 20
-24.8999289154
  0
LINE
  5
281
100
AcDbEntity
  8
RACCORDO
100
AcDbLine
 62
7
  6
CONTINUOUS
 10
-33.442771526
 20
-22.3372741208
 11
-32.3122877478
 21
-22.6980405023
  0
LINE
  5
282
100
AcDbEntity
  8
RACCORDO
100
AcDbLine
 62
250
  6
CONTINUOUS
 10
-22.6761319109
 20
-25.6231112597
 11
-23.4564012166
 21
-25.3739344701
  0
LINE
  5
283
100
AcDbEntity
  8
RACCORDO
100
AcDbLine
 62
250
  6
CONTINUOUS
 10
-23.4564012166
 20
-25.3739344701
 11
-24.1908002473
 21
-25.1380363687
  0
LINE
  5
284
100
AcDbEntity
  8
RACCORDO
100
AcDbLine
 62
250
  6
CONTINUOUS
 10
-24.1908002473
 20
-25.1380363687
 11
-25.2141607295
 21
-24.8076547268
  0
LINE
  5
285
100
AcDbEntity
  8
RACCORDO
100
AcDbLine
 62
250
  6
CONTINUOUS
 10
-25.2141607295
 20
-24.8076547268
 11
-27.8039735531
 21
-23.968290399
  0
LINE
  5
286
100
AcDbEntity
  8
RACCORDO
100
AcDbLine
 62
250
  6
CONTINUOUS
 10
-32.4591307863
 20
-22.4369753071
 11
-33.1267792654
 21
-22.2193225954
  0
LINE
  5
287
100
AcDbEntity
  8
RACCORDO
100
AcDbLine
 62
250
  6
CONTINUOUS
 10
-27.8039735531
 20
-23.968290399
 11
-28.2958873667
 21
-23.8071087889
  0
LINE
  5
288
100
AcDbEntity
  8
RACCORDO
100
AcDbLine
 62
250
  6
CONTINUOUS
 10
-31.2198144458
 20
-22.8437165541
 11
-32.4591307863
 21
-22.4369753071
  0
LINE
  5
289
100
AcDbEntity
  8
RACCORDO
100
AcDbLine
 62
250
  6
CONTINUOUS
 10
-30.7311085305
 20
-23.0045288936
 11
-31.2198144458
 21
-22.8437165541
  0
LWPOLYLINE
  5
28A
100
AcDbEntity
  8
RACCORDO
100
AcDbPolyline
 62
250
  6
CONTINUOUS
 90
3
 70
0
 10
-28.2958873667
 20
-23.8071087889
 10
-28.7619131384
 20
-23.653325361
 10
-29.2023007896
 20
-23.5073775367
  0
LINE
  5
28B
100
AcDbEntity
  8
RACCORDO
100
AcDbLine
 62
250
  6
CONTINUOUS
 10
-29.2023007896
 20
-23.5073775367
 11
-30.7311085305
 21
-23.0045288936
  0
LINE
  5
28C
100
AcDbEntity
  8
RACCORDO
100
AcDbLine
 62
7
  6
CONTINUOUS
 10
-33.4421452991
 20
-22.3374657645
 11
-33.4427667006
 21
-22.3372594427
  0
LINE
  5
28D
100
AcDbEntity
  8
RACCORDO
100
AcDbLine
 62
250
  6
CONTINUOUS
 10
-33.1267792654
 20
-22.2193225954
 11
-33.2375823607
 21
-22.1824918465
  0
LWPOLYLINE
  5
28E
100
AcDbEntity
  8
RACCORDO
100
AcDbPolyline
 62
250
  6
CONTINUOUS
 90
3
 70
0
 10
-33.2375823607
 20
-22.1824918465
 10
-33.3548050825
 20
-22.1422514617
 10
-33.4764910912
 20
-22.0993612427
  0
LINE
  5
28F
100
AcDbEntity
  8
RACCORDO
100
AcDbLine
 62
250
  6
CONTINUOUS
 10
-33.4764910912
 20
-22.0993612427
 11
-33.6016917654
 21
-22.0540007978
  0
LWPOLYLINE
  5
290
100
AcDbEntity
  8
RACCORDO
100
AcDbPolyline
 62
250
  6
CONTINUOUS
 90
22
 70
0
 10
-33.6016958238
 20
-22.0540065246
 10
-33.7384630596
 20
-22.0011446623
 10
-33.8749715033
 20
-21.9403455417
 10
-34.0103210455
 20
-21.8718931652
 10
-34.1437543088
 20
-21.7960980153
 10
-34.274583734
 20
-21.7133020355
 10
-34.4021075492
 20
-21.6238646302
 10
-34.5256925711
 20
-21.5281738155
 10
-34.6446506442
 20
-21.4267528154
 10
-34.758218135
 20
-21.3202161008
 10
-34.8656903695
 20
-21.209220316
 10
-34.966668538
 20
-21.0942652781
 10
-35.0608317981
 20
-20.9757241883
 10
-35.1477820034
 20
-20.8540130196
 10
-35.2269379963
 20
-20.7299691212
 10
-35.2977238989
 20
-20.6045975994
 10
-35.3597400198
 20
-20.478735227
 10
-35.4128352357
 20
-20.3529318194
 10
-35.456871018
 20
-20.2277696158
 10
-35.4916621506
 20
-20.1039039715
 10
-35.5170549976
 20
-19.9821316437
 10
-35.5329806183
 20
-19.8632999566
  0
LWPOLYLINE
  5
291
100
AcDbEntity
  8
RACCORDO
100
AcDbPolyline
 62
250
  6
CONTINUOUS
 90
5
 70
0
 10
-11.2385992392
 20
-29.2734023753
 10
-11.2705100865
 20
-29.2587899152
 10
-11.3092733913
 20
-29.2247945666
 10
-11.3417645551
 20
-29.175173192
 10
-11.3674239721
 20
-29.1107803731
  0
LWPOLYLINE
  5
292
100
AcDbEntity
  8
RACCORDO
100
AcDbPolyline
 62
250
  6
CONTINUOUS
 90
70
 70
0
 10
-26.2750902232
 20
20.7509410654
 10
-26.2751489177
 20
20.8367896243
 10
-26.2720031083
 20
20.9225844628
 10
-26.2655338622
 20
21.0081290673
 10
-26.2556107692
 20
21.09354186
 10
-26.2420871647
 20
21.1784345921
 10
-26.224910148
 20
21.2619097929
 10
-26.2036091154
 20
21.3441789505
 10
-26.1786082723
 20
21.4246269299
 10
-26.1516194016
 20
21.5012370083
 10
-26.1234664033
 20
21.57354967
 10
-26.0941759885
 20
21.6417440262
 10
-26.0644799114
 20
21.7054623047
 10
-26.0352721738
 20
21.764996997
 10
-26.0060482751
 20
21.8212557742
 10
-25.9754603165
 20
21.8746366094
 10
-25.9432733588
 20
21.9250356622
 10
-25.9099807473
 20
21.9727968155
 10
-25.8751992805
 20
22.0187343139
 10
-25.8388762668
 20
22.0630146872
 10
-25.8012588737
 20
22.1054207056
 10
-25.7622986479
 20
22.1461401543
 10
-25.7220274918
 20
22.1852105336
 10
-25.6805320714
 20
22.2226039516
 10
-25.6378177643
 20
22.2583968243
 10
-25.5937186585
 20
22.2927470853
 10
-25.5485006511
 20
22.3254846237
 10
-25.5028641984
 20
22.3562380824
 10
-25.4569028997
 20
22.3850615758
 10
-25.4107367286
 20
22.4120049008
 10
-25.3651860474
 20
22.4367984043
 10
-25.3206843841
 20
22.4594013878
 10
-25.2770449399
 20
22.48009109
 10
-25.2342051379
 20
22.499101745
 10
-25.1924679569
 20
22.5164611119
 10
-25.1518222234
 20
22.532293649
 10
-25.1116127958
 20
22.5469490299
 10
-25.0716542137
 20
22.5605381805
 10
-25.0318639019
 20
22.57315393
 10
-24.991648979
 20
22.5850544029
 10
-24.9511527299
 20
22.5961916613
 10
-24.9105104991
 20
22.606533682
 10
-24.8691882116
 20
22.6162573
 10
-24.8271637679
 20
22.6253484827
 10
-24.7843840653
 20
22.6337806382
 10
-24.7401729847
 20
22.6416692356
 10
-24.6947800949
 20
22.6489996673
 10
-24.6486064304
 20
22.6556159278
 10
-24.6013934258
 20
22.6613448221
 10
-24.5528968245
 20
22.6660791064
 10
-24.5028993818
 20
22.6698963131
 10
-24.4507881444
 20
22.6729101649
 10
-24.3963382494
 20
22.6750863716
 10
-24.3396596021
 20
22.6762712306
 10
-24.2808255135
 20
22.6763421419
 10
-24.2194844728
 20
22.6751715583
 10
-24.155987992
 20
22.6726640961
 10
-24.0914668197
 20
22.6688184571
 10
-24.0262447541
 20
22.6635924839
 10
-23.9600252592
 20
22.6569870374
 10
-23.8930263646
 20
22.6491460375
 10
-23.8252311129
 20
22.6399633946
 10
-23.7562178778
 20
22.6293543222
 10
-23.6855058481
 20
22.6174653522
 10
-23.6131491611
 20
22.604482074
 10
-23.5393212256
 20
22.5900825766
 10
-23.4637559062
 20
22.5735957712
 10
-23.3866956433
 20
22.5547667877
 10
-23.3084230699
 20
22.5337385741
 10
-23.2288029803
 20
22.5104005045
  0
LWPOLYLINE
  5
293
100
AcDbEntity
  8
RACCORDO
100
AcDbPolyline
 62
250
  6
CONTINUOUS
 90
10
 70
0
 10
-23.4885660009
 20
20.9469793411
 10
-23.4395008734
 20
21.1295311941
 10
-23.3951405793
 20
21.3115563493
 10
-23.3556637491
 20
21.492321543
 10
-23.3212293415
 20
21.6710985872
 10
-23.2919760031
 20
21.8471673022
 10
-23.2680215092
 20
22.0198184186
 10
-23.2494622903
 20
22.1883564334
 10
-23.2363730429
 20
22.3521024124
 10
-23.228806429
 20
22.5103967248
  0
LWPOLYLINE
  5
294
100
AcDbEntity
  8
RACCORDO
100
AcDbPolyline
 62
250
  6
CONTINUOUS
 90
10
 70
0
 10
-12.4823679612
 20
32.4926443624
 10
-12.5412644707
 20
32.4064817528
 10
-12.5984055183
 20
32.308981486
 10
-12.652807008
 20
32.2018226765
 10
-12.7035320239
 20
32.0868507758
 10
-12.7497069654
 20
31.9660457902
 10
-12.790536592
 20
31.841488182
 10
-12.8253177186
 20
31.71532304
 10
-12.8534513261
 20
31.5897231376
 10
-12.8744528768
 20
31.4668515136
  0
LINE
  5
295
100
AcDbEntity
  8
ASSI
100
AcDbLine
 62
250
  6
CONTINUOUS
 10
-21.8672041138
 20
18.4571164974
 11
-22.4577185294
 21
17.7171194989
  0
LWPOLYLINE
  5
296
100
AcDbEntity
  8
RACCORDO
100
AcDbPolyline
 62
250
  6
CONTINUOUS
 90
5
 70
0
 10
9.6920827363
 20
-35.7010120344
 10
9.660169547
 20
-35.686398855
 10
9.621400889
 20
-35.6524018623
 10
9.5889050946
 20
-35.6027790658
 10
9.5632417696
 20
-35.5383850471
  0
LWPOLYLINE
  5
297
100
AcDbEntity
  8
RACCORDO
100
AcDbPolyline
 62
250
  6
CONTINUOUS
 90
10
 70
0
 10
-22.5547859304
 20
-16.5895462422
 10
-22.4997431731
 20
-16.6473727457
 10
-22.4491461122
 20
-16.7161174853
 10
-22.4031985184
 20
-16.7955035524
 10
-22.3620854354
 20
-16.8852111716
 10
-22.3259724352
 20
-16.9848789881
 10
-22.2950049506
 20
-17.0941055242
 10
-22.2693076898
 20
-17.2124507957
 10
-22.248984134
 20
-17.339438085
 10
-22.2341161204
 20
-17.4745558608
  0
LWPOLYLINE
  5
298
100
AcDbEntity
  8
RACCORDO
100
AcDbPolyline
 62
250
  6
CONTINUOUS
 90
10
 70
0
 10
-24.2904199505
 20
-14.5887926963
 10
-24.3776531532
 20
-14.481568674
 10
-24.4753852003
 20
-14.3782070923
 10
-24.5832243974
 20
-14.2791222018
 10
-24.7007385424
 20
-14.1847111123
 10
-24.8274566575
 20
-14.095352202
 10
-24.9628708767
 20
-14.0114036009
 10
-25.1064384818
 20
-13.9332017548
 10
-25.2575840768
 20
-13.8610600781
 10
-25.4157018943
 20
-13.7952676963
  0
LINE
  5
299
100
AcDbEntity
  8
RACCORDO
100
AcDbLine
 62
250
  6
CONTINUOUS
 10
-25.2046252844
 20
-14.7683046711
 11
-25.2328344608
 21
-14.6931106768
  0
LWPOLYLINE
  5
29A
100
AcDbEntity
  8
RACCORDO
100
AcDbPolyline
 62
250
  6
CONTINUOUS
 90
20
 70
0
 10
-25.2328344608
 20
-14.6931106768
 10
-25.2467510911
 20
-14.6548750383
 10
-25.260254743
 20
-14.6160840175
 10
-25.2733374891
 20
-14.5771217729
 10
-25.2860950289
 20
-14.5372930025
 10
-25.298484279
 20
-14.4964027227
 10
-25.3105067275
 20
-14.454489219
 10
-25.3222870745
 20
-14.4111845736
 10
-25.333810678
 20
-14.366399032
 10
-25.3449400813
 20
-14.3202833167
 10
-25.3555877009
 20
-14.2728664456
 10
-25.3656823903
 20
-14.2241389599
 10
-25.3751325115
 20
-14.1741816889
 10
-25.3838240812
 20
-14.1231564611
 10
-25.3916550685
 20
-14.0712054307
 10
-25.3985732537
 20
-14.0182578639
 10
-25.4045321378
 20
-13.9641593538
 10
-25.4094458266
 20
-13.9088925797
 10
-25.4132018739
 20
-13.8525748885
 10
-25.4156987439
 20
-13.7952644095
  0
LWPOLYLINE
  5
29B
100
AcDbEntity
  8
ASSI
100
AcDbPolyline
 62
7
  6
CONTINUOUS
 90
13
 70
0
 10
-21.6798442881
 20
-13.5522009536
 10
-21.6764647132
 20
-13.5841777157
 10
-21.668946772
 20
-13.6159311004
 10
-21.6572904647
 20
-13.6474611079
 10
-21.6411586107
 20
-13.6792935319
 10
-21.6208883904
 20
-13.7109025785
 10
-21.5974913455
 20
-13.7407108668
 10
-21.570808799
 20
-13.7686270135
 10
-21.5409994279
 20
-13.7947424018
 10
-21.5095508043
 20
-13.8177537997
 10
-21.4769587857
 20
-13.8372267964
 10
-21.4427275147
 20
-13.8535958026
 10
-21.4068569913
 20
-13.8668608184
  0
LINE
  5
29C
100
AcDbEntity
  8
RACCORDO
100
AcDbLine
 62
250
  6
CONTINUOUS
 10
-25.4157018943
 20
-13.7952676963
 11
-25.4315359407
 21
-13.2784829913
  0
LINE
  5
29D
100
AcDbEntity
  8
RACCORDO
100
AcDbLine
 62
250
  6
CONTINUOUS
 10
-25.4315359407
 20
-13.2784829913
 11
-25.5308042825
 21
-9.8064121221
  0
LINE
  5
29E
100
AcDbEntity
  8
RACCORDO
100
AcDbLine
 62
250
  6
CONTINUOUS
 10
-25.5308042825
 20
-9.8064121221
 11
-25.5663732481
 21
-8.5241116551
  0
LINE
  5
29F
100
AcDbEntity
  8
RACCORDO
100
AcDbLine
 62
250
  6
CONTINUOUS
 10
-25.5663732481
 20
-8.5241116551
 11
-25.6028982706
 21
-7.1744939452
  0
LINE
  5
2A0
100
AcDbEntity
  8
RACCORDO
100
AcDbLine
 62
250
  6
CONTINUOUS
 10
-25.6028982706
 20
-7.1744939452
 11
-25.6597899135
 21
-5.0156906898
  0
LINE
  5
2A1
100
AcDbEntity
  8
RACCORDO
100
AcDbLine
 62
250
  6
CONTINUOUS
 10
-25.6597899135
 20
-5.0156906898
 11
-25.7196044349
 21
-2.685625695
  0
LWPOLYLINE
  5
2A2
100
AcDbEntity
  8
RACCORDO
100
AcDbPolyline
 62
250
  6
CONTINUOUS
 90
3
 70
0
 10
-25.7196044349
 20
-2.685625695
 10
-25.782773846
 20
-0.1732407524
 10
-25.9856276028
 20
7.9855270772
  0
LINE
  5
2A3
100
AcDbEntity
  8
RACCORDO
100
AcDbLine
 62
250
  6
CONTINUOUS
 10
-24.8500651855
 20
8.044666657
 11
-25.1506687076
 21
19.9918267352
  0
LINE
  5
2A4
100
AcDbEntity
  8
0
100
AcDbLine
 62
250
  6
CONTINUOUS
 10
-23.3565787303
 20
19.9576196787
 11
-22.4974796328
 21
-14.5768121822
  0
LINE
  5
2A5
100
AcDbEntity
  8
RACCORDO
100
AcDbLine
 62
250
  6
CONTINUOUS
 10
-25.9856276028
 20
7.9855270772
 11
-26.045535748
 21
10.4355058488
  0
LINE
  5
2A6
100
AcDbEntity
  8
RACCORDO
100
AcDbLine
 62
250
  6
CONTINUOUS
 10
-26.045535748
 20
10.4355058488
 11
-26.099770077
 21
12.707549925
  0
LWPOLYLINE
  5
2A7
100
AcDbEntity
  8
RACCORDO
100
AcDbPolyline
 62
250
  6
CONTINUOUS
 90
3
 70
0
 10
-24.2904206153
 20
-14.5887929066
 10
-24.3028365534
 20
-14.0645899851
 10
-24.8500651855
 20
8.044666657
  0
LINE
  5
2A8
100
AcDbEntity
  8
RACCORDO
100
AcDbLine
 62
250
  6
CONTINUOUS
 10
-26.099770077
 20
12.707549925
 11
-26.148468788
 21
14.8127142097
  0
LINE
  5
2A9
100
AcDbEntity
  8
RACCORDO
100
AcDbLine
 62
250
  6
CONTINUOUS
 10
-26.148468788
 20
14.8127142097
 11
-26.1779035915
 21
16.1293986
  0
LINE
  5
2AA
100
AcDbEntity
  8
RACCORDO
100
AcDbLine
 62
250
  6
CONTINUOUS
 10
-26.1779035915
 20
16.1293986
 11
-26.2050051837
 21
17.380180979
  0
LWPOLYLINE
  5
2AB
100
AcDbEntity
  8
RACCORDO
100
AcDbPolyline
 62
250
  6
CONTINUOUS
 90
3
 70
0
 10
-26.2050051837
 20
17.380180979
 10
-26.2651479624
 20
20.2314976782
 10
-26.2750937205
 20
20.7509374948
  0
LWPOLYLINE
  5
2AC
100
AcDbEntity
  8
RACCORDO
100
AcDbPolyline
 62
250
  6
CONTINUOUS
 90
70
 70
0
 10
-25.1506687076
 20
19.9918267352
 10
-25.1511542327
 20
20.0364209117
 10
-25.1500159734
 20
20.0810650674
 10
-25.1471880194
 20
20.1256882014
 10
-25.1425857712
 20
20.1703854443
 10
-25.1361528157
 20
20.21490423
 10
-25.1279258421
 20
20.2586716949
 10
-25.1178864
 20
20.3016747169
 10
-25.1060488385
 20
20.3438114636
 10
-25.0926362218
 20
20.3844420795
 10
-25.0776843969
 20
20.4235916174
 10
-25.0613115344
 20
20.4612128753
 10
-25.0440322531
 20
20.4966696355
 10
-25.026232462
 20
20.5297006631
 10
-25.0078757975
 20
20.5607249547
 10
-24.9888834597
 20
20.5901688
 10
-24.9693818065
 20
20.6180589976
 10
-24.94944754
 20
20.6444652526
 10
-24.9288346863
 20
20.6698161383
 10
-24.9075029965
 20
20.6942180865
 10
-24.8855814875
 20
20.7175890857
 10
-24.8630209441
 20
20.7400311144
 10
-24.8398371246
 20
20.7615706156
 10
-24.8160837574
 20
20.7821978612
 10
-24.7917537531
 20
20.8019488145
 10
-24.7667552219
 20
20.8209209442
 10
-24.7412339044
 20
20.8390246792
 10
-24.7155630825
 20
20.8560417766
 10
-24.6897930945
 20
20.8720147253
 10
-24.6639829221
 20
20.886977574
 10
-24.6385697324
 20
20.9007586161
 10
-24.6138028116
 20
20.9133387186
 10
-24.5895804418
 20
20.924878844
 10
-24.5658254642
 20
20.9354958043
 10
-24.5426475139
 20
20.9452197885
 10
-24.5200405977
 20
20.9541295989
 10
-24.4977285694
 20
20.9623852892
 10
-24.4757197759
 20
20.9700304702
 10
-24.4540654538
 20
20.9770849459
 10
-24.4325291035
 20
20.9836400335
 10
-24.4111740376
 20
20.9897002598
 10
-24.3899737415
 20
20.9952976536
 10
-24.368535019
 20
21.0005310661
 10
-24.3468809574
 20
21.0053915472
 10
-24.3249986984
 20
21.0098840755
 10
-24.3024161835
 20
21.0140859506
 10
-24.2791186684
 20
21.0179647272
 10
-24.2551065944
 20
21.0215013489
 10
-24.2299055462
 20
21.0247463244
 10
-24.2033141883
 20
21.0276666501
 10
-24.1754943101
 20
21.0301830047
 10
-24.1465057987
 20
21.0322543127
 10
-24.1163549492
 20
21.0338322896
 10
-24.0850084158
 20
21.0348572685
 10
-24.0524702454
 20
21.0352738452
 10
-24.018528765
 20
21.0350208557
 10
-23.983375628
 20
21.0340349137
 10
-23.9476370484
 20
21.0322960097
 10
-23.9114723781
 20
21.0297993625
 10
-23.8747444778
 20
21.0265161269
 10
-23.8376540825
 20
21.0224423168
 10
-23.800229031
 20
21.0175859017
 10
-23.7624734307
 20
21.0119253062
 10
-23.7245612787
 20
21.0054344848
 10
-23.6868153622
 20
20.9981719585
 10
-23.6489575193
 20
20.9900994891
 10
-23.6102594539
 20
20.981010546
 10
-23.5704891629
 20
20.9707886487
 10
-23.529916935
 20
20.9594583471
 10
-23.4885664086
 20
20.9469793599
  0
LWPOLYLINE
  5
2AD
100
AcDbEntity
  8
0
100
AcDbPolyline
 62
250
  6
CONTINUOUS
 90
5
 70
0
 10
17.4993710265
 20
-27.0902856426
 10
17.5456820627
 20
-27.1010005154
 10
17.590410144
 20
-27.1043222352
 10
17.6321962302
 20
-27.1001498729
 10
17.6482097631
 20
-27.0952318792
  0
LWPOLYLINE
  5
2AE
100
AcDbEntity
  8
RACCORDO
100
AcDbPolyline
 62
250
  6
CONTINUOUS
 90
7
 70
0
 10
17.458371247
 20
-29.6637355112
 10
16.5271320687
 20
-29.386061934
 10
15.5662412996
 20
-29.096394275
 10
14.5770099597
 20
-28.7961479755
 10
13.5603491991
 20
-28.4865122847
 10
12.5165138652
 20
-28.1677274308
 10
11.4459606993
 20
-27.8399688989
  0
LINE
  5
2AF
100
AcDbEntity
  8
RACCORDO
100
AcDbLine
 62
250
  6
CONTINUOUS
 10
-18.6461396976
 20
-17.7889554997
 11
-22.5547854692
 21
-16.5895450251
  0
LWPOLYLINE
  5
2B0
100
AcDbEntity
  8
RACCORDO
100
AcDbPolyline
 62
250
  6
CONTINUOUS
 90
8
 70
0
 10
11.4459606993
 20
-27.8399688989
 10
-16.2284024346
 20
-19.3414410261
 10
-17.2982799991
 20
-19.0118940583
 10
-18.3412944815
 20
-18.6898288821
 10
-19.3572269703
 20
-18.3752792225
 10
-20.3458156767
 20
-18.0681614609
 10
-21.3054525645
 20
-17.7680529808
 10
-22.2341159613
 20
-17.4745556421
  0
LINE
  5
2B1
100
AcDbEntity
  8
RACCORDO
100
AcDbLine
 62
250
  6
CONTINUOUS
 10
17.1690778933
 20
-28.7883586206
 11
-18.6461396976
 21
-17.7889554997
  0
LWPOLYLINE
  5
2B2
100
AcDbEntity
  8
RACCORDO
100
AcDbPolyline
 62
250
  6
CONTINUOUS
 90
85
 70
0
 10
-22.5547854692
 20
-16.5895450251
 10
-22.5965150635
 20
-16.5763248187
 10
-22.6376824432
 20
-16.5624013201
 10
-22.6782603303
 20
-16.5478203767
 10
-22.7179258186
 20
-16.5327418227
 10
-22.7569544807
 20
-16.517107276
 10
-22.7962158717
 20
-16.5005815265
 10
-22.8360025968
 20
-16.4830116337
 10
-22.8759672988
 20
-16.464522434
 10
-22.9160172061
 20
-16.4451461588
 10
-22.9562203712
 20
-16.4248325955
 10
-22.9964556662
 20
-16.4036215328
 10
-23.0363548446
 20
-16.3817030184
 10
-23.0762285958
 20
-16.3589019046
 10
-23.1157202536
 20
-16.335416479
 10
-23.1534976947
 20
-16.3120901147
 10
-23.1891741673
 20
-16.2892704254
 10
-23.2231736409
 20
-16.2667910751
 10
-23.2554172273
 20
-16.2447951239
 10
-23.2857855664
 20
-16.2234612394
 10
-23.3144511754
 20
-16.2027591751
 10
-23.3417682318
 20
-16.1825033539
 10
-23.367620103
 20
-16.1628456313
 10
-23.3921644909
 20
-16.1437318694
 10
-23.4161398199
 20
-16.124625839
 10
-23.4395862745
 20
-16.1055130276
 10
-23.4624680455
 20
-16.0864413215
 10
-23.4853750601
 20
-16.0669236693
 10
-23.5084146841
 20
-16.0468511271
 10
-23.5314499383
 20
-16.0263259058
 10
-23.5546810447
 20
-16.0051519276
 10
-23.578091042
 20
-15.9833170925
 10
-23.6016529542
 20
-15.9608169734
 10
-23.6255370242
 20
-15.9374539176
 10
-23.6496640613
 20
-15.9132624829
 10
-23.6740484193
 20
-15.8881832157
 10
-23.6989759949
 20
-15.8618610088
 10
-23.7246227227
 20
-15.8340207621
 10
-23.7506922614
 20
-15.8048899141
 10
-23.7767634215
 20
-15.7748707513
 10
-23.8028645327
 20
-15.7438734808
 10
-23.8288780237
 20
-15.711977577
 10
-23.8542216085
 20
-15.6798731191
 10
-23.8787831486
 20
-15.6477179936
 10
-23.9026676216
 20
-15.6153901744
 10
-23.925673724
 20
-15.5831851021
 10
-23.9477831661
 20
-15.5511681873
 10
-23.9690389137
 20
-15.5193170888
 10
-23.9893570655
 20
-15.4878032543
 10
-24.0087596087
 20
-15.4566474439
 10
-24.0272684303
 20
-15.4258696835
 10
-24.0448173061
 20
-15.3956431951
 10
-24.0614391381
 20
-15.3659843273
 10
-24.0771640001
 20
-15.3369127074
 10
-24.0919387221
 20
-15.3086078396
 10
-24.1057862748
 20
-15.281119682
 10
-24.1187644346
 20
-15.2544274059
 10
-24.1308830685
 20
-15.2286038574
 10
-24.1421705676
 20
-15.203689114
 10
-24.1526810069
 20
-15.1796631717
 10
-24.1624629857
 20
-15.1565071115
 10
-24.1715163148
 20
-15.1343236328
 10
-24.1799170198
 20
-15.1130222781
 10
-24.1878118411
 20
-15.0922930486
 10
-24.1951728061
 20
-15.072274751
 10
-24.2020734873
 20
-15.0528361152
 10
-24.20877168
 20
-15.0332620598
 10
-24.2152881958
 20
-15.0134668836
 10
-24.2215860356
 20
-14.9935439821
 10
-24.2277910821
 20
-14.9730487532
 10
-24.2339065471
 20
-14.9518873107
 10
-24.239874586
 20
-14.9301656811
 10
-24.2457038623
 20
-14.9077418994
 10
-24.2513711986
 20
-14.8845749201
 10
-24.2568263341
 20
-14.8607249876
 10
-24.2620285316
 20
-14.8362047691
 10
-24.2669422504
 20
-14.8110065276
 10
-24.2715223127
 20
-14.7851651318
 10
-24.2757147053
 20
-14.7587590939
 10
-24.27947294
 20
-14.7318579828
 10
-24.2827653361
 20
-14.7044265103
 10
-24.2855557818
 20
-14.6763894169
 10
-24.2877965744
 20
-14.6477384467
 10
-24.2894352235
 20
-14.6185305475
 10
-24.2904206153
 20
-14.5887929066
  0
LWPOLYLINE
  5
2B3
100
AcDbEntity
  8
RACCORDO
100
AcDbPolyline
 62
250
  6
CONTINUOUS
 90
63
 70
0
 10
-22.2341161204
 20
-17.4745558608
 10
-22.3145367103
 20
-17.4481418723
 10
-22.39393934
 20
-17.4203542486
 10
-22.4724657733
 20
-17.3912128351
 10
-22.549837775
 20
-17.360729509
 10
-22.6259760468
 20
-17.3291471239
 10
-22.7012949163
 20
-17.2967991989
 10
-22.7754848377
 20
-17.2641075663
 10
-22.8483710605
 20
-17.2309309287
 10
-22.9207068359
 20
-17.1966201283
 10
-22.9931633963
 20
-17.1607481869
 10
-23.0656375858
 20
-17.1233938464
 10
-23.1375947779
 20
-17.0847124556
 10
-23.2096249132
 20
-17.0443435852
 10
-23.2809821808
 20
-17.0027293772
 10
-23.3491685349
 20
-16.9614067475
 10
-23.413358463
 20
-16.9210861627
 10
-23.4745060772
 20
-16.8813555439
 10
-23.5328854729
 20
-16.8421496022
 10
-23.5884696232
 20
-16.8036066662
 10
-23.6415825328
 20
-16.765665175
 10
-23.6929570258
 20
-16.7279497288
 10
-23.7424967696
 20
-16.6906140108
 10
-23.7902313043
 20
-16.6537505041
 10
-23.8370081058
 20
-16.616848954
 10
-23.8826635921
 20
-16.5801199141
 10
-23.9270110733
 20
-16.543708633
 10
-23.9708836933
 20
-16.5069006044
 10
-24.0143364295
 20
-16.4696485571
 10
-24.0571973304
 20
-16.4320916207
 10
-24.0999473498
 20
-16.393722254
 10
-24.1426047192
 20
-16.3544560513
 10
-24.1852228676
 20
-16.3142214146
 10
-24.2282881371
 20
-16.2725133988
 10
-24.2717603332
 20
-16.2293116314
 10
-24.3156664315
 20
-16.1844973804
 10
-24.3605063439
 20
-16.1374186075
 10
-24.4065864393
 20
-16.0875950923
 10
-24.4533471327
 20
-16.0354593728
 10
-24.4999922692
 20
-15.9817354276
 10
-24.5465613515
 20
-15.9262705412
 10
-24.5928492082
 20
-15.8692117295
 10
-24.6377972877
 20
-15.811794192
 10
-24.6811953017
 20
-15.7543067369
 10
-24.7232361029
 20
-15.6965383488
 10
-24.7635661797
 20
-15.639018725
 10
-24.8021478189
 20
-15.5818688968
 10
-24.8390615986
 20
-15.5250556165
 10
-24.8741789979
 20
-15.4688877997
 10
-24.9075394132
 20
-15.4134045498
 10
-24.9391823342
 20
-15.3586479989
 10
-24.9690094906
 20
-15.3049391738
 10
-24.9970731768
 20
-15.2523194488
 10
-25.0234309227
 20
-15.200827293
 10
-25.048034432
 20
-15.1507604339
 10
-25.070945641
 20
-15.1021811209
 10
-25.0922599976
 20
-15.0550562508
 10
-25.1119758363
 20
-15.0095861024
 10
-25.13001429
 20
-14.9659677632
 10
-25.1465803426
 20
-14.9241096499
 10
-25.1621649083
 20
-14.8836066733
 10
-25.1768195701
 20
-14.8444237766
 10
-25.2046252844
 20
-14.7683046711
  0
LWPOLYLINE
  5
2B4
100
AcDbEntity
  8
RACCORDO
100
AcDbPolyline
 62
250
  6
CONTINUOUS
 90
7
 70
0
 10
32.0550793244
 20
-42.4510615792
 10
32.0185906277
 20
-42.4335497623
 10
31.9870096269
 20
-42.4039033652
 10
31.9599119388
 20
-42.3622688695
 10
31.9376527766
 20
-42.3091920163
 10
31.9205239308
 20
-42.2453685303
 10
31.9087499451
 20
-42.1716350003
  0
LINE
  5
2B5
100
AcDbEntity
  8
ASSI
100
AcDbLine
 62
7
  6
CONTINUOUS
 10
-21.2277119107
 20
-13.9218745371
 11
-21.2804832004
 21
-13.8823628582
  0
LINE
  5
2B6
100
AcDbEntity
  8
ASSI
100
AcDbLine
 62
7
  6
CONTINUOUS
 10
-21.2804832004
 20
-13.8823628582
 11
-21.4472413591
 21
-13.7407235069
  0
LINE
  5
2B7
100
AcDbEntity
  8
ASSI
100
AcDbLine
 62
7
  6
CONTINUOUS
 10
-21.4472413591
 20
-13.7407235069
 11
-21.6058074145
 21
-13.5888134575
  0
LINE
  5
2B8
100
AcDbEntity
  8
ASSI
100
AcDbLine
 62
7
  6
CONTINUOUS
 10
-21.6058074145
 20
-13.5888134575
 11
-21.6809552523
 21
-13.5075419408
  0
LWPOLYLINE
  5
2B9
100
AcDbEntity
  8
RACCORDO
100
AcDbPolyline
 62
250
  6
CONTINUOUS
 90
10
 70
0
 10
-13.1595621362
 20
-19.4737734313
 10
-13.1060861906
 20
-19.5327364376
 10
-13.0571818357
 20
-19.6028740205
 10
-13.0130511913
 20
-19.6838964046
 10
-12.973881367
 20
-19.7754674016
 10
-12.9398295723
 20
-19.8772101353
 10
-12.9110224477
 20
-19.9887086036
 10
-12.8875743317
 20
-20.1095036273
 10
-12.8695867691
 20
-20.2390947521
 10
-12.8571339741
 20
-20.376946652
  0
LWPOLYLINE
  5
2BA
100
AcDbEntity
  8
0
100
AcDbPolyline
 62
250
  6
CONTINUOUS
 90
10
 70
0
 10
-22.4974796328
 20
-14.5768121822
 10
-22.4924154494
 20
-14.6184502246
 10
-22.4793863754
 20
-14.6613163098
 10
-22.4587882924
 20
-14.7041079733
 10
-22.4312470629
 20
-14.7455250123
 10
-22.3975995131
 20
-14.7843089908
 10
-22.3588680069
 20
-14.8192814774
 10
-22.3162293814
 20
-14.8493798507
 10
-22.2709791897
 20
-14.873689587
 10
-22.224492336
 20
-14.891472047
  0
LINE
  5
2BB
100
AcDbEntity
  8
ASSI
100
AcDbLine
 62
7
  6
CONTINUOUS
 10
-22.5069640326
 20
19.696711236
 11
-22.4577185294
 21
17.7171194989
  0
LINE
  5
2BC
100
AcDbEntity
  8
ASSI
100
AcDbLine
 62
7
  6
CONTINUOUS
 10
-21.7622181391
 20
-10.2409017643
 11
-21.6798442881
 21
-13.5522009536
  0
LINE
  5
2BD
100
AcDbEntity
  8
ASSI
100
AcDbLine
 62
7
  6
CONTINUOUS
 10
-21.8672041138
 20
18.4571164974
 11
-21.1717037235
 21
-9.5009047659
  0
LWPOLYLINE
  5
2BE
100
AcDbEntity
  8
ASSI
100
AcDbPolyline
 62
7
  6
CONTINUOUS
 90
7
 70
0
 10
-21.1717037235
 20
-9.5009047659
 10
-21.1766429489
 20
-9.6713175409
 10
-21.1983661719
 20
-9.8326622075
 10
-21.2368733925
 20
-9.9849387657
 10
-21.2927242719
 20
-10.1291888102
 10
-21.3653591489
 20
-10.2643707462
 10
-21.4442028165
 20
-10.3763455323
  0
LINE
  5
2BF
100
AcDbEntity
  8
RACCORDO
100
AcDbLine
 62
7
  6
CONTINUOUS
 10
8.5224329593
 20
-20.7614938133
 11
8.7056723458
 21
-20.7231159911
  0
LWPOLYLINE
  5
2C0
100
AcDbEntity
  8
RACCORDO
100
AcDbPolyline
 62
7
  6
CONTINUOUS
 90
4
 70
0
 10
8.7546382541
 20
-20.7203923578
 10
8.7680276302
 20
-20.7218382608
 10
8.7813956237
 20
-20.7248452212
 10
8.7846280624
 20
-20.7257940835
  0
LINE
  5
2C1
100
AcDbEntity
  8
0
100
AcDbLine
 62
250
  6
CONTINUOUS
 10
-22.224492336
 20
-14.891472047
 11
17.4993710265
 21
-27.0902856426
  0
LINE
  5
2C2
100
AcDbEntity
  8
ASSI
100
AcDbLine
 62
7
  6
CONTINUOUS
 10
-21.4068569913
 20
-13.8668608184
 11
-17.6030617467
 21
-15.034969487
  0
LINE
  5
2C3
100
AcDbEntity
  8
ASSI
100
AcDbLine
 62
7
  6
CONTINUOUS
 10
14.5132111266
 20
-24.8975657453
 11
17.6172522033
 21
-25.8507866882
  0
LINE
  5
2C4
100
AcDbEntity
  8
ASSI
100
AcDbLine
 62
7
  6
CONTINUOUS
 10
-17.0125473311
 20
-14.2949724886
 11
15.1037255422
 21
-24.1575687469
  0
LINE
  5
2C5
100
AcDbEntity
  8
DRAFT
100
AcDbLine
 62
7
  6
CONTINUOUS
 10
13.1283543961
 20
-23.4870628731
 11
7.5957311942
 21
-21.7880478876
  0
LINE
  5
2C6
100
AcDbEntity
  8
DRAFT
100
AcDbLine
 62
7
  6
CONTINUOUS
 10
-6.9117112015
 20
-17.3329528753
 11
-12.4443344035
 21
-15.6339378898
  0
LINE
  5
2C7
100
AcDbEntity
  8
DRAFT
100
AcDbLine
 62
7
  6
CONTINUOUS
 10
-6.9117112015
 20
-17.3329528753
 11
-6.847683414
 21
-17.3617209838
  0
LWPOLYLINE
  5
2C8
100
AcDbEntity
  8
RACCORDO
100
AcDbPolyline
 62
250
  6
CONTINUOUS
 90
10
 70
0
 10
-14.0931994532
 20
18.056385234
 10
-14.0457877198
 20
18.2418207398
 10
-14.0032106909
 20
18.426642808
 10
-13.965644285
 20
18.6100879294
 10
-13.9332437212
 20
18.7913982836
 10
-13.9061428779
 20
18.9698248687
 10
-13.8844537402
 20
19.1446305964
 10
-13.8682659364
 20
19.315093336
 10
-13.8576463687
 20
19.4805088986
 10
-13.8526389361
 20
19.6401939452
  0
LWPOLYLINE
  5
2C9
100
AcDbEntity
  8
RACCORDO
100
AcDbPolyline
 62
7
  6
CONTINUOUS
 90
4
 70
0
 10
-11.2854273436
 20
-14.56628236
 10
-11.2720379675
 20
-14.567728263
 10
-11.258669974
 20
-14.5707352235
 10
-11.2554375353
 20
-14.5716840858
  0
LINE
  5
2CA
100
AcDbEntity
  8
DRAFT
100
AcDbLine
 62
7
  6
CONTINUOUS
 10
13.2506235491
 20
-23.3119940251
 11
7.7460071561
 21
-21.6215796593
  0
LINE
  5
2CB
100
AcDbEntity
  8
DRAFT
100
AcDbLine
 62
7
  6
CONTINUOUS
 10
-6.7894420486
 20
-17.1578840274
 11
-12.2940584416
 21
-15.4674696616
  0
LINE
  5
2CC
100
AcDbEntity
  8
DRAFT
100
AcDbLine
 62
7
  6
CONTINUOUS
 10
13.3321363178
 20
-23.1952814598
 11
7.8461911307
 21
-21.5106008405
  0
LINE
  5
2CD
100
AcDbEntity
  8
DRAFT
100
AcDbLine
 62
7
  6
CONTINUOUS
 10
-6.7079292799
 20
-17.0411714621
 11
-12.193874467
 21
-15.3564908427
  0
LINE
  5
2CE
100
AcDbEntity
  8
DRAFT
100
AcDbLine
 62
7
  6
CONTINUOUS
 10
13.4544054707
 20
-23.0202126119
 11
7.9964670926
 21
-21.3441326122
  0
LINE
  5
2CF
100
AcDbEntity
  8
DRAFT
100
AcDbLine
 62
7
  6
CONTINUOUS
 10
-6.5856601269
 20
-16.8661026141
 11
-12.0435985051
 21
-15.1900226145
  0
LINE
  5
2D0
100
AcDbEntity
  8
DRAFT
100
AcDbLine
 62
7
  6
CONTINUOUS
 10
13.5359182394
 20
-22.9035000466
 11
8.0966510672
 21
-21.2331537934
  0
LINE
  5
2D1
100
AcDbEntity
  8
DRAFT
100
AcDbLine
 62
7
  6
CONTINUOUS
 10
-6.5041473583
 20
-16.7493900488
 11
-11.9434145305
 21
-15.0790437956
  0
LINE
  5
2D2
100
AcDbEntity
  8
DRAFT
100
AcDbLine
 62
7
  6
CONTINUOUS
 10
13.6581873924
 20
-22.7284311986
 11
8.2469270291
 21
-21.0666855651
  0
LINE
  5
2D3
100
AcDbEntity
  8
DRAFT
100
AcDbLine
 62
7
  6
CONTINUOUS
 10
-6.3818782053
 20
-16.5743212009
 11
-11.7931385686
 21
-14.9125755674
  0
LINE
  5
2D4
100
AcDbEntity
  8
DRAFT
100
AcDbLine
 62
7
  6
CONTINUOUS
 10
13.739700161
 20
-22.6117186333
 11
8.3471110037
 21
-20.9557067463
  0
LINE
  5
2D5
100
AcDbEntity
  8
DRAFT
100
AcDbLine
 62
7
  6
CONTINUOUS
 10
-6.3003654366
 20
-16.4576086356
 11
-11.692954594
 21
-14.8015967486
  0
LINE
  5
2D6
100
AcDbEntity
  8
DRAFT
100
AcDbLine
 62
7
  6
CONTINUOUS
 10
13.861969314
 20
-22.4366497854
 11
8.4973869656
 21
-20.789238518
  0
LINE
  5
2D7
100
AcDbEntity
  8
DRAFT
100
AcDbLine
 62
7
  6
CONTINUOUS
 10
-6.1780962836
 20
-16.2825397876
 11
-11.5426786321
 21
-14.6351285203
  0
LINE
  5
2D8
100
AcDbEntity
  8
DRAFT
100
AcDbLine
 62
7
  6
CONTINUOUS
 10
13.8823475062
 20
-22.4074716441
 11
8.5224329593
 21
-20.7614938133
  0
LINE
  5
2D9
100
AcDbEntity
  8
DRAFT
100
AcDbLine
 62
7
  6
CONTINUOUS
 10
-6.1577180915
 20
-16.2533616463
 11
-11.5176326384
 21
-14.6073838156
  0
LINE
  5
2DA
100
AcDbEntity
  8
RACCORDO
100
AcDbLine
 62
250
  6
CONTINUOUS
 10
-11.2854273436
 20
-14.56628236
 11
-5.9943522284
 21
-16.1911202682
  0
LINE
  5
2DB
100
AcDbEntity
  8
RACCORDO
100
AcDbLine
 62
250
  6
CONTINUOUS
 10
8.7546382541
 20
-20.7203923578
 11
14.0457133692
 21
-22.3452302659
  0
LINE
  5
2DC
100
AcDbEntity
  8
RACCORDO
100
AcDbLine
 62
7
  6
CONTINUOUS
 10
-11.2555211702
 20
-14.5716583778
 11
-5.9993154612
 21
-16.1857882292
  0
LINE
  5
2DD
100
AcDbEntity
  8
RACCORDO
100
AcDbLine
 62
7
  6
CONTINUOUS
 10
8.7845444275
 20
-20.7257683756
 11
14.0407501365
 21
-22.3398982269
  0
LWPOLYLINE
  5
2DE
100
AcDbEntity
  8
ASSI
100
AcDbPolyline
 62
7
  6
CONTINUOUS
 90
9
 70
0
 10
15.1037255422
 20
-24.1575687469
 10
15.3029472219
 20
-24.2267379224
 10
15.4979996068
 20
-24.3090412625
 10
15.6888826967
 20
-24.4044787673
 10
15.8770139428
 20
-24.5139954779
 10
16.060975894
 20
-24.636646353
 10
16.2365161972
 20
-24.7695962695
 10
16.4022174014
 20
-24.9119001862
 10
16.5594969577
 20
-25.0645031441
  0
LINE
  5
2DF
100
AcDbEntity
  8
DRAFT
100
AcDbLine
 62
7
  6
CONTINUOUS
 10
-6.7079292799
 20
-17.0411714621
 11
-6.6439014923
 21
-17.0699395705
  0
LINE
  5
2E0
100
AcDbEntity
  8
DRAFT
100
AcDbLine
 62
7
  6
CONTINUOUS
 10
-6.5041473583
 20
-16.7493900488
 11
-6.4401195707
 21
-16.7781581573
  0
LINE
  5
2E1
100
AcDbEntity
  8
DRAFT
100
AcDbLine
 62
7
  6
CONTINUOUS
 10
-6.3003654366
 20
-16.4576086356
 11
-6.2363376491
 21
-16.4863767441
  0
LINE
  5
2E2
100
AcDbEntity
  8
DRAFT
100
AcDbLine
 62
7
  6
CONTINUOUS
 10
13.1283543961
 20
-23.4870628731
 11
13.1923821837
 21
-23.5158309815
  0
LINE
  5
2E3
100
AcDbEntity
  8
DRAFT
100
AcDbLine
 62
7
  6
CONTINUOUS
 10
13.3321363178
 20
-23.1952814598
 11
13.3961641053
 21
-23.2240495683
  0
LINE
  5
2E4
100
AcDbEntity
  8
DRAFT
100
AcDbLine
 62
7
  6
CONTINUOUS
 10
13.5359182394
 20
-22.9035000466
 11
13.599946027
 21
-22.932268155
  0
LINE
  5
2E5
100
AcDbEntity
  8
DRAFT
100
AcDbLine
 62
7
  6
CONTINUOUS
 10
13.739700161
 20
-22.6117186333
 11
13.8037279486
 21
-22.6404867418
  0
LWPOLYLINE
  5
2E6
100
AcDbEntity
  8
RACCORDO
100
AcDbPolyline
 62
250
  6
CONTINUOUS
 90
10
 70
0
 10
-24.717046901
 20
2.6969862694
 10
-24.8069611198
 20
2.8032362938
 10
-24.9076280327
 20
2.9054585156
 10
-25.0186323395
 20
3.0032312113
 10
-25.1395160935
 20
3.0961510137
 10
-25.2697805903
 20
3.1838345764
 10
-25.4088884254
 20
3.2659201548
 10
-25.5562657113
 20
3.3420690989
 10
-25.7113044449
 20
3.4119672499
 10
-25.8733650161
 20
3.4753262368
  0
LWPOLYLINE
  5
2E7
100
AcDbEntity
  8
RACCORDO
100
AcDbPolyline
 62
250
  6
CONTINUOUS
 90
11
 70
0
 10
-23.5251773911
 20
20.1002369613
 10
-23.5437353386
 20
20.1563229849
 10
-23.5575022692
 20
20.2210635431
 10
-23.5663241245
 20
20.2937341591
 10
-23.5701021839
 20
20.3735216152
 10
-23.5687935166
 20
20.4595481028
 10
-23.5624117023
 20
20.5508376775
 10
-23.5510352184
 20
20.6463189643
 10
-23.5348019558
 20
20.7449016377
 10
-23.5138989677
 20
20.8454966245
 10
-23.4885664086
 20
20.9469793599
  0
LWPOLYLINE
  5
2E8
100
AcDbEntity
  8
RACCORDO
100
AcDbPolyline
 62
250
  6
CONTINUOUS
 90
10
 70
0
 10
-12.8572134832
 20
-20.3769222336
 10
-12.7850857186
 20
-21.3184133245
 10
-12.6942240293
 20
-22.2738804847
 10
-12.58315206
 20
-23.2392310345
 10
-12.4504043065
 20
-24.2088005568
 10
-12.2937254631
 20
-25.1825530797
 10
-12.1096821893
 20
-26.1644085394
 10
-11.8953259994
 20
-27.1515492541
 10
-11.6487252931
 20
-28.1356504933
 10
-11.3674507437
 20
-29.1107721088
  0
LWPOLYLINE
  5
2E9
100
AcDbEntity
  8
RACCORDO
100
AcDbPolyline
 62
250
  6
CONTINUOUS
 90
10
 70
0
 10
-13.8526831356
 20
19.6402075184
 10
-13.8303513556
 20
20.7000994355
 10
-13.791071907
 20
21.8187094267
 10
-13.7332770627
 20
22.9957310844
 10
-13.6553348838
 20
24.2293533602
 10
-13.5551377616
 20
25.524982933
 10
-13.4296364003
 20
26.8946768599
 10
-13.2759033821
 20
28.343014007
 10
-13.0917004108
 20
29.8669345597
 10
-12.8744303552
 20
31.4668445975
  0
LINE
  5
2EA
100
AcDbEntity
  8
RACCORDO
100
AcDbLine
 62
7
  6
CONTINUOUS
 10
-11.5176326384
 20
-14.6073838156
 11
-11.3343932519
 21
-14.5690059933
  0
LWPOLYLINE
  5
2EB
100
AcDbEntity
  8
RACCORDO
100
AcDbPolyline
 62
250
  6
CONTINUOUS
 90
10
 70
0
 10
18.394534682
 20
-10.5421627716
 10
18.5852498066
 20
-10.5220951893
 10
18.777321785
 20
-10.5097741039
 10
18.969958227
 20
-10.5052503387
 10
19.1623644133
 20
-10.5085425489
 10
19.3537465751
 20
-10.5196371455
 10
19.5433151676
 20
-10.5384883507
 10
19.7302881284
 20
-10.5650183866
 10
19.9138941029
 20
-10.599117797
 10
20.0933756272
 20
-10.6406458977
  0
LWPOLYLINE
  5
2EC
100
AcDbEntity
  8
RACCORDO
100
AcDbPolyline
 62
250
  6
CONTINUOUS
 90
10
 70
0
 10
-36.449367973
 20
8.6490335736
 10
-35.2190466977
 20
7.8820078262
 10
-33.9928261234
 20
7.1690613537
 10
-32.7763671542
 20
6.5080078109
 10
-31.5776874438
 20
5.8979762061
 10
-30.3989591077
 20
5.3351986135
 10
-29.2360535887
 20
4.8136037457
 10
-28.0903199221
 20
4.3302732692
 10
-26.968545667
 20
3.8847951558
 10
-25.8733648232
 20
3.4753182399
  0
LWPOLYLINE
  5
2ED
100
AcDbEntity
  8
RACCORDO
100
AcDbPolyline
 62
250
  6
CONTINUOUS
 90
10
 70
0
 10
7.7708668291
 20
-25.9013053934
 10
7.8243723632
 20
-25.9602774749
 10
7.8733059149
 20
-26.0304240105
 10
7.9174653636
 20
-26.111455227
 10
7.9566683112
 20
-26.2030363854
 10
7.9907528351
 20
-26.304789164
 10
8.0195781576
 20
-26.4162932211
 10
8.0430252271
 20
-26.5370879314
 10
8.0609972102
 20
-26.6666742893
 10
8.0734198915
 20
-26.8045169698
  0
LWPOLYLINE
  5
2EE
100
AcDbEntity
  8
RACCORDO
100
AcDbPolyline
 62
7
  6
CONTINUOUS
 90
4
 70
0
 10
-5.9943522284
 20
-16.1911202682
 10
-5.9959826419
 20
-16.1879537393
 10
-5.9986523191
 20
-16.1860356865
 10
-5.9994573123
 20
-16.1857446925
  0
LINE
  5
2EF
100
AcDbEntity
  8
RACCORDO
100
AcDbLine
 62
7
  6
CONTINUOUS
 10
-5.9943522284
 20
-16.1911202682
 11
-5.9942142041
 21
-16.1924213249
  0
LWPOLYLINE
  5
2F0
100
AcDbEntity
  8
RACCORDO
100
AcDbPolyline
 62
250
  6
CONTINUOUS
 90
10
 70
0
 10
8.4483913298
 20
26.0650109615
 10
8.3894861856
 20
25.9788510042
 10
8.3323369621
 20
25.8813532487
 10
8.2779277551
 20
25.7741968095
 10
8.2271953926
 20
25.659227165
 10
8.1810135633
 20
25.5384242944
 10
8.1401777715
 20
25.4138685791
 10
8.1053912901
 20
25.2877050808
 10
8.0772530505
 20
25.1621066
 10
8.0562475904
 20
25.0392361756
  0
LWPOLYLINE
  5
2F1
100
AcDbEntity
  8
RACCORDO
100
AcDbPolyline
 62
250
  6
CONTINUOUS
 90
22
 70
0
 10
-22.224492336
 20
-14.891472047
 10
-22.2723462727
 20
-14.9559089241
 10
-22.3194495797
 20
-15.0282936208
 10
-22.3652756549
 20
-15.1078168957
 10
-22.4093121751
 20
-15.1935897001
 10
-22.4510668237
 20
-15.2846531172
 10
-22.4900727951
 20
-15.3799890823
 10
-22.5258940131
 20
-15.4785317652
 10
-22.558130006
 20
-15.5791794851
 10
-22.5864203841
 20
-15.6808070277
 10
-22.6104488686
 20
-15.7822782244
 10
-22.6299468276
 20
-15.8824586545
 10
-22.6446962791
 20
-15.9802283279
 10
-22.6545323282
 20
-16.0744942058
 10
-22.6593450105
 20
-16.1642024212
 10
-22.6590805216
 20
-16.2483500605
 10
-22.6537434217
 20
-16.3259812601
 10
-22.6433938185
 20
-16.3962462429
 10
-22.6281365709
 20
-16.4583951614
 10
-22.6081290214
 20
-16.5117269739
 10
-22.5835895426
 20
-16.5556136732
 10
-22.5547854692
 20
-16.5895450251
  0
LINE
  5
2F2
100
AcDbEntity
  8
ASSI
100
AcDbLine
 62
250
  6
CONTINUOUS
 10
-21.7622181391
 20
-10.2409017643
 11
-21.1717037235
 21
-9.5009047659
  0
LINE
  5
2F3
100
AcDbEntity
  8
ASSI
100
AcDbLine
 62
7
  6
CONTINUOUS
 10
-21.749336566
 20
-10.7587207324
 11
-21.4442965873
 21
-10.3764630556
  0
LINE
  5
2F4
100
AcDbEntity
  8
ASSI
100
AcDbLine
 62
250
  6
CONTINUOUS
 10
-21.6798442881
 20
-13.5522009536
 11
-22.4974796328
 21
-14.5768121822
  0
LINE
  5
2F5
100
AcDbEntity
  8
ASSI
100
AcDbLine
 62
250
  6
CONTINUOUS
 10
-21.4068569913
 20
-13.8668608184
 11
-22.224492336
 21
-14.891472047
  0
LWPOLYLINE
  5
2F6
100
AcDbEntity
  8
RACCORDO
100
AcDbPolyline
 62
250
  6
CONTINUOUS
 90
10
 70
0
 10
33.1381607272
 20
-12.7206223292
 10
31.4089385479
 20
-12.5788009537
 10
29.751516535
 20
-12.4062087243
 10
28.1665278062
 20
-12.2069648192
 10
26.6577207816
 20
-11.9855534778
 10
25.2215872461
 20
-11.7453323222
 10
23.8478438833
 20
-11.4879468935
 10
22.5335657534
 20
-11.2158315797
 10
21.2823369659
 20
-10.9325834483
 10
20.0933750397
 20
-10.6406222482
  0
LWPOLYLINE
  5
2F7
100
AcDbEntity
  8
ASSI
100
AcDbPolyline
 62
7
  6
CONTINUOUS
 90
5
 70
0
 10
17.2498522115
 20
-25.73796171
 10
17.1769526958
 20
-25.6825949265
 10
17.0124118624
 20
-25.5410156196
 10
16.8562125858
 20
-25.3892856919
 10
16.5594969577
 20
-25.0645031441
  0
LWPOLYLINE
  5
2F8
100
AcDbEntity
  8
ASSI
100
AcDbPolyline
 62
7
  6
CONTINUOUS
 90
8
 70
0
 10
-22.2518082028
 20
19.6183553526
 10
-22.1973753745
 20
19.5313776925
 10
-22.1021184072
 20
19.3521920864
 10
-22.0215877103
 20
19.1699744865
 10
-21.9576447826
 20
18.9889369244
 10
-21.9109101238
 20
18.8104834109
 10
-21.8807632342
 20
18.6332099352
 10
-21.8672041138
 20
18.4571164974
  0
LINE
  5
2F9
100
AcDbEntity
  8
RACCORDO
100
AcDbLine
 62
250
  6
CONTINUOUS
 10
-6.0078861969
 20
-16.204724707
 11
-5.9913569048
 21
-16.8691762393
  0
LINE
  5
2FA
100
AcDbEntity
  8
RACCORDO
100
AcDbLine
 62
7
  6
CONTINUOUS
 10
-5.9942211549
 20
-16.1924198708
 11
-5.9783866165
 21
-16.8289433981
  0
LINE
  5
2FB
100
AcDbEntity
  8
RACCORDO
100
AcDbLine
 62
250
  6
CONTINUOUS
 10
-5.9783866165
 20
-16.8289433981
 11
-5.9783810133
 21
-16.8316715868
  0
LWPOLYLINE
  5
2FC
100
AcDbEntity
  8
RACCORDO
100
AcDbPolyline
 62
250
  6
CONTINUOUS
 90
6
 70
0
 10
-5.9913569048
 20
-16.8691762393
 10
-5.9916963052
 20
-16.8809995647
 10
-5.9935399248
 20
-16.8922909049
 10
-5.9968674687
 20
-16.902925961
 10
-6.0016429655
 20
-16.9127887931
 10
-6.0044156093
 20
-16.9171881682
  0
LWPOLYLINE
  5
2FD
100
AcDbEntity
  8
RACCORDO
100
AcDbPolyline
 62
250
  6
CONTINUOUS
 90
5
 70
0
 10
-5.9783810133
 20
-16.8316715868
 10
-5.9793528844
 20
-16.8412796785
 10
-5.9818593893
 20
-16.850797581
 10
-5.9858745687
 20
-16.8601284618
 10
-5.9913569048
 20
-16.8691762393
  0
LINE
  5
2FE
100
AcDbEntity
  8
DRAFT
100
AcDbLine
 62
7
  6
CONTINUOUS
 10
-12.3633362297
 20
-15.6588116443
 11
-12.2940584416
 21
-15.4674696616
  0
LINE
  5
2FF
100
AcDbEntity
  8
DRAFT
100
AcDbLine
 62
7
  6
CONTINUOUS
 10
-12.1128762931
 20
-15.3813645972
 11
-12.0435985051
 21
-15.1900226145
  0
LINE
  5
300
100
AcDbEntity
  8
DRAFT
100
AcDbLine
 62
7
  6
CONTINUOUS
 10
-11.8624163566
 20
-15.1039175501
 11
-11.7931385686
 21
-14.9125755674
  0
LINE
  5
301
100
AcDbEntity
  8
DRAFT
100
AcDbLine
 62
7
  6
CONTINUOUS
 10
-11.6119564201
 20
-14.826470503
 11
-11.5426786321
 21
-14.6351285203
  0
LINE
  5
302
100
AcDbEntity
  8
ASSI
100
AcDbLine
 62
250
  6
CONTINUOUS
 10
-18.5882445443
 20
-14.3881614164
 11
-18.808896626
 21
-14.6646692777
  0
LINE
  5
303
100
AcDbEntity
  8
ASSI
100
AcDbLine
 62
250
  6
CONTINUOUS
 10
-17.0125473311
 20
-14.2949724886
 11
-17.6030617467
 21
-15.034969487
  0
LWPOLYLINE
  5
304
100
AcDbEntity
  8
RACCORDO
100
AcDbPolyline
 62
250
  6
CONTINUOUS
 90
22
 70
0
 10
-22.4974796328
 20
-14.5768121822
 10
-22.5504908519
 20
-14.6354556584
 10
-22.612889807
 20
-14.6903765842
 10
-22.6839771856
 20
-14.7409594544
 10
-22.762956303
 20
-14.7866373808
 10
-22.8489420309
 20
-14.8268984454
 10
-22.9409707173
 20
-14.8612914379
 10
-23.0380109857
 20
-14.8894309118
 10
-23.1389752946
 20
-14.9110015047
 10
-23.2427321248
 20
-14.9257614726
 10
-23.3481186615
 20
-14.9335453987
 10
-23.4539538254
 20
-14.9342660476
 10
-23.5590515092
 20
-14.9279153429
 10
-23.6622338709
 20
-14.9145644577
 10
-23.7623445336
 20
-14.894363017
 10
-23.8582615453
 20
-14.8675374207
 10
-23.9488976232
 20
-14.8343933963
 10
-24.0332510936
 20
-14.7952989753
 10
-24.1104077566
 20
-14.7506722528
 10
-24.1795018416
 20
-14.700999688
 10
-24.2397355947
 20
-14.6468388161
 10
-24.2904206153
 20
-14.5887929066
  0
LWPOLYLINE
  5
305
100
AcDbEntity
  8
RACCORDO
100
AcDbPolyline
 62
250
  6
CONTINUOUS
 90
10
 70
0
 10
17.1690782754
 20
-28.788357612
 10
17.2204438663
 20
-28.8450557548
 10
17.267377904
 20
-28.9126763675
 10
17.3096912622
 20
-28.9909470373
 10
17.3472134276
 20
-29.0795524504
 10
17.3797931871
 20
-29.1781356619
 10
17.4072992363
 20
-29.2862995338
 10
17.4296207092
 20
-29.4036083348
 10
17.4466676243
 20
-29.5295894952
 10
17.458371247
 20
-29.6637355112
  0
LWPOLYLINE
  5
306
100
AcDbEntity
  8
RACCORDO
100
AcDbPolyline
 62
250
  6
CONTINUOUS
 90
10
 70
0
 10
-25.1506683988
 20
19.9918268329
 10
-25.2378005994
 20
20.0950147615
 10
-25.335432081
 20
20.1943565087
 10
-25.4431715518
 20
20.2894539326
 10
-25.5605872087
 20
20.3799259017
 10
-25.6872084681
 20
20.4654098224
 10
-25.8225278514
 20
20.5455630921
 10
-25.9660030197
 20
20.6200644722
 10
-26.1170589465
 20
20.6886153762
 10
-26.2750902232
 20
20.7509410654
  0
LINE
  5
307
100
AcDbEntity
  8
DRAFT
100
AcDbLine
 62
7
  6
CONTINUOUS
 10
-6.847683414
 20
-17.3617209838
 11
-6.7894420486
 21
-17.1578840274
  0
LINE
  5
308
100
AcDbEntity
  8
DRAFT
100
AcDbLine
 62
7
  6
CONTINUOUS
 10
-6.6439014923
 20
-17.0699395705
 11
-6.5856601269
 21
-16.8661026141
  0
LINE
  5
309
100
AcDbEntity
  8
DRAFT
100
AcDbLine
 62
7
  6
CONTINUOUS
 10
-6.4401195707
 20
-16.7781581573
 11
-6.3818782053
 21
-16.5743212009
  0
LINE
  5
30A
100
AcDbEntity
  8
DRAFT
100
AcDbLine
 62
7
  6
CONTINUOUS
 10
-6.2363376491
 20
-16.4863767441
 11
-6.1780962836
 21
-16.2825397876
  0
LINE
  5
30B
100
AcDbEntity
  8
0
100
AcDbLine
 62
7
  6
CONTINUOUS
 10
35.9398142687
 20
-13.1871165443
 11
36.7858083251
 21
-13.446913123
  0
LWPOLYLINE
  5
30C
100
AcDbEntity
  8
RACCORDO
100
AcDbPolyline
 62
250
  6
CONTINUOUS
 90
10
 70
0
 10
6.8372443605
 20
11.6288487124
 10
6.8846857046
 20
11.8142751708
 10
6.927291943
 20
11.9990883019
 10
6.9648871581
 20
12.1825245968
 10
6.9973208435
 20
12.3638247874
 10
7.0244544097
 20
12.5422413197
 10
7.0461617368
 20
12.7170414478
 10
7.0623484849
 20
12.8875044892
 10
7.0729524651
 20
13.0529248086
 10
7.0779297791
 20
13.2126190682
  0
LINE
  5
30D
100
AcDbEntity
  8
DRAFT
100
AcDbLine
 62
7
  6
CONTINUOUS
 10
-6.1577180915
 20
-16.2533616463
 11
-6.1780962836
 21
-16.2825397876
  0
LINE
  5
30E
100
AcDbEntity
  8
DRAFT
100
AcDbLine
 62
7
  6
CONTINUOUS
 10
-6.3003654366
 20
-16.4576086356
 11
-6.3818782053
 21
-16.5743212009
  0
LINE
  5
30F
100
AcDbEntity
  8
DRAFT
100
AcDbLine
 62
7
  6
CONTINUOUS
 10
-6.5041473583
 20
-16.7493900488
 11
-6.5856601269
 21
-16.8661026141
  0
LINE
  5
310
100
AcDbEntity
  8
DRAFT
100
AcDbLine
 62
7
  6
CONTINUOUS
 10
-6.7079292799
 20
-17.0411714621
 11
-6.7894420486
 21
-17.1578840274
  0
LINE
  5
311
100
AcDbEntity
  8
DRAFT
100
AcDbLine
 62
7
  6
CONTINUOUS
 10
-6.9117112015
 20
-17.3329528753
 11
-6.9484515108
 21
-17.3855588145
  0
LINE
  5
312
100
AcDbEntity
  8
DRAFT
100
AcDbLine
 62
7
  6
CONTINUOUS
 10
-11.5176326384
 20
-14.6073838156
 11
-11.5426786321
 21
-14.6351285203
  0
LINE
  5
313
100
AcDbEntity
  8
DRAFT
100
AcDbLine
 62
7
  6
CONTINUOUS
 10
-11.692954594
 20
-14.8015967486
 11
-11.7931385686
 21
-14.9125755674
  0
LINE
  5
314
100
AcDbEntity
  8
DRAFT
100
AcDbLine
 62
7
  6
CONTINUOUS
 10
-11.9434145305
 20
-15.0790437956
 11
-12.0435985051
 21
-15.1900226145
  0
LINE
  5
315
100
AcDbEntity
  8
DRAFT
100
AcDbLine
 62
7
  6
CONTINUOUS
 10
-12.193874467
 20
-15.3564908427
 11
-12.2940584416
 21
-15.4674696616
  0
LINE
  5
316
100
AcDbEntity
  8
DRAFT
100
AcDbLine
 62
7
  6
CONTINUOUS
 10
-12.4443344035
 20
-15.6339378898
 11
-12.489490399
 21
-15.6839594533
  0
LWPOLYLINE
  5
317
100
AcDbEntity
  8
RACCORDO
100
AcDbPolyline
 62
7
  6
CONTINUOUS
 90
4
 70
0
 10
14.0457133692
 20
-22.3452302659
 10
14.0440829558
 20
-22.342063737
 10
14.0414132785
 20
-22.3401456842
 10
14.0406082853
 20
-22.3398546903
  0
LWPOLYLINE
  5
318
100
AcDbEntity
  8
RACCORDO
100
AcDbPolyline
 62
250
  6
CONTINUOUS
 90
10
 70
0
 10
8.0734993993
 20
-26.8045413839
 10
8.1456378301
 20
-27.7460357344
 10
8.2365504299
 20
-28.7015185188
 10
8.3476771524
 20
-29.6668858784
 10
8.4804457633
 20
-30.6364618077
 10
8.6370815373
 20
-31.6102011109
 10
8.8210399626
 20
-32.5920305212
 10
9.035313742
 20
-33.5791459346
 10
9.2818834355
 20
-34.5632376563
 10
9.5632390988
 20
-35.5383841874
  0
LWPOLYLINE
  5
319
100
AcDbEntity
  8
RACCORDO
100
AcDbPolyline
 62
250
  6
CONTINUOUS
 90
10
 70
0
 10
7.078009287
 20
13.2125946484
 10
7.1003601878
 20
14.2724806962
 10
7.1396767042
 20
15.391079321
 10
7.1975083631
 20
16.5680896959
 10
7.2754690447
 20
17.8017063021
 10
7.3756505272
 20
19.0973406711
 10
7.5011107429
 20
20.4670472096
 10
7.6547984072
 20
21.9153982526
 10
7.8389771076
 20
23.4393262251
 10
8.0562743366
 20
25.0392278794
  0
LINE
  5
31A
100
AcDbEntity
  8
RACCORDO
100
AcDbLine
 62
250
  6
CONTINUOUS
 10
-6.4482896769
 20
-17.5391536681
 11
-5.9913569048
 21
-16.8691762393
  0
LINE
  5
31B
100
AcDbEntity
  8
RACCORDO
100
AcDbLine
 62
7
  6
CONTINUOUS
 10
-6.4320126999
 20
-17.5441521701
 11
-6.0044173145
 21
-16.9171906685
  0
LWPOLYLINE
  5
31C
100
AcDbEntity
  8
ASSI
100
AcDbPolyline
 62
7
  6
CONTINUOUS
 90
10
 70
0
 10
-18.7302626564
 20
-14.4610239053
 10
-18.445262056
 20
-14.3148807756
 10
-18.2932119024
 20
-14.2572699748
 10
-18.1320940834
 20
-14.215329014
 10
-17.9605167054
 20
-14.1889755745
 10
-17.779871662
 20
-14.1782919751
 10
-17.5943346348
 20
-14.1835251712
 10
-17.4052975175
 20
-14.2047574814
 10
-17.2113684162
 20
-14.2419065872
 10
-17.0125473311
 20
-14.2949724886
  0
LWPOLYLINE
  5
31D
100
AcDbEntity
  8
ASSI
100
AcDbPolyline
 62
7
  6
CONTINUOUS
 90
4
 70
0
 10
-18.7302626564
 20
-14.4610239053
 10
-18.8812596683
 20
-14.5184168289
 10
-19.0412355802
 20
-14.5603401872
 10
-19.1124816015
 20
-14.5714412728
  0
LWPOLYLINE
  5
31E
100
AcDbEntity
  8
RACCORDO
100
AcDbPolyline
 62
250
  6
CONTINUOUS
 90
9
 70
0
 10
18.1601072491
 20
6.7679377362
 10
18.3493058309
 20
6.7791964913
 10
18.5391713055
 20
6.7829019773
 10
18.7289427225
 20
6.7790393367
 10
18.9178595084
 20
6.767624044
 10
19.1051645151
 20
6.7487018434
 10
19.290107054
 20
6.7223485653
 10
19.4719459049
 20
6.6886698231
 10
19.649952287
 20
6.6478005892
  0
LINE
  5
31F
100
AcDbEntity
  8
RACCORDO
100
AcDbLine
 62
7
  6
CONTINUOUS
 10
14.0457133692
 20
-22.3452302659
 11
14.0458513936
 21
-22.3465313226
  0
LINE
  5
320
100
AcDbEntity
  8
RACCORDO
100
AcDbLine
 62
250
  6
CONTINUOUS
 10
30.7914107339
 20
19.3350151797
 11
33.249498152
 21
22.2632700724
  0
LWPOLYLINE
  5
321
100
AcDbEntity
  8
RACCORDO
100
AcDbPolyline
 62
250
  6
CONTINUOUS
 90
13
 70
0
 10
33.5073899271
 20
16.1806343357
 10
33.4446606044
 20
16.1237944787
 10
33.3714560082
 20
16.0716482252
 10
33.2887311686
 20
16.0248758787
 10
33.1975653175
 20
15.9840876344
 10
33.0991478084
 20
15.9498156187
 10
32.9947626
 20
15.9225069465
 10
32.8857715062
 20
15.902517889
 10
32.7735964294
 20
15.8901092255
 10
32.6597008103
 20
15.8854428411
 10
32.5455705358
 20
15.888579615
 10
32.4326945543
 20
15.8994786258
 10
32.3225454505
 20
15.9179976857
  0
LWPOLYLINE
  5
322
100
AcDbEntity
  8
RACCORDO
100
AcDbPolyline
 62
250
  6
CONTINUOUS
 90
5
 70
0
 10
-23.4091614492
 20
19.9737673222
 10
-23.4430877178
 20
19.9896571628
 10
-23.4745704231
 20
20.0164351598
 10
-23.5020360987
 20
20.0534331006
 10
-23.5251773911
 20
20.1002369613
  0
LINE
  5
323
100
AcDbEntity
  8
RACCORDO
100
AcDbLine
 62
250
  6
CONTINUOUS
 10
14.0321794007
 20
-22.3588347047
 11
14.0487086928
 21
-23.0232862371
  0
LINE
  5
324
100
AcDbEntity
  8
RACCORDO
100
AcDbLine
 62
7
  6
CONTINUOUS
 10
14.0458444427
 20
-22.3465298686
 11
14.0616789811
 21
-22.9830533958
  0
LINE
  5
325
100
AcDbEntity
  8
RACCORDO
100
AcDbLine
 62
250
  6
CONTINUOUS
 10
14.0616789811
 20
-22.9830533958
 11
14.0616845843
 21
-22.9857815846
  0
LWPOLYLINE
  5
326
100
AcDbEntity
  8
RACCORDO
100
AcDbPolyline
 62
250
  6
CONTINUOUS
 90
6
 70
0
 10
14.0487086928
 20
-23.0232862371
 10
14.0483692925
 20
-23.0351095625
 10
14.0465256729
 20
-23.0464009026
 10
14.0431981289
 20
-23.0570359587
 10
14.0384226322
 20
-23.0668987909
 10
14.0356499884
 20
-23.0712981659
  0
LWPOLYLINE
  5
327
100
AcDbEntity
  8
RACCORDO
100
AcDbPolyline
 62
250
  6
CONTINUOUS
 90
9
 70
0
 10
16.2806850336
 20
8.9318467644
 10
16.3213828641
 20
9.1149967462
 10
16.3572259618
 20
9.2968779668
 10
16.3880698942
 20
9.4767577707
 10
16.4137903694
 20
9.6539115638
 10
16.4342837372
 20
9.8276257323
 10
16.4494674067
 20
9.9972005175
 10
16.4592801788
 20
10.1619528341
 10
16.4636824928
 20
10.3212190225
  0
LINE
  5
328
100
AcDbEntity
  8
DRAFT
100
AcDbLine
 62
7
  6
CONTINUOUS
 10
7.676729368
 20
-21.8129216421
 11
7.7460071561
 21
-21.6215796593
  0
LINE
  5
329
100
AcDbEntity
  8
DRAFT
100
AcDbLine
 62
7
  6
CONTINUOUS
 10
7.9271893045
 20
-21.535474595
 11
7.9964670926
 21
-21.3441326122
  0
LINE
  5
32A
100
AcDbEntity
  8
DRAFT
100
AcDbLine
 62
7
  6
CONTINUOUS
 10
8.177649241
 20
-21.2580275479
 11
8.2469270291
 21
-21.0666855651
  0
LINE
  5
32B
100
AcDbEntity
  8
DRAFT
100
AcDbLine
 62
7
  6
CONTINUOUS
 10
8.4281091775
 20
-20.9805805008
 11
8.4973869656
 21
-20.789238518
  0
LWPOLYLINE
  5
32C
100
AcDbEntity
  8
RACCORDO
100
AcDbPolyline
 62
250
  6
CONTINUOUS
 90
13
 70
0
 10
30.7914122466
 20
19.3349889069
 10
30.7430504846
 20
19.2595886363
 10
30.6958866931
 20
19.1754184617
 10
30.6505390616
 20
19.0835816242
 10
30.6076019753
 20
18.9852818534
 10
30.5676382246
 20
18.8818075901
 10
30.5311716287
 20
18.7745150985
 10
30.4986801706
 20
18.6648106886
 10
30.4705897312
 20
18.5541322836
 10
30.4472685076
 20
18.443930573
 10
30.4290221879
 20
18.3356499973
 10
30.4160899444
 20
18.2307098156
 10
30.4086412983
 20
18.1304855027
  0
LINE
  5
32D
100
AcDbEntity
  8
RACCORDO
100
AcDbLine
 62
250
  6
CONTINUOUS
 10
33.5073899271
 20
16.1806343357
 11
35.9756299238
 21
19.1209837283
  0
LINE
  5
32E
100
AcDbEntity
  8
RACCORDO
100
AcDbLine
 62
7
  6
CONTINUOUS
 10
-6.1577180915
 20
-16.2533616463
 11
-6.0078861969
 21
-16.204724707
  0
LWPOLYLINE
  5
32F
100
AcDbEntity
  8
0
100
AcDbPolyline
 62
7
  6
CONTINUOUS
 90
7
 70
0
 10
-23.4091614492
 20
19.9737673222
 10
-23.438323541
 20
19.9817713712
 10
-23.4626862334
 20
19.9868377185
 10
-23.481679323
 20
19.9895212642
 10
-23.494900682
 20
19.9904989205
 10
-23.5020664934
 20
19.9905427412
 10
-23.5028842761
 20
19.990506968
  0
LINE
  5
330
100
AcDbEntity
  8
RACCORDO
100
AcDbLine
 62
250
  6
CONTINUOUS
 10
-23.228806429
 20
22.5103967248
 11
-21.342764989
 21
21.9354333208
  0
LINE
  5
331
100
AcDbEntity
  8
RACCORDO
100
AcDbLine
 62
250
  6
CONTINUOUS
 10
14.3328938443
 20
9.3290823317
 11
16.2352969539
 21
8.7481657644
  0
LINE
  5
332
100
AcDbEntity
  8
RACCORDO
100
AcDbLine
 62
250
  6
CONTINUOUS
 10
-21.342764989
 20
21.9354333208
 11
-19.3389193123
 21
21.322993187
  0
LINE
  5
333
100
AcDbEntity
  8
RACCORDO
100
AcDbLine
 62
250
  6
CONTINUOUS
 10
12.3239882177
 20
9.9442386781
 11
14.3328938443
 21
9.3290823317
  0
LWPOLYLINE
  5
334
100
AcDbEntity
  8
RACCORDO
100
AcDbPolyline
 62
250
  6
CONTINUOUS
 90
3
 70
0
 10
-19.3389193123
 20
21.322993187
 10
-17.2254729551
 20
20.6752741352
 10
-13.8526383499
 20
19.6401946296
  0
LINE
  5
335
100
AcDbEntity
  8
0
100
AcDbLine
 62
7
  6
CONTINUOUS
 10
16.3147019132
 20
7.7749537267
 11
-23.4091614492
 21
19.9737673222
  0
LINE
  5
336
100
AcDbEntity
  8
RACCORDO
100
AcDbLine
 62
250
  6
CONTINUOUS
 10
-14.0931994532
 20
18.056385234
 11
12.3239882177
 21
9.9442386781
  0
LINE
  5
337
100
AcDbEntity
  8
RACCORDO
100
AcDbLine
 62
250
  6
CONTINUOUS
 10
-13.8526389361
 20
19.6401939452
 11
9.3521000698
 21
12.5138509814
  0
LINE
  5
338
100
AcDbEntity
  8
RACCORDO
100
AcDbLine
 62
250
  6
CONTINUOUS
 10
9.3521000698
 20
12.5138509814
 11
11.5191019642
 21
11.8475987516
  0
LINE
  5
339
100
AcDbEntity
  8
RACCORDO
100
AcDbLine
 62
250
  6
CONTINUOUS
 10
-20.5994490706
 20
20.0553694277
 11
-14.0931994533
 21
18.056385234
  0
LINE
  5
33A
100
AcDbEntity
  8
RACCORDO
100
AcDbLine
 62
250
  6
CONTINUOUS
 10
11.5191019642
 20
11.8475987516
 11
13.5795235606
 21
11.2128318945
  0
LWPOLYLINE
  5
33B
100
AcDbEntity
  8
RACCORDO
100
AcDbPolyline
 62
250
  6
CONTINUOUS
 90
3
 70
0
 10
-23.4885664086
 20
20.9469793599
 10
-22.5526410186
 20
20.6577382183
 10
-20.5994490706
 20
20.0553694277
  0
LWPOLYLINE
  5
33C
100
AcDbEntity
  8
RACCORDO
100
AcDbPolyline
 62
250
  6
CONTINUOUS
 90
3
 70
0
 10
13.5795235606
 20
11.2128318945
 10
15.531106021
 20
10.609812521
 10
16.4636826503
 20
10.3212192003
  0
LWPOLYLINE
  5
33D
100
AcDbEntity
  8
RACCORDO
100
AcDbPolyline
 62
250
  6
CONTINUOUS
 90
85
 70
0
 10
16.2352969539
 20
8.7481657644
 10
16.2771445219
 20
8.7350916975
 10
16.3183918525
 20
8.7212667331
 10
16.3590116441
 20
8.7067366971
 10
16.3986754585
 20
8.6916544747
 10
16.4376643865
 20
8.6759686284
 10
16.4768645468
 20
8.6593647816
 10
16.5165651026
 20
8.641685681
 10
16.5564221619
 20
8.623060517
 10
16.5963698588
 20
8.603555335
 10
16.6364835318
 20
8.583129032
 10
16.6766347589
 20
8.5618122902
 10
16.7164603093
 20
8.5398016281
 10
16.7562725039
 20
8.51692415
 10
16.7957130463
 20
8.4933759093
 10
16.8334499324
 20
8.470000008
 10
16.8690975284
 20
8.4471453423
 10
16.9030786814
 20
8.4246442816
 10
16.9353112572
 20
8.4026357358
 10
16.9656812581
 20
8.3813050835
 10
16.9943558372
 20
8.3606153602
 10
17.0216698338
 20
8.3403566919
 10
17.0475011584
 20
8.3206740459
 10
17.0720129685
 20
8.3015201683
 10
17.095940722
 20
8.2823551933
 10
17.1193219131
 20
8.2631612524
 10
17.1421234353
 20
8.2439896022
 10
17.1649403408
 20
8.2243596471
 10
17.1878780938
 20
8.2041600687
 10
17.210801632
 20
8.1834954704
 10
17.2339220201
 20
8.1621833678
 10
17.2572244239
 20
8.1402143219
 10
17.2806797389
 20
8.1175812413
 10
17.3044626557
 20
8.0940920639
 10
17.3284949421
 20
8.069782547
 10
17.3527899874
 20
8.0445920279
 10
17.3776352499
 20
8.0181673727
 10
17.4032055384
 20
7.9902321244
 10
17.4292056345
 20
7.9610150707
 10
17.4552192775
 20
7.9309245237
 10
17.481275435
 20
7.8998714488
 10
17.5072558838
 20
7.8679345468
 10
17.5325813246
 20
7.8358076212
 10
17.5571405315
 20
7.8036496846
 10
17.5810375594
 20
7.771337578
 10
17.6040713402
 20
7.7391670808
 10
17.6262240618
 20
7.7072042107
 10
17.6475382151
 20
7.6754260278
 10
17.6679287082
 20
7.6440025124
 10
17.6874178665
 20
7.6129548489
 10
17.7060272508
 20
7.5823026586
 10
17.723688453
 20
7.5522164538
 10
17.7404346657
 20
7.5227129479
 10
17.75629569
 20
7.493811429
 10
17.7712153248
 20
7.4656876319
 10
17.7852165588
 20
7.4383915365
 10
17.7983571691
 20
7.4119023165
 10
17.810643962
 20
7.386289012
 10
17.8221056551
 20
7.3615921189
 10
17.8327960131
 20
7.3377912334
 10
17.8427596114
 20
7.314862392
 10
17.8519981589
 20
7.2929106661
 10
17.8605857906
 20
7.2718432342
 10
17.8686595228
 20
7.2513379271
 10
17.8761889873
 20
7.2315305585
 10
17.8832501328
 20
7.2122928239
 10
17.8900981726
 20
7.1929063909
 10
17.896752198
 20
7.1732834056
 10
17.9031769083
 20
7.1535193874
 10
17.9095007325
 20
7.1331728988
 10
17.9157285557
 20
7.1121521441
 10
17.9218008471
 20
7.0905610437
 10
17.927723777
 20
7.0682545045
 10
17.9334747679
 20
7.0451922318
 10
17.9390029452
 20
7.0214337029
 10
17.9442632545
 20
6.9969861761
 10
17.9492201552
 20
6.9718419159
 10
17.953828458
 20
6.9460357765
 10
17.9580298142
 20
6.9196408376
 10
17.9617778531
 20
6.892726817
 10
17.9650407761
 20
6.8652582782
 10
17.9677777875
 20
6.8371540894
 10
17.9699396309
 20
6.8084040474
 10
17.9714753912
 20
6.7790670765
 10
17.9723339713
 20
6.7491703863
  0
LWPOLYLINE
  5
33E
100
AcDbEntity
  8
RACCORDO
100
AcDbPolyline
 62
250
  6
CONTINUOUS
 90
63
 70
0
 10
16.4636824928
 20
10.3212190225
 10
16.54448421
 20
10.2952792683
 10
16.6241079339
 20
10.2677655049
 10
16.7026826623
 20
10.2386816215
 10
16.7799137231
 20
10.2080188534
 10
16.8557811932
 20
10.1760944124
 10
16.9307901457
 20
10.1433556697
 10
17.0046750889
 20
10.1102797184
 10
17.077249183
 20
10.0767102238
 10
17.1492658549
 20
10.0419983021
 10
17.2214411968
 20
10.0057730468
 10
17.2937022549
 20
9.9681510631
 10
17.36549231
 20
9.9292604132
 10
17.4373835252
 20
9.8887188189
 10
17.5086334919
 20
9.8469723594
 10
17.5767500185
 20
9.8055645473
 10
17.6409062463
 20
9.7652039754
 10
17.7020502885
 20
9.7254712271
 10
17.7604539666
 20
9.6862978954
 10
17.8160940219
 20
9.6478269047
 10
17.8692733746
 20
9.6099703559
 10
17.9206817591
 20
9.5722989478
 10
17.9701858847
 20
9.5349201044
 10
18.0178113791
 20
9.4979214025
 10
18.0644232136
 20
9.4608145214
 10
18.1098650948
 20
9.4238190954
 10
18.1539529495
 20
9.3870836344
 10
18.197523225
 20
9.3498978505
 10
18.2406401276
 20
9.3122260641
 10
18.2831436974
 20
9.2742224415
 10
18.3255224928
 20
9.235388987
 10
18.3678137097
 20
9.1956650439
 10
18.4100860716
 20
9.1549981789
 10
18.4528210371
 20
9.1128773686
 10
18.4959788461
 20
9.0692827961
 10
18.5395870407
 20
9.0240964323
 10
18.5841438292
 20
8.9766641231
 10
18.6299584605
 20
8.9265093481
 10
18.6764789237
 20
8.8740740331
 10
18.7229144222
 20
8.8200886025
 10
18.7693074323
 20
8.7644039927
 10
18.8154579304
 20
8.7071737494
 10
18.8603114927
 20
8.6496382156
 10
18.9036583575
 20
8.5920868274
 10
18.945692484
 20
8.5343099988
 10
18.9860606343
 20
8.4768378514
 10
19.0247238065
 20
8.4197898188
 10
19.0617621163
 20
8.3631320673
 10
19.0970460243
 20
8.3071722804
 10
19.1306125964
 20
8.2519466422
 10
19.1624994545
 20
8.1974949502
 10
19.1926071482
 20
8.144136802
 10
19.2209855663
 20
8.0919105598
 10
19.2476893221
 20
8.040851044
 10
19.2726658696
 20
7.9912507087
 10
19.2959729549
 20
7.9431665508
 10
19.3177033201
 20
7.8965620759
 10
19.3378543096
 20
7.8516363733
 10
19.3563351576
 20
7.8085716273
 10
19.3733541109
 20
7.7672803404
 10
19.3894238689
 20
7.7273847628
 10
19.4045913516
 20
7.6888440154
 10
19.4335461393
 20
7.6141641845
  0
LWPOLYLINE
  5
33F
100
AcDbEntity
  8
RACCORDO
100
AcDbPolyline
 62
250
  6
CONTINUOUS
 90
15
 70
0
 10
16.3147019132
 20
7.7749537267
 10
16.2809038469
 20
7.7907608566
 10
16.2494205496
 20
7.8174836395
 10
16.2219490033
 20
7.8544181081
 10
16.1987963324
 20
7.901151345
 10
16.1802213776
 20
7.9571608852
 10
16.1664318019
 20
8.021820557
 10
16.1575817689
 20
8.0944074829
 10
16.1537702198
 20
8.1741101605
 10
16.1550389894
 20
8.2600194368
 10
16.1613726054
 20
8.3511908223
 10
16.1727087282
 20
8.4466649462
 10
16.1889333536
 20
8.545400732
 10
16.2098716129
 20
8.6462773859
 10
16.2806850336
 20
8.9318467644
  0
LWPOLYLINE
  5
340
100
AcDbEntity
  8
RACCORDO
100
AcDbPolyline
 62
250
  6
CONTINUOUS
 90
18
 70
0
 10
17.6517643401
 20
-27.2381202794
 10
17.653323273
 20
-27.2647925127
 10
17.6650472021
 20
-27.331051781
 10
17.6878287013
 20
-27.3959905142
 10
17.7214123913
 20
-27.4588807532
 10
17.7654218011
 20
-27.5190175024
 10
17.819363588
 20
-27.5757266325
 10
17.8826330679
 20
-27.6283724378
 10
17.954520994
 20
-27.6763647622
 10
18.0342215071
 20
-27.7191656147
 10
18.1208411695
 20
-27.7562952004
 10
18.2134089803
 20
-27.7873372991
 10
18.310883007
 20
-27.8119430213
 10
18.4121744992
 20
-27.8298380206
 10
18.5161615283
 20
-27.8408226708
 10
18.6216835346
 20
-27.8447711553
 10
18.7275529802
 20
-27.8416358626
 10
18.8325820636
 20
-27.8314492555
  0
LWPOLYLINE
  5
341
100
AcDbEntity
  8
RACCORDO
100
AcDbPolyline
 62
250
  6
CONTINUOUS
 90
18
 70
0
 10
16.7915162477
 20
7.3424993624
 10
16.7930713179
 20
7.3158690919
 10
16.8047860583
 20
7.2496174982
 10
16.827555734
 20
7.1846855512
 10
16.8611251625
 20
7.1218009508
 10
16.9051181274
 20
7.0616684523
 10
16.9590415942
 20
7.0049619675
 10
17.0222912364
 20
6.9523170128
 10
17.0941582077
 20
6.9043235863
 10
17.1738370865
 20
6.861519556
 10
17.2604349024
 20
6.8243846318
 10
17.3529811432
 20
6.7933349891
 10
17.450424632
 20
6.7687216007
 10
17.5516862354
 20
6.7508154308
 10
17.6556756859
 20
6.7398139368
 10
17.7612444474
 20
6.7358492336
 10
17.8671941165
 20
6.7389767865
 10
18.1601072491
 20
6.7679377362
  0
LINE
  5
342
100
AcDbEntity
  8
0
100
AcDbLine
 62
7
  6
CONTINUOUS
 10
16.7915162477
 20
7.3424993624
 11
16.7918790441
 21
7.3362640681
  0
LINE
  5
343
100
AcDbEntity
  8
RACCORDO
100
AcDbLine
 62
250
  6
CONTINUOUS
 10
18.8034310471
 20
-26.7678813252
 11
18.8325820636
 21
-27.8314492555
  0
LINE
  5
344
100
AcDbEntity
  8
RACCORDO
100
AcDbLine
 62
250
  6
CONTINUOUS
 10
18.7737989086
 20
-25.6404947926
 11
18.8034310471
 21
-26.7678813252
  0
LINE
  5
345
100
AcDbEntity
  8
0
100
AcDbLine
 62
7
  6
CONTINUOUS
 10
17.6517643401
 20
-27.2381202794
 11
16.7915162477
 21
7.3424993624
  0
LINE
  5
346
100
AcDbEntity
  8
RACCORDO
100
AcDbLine
 62
250
  6
CONTINUOUS
 10
18.5066743422
 20
-15.052524029
 11
18.7737989086
 21
-25.6404947926
  0
LINE
  5
347
100
AcDbEntity
  8
RACCORDO
100
AcDbLine
 62
250
  6
CONTINUOUS
 10
18.0976948414
 20
1.4593040996
 11
18.5066743422
 21
-15.052524029
  0
LINE
  5
348
100
AcDbEntity
  8
RACCORDO
100
AcDbLine
 62
250
  6
CONTINUOUS
 10
18.0090561203
 20
5.1259351773
 11
18.0976948414
 21
1.4593040996
  0
LINE
  5
349
100
AcDbEntity
  8
RACCORDO
100
AcDbLine
 62
250
  6
CONTINUOUS
 10
17.9723339713
 20
6.7491703863
 11
18.0090561203
 21
5.1259351773
  0
LWPOLYLINE
  5
34A
100
AcDbEntity
  8
RACCORDO
100
AcDbPolyline
 62
250
  6
CONTINUOUS
 90
70
 70
0
 10
18.8325820636
 20
-27.8314492555
 10
18.8332584421
 20
-27.8757958835
 10
18.8322502777
 20
-27.9202701404
 10
18.8294915558
 20
-27.9648011054
 10
18.8248987024
 20
-28.0094823693
 10
18.8184141627
 20
-28.0540629659
 10
18.810071214
 20
-28.0979747206
 10
18.7998453379
 20
-28.1412121117
 10
18.7877567681
 20
-28.1836654013
 10
18.7740430365
 20
-28.22467609
 10
18.7587164908
 20
-28.2642985337
 10
18.7419188268
 20
-28.3024557244
 10
18.7242495613
 20
-28.3384045141
 10
18.7061215061
 20
-28.3718498547
 10
18.6874711919
 20
-28.4032448315
 10
18.6682235858
 20
-28.4330110419
 10
18.6485106751
 20
-28.4611682551
 10
18.628403435
 20
-28.487793393
 10
18.607642646
 20
-28.5133316778
 10
18.586184832
 20
-28.5378935828
 10
18.5641621835
 20
-28.5613931046
 10
18.5415218443
 20
-28.5839367706
 10
18.5182794947
 20
-28.6055510987
 10
18.4944889033
 20
-28.6262262923
 10
18.470139516
 20
-28.6460026293
 10
18.4451396234
 20
-28.664977331
 10
18.4196347651
 20
-28.6830610518
 10
18.3939941929
 20
-28.7000405665
 10
18.3682686804
 20
-28.7159577805
 10
18.342516772
 20
-28.7308472949
 10
18.3171703088
 20
-28.7445441402
 10
18.2924780474
 20
-28.7570298547
 10
18.2683388234
 20
-28.7684647254
 10
18.2446717891
 20
-28.778970305
 10
18.2215860878
 20
-28.7885774833
 10
18.1990762493
 20
-28.7973643793
 10
18.1768639567
 20
-28.8054937169
 10
18.1549596354
 20
-28.8130065001
 10
18.1334124579
 20
-28.8199251415
 10
18.111977524
 20
-28.8263514514
 10
18.0907175646
 20
-28.8322907002
 10
18.069606643
 20
-28.8377741865
 10
18.0482448873
 20
-28.8429090486
 10
18.0266538411
 20
-28.8476882581
 10
18.0048221748
 20
-28.8521148802
 10
17.9822757527
 20
-28.8562687428
 10
17.9589953201
 20
-28.8601230505
 10
17.9349858162
 20
-28.863653086
 10
17.909784256
 20
-28.8668949046
 10
17.8831894218
 20
-28.8698152238
 10
17.8553629702
 20
-28.872334958
 10
17.8263758454
 20
-28.8743993494
 10
17.7962376607
 20
-28.8759558635
 10
17.7649117524
 20
-28.8769490561
 10
17.7324032845
 20
-28.8773225811
 10
17.6985004956
 20
-28.8770151626
 10
17.6633951508
 20
-28.8759635354
 10
17.6277149135
 20
-28.8741471843
 10
17.5916211547
 20
-28.8715594366
 10
17.5549747869
 20
-28.8681735036
 10
17.5179720557
 20
-28.8639908705
 10
17.4806482533
 20
-28.8590103652
 10
17.443000074
 20
-28.8532196843
 10
17.40517469
 20
-28.8466258603
 10
17.3674909152
 20
-28.8392922377
 10
17.3296745381
 20
-28.8311758572
 10
17.2909822964
 20
-28.8220889466
 10
17.2511771957
 20
-28.8119213081
 10
17.2105345125
 20
-28.8006912863
 10
17.1690778933
 20
-28.7883586206
  0
LWPOLYLINE
  5
34B
100
AcDbEntity
  8
RACCORDO
100
AcDbPolyline
 62
250
  6
CONTINUOUS
 90
5
 70
0
 10
14.0616845843
 20
-22.9857815846
 10
14.0607127133
 20
-22.9953896762
 10
14.0582062083
 20
-23.0049075787
 10
14.0541910289
 20
-23.0142384595
 10
14.0487086928
 20
-23.0232862371
  0
LINE
  5
34C
100
AcDbEntity
  8
DRAFT
100
AcDbLine
 62
7
  6
CONTINUOUS
 10
13.1923821837
 20
-23.5158309815
 11
13.2506235491
 21
-23.3119940251
  0
LINE
  5
34D
100
AcDbEntity
  8
DRAFT
100
AcDbLine
 62
7
  6
CONTINUOUS
 10
13.3961641053
 20
-23.2240495683
 11
13.4544054707
 21
-23.0202126119
  0
LINE
  5
34E
100
AcDbEntity
  8
DRAFT
100
AcDbLine
 62
7
  6
CONTINUOUS
 10
13.599946027
 20
-22.932268155
 11
13.6581873924
 21
-22.7284311986
  0
LWPOLYLINE
  5
34F
100
AcDbEntity
  8
0
100
AcDbPolyline
 62
7
  6
CONTINUOUS
 90
18
 70
0
 10
16.7918790441
 20
7.3362640681
 10
16.7913692169
 20
7.3386953848
 10
16.7885437994
 20
7.3493513519
 10
16.7821544451
 20
7.3676366179
 10
16.771388316
 20
7.3922985806
 10
16.7559209211
 20
7.4217584124
 10
16.7355730377
 20
7.4548109065
 10
16.7102849813
 20
7.4904206639
 10
16.680197766
 20
7.5275324293
 10
16.6454860167
 20
7.5652604196
 10
16.6067977735
 20
7.6024134072
 10
16.5652086124
 20
7.6377211029
 10
16.5215874921
 20
7.6703996784
 10
16.4769486082
 20
7.6997627826
 10
16.4328209302
 20
7.7250493087
 10
16.390455847
 20
7.7459580274
 10
16.3507541535
 20
7.7625436314
 10
16.3147019132
 20
7.7749537267
  0
LINE
  5
350
100
AcDbEntity
  8
RACCORDO
100
AcDbLine
 62
250
  6
CONTINUOUS
 10
19.7551731108
 20
2.6465606819
 11
19.8068660098
 21
0.6953170267
  0
LINE
  5
351
100
AcDbEntity
  8
RACCORDO
100
AcDbLine
 62
250
  6
CONTINUOUS
 10
19.8068660098
 20
0.6953170267
 11
19.8614957643
 21
-1.4106246205
  0
LINE
  5
352
100
AcDbEntity
  8
RACCORDO
100
AcDbLine
 62
250
  6
CONTINUOUS
 10
19.8614957643
 20
-1.4106246205
 11
19.9396310146
 21
-4.479670558
  0
LWPOLYLINE
  5
353
100
AcDbEntity
  8
RACCORDO
100
AcDbPolyline
 62
250
  6
CONTINUOUS
 90
3
 70
0
 10
20.4826109309
 20
-26.8494462228
 10
20.495895895
 20
-27.3833539835
 10
20.5093443672
 20
-27.8984042837
  0
LINE
  5
354
100
AcDbEntity
  8
RACCORDO
100
AcDbLine
 62
250
  6
CONTINUOUS
 10
19.9396310146
 20
-4.479670558
 11
20.0245630835
 21
-7.8718620404
  0
LINE
  5
355
100
AcDbEntity
  8
RACCORDO
100
AcDbLine
 62
250
  6
CONTINUOUS
 10
20.0245630835
 20
-7.8718620404
 11
20.2462345819
 21
-16.8047003371
  0
LINE
  5
356
100
AcDbEntity
  8
RACCORDO
100
AcDbLine
 62
250
  6
CONTINUOUS
 10
20.2462345819
 20
-16.8047003371
 11
20.2846200862
 21
-18.3770888974
  0
LINE
  5
357
100
AcDbEntity
  8
RACCORDO
100
AcDbLine
 62
250
  6
CONTINUOUS
 10
20.2846200862
 20
-18.3770888974
 11
20.3379771661
 21
-20.5910195272
  0
LWPOLYLINE
  5
358
100
AcDbEntity
  8
RACCORDO
100
AcDbPolyline
 62
250
  6
CONTINUOUS
 90
5
 70
0
 10
19.649952287
 20
6.6478005892
 10
19.6622781746
 20
6.1266195292
 10
19.6756675656
 20
5.5883458709
 10
19.6901208199
 20
5.0329417559
 10
19.7551731108
 20
2.6465606819
  0
LINE
  5
359
100
AcDbEntity
  8
RACCORDO
100
AcDbLine
 62
250
  6
CONTINUOUS
 10
20.3379771661
 20
-20.5910195272
 11
20.3864526598
 21
-22.6410951245
  0
LINE
  5
35A
100
AcDbEntity
  8
RACCORDO
100
AcDbLine
 62
250
  6
CONTINUOUS
 10
20.3864526598
 20
-22.6410951245
 11
20.4300774636
 21
-24.5391504462
  0
LWPOLYLINE
  5
35B
100
AcDbEntity
  8
RACCORDO
100
AcDbPolyline
 62
250
  6
CONTINUOUS
 90
3
 70
0
 10
20.4300774636
 20
-24.5391504462
 10
20.4565415675
 20
-25.7278919786
 10
20.4826109309
 20
-26.8494462228
  0
LWPOLYLINE
  5
35C
100
AcDbEntity
  8
RACCORDO
100
AcDbPolyline
 62
250
  6
CONTINUOUS
 90
70
 70
0
 10
20.5093468696
 20
-27.8984003366
 10
20.5100248829
 20
-27.9834568409
 10
20.5072839152
 20
-28.0687313732
 10
20.5010018586
 20
-28.1540313623
 10
20.4910399484
 20
-28.2394852549
 10
20.4772207949
 20
-28.3247435759
 10
20.4594629347
 20
-28.4089452807
 10
20.4372568394
 20
-28.4923509386
 10
20.411092127
 20
-28.5742620624
 10
20.3828216992
 20
-28.6524831147
 10
20.3532967479
 20
-28.7265185772
 10
20.322571899
 20
-28.7965132192
 10
20.2915588108
 20
-28.8618854345
 10
20.2613360659
 20
-28.9226978454
 10
20.2313947237
 20
-28.979862264
 10
20.2002241681
 20
-29.0339789138
 10
20.1675173225
 20
-29.0850338133
 10
20.1337790461
 20
-29.1333573697
 10
20.0986203519
 20
-29.1797714092
 10
20.0619882497
 20
-29.2244429023
 10
20.0241290624
 20
-29.2671555172
 10
19.9849909291
 20
-29.3081012326
 10
19.9446018519
 20
-29.3473223811
 10
19.9030446228
 20
-29.3847959118
 10
19.8603225144
 20
-29.4206008314
 10
19.8162662712
 20
-29.4548992306
 10
19.7711391697
 20
-29.4875242313
 10
19.7256393894
 20
-29.5181072515
 10
19.6798553639
 20
-29.5467087977
 10
19.6339022799
 20
-29.5733846787
 10
19.5885939082
 20
-29.5978736175
 10
19.5443542902
 20
-29.6201468121
 10
19.5009919912
 20
-29.6404873489
 10
19.4584476014
 20
-29.6591257322
 10
19.4170239662
 20
-29.6760900475
 10
19.3767064597
 20
-29.6915090212
 10
19.3368363264
 20
-29.7057367602
 10
19.2972173943
 20
-29.7188976024
 10
19.2577648699
 20
-29.7310871861
 10
19.2178909506
 20
-29.7425571863
 10
19.1777246154
 20
-29.7532775856
 10
19.137383836
 20
-29.7632381221
 10
19.0963252276
 20
-29.7726271984
 10
19.0545154063
 20
-29.7814449367
 10
19.0118908448
 20
-29.7896778014
 10
18.9677747623
 20
-29.7974418988
 10
18.9224368503
 20
-29.8046973641
 10
18.8762865313
 20
-29.8112778101
 10
18.8290551031
 20
-29.8170229032
 10
18.7804958994
 20
-29.8218284702
 10
18.7304188124
 20
-29.825737801
 10
18.678254927
 20
-29.8288090844
 10
18.6237980339
 20
-29.8309840688
 10
18.5671498907
 20
-29.8321196692
 10
18.5083735893
 20
-29.8321072978
 10
18.4471122327
 20
-29.8308259718
 10
18.383720827
 20
-29.828176381
 10
18.3193345215
 20
-29.8241541001
 10
18.2542788618
 20
-29.8187157596
 10
18.1882699867
 20
-29.8118452907
 10
18.1215467706
 20
-29.8036598516
 10
18.0540712272
 20
-29.7940802729
 10
17.9853772753
 20
-29.7830780606
 10
17.9149717037
 20
-29.7708150543
 10
17.8429102237
 20
-29.7574744978
 10
17.7693353288
 20
-29.7427731178
 10
17.6939100511
 20
-29.7261281759
 10
17.6168200703
 20
-29.7073561088
 10
17.5383519531
 20
-29.6865955153
 10
17.4583745984
 20
-29.6637307681
  0
LINE
  5
35D
100
AcDbEntity
  8
DRAFT
100
AcDbLine
 62
7
  6
CONTINUOUS
 10
13.8037279486
 20
-22.6404867418
 11
13.861969314
 21
-22.4366497854
  0
LINE
  5
35E
100
AcDbEntity
  8
DRAFT
100
AcDbLine
 62
7
  6
CONTINUOUS
 10
8.5224329593
 20
-20.7614938133
 11
8.4973869656
 21
-20.789238518
  0
LINE
  5
35F
100
AcDbEntity
  8
DRAFT
100
AcDbLine
 62
7
  6
CONTINUOUS
 10
8.3471110037
 20
-20.9557067463
 11
8.2469270291
 21
-21.0666855651
  0
LINE
  5
360
100
AcDbEntity
  8
DRAFT
100
AcDbLine
 62
7
  6
CONTINUOUS
 10
8.0966510672
 20
-21.2331537934
 11
7.9964670926
 21
-21.3441326122
  0
LINE
  5
361
100
AcDbEntity
  8
DRAFT
100
AcDbLine
 62
7
  6
CONTINUOUS
 10
7.8461911307
 20
-21.5106008405
 11
7.7460071561
 21
-21.6215796593
  0
LINE
  5
362
100
AcDbEntity
  8
DRAFT
100
AcDbLine
 62
7
  6
CONTINUOUS
 10
7.5957311942
 20
-21.7880478876
 11
7.5505751987
 21
-21.838069451
  0
LINE
  5
363
100
AcDbEntity
  8
RACCORDO
100
AcDbLine
 62
250
  6
CONTINUOUS
 10
19.4335461393
 20
7.6141641845
 11
19.4630984033
 21
7.5406527857
  0
LWPOLYLINE
  5
364
100
AcDbEntity
  8
RACCORDO
100
AcDbPolyline
 62
250
  6
CONTINUOUS
 90
20
 70
0
 10
19.4630984033
 20
7.5406527857
 10
19.477671679
 20
7.503239767
 10
19.4917906261
 20
7.4652195372
 10
19.5054483033
 20
7.4269775157
 10
19.5187358906
 20
7.3878127301
 10
19.5316073252
 20
7.3475264631
 10
19.5440728502
 20
7.3061679706
 10
19.5562661958
 20
7.2633806385
 10
19.5681695131
 20
7.2190706902
 10
19.5796335166
 20
7.1733740282
 10
19.5905635397
 20
7.1263107945
 10
19.6008834802
 20
7.0778653209
 10
19.6104959514
 20
7.0281112354
 10
19.6192803038
 20
6.9772020141
 10
19.6271286799
 20
6.9252725139
 10
19.6339847108
 20
6.8722468001
 10
19.6397973733
 20
6.8179647902
 10
19.6444744429
 20
6.7624012306
 10
19.6478961869
 20
6.7056643417
 10
19.6499545465
 20
6.6478040816
  0
LINE
  5
365
100
AcDbEntity
  8
RACCORDO
100
AcDbLine
 62
250
  6
CONTINUOUS
 10
13.5917759208
 20
-23.6932636659
 11
14.0487086928
 21
-23.0232862371
  0
LINE
  5
366
100
AcDbEntity
  8
RACCORDO
100
AcDbLine
 62
7
  6
CONTINUOUS
 10
13.6080528978
 20
-23.6982621678
 11
14.0356482832
 21
-23.0713006662
  0
LINE
  5
367
100
AcDbEntity
  8
DRAFT
100
AcDbLine
 62
7
  6
CONTINUOUS
 10
13.8823475062
 20
-22.4074716441
 11
13.861969314
 21
-22.4366497854
  0
LINE
  5
368
100
AcDbEntity
  8
DRAFT
100
AcDbLine
 62
7
  6
CONTINUOUS
 10
13.739700161
 20
-22.6117186333
 11
13.6581873924
 21
-22.7284311986
  0
LINE
  5
369
100
AcDbEntity
  8
DRAFT
100
AcDbLine
 62
7
  6
CONTINUOUS
 10
13.5359182394
 20
-22.9035000466
 11
13.4544054707
 21
-23.0202126119
  0
LINE
  5
36A
100
AcDbEntity
  8
DRAFT
100
AcDbLine
 62
7
  6
CONTINUOUS
 10
13.3321363178
 20
-23.1952814598
 11
13.2506235491
 21
-23.3119940251
  0
LINE
  5
36B
100
AcDbEntity
  8
DRAFT
100
AcDbLine
 62
7
  6
CONTINUOUS
 10
13.1283543961
 20
-23.4870628731
 11
13.0916140868
 21
-23.5396688122
  0
LINE
  5
36C
100
AcDbEntity
  8
ASSI
100
AcDbLine
 62
250
  6
CONTINUOUS
 10
15.1037255422
 20
-24.1575687469
 11
14.5132111266
 21
-24.8975657453
  0
LINE
  5
36D
100
AcDbEntity
  8
RACCORDO
100
AcDbLine
 62
7
  6
CONTINUOUS
 10
13.8823475062
 20
-22.4074716441
 11
14.0321794007
 21
-22.3588347047
  0
LINE
  5
36E
100
AcDbEntity
  8
RACCORDO
100
AcDbLine
 62
250
  6
CONTINUOUS
 10
-30.8103899397
 20
36.9460132159
 11
-29.4690382015
 21
36.5406168357
  0
LWPOLYLINE
  5
36F
100
AcDbEntity
  8
RACCORDO
100
AcDbPolyline
 62
250
  6
CONTINUOUS
 90
3
 70
0
 10
-29.4690382015
 20
36.5406168357
 10
-28.4470525416
 20
36.2298602236
 10
-23.8884770304
 20
34.8418308423
  0
LINE
  5
370
100
AcDbEntity
  8
RACCORDO
100
AcDbLine
 62
250
  6
CONTINUOUS
 10
-33.1867826341
 20
37.6709749731
 11
-31.5851842772
 21
37.1833120299
  0
LINE
  5
371
100
AcDbEntity
  8
RACCORDO
100
AcDbLine
 62
250
  6
CONTINUOUS
 10
-23.8884770304
 20
34.8418308423
 11
-21.3442067617
 21
34.0658688014
  0
LINE
  5
372
100
AcDbEntity
  8
RACCORDO
100
AcDbLine
 62
250
  6
CONTINUOUS
 10
-34.1991669628
 20
37.979827129
 11
-33.1867826341
 21
37.6709749731
  0
LINE
  5
373
100
AcDbEntity
  8
RACCORDO
100
AcDbLine
 62
250
  6
CONTINUOUS
 10
-21.3442067617
 20
34.0658688014
 11
-19.4030465038
 21
33.4721944171
  0
LWPOLYLINE
  5
374
100
AcDbEntity
  8
RACCORDO
100
AcDbPolyline
 62
250
  6
CONTINUOUS
 90
3
 70
0
 10
8.0562475958
 20
25.0392361791
 10
9.5674816777
 20
24.575886011
 10
12.2807248708
 20
23.7433076194
  0
LINE
  5
375
100
AcDbEntity
  8
RACCORDO
100
AcDbLine
 62
250
  6
CONTINUOUS
 10
-19.4030465038
 20
33.4721944171
 11
-17.8057060036
 21
32.9824994957
  0
LINE
  5
376
100
AcDbEntity
  8
RACCORDO
100
AcDbLine
 62
250
  6
CONTINUOUS
 10
-31.5851842772
 20
37.1833120299
 11
-30.8103899397
 21
36.9460132159
  0
LINE
  5
377
100
AcDbEntity
  8
RACCORDO
100
AcDbLine
 62
250
  6
CONTINUOUS
 10
-17.8057060036
 20
32.9824994957
 11
-13.552430327
 21
31.6754622002
  0
LINE
  5
378
100
AcDbEntity
  8
RACCORDO
100
AcDbLine
 62
250
  6
CONTINUOUS
 10
12.2807248708
 20
23.7433076194
 11
14.0799540678
 21
23.1902716321
  0
LINE
  5
379
100
AcDbEntity
  8
RACCORDO
100
AcDbLine
 62
250
  6
CONTINUOUS
 10
-13.552430327
 20
31.6754622002
 11
8.0562475904
 21
25.0392361756
  0
LINE
  5
37A
100
AcDbEntity
  8
RACCORDO
100
AcDbLine
 62
250
  6
CONTINUOUS
 10
14.0799540678
 20
23.1902716321
 11
15.708663246
 21
22.6885037512
  0
LINE
  5
37B
100
AcDbEntity
  8
RACCORDO
100
AcDbLine
 62
250
  6
CONTINUOUS
 10
25.953992191
 20
19.5146402077
 11
26.9629817818
 21
19.2034612526
  0
LINE
  5
37C
100
AcDbEntity
  8
RACCORDO
100
AcDbLine
 62
250
  6
CONTINUOUS
 10
15.708663246
 20
22.6885037512
 11
17.6517717725
 21
22.088482624
  0
LINE
  5
37D
100
AcDbEntity
  8
RACCORDO
100
AcDbLine
 62
250
  6
CONTINUOUS
 10
17.6517717725
 20
22.088482624
 11
19.7676085557
 21
21.4336827829
  0
LWPOLYLINE
  5
37E
100
AcDbEntity
  8
RACCORDO
100
AcDbPolyline
 62
250
  6
CONTINUOUS
 90
3
 70
0
 10
26.9629817818
 20
19.2034612526
 10
27.5023992896
 20
19.0363473212
 10
29.926637405
 20
18.2869253609
  0
LWPOLYLINE
  5
37F
100
AcDbEntity
  8
RACCORDO
100
AcDbPolyline
 62
250
  6
CONTINUOUS
 90
3
 70
0
 10
19.7676085557
 20
21.4336827829
 10
24.7917391033
 20
19.8772916493
 10
25.953992191
 20
19.5146402077
  0
LINE
  5
380
100
AcDbEntity
  8
RACCORDO
100
AcDbLine
 62
250
  6
CONTINUOUS
 10
29.926637405
 20
18.2869253609
 11
30.038651865
 21
18.2516112948
  0
LINE
  5
381
100
AcDbEntity
  8
RACCORDO
100
AcDbLine
 62
250
  6
CONTINUOUS
 10
-30.9815110555
 20
38.2579763274
 11
-29.7507648206
 21
37.862775798
  0
LWPOLYLINE
  5
382
100
AcDbEntity
  8
RACCORDO
100
AcDbPolyline
 62
250
  6
CONTINUOUS
 90
3
 70
0
 10
30.038651865
 20
18.2516112948
 10
30.2809323583
 20
18.1727033573
 10
30.4086449625
 20
18.1304894537
  0
LINE
  5
383
100
AcDbEntity
  8
RACCORDO
100
AcDbLine
 62
250
  6
CONTINUOUS
 10
-34.6664240495
 20
39.436482089
 11
-34.3207989605
 21
39.3239786754
  0
LWPOLYLINE
  5
384
100
AcDbEntity
  8
RACCORDO
100
AcDbPolyline
 62
250
  6
CONTINUOUS
 90
22
 70
0
 10
17.4993710265
 20
-27.0902856426
 10
17.4514941937
 20
-27.154755511
 10
17.4043689689
 20
-27.2271804759
 10
17.3585227062
 20
-27.3067500667
 10
17.3144684475
 20
-27.392573861
 10
17.2726991814
 20
-27.4836914489
 10
17.2336823263
 20
-27.5790831802
 10
17.1978544997
 20
-27.6776815752
 10
17.1656166325
 20
-27.77838327
 10
17.137329482
 20
-27.8800613636
 10
17.1133095951
 20
-27.9815780288
 10
17.0938257661
 20
-28.0817972448
 10
17.0790960285
 20
-28.1795975099
 10
17.0692852152
 20
-28.2738843916
 10
17.064503114
 20
-28.3636027739
 10
17.0648032389
 20
-28.4477486645
 10
17.0701835774
 20
-28.5253930462
 10
17.0805842829
 20
-28.5956519119
 10
17.0958798834
 20
-28.657709255
 10
17.1158881619
 20
-28.7108758464
 10
17.1403808058
 20
-28.7545832309
 10
17.1690778933
 20
-28.7883586206
  0
LINE
  5
385
100
AcDbEntity
  8
ASSI
100
AcDbLine
 62
250
  6
CONTINUOUS
 10
16.7083548661
 20
-25.2274051434
 11
16.4877027844
 21
-25.5039130047
  0
LINE
  5
386
100
AcDbEntity
  8
ASSI
100
AcDbLine
 62
250
  6
CONTINUOUS
 10
17.6435908314
 20
-26.9095580939
 11
17.4993710265
 21
-27.0902856426
  0
LWPOLYLINE
  5
387
100
AcDbEntity
  8
RACCORDO
100
AcDbPolyline
 62
250
  6
CONTINUOUS
 90
6
 70
0
 10
-35.1018102861
 20
38.2481066937
 10
-34.8571689805
 20
38.1785218639
 10
-34.7407533927
 20
38.1447334658
 10
-34.6306400525
 20
38.111821868
 10
-34.5247877107
 20
38.0793385008
 10
-34.1991669628
 20
37.979827129
  0
LINE
  5
388
100
AcDbEntity
  8
RACCORDO
100
AcDbLine
 62
250
  6
CONTINUOUS
 10
30.4355004274
 20
19.4378899769
 11
30.7914107339
 21
19.3350151797
  0
LINE
  5
389
100
AcDbEntity
  8
RACCORDO
100
AcDbLine
 62
250
  6
CONTINUOUS
 10
27.1646586929
 20
20.403313734
 11
29.2633088205
 21
19.7847047281
  0
LINE
  5
38A
100
AcDbEntity
  8
RACCORDO
100
AcDbLine
 62
250
  6
CONTINUOUS
 10
25.1823814377
 20
20.985897634
 11
27.1646586929
 21
20.403313734
  0
LINE
  5
38B
100
AcDbEntity
  8
RACCORDO
100
AcDbLine
 62
250
  6
CONTINUOUS
 10
29.2633088205
 20
19.7847047281
 11
29.6472377641
 21
19.6712850807
  0
LINE
  5
38C
100
AcDbEntity
  8
RACCORDO
100
AcDbLine
 62
250
  6
CONTINUOUS
 10
29.6472377641
 20
19.6712850807
 11
29.8836155512
 21
19.6013850502
  0
LINE
  5
38D
100
AcDbEntity
  8
RACCORDO
100
AcDbLine
 62
250
  6
CONTINUOUS
 10
29.8836155512
 20
19.6013850502
 11
30.4355004274
 21
19.4378899769
  0
LINE
  5
38E
100
AcDbEntity
  8
RACCORDO
100
AcDbLine
 62
250
  6
CONTINUOUS
 10
20.9164378617
 20
22.2527702317
 11
25.1823814377
 21
20.985897634
  0
LINE
  5
38F
100
AcDbEntity
  8
RACCORDO
100
AcDbLine
 62
250
  6
CONTINUOUS
 10
19.7565395975
 20
22.599905857
 11
20.9164378617
 21
22.2527702317
  0
LINE
  5
390
100
AcDbEntity
  8
RACCORDO
100
AcDbLine
 62
250
  6
CONTINUOUS
 10
18.9240713105
 20
22.8503552184
 11
19.7565395975
 21
22.599905857
  0
LINE
  5
391
100
AcDbEntity
  8
RACCORDO
100
AcDbLine
 62
250
  6
CONTINUOUS
 10
18.0399889378
 20
23.1175626565
 11
18.9240713105
 21
22.8503552184
  0
LINE
  5
392
100
AcDbEntity
  8
RACCORDO
100
AcDbLine
 62
250
  6
CONTINUOUS
 10
17.099338476
 20
23.4032419508
 11
18.0399889378
 21
23.1175626565
  0
LINE
  5
393
100
AcDbEntity
  8
RACCORDO
100
AcDbLine
 62
250
  6
CONTINUOUS
 10
16.0985254512
 20
23.7085899731
 11
17.099338476
 21
23.4032419508
  0
LINE
  5
394
100
AcDbEntity
  8
RACCORDO
100
AcDbLine
 62
250
  6
CONTINUOUS
 10
-17.9621475263
 20
34.1681184537
 11
-14.4639059318
 21
33.099310922
  0
LINE
  5
395
100
AcDbEntity
  8
RACCORDO
100
AcDbLine
 62
250
  6
CONTINUOUS
 10
-14.4639059318
 20
33.099310922
 11
-12.4823679612
 21
32.4926443624
  0
LINE
  5
396
100
AcDbEntity
  8
RACCORDO
100
AcDbLine
 62
250
  6
CONTINUOUS
 10
15.0318449435
 20
24.0354796553
 11
16.0985254512
 21
23.7085899731
  0
LINE
  5
397
100
AcDbEntity
  8
RACCORDO
100
AcDbLine
 62
250
  6
CONTINUOUS
 10
-12.4823679612
 20
32.4926443624
 11
8.4483913298
 21
26.0650109615
  0
LINE
  5
398
100
AcDbEntity
  8
RACCORDO
100
AcDbLine
 62
250
  6
CONTINUOUS
 10
-19.5165708802
 20
34.6450729819
 11
-17.9621475263
 21
34.1681184537
  0
LINE
  5
399
100
AcDbEntity
  8
RACCORDO
100
AcDbLine
 62
250
  6
CONTINUOUS
 10
13.8919339317
 20
24.3860719263
 11
15.0318449435
 21
24.0354796553
  0
LINE
  5
39A
100
AcDbEntity
  8
RACCORDO
100
AcDbLine
 62
250
  6
CONTINUOUS
 10
8.4483913298
 20
26.0650109615
 11
10.677596213
 21
25.3781997014
  0
LINE
  5
39B
100
AcDbEntity
  8
RACCORDO
100
AcDbLine
 62
250
  6
CONTINUOUS
 10
10.677596213
 20
25.3781997014
 11
13.8919339317
 21
24.3860719263
  0
LINE
  5
39C
100
AcDbEntity
  8
RACCORDO
100
AcDbLine
 62
250
  6
CONTINUOUS
 10
-20.9502329195
 20
35.0874007717
 11
-19.5165708802
 21
34.6450729819
  0
LINE
  5
39D
100
AcDbEntity
  8
RACCORDO
100
AcDbLine
 62
250
  6
CONTINUOUS
 10
-22.2712627619
 20
35.4976021783
 11
-20.9502329195
 21
35.0874007717
  0
LINE
  5
39E
100
AcDbEntity
  8
RACCORDO
100
AcDbLine
 62
250
  6
CONTINUOUS
 10
-23.4882750903
 20
35.8779932375
 11
-22.2712627619
 21
35.4976021783
  0
LINE
  5
39F
100
AcDbEntity
  8
RACCORDO
100
AcDbLine
 62
250
  6
CONTINUOUS
 10
-24.6099303968
 20
36.2307250873
 11
-23.4882750903
 21
35.8779932375
  0
LINE
  5
3A0
100
AcDbEntity
  8
RACCORDO
100
AcDbLine
 62
250
  6
CONTINUOUS
 10
-26.9013354473
 20
36.9565182207
 11
-24.6099303968
 21
36.2307250873
  0
LINE
  5
3A1
100
AcDbEntity
  8
RACCORDO
100
AcDbLine
 62
250
  6
CONTINUOUS
 10
-34.3207989605
 20
39.3239786754
 11
-33.3015011719
 21
38.9994217241
  0
LINE
  5
3A2
100
AcDbEntity
  8
RACCORDO
100
AcDbLine
 62
250
  6
CONTINUOUS
 10
-29.7507648206
 20
37.862775798
 11
-26.9013354473
 21
36.9565182207
  0
LINE
  5
3A3
100
AcDbEntity
  8
RACCORDO
100
AcDbLine
 62
250
  6
CONTINUOUS
 10
-31.6936329214
 20
38.4856063201
 11
-30.9815110555
 21
38.2579763274
  0
LINE
  5
3A4
100
AcDbEntity
  8
RACCORDO
100
AcDbLine
 62
250
  6
CONTINUOUS
 10
-33.3015011719
 20
38.9994217241
 11
-31.6936329214
 21
38.4856063201
  0
LWPOLYLINE
  5
3A5
100
AcDbEntity
  8
RACCORDO
100
AcDbPolyline
 62
250
  6
CONTINUOUS
 90
22
 70
0
 10
30.7914107339
 20
19.3350151797
 10
30.9910204492
 20
19.2675771693
 10
31.1897509572
 20
19.1873524879
 10
31.386524465
 20
19.0948025309
 10
31.5802760528
 20
18.9904430718
 10
31.7699341305
 20
18.874874597
 10
31.9544290042
 20
18.7487856083
 10
32.1327947024
 20
18.6128535302
 10
32.3039815613
 20
18.4678726049
 10
32.4668628548
 20
18.3148146333
 10
32.6204079605
 20
18.1547204448
 10
32.7639405736
 20
17.9883432192
 10
32.8969083653
 20
17.8162675697
 10
33.0187045446
 20
17.6391673942
 10
33.1283864629
 20
17.4582637694
 10
33.2250188317
 20
17.2749926715
 10
33.3080116526
 20
17.0905913476
 10
33.3770517046
 20
16.9058421618
 10
33.4317869145
 20
16.7215132279
 10
33.4719002377
 20
16.5385178155
 10
33.497153114
 20
16.3579067525
 10
33.5073899271
 20
16.1806343357
  0
LWPOLYLINE
  5
3A6
100
AcDbEntity
  8
RACCORDO
100
AcDbPolyline
 62
250
  6
CONTINUOUS
 90
22
 70
0
 10
30.4086412983
 20
18.1304855027
 10
30.548638775
 20
18.081671575
 10
30.6878419734
 20
18.0242493494
 10
30.8254147169
 20
17.9585829454
 10
30.9606423599
 20
17.885036388
 10
31.0928663406
 20
17.803987965
 10
31.2214136992
 20
17.7158332063
 10
31.3456720952
 20
17.6209862673
 10
31.4649629963
 20
17.5199824105
 10
31.5785321997
 20
17.413447883
 10
31.6856812421
 20
17.3020470954
 10
31.7860059342
 20
17.186273141
 10
31.8791758661
 20
17.0664872409
 10
31.964778839
 20
16.9430877522
 10
32.0422103185
 20
16.8168827396
 10
32.1108714856
 20
16.6888485929
 10
32.170338599
 20
16.5597919585
 10
32.2204146605
 20
16.4302051467
 10
32.2609035714
 20
16.3005982388
 10
32.2915626235
 20
16.1715545396
 10
32.3121653499
 20
16.0437795418
 10
32.3225471424
 20
15.9180006838
  0
LINE
  5
3A7
100
AcDbEntity
  8
RACCORDO
100
AcDbLine
 62
250
  6
CONTINUOUS
 10
32.3543692129
 20
15.4019526614
 11
32.3626153893
 21
15.3131678465
  0
LWPOLYLINE
  5
3A8
100
AcDbEntity
  8
RACCORDO
100
AcDbPolyline
 62
250
  6
CONTINUOUS
 90
5
 70
0
 10
32.3626153893
 20
15.3131678465
 10
32.3697830941
 20
15.2285195661
 10
32.3725202465
 20
15.1875507873
 10
32.3741206121
 20
15.1471910643
 10
32.3759214938
 20
15.0665371586
  0
LWPOLYLINE
  5
3A9
100
AcDbEntity
  8
RACCORDO
100
AcDbPolyline
 62
250
  6
CONTINUOUS
 90
6
 70
0
 10
32.3363571899
 20
15.6437697263
 10
32.3395954409
 20
15.5924460035
 10
32.3429980763
 20
15.5428743179
 10
32.3465626484
 20
15.4947882357
 10
32.3503032546
 20
15.4478204108
 10
32.3543692129
 20
15.4019526614
  0
LINE
  5
3AA
100
AcDbEntity
  8
RACCORDO
100
AcDbLine
 62
250
  6
CONTINUOUS
 10
34.9164287828
 20
-40.649723958
 11
34.924884142
 21
-40.8004025617
  0
LINE
  5
3AB
100
AcDbEntity
  8
RACCORDO
100
AcDbLine
 62
250
  6
CONTINUOUS
 10
32.3303704498
 20
15.7504514243
 11
32.3363571899
 21
15.6437697263
  0
LINE
  5
3AC
100
AcDbEntity
  8
RACCORDO
100
AcDbLine
 62
250
  6
CONTINUOUS
 10
34.9091146671
 20
-40.5076763903
 11
34.9164287828
 21
-40.649723958
  0
LINE
  5
3AD
100
AcDbEntity
  8
RACCORDO
100
AcDbLine
 62
250
  6
CONTINUOUS
 10
34.9030587156
 20
-40.3775333047
 11
34.9091146671
 21
-40.5076763903
  0
LWPOLYLINE
  5
3AE
100
AcDbEntity
  8
RACCORDO
100
AcDbPolyline
 62
250
  6
CONTINUOUS
 90
3
 70
0
 10
32.3225454505
 20
15.9179976857
 10
32.3249974363
 20
15.861081908
 10
32.3303704498
 20
15.7504514243
  0
LINE
  5
3AF
100
AcDbEntity
  8
RACCORDO
100
AcDbLine
 62
250
  6
CONTINUOUS
 10
34.8980894823
 20
-40.2563653178
 11
34.9030587156
 21
-40.3775333047
  0
LINE
  5
3B0
100
AcDbEntity
  8
RACCORDO
100
AcDbLine
 62
250
  6
CONTINUOUS
 10
34.8854793187
 20
-39.8981233626
 11
34.8883746696
 21
-39.9807161473
  0
LWPOLYLINE
  5
3B1
100
AcDbEntity
  8
RACCORDO
100
AcDbPolyline
 62
250
  6
CONTINUOUS
 90
3
 70
0
 10
34.8883746696
 20
-39.9807161473
 10
34.8911528146
 20
-40.0607265498
 10
34.8980894823
 20
-40.2563653178
  0
LWPOLYLINE
  5
3B2
100
AcDbEntity
  8
RACCORDO
100
AcDbPolyline
 62
250
  6
CONTINUOUS
 90
3
 70
0
 10
34.8318710699
 20
-38.3569651794
 10
34.8347212143
 20
-38.4396729855
 10
34.8854793187
 20
-39.8981233626
  0
LINE
  5
3B3
100
AcDbEntity
  8
RACCORDO
100
AcDbLine
 62
250
  6
CONTINUOUS
 10
34.8259743355
 20
-38.1853128328
 11
34.8318710699
 21
-38.3569651794
  0
LINE
  5
3B4
100
AcDbEntity
  8
RACCORDO
100
AcDbLine
 62
250
  6
CONTINUOUS
 10
34.8198223595
 20
-38.0053226167
 11
34.8259743355
 21
-38.1853128328
  0
LINE
  5
3B5
100
AcDbEntity
  8
RACCORDO
100
AcDbLine
 62
250
  6
CONTINUOUS
 10
34.8067491187
 20
-37.6189937741
 11
34.8198223595
 21
-38.0053226167
  0
LINE
  5
3B6
100
AcDbEntity
  8
RACCORDO
100
AcDbLine
 62
250
  6
CONTINUOUS
 10
32.3759214938
 20
15.0665371586
 11
32.4796294668
 21
12.0513687073
  0
LINE
  5
3B7
100
AcDbEntity
  8
RACCORDO
100
AcDbLine
 62
250
  6
CONTINUOUS
 10
32.4796294668
 20
12.0513687073
 11
32.5341840952
 21
10.4012404806
  0
LINE
  5
3B8
100
AcDbEntity
  8
RACCORDO
100
AcDbLine
 62
250
  6
CONTINUOUS
 10
32.5341840952
 20
10.4012404806
 11
32.5605843084
 21
9.5496774283
  0
LINE
  5
3B9
100
AcDbEntity
  8
RACCORDO
100
AcDbLine
 62
250
  6
CONTINUOUS
 10
34.738058128
 20
-35.4594003442
 11
34.8067491187
 21
-37.6189937741
  0
LINE
  5
3BA
100
AcDbEntity
  8
RACCORDO
100
AcDbLine
 62
250
  6
CONTINUOUS
 10
32.5605843084
 20
9.5496774283
 11
32.5831791404
 21
8.786550999
  0
LINE
  5
3BB
100
AcDbEntity
  8
RACCORDO
100
AcDbLine
 62
250
  6
CONTINUOUS
 10
32.5831791404
 20
8.786550999
 11
32.6070269098
 21
7.9423604593
  0
LINE
  5
3BC
100
AcDbEntity
  8
RACCORDO
100
AcDbLine
 62
250
  6
CONTINUOUS
 10
34.6751162079
 20
-33.2424072432
 11
34.738058128
 21
-35.4594003442
  0
LWPOLYLINE
  5
3BD
100
AcDbEntity
  8
RACCORDO
100
AcDbPolyline
 62
250
  6
CONTINUOUS
 90
3
 70
0
 10
34.6570213047
 20
-32.5724283131
 10
34.6631792082
 20
-32.8013709105
 10
34.6751162079
 20
-33.2424072432
  0
LINE
  5
3BE
100
AcDbEntity
  8
RACCORDO
100
AcDbLine
 62
250
  6
CONTINUOUS
 10
34.6442600498
 20
-32.0965568343
 11
34.6570213047
 21
-32.5724283131
  0
LINE
  5
3BF
100
AcDbEntity
  8
RACCORDO
100
AcDbLine
 62
250
  6
CONTINUOUS
 10
33.7542568631
 20
-40.3410393865
 11
33.7564155528
 21
-40.4197338411
  0
LINE
  5
3C0
100
AcDbEntity
  8
RACCORDO
100
AcDbLine
 62
250
  6
CONTINUOUS
 10
32.6070269098
 20
7.9423604593
 11
32.6745533621
 21
5.4225161446
  0
LINE
  5
3C1
100
AcDbEntity
  8
RACCORDO
100
AcDbLine
 62
250
  6
CONTINUOUS
 10
32.6745533621
 20
5.4225161446
 11
32.7894060733
 21
1.0449545871
  0
LINE
  5
3C2
100
AcDbEntity
  8
RACCORDO
100
AcDbLine
 62
250
  6
CONTINUOUS
 10
32.7894060733
 20
1.0449545871
 11
32.879652007
 21
-2.455239731
  0
LINE
  5
3C3
100
AcDbEntity
  8
RACCORDO
100
AcDbLine
 62
250
  6
CONTINUOUS
 10
34.3846064971
 20
-22.1711800071
 11
34.6442600498
 21
-32.0965568343
  0
LINE
  5
3C4
100
AcDbEntity
  8
RACCORDO
100
AcDbLine
 62
250
  6
CONTINUOUS
 10
32.879652007
 20
-2.455239731
 11
32.9737547808
 21
-6.1558745156
  0
LINE
  5
3C5
100
AcDbEntity
  8
RACCORDO
100
AcDbLine
 62
250
  6
CONTINUOUS
 10
32.9737547808
 20
-6.1558745156
 11
33.0846831213
 21
-10.5743247532
  0
LINE
  5
3C6
100
AcDbEntity
  8
RACCORDO
100
AcDbLine
 62
250
  6
CONTINUOUS
 10
33.0846831213
 20
-10.5743247532
 11
33.2083596318
 21
-15.5489361243
  0
LINE
  5
3C7
100
AcDbEntity
  8
RACCORDO
100
AcDbLine
 62
250
  6
CONTINUOUS
 10
34.05193751
 20
-8.9068661699
 11
34.3846064971
 21
-22.1711800071
  0
LINE
  5
3C8
100
AcDbEntity
  8
RACCORDO
100
AcDbLine
 62
250
  6
CONTINUOUS
 10
33.2083596318
 20
-15.5489361243
 11
33.3143413024
 21
-19.8565281437
  0
LINE
  5
3C9
100
AcDbEntity
  8
RACCORDO
100
AcDbLine
 62
250
  6
CONTINUOUS
 10
33.3143413024
 20
-19.8565281437
 11
33.4018501243
 21
-23.4613294877
  0
LINE
  5
3CA
100
AcDbEntity
  8
RACCORDO
100
AcDbLine
 62
250
  6
CONTINUOUS
 10
33.4018501243
 20
-23.4613294877
 11
33.4833092391
 21
-26.8668812941
  0
LINE
  5
3CB
100
AcDbEntity
  8
RACCORDO
100
AcDbLine
 62
250
  6
CONTINUOUS
 10
33.4833092391
 20
-26.8668812941
 11
33.5560618597
 21
-29.9575245982
  0
LINE
  5
3CC
100
AcDbEntity
  8
RACCORDO
100
AcDbLine
 62
250
  6
CONTINUOUS
 10
33.5560618597
 20
-29.9575245982
 11
33.6016879122
 21
-31.9205799695
  0
LINE
  5
3CD
100
AcDbEntity
  8
RACCORDO
100
AcDbLine
 62
250
  6
CONTINUOUS
 10
33.6016879122
 20
-31.9205799695
 11
33.6131899692
 21
-32.4208112606
  0
LINE
  5
3CE
100
AcDbEntity
  8
RACCORDO
100
AcDbLine
 62
250
  6
CONTINUOUS
 10
33.6131899692
 20
-32.4208112606
 11
33.6389675969
 21
-33.5666532264
  0
LINE
  5
3CF
100
AcDbEntity
  8
RACCORDO
100
AcDbLine
 62
250
  6
CONTINUOUS
 10
33.6389675969
 20
-33.5666532264
 11
33.6562304119
 21
-34.3837771038
  0
LINE
  5
3D0
100
AcDbEntity
  8
RACCORDO
100
AcDbLine
 62
250
  6
CONTINUOUS
 10
33.6562304119
 20
-34.3837771038
 11
33.6707937588
 21
-35.1207123907
  0
LINE
  5
3D1
100
AcDbEntity
  8
RACCORDO
100
AcDbLine
 62
250
  6
CONTINUOUS
 10
33.5724010687
 20
11.6011942971
 11
34.05193751
 21
-8.9068661699
  0
LINE
  5
3D2
100
AcDbEntity
  8
RACCORDO
100
AcDbLine
 62
250
  6
CONTINUOUS
 10
33.6707937588
 20
-35.1207123907
 11
33.6858355282
 21
-35.9402121757
  0
LINE
  5
3D3
100
AcDbEntity
  8
RACCORDO
100
AcDbLine
 62
250
  6
CONTINUOUS
 10
33.6858355282
 20
-35.9402121757
 11
33.7002201419
 21
-36.7919700669
  0
LINE
  5
3D4
100
AcDbEntity
  8
RACCORDO
100
AcDbLine
 62
250
  6
CONTINUOUS
 10
33.7464112372
 20
-39.8350796474
 11
33.7488676865
 21
-39.9909330652
  0
LINE
  5
3D5
100
AcDbEntity
  8
RACCORDO
100
AcDbLine
 62
250
  6
CONTINUOUS
 10
33.7446800983
 20
-39.7233114712
 11
33.7464112372
 21
-39.8350796474
  0
LINE
  5
3D6
100
AcDbEntity
  8
RACCORDO
100
AcDbLine
 62
250
  6
CONTINUOUS
 10
33.7002201419
 20
-36.7919700669
 11
33.7132821607
 21
-37.6293293461
  0
LINE
  5
3D7
100
AcDbEntity
  8
RACCORDO
100
AcDbLine
 62
250
  6
CONTINUOUS
 10
33.7132821607
 20
-37.6293293461
 11
33.7194830222
 21
-38.0443827188
  0
LINE
  5
3D8
100
AcDbEntity
  8
RACCORDO
100
AcDbLine
 62
250
  6
CONTINUOUS
 10
33.7194830222
 20
-38.0443827188
 11
33.7446800983
 21
-39.7233114712
  0
LINE
  5
3D9
100
AcDbEntity
  8
RACCORDO
100
AcDbLine
 62
250
  6
CONTINUOUS
 10
33.7488676865
 20
-39.9909330652
 11
33.7542568631
 21
-40.3410393865
  0
LINE
  5
3DA
100
AcDbEntity
  8
RACCORDO
100
AcDbLine
 62
250
  6
CONTINUOUS
 10
33.5084026304
 20
15.6058221396
 11
33.5724010687
 21
11.6011942971
  0
LWPOLYLINE
  5
3DB
100
AcDbEntity
  8
RACCORDO
100
AcDbPolyline
 62
250
  6
CONTINUOUS
 90
3
 70
0
 10
33.7564155528
 20
-40.4197338411
 10
33.7567744306
 20
-40.4589105446
 10
33.7559875302
 20
-40.4981931314
  0
LINE
  5
3DC
100
AcDbEntity
  8
RACCORDO
100
AcDbLine
 62
250
  6
CONTINUOUS
 10
33.5072190476
 20
15.7319718974
 11
33.5084026304
 21
15.6058221396
  0
LINE
  5
3DD
100
AcDbEntity
  8
RACCORDO
100
AcDbLine
 62
250
  6
CONTINUOUS
 10
33.5066412622
 20
15.8689040696
 11
33.5072190476
 21
15.7319718974
  0
LINE
  5
3DE
100
AcDbEntity
  8
RACCORDO
100
AcDbLine
 62
250
  6
CONTINUOUS
 10
33.7415629849
 20
-41.0335443402
 11
33.7418781098
 21
-41.1369418503
  0
LINE
  5
3DF
100
AcDbEntity
  8
RACCORDO
100
AcDbLine
 62
250
  6
CONTINUOUS
 10
33.5068452583
 20
16.0722680748
 11
33.5066412622
 21
15.8689040696
  0
LINE
  5
3E0
100
AcDbEntity
  8
RACCORDO
100
AcDbLine
 62
250
  6
CONTINUOUS
 10
33.5073899271
 20
16.1806343357
 11
33.5068452583
 21
16.0722680748
  0
LWPOLYLINE
  5
3E1
100
AcDbEntity
  8
RACCORDO
100
AcDbPolyline
 62
250
  6
CONTINUOUS
 90
10
 70
0
 10
34.1384584205
 20
-12.3959368003
 10
34.0655030159
 20
-12.465887806
 10
33.9788968816
 20
-12.5294177265
 10
33.8801313846
 20
-12.5854325749
 10
33.7709072776
 20
-12.6329677745
 10
33.6531054115
 20
-12.671204769
 10
33.5287543473
 20
-12.6994851183
 10
33.3999954237
 20
-12.7173218367
 10
33.2690458834
 20
-12.7244077791
 10
33.1381606917
 20
-12.7206209298
  0
LINE
  5
3E2
100
AcDbEntity
  8
RACCORDO
100
AcDbLine
 62
7
  6
CONTINUOUS
 10
33.249498152
 20
22.2632700724
 11
-32.667374715
 21
42.50570313
  0
LINE
  5
3E3
100
AcDbEntity
  8
0
100
AcDbLine
 62
7
  6
CONTINUOUS
 10
35.7375631926
 20
-8.5530608496
 11
35.8378611765
 21
-12.5848819737
  0
LINE
  5
3E4
100
AcDbEntity
  8
RACCORDO
100
AcDbLine
 62
7
  6
CONTINUOUS
 10
37.4031059882
 20
-38.2613078125
 11
36.7858083251
 21
-13.446913123
  0
LINE
  5
3E5
100
AcDbEntity
  8
RACCORDO
100
AcDbLine
 62
7
  6
CONTINUOUS
 10
36.5929275869
 20
-5.6934109612
 11
35.9756299238
 21
19.1209837283
  0
LWPOLYLINE
  5
3E6
100
AcDbEntity
  8
RACCORDO
100
AcDbPolyline
 62
250
  6
CONTINUOUS
 90
9
 70
0
 10
34.924884142
 20
-40.8004025617
 10
34.9232733945
 20
-40.9698069024
 10
34.906602395
 20
-41.1340124586
 10
34.8749769913
 20
-41.2920623984
 10
34.8285832483
 20
-41.4430069224
 10
34.7676926206
 20
-41.5860003283
 10
34.6926195099
 20
-41.7202782119
 10
34.6036391857
 20
-41.8451642128
 10
34.511870955
 20
-41.94900844
  0
LWPOLYLINE
  5
3E7
100
AcDbEntity
  8
RACCORDO
100
AcDbPolyline
 62
250
  6
CONTINUOUS
 90
22
 70
0
 10
33.7418799697
 20
-41.136938102
 10
33.7374291374
 20
-41.2495060107
 10
33.7227305552
 20
-41.3589591406
 10
33.6979089206
 20
-41.4645104817
 10
33.6631571534
 20
-41.5654800921
 10
33.6186867803
 20
-41.6613318937
 10
33.5646673974
 20
-41.7515725787
 10
33.5012759443
 20
-41.8357548134
 10
33.4289000414
 20
-41.9132807315
 10
33.3480991616
 20
-41.9834856654
 10
33.2594508675
 20
-42.0458905174
 10
33.1633540839
 20
-42.1003266121
 10
33.0601258131
 20
-42.1466129653
 10
32.9501573803
 20
-42.1844919607
 10
32.83412538
 20
-42.2137379978
 10
32.7127521286
 20
-42.2341954877
 10
32.5866928737
 20
-42.2457537684
 10
32.456552952
 20
-42.2484080944
 10
32.3229989422
 20
-42.2422149452
 10
32.1866831749
 20
-42.227239967
 10
32.0483233929
 20
-42.2036294916
 10
31.9087521395
 20
-42.1716314368
  0
LINE
  5
3E8
100
AcDbEntity
  8
RACCORDO
100
AcDbLine
 62
250
  6
CONTINUOUS
 10
33.7559875302
 20
-40.4981931314
 11
33.7528339469
 21
-40.5782762561
  0
LWPOLYLINE
  5
3E9
100
AcDbEntity
  8
RACCORDO
100
AcDbPolyline
 62
250
  6
CONTINUOUS
 90
9
 70
0
 10
33.7528339469
 20
-40.5782762561
 10
33.7489135169
 20
-40.6613070026
 10
33.7470809516
 20
-40.7039373332
 10
33.7456141568
 20
-40.7475178943
 10
33.744372293
 20
-40.7920247671
 10
33.7433581914
 20
-40.8378198035
 10
33.7425865326
 20
-40.8851323339
 10
33.7420478158
 20
-40.9337239583
 10
33.7415629849
 20
-41.0335443402
  0
LWPOLYLINE
  5
3EA
100
AcDbEntity
  8
RACCORDO
100
AcDbPolyline
 62
250
  6
CONTINUOUS
 90
13
 70
0
 10
34.9248516158
 20
-40.8003911739
 10
34.8623379216
 20
-40.8658275488
 10
34.7893466338
 20
-40.9264584027
 10
34.706829965
 20
-40.981492772
 10
34.6158643917
 20
-41.0302127023
 10
34.5176366111
 20
-41.0719826145
 10
34.4134280601
 20
-41.1062575963
 10
34.3045981979
 20
-41.1325905112
 10
34.1925667716
 20
-41.1506378316
 10
34.0787952943
 20
-41.1601641202
 10
33.9647679792
 20
-41.1610451011
 10
33.8519723769
 20
-41.1532692817
 10
33.7418799697
 20
-41.136938102
  0
LINE
  5
3EB
100
AcDbEntity
  8
RACCORDO
100
AcDbLine
 62
250
  6
CONTINUOUS
 10
34.924884142
 20
-40.8004025617
 11
37.4031059882
 21
-38.2613078125
  0
LINE
  5
3EC
100
AcDbEntity
  8
RACCORDO
100
AcDbLine
 62
7
  6
CONTINUOUS
 10
36.9833742082
 20
-39.4167973135
 11
34.5112102952
 21
-41.9496848723
  0
ARC
  5
3ED
100
AcDbEntity
  8
RACCORDO
100
AcDbCircle
 62
7
  6
CONTINUOUS
 10
-6.1283402247
 20
-16.8326737333
 40
0.15
100
AcDbArc
 50
325.706691543
 51
1.4285363892
  0
ARC
  5
3EE
100
AcDbEntity
  8
RACCORDO
100
AcDbCircle
 62
7
  6
CONTINUOUS
 10
13.911725373
 20
-22.9867837311
 40
0.15
100
AcDbArc
 50
325.706691543
 51
1.4285363892
  0
ELLIPSE
  5
3EF
100
AcDbEntity
  8
RACCORDO
100
AcDbEllipse
 62
7
  6
CONTINUOUS
 10
-11.2046293084
 20
-14.610931616
 30
0.0
 11
0.1505926105
 21
-0.0294362225
 31
0.0
 40
0.2251237175
 41
2.1804824813
 42
2.6517213793
  0
ELLIPSE
  5
3F0
100
AcDbEntity
  8
RACCORDO
100
AcDbEllipse
 62
7
  6
CONTINUOUS
 10
-6.1449569386
 20
-16.1647079829
 30
0.0
 11
0.1505926105
 21
-0.0294362225
 31
0.0
 40
0.2251237175
 41
-0.3851515191
 42
0.0498062696
  0
ELLIPSE
  5
3F1
100
AcDbEntity
  8
RACCORDO
100
AcDbEllipse
 62
7
  6
CONTINUOUS
 10
8.8354362893
 20
-20.7650416137
 30
0.0
 11
0.1505926105
 21
-0.0294362225
 31
0.0
 40
0.2251237175
 41
2.1804824813
 42
2.6517213793
  0
ELLIPSE
  5
3F2
100
AcDbEntity
  8
RACCORDO
100
AcDbEllipse
 62
7
  6
CONTINUOUS
 10
13.8951086591
 20
-22.3188179806
 30
0.0
 11
0.1505926105
 21
-0.0294362225
 31
0.0
 40
0.2251237175
 41
-0.3851515191
 42
0.0498062696
  0
ELLIPSE
  5
3F3
100
AcDbEntity
  8
0
100
AcDbEllipse
 62
7
  6
CONTINUOUS
 10
36.9898628752
 20
-7.1658256141
 30
0.0
 11
0.8278135869
 21
2.3606902569
 31
0.0
 40
0.3985724632
 41
1.0438251492
 42
2.3308273668
  0
ELLIPSE
  5
3F4
100
AcDbEntity
  8
RACCORDO
100
AcDbEllipse
 62
7
  6
CONTINUOUS
 10
33.3001129675
 20
19.9362778859
 30
0.0
 11
2.3486830781
 21
-1.867365038
 31
0.0
 40
0.686928133
 41
0.5215401104
 42
2.0895973814
  0
ELLIPSE
  5
3F5
100
AcDbEntity
  8
RACCORDO
100
AcDbEllipse
 62
7
  6
CONTINUOUS
 10
34.7272716107
 20
-37.4332538192
 30
0.0
 11
2.3475766321
 21
-1.8801564348
 31
0.0
 40
0.6836826228
 41
-0.0671024095
 42
0.522616035
  0
ELLIPSE
  5
3F6
100
AcDbEntity
  8
RACCORDO
100
AcDbEllipse
 62
7
  6
CONTINUOUS
 10
-32.6021022682
 20
40.1742097269
 30
0.0
 11
2.3475766321
 21
-1.8801564348
 31
0.0
 40
0.6836826228
 41
2.0961514176
 42
3.2086950703
  0
ELLIPSE
  5
3F7
100
AcDbEntity
  8
0
100
AcDbEllipse
 62
7
  6
CONTINUOUS
 10
37.090160859
 20
-11.1976467383
 30
0.0
 11
0.8278135869
 21
2.3606902569
 31
0.0
 40
0.3985724632
 41
2.3308273668
 42
3.6178295844
  0
ENDSEC
  0
SECTION
  2
OBJECTS
  0
DICTIONARY
  5
C
100
AcDbDictionary
280
0
281
1
  3
ACAD_GROUP
350
D
  3
ACAD_MLINESTYLE
350
17
  3
ACAD_LAYOUT
350
1A
  3
ACAD_PLOTSETTINGS
350
19
  3
ACAD_PLOTSTYLENAME
350
E
  0
DICTIONARY
  5
D
102
{ACAD_REACTORS
330
C
102
}
100
AcDbDictionary
280
0
281
1
  0
ACDBDICTIONARYWDFLT
  5
E
102
{ACAD_REACTORS
330
C
102
}
100
AcDbDictionary
281
1
  3
Normal
350
F
100
AcDbDictionaryWithDefault
340
F
  0
DICTIONARY
  5
17
102
{ACAD_REACTORS
330
C
102
}
100
AcDbDictionary
280
0
281
1
  3
Standard
350
18
  0
DICTIONARY
  5
19
102
{ACAD_REACTORS
330
C
102
}
100
AcDbDictionary
281
1
  0
DICTIONARY
  5
1A
102
{ACAD_REACTORS
330
C
102
}
100
AcDbDictionary
281
1
  3
Model
350
3F8
  3
Layout1
350
3F9
  0
ACDBPLACEHOLDER
  5
F
102
{ACAD_REACTORS
330
E
102
}
  0
MLINESTYLE
  5
18
102
{ACAD_REACTORS
330
17
102
}
100
AcDbMlineStyle
  2
STANDARD
 70
0
  3

 62
256
 51
90.0
 52
90.0
 71
2
 49
0.5
 62
256
  6
BYLAYER
 49
-0.5
 62
256
  6
BYLAYER
  0
LAYOUT
  5
3F8
102
{ACAD_REACTORS
330
1A
102
}
100
AcDbPlotSettings
  1

  2
none_device
  4
ISO_A4_(297.00_x_210.00_MM)
  6

 40
0.0
 41
0.0
 42
0.0
 43
0.0
 44
297.0
 45
210.0
 46
0.0
 47
0.0
 48
0.0
 49
0.0
140
0.0
141
0.0
142
1.0
143
1.0
 70
1024
 72
1
 73
0
 74
0
  7

 75
0
147
1.0
148
0.0
149
0.0
100
AcDbLayout
  1
Model
 70
0
 71
0
 10
0.0
 20
0.0
 11
297.0
 21
210.0
 12
0.0
 22
0.0
 32
0.0
 14
0.0
 24
0.0
 34
0.0
 15
0.0
 25
0.0
 35
0.0
146
0.0
 13
0.0
 23
0.0
 33
0.0
 16
1.0
 26
0.0
 36
0.0
 17
0.0
 27
1.0
 37
0.0
 76
0
330
20F
345
0
346
0
  0
LAYOUT
  5
3F9
102
{ACAD_REACTORS
330
1A
102
}
100
AcDbPlotSettings
  1

  2
none_device
  4
ISO_A4_(297.00_x_210.00_MM)
  6

 40
0.0
 41
0.0
 42
0.0
 43
0.0
 44
297.0
 45
210.0
 46
0.0
 47
0.0
 48
0.0
 49
0.0
140
0.0
141
0.0
142
1.0
143
1.0
 70
0
 72
1
 73
0
 74
0
  7

 75
0
147
1.0
148
0.0
149
0.0
100
AcDbLayout
  1
Layout1
 70
0
 71
1
 10
0.0
 20
0.0
 11
297.0
 21
210.0
 12
0.0
 22
0.0
 32
0.0
 14
0.0
 24
0.0
 34
0.0
 15
0.0
 25
0.0
 35
0.0
146
0.0
 13
0.0
 23
0.0
 33
0.0
 16
1.0
 26
0.0
 36
0.0
 17
0.0
 27
1.0
 37
0.0
 76
0
330
210
345
0
346
0
  0
ENDSEC
  0
EOF
