  0
SECTION
  2
HEADER
  9
$ACADVER
  1
AC1024
  9
$DWGCODEPAGE
  3
ANSI_1252
  9
$EXTMAX
 10
297.0
 20
210.0
 30
0.0
  9
$EXTMIN
 10
0.0
 20
0.0
 30
0.0
  9
$LIMMIN
 10
0.0
 20
0.0
  9
$LIMMAX
 10
297.0
 20
210.0
  9
$VIEWCTR
 10
148.5
 20
105.0
  9
$VIEWSIZE
 40
210.0
  9
$CLAYER
  8
0
  9
$LTSCALE
 40
16.335
  9
$CELTYPE
  6
BYLAYER
  9
$DIMSCALE
 40
1.0
  9
$DIMASZ
 40
3.0
  9
$DIMEXO
 40
0.5
  9
$DIMDLI
 40
11.286
  9
$DIMEXE
 40
1.5
  9
$DIMCEN
 40
2.673
  9
$DIMLFAC
 40
1.0
  9
$DIMBLK
  1
_FILLED
  9
$DIMALT
 70
0
  9
$DIMALTF
 40
0.0393700787
  9
$DIMTXT
 40
3.0
  9
$DIMTOL
 70
1
  9
$DIMLIM
 70
0
  9
$DIMTFAC
 40
1.0
  9
$DIMTP
 40
0.01
  9
$DIMTM
 40
0.01
  9
$DIMGAP
 40
0.625
  9
$DIMDSEP
 70
44
  9
$AUNITS
 70
0
  9
$PDMODE
 70
3
  9
$PDSIZE
 40
3.0
  9
$HANDSEED
  5
4D0
  9
$TILEMODE
 70
1
  9
$MEASUREMENT
 70
1
  9
$INSUNITS
 70
4
  0
ENDSEC
  0
SECTION
  2
CLASSES
  0
CLASS
  1
ACDBDICTIONARYWDFLT
  2
AcDbDictionaryWithDefault
  3
AutoCAD 2000
 90
0
 91
1
280
0
281
0
  0
CLASS
  1
ACDBPLACEHOLDER
  2
AcDbPlaceHolder
  3
AutoCAD 2000
 90
0
 91
1
280
0
281
0
  0
CLASS
  1
LAYOUT
  2
AcDbLayout
  3
AutoCAD 2000
 90
0
 91
0
280
0
281
0
  0
ENDSEC
  0
SECTION
  2
TABLES
  0
TABLE
  2
VPORT
  5
8
100
AcDbSymbolTable
 70
2
  0
VPORT
  5
1F4
100
AcDbSymbolTableRecord
100
AcDbViewportTableRecord
  2
*ACTIVE
 70
0
 10
0.0
 20
0.0
 11
1.0
 21
1.0
 12
148.5
 22
105.0
 13
0.0
 23
0.0
 14
1.0
 24
1.0
 15
0.0
 25
0.0
 16
0.0
 26
0.0
 36
1.0
 17
0.0
 27
0.0
 37
0.0
 40
210.0
 41
1.4142857143
 42
50.0
 43
0.0
 44
0.0
 50
0.0
 51
0.0
 71
0
 72
100
 73
1
 74
1
 75
0
 76
0
 77
0
 78
0
  0
ENDTAB
  0
TABLE
  2
LTYPE
  5
5
100
AcDbSymbolTable
 70
6
  0
LTYPE
  5
14
100
AcDbSymbolTableRecord
100
AcDbLinetypeTableRecord
  2
BYBLOCK
 70
0
  3

 72
65
 73
0
 40
0.0
  0
LTYPE
  5
15
100
AcDbSymbolTableRecord
100
AcDbLinetypeTableRecord
  2
BYLAYER
 70
0
  3

 72
65
 73
0
 40
0.0
  0
LTYPE
  5
16
100
AcDbSymbolTableRecord
100
AcDbLinetypeTableRecord
  2
CONTINUOUS
 70
64
  3
Solid line
 72
65
 73
0
 40
0.0
  0
LTYPE
  5
1F5
100
AcDbSymbolTableRecord
100
AcDbLinetypeTableRecord
  2
CENTER
 70
64
  3
____ _ ____ _ ____ _ ____ _ ____ _ ____ _ ____
 72
65
 73
4
 40
0.6
 49
0.375
 74
0
 49
-0.075
 74
0
 49
0.075
 74
0
 49
-0.075
 74
0
  0
LTYPE
  5
1F6
100
AcDbSymbolTableRecord
100
AcDbLinetypeTableRecord
  2
HIDDEN
 70
64
  3
- - - - - - - - - - - - - - - - - - - -
 72
65
 73
2
 40
0.2
 49
0.1
 74
0
 49
-0.1
 74
0
  0
LTYPE
  5
1F7
100
AcDbSymbolTableRecord
100
AcDbLinetypeTableRecord
  2
PHANTOM
 70
64
  3
_____ _ _ _____ _ _ _____ _ _ _____
 72
65
 73
6
 40
0.8
 49
0.45
 74
0
 49
-0.05
 74
0
 49
0.1
 74
0
 49
-0.05
 74
0
 49
0.1
 74
0
 49
-0.05
 74
0
  0
LTYPE
  5
1F8
100
AcDbSymbolTableRecord
100
AcDbLinetypeTableRecord
  2
DOT
 70
64
  3
. . . . . . . . . . . . . . . . . . . .
 72
65
 73
2
 40
0.2
 49
0.1
 74
0
 49
-0.1
 74
0
  0
LTYPE
  5
1F9
100
AcDbSymbolTableRecord
100
AcDbLinetypeTableRecord
  2
DASHED
 70
64
  3
- - - - - - - - - - - - - - - - - - - -
 72
65
 73
2
 40
0.2
 49
0.1
 74
0
 49
-0.1
 74
0
  0
ENDTAB
  0
TABLE
  2
LAYER
  5
2
100
AcDbSymbolTable
 70
36
  0
LAYER
  5
10
100
AcDbSymbolTableRecord
100
AcDbLayerTableRecord
  2
0
 70
0
 62
7
  6
CONTINUOUS
370
-3
390
F
  0
LAYER
  5
1FA
100
AcDbSymbolTableRecord
100
AcDbLayerTableRecord
  2
DEFAULT_1
 70
0
 62
7
  6
CENTER
370
-3
390
F
  0
LAYER
  5
1FB
100
AcDbSymbolTableRecord
100
AcDbLayerTableRecord
  2
DEFAULT_2
 70
0
 62
7
  6
HIDDEN
370
-3
390
F
  0
LAYER
  5
1FC
100
AcDbSymbolTableRecord
100
AcDbLayerTableRecord
  2
DEFAULT_3
 70
0
 62
7
  6
PHANTOM
370
-3
390
F
  0
LAYER
  5
1FD
100
AcDbSymbolTableRecord
100
AcDbLayerTableRecord
  2
ASSI
 70
0
 62
7
  6
CONTINUOUS
370
-3
390
F
  0
LAYER
  5
1FE
100
AcDbSymbolTableRecord
100
AcDbLayerTableRecord
  2
COLOR5
 70
0
 62
7
  6
CONTINUOUS
370
-3
390
F
  0
LAYER
  5
1FF
100
AcDbSymbolTableRecord
100
AcDbLayerTableRecord
  2
COORDINATE
 70
0
 62
7
  6
CONTINUOUS
370
-3
390
F
  0
LAYER
  5
200
100
AcDbSymbolTableRecord
100
AcDbLayerTableRecord
  2
COORD_ORIGINE
 70
0
 62
7
  6
CONTINUOUS
370
-3
390
F
  0
LAYER
  5
201
100
AcDbSymbolTableRecord
100
AcDbLayerTableRecord
  2
CURVE
 70
0
 62
7
  6
CONTINUOUS
370
-3
390
F
  0
LAYER
  5
202
100
AcDbSymbolTableRecord
100
AcDbLayerTableRecord
  2
DRAFT
 70
0
 62
7
  6
CONTINUOUS
370
-3
390
F
  0
LAYER
  5
203
100
AcDbSymbolTableRecord
100
AcDbLayerTableRecord
  2
ESTRATTORI
 70
0
 62
7
  6
CONTINUOUS
370
-3
390
F
  0
LAYER
  5
204
100
AcDbSymbolTableRecord
100
AcDbLayerTableRecord
  2
IGES
 70
0
 62
7
  6
CONTINUOUS
370
-3
390
F
  0
LAYER
  5
205
100
AcDbSymbolTableRecord
100
AcDbLayerTableRecord
  2
INTF_5
 70
0
 62
7
  6
CONTINUOUS
370
-3
390
F
  0
LAYER
  5
206
100
AcDbSymbolTableRecord
100
AcDbLayerTableRecord
  2
INTF_MAGENTA
 70
0
 62
7
  6
CONTINUOUS
370
-3
390
F
  0
LAYER
  5
207
100
AcDbSymbolTableRecord
100
AcDbLayerTableRecord
  2
INTF_RED
 70
0
 62
7
  6
CONTINUOUS
370
-3
390
F
  0
LAYER
  5
208
100
AcDbSymbolTableRecord
100
AcDbLayerTableRecord
  2
NOTE
 70
0
 62
7
  6
CONTINUOUS
370
-3
390
F
  0
LAYER
  5
209
100
AcDbSymbolTableRecord
100
AcDbLayerTableRecord
  2
PIANI
 70
0
 62
7
  6
CONTINUOUS
370
-3
390
F
  0
LAYER
  5
20A
100
AcDbSymbolTableRecord
100
AcDbLayerTableRecord
  2
PIANI_ORIGINE
 70
0
 62
7
  6
CONTINUOUS
370
-3
390
F
  0
LAYER
  5
20B
100
AcDbSymbolTableRecord
100
AcDbLayerTableRecord
  2
PLACCA
 70
0
 62
7
  6
CONTINUOUS
370
-3
390
F
  0
LAYER
  5
20C
100
AcDbSymbolTableRecord
100
AcDbLayerTableRecord
  2
PUNTI
 70
0
 62
7
  6
CONTINUOUS
370
-3
390
F
  0
LAYER
  5
20D
100
AcDbSymbolTableRecord
100
AcDbLayerTableRecord
  2
RACCORDO
 70
0
 62
7
  6
CONTINUOUS
370
-3
390
F
  0
LAYER
  5
20E
100
AcDbSymbolTableRecord
100
AcDbLayerTableRecord
  2
SMUSSO
 70
0
 62
7
  6
CONTINUOUS
370
-3
390
F
  0
LAYER
  5
20F
100
AcDbSymbolTableRecord
100
AcDbLayerTableRecord
  2
SNAPLINE
 70
0
 62
7
  6
CONTINUOUS
370
-3
390
F
  0
LAYER
  5
210
100
AcDbSymbolTableRecord
100
AcDbLayerTableRecord
  2
SUPERFICI
 70
0
 62
7
  6
CONTINUOUS
370
-3
390
F
  0
LAYER
  5
211
100
AcDbSymbolTableRecord
100
AcDbLayerTableRecord
  2
SUPPORTO
 70
0
 62
7
  6
CONTINUOUS
370
-3
390
F
  0
LAYER
  5
212
100
AcDbSymbolTableRecord
100
AcDbLayerTableRecord
  2
TRASH
 70
0
 62
7
  6
CONTINUOUS
370
-3
390
F
  0
LAYER
  5
213
100
AcDbSymbolTableRecord
100
AcDbLayerTableRecord
  2
XSEC_DATUMS
 70
0
 62
7
  6
CONTINUOUS
370
-3
390
F
  0
ENDTAB
  0
TABLE
  2
STYLE
  5
3
100
AcDbSymbolTable
 70
1
  0
STYLE
  5
11
100
AcDbSymbolTableRecord
100
AcDbTextStyleTableRecord
  2
STANDARD
 70
0
 40
0.0
 41
0.8
 50
0.0
 71
0
 42
0.2
  3
txt
  4

  0
STYLE
  5
214
100
AcDbSymbolTableRecord
100
AcDbTextStyleTableRecord
  2
TEXTSTYLE_1
 70
0
 40
0.0
 41
0.8
 50
0.0
 71
0
 42
0.2
  3
gdt
  4

  0
ENDTAB
  0
TABLE
  2
VIEW
  5
6
100
AcDbSymbolTable
 70
0
  0
ENDTAB
  0
TABLE
  2
UCS
  5
7
100
AcDbSymbolTable
 70
0
  0
ENDTAB
  0
TABLE
  2
APPID
  5
9
100
AcDbSymbolTable
 70
1
  0
APPID
  5
215
100
AcDbSymbolTableRecord
100
AcDbRegAppTableRecord
  2
ACAD
 70
0
  0
ENDTAB
  0
TABLE
  2
BLOCK_RECORD
  5
1
100
AcDbSymbolTable
 70
0
  0
BLOCK_RECORD
  5
216
100
AcDbSymbolTableRecord
100
AcDbBlockTableRecord
  2
*Model_Space
  0
BLOCK_RECORD
  5
217
100
AcDbSymbolTableRecord
100
AcDbBlockTableRecord
  2
*Paper_Space
  0
BLOCK_RECORD
  5
218
100
AcDbSymbolTableRecord
100
AcDbBlockTableRecord
  2
_FILLED
  0
ENDTAB
  0
TABLE
  2
DIMSTYLE
  5
A
100
AcDbSymbolTable
 70
1
100
AcDbDimStyleTable
 71
0
  0
DIMSTYLE
105
219
100
AcDbSymbolTableRecord
100
AcDbDimStyleTableRecord
  2
STANDARD
 70
0
  3

  4

 40
1.0
 41
3.0
 42
0.5
 43
0.38
 44
1.5
 45
0.0
 46
0.0
 47
0.01
 48
0.01
140
3.0
141
0.09
142
0.0
143
25.4
144
1.0
145
0.0
146
1.0
147
0.625
 71
1
 72
0
 73
0
 74
0
 75
0
 76
0
 77
1
 78
8
 79
2
170
0
171
1
172
0
173
0
174
0
175
0
176
0
177
0
178
0
270
2
179
2
271
2
272
2
273
2
274
2
275
0
280
0
281
0
282
0
283
1
284
8
285
0
286
0
287
3
288
0
340
11
278
44
341
218
342
218
343
218
344
218
  0
ENDTAB
  0
ENDSEC
  0
SECTION
  2
BLOCKS
  0
BLOCK
  5
20
100
AcDbEntity
  8
0
100
AcDbBlockBegin
  2
*Model_Space
 70
0
 10
0.0
 20
0.0
 30
0.0
  3
*Model_Space
  1

  0
ENDBLK
  5
21
100
AcDbEntity
  8
0
100
AcDbBlockEnd
  0
BLOCK
  5
1C
100
AcDbEntity
  8
0
100
AcDbBlockBegin
  2
*Paper_Space
 70
0
 10
0.0
 20
0.0
 30
0.0
  3
*Paper_Space
  1

  0
ENDBLK
  5
1D
100
AcDbEntity
  8
0
100
AcDbBlockEnd
  0
BLOCK
  5
21A
100
AcDbEntity
  8
0
100
AcDbBlockBegin
  2
_FILLED
 70
64
 10
0.0
 20
0.0
  3
_FILLED
  1

  0
SOLID
  5
21B
100
AcDbEntity
  8
0
  6
BYBLOCK
 62
0
100
AcDbTrace
 10
0.0
 20
0.0
 11
-1.0
 21
0.3166666667
 12
-1.0
 22
-0.3166666667
 13
-1.0
 23
-0.3166666667
  0
ENDBLK
  5
21C
100
AcDbEntity
  8
0
  6
BYBLOCK
 62
0
100
AcDbBlockEnd
  0
ENDSEC
  0
SECTION
  2
ENTITIES
  0
LWPOLYLINE
  5
21D
100
AcDbEntity
  8
SUPERFICI
100
AcDbPolyline
 62
7
  6
CONTINUOUS
 90
6
 70
0
 10
-38.0340115556
 20
38.8971712473
 10
-38.0598532021
 20
38.8582734426
 10
-38.1774126431
 20
38.6488461794
 10
-38.2667712328
 20
38.427723008
 10
-38.3269724118
 20
38.1960297133
 10
-38.358697595
 20
37.9564512339
  0
LINE
  5
21E
100
AcDbEntity
  8
SUPERFICI
100
AcDbLine
 62
7
  6
CONTINUOUS
 10
-36.1676472102
 20
41.6385073602
 11
-38.0348614468
 21
38.8959242083
  0
LWPOLYLINE
  5
21F
100
AcDbEntity
  8
SUPERFICI
100
AcDbPolyline
 62
250
  6
CONTINUOUS
 90
10
 70
0
 10
-38.034108232
 20
38.8970293124
 10
-37.9979387648
 20
38.9474023454
 10
-37.8543472817
 20
39.1078375895
 10
-37.6843603613
 20
39.2441516799
 10
-37.4902859814
 20
39.3545434993
 10
-37.2746046324
 20
39.4376455847
 10
-37.0401721906
 20
39.4923844982
 10
-36.7900691778
 20
39.5180756004
 10
-36.5275501141
 20
39.514417034
 10
-36.2560368176
 20
39.4814851813
  0
LINE
  5
220
100
AcDbEntity
  8
0
100
AcDbLine
 62
250
  6
CONTINUOUS
 10
-35.8814264728
 20
39.3914346221
 11
-33.8171457228
 21
42.1793628497
  0
LWPOLYLINE
  5
221
100
AcDbEntity
  8
SUPERFICI
100
AcDbPolyline
 62
250
  6
CONTINUOUS
 90
13
 70
0
 10
-35.7313098738
 20
39.3453352689
 10
-35.7718798381
 20
39.28077617
 10
-35.8039050842
 20
39.2077343971
 10
-35.8267779553
 20
39.1264222919
 10
-35.8399396158
 20
39.0370095487
 10
-35.842798302
 20
38.9401536319
 10
-35.8349347352
 20
38.8370944829
 10
-35.8161145565
 20
38.7288644953
 10
-35.7861098826
 20
38.6163317977
 10
-35.7447941221
 20
38.5007896612
 10
-35.6920966666
 20
38.3836118459
 10
-35.6279686594
 20
38.266255969
 10
-35.5524311438
 20
38.1503922661
  0
LWPOLYLINE
  5
222
100
AcDbEntity
  8
SUPERFICI
100
AcDbPolyline
 62
250
  6
CONTINUOUS
 90
10
 70
0
 10
-34.5516331028
 20
32.0744610268
 10
-34.6080433329
 20
31.9724922216
 10
-34.6617539097
 20
31.8667788123
 10
-34.7128370001
 20
31.7576148654
 10
-34.7613754554
 20
31.6451912803
 10
-34.8073775943
 20
31.5295051662
 10
-34.8508250811
 20
31.41056946
 10
-34.891718082
 20
31.2884471867
 10
-34.9300764628
 20
31.1631616622
 10
-34.9659229453
 20
31.034750405
  0
LWPOLYLINE
  5
223
100
AcDbEntity
  8
SUPERFICI
100
AcDbPolyline
 62
250
  6
CONTINUOUS
 90
10
 70
0
 10
-34.4550576402
 20
32.2299077379
 10
-34.466164596
 20
32.2131605046
 10
-34.4771750606
 20
32.1962816403
 10
-34.4880902236
 20
32.1792709805
 10
-34.4989119877
 20
32.1621272787
 10
-34.5096409097
 20
32.1448514604
 10
-34.5202762764
 20
32.1274466775
 10
-34.5308188131
 20
32.1099139454
 10
-34.5412706071
 20
32.0922520874
 10
-34.5516331028
 20
32.0744610268
  0
LINE
  5
224
100
AcDbEntity
  8
SUPERFICI
100
AcDbLine
 62
7
  6
CONTINUOUS
 10
-38.358697595
 20
37.9564512339
 11
-38.3663960294
 21
37.7756535949
  0
LWPOLYLINE
  5
225
100
AcDbEntity
  8
SUPERFICI
100
AcDbPolyline
 62
250
  6
CONTINUOUS
 90
16
 70
0
 10
-38.0859932644
 20
37.4383331063
 10
-38.0671564078
 20
37.5947526347
 10
-38.0287862356
 20
37.7432783919
 10
-37.9713791755
 20
37.88201203
 10
-37.8949803705
 20
38.0095105546
 10
-37.7998147216
 20
38.1243855291
 10
-37.6873989772
 20
38.2245585346
 10
-37.5593780052
 20
38.3085165135
 10
-37.4168505503
 20
38.3754471611
 10
-37.2614213656
 20
38.4248000042
 10
-37.0953246087
 20
38.4559466344
 10
-36.9196399594
 20
38.468580896
 10
-36.7339338064
 20
38.4623941686
 10
-36.5397103005
 20
38.4368233992
 10
-36.3392586595
 20
38.3908105615
 10
-36.1346971285
 20
38.3292459616
  0
LWPOLYLINE
  5
226
100
AcDbEntity
  8
SUPERFICI
100
AcDbPolyline
 62
250
  6
CONTINUOUS
 90
10
 70
0
 10
-34.9659229453
 20
31.034750405
 10
-35.023108789
 20
30.8008935869
 10
-35.072602327
 20
30.5590458411
 10
-35.1149027657
 20
30.309421871
 10
-35.1505039539
 20
30.0525325595
 10
-35.1800510325
 20
29.7889055494
 10
-35.2043598399
 20
29.5191281097
 10
-35.2241043799
 20
29.2436523769
 10
-35.2394771313
 20
28.9625579852
 10
-35.2506108274
 20
28.6758914235
  0
LWPOLYLINE
  5
227
100
AcDbEntity
  8
SUPERFICI
100
AcDbPolyline
 62
250
  6
CONTINUOUS
 90
10
 70
0
 10
-30.5884755898
 20
26.5056975971
 10
-30.6537481474
 20
26.4294776186
 10
-30.7172599701
 20
26.3505438815
 10
-30.7789820218
 20
26.2688474272
 10
-30.8388203532
 20
26.1844134768
 10
-30.896720516
 20
26.0972431553
 10
-30.9526948694
 20
26.0072523585
 10
-31.0067219899
 20
25.9144229155
 10
-31.0587206495
 20
25.8188358412
 10
-31.1086355132
 20
25.7205360595
  0
LWPOLYLINE
  5
228
100
AcDbEntity
  8
SUPERFICI
100
AcDbPolyline
 62
250
  6
CONTINUOUS
 90
10
 70
0
 10
-30.4819915055
 20
26.6205021229
 10
-30.494037999
 20
26.6080666817
 10
-30.5060278613
 20
26.595554936
 10
-30.517962095
 20
26.5829655016
 10
-30.5298410155
 20
26.5702977339
 10
-30.5416663636
 20
26.5575494796
 10
-30.553441262
 20
26.5447170418
 10
-30.5651674202
 20
26.5317981926
 10
-30.5768451784
 20
26.5187922085
 10
-30.5884755898
 20
26.5056975971
  0
LWPOLYLINE
  5
229
100
AcDbEntity
  8
SUPERFICI
100
AcDbPolyline
 62
250
  6
CONTINUOUS
 90
10
 70
0
 10
26.6074383165
 20
-38.4226331035
 10
26.8851484434
 20
-38.3916858024
 10
27.1451193308
 20
-38.343577304
 10
27.3848101957
 20
-38.2774547619
 10
27.6002468425
 20
-38.1940817372
 10
27.7930984305
 20
-38.0930908486
 10
27.9702748074
 20
-37.9704470249
 10
28.1336167551
 20
-37.8257091752
 10
28.2809153921
 20
-37.662619882
 10
28.4136409237
 20
-37.4824303819
  0
LWPOLYLINE
  5
22A
100
AcDbEntity
  8
SUPERFICI
100
AcDbPolyline
 62
250
  6
CONTINUOUS
 90
4
 70
0
 10
31.7935189054
 20
-42.5741102999
 10
31.6078127524
 20
-42.5679235725
 10
31.4135892465
 20
-42.5423528031
 10
31.2131376055
 20
-42.4963399654
  0
LWPOLYLINE
  5
22B
100
AcDbEntity
  8
SUPERFICI
100
AcDbPolyline
 62
7
  6
CONTINUOUS
 90
17
 70
0
 10
-36.9368838896
 20
-19.6874302075
 10
-36.9241898613
 20
-19.8291853747
 10
-36.8951868213
 20
-20.0326346607
 10
-36.8498642699
 20
-20.2445084147
 10
-36.7813314929
 20
-20.4656867002
 10
-36.687973612
 20
-20.6911605102
 10
-36.567230362
 20
-20.9209950424
 10
-36.4181091176
 20
-21.15077936
 10
-36.2454212088
 20
-21.3700419801
 10
-36.0540022417
 20
-21.5742725446
 10
-35.8490482109
 20
-21.7604723769
 10
-35.639290548
 20
-21.9224729855
 10
-35.4278857456
 20
-22.0603444277
 10
-35.2186468638
 20
-22.1745731759
 10
-35.0234655587
 20
-22.2631489656
 10
-34.8457226055
 20
-22.3318145687
 10
-34.7990548523
 20
-22.349172508
  0
LWPOLYLINE
  5
22C
100
AcDbEntity
  8
SUPERFICI
100
AcDbPolyline
 62
250
  6
CONTINUOUS
 90
7
 70
0
 10
-38.3619293005
 20
37.5389154347
 10
-38.3573940381
 20
37.4683607931
 10
-38.3354451512
 20
37.3355596583
 10
-38.2957227111
 20
37.1944019992
 10
-38.2385097372
 20
37.0472294994
 10
-38.164180118
 20
36.8963963895
 10
-38.073387798
 20
36.7448678235
  0
LINE
  5
22D
100
AcDbEntity
  8
SUPERFICI
100
AcDbLine
 62
7
  6
CONTINUOUS
 10
-36.936894191
 20
-19.6872675224
 11
-36.9368838723
 21
-19.6874304839
  0
LWPOLYLINE
  5
22E
100
AcDbEntity
  8
SUPERFICI
100
AcDbPolyline
 62
250
  6
CONTINUOUS
 90
4
 70
0
 10
-38.3663951007
 20
37.7756535873
 10
-38.3620815297
 20
37.6989373104
 10
-38.340704025
 20
37.5662523779
 10
-38.3014911976
 20
37.4255830356
  0
LWPOLYLINE
  5
22F
100
AcDbEntity
  8
SUPERFICI
100
AcDbPolyline
 62
250
  6
CONTINUOUS
 90
7
 70
0
 10
-36.6616971085
 20
-20.0103140068
 10
-36.6609551842
 20
-20.036471976
 10
-36.6600180615
 20
-20.0625637119
 10
-36.6588175704
 20
-20.0885934473
 10
-36.6572875259
 20
-20.1145710887
 10
-36.6553634298
 20
-20.1405122858
 10
-36.652982874
 20
-20.1664292391
  0
LINE
  5
230
100
AcDbEntity
  8
SUPERFICI
100
AcDbLine
 62
7
  6
CONTINUOUS
 10
-38.3653363051
 20
37.6587834489
 11
-38.286295776
 21
34.7645585599
  0
LINE
  5
231
100
AcDbEntity
  8
SUPERFICI
100
AcDbLine
 62
250
  6
CONTINUOUS
 10
-38.0870735939
 20
37.2851553267
 11
-38.0835342056
 21
37.1560457901
  0
LINE
  5
232
100
AcDbEntity
  8
SUPERFICI
100
AcDbLine
 62
7
  6
CONTINUOUS
 10
-38.286295776
 20
34.7645585599
 11
-37.1604498854
 21
-10.3717960033
  0
LINE
  5
233
100
AcDbEntity
  8
SUPERFICI
100
AcDbLine
 62
7
  6
CONTINUOUS
 10
-37.1604498854
 20
-10.3717960033
 11
-37.0073914358
 21
-16.6453668499
  0
LINE
  5
234
100
AcDbEntity
  8
SUPERFICI
100
AcDbLine
 62
250
  6
CONTINUOUS
 10
-38.0835342056
 20
37.1560457901
 11
-36.6640230234
 21
-19.9063405184
  0
LINE
  5
235
100
AcDbEntity
  8
SUPERFICI
100
AcDbLine
 62
250
  6
CONTINUOUS
 10
-36.6640230234
 20
-19.9063405184
 11
-36.6616971085
 21
-20.0103140068
  0
LWPOLYLINE
  5
236
100
AcDbEntity
  8
SUPERFICI
100
AcDbPolyline
 62
7
  6
CONTINUOUS
 90
4
 70
0
 10
-37.0073914358
 20
-16.6453668499
 10
-36.9423344102
 20
-19.5415269133
 10
-36.9400592391
 20
-19.6226735848
 10
-36.936894191
 20
-19.6872675224
  0
LWPOLYLINE
  5
237
100
AcDbEntity
  8
SUPERFICI
100
AcDbPolyline
 62
7
  6
CONTINUOUS
 90
3
 70
0
 10
-38.3663687273
 20
37.799268117
 10
-38.3665645277
 20
37.727915141
 10
-38.3653363051
 20
37.6587834489
  0
LWPOLYLINE
  5
238
100
AcDbEntity
  8
SUPERFICI
100
AcDbPolyline
 62
250
  6
CONTINUOUS
 90
7
 70
0
 10
-38.0859708506
 20
37.4383248875
 10
-38.0870686085
 20
37.4134452983
 10
-38.0877318783
 20
37.388277739
 10
-38.0880104193
 20
37.3628431708
 10
-38.0879556614
 20
37.3371546774
 10
-38.0876219484
 20
37.3112429669
 10
-38.0870735939
 20
37.2851553267
  0
LWPOLYLINE
  5
239
100
AcDbEntity
  8
SUPERFICI
100
AcDbPolyline
 62
250
  6
CONTINUOUS
 90
10
 70
0
 10
-31.1086355132
 20
25.7205360595
 10
-31.1912184649
 20
25.5413014244
 10
-31.2670257614
 20
25.3538165388
 10
-31.3357846279
 20
25.1579982326
 10
-31.3971959184
 20
24.9538531205
 10
-31.4509523223
 20
24.7414775833
 10
-31.4968183088
 20
24.5207559872
 10
-31.5345335183
 20
24.2917331774
 10
-31.5638256134
 20
24.0546273045
 10
-31.5844553167
 20
23.8096369704
  0
LWPOLYLINE
  5
23A
100
AcDbEntity
  8
SUPERFICI
100
AcDbPolyline
 62
250
  6
CONTINUOUS
 90
10
 70
0
 10
25.2688556619
 20
-38.3936304253
 10
25.4289598128
 20
-38.4088228965
 10
25.5863347849
 20
-38.4210666552
 10
25.7409347905
 20
-38.4303393976
 10
25.8927202635
 20
-38.4366232084
 10
26.0416020102
 20
-38.4398986324
 10
26.1875980165
 20
-38.4401939375
 10
26.330723434
 20
-38.4375049394
 10
26.4707888591
 20
-38.4317078251
 10
26.6074383165
 20
-38.4226331035
  0
LWPOLYLINE
  5
23B
100
AcDbEntity
  8
SUPERFICI
100
AcDbPolyline
 62
250
  6
CONTINUOUS
 90
4
 70
0
 10
-32.7168161178
 20
-19.3340293358
 10
-32.8899295388
 20
-19.0859693019
 10
-33.0476727122
 20
-18.8292046239
 10
-33.1914757505
 20
-18.564095879
  0
LINE
  5
23C
100
AcDbEntity
  8
SUPERFICI
100
AcDbLine
 62
250
  6
CONTINUOUS
 10
-33.2156195973
 20
-18.5162633679
 11
-33.1914757505
 21
-18.5640958789
  0
LINE
  5
23D
100
AcDbEntity
  8
SUPERFICI
100
AcDbLine
 62
250
  6
CONTINUOUS
 10
-33.2394035743
 20
-18.4681299529
 11
-33.2156195973
 21
-18.5162633679
  0
LINE
  5
23E
100
AcDbEntity
  8
SUPERFICI
100
AcDbLine
 62
250
  6
CONTINUOUS
 10
-33.2628355527
 20
-18.4196928374
 11
-33.2394035743
 21
-18.4681299529
  0
LWPOLYLINE
  5
23F
100
AcDbEntity
  8
SUPERFICI
100
AcDbPolyline
 62
250
  6
CONTINUOUS
 90
3
 70
0
 10
-33.2973316298
 20
-18.3464844447
 10
-33.2859176271
 20
-18.3709628326
 10
-33.2628355527
 20
-18.4196928374
  0
LWPOLYLINE
  5
240
100
AcDbEntity
  8
SUPERFICI
100
AcDbPolyline
 62
250
  6
CONTINUOUS
 90
10
 70
0
 10
-33.2973316298
 20
-18.3464844447
 10
-33.3597226994
 20
-18.2080329118
 10
-33.4195602912
 20
-18.0674499606
 10
-33.4769029397
 20
-17.9249895203
 10
-33.531825201
 20
-17.7807941524
 10
-33.5843356666
 20
-17.6348557742
 10
-33.63441507
 20
-17.4871988697
 10
-33.6820604201
 20
-17.3378873302
 10
-33.7272907196
 20
-17.1869325347
 10
-33.7701271592
 20
-17.0343585155
  0
LWPOLYLINE
  5
241
100
AcDbEntity
  8
SUPERFICI
100
AcDbPolyline
 62
250
  6
CONTINUOUS
 90
10
 70
0
 10
-33.7701271592
 20
-17.0343585155
 10
-33.8399181478
 20
-16.7615083425
 10
-33.9022990323
 20
-16.485305041
 10
-33.9577659405
 20
-16.2056576533
 10
-34.0067947105
 20
-15.9227793052
 10
-34.0500139623
 20
-15.6368064703
 10
-34.0882226519
 20
-15.34783052
 10
-34.122082492
 20
-15.0558933971
 10
-34.1517849323
 20
-14.7609568405
 10
-34.1774624188
 20
-14.4629859154
  0
LWPOLYLINE
  5
242
100
AcDbEntity
  8
SUPERFICI
100
AcDbPolyline
 62
250
  6
CONTINUOUS
 90
14
 70
0
 10
-36.6529828989
 20
-20.1664289935
 10
-36.6260137506
 20
-20.3369151119
 10
-36.5796063085
 20
-20.5114752627
 10
-36.5143598194
 20
-20.6878746268
 10
-36.4303924676
 20
-20.8646200538
 10
-36.3280022277
 20
-21.0401625369
 10
-36.2088334051
 20
-21.2114529276
 10
-36.0746320515
 20
-21.3759368499
 10
-35.9265545545
 20
-21.5321094699
 10
-35.7662579734
 20
-21.6784186437
 10
-35.5960423698
 20
-21.812843548
 10
-35.4170193959
 20
-21.9344050907
 10
-35.228764237
 20
-22.0430582662
 10
-35.0328324314
 20
-22.1373004205
  0
LWPOLYLINE
  5
243
100
AcDbEntity
  8
SUPERFICI
100
AcDbPolyline
 62
250
  6
CONTINUOUS
 90
7
 70
0
 10
-36.9368838723
 20
-19.6874304839
 10
-36.9340601021
 20
-19.705307039
 10
-36.9151887352
 20
-19.7372430225
 10
-36.879037581
 20
-19.7548311917
 10
-36.8257794992
 20
-19.7565070577
 10
-36.7556431612
 20
-19.7406465543
 10
-36.6690949144
 20
-19.7054963273
  0
LWPOLYLINE
  5
244
100
AcDbEntity
  8
SUPERFICI
100
AcDbPolyline
 62
250
  6
CONTINUOUS
 90
6
 70
0
 10
-36.9442922338
 20
-19.4478612241
 10
-36.9409157838
 20
-19.4718361111
 10
-36.9214747434
 20
-19.5038257441
 10
-36.8848282397
 20
-19.5213355531
 10
-36.8312420354
 20
-19.5227175891
 10
-36.761074202
 20
-19.5062534659
  0
LINE
  5
245
100
AcDbEntity
  8
SUPERFICI
100
AcDbLine
 62
250
  6
CONTINUOUS
 10
-34.1774624188
 20
-14.4629859154
 11
-34.2530045796
 21
-13.2399613423
  0
LINE
  5
246
100
AcDbEntity
  8
SUPERFICI
100
AcDbLine
 62
250
  6
CONTINUOUS
 10
-34.2530045796
 20
-13.2399613423
 11
-34.3920798499
 21
-10.70686356
  0
LINE
  5
247
100
AcDbEntity
  8
SUPERFICI
100
AcDbLine
 62
250
  6
CONTINUOUS
 10
-34.3920798499
 20
-10.70686356
 11
-34.5268302325
 21
-8.0562415514
  0
LINE
  5
248
100
AcDbEntity
  8
SUPERFICI
100
AcDbLine
 62
250
  6
CONTINUOUS
 10
-34.5268302325
 20
-8.0562415514
 11
-34.6563482473
 21
-5.2791182485
  0
LWPOLYLINE
  5
249
100
AcDbEntity
  8
SUPERFICI
100
AcDbPolyline
 62
250
  6
CONTINUOUS
 90
7
 70
0
 10
-34.6563482473
 20
-5.2791182485
 10
-34.7791388729
 20
-2.370635594
 10
-34.837550192
 20
-0.8642133086
 10
-34.8936355979
 20
0.6769602163
 10
-34.9472357676
 20
2.2559477599
 10
-34.9980895693
 20
3.8737035436
 10
-35.0458598452
 20
5.5290812601
  0
LINE
  5
24A
100
AcDbEntity
  8
SUPERFICI
100
AcDbLine
 62
250
  6
CONTINUOUS
 10
-35.1300521166
 20
8.9134780646
 11
-35.0458598452
 21
5.5290812601
  0
LWPOLYLINE
  5
24B
100
AcDbEntity
  8
SUPERFICI
100
AcDbPolyline
 62
250
  6
CONTINUOUS
 90
6
 70
0
 10
-35.2552863979
 20
16.7697452121
 10
-35.2390707475
 20
15.2762808488
 10
-35.218751079
 20
13.7460907042
 10
-35.1940120603
 20
12.1759662417
 10
-35.1645406985
 20
10.5647769335
 10
-35.1300521166
 20
8.9134780646
  0
LINE
  5
24C
100
AcDbEntity
  8
SUPERFICI
100
AcDbLine
 62
250
  6
CONTINUOUS
 10
-35.276425517
 20
19.647011674
 11
-35.2552863979
 21
16.7697452121
  0
LINE
  5
24D
100
AcDbEntity
  8
SUPERFICI
100
AcDbLine
 62
250
  6
CONTINUOUS
 10
-35.2841478108
 20
22.3867327862
 11
-35.276425517
 21
19.647011674
  0
LINE
  5
24E
100
AcDbEntity
  8
SUPERFICI
100
AcDbLine
 62
250
  6
CONTINUOUS
 10
-35.2802148819
 20
24.9947666761
 11
-35.2841478108
 21
22.3867327862
  0
LINE
  5
24F
100
AcDbEntity
  8
SUPERFICI
100
AcDbLine
 62
250
  6
CONTINUOUS
 10
-31.8211862977
 20
13.7107644463
 11
-31.8238908256
 21
12.047269416
  0
LINE
  5
250
100
AcDbEntity
  8
SUPERFICI
100
AcDbLine
 62
250
  6
CONTINUOUS
 10
-31.8092955271
 20
15.2902946189
 11
-31.8211862977
 21
13.7107644463
  0
LWPOLYLINE
  5
251
100
AcDbEntity
  8
SUPERFICI
100
AcDbPolyline
 62
250
  6
CONTINUOUS
 90
3
 70
0
 10
-35.2506108274
 20
28.6758914235
 10
-35.2659982574
 20
27.4807902612
 10
-35.2802148819
 20
24.9947666761
  0
LINE
  5
252
100
AcDbEntity
  8
SUPERFICI
100
AcDbLine
 62
250
  6
CONTINUOUS
 10
-31.7895358719
 20
16.7910350945
 11
-31.8092955271
 21
15.2902946189
  0
LINE
  5
253
100
AcDbEntity
  8
SUPERFICI
100
AcDbLine
 62
250
  6
CONTINUOUS
 10
-31.7630919036
 20
18.2164122597
 11
-31.7895358719
 21
16.7910350945
  0
LINE
  5
254
100
AcDbEntity
  8
SUPERFICI
100
AcDbLine
 62
250
  6
CONTINUOUS
 10
-31.7309916856
 20
19.571062145
 11
-31.7630919036
 21
18.2164122597
  0
LINE
  5
255
100
AcDbEntity
  8
SUPERFICI
100
AcDbLine
 62
250
  6
CONTINUOUS
 10
-31.6941354302
 20
20.8591389603
 11
-31.7309916856
 21
19.571062145
  0
LINE
  5
256
100
AcDbEntity
  8
SUPERFICI
100
AcDbLine
 62
250
  6
CONTINUOUS
 10
-31.6533347563
 20
22.0835467134
 11
-31.6941354302
 21
20.8591389603
  0
LWPOLYLINE
  5
257
100
AcDbEntity
  8
SUPERFICI
100
AcDbPolyline
 62
250
  6
CONTINUOUS
 90
3
 70
0
 10
-31.5844553167
 20
23.8096369704
 10
-31.6091891168
 20
23.2494753159
 10
-31.6533347563
 20
22.0835467134
  0
LWPOLYLINE
  5
258
100
AcDbEntity
  8
SUPERFICI
100
AcDbPolyline
 62
7
  6
CONTINUOUS
 90
10
 70
0
 10
-26.917159156
 20
21.7902786133
 10
-26.9591983955
 20
21.7131700579
 10
-26.9970499659
 20
21.6332175708
 10
-27.0307504727
 20
21.5502888829
 10
-27.0601886673
 20
21.464580693
 10
-27.0852555753
 20
21.3763507684
 10
-27.1059020731
 20
21.2857182639
 10
-27.1221046061
 20
21.1927322589
 10
-27.1338239555
 20
21.0974666526
 10
-27.1410191517
 20
20.9999910296
  0
LWPOLYLINE
  5
259
100
AcDbEntity
  8
SUPERFICI
100
AcDbPolyline
 62
7
  6
CONTINUOUS
 90
10
 70
0
 10
-26.8457772006
 20
21.90125385
 10
-26.854171782
 20
21.8892615312
 10
-26.8624480339
 20
21.8771884829
 10
-26.8706066203
 20
21.8650337705
 10
-26.8786468204
 20
21.852798589
 10
-26.8865707292
 20
21.8404798957
 10
-26.8943830498
 20
21.8280702715
 10
-26.9020855937
 20
21.8155664743
 10
-26.9096774869
 20
21.8029695752
 10
-26.9171592247
 20
21.7902784956
  0
LWPOLYLINE
  5
25A
100
AcDbEntity
  8
SUPERFICI
100
AcDbPolyline
 62
250
  6
CONTINUOUS
 90
10
 70
0
 10
-28.945903082
 20
27.5013044597
 10
-29.1500225518
 20
27.4393253223
 10
-29.3461754963
 20
27.3681747634
 10
-29.5332438649
 20
27.2882998542
 10
-29.7095324922
 20
27.2007242782
 10
-29.8763116245
 20
27.1051809691
 10
-30.0370450313
 20
26.9995822959
 10
-30.1924312368
 20
26.8831248286
 10
-30.3408236491
 20
26.7567497435
 10
-30.4819915055
 20
26.6205021229
  0
LWPOLYLINE
  5
25B
100
AcDbEntity
  8
SUPERFICI
100
AcDbPolyline
 62
7
  6
CONTINUOUS
 90
10
 70
0
 10
17.8820281341
 20
-29.8476737344
 10
18.0666897045
 20
-29.8247909363
 10
18.2450039218
 20
-29.7875734634
 10
18.4152690386
 20
-29.7361488124
 10
18.5762413217
 20
-29.6708882774
 10
18.7270640913
 20
-29.5920994784
 10
18.8665314731
 20
-29.5003341561
 10
18.9937400402
 20
-29.3962766336
 10
19.1081453238
 20
-29.2802900731
 10
19.2084765004
 20
-29.1536418918
  0
LWPOLYLINE
  5
25C
100
AcDbEntity
  8
SUPERFICI
100
AcDbPolyline
 62
250
  6
CONTINUOUS
 90
10
 70
0
 10
20.9406776913
 20
-34.0604991618
 10
21.0685691929
 20
-34.0514687484
 10
21.1938482065
 20
-34.0399223405
 10
21.3164870297
 20
-34.0259011005
 10
21.436447669
 20
-34.0094496722
 10
21.5537486492
 20
-33.9906065556
 10
21.6683925674
 20
-33.969415676
 10
21.7803215223
 20
-33.9459322085
 10
21.8895050002
 20
-33.9202095249
 10
21.9960026476
 20
-33.8922840265
  0
LWPOLYLINE
  5
25D
100
AcDbEntity
  8
SUPERFICI
100
AcDbPolyline
 62
7
  6
CONTINUOUS
 90
14
 70
0
 10
31.4593362349
 20
-42.69409362
 10
31.5973021957
 20
-42.7253271273
 10
31.7311425876
 20
-42.7505305043
 10
31.8687195201
 20
-42.76862882
 10
32.0194118069
 20
-42.7791146437
 10
32.1824311231
 20
-42.7794396858
 10
32.3542444895
 20
-42.7662650068
 10
32.5397488126
 20
-42.735835526
 10
32.7426649304
 20
-42.682045106
 10
32.9519278447
 20
-42.6021122675
 10
33.1509428609
 20
-42.4995349499
 10
33.3369986524
 20
-42.3750513754
 10
33.5102070066
 20
-42.2278701834
 10
33.5921112424
 20
-42.1449695175
  0
LINE
  5
25E
100
AcDbEntity
  8
SUPERFICI
100
AcDbLine
 62
250
  6
CONTINUOUS
 10
31.4593363788
 20
-42.6940936571
 11
31.4638832592
 21
-42.6951805975
  0
LINE
  5
25F
100
AcDbEntity
  8
SUPERFICI
100
AcDbLine
 62
250
  6
CONTINUOUS
 10
-34.8110070736
 20
-22.3446619568
 11
-34.8142270066
 21
-22.3435796022
  0
LWPOLYLINE
  5
260
100
AcDbEntity
  8
SUPERFICI
100
AcDbPolyline
 62
7
  6
CONTINUOUS
 90
4
 70
0
 10
-34.7990548523
 20
-22.349172508
 10
-34.6735578267
 20
-22.393753631
 10
-34.5544140187
 20
-22.4336052965
 10
-34.4405056311
 20
-22.4691114075
  0
LINE
  5
261
100
AcDbEntity
  8
SUPERFICI
100
AcDbLine
 62
250
  6
CONTINUOUS
 10
-35.0328324314
 20
-22.1373004205
 11
-34.8316014879
 21
-22.2146404207
  0
LWPOLYLINE
  5
262
100
AcDbEntity
  8
SUPERFICI
100
AcDbPolyline
 62
250
  6
CONTINUOUS
 90
10
 70
0
 10
-31.3103260413
 20
-20.6366487741
 10
-31.1711163888
 20
-20.7304374173
 10
-31.0286042063
 20
-20.8230118176
 10
-30.8831369613
 20
-20.9143240961
 10
-30.734912458
 20
-21.004382007
 10
-30.5839009195
 20
-21.093200105
 10
-30.430094584
 20
-21.1807605518
 10
-30.2735799597
 20
-21.26702815
 10
-30.1143958277
 20
-21.3519965436
 10
-29.9525881941
 20
-21.4356600001
  0
LWPOLYLINE
  5
263
100
AcDbEntity
  8
SUPERFICI
100
AcDbPolyline
 62
250
  6
CONTINUOUS
 90
7
 70
0
 10
-31.3103260413
 20
-20.6366487741
 10
-31.5938634584
 20
-20.4333477895
 10
-31.8602489361
 20
-20.2236003508
 10
-32.1069452939
 20
-20.0081130047
 10
-32.3298788832
 20
-19.7901207274
 10
-32.5307629785
 20
-19.5682174249
 10
-32.7168161178
 20
-19.3340293358
  0
LWPOLYLINE
  5
264
100
AcDbEntity
  8
SUPERFICI
100
AcDbPolyline
 62
250
  6
CONTINUOUS
 90
10
 70
0
 10
-27.7990419532
 20
-18.6007082418
 10
-28.0094115143
 20
-18.4114435425
 10
-28.2121517151
 20
-18.2177967624
 10
-28.4061048766
 20
-18.0209138325
 10
-28.5894984103
 20
-17.8228833493
 10
-28.7636355096
 20
-17.6226479678
 10
-28.9321379389
 20
-17.4159441567
 10
-29.0957552585
 20
-17.2015237934
 10
-29.2527683375
 20
-16.9813616385
 10
-29.4029406004
 20
-16.7556462868
  0
LINE
  5
265
100
AcDbEntity
  8
SUPERFICI
100
AcDbLine
 62
250
  6
CONTINUOUS
 10
-29.4029406004
 20
-16.7556462868
 11
-29.4285977854
 21
-16.7154386952
  0
LINE
  5
266
100
AcDbEntity
  8
SUPERFICI
100
AcDbLine
 62
250
  6
CONTINUOUS
 10
-29.4285977854
 20
-16.7154386952
 11
-29.4540438751
 21
-16.6750544569
  0
LINE
  5
267
100
AcDbEntity
  8
SUPERFICI
100
AcDbLine
 62
250
  6
CONTINUOUS
 10
-29.4540438751
 20
-16.6750544569
 11
-29.4792899977
 21
-16.6344735187
  0
LWPOLYLINE
  5
268
100
AcDbEntity
  8
SUPERFICI
100
AcDbPolyline
 62
250
  6
CONTINUOUS
 90
3
 70
0
 10
-29.4792899977
 20
-16.6344735187
 10
-29.5043540215
 20
-16.593664651
 10
-29.5168200126
 20
-16.5731702679
  0
LWPOLYLINE
  5
269
100
AcDbEntity
  8
SUPERFICI
100
AcDbPolyline
 62
250
  6
CONTINUOUS
 90
10
 70
0
 10
-30.0843535117
 20
-15.4539886131
 10
-30.0287646106
 20
-15.5846423483
 10
-29.9711957644
 20
-15.7138360543
 10
-29.9117045528
 20
-15.8414906308
 10
-29.8503833012
 20
-15.9674618442
 10
-29.7872504466
 20
-16.0917625719
 10
-29.7222630805
 20
-16.2145284915
 10
-29.6554720782
 20
-16.3357306036
 10
-29.5869888849
 20
-16.4552601827
 10
-29.5168200126
 20
-16.5731702678
  0
LWPOLYLINE
  5
26A
100
AcDbEntity
  8
SUPERFICI
100
AcDbPolyline
 62
250
  6
CONTINUOUS
 90
10
 70
0
 10
-30.0843535117
 20
-15.4539886131
 10
-30.177194082
 20
-15.220883121
 10
-30.2635683132
 20
-14.9835938599
 10
-30.3432034007
 20
-14.7422051944
 10
-30.4157952604
 20
-14.4969090162
 10
-30.4810270184
 20
-14.2479933778
 10
-30.5386653151
 20
-13.9954866266
 10
-30.5884435344
 20
-13.7395954282
 10
-30.6300742082
 20
-13.480709849
 10
-30.6633044181
 20
-13.2191796509
  0
LINE
  5
26B
100
AcDbEntity
  8
SUPERFICI
100
AcDbLine
 62
250
  6
CONTINUOUS
 10
-30.6633044181
 20
-13.2191796509
 11
-30.7165034045
 21
-12.6350856032
  0
LINE
  5
26C
100
AcDbEntity
  8
SUPERFICI
100
AcDbLine
 62
250
  6
CONTINUOUS
 10
-30.7165034045
 20
-12.6350856032
 11
-30.8197839551
 21
-11.4238838344
  0
LINE
  5
26D
100
AcDbEntity
  8
SUPERFICI
100
AcDbLine
 62
250
  6
CONTINUOUS
 10
-30.8197839551
 20
-11.4238838344
 11
-30.9225999619
 21
-10.1553727916
  0
LINE
  5
26E
100
AcDbEntity
  8
SUPERFICI
100
AcDbLine
 62
250
  6
CONTINUOUS
 10
-30.9225999619
 20
-10.1553727916
 11
-31.0246029454
 21
-8.8246536504
  0
LINE
  5
26F
100
AcDbEntity
  8
SUPERFICI
100
AcDbLine
 62
250
  6
CONTINUOUS
 10
-31.0246029454
 20
-8.8246536504
 11
-31.1251143867
 21
-7.4292800101
  0
LINE
  5
270
100
AcDbEntity
  8
SUPERFICI
100
AcDbLine
 62
250
  6
CONTINUOUS
 10
-31.1251143867
 20
-7.4292800101
 11
-31.2234284898
 21
-5.9655908503
  0
LINE
  5
271
100
AcDbEntity
  8
SUPERFICI
100
AcDbLine
 62
250
  6
CONTINUOUS
 10
-31.2234284898
 20
-5.9655908503
 11
-31.3187337958
 21
-4.4295150405
  0
LINE
  5
272
100
AcDbEntity
  8
SUPERFICI
100
AcDbLine
 62
250
  6
CONTINUOUS
 10
-31.3187337958
 20
-4.4295150405
 11
-31.4099992812
 21
-2.8183065827
  0
LINE
  5
273
100
AcDbEntity
  8
SUPERFICI
100
AcDbLine
 62
250
  6
CONTINUOUS
 10
-31.4099992812
 20
-2.8183065827
 11
-31.4961467682
 21
-1.1275259619
  0
LINE
  5
274
100
AcDbEntity
  8
SUPERFICI
100
AcDbLine
 62
250
  6
CONTINUOUS
 10
-31.4961467682
 20
-1.1275259619
 11
-31.5759465587
 21
0.6480011287
  0
LINE
  5
275
100
AcDbEntity
  8
SUPERFICI
100
AcDbLine
 62
250
  6
CONTINUOUS
 10
-31.5759465587
 20
0.6480011287
 11
-31.647885338
 21
2.511551994
  0
LWPOLYLINE
  5
276
100
AcDbEntity
  8
SUPERFICI
100
AcDbPolyline
 62
250
  6
CONTINUOUS
 90
3
 70
0
 10
-31.647885338
 20
2.511551994
 10
-31.7103604165
 20
4.4697400327
 10
-31.7373994629
 20
5.4836345759
  0
LWPOLYLINE
  5
277
100
AcDbEntity
  8
SUPERFICI
100
AcDbPolyline
 62
250
  6
CONTINUOUS
 90
3
 70
0
 10
-31.7800637278
 20
7.4838596883
 10
-31.7607769336
 20
6.496404685
 10
-31.7373994629
 20
5.4836345759
  0
LINE
  5
278
100
AcDbEntity
  8
SUPERFICI
100
AcDbLine
 62
250
  6
CONTINUOUS
 10
-31.8073768406
 20
9.3824801155
 11
-31.7800637278
 21
7.4838596883
  0
LWPOLYLINE
  5
279
100
AcDbEntity
  8
SUPERFICI
100
AcDbPolyline
 62
250
  6
CONTINUOUS
 90
3
 70
0
 10
-31.8238908256
 20
12.047269416
 10
-31.821334735
 20
11.1820235806
 10
-31.8073768406
 20
9.3824801155
  0
LWPOLYLINE
  5
27A
100
AcDbEntity
  8
SUPERFICI
100
AcDbPolyline
 62
7
  6
CONTINUOUS
 90
10
 70
0
 10
-27.1410191442
 20
20.9999911803
 10
-27.1417813498
 20
20.9831887096
 10
-27.1423994017
 20
20.9662800831
 10
-27.1428784494
 20
20.9492685464
 10
-27.1432237225
 20
20.9321574058
 10
-27.143440532
 20
20.9149499929
 10
-27.1435342698
 20
20.8976496644
 10
-27.1435104087
 20
20.8802598506
 10
-27.1433745036
 20
20.8627840556
 10
-27.1431321923
 20
20.845225822
  0
LWPOLYLINE
  5
27B
100
AcDbEntity
  8
SUPERFICI
100
AcDbPolyline
 62
250
  6
CONTINUOUS
 90
10
 70
0
 10
-24.3794145673
 20
20.8577304852
 10
-24.414074331
 20
20.7173068028
 10
-24.4398043074
 20
20.5797811586
 10
-24.4560977643
 20
20.4474306583
 10
-24.4624462267
 20
20.322133522
 10
-24.4583413233
 20
20.2072570601
 10
-24.4439728509
 20
20.1067892264
 10
-24.4197215108
 20
20.0226099152
 10
-24.3860353688
 20
19.9567098468
 10
-24.344386815
 20
19.9111872245
  0
LINE
  5
27C
100
AcDbEntity
  8
SUPERFICI
100
AcDbLine
 62
250
  6
CONTINUOUS
 10
-24.3677819334
 20
19.8040643394
 11
-24.2914704817
 21
19.8831260439
  0
LWPOLYLINE
  5
27D
100
AcDbEntity
  8
SUPERFICI
100
AcDbPolyline
 62
250
  6
CONTINUOUS
 90
13
 70
0
 10
17.9161942391
 20
-27.7897984568
 10
17.7698885348
 20
-27.8029941959
 10
17.622883427
 20
-27.8026116447
 10
17.4775995179
 20
-27.7885059761
 10
17.3360008737
 20
-27.7604103267
 10
17.2017750822
 20
-27.7185134797
 10
17.0796447386
 20
-27.6643600298
 10
16.9719872092
 20
-27.5992022292
 10
16.8813421208
 20
-27.5243824462
 10
16.8108064476
 20
-27.4429270277
 10
16.7612497959
 20
-27.35745203
 10
16.732620627
 20
-27.2693006398
 10
16.7249645621
 20
-27.2024239493
  0
LWPOLYLINE
  5
27E
100
AcDbEntity
  8
SUPERFICI
100
AcDbPolyline
 62
250
  6
CONTINUOUS
 90
10
 70
0
 10
18.57662743
 20
-33.8385165532
 10
18.8676710951
 20
-33.8992404628
 10
19.1522366372
 20
-33.950529606
 10
19.4300018425
 20
-33.9925429514
 10
19.7004911506
 20
-34.0254424938
 10
19.9636297289
 20
-34.0494617802
 10
20.2197185127
 20
-34.0648469764
 10
20.4678918769
 20
-34.0717049721
 10
20.7082328798
 20
-34.0701922351
 10
20.9406776913
 20
-34.0604991618
  0
LINE
  5
27F
100
AcDbEntity
  8
SUPERFICI
100
AcDbLine
 62
250
  6
CONTINUOUS
 10
17.8052496407
 20
-33.6494372915
 11
18.57662743
 21
-33.8385165532
  0
LINE
  5
280
100
AcDbEntity
  8
SUPERFICI
100
AcDbLine
 62
250
  6
CONTINUOUS
 10
16.1854667021
 20
-33.2321553893
 11
17.8052496407
 21
-33.6494372915
  0
LWPOLYLINE
  5
281
100
AcDbEntity
  8
SUPERFICI
100
AcDbPolyline
 62
250
  6
CONTINUOUS
 90
10
 70
0
 10
22.4479539716
 20
-37.8258526837
 10
22.7829674116
 20
-37.9128728099
 10
23.1130105157
 20
-37.9952067421
 10
23.437957522
 20
-38.0722576151
 10
23.7577864096
 20
-38.1435049944
 10
24.0722880978
 20
-38.208437727
 10
24.3810751965
 20
-38.2665737206
 10
24.6835473745
 20
-38.3172018057
 10
24.9794465529
 20
-38.3596998064
 10
25.2688556619
 20
-38.3936304253
  0
LINE
  5
282
100
AcDbEntity
  8
SUPERFICI
100
AcDbLine
 62
250
  6
CONTINUOUS
 10
14.4825587347
 20
-32.7834086494
 11
16.1854667021
 21
-33.2321553893
  0
LINE
  5
283
100
AcDbEntity
  8
SUPERFICI
100
AcDbLine
 62
250
  6
CONTINUOUS
 10
12.6887436394
 20
-32.3007184632
 11
14.4825587347
 21
-32.7834086494
  0
LINE
  5
284
100
AcDbEntity
  8
SUPERFICI
100
AcDbLine
 62
250
  6
CONTINUOUS
 10
10.800707867
 20
-31.7819379481
 11
12.6887436394
 21
-32.3007184632
  0
LINE
  5
285
100
AcDbEntity
  8
SUPERFICI
100
AcDbLine
 62
250
  6
CONTINUOUS
 10
21.0863183444
 20
-37.4450116118
 11
22.4479539716
 21
-37.8258526837
  0
LINE
  5
286
100
AcDbEntity
  8
SUPERFICI
100
AcDbLine
 62
250
  6
CONTINUOUS
 10
18.2517604402
 20
-36.6328982272
 11
21.0863183444
 21
-37.4450116118
  0
LINE
  5
287
100
AcDbEntity
  8
SUPERFICI
100
AcDbLine
 62
250
  6
CONTINUOUS
 10
15.2654036185
 20
-35.7680091236
 11
18.2517604402
 21
-36.6328982272
  0
LINE
  5
288
100
AcDbEntity
  8
SUPERFICI
100
AcDbLine
 62
250
  6
CONTINUOUS
 10
12.1144506126
 20
-34.8446682431
 11
15.2654036185
 21
-35.7680091236
  0
LINE
  5
289
100
AcDbEntity
  8
SUPERFICI
100
AcDbLine
 62
250
  6
CONTINUOUS
 10
31.2131376055
 20
-42.4963399654
 11
31.0085760746
 21
-42.4347753654
  0
LINE
  5
28A
100
AcDbEntity
  8
SUPERFICI
100
AcDbLine
 62
7
  6
CONTINUOUS
 10
-34.4405056311
 20
-22.4691114075
 11
-31.0714466136
 21
-23.4922779675
  0
LWPOLYLINE
  5
28B
100
AcDbEntity
  8
SUPERFICI
100
AcDbPolyline
 62
250
  6
CONTINUOUS
 90
5
 70
0
 10
3.4584113512
 20
-32.2465424669
 10
5.2850414034
 20
-32.8031464727
 10
7.0612435852
 20
-33.3396096935
 10
8.7914810375
 20
-33.8584003367
 10
12.1144506126
 20
-34.8446682431
  0
LINE
  5
28C
100
AcDbEntity
  8
SUPERFICI
100
AcDbLine
 62
7
  6
CONTINUOUS
 10
-31.0714466136
 20
-23.4922779675
 11
-23.8976885258
 21
-25.69039415
  0
LINE
  5
28D
100
AcDbEntity
  8
SUPERFICI
100
AcDbLine
 62
7
  6
CONTINUOUS
 10
-1.6810448593
 20
-32.5170607847
 11
16.7862284435
 21
-38.1833293186
  0
LWPOLYLINE
  5
28E
100
AcDbEntity
  8
SUPERFICI
100
AcDbPolyline
 62
7
  6
CONTINUOUS
 90
3
 70
0
 10
-23.8976885258
 20
-25.69039415
 10
-15.0184149298
 20
-28.4170275215
 10
-1.6810392997
 20
-32.5170624866
  0
LINE
  5
28F
100
AcDbEntity
  8
SUPERFICI
100
AcDbLine
 62
7
  6
CONTINUOUS
 10
16.7862284435
 20
-38.1833293186
 11
25.4701181594
 21
-40.8521291055
  0
LINE
  5
290
100
AcDbEntity
  8
SUPERFICI
100
AcDbLine
 62
250
  6
CONTINUOUS
 10
-8.1090085452
 20
-28.6943065343
 11
3.4584113512
 21
-32.2465424669
  0
LINE
  5
291
100
AcDbEntity
  8
SUPERFICI
100
AcDbLine
 62
250
  6
CONTINUOUS
 10
31.0085763523
 20
-42.4347754513
 11
-34.6269773743
 21
-22.2787328043
  0
LINE
  5
292
100
AcDbEntity
  8
SUPERFICI
100
AcDbLine
 62
7
  6
CONTINUOUS
 10
25.4701181594
 20
-40.8521291055
 11
29.6083971339
 21
-42.1308707648
  0
LWPOLYLINE
  5
293
100
AcDbEntity
  8
SUPERFICI
100
AcDbPolyline
 62
250
  6
CONTINUOUS
 90
3
 70
0
 10
-11.7118093243
 20
-27.5746259028
 10
-9.9352239768
 20
-28.1291733066
 10
-8.1090085452
 20
-28.6943065343
  0
LWPOLYLINE
  5
294
100
AcDbEntity
  8
SUPERFICI
100
AcDbPolyline
 62
7
  6
CONTINUOUS
 90
7
 70
0
 10
29.6083971339
 20
-42.1308707648
 10
31.0652352865
 20
-42.5853030197
 10
31.1454957269
 20
-42.6097903935
 10
31.226945455
 20
-42.633502741
 10
31.3076598889
 20
-42.6556770363
 10
31.3895751014
 20
-42.6770054125
 10
31.4638832592
 20
-42.6951805975
  0
LINE
  5
295
100
AcDbEntity
  8
SUPERFICI
100
AcDbLine
 62
250
  6
CONTINUOUS
 10
-34.8316014879
 20
-22.2146404207
 11
-34.6269770836
 21
-22.2787328655
  0
LINE
  5
296
100
AcDbEntity
  8
SUPERFICI
100
AcDbLine
 62
250
  6
CONTINUOUS
 10
-15.1288004393
 20
-26.4970866327
 11
-11.7118093243
 21
-27.5746259028
  0
LINE
  5
297
100
AcDbEntity
  8
SUPERFICI
100
AcDbLine
 62
250
  6
CONTINUOUS
 10
-18.3675387029
 20
-25.462970925
 11
-15.1288004393
 21
-26.4970866327
  0
LINE
  5
298
100
AcDbEntity
  8
SUPERFICI
100
AcDbLine
 62
250
  6
CONTINUOUS
 10
-21.4380872218
 20
-24.4715472725
 11
-18.3675387029
 21
-25.462970925
  0
LWPOLYLINE
  5
299
100
AcDbEntity
  8
SUPERFICI
100
AcDbPolyline
 62
250
  6
CONTINUOUS
 90
4
 70
0
 10
-27.1167211536
 20
-22.6050211332
 10
-25.7525941015
 20
-23.0612490596
 10
-24.3527631821
 20
-23.5209362932
 10
-21.4380872218
 20
-24.4715472725
  0
LWPOLYLINE
  5
29A
100
AcDbEntity
  8
SUPERFICI
100
AcDbPolyline
 62
250
  6
CONTINUOUS
 90
10
 70
0
 10
-27.1167211536
 20
-22.6050211332
 10
-27.4525297164
 20
-22.4860383213
 10
-27.7835263661
 20
-22.3653733491
 10
-28.1096133293
 20
-22.2424979973
 10
-28.4307943386
 20
-22.1168974474
 10
-28.7468827215
 20
-21.9881820782
 10
-29.057509294
 20
-21.8561021343
 10
-29.3621001373
 20
-21.7203070468
 10
-29.6604243938
 20
-21.5803247874
 10
-29.9525881941
 20
-21.4356600001
  0
LWPOLYLINE
  5
29B
100
AcDbEntity
  8
SUPERFICI
100
AcDbPolyline
 62
250
  6
CONTINUOUS
 90
6
 70
0
 10
30.9147901104
 20
-42.5383668085
 10
30.8304642778
 20
-42.5082316654
 10
30.7329543674
 20
-42.4631086434
 10
30.6324145976
 20
-42.4058839268
 10
30.5298213997
 20
-42.3367303036
 10
30.4263100898
 20
-42.2559216699
  0
LWPOLYLINE
  5
29C
100
AcDbEntity
  8
SUPERFICI
100
AcDbPolyline
 62
250
  6
CONTINUOUS
 90
3
 70
0
 10
-24.3297165553
 20
-20.6623939902
 10
-23.5628961005
 20
-20.9452916237
 10
-21.9518827705
 20
-21.5194673191
  0
LWPOLYLINE
  5
29D
100
AcDbEntity
  8
SUPERFICI
100
AcDbPolyline
 62
250
  6
CONTINUOUS
 90
10
 70
0
 10
-24.3297165553
 20
-20.6623939902
 10
-24.622196762
 20
-20.5439233719
 10
-24.9085721295
 20
-20.419882093
 10
-25.1885075131
 20
-20.2906309905
 10
-25.4615119088
 20
-20.1566288818
 10
-25.7274976228
 20
-20.0181592242
 10
-25.986757882
 20
-19.8752857219
 10
-26.2384083796
 20
-19.728652652
 10
-26.4825255969
 20
-19.5783674889
 10
-26.7190351781
 20
-19.4246630649
  0
LWPOLYLINE
  5
29E
100
AcDbEntity
  8
SUPERFICI
100
AcDbPolyline
 62
250
  6
CONTINUOUS
 90
5
 70
0
 10
-1.6810448593
 20
-32.5170607847
 10
-1.7132666818
 20
-32.5022932461
 10
-1.7514506741
 20
-32.4688629766
 10
-1.7835748771
 20
-32.4201882499
 10
-1.8092015745
 20
-32.3567083341
  0
LWPOLYLINE
  5
29F
100
AcDbEntity
  8
SUPERFICI
100
AcDbPolyline
 62
250
  6
CONTINUOUS
 90
10
 70
0
 10
-26.7190351781
 20
-19.4246630649
 10
-26.8493484918
 20
-19.3363404541
 10
-26.9771352379
 20
-19.2470800031
 10
-27.1023652234
 20
-19.1569406534
 10
-27.224997631
 20
-19.0659912506
 10
-27.3450493402
 20
-18.9742594225
 10
-27.4625207859
 20
-18.8817881634
 10
-27.5773504098
 20
-18.7886693331
 10
-27.6895045525
 20
-18.6949760105
 10
-27.7990419532
 20
-18.6007082418
  0
LWPOLYLINE
  5
2A0
100
AcDbEntity
  8
SUPERFICI
100
AcDbPolyline
 62
7
  6
CONTINUOUS
 90
10
 70
0
 10
-24.5387945797
 20
-16.8206500813
 10
-24.7274465242
 20
-16.683126323
 10
-24.9103720756
 20
-16.5349756205
 10
-25.0858368933
 20
-16.3773806598
 10
-25.2525594803
 20
-16.2114882087
 10
-25.409654544
 20
-16.0381408302
 10
-25.5558699818
 20
-15.8586450857
 10
-25.6902541481
 20
-15.6742549733
 10
-25.8122359837
 20
-15.4856762232
 10
-25.9204615556
 20
-15.2949822897
  0
LWPOLYLINE
  5
2A1
100
AcDbEntity
  8
SUPERFICI
100
AcDbPolyline
 62
250
  6
CONTINUOUS
 90
16
 70
0
 10
-25.2180012115
 20
-14.5437049161
 10
-25.1470270288
 20
-14.6236252036
 10
-25.0580135974
 20
-14.6957216592
 10
-24.9522429325
 20
-14.758712418
 10
-24.8305628183
 20
-14.8114671248
 10
-24.6954521129
 20
-14.8522809066
 10
-24.5517572065
 20
-14.8797598157
 10
-24.4025063789
 20
-14.8934960826
 10
-24.25097868
 20
-14.8930452164
 10
-24.1029896032
 20
-14.8786966316
 10
-23.9624181276
 20
-14.8516081398
 10
-23.8309566343
 20
-14.812619041
 10
-23.7107395144
 20
-14.7625008917
 10
-23.6035697389
 20
-14.7023077607
 10
-23.5110995396
 20
-14.6332198343
 10
-23.4347345462
 20
-14.5563104199
  0
LWPOLYLINE
  5
2A2
100
AcDbEntity
  8
SUPERFICI
100
AcDbPolyline
 62
250
  6
CONTINUOUS
 90
16
 70
0
 10
-23.4477191754
 20
-16.5949581713
 10
-23.4870973915
 20
-16.5457074935
 10
-23.5179358355
 20
-16.4778807775
 10
-23.53964855
 20
-16.3923856484
 10
-23.5516671282
 20
-16.2897530523
 10
-23.55335153
 20
-16.1719085555
 10
-23.5446878382
 20
-16.0430531863
 10
-23.5259421568
 20
-15.9059136824
 10
-23.4974402885
 20
-15.7634141045
 10
-23.4604671647
 20
-15.6209917992
 10
-23.4164433933
 20
-15.4824930251
 10
-23.3662088361
 20
-15.3496929892
 10
-23.3107165031
 20
-15.2247718175
 10
-23.2509902736
 20
-15.1096559551
 10
-23.188054032
 20
-15.0061502142
 10
-23.1228464824
 20
-14.9158130159
  0
LWPOLYLINE
  5
2A3
100
AcDbEntity
  8
SUPERFICI
100
AcDbPolyline
 62
7
  6
CONTINUOUS
 90
5
 70
0
 10
-24.8961189578
 20
-15.4890462778
 10
-24.7411071118
 20
-15.7055853421
 10
-24.5524379661
 20
-15.9154412405
 10
-24.3422237542
 20
-16.1033639531
 10
-24.1898042483
 20
-16.2187461685
  0
LWPOLYLINE
  5
2A4
100
AcDbEntity
  8
SUPERFICI
100
AcDbPolyline
 62
7
  6
CONTINUOUS
 90
7
 70
0
 10
-24.8961189578
 20
-15.4890462778
 10
-24.9645941463
 20
-15.375496056
 10
-25.0516324
 20
-15.2055979417
 10
-25.1212007918
 20
-15.0352575734
 10
-25.172559128
 20
-14.867194662
 10
-25.2053404831
 20
-14.7030786979
 10
-25.2189554965
 20
-14.5450540499
  0
LWPOLYLINE
  5
2A5
100
AcDbEntity
  8
SUPERFICI
100
AcDbPolyline
 62
7
  6
CONTINUOUS
 90
10
 70
0
 10
-25.9204614702
 20
-15.2949824512
 10
-25.9295865468
 20
-15.2776100151
 10
-25.9385955195
 20
-15.2602288418
 10
-25.9474891093
 20
-15.2428375712
 10
-25.9562665246
 20
-15.225437863
 10
-25.964930045
 20
-15.2080253309
 10
-25.9734848182
 20
-15.1905895308
 10
-25.981932846
 20
-15.1731260494
 10
-25.9902731872
 20
-15.1556365156
 10
-25.9985063989
 20
-15.1381195271
  0
LWPOLYLINE
  5
2A6
100
AcDbEntity
  8
SUPERFICI
100
AcDbPolyline
 62
7
  6
CONTINUOUS
 90
10
 70
0
 10
-25.9985063233
 20
-15.1381196892
 10
-26.0450587432
 20
-15.0338054934
 10
-26.0875016032
 20
-14.9291953647
 10
-26.1258787037
 20
-14.8241323419
 10
-26.1600672217
 20
-14.7188850049
 10
-26.1899435815
 20
-14.6137825351
 10
-26.2154519292
 20
-14.5089763247
 10
-26.2365658869
 20
-14.4045307869
 10
-26.2532419268
 20
-14.3005452317
 10
-26.2654349601
 20
-14.1971156712
  0
LWPOLYLINE
  5
2A7
100
AcDbEntity
  8
DRAFT
100
AcDbPolyline
 62
7
  6
CONTINUOUS
 90
13
 70
0
 10
-22.6312005178
 20
-13.5859314841
 10
-22.6279926372
 20
-13.6186967984
 10
-22.6200172218
 20
-13.6523824083
 10
-22.6074107333
 20
-13.6864119437
 10
-22.5903888721
 20
-13.7202031498
 10
-22.569242887
 20
-13.7531778497
 10
-22.5443345917
 20
-13.7847718372
 10
-22.516090174
 20
-13.8144445302
 10
-22.4849929037
 20
-13.841688221
 10
-22.4515748638
 20
-13.8660367622
 10
-22.4164078461
 20
-13.8870735438
 10
-22.3800935681
 20
-13.9044386204
 10
-22.3432533772
 20
-13.9178348708
  0
LWPOLYLINE
  5
2A8
100
AcDbEntity
  8
SUPERFICI
100
AcDbPolyline
 62
7
  6
CONTINUOUS
 90
10
 70
0
 10
-26.2648670943
 20
-14.1972520809
 10
-26.2665528113
 20
-14.1795588635
 10
-26.2681085548
 20
-14.1618825064
 10
-26.269534085
 20
-14.1442236214
 10
-26.2708291313
 20
-14.1265832609
 10
-26.2719934906
 20
-14.1089615993
 10
-26.2730269945
 20
-14.0913579398
 10
-26.2739293936
 20
-14.0737724694
 10
-26.2747003898
 20
-14.056206252
 10
-26.2753397123
 20
-14.0386599149
  0
LWPOLYLINE
  5
2A9
100
AcDbEntity
  8
SUPERFICI
100
AcDbPolyline
 62
250
  6
CONTINUOUS
 90
10
 70
0
 10
-23.3592497452
 20
-17.4000671399
 10
-23.3645541126
 20
-17.2715630513
 10
-23.3710647648
 20
-17.1513447949
 10
-23.3787630576
 20
-17.0399871847
 10
-23.3875879413
 20
-16.9378725616
 10
-23.3975718795
 20
-16.8458711539
 10
-23.4087203678
 20
-16.765110092
 10
-23.4208920868
 20
-16.6961554897
 10
-23.4339192616
 20
-16.6392437862
 10
-23.4476593048
 20
-16.5947996169
  0
LINE
  5
2AA
100
AcDbEntity
  8
SUPERFICI
100
AcDbLine
 62
7
  6
CONTINUOUS
 10
-26.2753397123
 20
-14.0386599149
 11
-27.1431329859
 21
20.8452251934
  0
LINE
  5
2AB
100
AcDbEntity
  8
SUPERFICI
100
AcDbLine
 62
250
  6
CONTINUOUS
 10
-25.2180012115
 20
-14.5437049161
 11
-26.0744594638
 21
19.8845691202
  0
LINE
  5
2AC
100
AcDbEntity
  8
SUPERFICI
100
AcDbLine
 62
250
  6
CONTINUOUS
 10
-23.4348898697
 20
-14.5562605815
 11
-24.2916258053
 21
19.8831758866
  0
LWPOLYLINE
  5
2AD
100
AcDbEntity
  8
SUPERFICI
100
AcDbPolyline
 62
250
  6
CONTINUOUS
 90
10
 70
0
 10
-24.3506730934
 20
22.4535913739
 10
-24.3489749828
 20
22.3006068661
 10
-24.348492724
 20
22.1397211045
 10
-24.3492365344
 20
21.9715194632
 10
-24.3511592413
 20
21.7961774419
 10
-24.354341595
 20
21.614765855
 10
-24.3588679268
 20
21.4293266429
 10
-24.3646410378
 20
21.2410672749
 10
-24.3715064437
 20
21.0502855672
 10
-24.3793506667
 20
20.8577270408
  0
LWPOLYLINE
  5
2AE
100
AcDbEntity
  8
SUPERFICI
100
AcDbPolyline
 62
7
  6
CONTINUOUS
 90
16
 70
0
 10
-26.0754137489
 20
19.8832199908
 10
-26.0696628543
 20
20.0353601949
 10
-26.0450188868
 20
20.1824663032
 10
-26.0018786227
 20
20.3220652054
 10
-25.9405378388
 20
20.4518485344
 10
-25.8614537039
 20
20.5690766363
 10
-25.7656196086
 20
20.6710287076
 10
-25.655044391
 20
20.7571635421
 10
-25.5313437294
 20
20.8283599462
 10
-25.3948010752
 20
20.8844887467
 10
-25.2450951356
 20
20.9240066689
 10
-25.083406951
 20
20.9455999531
 10
-24.9128034866
 20
20.9494358391
 10
-24.7364428959
 20
20.9359902306
 10
-24.5572394378
 20
20.9057327128
 10
-24.3782345229
 20
20.8591251951
  0
LWPOLYLINE
  5
2AF
100
AcDbEntity
  8
SUPERFICI
100
AcDbPolyline
 62
250
  6
CONTINUOUS
 90
6
 70
0
 10
-34.2902168379
 20
-22.5145417567
 10
-34.265297161
 20
-22.5179539747
 10
-34.2269402517
 20
-22.5145543383
 10
-34.1774350759
 20
-22.5034069711
 10
-34.1166990476
 20
-22.4844101699
 10
-34.0447133774
 20
-22.4574949556
  0
LWPOLYLINE
  5
2B0
100
AcDbEntity
  8
SUPERFICI
100
AcDbPolyline
 62
7
  6
CONTINUOUS
 90
10
 70
0
 10
16.8929513295
 20
-29.7559304517
 10
17.008045307
 20
-29.7828975869
 10
17.1221269481
 20
-29.8056634771
 10
17.2350940453
 20
-29.824234775
 10
17.346835255
 20
-29.8386148158
 10
17.4572832091
 20
-29.848804603
 10
17.5662904894
 20
-29.854801367
 10
17.6735215983
 20
-29.8566006919
 10
17.7787102162
 20
-29.854220652
 10
17.8820282937
 20
-29.847673721
  0
LINE
  5
2B1
100
AcDbEntity
  8
SUPERFICI
100
AcDbLine
 62
250
  6
CONTINUOUS
 10
8.8108934722
 20
-31.2238798534
 11
10.800707867
 21
-31.7819379481
  0
LINE
  5
2B2
100
AcDbEntity
  8
SUPERFICI
100
AcDbLine
 62
250
  6
CONTINUOUS
 10
6.713058324
 20
-30.622857976
 11
8.8108934722
 21
-31.2238798534
  0
LWPOLYLINE
  5
2B3
100
AcDbEntity
  8
SUPERFICI
100
AcDbPolyline
 62
250
  6
CONTINUOUS
 90
3
 70
0
 10
3.353066686
 20
-29.6330798933
 10
4.5028220065
 20
-29.9756907231
 10
6.713058324
 20
-30.622857976
  0
LINE
  5
2B4
100
AcDbEntity
  8
SUPERFICI
100
AcDbLine
 62
250
  6
CONTINUOUS
 10
0.962233714
 20
-28.9081552614
 11
3.353066686
 21
-29.6330798933
  0
LWPOLYLINE
  5
2B5
100
AcDbEntity
  8
SUPERFICI
100
AcDbPolyline
 62
250
  6
CONTINUOUS
 90
4
 70
0
 10
-10.2731056435
 20
-25.4376813333
 10
-9.1189934507
 20
-25.8028020414
 10
-7.9342906857
 20
-26.1732036005
 10
0.962233714
 20
-28.9081552614
  0
LINE
  5
2B6
100
AcDbEntity
  8
SUPERFICI
100
AcDbLine
 62
250
  6
CONTINUOUS
 10
-12.4893859406
 20
-24.7251930023
 11
-10.2731056435
 21
-25.4376813333
  0
LINE
  5
2B7
100
AcDbEntity
  8
SUPERFICI
100
AcDbLine
 62
250
  6
CONTINUOUS
 10
-14.59016312
 20
-24.0365648707
 11
-12.4893859406
 21
-24.7251930023
  0
LINE
  5
2B8
100
AcDbEntity
  8
SUPERFICI
100
AcDbLine
 62
250
  6
CONTINUOUS
 10
-16.5800649303
 20
-23.3722949528
 11
-14.59016312
 21
-24.0365648707
  0
LINE
  5
2B9
100
AcDbEntity
  8
SUPERFICI
100
AcDbLine
 62
250
  6
CONTINUOUS
 10
-18.4658363156
 20
-22.7321213376
 11
-16.5800649303
 21
-23.3722949528
  0
LINE
  5
2BA
100
AcDbEntity
  8
SUPERFICI
100
AcDbLine
 62
250
  6
CONTINUOUS
 10
-20.2550170704
 20
-22.1146734225
 11
-18.4658363156
 21
-22.7321213376
  0
LINE
  5
2BB
100
AcDbEntity
  8
SUPERFICI
100
AcDbLine
 62
250
  6
CONTINUOUS
 10
-21.9518827705
 20
-21.5194673191
 11
-20.2550170704
 21
-22.1146734225
  0
LWPOLYLINE
  5
2BC
100
AcDbEntity
  8
SUPERFICI
100
AcDbPolyline
 62
7
  6
CONTINUOUS
 90
10
 70
0
 10
-23.5390892632
 20
-17.3396424946
 10
-23.6546032383
 20
-17.2957921646
 10
-23.769299925
 20
-17.2483024496
 10
-23.8830752089
 20
-17.1972433618
 10
-23.9958158648
 20
-17.1426871993
 10
-24.1074534369
 20
-17.0846766758
 10
-24.2178383763
 20
-17.0233002175
 10
-24.3266302414
 20
-16.9587609828
 10
-24.4335577058
 20
-16.891242152
 10
-24.5387947425
 20
-16.8206499688
  0
LWPOLYLINE
  5
2BD
100
AcDbEntity
  8
SUPERFICI
100
AcDbPolyline
 62
250
  6
CONTINUOUS
 90
3
 70
0
 10
31.2317445336
 20
-42.6053947793
 10
31.3593644706
 20
-42.6632000464
 10
31.4593363788
 20
-42.6940936571
  0
LWPOLYLINE
  5
2BE
100
AcDbEntity
  8
DRAFT
100
AcDbPolyline
 62
7
  6
CONTINUOUS
 90
3
 70
0
 10
-22.5414424597
 20
-13.9790083195
 10
-22.5747949768
 20
-13.9546050333
 10
-22.6064091996
 20
-13.9269101095
  0
LWPOLYLINE
  5
2BF
100
AcDbEntity
  8
DRAFT
100
AcDbPolyline
 62
7
  6
CONTINUOUS
 90
5
 70
0
 10
-22.6064091996
 20
-13.9269101095
 10
-22.6347074898
 20
-13.8973056023
 10
-22.659521574
 20
-13.8656946061
 10
-22.6810197258
 20
-13.8321740265
 10
-22.698129127
 20
-13.7984166342
  0
LWPOLYLINE
  5
2C0
100
AcDbEntity
  8
DRAFT
100
AcDbPolyline
 62
7
  6
CONTINUOUS
 90
4
 70
0
 10
-22.698129127
 20
-13.7984166342
 10
-22.7104921717
 20
-13.7649800195
 10
-22.7184664658
 20
-13.7313065921
 10
-22.7220520095
 20
-13.697396352
  0
LWPOLYLINE
  5
2C1
100
AcDbEntity
  8
SUPERFICI
100
AcDbPolyline
 62
250
  6
CONTINUOUS
 90
10
 70
0
 10
-23.4348898697
 20
-14.5562605815
 10
-23.4291562091
 20
-14.6035983524
 10
-23.4143712197
 20
-14.6524387998
 10
-23.3909243762
 20
-14.7013115624
 10
-23.3594347423
 20
-14.748780114
 10
-23.3208364611
 20
-14.7933268545
 10
-23.2764255952
 20
-14.833439274
 10
-23.227633504
 20
-14.8678733071
 10
-23.1759127236
 20
-14.895648069
 10
-23.1228418503
 20
-14.9159439395
  0
LWPOLYLINE
  5
2C2
100
AcDbEntity
  8
DRAFT
100
AcDbPolyline
 62
7
  6
CONTINUOUS
 90
13
 70
0
 10
-22.0954375948
 20
-12.8999930061
 10
-22.091754845
 20
-12.934838339
 10
-22.0835624846
 20
-12.9694402559
 10
-22.0708605134
 20
-13.0037987568
 10
-22.0532815033
 20
-13.0384868034
 10
-22.0311928824
 20
-13.0729314339
 10
-22.0056969358
 20
-13.1054137635
 10
-21.9766207519
 20
-13.1358342115
 10
-21.9441372421
 20
-13.1642923586
 10
-21.9098674259
 20
-13.1893680626
 10
-21.8743516431
 20
-13.2105879426
 10
-21.8370495538
 20
-13.2284253794
 10
-21.797961158
 20
-13.242880373
  0
LINE
  5
2C3
100
AcDbEntity
  8
DRAFT
100
AcDbLine
 62
7
  6
CONTINUOUS
 10
-23.5533161538
 20
19.6580512673
 11
-23.1994728894
 21
5.4596757566
  0
LINE
  5
2C4
100
AcDbEntity
  8
DRAFT
100
AcDbLine
 62
7
  6
CONTINUOUS
 10
-23.1028640131
 20
1.5831314157
 11
-22.7220520095
 21
-13.697396352
  0
LINE
  5
2C5
100
AcDbEntity
  8
0
100
AcDbLine
 62
7
  6
CONTINUOUS
 10
-23.1918374429
 20
-14.264231397
 11
-24.0394214339
 21
19.8073112984
  0
LINE
  5
2C6
100
AcDbEntity
  8
0
100
AcDbLine
 62
7
  6
CONTINUOUS
 10
-22.7842735997
 20
-13.6806685705
 11
-23.6140916824
 21
19.676712569
  0
LINE
  5
2C7
100
AcDbEntity
  8
DRAFT
100
AcDbLine
 62
7
  6
CONTINUOUS
 10
-23.4574654859
 20
19.6286200428
 11
-23.1077886701
 21
5.5721622904
  0
LINE
  5
2C8
100
AcDbEntity
  8
DRAFT
100
AcDbLine
 62
7
  6
CONTINUOUS
 10
-23.011348301
 20
1.6954112095
 11
-22.6312005178
 21
-13.5859314841
  0
LINE
  5
2C9
100
AcDbEntity
  8
DRAFT
100
AcDbLine
 62
7
  6
CONTINUOUS
 10
-22.9003835169
 20
19.4575664142
 11
-22.5720257471
 21
6.2581007684
  0
LINE
  5
2CA
100
AcDbEntity
  8
DRAFT
100
AcDbLine
 62
7
  6
CONTINUOUS
 10
-22.4755853781
 20
2.3813496875
 11
-22.0954375948
 21
-12.8999930061
  0
LINE
  5
2CB
100
AcDbEntity
  8
DRAFT
100
AcDbLine
 62
7
  6
CONTINUOUS
 10
-23.1077886701
 20
5.5721622904
 11
-22.5720257471
 21
6.2581007684
  0
LINE
  5
2CC
100
AcDbEntity
  8
DRAFT
100
AcDbLine
 62
7
  6
CONTINUOUS
 10
-23.1994728894
 20
5.4596757566
 11
-23.1077886701
 21
5.5721622904
  0
LINE
  5
2CD
100
AcDbEntity
  8
SUPERFICI
100
AcDbLine
 62
250
  6
CONTINUOUS
 10
16.5803341385
 20
-27.1044063236
 11
16.5274637258
 21
-27.0921686515
  0
LWPOLYLINE
  5
2CE
100
AcDbEntity
  8
SUPERFICI
100
AcDbPolyline
 62
250
  6
CONTINUOUS
 90
10
 70
0
 10
19.5058310484
 20
-28.0976148047
 10
19.3434815843
 20
-28.053237984
 10
19.17563494
 20
-28.0108122692
 10
19.0029387184
 20
-27.9705735743
 10
18.8257227366
 20
-27.9326513178
 10
18.6450730077
 20
-27.8974302089
 10
18.4628585411
 20
-27.8653992384
 10
18.2802603195
 20
-27.8367368337
 10
18.0977456731
 20
-27.8114619286
 10
17.9161594492
 20
-27.789689826
  0
LWPOLYLINE
  5
2CF
100
AcDbEntity
  8
SUPERFICI
100
AcDbPolyline
 62
7
  6
CONTINUOUS
 90
10
 70
0
 10
16.7133717657
 20
-29.7059798811
 10
16.7335843432
 20
-29.7120170667
 10
16.7537370717
 20
-29.71794497
 10
16.7738277795
 20
-29.7237581128
 10
16.7938543382
 20
-29.7294511032
 10
16.8138146252
 20
-29.7350186244
 10
16.8337065234
 20
-29.7404554346
 10
16.8535279711
 20
-29.7457563808
 10
16.8732769619
 20
-29.7509163976
 10
16.8929515069
 20
-29.7559304963
  0
LINE
  5
2D0
100
AcDbEntity
  8
SUPERFICI
100
AcDbLine
 62
7
  6
CONTINUOUS
 10
16.7133717657
 20
-29.7059798811
 11
-23.3592497452
 21
-17.4000671399
  0
LINE
  5
2D1
100
AcDbEntity
  8
SUPERFICI
100
AcDbLine
 62
250
  6
CONTINUOUS
 10
16.2122851735
 20
-28.7739843424
 11
-23.4477191754
 21
-16.5949581713
  0
LINE
  5
2D2
100
AcDbEntity
  8
SUPERFICI
100
AcDbLine
 62
250
  6
CONTINUOUS
 10
16.5274637258
 20
-27.0921686515
 11
-23.1228418503
 21
-14.9159439395
  0
LINE
  5
2D3
100
AcDbEntity
  8
0
100
AcDbLine
 62
7
  6
CONTINUOUS
 10
16.7144588558
 20
-26.7759763881
 11
-22.8880069324
 21
-14.6144428116
  0
LINE
  5
2D4
100
AcDbEntity
  8
0
100
AcDbLine
 62
7
  6
CONTINUOUS
 10
16.6977285516
 20
-26.1024409018
 11
-22.4327542291
 21
-14.0858487342
  0
LINE
  5
2D5
100
AcDbEntity
  8
DRAFT
100
AcDbLine
 62
7
  6
CONTINUOUS
 10
-22.4325327808
 20
-14.0310862979
 11
-4.834053948
 21
-19.4354086541
  0
LINE
  5
2D6
100
AcDbEntity
  8
DRAFT
100
AcDbLine
 62
7
  6
CONTINUOUS
 10
-0.3807060374
 20
-20.8029886536
 11
16.6963561204
 21
-26.0471890005
  0
LINE
  5
2D7
100
AcDbEntity
  8
DRAFT
100
AcDbLine
 62
7
  6
CONTINUOUS
 10
-22.3432533772
 20
-13.9178348708
 11
-4.7447745444
 21
-19.322157227
  0
LINE
  5
2D8
100
AcDbEntity
  8
DRAFT
100
AcDbLine
 62
7
  6
CONTINUOUS
 10
-0.2914266339
 20
-20.6897372265
 11
16.6928351289
 21
-25.9054394711
  0
LWPOLYLINE
  5
2D9
100
AcDbEntity
  8
SUPERFICI
100
AcDbPolyline
 62
7
  6
CONTINUOUS
 90
9
 70
0
 10
-23.3592492495
 20
-17.4000663229
 10
-23.3996361246
 20
-17.387233207
 10
-23.4197446939
 20
-17.3807015264
 10
-23.4397941503
 20
-17.3740875384
 10
-23.4597826058
 20
-17.3673871614
 10
-23.4797081752
 20
-17.3605963865
 10
-23.499569024
 20
-17.3537112606
 10
-23.519363369
 20
-17.3467278855
 10
-23.539089441
 20
-17.3396424302
  0
LWPOLYLINE
  5
2DA
100
AcDbEntity
  8
SUPERFICI
100
AcDbPolyline
 62
250
  6
CONTINUOUS
 90
10
 70
0
 10
-26.2753406667
 20
-14.038660497
 10
-26.1290819273
 20
-14.0890542658
 10
-25.9881717508
 20
-14.1414447794
 10
-25.8533052224
 20
-14.1956556254
 10
-25.7249590726
 20
-14.2515685392
 10
-25.6041741041
 20
-14.3089151057
 10
-25.4923778677
 20
-14.3671719736
 10
-25.3904043264
 20
-14.4258988005
 10
-25.2986719658
 20
-14.4848424943
 10
-25.2178408639
 20
-14.5436562102
  0
LWPOLYLINE
  5
2DB
100
AcDbEntity
  8
SUPERFICI
100
AcDbPolyline
 62
7
  6
CONTINUOUS
 90
6
 70
0
 10
-23.4465431865
 20
-16.5934004351
 10
-23.6233076396
 20
-16.5307546367
 10
-23.8006000954
 20
-16.4515305557
 10
-23.9762120337
 20
-16.35687748
 10
-24.1482596028
 20
-16.247718742
 10
-24.1898042483
 20
-16.2187461685
  0
LWPOLYLINE
  5
2DC
100
AcDbEntity
  8
DRAFT
100
AcDbPolyline
 62
7
  6
CONTINUOUS
 90
4
 70
0
 10
-22.4325327808
 20
-14.0310862979
 10
-22.4705743014
 20
-14.0170186094
 10
-22.5068775277
 20
-13.9996592833
 10
-22.5414424597
 20
-13.9790083195
  0
LWPOLYLINE
  5
2DD
100
AcDbEntity
  8
0
100
AcDbPolyline
 62
7
  6
CONTINUOUS
 90
10
 70
0
 10
-22.8880069324
 20
-14.6144428116
 10
-22.9397460597
 20
-14.5946512169
 10
-22.9901088018
 20
-14.567594868
 10
-23.0375649125
 20
-14.5340958581
 10
-23.0806724616
 20
-14.4951720379
 10
-23.1181216482
 20
-14.4520060879
 10
-23.1487745978
 20
-14.4059095837
 10
-23.1716999358
 20
-14.3582831442
 10
-23.1862010876
 20
-14.3105738746
 10
-23.1918374429
 20
-14.264231397
  0
LWPOLYLINE
  5
2DE
100
AcDbEntity
  8
0
100
AcDbPolyline
 62
7
  6
CONTINUOUS
 90
10
 70
0
 10
-22.4327542291
 20
-14.0858487342
 10
-22.4953614114
 20
-14.0610124883
 10
-22.5530388831
 20
-14.0300264511
 10
-22.6057866442
 20
-13.9928906227
 10
-22.654881572
 20
-13.9481332053
 10
-22.6990467892
 20
-13.8972259967
 10
-22.7344516637
 20
-13.8445843896
 10
-22.7598193183
 20
-13.7916801817
 10
-22.7764266303
 20
-13.7370415753
 10
-22.7842735997
 20
-13.6806685705
  0
LINE
  5
2DF
100
AcDbEntity
  8
SUPERFICI
100
AcDbLine
 62
250
  6
CONTINUOUS
 10
31.1005544057
 20
-42.52521946
 11
31.2317445336
 21
-42.6053947793
  0
LINE
  5
2E0
100
AcDbEntity
  8
SUPERFICI
100
AcDbLine
 62
250
  6
CONTINUOUS
 10
-38.3014911976
 20
37.4255830356
 11
-38.2446369063
 21
37.2793384904
  0
LWPOLYLINE
  5
2E1
100
AcDbEntity
  8
SUPERFICI
100
AcDbPolyline
 62
250
  6
CONTINUOUS
 90
10
 70
0
 10
-2.9266520744
 20
29.2713426688
 10
-2.9859681317
 20
29.1842409891
 10
-3.0428949893
 20
29.0867307437
 10
-3.0968012471
 20
28.9802036435
 10
-3.1472610682
 20
28.8655521939
 10
-3.193337359
 20
28.7447620064
 10
-3.2338094206
 20
28.6211321612
 10
-3.2680717207
 20
28.4969165738
 10
-3.2959050925
 20
28.3731066359
 10
-3.3169194795
 20
28.2511789302
  0
LINE
  5
2E2
100
AcDbEntity
  8
DRAFT
100
AcDbLine
 62
7
  6
CONTINUOUS
 10
-22.4755853781
 20
2.3813496875
 11
-23.011348301
 21
1.6954112095
  0
LINE
  5
2E3
100
AcDbEntity
  8
DRAFT
100
AcDbLine
 62
7
  6
CONTINUOUS
 10
-23.011348301
 20
1.6954112095
 11
-23.1028640131
 21
1.5831314157
  0
LWPOLYLINE
  5
2E4
100
AcDbEntity
  8
SUPERFICI
100
AcDbPolyline
 62
250
  6
CONTINUOUS
 90
6
 70
0
 10
-23.8634132144
 20
2.6635076015
 10
-23.941557088
 20
2.5840543533
 10
-24.0364430419
 20
2.5128311854
 10
-24.1465752082
 20
2.4509838212
 10
-24.2707721072
 20
2.3995512987
 10
-24.4065722288
 20
2.3599734394
  0
LWPOLYLINE
  5
2E5
100
AcDbEntity
  8
RACCORDO
100
AcDbPolyline
 62
250
  6
CONTINUOUS
 90
3
 70
0
 10
34.471322968
 20
-12.7184647248
 10
34.4737486294
 20
-12.7179848628
 10
34.4912173097
 20
-12.7194097317
  0
LINE
  5
2E6
100
AcDbEntity
  8
RACCORDO
100
AcDbLine
 62
7
  6
CONTINUOUS
 10
7.5964003785
 20
-20.8896693511
 11
7.6151938629
 21
-20.894372358
  0
LINE
  5
2E7
100
AcDbEntity
  8
RACCORDO
100
AcDbLine
 62
7
  6
CONTINUOUS
 10
-12.4436652191
 20
-14.7355593534
 11
-12.4248717347
 21
-14.7402623603
  0
LINE
  5
2E8
100
AcDbEntity
  8
DRAFT
100
AcDbLine
 62
7
  6
CONTINUOUS
 10
-21.797961158
 20
-13.242880373
 11
-4.1994823253
 21
-18.6472027292
  0
LINE
  5
2E9
100
AcDbEntity
  8
DRAFT
100
AcDbLine
 62
7
  6
CONTINUOUS
 10
0.2538655853
 20
-20.0147827287
 11
16.6717492572
 21
-25.0565557486
  0
LINE
  5
2EA
100
AcDbEntity
  8
DRAFT
100
AcDbLine
 62
7
  6
CONTINUOUS
 10
12.1111939107
 20
-23.6415100398
 11
6.5785707087
 21
-21.9424950543
  0
LINE
  5
2EB
100
AcDbEntity
  8
0
100
AcDbLine
 62
7
  6
CONTINUOUS
 10
-7.928871687
 20
-17.487400042
 11
-13.4614948889
 21
-15.7883850565
  0
LINE
  5
2EC
100
AcDbEntity
  8
DRAFT
100
AcDbLine
 62
7
  6
CONTINUOUS
 10
12.1927066793
 20
-23.5247974745
 11
6.6787546833
 21
-21.8315162354
  0
LINE
  5
2ED
100
AcDbEntity
  8
0
100
AcDbLine
 62
7
  6
CONTINUOUS
 10
-7.8473589183
 20
-17.3706874767
 11
-13.3613109143
 21
-15.6774062377
  0
LINE
  5
2EE
100
AcDbEntity
  8
DRAFT
100
AcDbLine
 62
7
  6
CONTINUOUS
 10
12.3149758323
 20
-23.3497286265
 11
6.8290306452
 21
-21.6650480072
  0
LINE
  5
2EF
100
AcDbEntity
  8
0
100
AcDbLine
 62
7
  6
CONTINUOUS
 10
-7.7250897653
 20
-17.1956186288
 11
-13.2110349524
 21
-15.5109380094
  0
LINE
  5
2F0
100
AcDbEntity
  8
DRAFT
100
AcDbLine
 62
7
  6
CONTINUOUS
 10
12.396488601
 20
-23.2330160612
 11
6.9292146198
 21
-21.5540691883
  0
LINE
  5
2F1
100
AcDbEntity
  8
0
100
AcDbLine
 62
7
  6
CONTINUOUS
 10
-7.6435769967
 20
-17.0789060635
 11
-13.1108509778
 21
-15.3999591906
  0
LINE
  5
2F2
100
AcDbEntity
  8
DRAFT
100
AcDbLine
 62
7
  6
CONTINUOUS
 10
12.518757754
 20
-23.0579472133
 11
7.0794905817
 21
-21.3876009601
  0
LINE
  5
2F3
100
AcDbEntity
  8
0
100
AcDbLine
 62
7
  6
CONTINUOUS
 10
-7.5213078437
 20
-16.9038372155
 11
-12.9605750159
 21
-15.2334909623
  0
LINE
  5
2F4
100
AcDbEntity
  8
DRAFT
100
AcDbLine
 62
7
  6
CONTINUOUS
 10
12.6002705226
 20
-22.941234648
 11
7.1796745564
 21
-21.2766221413
  0
LINE
  5
2F5
100
AcDbEntity
  8
0
100
AcDbLine
 62
7
  6
CONTINUOUS
 10
-7.439795075
 20
-16.7871246502
 11
-12.8603910413
 21
-15.1225121435
  0
LINE
  5
2F6
100
AcDbEntity
  8
DRAFT
100
AcDbLine
 62
7
  6
CONTINUOUS
 10
12.7225396756
 20
-22.7661658
 11
7.3299505183
 21
-21.110153913
  0
LINE
  5
2F7
100
AcDbEntity
  8
0
100
AcDbLine
 62
7
  6
CONTINUOUS
 10
-7.3175259221
 20
-16.6120558023
 11
-12.7101150794
 21
-14.9560439153
  0
LINE
  5
2F8
100
AcDbEntity
  8
RACCORDO
100
AcDbLine
 62
250
  6
CONTINUOUS
 10
-12.5347931238
 20
-14.7618309823
 11
-7.1748785769
 21
-16.407808813
  0
LINE
  5
2F9
100
AcDbEntity
  8
RACCORDO
100
AcDbLine
 62
250
  6
CONTINUOUS
 10
7.5052724738
 20
-20.91594098
 11
12.8651870207
 21
-22.5619188108
  0
LINE
  5
2FA
100
AcDbEntity
  8
RACCORDO
100
AcDbLine
 62
7
  6
CONTINUOUS
 10
-12.4248673368
 20
-14.7402555172
 11
-7.1596650933
 21
-16.3571481172
  0
LINE
  5
2FB
100
AcDbEntity
  8
RACCORDO
100
AcDbLine
 62
7
  6
CONTINUOUS
 10
7.6151982608
 20
-20.894365515
 11
12.8804005044
 21
-22.5112581149
  0
LINE
  5
2FC
100
AcDbEntity
  8
0
100
AcDbLine
 62
7
  6
CONTINUOUS
 10
-7.8473589183
 20
-17.3706874767
 11
-7.7833311308
 21
-17.3994555852
  0
LINE
  5
2FD
100
AcDbEntity
  8
0
100
AcDbLine
 62
7
  6
CONTINUOUS
 10
-7.6435769967
 20
-17.0789060635
 11
-7.5795492091
 21
-17.1076741719
  0
LINE
  5
2FE
100
AcDbEntity
  8
0
100
AcDbLine
 62
7
  6
CONTINUOUS
 10
-7.439795075
 20
-16.7871246502
 11
-7.3757672875
 21
-16.8158927587
  0
LINE
  5
2FF
100
AcDbEntity
  8
DRAFT
100
AcDbLine
 62
7
  6
CONTINUOUS
 10
12.1927066793
 20
-23.5247974745
 11
12.2567344669
 21
-23.5535655829
  0
LINE
  5
300
100
AcDbEntity
  8
DRAFT
100
AcDbLine
 62
7
  6
CONTINUOUS
 10
12.396488601
 20
-23.2330160612
 11
12.4605163885
 21
-23.2617841697
  0
LINE
  5
301
100
AcDbEntity
  8
DRAFT
100
AcDbLine
 62
7
  6
CONTINUOUS
 10
12.6002705226
 20
-22.941234648
 11
12.6642983102
 21
-22.9700027564
  0
LWPOLYLINE
  5
302
100
AcDbEntity
  8
SUPERFICI
100
AcDbPolyline
 62
250
  6
CONTINUOUS
 90
7
 70
0
 10
-37.3741694271
 20
8.6373895928
 10
-37.4589545914
 20
8.7023046689
 10
-37.528508328
 20
8.7727573867
 10
-37.5824380162
 20
8.8477137836
 10
-37.6204859533
 20
8.9265020423
 10
-37.6419710021
 20
9.0077383575
 10
-37.6468600023
 20
9.0611426369
  0
LWPOLYLINE
  5
303
100
AcDbEntity
  8
SUPERFICI
100
AcDbPolyline
 62
250
  6
CONTINUOUS
 90
10
 70
0
 10
26.1666080869
 20
-40.9478084526
 10
25.7319243674
 20
-40.6132314435
 10
25.3033454893
 20
-40.276122321
 10
24.8806774647
 20
-39.9363578064
 10
24.4641295516
 20
-39.5941496754
 10
24.0531033849
 20
-39.2490535812
 10
23.6462354701
 20
-38.8999319133
 10
23.2429890692
 20
-38.5462901837
 10
22.8436116903
 20
-38.1883141505
 10
22.4479539716
 20
-37.8258526837
  0
LWPOLYLINE
  5
304
100
AcDbEntity
  8
SUPERFICI
100
AcDbPolyline
 62
250
  6
CONTINUOUS
 90
10
 70
0
 10
-3.6176863058
 20
-22.6843899679
 10
-3.5659890519
 20
-22.7397130752
 10
-3.5185184359
 20
-22.8062891941
 10
-3.4754775891
 20
-22.8838645112
 10
-3.436961605
 20
-22.9724662144
 10
-3.4033263782
 20
-23.0715879405
 10
-3.3750292887
 20
-23.1798825272
 10
-3.3522039421
 20
-23.2964152238
 10
-3.3348196007
 20
-23.4209706024
 10
-3.3229382384
 20
-23.5530226219
  0
LWPOLYLINE
  5
305
100
AcDbEntity
  8
SUPERFICI
100
AcDbPolyline
 62
250
  6
CONTINUOUS
 90
10
 70
0
 10
-25.6460677785
 20
2.6704814826
 10
-25.7255161695
 20
2.7697368482
 10
-25.8159386221
 20
2.8656980953
 10
-25.9169639533
 20
2.9579425496
 10
-26.028588
 20
3.0463185728
 10
-26.1500861585
 20
3.1300641218
 10
-26.2797171725
 20
3.2079785926
 10
-26.4163436003
 20
3.2795397736
 10
-26.5597275408
 20
3.3447316659
 10
-26.7092355608
 20
3.4032837061
  0
LWPOLYLINE
  5
306
100
AcDbEntity
  8
SUPERFICI
100
AcDbPolyline
 62
250
  6
CONTINUOUS
 90
10
 70
0
 10
-37.98000519
 20
32.9910339296
 10
-37.6877098944
 20
32.4966825439
 10
-37.3938052874
 20
32.007957085
 10
-37.0979184527
 20
31.5242070699
 10
-36.8000582555
 20
31.0453896424
 10
-36.4995134787
 20
30.5702933063
 10
-36.1948000293
 20
30.0965530967
 10
-35.8851457758
 20
29.6229983198
 10
-35.5705432012
 20
29.1496371771
 10
-35.2506108274
 20
28.6758914235
  0
LWPOLYLINE
  5
307
100
AcDbEntity
  8
SUPERFICI
100
AcDbPolyline
 62
250
  6
CONTINUOUS
 90
3
 70
0
 10
-38.2446369063
 20
37.2793384904
 10
-38.1703887478
 20
37.1299042522
 10
-38.0792439429
 20
36.9802756351
  0
LWPOLYLINE
  5
308
100
AcDbEntity
  8
SUPERFICI
100
AcDbPolyline
 62
250
  6
CONTINUOUS
 90
10
 70
0
 10
17.4879298438
 20
-10.5755513069
 10
17.6633352907
 20
-10.5545590859
 10
17.8411722807
 20
-10.5409777147
 10
18.0206739355
 20
-10.5348803801
 10
18.2016433517
 20
-10.5363569747
 10
18.3826643297
 20
-10.5455121217
 10
18.561142045
 20
-10.5622148567
 10
18.7357174038
 20
-10.5862207296
 10
18.9062256457
 20
-10.6174220856
 10
19.0719358621
 20
-10.6556705118
  0
LWPOLYLINE
  5
309
100
AcDbEntity
  8
SUPERFICI
100
AcDbPolyline
 62
250
  6
CONTINUOUS
 90
10
 70
0
 10
32.2480483732
 20
-12.7429189967
 10
32.3826702612
 20
-12.7453817007
 10
32.5151550296
 20
-12.7369730505
 10
32.6439392143
 20
-12.7181263137
 10
32.7680053789
 20
-12.6891217251
 10
32.8851666666
 20
-12.6504623567
 10
32.9924164889
 20
-12.6033007333
 10
33.0881745927
 20
-12.5486971492
 10
33.1719327187
 20
-12.4871943684
 10
33.2427807182
 20
-12.419494112
  0
LWPOLYLINE
  5
30A
100
AcDbEntity
  8
SUPERFICI
100
AcDbPolyline
 62
250
  6
CONTINUOUS
 90
7
 70
0
 10
-35.8827191999
 20
7.6874849352
 10
-36.1366655636
 20
7.8420220703
 10
-36.387599589
 20
7.9975979736
 10
-36.6351477058
 20
8.153959535
 10
-36.8804836747
 20
8.3117541245
 10
-37.1261850153
 20
8.4725222549
 10
-37.3741694271
 20
8.6373895928
  0
LINE
  5
30B
100
AcDbEntity
  8
SUPERFICI
100
AcDbLine
 62
250
  6
CONTINUOUS
 10
30.9686037054
 20
-42.4224547855
 11
31.1005544057
 21
-42.52521946
  0
LWPOLYLINE
  5
30C
100
AcDbEntity
  8
SUPERFICI
100
AcDbPolyline
 62
250
  6
CONTINUOUS
 90
10
 70
0
 10
22.4479539716
 20
-37.8258526837
 10
22.0108742647
 20
-37.4163086259
 10
21.5773302433
 20
-37.0003954479
 10
21.1463363049
 20
-36.5769885902
 10
20.7158408096
 20
-36.1438855443
 10
20.2857378974
 20
-35.7008243548
 10
19.8577780194
 20
-35.2496319329
 10
19.4316433978
 20
-34.7901755288
 10
19.0050356073
 20
-34.3202127722
 10
18.57662743
 20
-33.8385165532
  0
LWPOLYLINE
  5
30D
100
AcDbEntity
  8
SUPERFICI
100
AcDbPolyline
 62
250
  6
CONTINUOUS
 90
10
 70
0
 10
-35.2506108274
 20
28.6758914235
 10
-34.8491536364
 20
28.091961584
 10
-34.4467829248
 20
27.5188043375
 10
-34.0431434444
 20
26.9563937186
 10
-33.6378145226
 20
26.4045415232
 10
-33.2306530661
 20
25.8633694628
 10
-32.8218149212
 20
25.3333021406
 10
-32.4112842431
 20
24.8144413294
 10
-31.9988480213
 20
24.3065735148
 10
-31.5844553167
 20
23.8096369704
  0
LWPOLYLINE
  5
30E
100
AcDbEntity
  8
SUPERFICI
100
AcDbPolyline
 62
250
  6
CONTINUOUS
 90
10
 70
0
 10
-38.0499093212
 20
35.8010700013
 10
-37.7181252845
 20
35.2645565904
 10
-37.383645601
 20
34.7298143489
 10
-37.0464633944
 20
34.1968312952
 10
-36.7065828251
 20
33.6656126009
 10
-36.3639861785
 20
33.1361290532
 10
-36.0186329693
 20
32.6083175894
 10
-35.6705042389
 20
32.0821497582
 10
-35.3196034495
 20
31.5576311842
 10
-34.9659229453
 20
31.034750405
  0
LINE
  5
30F
100
AcDbEntity
  8
RACCORDO
100
AcDbLine
 62
250
  6
CONTINUOUS
 10
-7.1488795245
 20
-17.2753330986
 11
-7.1706072415
 21
-16.4019130674
  0
LINE
  5
310
100
AcDbEntity
  8
RACCORDO
100
AcDbLine
 62
7
  6
CONTINUOUS
 10
-7.1315858068
 20
-17.2216893102
 11
-7.1528697536
 21
-16.366108143
  0
LWPOLYLINE
  5
311
100
AcDbEntity
  8
SUPERFICI
100
AcDbPolyline
 62
250
  6
CONTINUOUS
 90
10
 70
0
 10
-4.5493776166
 20
14.7681346349
 10
-4.5034754143
 20
14.9457634856
 10
-4.4620872429
 20
15.1236920698
 10
-4.4253917057
 20
15.3011882073
 10
-4.393479458
 20
15.4780463167
 10
-4.3666604446
 20
15.6529256452
 10
-4.3452993918
 20
15.8234488164
 10
-4.3294767259
 20
15.988412868
 10
-4.3191531737
 20
16.1476901052
 10
-4.314361581
 20
16.3006356649
  0
LINE
  5
312
100
AcDbEntity
  8
0
100
AcDbLine
 62
250
  6
CONTINUOUS
 10
-22.7842735997
 20
-13.6806685705
 11
-23.1918374429
 21
-14.264231397
  0
LINE
  5
313
100
AcDbEntity
  8
0
100
AcDbLine
 62
250
  6
CONTINUOUS
 10
-22.8880069324
 20
-14.6144428116
 11
-23.1228418503
 21
-14.9159439395
  0
LINE
  5
314
100
AcDbEntity
  8
DRAFT
100
AcDbLine
 62
250
  6
CONTINUOUS
 10
-22.6312005178
 20
-13.5859314841
 11
-22.0954375948
 21
-12.8999930061
  0
LINE
  5
315
100
AcDbEntity
  8
DRAFT
100
AcDbLine
 62
250
  6
CONTINUOUS
 10
-22.4325327808
 20
-14.0310862979
 11
-22.3432533772
 21
-13.9178348708
  0
LINE
  5
316
100
AcDbEntity
  8
DRAFT
100
AcDbLine
 62
250
  6
CONTINUOUS
 10
-22.3432533772
 20
-13.9178348708
 11
-21.797961158
 21
-13.242880373
  0
LINE
  5
317
100
AcDbEntity
  8
DRAFT
100
AcDbLine
 62
250
  6
CONTINUOUS
 10
-22.7220520095
 20
-13.697396352
 11
-22.6312005178
 21
-13.5859314841
  0
LINE
  5
318
100
AcDbEntity
  8
0
100
AcDbLine
 62
250
  6
CONTINUOUS
 10
-23.4348898697
 20
-14.5562605815
 11
-23.1918374429
 21
-14.264231397
  0
LINE
  5
319
100
AcDbEntity
  8
0
100
AcDbLine
 62
250
  6
CONTINUOUS
 10
-22.4327542291
 20
-14.0858487342
 11
-22.8880069324
 21
-14.6144428116
  0
LWPOLYLINE
  5
31A
100
AcDbEntity
  8
SUPERFICI
100
AcDbPolyline
 62
250
  6
CONTINUOUS
 90
10
 70
0
 10
-26.31671979
 20
-12.3752587406
 10
-26.8212726587
 20
-12.4411662133
 10
-27.3237161447
 20
-12.5144602904
 10
-27.8231412043
 20
-12.5950965783
 10
-28.3201572197
 20
-12.6833111886
 10
-28.8121682594
 20
-12.7787950822
 10
-29.2936605278
 20
-12.8804901083
 10
-29.7624122389
 20
-12.9877960434
 10
-30.2192053109
 20
-13.100774326
 10
-30.6633044181
 20
-13.2191796509
  0
LWPOLYLINE
  5
31B
100
AcDbEntity
  8
SUPERFICI
100
AcDbPolyline
 62
250
  6
CONTINUOUS
 90
10
 70
0
 10
29.0488223957
 20
-12.4745035223
 10
29.4138457304
 20
-12.5132407935
 10
29.7723014296
 20
-12.5494179933
 10
30.1260567902
 20
-12.5831706812
 10
30.4781331366
 20
-12.6147372492
 10
30.8297145019
 20
-12.6441879852
 10
31.1802499187
 20
-12.6714920827
 10
31.5312809388
 20
-12.696836018
 10
31.8863451731
 20
-12.7205571755
 10
32.2480483732
 20
-12.7429189966
  0
LWPOLYLINE
  5
31C
100
AcDbEntity
  8
RACCORDO
100
AcDbPolyline
 62
250
  6
CONTINUOUS
 90
3
 70
0
 10
34.8514834071
 20
-12.7237156274
 10
34.8818307151
 20
-12.7274283462
 10
34.912266676
 20
-12.7340596643
  0
LWPOLYLINE
  5
31D
100
AcDbEntity
  8
SUPERFICI
100
AcDbPolyline
 62
250
  6
CONTINUOUS
 90
10
 70
0
 10
24.7874990302
 20
-11.8746141405
 10
25.2746136044
 20
-11.9568717652
 10
25.7537971005
 20
-12.0348120778
 10
26.2264013721
 20
-12.1084899143
 10
26.6949857792
 20
-12.1781537122
 10
27.1611828457
 20
-12.2439274382
 10
27.6259346799
 20
-12.3058999797
 10
28.0922322153
 20
-12.3645100976
 10
28.5649463976
 20
-12.4204701645
 10
29.0488223957
 20
-12.4745035223
  0
LWPOLYLINE
  5
31E
100
AcDbEntity
  8
SUPERFICI
100
AcDbPolyline
 62
250
  6
CONTINUOUS
 90
10
 70
0
 10
-31.7373994629
 20
5.4836345759
 10
-32.1382055496
 20
5.674048784
 10
-32.5286684075
 20
5.8631684416
 10
-32.9096780286
 20
6.0516271618
 10
-33.2831047498
 20
6.2405368241
 10
-33.6500973644
 20
6.4306275772
 10
-34.0113410635
 20
6.6223102618
 10
-34.3692118381
 20
6.8167942474
 10
-34.7275763619
 20
7.0160503996
 10
-35.0902391044
 20
7.2219808879
  0
LWPOLYLINE
  5
31F
100
AcDbEntity
  8
SUPERFICI
100
AcDbPolyline
 62
250
  6
CONTINUOUS
 90
4
 70
0
 10
-35.0902391044
 20
7.2219808879
 10
-35.3612277614
 20
7.3785567376
 10
-35.6249524568
 20
7.5334451095
 10
-35.8827191999
 20
7.6874849352
  0
LWPOLYLINE
  5
320
100
AcDbEntity
  8
SUPERFICI
100
AcDbPolyline
 62
250
  6
CONTINUOUS
 90
10
 70
0
 10
24.6345548942
 20
-30.2006165224
 10
24.086025491
 20
-29.778164698
 10
23.5275536294
 20
-29.3540463187
 10
22.9600640689
 20
-28.929016348
 10
22.3828696782
 20
-28.5026478383
 10
21.7985198624
 20
-28.0769219344
 10
21.2129481667
 20
-27.6561707798
 10
20.628887904
 20
-27.2422789961
 10
20.0457252991
 20
-26.8347413521
 10
19.4644517791
 20
-26.4342130034
  0
LINE
  5
321
100
AcDbEntity
  8
SUPERFICI
100
AcDbLine
 62
250
  6
CONTINUOUS
 10
19.5037183376
 20
-28.2523791628
 11
20.5693863996
 21
-29.11579618
  0
LINE
  5
322
100
AcDbEntity
  8
SUPERFICI
100
AcDbLine
 62
250
  6
CONTINUOUS
 10
20.5693863996
 20
-29.11579618
 11
21.6044280196
 21
-29.9653610783
  0
LWPOLYLINE
  5
323
100
AcDbEntity
  8
SUPERFICI
100
AcDbPolyline
 62
250
  6
CONTINUOUS
 90
7
 70
0
 10
27.6636256909
 20
-32.6326041609
 10
27.1534358556
 20
-32.2121573288
 10
26.6453174818
 20
-31.7974983793
 10
26.1394830875
 20
-31.3889808981
 10
25.6359047147
 20
-30.9867218379
 10
25.1342956071
 20
-30.5906000977
 10
24.6345548942
 20
-30.2006165224
  0
LINE
  5
324
100
AcDbEntity
  8
SUPERFICI
100
AcDbLine
 62
250
  6
CONTINUOUS
 10
21.6044280196
 20
-29.9653610783
 11
22.623118841
 21
-30.8127548816
  0
LINE
  5
325
100
AcDbEntity
  8
SUPERFICI
100
AcDbLine
 62
250
  6
CONTINUOUS
 10
22.623118841
 20
-30.8127548816
 11
23.6442414
 21
-31.6735600752
  0
LINE
  5
326
100
AcDbEntity
  8
SUPERFICI
100
AcDbLine
 62
250
  6
CONTINUOUS
 10
24.6747535632
 20
-32.5537025358
 11
23.6442414
 21
-31.6735600752
  0
LINE
  5
327
100
AcDbEntity
  8
SUPERFICI
100
AcDbLine
 62
250
  6
CONTINUOUS
 10
25.7223042612
 20
-33.460034874
 11
24.6747535632
 21
-32.5537025358
  0
LWPOLYLINE
  5
328
100
AcDbEntity
  8
SUPERFICI
100
AcDbPolyline
 62
250
  6
CONTINUOUS
 90
10
 70
0
 10
31.0085760746
 20
-42.4347753654
 10
30.5174043295
 20
-42.0044874876
 10
30.0238323129
 20
-41.5677055347
 10
29.5288809299
 20
-41.1253247319
 10
29.0329975896
 20
-40.6777213781
 10
28.5378970178
 20
-40.2264117503
 10
28.0465095819
 20
-39.774058091
 10
27.5605285266
 20
-39.3222320272
 10
27.0804622986
 20
-38.8714092978
 10
26.6074383165
 20
-38.4226331035
  0
LINE
  5
329
100
AcDbEntity
  8
SUPERFICI
100
AcDbLine
 62
250
  6
CONTINUOUS
 10
20.7449946222
 20
-30.3217698695
 11
19.2798583722
 21
-29.0426667629
  0
LINE
  5
32A
100
AcDbEntity
  8
SUPERFICI
100
AcDbLine
 62
250
  6
CONTINUOUS
 10
26.7789348925
 20
-34.3844184149
 11
25.7223042612
 21
-33.460034874
  0
LINE
  5
32B
100
AcDbEntity
  8
SUPERFICI
100
AcDbLine
 62
250
  6
CONTINUOUS
 10
20.6610183926
 20
-30.4333300167
 11
19.2084764218
 21
-29.1536420029
  0
LINE
  5
32C
100
AcDbEntity
  8
SUPERFICI
100
AcDbLine
 62
250
  6
CONTINUOUS
 10
31.4449679626
 20
-40.2070487919
 11
32.9598722104
 21
-41.5438625102
  0
LINE
  5
32D
100
AcDbEntity
  8
SUPERFICI
100
AcDbLine
 62
250
  6
CONTINUOUS
 10
22.1812414342
 20
-31.5916145715
 11
20.7449946222
 21
-30.3217698695
  0
LINE
  5
32E
100
AcDbEntity
  8
SUPERFICI
100
AcDbLine
 62
250
  6
CONTINUOUS
 10
28.387046985
 20
-35.807716036
 11
26.7789348925
 21
-34.3844184149
  0
LINE
  5
32F
100
AcDbEntity
  8
SUPERFICI
100
AcDbLine
 62
250
  6
CONTINUOUS
 10
32.9587292745
 20
-41.3116139745
 11
31.4785634761
 21
-39.9970736265
  0
LINE
  5
330
100
AcDbEntity
  8
SUPERFICI
100
AcDbLine
 62
250
  6
CONTINUOUS
 10
22.0856758089
 20
-31.7044127777
 11
20.6610183926
 21
-30.4333300167
  0
LINE
  5
331
100
AcDbEntity
  8
SUPERFICI
100
AcDbLine
 62
250
  6
CONTINUOUS
 10
29.9195096206
 20
-38.8442996444
 11
31.4449679626
 21
-40.2070487919
  0
LINE
  5
332
100
AcDbEntity
  8
SUPERFICI
100
AcDbLine
 62
250
  6
CONTINUOUS
 10
31.4785634761
 20
-39.9970736265
 11
29.9871818349
 21
-38.6612300944
  0
LINE
  5
333
100
AcDbEntity
  8
SUPERFICI
100
AcDbLine
 62
250
  6
CONTINUOUS
 10
23.63857516
 20
-32.8966771582
 11
22.1812414342
 21
-31.5916145715
  0
LWPOLYLINE
  5
334
100
AcDbEntity
  8
SUPERFICI
100
AcDbPolyline
 62
250
  6
CONTINUOUS
 90
3
 70
0
 10
30.7151395493
 20
-37.8967065753
 10
30.2695252546
 20
-37.4945362481
 10
28.387046985
 20
-35.807716036
  0
LINE
  5
335
100
AcDbEntity
  8
SUPERFICI
100
AcDbLine
 62
250
  6
CONTINUOUS
 10
29.9871818349
 20
-38.6612300944
 11
28.5102163987
 21
-37.3269836554
  0
LINE
  5
336
100
AcDbEntity
  8
SUPERFICI
100
AcDbLine
 62
250
  6
CONTINUOUS
 10
23.63857516
 20
-32.8966771582
 11
24.6954715198
 21
-33.8528834602
  0
LINE
  5
337
100
AcDbEntity
  8
SUPERFICI
100
AcDbLine
 62
250
  6
CONTINUOUS
 10
23.5320910768
 20
-33.0114816826
 11
22.0856758089
 21
-31.7044127777
  0
LINE
  5
338
100
AcDbEntity
  8
SUPERFICI
100
AcDbLine
 62
250
  6
CONTINUOUS
 10
28.4136409237
 20
-37.4824303819
 11
29.9195096206
 21
-38.8442996444
  0
LINE
  5
339
100
AcDbEntity
  8
SUPERFICI
100
AcDbLine
 62
250
  6
CONTINUOUS
 10
24.6954715198
 20
-33.8528834602
 11
28.5102163987
 21
-37.3269836554
  0
LINE
  5
33A
100
AcDbEntity
  8
SUPERFICI
100
AcDbLine
 62
250
  6
CONTINUOUS
 10
28.4136409237
 20
-37.4824303819
 11
26.7549994389
 21
-35.9652411953
  0
LWPOLYLINE
  5
33B
100
AcDbEntity
  8
SUPERFICI
100
AcDbPolyline
 62
250
  6
CONTINUOUS
 90
3
 70
0
 10
26.7549994389
 20
-35.9652411953
 10
25.6678399799
 20
-34.966465966
 10
23.5320910768
 20
-33.0114816826
  0
LWPOLYLINE
  5
33C
100
AcDbEntity
  8
SUPERFICI
100
AcDbPolyline
 62
250
  6
CONTINUOUS
 90
10
 70
0
 10
25.2688556619
 20
-38.3936304253
 10
25.7075849441
 20
-38.7994626435
 10
26.1518904285
 20
-39.2029107248
 10
26.6015453639
 20
-39.6037649339
 10
27.0564828785
 20
-40.0019541934
 10
27.5163194978
 20
-40.3971277544
 10
27.9803384838
 20
-40.7886661647
 10
28.4481343673
 20
-41.1762352304
 10
28.9196296042
 20
-41.5597750433
 10
29.3945864254
 20
-41.9390893279
  0
LWPOLYLINE
  5
33D
100
AcDbEntity
  8
SUPERFICI
100
AcDbPolyline
 62
250
  6
CONTINUOUS
 90
7
 70
0
 10
25.2688556619
 20
-38.3936304253
 10
24.7912197287
 20
-37.9431721678
 10
24.3126575495
 20
-37.4832365889
 10
23.8334137016
 20
-37.0146867325
 10
23.3544361588
 20
-36.5391441458
 10
22.8752770928
 20
-36.0569090546
 10
22.3941644017
 20
-35.5669454223
  0
LINE
  5
33E
100
AcDbEntity
  8
SUPERFICI
100
AcDbLine
 62
250
  6
CONTINUOUS
 10
26.6074383165
 20
-38.4226331035
 11
26.1018184276
 21
-37.9379616916
  0
LINE
  5
33F
100
AcDbEntity
  8
SUPERFICI
100
AcDbLine
 62
250
  6
CONTINUOUS
 10
26.1018184276
 20
-37.9379616916
 11
25.0808633504
 21
-36.9462148741
  0
LINE
  5
340
100
AcDbEntity
  8
SUPERFICI
100
AcDbLine
 62
250
  6
CONTINUOUS
 10
20.166359355
 20
-32.0842176677
 11
17.8820281341
 21
-29.8476737344
  0
LINE
  5
341
100
AcDbEntity
  8
SUPERFICI
100
AcDbLine
 62
250
  6
CONTINUOUS
 10
25.0808633504
 20
-36.9462148741
 11
24.0546979435
 21
-35.9361110545
  0
LWPOLYLINE
  5
342
100
AcDbEntity
  8
SUPERFICI
100
AcDbPolyline
 62
250
  6
CONTINUOUS
 90
3
 70
0
 10
24.0546979435
 20
-35.9361110545
 10
22.5085785664
 20
-34.4013269544
 10
20.166359355
 20
-32.0842176677
  0
LINE
  5
343
100
AcDbEntity
  8
SUPERFICI
100
AcDbLine
 62
250
  6
CONTINUOUS
 10
22.3941644017
 20
-35.5669454223
 11
21.426151454
 21
-34.567096773
  0
LINE
  5
344
100
AcDbEntity
  8
SUPERFICI
100
AcDbLine
 62
250
  6
CONTINUOUS
 10
21.426151454
 20
-34.567096773
 11
20.4824342517
 21
-33.5803014696
  0
LINE
  5
345
100
AcDbEntity
  8
SUPERFICI
100
AcDbLine
 62
250
  6
CONTINUOUS
 10
20.4824342517
 20
-33.5803014696
 11
19.5786785583
 21
-32.628005224
  0
LINE
  5
346
100
AcDbEntity
  8
SUPERFICI
100
AcDbLine
 62
250
  6
CONTINUOUS
 10
19.5786785583
 20
-32.628005224
 11
18.6863430292
 21
-31.6807236806
  0
LINE
  5
347
100
AcDbEntity
  8
SUPERFICI
100
AcDbLine
 62
250
  6
CONTINUOUS
 10
18.6863430292
 20
-31.6807236806
 11
17.7939895594
 21
-30.7264178979
  0
LINE
  5
348
100
AcDbEntity
  8
SUPERFICI
100
AcDbLine
 62
250
  6
CONTINUOUS
 10
17.7939895594
 20
-30.7264178979
 11
16.8929513295
 21
-29.7559304517
  0
LWPOLYLINE
  5
349
100
AcDbEntity
  8
SUPERFICI
100
AcDbPolyline
 62
250
  6
CONTINUOUS
 90
10
 70
0
 10
-31.5844553167
 20
23.8096369704
 10
-31.1255013557
 20
23.2749350689
 10
-30.6538647987
 20
22.742000429
 10
-30.1702882453
 20
22.2118162869
 10
-29.6741223771
 20
21.6839085077
 10
-29.167487294
 20
21.1607960201
 10
-28.6555203949
 20
20.6478080501
 10
-28.1406691197
 20
20.1471872473
 10
-27.6224436959
 20
19.6582731797
 10
-27.101752601
 20
19.1818249503
  0
LWPOLYLINE
  5
34A
100
AcDbEntity
  8
SUPERFICI
100
AcDbPolyline
 62
250
  6
CONTINUOUS
 90
10
 70
0
 10
-30.5884755898
 20
26.5056975971
 10
-30.1802928576
 20
25.9578124854
 10
-29.7765986266
 20
25.4215749258
 10
-29.3754336706
 20
24.8945038041
 10
-28.9739495054
 20
24.3729637242
 10
-28.570697528
 20
23.8551440572
 10
-28.165609294
 20
23.3409201947
 10
-27.757026801
 20
22.8280438375
 10
-27.3417184389
 20
22.3122766501
 10
-26.917159156
 20
21.7902786133
  0
LWPOLYLINE
  5
34B
100
AcDbEntity
  8
SUPERFICI
100
AcDbPolyline
 62
250
  6
CONTINUOUS
 90
10
 70
0
 10
-30.4819915055
 20
26.6205021229
 10
-30.0770164376
 20
26.071908935
 10
-29.6768248382
 20
25.5352371117
 10
-29.2793898921
 20
25.0079012299
 10
-28.8816426031
 20
24.4859495814
 10
-28.4821635239
 20
23.9676026853
 10
-28.0811525156
 20
23.4530825609
 10
-27.6769458343
 20
22.940097994
 10
-27.2660417137
 20
22.424008923
 10
-26.8457772006
 20
21.90125385
  0
LWPOLYLINE
  5
34C
100
AcDbEntity
  8
SUPERFICI
100
AcDbPolyline
 62
250
  6
CONTINUOUS
 90
3
 70
0
 10
-30.5884755898
 20
26.5056975971
 10
-31.0220074955
 20
27.0942849353
 10
-31.459364318
 20
27.6949974282
  0
LWPOLYLINE
  5
34D
100
AcDbEntity
  8
SUPERFICI
100
AcDbPolyline
 62
250
  6
CONTINUOUS
 90
6
 70
0
 10
-33.2541300771
 20
28.5883107949
 10
-32.8258804829
 20
27.9978983973
 10
-32.3964427756
 20
27.4146234893
 10
-31.9658492651
 20
26.8387946895
 10
-31.5362237126
 20
26.273538461
 10
-31.1086355132
 20
25.7205360595
  0
LWPOLYLINE
  5
34E
100
AcDbEntity
  8
SUPERFICI
100
AcDbPolyline
 62
250
  6
CONTINUOUS
 90
3
 70
0
 10
-31.3536676366
 20
27.8212290978
 10
-30.9159772755
 20
27.2149598023
 10
-30.4819915055
 20
26.6205021229
  0
LINE
  5
34F
100
AcDbEntity
  8
SUPERFICI
100
AcDbLine
 62
250
  6
CONTINUOUS
 10
-31.459364318
 20
27.6949974282
 11
-32.3387283202
 21
28.9202666889
  0
LINE
  5
350
100
AcDbEntity
  8
SUPERFICI
100
AcDbLine
 62
250
  6
CONTINUOUS
 10
-32.2338339552
 20
29.0565747858
 11
-31.3536676366
 21
27.8212290978
  0
LINE
  5
351
100
AcDbEntity
  8
SUPERFICI
100
AcDbLine
 62
250
  6
CONTINUOUS
 10
-32.3387283202
 20
28.9202666889
 11
-33.219848
 21
30.1664461408
  0
LINE
  5
352
100
AcDbEntity
  8
SUPERFICI
100
AcDbLine
 62
250
  6
CONTINUOUS
 10
-33.5624645138
 20
30.9489242033
 11
-32.2338339552
 21
29.0565747858
  0
LINE
  5
353
100
AcDbEntity
  8
SUPERFICI
100
AcDbLine
 62
250
  6
CONTINUOUS
 10
-33.219848
 20
30.1664461408
 11
-34.1084602325
 21
31.4369916611
  0
LINE
  5
354
100
AcDbEntity
  8
SUPERFICI
100
AcDbLine
 62
250
  6
CONTINUOUS
 10
-33.5624645138
 20
30.9489242033
 11
-38.0859932644
 21
37.4383331063
  0
LINE
  5
355
100
AcDbEntity
  8
SUPERFICI
100
AcDbLine
 62
250
  6
CONTINUOUS
 10
-36.1276928134
 20
34.3534084382
 11
-34.1084602325
 21
31.4369916611
  0
LINE
  5
356
100
AcDbEntity
  8
SUPERFICI
100
AcDbLine
 62
250
  6
CONTINUOUS
 10
-36.1346971285
 20
38.3292459616
 11
-35.35668349
 21
37.203114427
  0
LWPOLYLINE
  5
357
100
AcDbEntity
  8
SUPERFICI
100
AcDbPolyline
 62
250
  6
CONTINUOUS
 90
5
 70
0
 10
-34.9659229453
 20
31.034750405
 10
-34.5409076211
 20
30.4142854634
 10
-34.1128878806
 20
29.7982389219
 10
-33.6831929289
 20
29.1885014779
 10
-33.2541300771
 20
28.5883107949
  0
LWPOLYLINE
  5
358
100
AcDbEntity
  8
SUPERFICI
100
AcDbPolyline
 62
250
  6
CONTINUOUS
 90
7
 70
0
 10
-28.1887272015
 20
26.3787678544
 10
-27.8140616948
 20
25.8313510374
 10
-27.4389676087
 20
25.2888407886
 10
-27.0622030664
 20
24.7495027939
 10
-26.6837455448
 20
24.2132739617
 10
-26.302192144
 20
23.6780438722
 10
-25.5193288724
 20
22.5952855326
  0
LINE
  5
359
100
AcDbEntity
  8
SUPERFICI
100
AcDbLine
 62
250
  6
CONTINUOUS
 10
-38.0848503284
 20
37.2060845706
 11
-36.1276928134
 21
34.3534084382
  0
LINE
  5
35A
100
AcDbEntity
  8
SUPERFICI
100
AcDbLine
 62
250
  6
CONTINUOUS
 10
-35.35668349
 20
37.203114427
 11
-34.5727496367
 21
36.053854597
  0
LINE
  5
35B
100
AcDbEntity
  8
SUPERFICI
100
AcDbLine
 62
250
  6
CONTINUOUS
 10
-34.5727496367
 20
36.053854597
 11
-33.7911439081
 21
34.8934452128
  0
LINE
  5
35C
100
AcDbEntity
  8
SUPERFICI
100
AcDbLine
 62
250
  6
CONTINUOUS
 10
-28.945903082
 20
27.5013044597
 11
-28.1887272015
 21
26.3787678544
  0
LINE
  5
35D
100
AcDbEntity
  8
SUPERFICI
100
AcDbLine
 62
250
  6
CONTINUOUS
 10
-25.2946283243
 20
23.6452867215
 11
-24.530252059
 21
22.5035422211
  0
LINE
  5
35E
100
AcDbEntity
  8
SUPERFICI
100
AcDbLine
 62
250
  6
CONTINUOUS
 10
-29.3633617582
 20
28.129542571
 11
-28.945903082
 21
27.5013044597
  0
LINE
  5
35F
100
AcDbEntity
  8
SUPERFICI
100
AcDbLine
 62
250
  6
CONTINUOUS
 10
-33.7911439081
 20
34.8934452128
 11
-33.0246145474
 21
33.7407726098
  0
LINE
  5
360
100
AcDbEntity
  8
SUPERFICI
100
AcDbLine
 62
250
  6
CONTINUOUS
 10
-26.0424712673
 20
24.7806845446
 11
-25.2946283243
 21
23.6452867215
  0
LINE
  5
361
100
AcDbEntity
  8
SUPERFICI
100
AcDbLine
 62
250
  6
CONTINUOUS
 10
-33.0246145474
 20
33.7407726098
 11
-32.2467957164
 21
32.5556631932
  0
LINE
  5
362
100
AcDbEntity
  8
SUPERFICI
100
AcDbLine
 62
250
  6
CONTINUOUS
 10
-30.1972904026
 20
29.4011257766
 11
-29.3633617582
 21
28.129542571
  0
LWPOLYLINE
  5
363
100
AcDbEntity
  8
SUPERFICI
100
AcDbPolyline
 62
250
  6
CONTINUOUS
 90
10
 70
0
 10
-31.3102723784
 20
33.1411077813
 10
-31.6525566444
 20
33.6677990684
 10
-31.998959006
 20
34.1939334299
 10
-32.3493025582
 20
34.7192386659
 10
-32.7035348454
 20
35.2436256338
 10
-33.0613568136
 20
35.7666377938
 10
-33.4222106247
 20
36.2874565701
 10
-33.7857812017
 20
36.8056344947
 10
-34.1520084107
 20
37.321089842
 10
-34.5207074793
 20
37.833559924
  0
LINE
  5
364
100
AcDbEntity
  8
SUPERFICI
100
AcDbLine
 62
250
  6
CONTINUOUS
 10
-32.2467957164
 20
32.5556631932
 11
-30.1972904026
 21
29.4011257766
  0
LINE
  5
365
100
AcDbEntity
  8
SUPERFICI
100
AcDbLine
 62
250
  6
CONTINUOUS
 10
-26.7809800177
 20
25.920732379
 11
-26.0424712673
 21
24.7806845446
  0
LWPOLYLINE
  5
366
100
AcDbEntity
  8
SUPERFICI
100
AcDbPolyline
 62
250
  6
CONTINUOUS
 90
3
 70
0
 10
-31.3102723784
 20
33.1411077813
 10
-30.9373024201
 20
32.5594884458
 10
-30.5630628457
 20
31.9688220797
  0
LINE
  5
367
100
AcDbEntity
  8
SUPERFICI
100
AcDbLine
 62
250
  6
CONTINUOUS
 10
-27.5195645729
 20
27.0800108684
 11
-26.7809800177
 21
25.920732379
  0
LINE
  5
368
100
AcDbEntity
  8
SUPERFICI
100
AcDbLine
 62
250
  6
CONTINUOUS
 10
-28.2810973073
 20
28.2951085519
 11
-27.5195645729
 21
27.0800108684
  0
LINE
  5
369
100
AcDbEntity
  8
SUPERFICI
100
AcDbLine
 62
250
  6
CONTINUOUS
 10
-30.5630628457
 20
31.9688220797
 11
-29.811214718
 21
30.7661151284
  0
LWPOLYLINE
  5
36A
100
AcDbEntity
  8
SUPERFICI
100
AcDbPolyline
 62
250
  6
CONTINUOUS
 90
10
 70
0
 10
-36.0947247594
 20
38.3169253817
 10
-36.1883688496
 20
38.4676934868
 10
-36.262122243
 20
38.6198450053
 10
-36.3161366213
 20
38.7698883114
 10
-36.3507729555
 20
38.9151687836
 10
-36.3663123985
 20
39.0527626644
 10
-36.3634048321
 20
39.179572219
 10
-36.3432266231
 20
39.2937700615
 10
-36.3070030824
 20
39.3946278881
 10
-36.2560369508
 20
39.4814852043
  0
LINE
  5
36B
100
AcDbEntity
  8
SUPERFICI
100
AcDbLine
 62
250
  6
CONTINUOUS
 10
-29.811214718
 20
30.7661151284
 11
-28.2810973073
 21
28.2951085519
  0
LINE
  5
36C
100
AcDbEntity
  8
SUPERFICI
100
AcDbLine
 62
250
  6
CONTINUOUS
 10
-27.1772707129
 20
30.3650277433
 11
-26.5210057575
 21
29.217893274
  0
LINE
  5
36D
100
AcDbEntity
  8
SUPERFICI
100
AcDbLine
 62
250
  6
CONTINUOUS
 10
-26.5210057575
 20
29.217893274
 11
-25.8614051974
 21
28.0464404102
  0
LINE
  5
36E
100
AcDbEntity
  8
SUPERFICI
100
AcDbLine
 62
250
  6
CONTINUOUS
 10
-24.1414810985
 20
24.9565015376
 11
-25.8614051974
 21
28.0464404102
  0
LINE
  5
36F
100
AcDbEntity
  8
SUPERFICI
100
AcDbLine
 62
250
  6
CONTINUOUS
 10
-22.4396776417
 20
21.8667439071
 11
-24.1414810985
 21
24.9565015376
  0
LWPOLYLINE
  5
370
100
AcDbEntity
  8
SUPERFICI
100
AcDbPolyline
 62
250
  6
CONTINUOUS
 90
10
 70
0
 10
-1.8092015745
 20
-32.3567083341
 10
-1.8730599779
 20
-32.1508984011
 10
-1.9346827051
 20
-31.9466608328
 10
-1.9944124637
 20
-31.74270275
 10
-2.0526799537
 20
-31.5374227484
 10
-2.1097012129
 20
-31.3299709264
 10
-2.1654902843
 20
-31.120319819
 10
-2.2202481594
 20
-30.9078521866
 10
-2.2743509222
 20
-30.6912866842
 10
-2.3280562397
 20
-30.4697864761
  0
LWPOLYLINE
  5
371
100
AcDbEntity
  8
SUPERFICI
100
AcDbPolyline
 62
250
  6
CONTINUOUS
 90
10
 70
0
 10
-2.3280562397
 20
-30.4697864761
 10
-2.3981914048
 20
-30.1712536885
 10
-2.464611779
 20
-29.8773581133
 10
-2.5278957794
 20
-29.5846833749
 10
-2.5886476658
 20
-29.2898474631
 10
-2.6472397948
 20
-28.9907304543
 10
-2.7038240548
 20
-28.6866316367
 10
-2.7586695054
 20
-28.3765530924
 10
-2.812158258
 20
-28.058983052
 10
-2.8645344122
 20
-27.7332445313
  0
LWPOLYLINE
  5
372
100
AcDbEntity
  8
RACCORDO
100
AcDbPolyline
 62
7
  6
CONTINUOUS
 90
4
 70
0
 10
-7.1528749121
 20
-16.3659015791
 10
-7.1531776521
 20
-16.3634572145
 10
-7.155464777
 20
-16.3595144773
 10
-7.159663647
 20
-16.3571567549
  0
LINE
  5
373
100
AcDbEntity
  8
DRAFT
100
AcDbLine
 62
7
  6
CONTINUOUS
 10
-4.834053948
 20
-19.4354086541
 11
-4.8326769993
 21
-19.4906619427
  0
LINE
  5
374
100
AcDbEntity
  8
DRAFT
100
AcDbLine
 62
7
  6
CONTINUOUS
 10
-4.1734639648
 20
-19.6930998792
 11
-4.1994823253
 21
-18.6472027292
  0
LWPOLYLINE
  5
375
100
AcDbEntity
  8
RACCORDO
100
AcDbPolyline
 62
250
  6
CONTINUOUS
 90
3
 70
0
 10
-7.1488795245
 20
-17.2753330986
 10
-7.1499452101
 20
-17.2948422341
 10
-7.154026564
 20
-17.3133497733
  0
LWPOLYLINE
  5
376
100
AcDbEntity
  8
SUPERFICI
100
AcDbPolyline
 62
250
  6
CONTINUOUS
 90
10
 70
0
 10
-4.0853660186
 20
21.3422649691
 10
-4.1246928516
 20
20.7919913769
 10
-4.1611995283
 20
20.2253539231
 10
-4.1945328653
 20
19.6498606788
 10
-4.2242885191
 20
19.0743556814
 10
-4.2503241602
 20
18.5030732427
 10
-4.2726391323
 20
17.9355490739
 10
-4.2909852446
 20
17.3749983725
 10
-4.304984635
 20
16.8284377864
 10
-4.3143620817
 20
16.3006350959
  0
LWPOLYLINE
  5
377
100
AcDbEntity
  8
SUPERFICI
100
AcDbPolyline
 62
250
  6
CONTINUOUS
 90
7
 70
0
 10
-3.8130753532
 20
24.328755655
 10
-3.8584117361
 20
23.8999644129
 10
-3.9012648292
 20
23.4752969986
 10
-3.9418821909
 20
23.0518566483
 10
-3.9803727175
 20
22.6286158507
 10
-4.0169410516
 20
22.2039830729
 10
-4.0853660186
 20
21.3422649691
  0
LINE
  5
378
100
AcDbEntity
  8
SUPERFICI
100
AcDbLine
 62
250
  6
CONTINUOUS
 10
-3.7133604735
 20
25.2172638361
 11
-3.8130753532
 21
24.328755655
  0
LINE
  5
379
100
AcDbEntity
  8
SUPERFICI
100
AcDbLine
 62
250
  6
CONTINUOUS
 10
-3.6332070437
 20
25.8908715583
 11
-3.7133604735
 21
25.2172638361
  0
LINE
  5
37A
100
AcDbEntity
  8
SUPERFICI
100
AcDbLine
 62
250
  6
CONTINUOUS
 10
-3.5497109206
 20
26.5561533525
 11
-3.6332070437
 21
25.8908715583
  0
LINE
  5
37B
100
AcDbEntity
  8
SUPERFICI
100
AcDbLine
 62
250
  6
CONTINUOUS
 10
-3.4613067876
 20
27.224140793
 11
-3.5497109206
 21
26.5561533525
  0
LWPOLYLINE
  5
37C
100
AcDbEntity
  8
SUPERFICI
100
AcDbPolyline
 62
250
  6
CONTINUOUS
 90
3
 70
0
 10
-3.3169194795
 20
28.2511789302
 10
-3.3669866825
 20
27.9026043083
 10
-3.4613067876
 20
27.224140793
  0
LWPOLYLINE
  5
37D
100
AcDbEntity
  8
RACCORDO
100
AcDbPolyline
 62
250
  6
CONTINUOUS
 90
3
 70
0
 10
-7.1343159832
 20
-17.2446003998
 10
-7.1317182954
 20
-17.2286788207
 10
-7.1315858068
 20
-17.2216893102
  0
LINE
  5
37E
100
AcDbEntity
  8
0
100
AcDbLine
 62
7
  6
CONTINUOUS
 10
-13.4662336116
 20
-15.8014731851
 11
-13.4614948889
 21
-15.7883850565
  0
LINE
  5
37F
100
AcDbEntity
  8
0
100
AcDbLine
 62
7
  6
CONTINUOUS
 10
-13.2832797223
 20
-15.710474656
 11
-13.2110349524
 21
-15.5109380094
  0
LINE
  5
380
100
AcDbEntity
  8
0
100
AcDbLine
 62
7
  6
CONTINUOUS
 10
-13.0328197858
 20
-15.4330276089
 11
-12.9605750159
 21
-15.2334909623
  0
LINE
  5
381
100
AcDbEntity
  8
0
100
AcDbLine
 62
7
  6
CONTINUOUS
 10
-12.7823598493
 20
-15.1555805618
 11
-12.7101150794
 21
-14.9560439153
  0
LWPOLYLINE
  5
382
100
AcDbEntity
  8
SUPERFICI
100
AcDbPolyline
 62
250
  6
CONTINUOUS
 90
10
 70
0
 10
24.6588903196
 20
19.6600787693
 10
24.2384943952
 20
19.4202971953
 10
23.8243601153
 20
19.1767472432
 10
23.4162985812
 20
18.9293475988
 10
23.0145096641
 20
18.6782637372
 10
22.6184138672
 20
18.4231815925
 10
22.2266968747
 20
18.1632620684
 10
21.838843614
 20
17.8981288009
 10
21.4550936907
 20
17.6279136356
 10
21.0753044404
 20
17.3524984932
  0
LWPOLYLINE
  5
383
100
AcDbEntity
  8
RACCORDO
100
AcDbPolyline
 62
250
  6
CONTINUOUS
 90
8
 70
0
 10
34.9942062327
 20
-12.6938759782
 10
34.9874163476
 20
-12.6924268455
 10
34.9762026517
 20
-12.692485514
 10
34.9643043273
 20
-12.6953607241
 10
34.9518376644
 20
-12.7010243745
 10
34.9389245075
 20
-12.7094211108
 10
34.9256910651
 20
-12.7204688663
 10
34.912266676
 20
-12.7340596643
  0
LWPOLYLINE
  5
384
100
AcDbEntity
  8
RACCORDO
100
AcDbPolyline
 62
250
  6
CONTINUOUS
 90
5
 70
0
 10
34.4912173097
 20
-12.7194097317
 10
34.5199151527
 20
-12.7260398552
 10
34.5580982145
 20
-12.7372926864
 10
34.605692318
 20
-12.753096563
 10
34.6611857569
 20
-12.7740558287
  0
LWPOLYLINE
  5
385
100
AcDbEntity
  8
SUPERFICI
100
AcDbPolyline
 62
250
  6
CONTINUOUS
 90
10
 70
0
 10
19.0719353755
 20
-10.6556712357
 10
19.6764538819
 20
-10.8072988284
 10
20.30087924
 20
-10.9572932863
 10
20.9396719879
 20
-11.1045730704
 10
21.5844865982
 20
-11.2474582286
 10
22.2318123348
 20
-11.3853730526
 10
22.8827515771
 20
-11.5185862925
 10
23.5324645363
 20
-11.6459754174
 10
24.1703488218
 20
-11.7652791451
 10
24.7874990302
 20
-11.8746141405
  0
LINE
  5
386
100
AcDbEntity
  8
DRAFT
100
AcDbLine
 62
7
  6
CONTINUOUS
 10
-23.164455344
 20
1.6020393059
 11
-23.1028640131
 21
1.5831314157
  0
LINE
  5
387
100
AcDbEntity
  8
DRAFT
100
AcDbLine
 62
7
  6
CONTINUOUS
 10
-23.1892942131
 20
2.6005227563
 11
-22.4755853781
 21
2.3813496875
  0
LWPOLYLINE
  5
388
100
AcDbEntity
  8
SUPERFICI
100
AcDbPolyline
 62
250
  6
CONTINUOUS
 90
10
 70
0
 10
-26.7092361936
 20
3.4032830272
 10
-27.2701531978
 20
3.609549389
 10
-27.8410473168
 20
3.8266259623
 10
-28.4171733002
 20
4.0524359506
 10
-28.9913173495
 20
4.2838811875
 10
-29.5606127419
 20
4.5195789257
 10
-30.1260724088
 20
4.7599100064
 10
-30.6833228023
 20
5.0031676341
 10
-31.2230364835
 20
5.2454928334
 10
-31.7373994629
 20
5.4836345759
  0
LINE
  5
389
100
AcDbEntity
  8
SUPERFICI
100
AcDbLine
 62
250
  6
CONTINUOUS
 10
28.6910890505
 20
-33.4906602926
 11
27.6636256909
 21
-32.6326041609
  0
LINE
  5
38A
100
AcDbEntity
  8
SUPERFICI
100
AcDbLine
 62
250
  6
CONTINUOUS
 10
29.6250553064
 20
-34.2819472055
 11
28.6910890505
 21
-33.4906602926
  0
LINE
  5
38B
100
AcDbEntity
  8
SUPERFICI
100
AcDbLine
 62
250
  6
CONTINUOUS
 10
30.4444738999
 20
-34.9842973287
 11
29.6250553064
 21
-34.2819472055
  0
LINE
  5
38C
100
AcDbEntity
  8
SUPERFICI
100
AcDbLine
 62
250
  6
CONTINUOUS
 10
31.2498443284
 20
-35.6823641201
 11
30.4444738999
 21
-34.9842973287
  0
LINE
  5
38D
100
AcDbEntity
  8
SUPERFICI
100
AcDbLine
 62
250
  6
CONTINUOUS
 10
32.0511561508
 20
-36.3848242563
 11
31.2498443284
 21
-35.6823641201
  0
LINE
  5
38E
100
AcDbEntity
  8
SUPERFICI
100
AcDbLine
 62
250
  6
CONTINUOUS
 10
32.8538841405
 20
-37.0965635134
 11
32.0511561508
 21
-36.3848242563
  0
LWPOLYLINE
  5
38F
100
AcDbEntity
  8
SUPERFICI
100
AcDbPolyline
 62
250
  6
CONTINUOUS
 90
3
 70
0
 10
32.9237882672
 20
-39.9065994051
 10
32.4845880666
 20
-39.5046934429
 10
30.7151395493
 20
-37.8967065753
  0
LWPOLYLINE
  5
390
100
AcDbEntity
  8
SUPERFICI
100
AcDbPolyline
 62
250
  6
CONTINUOUS
 90
10
 70
0
 10
-27.1410191517
 20
20.9999910296
 10
-27.6088282903
 20
21.5212607897
 10
-28.066365696
 20
22.0392508296
 10
-28.515063131
 20
22.555607501
 10
-28.95578423
 20
23.0713019697
 10
-29.3903660713
 20
23.5884289698
 10
-29.8215931364
 20
24.1102781704
 10
-30.2511823395
 20
24.6389380495
 10
-30.6798103499
 20
25.1752261817
 10
-31.1086355132
 20
25.7205360595
  0
LWPOLYLINE
  5
391
100
AcDbEntity
  8
SUPERFICI
100
AcDbPolyline
 62
250
  6
CONTINUOUS
 90
15
 70
0
 10
-26.0744594638
 20
19.8845691202
 10
-26.0034542838
 20
19.8034027904
 10
-25.9144177468
 20
19.7303775277
 10
-25.808631871
 20
19.6667753094
 10
-25.6869444798
 20
19.6137280804
 10
-25.5518343981
 20
19.5729393724
 10
-25.4081479079
 20
19.5457987835
 10
-25.2589139838
 20
19.5327420094
 10
-25.1074109827
 20
19.5341856868
 10
-24.9594522045
 20
19.5497522272
 10
-24.8189166936
 20
19.5782864407
 10
-24.6874967612
 20
19.6189462267
 10
-24.5673244008
 20
19.6708636375
 10
-24.4602017823
 20
19.732952403
 10
-24.3677819334
 20
19.8040643394
  0
LWPOLYLINE
  5
392
100
AcDbEntity
  8
SUPERFICI
100
AcDbPolyline
 62
250
  6
CONTINUOUS
 90
16
 70
0
 10
16.2122252981
 20
-28.7741428953
 10
16.1738770071
 20
-28.7252084974
 10
16.1438007581
 20
-28.6576158442
 10
16.1225826291
 20
-28.5722725976
 10
16.110789611
 20
-28.4697092688
 10
16.109063426
 20
-28.3518519407
 10
16.1174226874
 20
-28.2229030838
 10
16.1355780214
 20
-28.08558229
 10
16.1632269712
 20
-27.9428207891
 10
16.1991590597
 20
-27.800078792
 10
16.2419512727
 20
-27.6612018182
 10
16.2907659646
 20
-27.5279657555
 10
16.3447314227
 20
-27.4025756952
 10
16.4028507909
 20
-27.2869663813
 10
16.4640729485
 20
-27.1829342618
 10
16.527459089
 20
-27.0920377264
  0
LWPOLYLINE
  5
393
100
AcDbEntity
  8
SUPERFICI
100
AcDbPolyline
 62
250
  6
CONTINUOUS
 90
7
 70
0
 10
15.9988135609
 20
-30.7152609711
 10
16.417445321
 20
-31.2500636419
 10
16.8438137993
 20
-31.7832815342
 10
17.2744099503
 20
-32.3105039913
 10
17.7072003302
 20
-32.8293104828
 10
18.1416984101
 20
-33.3391553516
 10
18.57662743
 20
-33.8385165532
  0
LWPOLYLINE
  5
394
100
AcDbEntity
  8
SUPERFICI
100
AcDbPolyline
 62
250
  6
CONTINUOUS
 90
4
 70
0
 10
14.8023768236
 20
-29.1191321156
 10
15.1906346045
 20
-29.6488692471
 10
15.5897807065
 20
-30.1813720199
 10
15.9988135609
 20
-30.7152609711
  0
LWPOLYLINE
  5
395
100
AcDbEntity
  8
SUPERFICI
100
AcDbPolyline
 62
250
  6
CONTINUOUS
 90
10
 70
0
 10
-31.2927291409
 20
36.8422790488
 10
-30.9655878984
 20
36.372936303
 10
-30.6429098768
 20
35.9031186235
 10
-30.324549554
 20
35.4326419974
 10
-30.0106653367
 20
34.9617819236
 10
-29.700807192
 20
34.4899081748
 10
-29.3939473593
 20
34.015462419
 10
-29.0896804146
 20
33.5377856132
 10
-28.788192545
 20
33.0571403594
 10
-28.4893706847
 20
32.5733300437
  0
LWPOLYLINE
  5
396
100
AcDbEntity
  8
SUPERFICI
100
AcDbPolyline
 62
250
  6
CONTINUOUS
 90
5
 70
0
 10
-28.4893706847
 20
32.5733300437
 10
-28.1590992746
 20
32.0299402798
 10
-27.8311472606
 20
31.4817055759
 10
-27.5044887139
 20
30.9275519072
 10
-27.1772707129
 20
30.3650277433
  0
LWPOLYLINE
  5
397
100
AcDbEntity
  8
SUPERFICI
100
AcDbPolyline
 62
250
  6
CONTINUOUS
 90
10
 70
0
 10
-2.8645344122
 20
-27.7332445313
 10
-2.9280336289
 20
-27.311826334
 10
-2.9896727453
 20
-26.8681792601
 10
-3.0487576749
 20
-26.4084990053
 10
-3.1044818052
 20
-25.9401121104
 10
-3.1565071108
 20
-25.4666509352
 10
-3.2048553764
 20
-24.9876776678
 10
-3.2491382874
 20
-24.5056098756
 10
-3.2886622814
 20
-24.0261215621
 10
-3.3229387363
 20
-23.5530233044
  0
LINE
  5
398
100
AcDbEntity
  8
DRAFT
100
AcDbLine
 62
7
  6
CONTINUOUS
 10
-0.3793290887
 20
-20.8582419422
 11
-0.3807060374
 21
-20.8029886536
  0
LINE
  5
399
100
AcDbEntity
  8
0
100
AcDbLine
 62
7
  6
CONTINUOUS
 10
-7.9326918899
 20
-17.5007702391
 11
-7.928871687
 21
-17.487400042
  0
LINE
  5
39A
100
AcDbEntity
  8
0
100
AcDbLine
 62
7
  6
CONTINUOUS
 10
-7.7833311308
 20
-17.3994555852
 11
-7.7250897653
 21
-17.1956186288
  0
LINE
  5
39B
100
AcDbEntity
  8
0
100
AcDbLine
 62
7
  6
CONTINUOUS
 10
-7.5795492091
 20
-17.1076741719
 11
-7.5213078437
 21
-16.9038372155
  0
LINE
  5
39C
100
AcDbEntity
  8
0
100
AcDbLine
 62
7
  6
CONTINUOUS
 10
-7.3757672875
 20
-16.8158927587
 11
-7.3175259221
 21
-16.6120558023
  0
LINE
  5
39D
100
AcDbEntity
  8
RACCORDO
100
AcDbLine
 62
250
  6
CONTINUOUS
 10
-7.154026564
 20
-17.3133497733
 11
-7.1611143021
 21
-17.3305227634
  0
LWPOLYLINE
  5
39E
100
AcDbEntity
  8
SUPERFICI
100
AcDbPolyline
 62
250
  6
CONTINUOUS
 90
10
 70
0
 10
-21.4482542963
 20
-17.9869144932
 10
-21.7557195959
 20
-18.3030018069
 10
-22.0687888434
 20
-18.6167901458
 10
-22.3866656626
 20
-18.9274521784
 10
-22.7091022046
 20
-19.2346799532
 10
-23.0346343398
 20
-19.5369964514
 10
-23.3605773645
 20
-19.8318930569
 10
-23.6854093293
 20
-20.1180410662
 10
-24.0087744471
 20
-20.3951534891
 10
-24.3297165553
 20
-20.6623939902
  0
LWPOLYLINE
  5
39F
100
AcDbEntity
  8
SUPERFICI
100
AcDbPolyline
 62
250
  6
CONTINUOUS
 90
10
 70
0
 10
23.9111714777
 20
16.1831373561
 10
24.3325363334
 20
16.4753191835
 10
24.7596258041
 20
16.7639215401
 10
25.1922221125
 20
17.0487934285
 10
25.6302614858
 20
17.3298813992
 10
26.0733754311
 20
17.6069339077
 10
26.5208734427
 20
17.8795157277
 10
26.9723640972
 20
18.1473963485
 10
27.4277723419
 20
18.4105355589
 10
27.8868686589
 20
18.6687978939
  0
LWPOLYLINE
  5
3A0
100
AcDbEntity
  8
SUPERFICI
100
AcDbPolyline
 62
250
  6
CONTINUOUS
 90
10
 70
0
 10
29.5008560296
 20
18.1732034617
 10
29.02773281
 20
17.8779448861
 10
28.5525069819
 20
17.5772202211
 10
28.0761618971
 20
17.271644157
 10
27.5991292684
 20
16.9614715091
 10
27.1230601407
 20
16.647746179
 10
26.6507726703
 20
16.3323169213
 10
26.1838936687
 20
16.016282401
 10
25.7229114425
 20
15.6999759616
 10
25.2689093236
 20
15.3841261284
  0
LWPOLYLINE
  5
3A1
100
AcDbEntity
  8
SUPERFICI
100
AcDbPolyline
 62
250
  6
CONTINUOUS
 90
6
 70
0
 10
-35.0998678399
 20
-17.6856799011
 10
-35.4251797167
 20
-17.8514226053
 10
-35.747682616
 20
-18.0183501151
 10
-36.0673910492
 20
-18.1864701005
 10
-36.3843043582
 20
-18.3557823177
 10
-36.6984295421
 20
-18.5262904549
  0
LWPOLYLINE
  5
3A2
100
AcDbEntity
  8
SUPERFICI
100
AcDbPolyline
 62
250
  6
CONTINUOUS
 90
10
 70
0
 10
-34.1774624188
 20
-14.4629859154
 10
-34.483653845
 20
-14.5957791962
 10
-34.7841864257
 20
-14.7297046603
 10
-35.0794414548
 20
-14.8649246226
 10
-35.3695301541
 20
-15.0014725145
 10
-35.6551119471
 20
-15.1396363268
 10
-35.9373539486
 20
-15.2799745503
 10
-36.216865176
 20
-15.4228002728
 10
-36.4937371093
 20
-15.5681652592
 10
-36.7683336687
 20
-15.7162545642
  0
LINE
  5
3A3
100
AcDbEntity
  8
RACCORDO
100
AcDbLine
 62
250
  6
CONTINUOUS
 10
34.5862102615
 20
-12.7542470555
 11
34.6611857569
 21
-12.7740558287
  0
LWPOLYLINE
  5
3A4
100
AcDbEntity
  8
RACCORDO
100
AcDbPolyline
 62
7
  6
CONTINUOUS
 90
23
 70
0
 10
34.994865611
 20
-12.6940842571
 10
34.9698050492
 20
-12.6869359814
 10
34.9444976302
 20
-12.6808270594
 10
34.9189400747
 20
-12.6757086477
 10
34.8931876895
 20
-12.6715485087
 10
34.8673037567
 20
-12.6683143256
 10
34.8412992434
 20
-12.665968316
 10
34.8152236855
 20
-12.6644798472
 10
34.7891455393
 20
-12.6638189017
 10
34.763108218
 20
-12.6639543369
 10
34.7371622489
 20
-12.664856319
 10
34.711378766
 20
-12.6664943864
 10
34.6858334107
 20
-12.6688364657
 10
34.6605818805
 20
-12.6718517792
 10
34.6356928013
 20
-12.6755084713
 10
34.6112585798
 20
-12.6797700088
 10
34.5874250345
 20
-12.6845857167
 10
34.5641661663
 20
-12.6899382941
 10
34.5413348444
 20
-12.6958545789
 10
34.5190401621
 20
-12.7023104353
 10
34.4973595124
 20
-12.7092903615
 10
34.4761609137
 20
-12.7168607487
 10
34.4712035281
 20
-12.7187480672
  0
LINE
  5
3A5
100
AcDbEntity
  8
RACCORDO
100
AcDbLine
 62
250
  6
CONTINUOUS
 10
34.5335562602
 20
-13.8058327373
 11
34.3798637292
 21
-13.75863525
  0
LINE
  5
3A6
100
AcDbEntity
  8
RACCORDO
100
AcDbLine
 62
250
  6
CONTINUOUS
 10
34.912266676
 20
-12.7340596643
 11
35.4691672536
 21
-12.9050784365
  0
LINE
  5
3A7
100
AcDbEntity
  8
RACCORDO
100
AcDbLine
 62
7
  6
CONTINUOUS
 10
34.9942221739
 20
-12.6938808699
 11
35.5598326553
 21
-12.8675743691
  0
LINE
  5
3A8
100
AcDbEntity
  8
DRAFT
100
AcDbLine
 62
7
  6
CONTINUOUS
 10
-23.1994728894
 20
5.4596757566
 11
-23.2608892337
 21
5.4785299268
  0
LWPOLYLINE
  5
3A9
100
AcDbEntity
  8
RACCORDO
100
AcDbPolyline
 62
250
  6
CONTINUOUS
 90
3
 70
0
 10
-7.1488795245
 20
-17.2753330986
 10
-7.1400670463
 20
-17.2602351596
 10
-7.1343159832
 20
-17.2446003998
  0
LINE
  5
3AA
100
AcDbEntity
  8
RACCORDO
100
AcDbLine
 62
250
  6
CONTINUOUS
 10
-7.1611143021
 20
-17.3305227634
 11
-7.1679885959
 21
-17.3417986091
  0
LINE
  5
3AB
100
AcDbEntity
  8
RACCORDO
100
AcDbLine
 62
7
  6
CONTINUOUS
 10
-7.1748785769
 20
-16.407808813
 11
-7.3175259221
 21
-16.6120558023
  0
LINE
  5
3AC
100
AcDbEntity
  8
0
100
AcDbLine
 62
7
  6
CONTINUOUS
 10
-7.439795075
 20
-16.7871246502
 11
-7.5213078437
 21
-16.9038372155
  0
LINE
  5
3AD
100
AcDbEntity
  8
0
100
AcDbLine
 62
7
  6
CONTINUOUS
 10
-7.6435769967
 20
-17.0789060635
 11
-7.7250897653
 21
-17.1956186288
  0
LINE
  5
3AE
100
AcDbEntity
  8
0
100
AcDbLine
 62
7
  6
CONTINUOUS
 10
-7.8473589183
 20
-17.3706874767
 11
-7.928871687
 21
-17.487400042
  0
LINE
  5
3AF
100
AcDbEntity
  8
RACCORDO
100
AcDbLine
 62
250
  6
CONTINUOUS
 10
-7.4187193433
 20
-17.6586062288
 11
-7.1488795245
 21
-17.2753330986
  0
LINE
  5
3B0
100
AcDbEntity
  8
RACCORDO
100
AcDbLine
 62
7
  6
CONTINUOUS
 10
-7.3959556117
 20
-17.6655967503
 11
-7.1679885959
 21
-17.3417986091
  0
LWPOLYLINE
  5
3B1
100
AcDbEntity
  8
RACCORDO
100
AcDbPolyline
 62
7
  6
CONTINUOUS
 90
5
 70
0
 10
-7.1706072415
 20
-16.4019130674
 10
-7.1615568804
 20
-16.3894205933
 10
-7.1558492116
 20
-16.3786113466
 10
-7.1531772184
 20
-16.3697727192
 10
-7.1528749121
 20
-16.3659015791
  0
LINE
  5
3B2
100
AcDbEntity
  8
RACCORDO
100
AcDbLine
 62
7
  6
CONTINUOUS
 10
-12.5347931238
 20
-14.7618309823
 11
-12.7101150794
 21
-14.9560439153
  0
LINE
  5
3B3
100
AcDbEntity
  8
0
100
AcDbLine
 62
7
  6
CONTINUOUS
 10
-12.8603910413
 20
-15.1225121435
 11
-12.9605750159
 21
-15.2334909623
  0
LINE
  5
3B4
100
AcDbEntity
  8
0
100
AcDbLine
 62
7
  6
CONTINUOUS
 10
-13.1108509778
 20
-15.3999591906
 11
-13.2110349524
 21
-15.5109380094
  0
LINE
  5
3B5
100
AcDbEntity
  8
0
100
AcDbLine
 62
7
  6
CONTINUOUS
 10
-13.3613109143
 20
-15.6774062377
 11
-13.4614948889
 21
-15.7883850565
  0
LWPOLYLINE
  5
3B6
100
AcDbEntity
  8
SUPERFICI
100
AcDbPolyline
 62
250
  6
CONTINUOUS
 90
10
 70
0
 10
13.8109532999
 20
10.7345263395
 10
14.1763632053
 20
11.1232263735
 10
14.5524904965
 20
11.5160352551
 10
14.9383930439
 20
11.9119430108
 10
15.3338030298
 20
12.3106166744
 10
15.7369662067
 20
12.710215677
 10
16.144565384
 20
13.1074388063
 10
16.5546730373
 20
13.5004491068
 10
16.9668266765
 20
13.8888258672
 10
17.3798161298
 20
14.2714144345
  0
LWPOLYLINE
  5
3B7
100
AcDbEntity
  8
SUPERFICI
100
AcDbPolyline
 62
250
  6
CONTINUOUS
 90
10
 70
0
 10
17.3798161298
 20
14.2714144345
 10
17.7869140873
 20
14.6423463305
 10
18.1927212791
 20
15.0056873151
 10
18.5985228013
 20
15.3618779121
 10
19.006535741
 20
15.7121587484
 10
19.4170796917
 20
16.0561291378
 10
19.8284818673
 20
16.3918703556
 10
20.2408431922
 20
16.7191260042
 10
20.6561350036
 20
17.0391792971
 10
21.0753044404
 20
17.3524984932
  0
LINE
  5
3B8
100
AcDbEntity
  8
SUPERFICI
100
AcDbLine
 62
250
  6
CONTINUOUS
 10
19.3336815588
 20
12.6943898337
 11
21.1583694085
 21
14.1218996551
  0
LWPOLYLINE
  5
3B9
100
AcDbEntity
  8
SUPERFICI
100
AcDbPolyline
 62
250
  6
CONTINUOUS
 90
5
 70
0
 10
21.1583694085
 20
14.1218996551
 10
21.6183956101
 20
14.4794776816
 10
22.0767374058
 20
14.8320826934
 10
22.535175553
 20
15.1798702303
 10
22.9941984284
 20
15.5220412065
  0
LINE
  5
3BA
100
AcDbEntity
  8
SUPERFICI
100
AcDbLine
 62
250
  6
CONTINUOUS
 10
18.4731624637
 20
12.0293294329
 11
19.3336815588
 21
12.6943898337
  0
LINE
  5
3BB
100
AcDbEntity
  8
SUPERFICI
100
AcDbLine
 62
250
  6
CONTINUOUS
 10
17.6214176965
 20
11.3784608997
 11
18.4731624637
 21
12.0293294329
  0
LINE
  5
3BC
100
AcDbEntity
  8
SUPERFICI
100
AcDbLine
 62
250
  6
CONTINUOUS
 10
16.7671065175
 20
10.7331993297
 11
17.6214176965
 21
11.3784608997
  0
LWPOLYLINE
  5
3BD
100
AcDbEntity
  8
RACCORDO
100
AcDbPolyline
 62
7
  6
CONTINUOUS
 90
6
 70
0
 10
-12.529544613
 20
-14.7562353178
 10
-12.5151138019
 20
-14.7453951277
 10
-12.4987571291
 20
-14.737856087
 10
-12.4810291516
 20
-14.7336410065
 10
-12.462548014
 20
-14.7330010133
 10
-12.4436652191
 20
-14.7355593534
  0
LINE
  5
3BE
100
AcDbEntity
  8
SUPERFICI
100
AcDbLine
 62
250
  6
CONTINUOUS
 10
15.901788623
 20
10.0872542217
 11
16.7671065175
 21
10.7331993297
  0
LWPOLYLINE
  5
3BF
100
AcDbEntity
  8
SUPERFICI
100
AcDbPolyline
 62
250
  6
CONTINUOUS
 90
3
 70
0
 10
22.9941984284
 20
15.5220412065
 10
23.4529286365
 20
15.8568463545
 10
23.9111714777
 20
16.1831373561
  0
LWPOLYLINE
  5
3C0
100
AcDbEntity
  8
SUPERFICI
100
AcDbPolyline
 62
250
  6
CONTINUOUS
 90
3
 70
0
 10
23.8062742519
 20
14.3421443002
 10
24.7847712956
 20
15.0427530494
 10
25.2689093236
 20
15.3841261284
  0
LWPOLYLINE
  5
3C1
100
AcDbEntity
  8
SUPERFICI
100
AcDbPolyline
 62
250
  6
CONTINUOUS
 90
4
 70
0
 10
20.8491415188
 20
12.209728675
 10
21.3393105686
 20
12.5581626504
 10
21.8322106615
 20
12.912279861
 10
23.8062742519
 20
14.3421443002
  0
LWPOLYLINE
  5
3C2
100
AcDbEntity
  8
SUPERFICI
100
AcDbPolyline
 62
250
  6
CONTINUOUS
 90
7
 70
0
 10
18.2385120631
 20
10.4296959858
 10
18.6737086002
 20
10.7172117905
 10
19.1074567622
 20
11.0074909021
 10
19.5400297173
 20
11.3007023028
 10
19.9728691946
 20
11.597751729
 10
20.4086313034
 20
11.9003709168
 10
20.8491415188
 20
12.209728675
  0
LINE
  5
3C3
100
AcDbEntity
  8
SUPERFICI
100
AcDbLine
 62
250
  6
CONTINUOUS
 10
-25.3261733285
 20
-18.5064761144
 11
-27.4537723996
 21
-19.9103213182
  0
LWPOLYLINE
  5
3C4
100
AcDbEntity
  8
SUPERFICI
100
AcDbPolyline
 62
250
  6
CONTINUOUS
 90
10
 70
0
 10
29.4608859424
 20
18.1854324351
 10
29.5882177347
 20
18.2683410184
 10
29.7151615781
 20
18.35886034
 10
29.8389694203
 20
18.4542961019
 10
29.9575729502
 20
18.5525179894
 10
30.0686791472
 20
18.6512200895
 10
30.1698780903
 20
18.7478451984
 10
30.2598082081
 20
18.8406228227
 10
30.3379862204
 20
18.9285967843
 10
30.4039849412
 20
19.010837718
  0
LINE
  5
3C5
100
AcDbEntity
  8
SUPERFICI
100
AcDbLine
 62
250
  6
CONTINUOUS
 10
-23.539089441
 20
-17.3396424302
 11
-25.3261733285
 21
-18.5064761144
  0
LWPOLYLINE
  5
3C6
100
AcDbEntity
  8
SUPERFICI
100
AcDbPolyline
 62
250
  6
CONTINUOUS
 90
4
 70
0
 10
16.9014939244
 20
9.5682617603
 10
17.3553129473
 20
9.8571859719
 10
17.8001124257
 20
10.1437390636
 10
18.2385120631
 20
10.4296959858
  0
LINE
  5
3C7
100
AcDbEntity
  8
SUPERFICI
100
AcDbLine
 62
250
  6
CONTINUOUS
 10
25.0293529876
 20
11.9604976921
 11
27.6288070847
 21
13.6161465313
  0
LINE
  5
3C8
100
AcDbEntity
  8
SUPERFICI
100
AcDbLine
 62
250
  6
CONTINUOUS
 10
25.665097644
 20
12.0834498084
 11
31.5373453672
 21
15.8257824104
  0
LINE
  5
3C9
100
AcDbEntity
  8
SUPERFICI
100
AcDbLine
 62
250
  6
CONTINUOUS
 10
29.5778879826
 20
14.8462138539
 11
27.6288070847
 21
13.6161465313
  0
LINE
  5
3CA
100
AcDbEntity
  8
SUPERFICI
100
AcDbLine
 62
250
  6
CONTINUOUS
 10
31.52686182
 20
16.0608998352
 11
29.5778879826
 21
14.8462138539
  0
LWPOLYLINE
  5
3CB
100
AcDbEntity
  8
SUPERFICI
100
AcDbPolyline
 62
250
  6
CONTINUOUS
 90
5
 70
0
 10
22.4530401717
 20
10.3646667272
 10
22.9594236845
 20
10.6703025843
 10
23.4721492049
 20
10.9846918073
 10
23.9895733713
 20
11.305992752
 10
25.0293529876
 20
11.9604976921
  0
LWPOLYLINE
  5
3CC
100
AcDbEntity
  8
SUPERFICI
100
AcDbPolyline
 62
250
  6
CONTINUOUS
 90
6
 70
0
 10
22.5669195828
 20
10.1821907068
 10
23.0726292466
 20
10.4823460583
 10
23.584872599
 20
10.7914455372
 10
24.1018944209
 20
11.1077474225
 10
24.6205000736
 20
11.4286394678
 10
25.665097644
 20
12.0834498084
  0
LWPOLYLINE
  5
3CD
100
AcDbEntity
  8
SUPERFICI
100
AcDbPolyline
 62
250
  6
CONTINUOUS
 90
3
 70
0
 10
-29.7685431097
 20
-19.7565586153
 10
-28.1951507196
 20
-18.8307029062
 10
-27.7990419532
 20
-18.6007082418
  0
LWPOLYLINE
  5
3CE
100
AcDbEntity
  8
SUPERFICI
100
AcDbPolyline
 62
250
  6
CONTINUOUS
 90
5
 70
0
 10
-31.3103260413
 20
-20.6366487741
 10
-30.9288320709
 20
-20.424401434
 10
-30.5442792142
 20
-20.2062335882
 10
-30.1571626015
 20
-19.9831522479
 10
-29.7685431097
 20
-19.7565586153
  0
LWPOLYLINE
  5
3CF
100
AcDbEntity
  8
SUPERFICI
100
AcDbPolyline
 62
250
  6
CONTINUOUS
 90
8
 70
0
 10
-29.9525881941
 20
-21.4356600001
 10
-29.5989423508
 20
-21.2404803228
 10
-29.2444743575
 20
-21.0363602394
 10
-28.8891090136
 20
-20.8241107802
 10
-28.5332780046
 20
-20.6049298122
 10
-28.1763612752
 20
-20.3794454979
 10
-27.8167239729
 20
-20.1476680434
 10
-27.4537723996
 20
-19.9103213182
  0
LWPOLYLINE
  5
3D0
100
AcDbEntity
  8
SUPERFICI
100
AcDbPolyline
 62
250
  6
CONTINUOUS
 90
9
 70
0
 10
23.1344530848
 20
9.0630090558
 10
23.6327222001
 20
9.3316333972
 10
24.1361906347
 20
9.6103069048
 10
24.6435708522
 20
9.8980739034
 10
25.1523315204
 20
10.1932471171
 10
25.662393469
 20
10.4955451497
 10
26.1761263239
 20
10.8062417322
 10
26.6933639332
 20
11.1252031161
 10
27.2114060374
 20
11.4507375292
  0
LWPOLYLINE
  5
3D1
100
AcDbEntity
  8
SUPERFICI
100
AcDbPolyline
 62
250
  6
CONTINUOUS
 90
9
 70
0
 10
18.7655855078
 20
8.2938293073
 10
19.236857263
 20
8.5431722235
 10
19.7002266501
 20
8.7924681008
 10
20.1597075003
 20
9.0439780693
 10
20.6173918613
 20
9.2989142347
 10
21.0733919014
 20
9.557320002
 10
21.529353935
 20
9.8200251107
 10
21.9885269242
 20
10.0887715322
 10
22.4530401717
 20
10.3646667272
  0
LWPOLYLINE
  5
3D2
100
AcDbEntity
  8
SUPERFICI
100
AcDbPolyline
 62
250
  6
CONTINUOUS
 90
8
 70
0
 10
19.3227307989
 20
8.3795062114
 10
19.7903269442
 20
8.6258828056
 10
20.2538687545
 20
8.8745296457
 10
20.7154240741
 20
9.1266151464
 10
21.175384773
 20
9.3823356844
 10
21.6354314665
 20
9.6425329403
 10
22.0985858547
 20
9.9087973222
 10
22.5669195828
 20
10.1821907068
  0
LINE
  5
3D3
100
AcDbEntity
  8
SUPERFICI
100
AcDbLine
 62
250
  6
CONTINUOUS
 10
18.2831607376
 20
8.0425940812
 11
18.7655855078
 21
8.2938293073
  0
LWPOLYLINE
  5
3D4
100
AcDbEntity
  8
SUPERFICI
100
AcDbPolyline
 62
250
  6
CONTINUOUS
 90
10
 70
0
 10
-24.5387947425
 20
-16.8206499688
 10
-24.920456582
 20
-17.0191511565
 10
-25.2929631549
 20
-17.2151111455
 10
-25.6584673721
 20
-17.40971993
 10
-26.0196015172
 20
-17.6044252185
 10
-26.3778003199
 20
-17.8000304362
 10
-26.7332954934
 20
-17.9966526165
 10
-27.0873048999
 20
-18.1949169593
 10
-27.4420430885
 20
-18.3960018642
 10
-27.7990419532
 20
-18.6007082418
  0
LWPOLYLINE
  5
3D5
100
AcDbEntity
  8
SUPERFICI
100
AcDbPolyline
 62
250
  6
CONTINUOUS
 90
4
 70
0
 10
-32.3954072757
 20
-21.2129301495
 10
-32.0290408523
 20
-21.0228519213
 10
-31.6670638117
 20
-20.8306128005
 10
-31.3103260413
 20
-20.6366487741
  0
LINE
  5
3D6
100
AcDbEntity
  8
SUPERFICI
100
AcDbLine
 62
250
  6
CONTINUOUS
 10
18.8473802225
 20
8.1333577637
 11
19.3227307989
 21
8.3795062114
  0
LINE
  5
3D7
100
AcDbEntity
  8
SUPERFICI
100
AcDbLine
 62
250
  6
CONTINUOUS
 10
18.3612055809
 20
7.8857313186
 11
18.8473802225
 21
8.1333577637
  0
LINE
  5
3D8
100
AcDbEntity
  8
SUPERFICI
100
AcDbLine
 62
250
  6
CONTINUOUS
 10
-32.7657796958
 20
-21.4006456218
 11
-32.3954072757
 21
-21.2129301495
  0
LINE
  5
3D9
100
AcDbEntity
  8
SUPERFICI
100
AcDbLine
 62
250
  6
CONTINUOUS
 10
-33.1914757505
 20
-18.5640958789
 11
-31.0746349373
 21
-17.5414016376
  0
LWPOLYLINE
  5
3DA
100
AcDbEntity
  8
SUPERFICI
100
AcDbPolyline
 62
250
  6
CONTINUOUS
 90
5
 70
0
 10
-33.7701271592
 20
-17.0343585155
 10
-34.1068500248
 20
-17.195447478
 10
-34.4407106527
 20
-17.3576957321
 10
-34.7717166342
 20
-17.5211067
 10
-35.0998678399
 20
-17.6856799011
  0
LINE
  5
3DB
100
AcDbEntity
  8
SUPERFICI
100
AcDbLine
 62
250
  6
CONTINUOUS
 10
-31.6069406502
 20
-17.5384909518
 11
-34.0458320128
 21
-18.7032808613
  0
LINE
  5
3DC
100
AcDbEntity
  8
SUPERFICI
100
AcDbLine
 62
250
  6
CONTINUOUS
 10
-31.0746349373
 20
-17.5414016376
 11
-30.2351500267
 21
-17.1414187417
  0
LINE
  5
3DD
100
AcDbEntity
  8
SUPERFICI
100
AcDbLine
 62
250
  6
CONTINUOUS
 10
-33.9566333806
 20
-18.9282922998
 11
-33.1914757505
 21
-18.5640958789
  0
LINE
  5
3DE
100
AcDbEntity
  8
SUPERFICI
100
AcDbLine
 62
250
  6
CONTINUOUS
 10
-34.0458320128
 20
-18.7032808613
 11
-35.1753653747
 21
-19.2369539776
  0
LWPOLYLINE
  5
3DF
100
AcDbEntity
  8
SUPERFICI
100
AcDbPolyline
 62
250
  6
CONTINUOUS
 90
3
 70
0
 10
-30.2351500267
 20
-17.1414187417
 10
-29.8174014525
 20
-16.9460595872
 10
-29.4029406004
 20
-16.7556462868
  0
LINE
  5
3E0
100
AcDbEntity
  8
SUPERFICI
100
AcDbLine
 62
250
  6
CONTINUOUS
 10
-34.7301398186
 20
-19.2906114494
 11
-33.9566333806
 21
-18.9282922998
  0
LWPOLYLINE
  5
3E1
100
AcDbEntity
  8
SUPERFICI
100
AcDbPolyline
 62
250
  6
CONTINUOUS
 90
3
 70
0
 10
-35.1753653747
 20
-19.2369539776
 10
-36.2954805732
 20
-19.7605594789
 10
-36.6634664211
 20
-19.9313118143
  0
LINE
  5
3E2
100
AcDbEntity
  8
SUPERFICI
100
AcDbLine
 62
250
  6
CONTINUOUS
 10
-35.5043563136
 20
-19.6475528098
 11
-34.7301398186
 21
-19.2906114494
  0
LWPOLYLINE
  5
3E3
100
AcDbEntity
  8
SUPERFICI
100
AcDbPolyline
 62
250
  6
CONTINUOUS
 90
10
 70
0
 10
23.7134039955
 20
6.8282000989
 10
24.1980246808
 20
7.0491173119
 10
24.6840621911
 20
7.2811164975
 10
25.1716180158
 20
7.524211854
 10
25.6609725026
 20
7.7784623883
 10
26.1521630702
 20
8.0437515751
 10
26.645002683
 20
8.3197666024
 10
27.1396366335
 20
8.606299262
 10
27.6365276632
 20
8.9032638248
 10
28.1360457146
 20
9.2104632867
  0
LWPOLYLINE
  5
3E4
100
AcDbEntity
  8
SUPERFICI
100
AcDbPolyline
 62
250
  6
CONTINUOUS
 90
5
 70
0
 10
-29.5168200126
 20
-16.5731702679
 10
-29.9310934449
 20
-16.7587432568
 10
-30.3487653972
 20
-16.9493315692
 10
-30.7685315803
 20
-17.1437585623
 10
-31.6069406502
 20
-17.5384909518
  0
LWPOLYLINE
  5
3E5
100
AcDbEntity
  8
SUPERFICI
100
AcDbPolyline
 62
250
  6
CONTINUOUS
 90
3
 70
0
 10
-36.652982874
 20
-20.1664292391
 10
-36.2730396787
 20
-19.9962460325
 10
-35.5043563136
 20
-19.6475528098
  0
LWPOLYLINE
  5
3E6
100
AcDbEntity
  8
SUPERFICI
100
AcDbPolyline
 62
250
  6
CONTINUOUS
 90
10
 70
0
 10
23.7134039955
 20
6.8282000989
 10
23.1811130623
 20
6.5978999014
 10
22.6387029962
 20
6.3763691554
 10
22.0870678185
 20
6.1640885068
 10
21.5255327953
 20
5.9609904244
 10
20.9565703729
 20
5.7681835104
 10
20.38595683
 20
5.5876455061
 10
19.8163617921
 20
5.42004766
 10
19.247192305
 20
5.2650620348
 10
18.679418968
 20
5.1228706875
  0
LINE
  5
3E7
100
AcDbEntity
  8
SUPERFICI
100
AcDbLine
 62
250
  6
CONTINUOUS
 10
-36.761074202
 20
-19.5062534659
 11
-36.6749510548
 21
-19.4700886982
  0
LWPOLYLINE
  5
3E8
100
AcDbEntity
  8
SUPERFICI
100
AcDbPolyline
 62
250
  6
CONTINUOUS
 90
10
 70
0
 10
18.628134142
 20
6.9447274627
 10
19.1493336933
 20
7.1622822356
 10
19.6614330454
 20
7.382506221
 10
20.1660409246
 20
7.606112066
 10
20.6641210481
 20
7.8335097743
 10
21.1577328776
 20
8.0655974904
 10
21.6500313767
 20
8.3038409374
 10
22.1429787736
 20
8.5491987641
 10
22.6373462961
 20
8.80204391
 10
23.1344530848
 20
9.0630090558
  0
LWPOLYLINE
  5
3E9
100
AcDbEntity
  8
SUPERFICI
100
AcDbPolyline
 62
250
  6
CONTINUOUS
 90
10
 70
0
 10
-30.0843535117
 20
-15.4539886131
 10
-30.49420422
 20
-15.6118123474
 10
-30.905668397
 20
-15.7751916764
 10
-31.3177340039
 20
-15.9435161621
 10
-31.7283884207
 20
-16.1157485472
 10
-32.1376045705
 20
-16.2916727159
 10
-32.5472784587
 20
-16.4719688864
 10
-32.9572309891
 20
-16.6564870895
 10
-33.3652691073
 20
-16.8441711517
 10
-33.7701271592
 20
-17.0343585155
  0
LWPOLYLINE
  5
3EA
100
AcDbEntity
  8
SUPERFICI
100
AcDbPolyline
 62
250
  6
CONTINUOUS
 90
10
 70
0
 10
-30.6633044181
 20
-13.2191796509
 10
-31.06256339
 20
-13.3331267206
 10
-31.459417491
 20
-13.4533666442
 10
-31.8539185957
 20
-13.5798514462
 10
-32.2462741747
 20
-13.712548808
 10
-32.6365093045
 20
-13.8513267379
 10
-33.0244921601
 20
-13.9959416106
 10
-33.4103763828
 20
-14.1461956797
 10
-33.7945797501
 20
-14.3019468703
 10
-34.1774624188
 20
-14.4629859154
  0
LINE
  5
3EB
100
AcDbEntity
  8
DRAFT
100
AcDbLine
 62
7
  6
CONTINUOUS
 10
-4.834053948
 20
-19.4354086541
 11
-4.7447745444
 21
-19.322157227
  0
LINE
  5
3EC
100
AcDbEntity
  8
DRAFT
100
AcDbLine
 62
7
  6
CONTINUOUS
 10
-4.7447745444
 20
-19.322157227
 11
-4.1994823253
 21
-18.6472027292
  0
LWPOLYLINE
  5
3ED
100
AcDbEntity
  8
SUPERFICI
100
AcDbPolyline
 62
250
  6
CONTINUOUS
 90
10
 70
0
 10
27.7287104447
 20
11.7818358739
 10
28.161474079
 20
12.0632773269
 10
28.5927836159
 20
12.3476426678
 10
29.0226486314
 20
12.634937806
 10
29.4510685954
 20
12.9251617586
 10
29.8780632587
 20
13.2183271894
 10
30.303672317
 20
13.5144611099
 10
30.7279150548
 20
13.8135771721
 10
31.1507906826
 20
14.115674967
 10
31.5723084881
 20
14.420761051
  0
LINE
  5
3EE
100
AcDbEntity
  8
SUPERFICI
100
AcDbLine
 62
250
  6
CONTINUOUS
 10
27.2114060374
 20
11.4507375292
 11
27.7287104447
 21
11.7818358739
  0
LWPOLYLINE
  5
3EF
100
AcDbEntity
  8
SUPERFICI
100
AcDbPolyline
 62
250
  6
CONTINUOUS
 90
10
 70
0
 10
28.1360457146
 20
9.2104632867
 10
28.5385917094
 20
9.464002293
 10
28.936464337
 20
9.7199084246
 10
29.3301625247
 20
9.9784914073
 10
29.7198210728
 20
10.2398142196
 10
30.1063084592
 20
10.5044268268
 10
30.4911994283
 20
10.7733985364
 10
30.875332409
 20
11.0473299211
 10
31.258836992
 20
11.3263205034
 10
31.6422126148
 20
11.6107251603
  0
LWPOLYLINE
  5
3F0
100
AcDbEntity
  8
SUPERFICI
100
AcDbPolyline
 62
250
  6
CONTINUOUS
 90
10
 70
0
 10
-27.1167211536
 20
-22.6050211332
 10
-26.8044307839
 20
-22.425601366
 10
-26.4947859989
 20
-22.2379142705
 10
-26.1868004991
 20
-22.041440839
 10
-25.8787079727
 20
-21.8351510192
 10
-25.5701151855
 20
-21.6189361225
 10
-25.2619591843
 20
-21.3937977557
 10
-24.9537039142
 20
-21.1598653727
 10
-24.6433812198
 20
-20.9162068285
 10
-24.3297165553
 20
-20.6623939902
  0
LWPOLYLINE
  5
3F1
100
AcDbEntity
  8
SUPERFICI
100
AcDbPolyline
 62
250
  6
CONTINUOUS
 90
3
 70
0
 10
-29.9525881941
 20
-21.4356600001
 10
-30.2775080828
 20
-21.6069828202
 10
-30.6066944685
 20
-21.772898944
  0
LWPOLYLINE
  5
3F2
100
AcDbEntity
  8
SUPERFICI
100
AcDbPolyline
 62
250
  6
CONTINUOUS
 90
3
 70
0
 10
-27.6855350808
 20
-22.9066335236
 10
-27.3996746142
 20
-22.7590875129
 10
-27.1167211536
 20
-22.6050211332
  0
LWPOLYLINE
  5
3F3
100
AcDbEntity
  8
SUPERFICI
100
AcDbPolyline
 62
250
  6
CONTINUOUS
 90
8
 70
0
 10
-30.6066944685
 20
-21.772898944
 10
-30.9399794198
 20
-21.9333198381
 10
-31.2773135791
 20
-22.0882101172
 10
-31.6184128736
 20
-22.2374240271
 10
-31.9627456982
 20
-22.380725466
 10
-32.3100110215
 20
-22.5179971968
 10
-32.6601512001
 20
-22.649220825
 10
-33.0129897129
 20
-22.7743272977
  0
LWPOLYLINE
  5
3F4
100
AcDbEntity
  8
SUPERFICI
100
AcDbPolyline
 62
250
  6
CONTINUOUS
 90
6
 70
0
 10
-34.6269770836
 20
-22.2787328655
 10
-34.2571053087
 20
-22.1128627641
 10
-33.8853583806
 20
-21.9418116064
 10
-33.5125049725
 20
-21.7659250608
 10
-33.1388816295
 20
-21.5853386837
 10
-32.7657796958
 20
-21.4006456218
  0
LWPOLYLINE
  5
3F5
100
AcDbEntity
  8
SUPERFICI
100
AcDbPolyline
 62
250
  6
CONTINUOUS
 90
9
 70
0
 10
-26.3296014
 20
-15.4543812732
 10
-26.727878501
 20
-15.6122516976
 10
-27.1179950949
 20
-15.7697515989
 10
-27.503294065
 20
-15.9283013159
 10
-27.8855057299
 20
-16.0886596572
 10
-28.2647306309
 20
-16.2508554574
 10
-28.6423749218
 20
-16.4154175013
 10
-29.0211761194
 20
-16.583446848
 10
-29.4029406004
 20
-16.7556462868
  0
LWPOLYLINE
  5
3F6
100
AcDbEntity
  8
SUPERFICI
100
AcDbPolyline
 62
250
  6
CONTINUOUS
 90
5
 70
0
 10
-34.5870069964
 20
-22.290961839
 10
-34.6760322229
 20
-22.3258669477
 10
-34.7455393724
 20
-22.3444100738
 10
-34.7957416929
 20
-22.3476078419
 10
-34.8110070736
 20
-22.3446619568
  0
LINE
  5
3F7
100
AcDbEntity
  8
SUPERFICI
100
AcDbLine
 62
250
  6
CONTINUOUS
 10
-25.9204615556
 20
-15.2949822897
 11
-26.3296014
 21
-15.4543812732
  0
LWPOLYLINE
  5
3F8
100
AcDbEntity
  8
SUPERFICI
100
AcDbPolyline
 62
250
  6
CONTINUOUS
 90
10
 70
0
 10
-25.9985063989
 20
-15.1381195271
 10
-26.4117328142
 20
-15.2943316611
 10
-26.8142859223
 20
-15.4492547184
 10
-27.2087226852
 20
-15.6039523935
 10
-27.5981305114
 20
-15.7596990024
 10
-27.9842249209
 20
-15.9172214484
 10
-28.3673401642
 20
-16.0766439028
 10
-28.7489099194
 20
-16.2384985997
 10
-29.13148375
 20
-16.4037842939
 10
-29.5168200126
 20
-16.5731702679
  0
LWPOLYLINE
  5
3F9
100
AcDbEntity
  8
SUPERFICI
100
AcDbPolyline
 62
250
  6
CONTINUOUS
 90
10
 70
0
 10
-26.2654349601
 20
-14.1971156712
 10
-26.7170343639
 20
-14.3274517431
 10
-27.1584121801
 20
-14.4590517714
 10
-27.5909486111
 20
-14.5923420306
 10
-28.0154769971
 20
-14.727569144
 10
-28.4337689375
 20
-14.8652705244
 10
-28.8485053925
 20
-15.0063179025
 10
-29.2613371818
 20
-15.1512796888
 10
-29.6729151128
 20
-15.3003779191
 10
-30.0843535117
 20
-15.4539886131
  0
LWPOLYLINE
  5
3FA
100
AcDbEntity
  8
SUPERFICI
100
AcDbPolyline
 62
250
  6
CONTINUOUS
 90
11
 70
0
 10
-24.4065722288
 20
2.3599734394
 10
-24.5496993005
 20
2.3333859799
 10
-24.6969042523
 20
2.3202158836
 10
-24.8454222237
 20
2.320809513
 10
-24.9913104724
 20
2.3351495866
 10
-25.1318357957
 20
2.3628644058
 10
-25.2637974734
 20
2.403499184
 10
-25.3830416153
 20
2.4558869954
 10
-25.4872482212
 20
2.5185716601
 10
-25.5753321803
 20
2.5905048662
 10
-25.6459073686
 20
2.6705302989
  0
LWPOLYLINE
  5
3FB
100
AcDbEntity
  8
SUPERFICI
100
AcDbPolyline
 62
250
  6
CONTINUOUS
 90
13
 70
0
 10
17.0597359868
 20
6.6384755796
 10
16.9134612798
 20
6.6240337981
 10
16.7664792776
 20
6.6234875422
 10
16.6212105795
 20
6.6369817514
 10
16.4796192122
 20
6.6647848784
 10
16.345392797
 20
6.7067067994
 10
16.2232540372
 20
6.7611985694
 10
16.1155796042
 20
6.8270358628
 10
16.0249098181
 20
6.902848457
 10
15.9543438463
 20
6.9855218311
 10
15.90475123
 20
7.0724425505
 10
15.8760805001
 20
7.162264628
 10
15.8683921004
 20
7.2304462571
  0
LWPOLYLINE
  5
3FC
100
AcDbEntity
  8
SUPERFICI
100
AcDbPolyline
 62
250
  6
CONTINUOUS
 90
10
 70
0
 10
-27.1431329859
 20
20.8452251934
 10
-26.9965329572
 20
20.7811121315
 10
-26.8550488493
 20
20.7056504783
 10
-26.7193757473
 20
20.6190166462
 10
-26.5899862096
 20
20.5211611787
 10
-26.467925211
 20
20.4125202118
 10
-26.3546328195
 20
20.2941202597
 10
-26.2509471702
 20
20.1665693858
 10
-26.1572825765
 20
20.0299529611
 10
-26.0742991163
 20
19.8846178306
  0
LINE
  5
3FD
100
AcDbEntity
  8
SUPERFICI
100
AcDbLine
 62
250
  6
CONTINUOUS
 10
-24.344386815
 20
19.9111872245
 11
-24.2976323156
 21
19.888271231
  0
LINE
  5
3FE
100
AcDbEntity
  8
RACCORDO
100
AcDbLine
 62
250
  6
CONTINUOUS
 10
12.8911860731
 20
-23.4294430963
 11
12.8694583562
 21
-22.5560230652
  0
LINE
  5
3FF
100
AcDbEntity
  8
RACCORDO
100
AcDbLine
 62
7
  6
CONTINUOUS
 10
12.9084797908
 20
-23.375799308
 11
12.8871958441
 21
-22.5202181408
  0
LWPOLYLINE
  5
400
100
AcDbEntity
  8
SUPERFICI
100
AcDbPolyline
 62
250
  6
CONTINUOUS
 90
16
 70
0
 10
-3.2976843699
 20
-21.0041872414
 10
-3.3632618603
 20
-21.0968583947
 10
-3.4265042088
 20
-21.2031790611
 10
-3.4864119268
 20
-21.3214859498
 10
-3.5421099575
 20
-21.4504329596
 10
-3.5922423941
 20
-21.5874001283
 10
-3.6353247082
 20
-21.7281664191
 10
-3.6705059155
 20
-21.8696299995
 10
-3.6970700784
 20
-22.0091468011
 10
-3.7143215094
 20
-22.143058378
 10
-3.7220079722
 20
-22.2689136056
 10
-3.7198470373
 20
-22.3838552791
 10
-3.7078351345
 20
-22.4842964386
 10
-3.6864787064
 20
-22.5684039627
 10
-3.6562476134
 20
-22.6353951484
 10
-3.6176263565
 20
-22.6842313405
  0
LWPOLYLINE
  5
401
100
AcDbEntity
  8
SUPERFICI
100
AcDbPolyline
 62
250
  6
CONTINUOUS
 90
13
 70
0
 10
29.8780060021
 20
19.1973499836
 10
29.8298734378
 20
19.135113296
 10
29.7747380299
 20
19.0691684385
 10
29.7126609038
 20
18.9998955865
 10
29.6436578775
 20
18.9276311894
 10
29.5681069987
 20
18.8530983415
 10
29.4868368106
 20
18.7774113043
 10
29.4005117072
 20
18.7014704121
 10
29.3096515696
 20
18.6260541236
 10
29.2151005062
 20
18.5522353677
 10
29.1177530123
 20
18.4811348971
 10
29.0185517901
 20
18.4139358381
 10
28.9185923235
 20
18.3519655518
  0
LINE
  5
402
100
AcDbEntity
  8
DRAFT
100
AcDbLine
 62
7
  6
CONTINUOUS
 10
-0.2914266339
 20
-20.6897372265
 11
-0.3807060374
 21
-20.8029886536
  0
LWPOLYLINE
  5
403
100
AcDbEntity
  8
SUPERFICI
100
AcDbPolyline
 62
250
  6
CONTINUOUS
 90
10
 70
0
 10
32.5237567239
 20
16.371651359
 10
32.4508726955
 20
16.2956852327
 10
32.3654906516
 20
16.214973285
 10
32.2684690133
 20
16.130184134
 10
32.1608526
 20
16.0420275856
 10
32.0443924909
 20
15.9516712509
 10
31.9216425686
 20
15.8607390737
 10
31.7952503817
 20
15.7707676958
 10
31.6679207232
 20
15.6832359769
 10
31.5429738605
 20
15.5999669234
  0
LWPOLYLINE
  5
404
100
AcDbEntity
  8
SUPERFICI
100
AcDbPolyline
 62
250
  6
CONTINUOUS
 90
10
 70
0
 10
32.532372864
 20
16.1377837407
 10
32.4596568114
 20
16.0624093242
 10
32.3742741228
 20
15.9823073134
 10
32.2770784059
 20
15.8980743027
 10
32.1691365809
 20
15.8103465127
 10
32.0522225221
 20
15.7201888464
 10
31.9289123186
 20
15.6290969414
 10
31.8019207992
 20
15.5384918702
 10
31.674072232
 20
15.4497457352
 10
31.5488300009
 20
15.3645592943
  0
LWPOLYLINE
  5
405
100
AcDbEntity
  8
SUPERFICI
100
AcDbPolyline
 62
250
  6
CONTINUOUS
 90
10
 70
0
 10
18.6380387292
 20
6.7862708857
 10
18.4760305544
 20
6.8169284133
 10
18.3087578415
 20
6.8362829886
 10
18.1368681935
 20
6.8440986974
 10
17.9606955996
 20
6.8400784002
 10
17.7813219008
 20
6.8240051086
 10
17.6006035894
 20
6.7958929949
 10
17.4197174758
 20
6.7557313525
 10
17.2391350624
 20
6.7033335268
 10
17.0597011968
 20
6.6385842148
  0
LINE
  5
406
100
AcDbEntity
  8
SUPERFICI
100
AcDbLine
 62
7
  6
CONTINUOUS
 10
-24.2981132537
 20
19.8867433693
 11
15.3603205619
 21
7.7080225537
  0
LWPOLYLINE
  5
407
100
AcDbEntity
  8
SUPERFICI
100
AcDbPolyline
 62
7
  6
CONTINUOUS
 90
15
 70
0
 10
15.3607965131
 20
7.7095521111
 10
15.3871350729
 20
7.7011488013
 10
15.4353008149
 20
7.6839870864
 10
15.4853907576
 20
7.6634670239
 10
15.5366188512
 20
7.6393295313
 10
15.587629264
 20
7.6115872597
 10
15.6372526722
 20
7.580238206
 10
15.6845440219
 20
7.5451744485
 10
15.7278365658
 20
7.5069470958
 10
15.7658859945
 20
7.4661216369
 10
15.7982185813
 20
7.4228556157
 10
15.8252817983
 20
7.3765526022
 10
15.8455744406
 20
7.3306273155
 10
15.8581741547
 20
7.2915019529
 10
15.8645241475
 20
7.2635304384
  0
LWPOLYLINE
  5
408
100
AcDbEntity
  8
SUPERFICI
100
AcDbPolyline
 62
250
  6
CONTINUOUS
 90
11
 70
0
 10
-4.468594359
 20
13.7980322866
 10
-4.5198127585
 20
13.8268566001
 10
-4.5596922637
 20
13.8742586291
 10
-4.5913818399
 20
13.9407753635
 10
-4.6140513453
 20
14.0246604341
 10
-4.6273454064
 20
14.1242241363
 10
-4.6308608643
 20
14.2374684034
 10
-4.6244214665
 20
14.3610316183
 10
-4.6084145484
 20
14.4919606312
 10
-4.5832436111
 20
14.6283782951
 10
-4.549313643
 20
14.7681313001
  0
LWPOLYLINE
  5
409
100
AcDbEntity
  8
SUPERFICI
100
AcDbPolyline
 62
250
  6
CONTINUOUS
 90
10
 70
0
 10
16.7133712766
 20
-29.7059808339
 10
16.695273105
 20
-29.573547892
 10
16.6675392431
 20
-29.4468121934
 10
16.630188335
 20
-29.3263485524
 10
16.583061938
 20
-29.2124719056
 10
16.5263470809
 20
-29.1061198854
 10
16.4606967452
 20
-29.0086218343
 10
16.386471743
 20
-28.9206112698
 10
16.3036203567
 20
-28.8422572274
 10
16.2122851735
 20
-28.7739843424
  0
LWPOLYLINE
  5
40A
100
AcDbEntity
  8
RACCORDO
100
AcDbPolyline
 62
7
  6
CONTINUOUS
 90
4
 70
0
 10
12.8871906855
 20
-22.5200115768
 10
12.8868879455
 20
-22.5175672122
 10
12.8846008206
 20
-22.5136244751
 10
12.8804019506
 20
-22.5112667526
  0
LINE
  5
40B
100
AcDbEntity
  8
SUPERFICI
100
AcDbLine
 62
7
  6
CONTINUOUS
 10
15.8683443333
 20
7.2322115459
 11
16.7250541489
 21
-27.2025260715
  0
LWPOLYLINE
  5
40C
100
AcDbEntity
  8
RACCORDO
100
AcDbPolyline
 62
250
  6
CONTINUOUS
 90
3
 70
0
 10
12.8911860731
 20
-23.4294430963
 10
12.8901203876
 20
-23.4489522318
 10
12.8860390337
 20
-23.4674597711
  0
LWPOLYLINE
  5
40D
100
AcDbEntity
  8
SUPERFICI
100
AcDbPolyline
 62
250
  6
CONTINUOUS
 90
10
 70
0
 10
15.7219479284
 20
10.1476776799
 10
15.7108522348
 20
9.9986220255
 10
15.6901112839
 20
9.8442537059
 10
15.6597148583
 20
9.6851580956
 10
15.619490638
 20
9.5215780979
 10
15.5695773654
 20
9.3545171235
 10
15.5105491863
 20
9.1858149007
 10
15.4427227921
 20
9.0166114948
 10
15.3660331745
 20
8.847272126
 10
15.2805938115
 20
8.6785423153
  0
LWPOLYLINE
  5
40E
100
AcDbEntity
  8
RACCORDO
100
AcDbPolyline
 62
250
  6
CONTINUOUS
 90
3
 70
0
 10
12.9057496145
 20
-23.3987103976
 10
12.9083473023
 20
-23.3827888184
 10
12.9084797908
 20
-23.375799308
  0
LWPOLYLINE
  5
40F
100
AcDbEntity
  8
SUPERFICI
100
AcDbPolyline
 62
250
  6
CONTINUOUS
 90
11
 70
0
 10
15.2805299062
 20
8.6785457612
 10
15.2469000675
 20
8.5378057989
 10
15.2219322862
 20
8.4000460919
 10
15.2061334148
 20
8.2675437092
 10
15.2000105126
 20
8.1421773055
 10
15.2040736328
 20
8.0273136749
 10
15.2181376747
 20
7.9269393289
 10
15.2417986674
 20
7.8429413076
 10
15.274631891
 20
7.7773031621
 10
15.3152394093
 20
7.7321002318
 10
15.3607965131
 20
7.7095521111
  0
LINE
  5
410
100
AcDbEntity
  8
DRAFT
100
AcDbLine
 62
7
  6
CONTINUOUS
 10
6.573831986
 20
-21.9555831828
 11
6.5785707087
 21
-21.9424950543
  0
LINE
  5
411
100
AcDbEntity
  8
DRAFT
100
AcDbLine
 62
7
  6
CONTINUOUS
 10
6.7567858754
 20
-21.8645846537
 11
6.8290306452
 21
-21.6650480072
  0
LINE
  5
412
100
AcDbEntity
  8
DRAFT
100
AcDbLine
 62
7
  6
CONTINUOUS
 10
7.0072458119
 20
-21.5871376066
 11
7.0794905817
 21
-21.3876009601
  0
LINE
  5
413
100
AcDbEntity
  8
DRAFT
100
AcDbLine
 62
7
  6
CONTINUOUS
 10
7.2577057484
 20
-21.3096905596
 11
7.3299505183
 21
-21.110153913
  0
LINE
  5
414
100
AcDbEntity
  8
0
100
AcDbLine
 62
250
  6
CONTINUOUS
 10
32.092403074
 20
21.9391789431
 11
30.028122324
 21
19.1512507155
  0
LINE
  5
415
100
AcDbEntity
  8
DRAFT
100
AcDbLine
 62
7
  6
CONTINUOUS
 10
0.2538655853
 20
-20.0147827287
 11
-0.2914266339
 21
-20.6897372265
  0
LINE
  5
416
100
AcDbEntity
  8
0
100
AcDbLine
 62
250
  6
CONTINUOUS
 10
34.8222761848
 20
18.79258013
 11
32.5291219869
 21
16.2684638869
  0
LWPOLYLINE
  5
417
100
AcDbEntity
  8
SUPERFICI
100
AcDbPolyline
 62
250
  6
CONTINUOUS
 90
8
 70
0
 10
-29.7850113736
 20
-23.7656081732
 10
-29.4721579984
 20
-23.6605924263
 10
-29.163924628
 20
-23.5497510974
 10
-28.8601708299
 20
-23.4330636075
 10
-28.5610456254
 20
-23.3106317098
 10
-28.26611785
 20
-23.1823272192
 10
-27.9744089213
 20
-23.0477317601
 10
-27.6855350808
 20
-22.9066335236
  0
LWPOLYLINE
  5
418
100
AcDbEntity
  8
SUPERFICI
100
AcDbPolyline
 62
7
  6
CONTINUOUS
 90
10
 70
0
 10
-24.530252059
 20
22.5035422211
 10
-24.6453460377
 20
22.5305093596
 10
-24.75942768
 20
22.553275253
 10
-24.8723947783
 20
22.5718465541
 10
-24.9841359891
 20
22.5862265981
 10
-25.0945839442
 20
22.5964163884
 10
-25.2035912254
 20
22.6024131557
 10
-25.3108223352
 20
22.6042124836
 10
-25.4160109538
 20
22.6018324469
 10
-25.519329032
 20
22.5952855191
  0
LWPOLYLINE
  5
419
100
AcDbEntity
  8
SUPERFICI
100
AcDbPolyline
 62
7
  6
CONTINUOUS
 90
8
 70
0
 10
-24.3910378697
 20
22.4655568968
 10
-24.4111285638
 20
22.4713700204
 10
-24.4311551082
 20
22.4770629841
 10
-24.4511153814
 20
22.4826304747
 10
-24.4710072679
 20
22.4880672548
 10
-24.4908287071
 20
22.493368175
 10
-24.5105776927
 20
22.4985281737
 10
-24.5302522363
 20
22.5035422657
  0
LINE
  5
41A
100
AcDbEntity
  8
SUPERFICI
100
AcDbLine
 62
7
  6
CONTINUOUS
 10
-24.3506725882
 20
22.4535918077
 11
-24.3910378697
 21
22.4655568968
  0
LINE
  5
41B
100
AcDbEntity
  8
SUPERFICI
100
AcDbLine
 62
250
  6
CONTINUOUS
 10
-24.3793506667
 20
20.8577270408
 11
15.2805299062
 21
8.6785457612
  0
LINE
  5
41C
100
AcDbEntity
  8
SUPERFICI
100
AcDbLine
 62
7
  6
CONTINUOUS
 10
15.7219479284
 20
10.1476776799
 11
-24.3506725882
 21
22.4535918077
  0
LWPOLYLINE
  5
41D
100
AcDbEntity
  8
SUPERFICI
100
AcDbPolyline
 62
7
  6
CONTINUOUS
 90
9
 70
0
 10
15.7219484337
 20
10.1476779799
 10
15.7623347471
 20
10.1348246921
 10
15.7824434129
 20
10.1282910019
 10
15.8024935334
 20
10.1216785478
 10
15.8224829775
 20
10.1149820449
 10
15.8424090707
 20
10.1081964909
 10
15.8622697379
 20
10.1013167838
 10
15.8820635011
 20
10.0943377071
 10
15.901788623
 20
10.0872542217
  0
LWPOLYLINE
  5
41E
100
AcDbEntity
  8
SUPERFICI
100
AcDbPolyline
 62
7
  6
CONTINUOUS
 90
10
 70
0
 10
15.9017884451
 20
10.0872542861
 10
16.0173024202
 20
10.0434039561
 10
16.131999107
 20
9.9959142411
 10
16.2457743908
 20
9.9448551533
 10
16.3585150467
 20
9.8902989908
 10
16.4701526188
 20
9.8322884673
 10
16.5805375583
 20
9.770912009
 10
16.6893294233
 20
9.7063727743
 10
16.7962568877
 20
9.6388539435
 10
16.9014939244
 20
9.5682617603
  0
LWPOLYLINE
  5
41F
100
AcDbEntity
  8
SUPERFICI
100
AcDbPolyline
 62
250
  6
CONTINUOUS
 90
13
 70
0
 10
16.2973984047
 20
-9.9857846479
 10
16.3067207096
 20
-10.0614036323
 10
16.3383300222
 20
-10.152391307
 10
16.3910339787
 20
-10.2391165781
 10
16.4634098387
 20
-10.3197178144
 10
16.5542250311
 20
-10.3926210809
 10
16.6610667123
 20
-10.4558919203
 10
16.781801211
 20
-10.5084074615
 10
16.9139047556
 20
-10.5488645548
 10
17.0533626772
 20
-10.5759216408
 10
17.1969016413
 20
-10.5893172404
 10
17.3425200158
 20
-10.5891517569
 10
17.4878951518
 20
-10.5754425767
  0
LINE
  5
420
100
AcDbEntity
  8
SUPERFICI
100
AcDbLine
 62
7
  6
CONTINUOUS
 10
16.7248918874
 20
-27.1995788011
 11
16.7249585081
 21
-27.2001314757
  0
LWPOLYLINE
  5
421
100
AcDbEntity
  8
SUPERFICI
100
AcDbPolyline
 62
7
  6
CONTINUOUS
 90
10
 70
0
 10
18.6281341268
 20
6.9447276204
 10
18.6297504797
 20
6.9271947174
 10
18.6312257816
 20
6.9096432422
 10
18.6325650987
 20
6.8920733033
 10
18.6337735753
 20
6.8744850212
 10
18.6348564372
 20
6.8568784918
 10
18.6358189909
 20
6.8392537865
 10
18.6366666216
 20
6.821611001
 10
18.637404794
 20
6.8039502555
 10
18.6380390551
 20
6.7862716579
  0
LWPOLYLINE
  5
422
100
AcDbEntity
  8
SUPERFICI
100
AcDbPolyline
 62
7
  6
CONTINUOUS
 90
16
 70
0
 10
17.0585852189
 20
6.6371867882
 10
17.0450266555
 20
6.7952567395
 10
17.0123858361
 20
6.9599544508
 10
16.9612380855
 20
7.1285082887
 10
16.8920477051
 20
7.2983764737
 10
16.8054661785
 20
7.4664788953
 10
16.7026836915
 20
7.6294241949
 10
16.5857646519
 20
7.7854203119
 10
16.4562801785
 20
7.9343674181
 10
16.3144989153
 20
8.0759667973
 10
16.1601469747
 20
8.2088579489
 10
15.9944857756
 20
8.3309770575
 10
15.8206647074
 20
8.4405823807
 10
15.6419166683
 20
8.5361871923
 10
15.4612267472
 20
8.6164494446
 10
15.2817099554
 20
8.6799404697
  0
LINE
  5
423
100
AcDbEntity
  8
SUPERFICI
100
AcDbLine
 62
250
  6
CONTINUOUS
 10
17.0597011968
 20
6.6385842148
 11
17.9161942391
 21
-27.7897984568
  0
LINE
  5
424
100
AcDbEntity
  8
SUPERFICI
100
AcDbLine
 62
7
  6
CONTINUOUS
 10
18.6380387292
 20
6.7862708857
 11
19.5058310484
 21
-28.0976148047
  0
LWPOLYLINE
  5
425
100
AcDbEntity
  8
SUPERFICI
100
AcDbPolyline
 62
7
  6
CONTINUOUS
 90
16
 70
0
 10
17.9150434713
 20
-27.7910872526
 10
17.9092046224
 20
-27.9433376755
 10
17.8843276831
 20
-28.09073573
 10
17.8408560536
 20
-28.2307498794
 10
17.7791319327
 20
-28.3610135831
 10
17.6996605308
 20
-28.4787269847
 10
17.603478631
 20
-28.5811149037
 10
17.4925926721
 20
-28.6676391404
 10
17.3685939127
 20
-28.7392091027
 10
17.2317411216
 20
-28.7957265481
 10
17.0816889259
 20
-28.8356783776
 10
16.9196148322
 20
-28.8577552598
 10
16.7486277538
 20
-28.8620718675
 10
16.5719339437
 20
-28.8490438295
 10
16.3924953018
 20
-28.8190810297
 10
16.2134012918
 20
-28.7725851606
  0
LINE
  5
426
100
AcDbEntity
  8
DRAFT
100
AcDbLine
 62
7
  6
CONTINUOUS
 10
12.1073737078
 20
-23.6548802369
 11
12.1111939107
 21
-23.6415100398
  0
LINE
  5
427
100
AcDbEntity
  8
DRAFT
100
AcDbLine
 62
7
  6
CONTINUOUS
 10
12.2567344669
 20
-23.5535655829
 11
12.3149758323
 21
-23.3497286265
  0
LINE
  5
428
100
AcDbEntity
  8
DRAFT
100
AcDbLine
 62
7
  6
CONTINUOUS
 10
12.4605163885
 20
-23.2617841697
 11
12.518757754
 21
-23.0579472133
  0
LINE
  5
429
100
AcDbEntity
  8
DRAFT
100
AcDbLine
 62
7
  6
CONTINUOUS
 10
12.6642983102
 20
-22.9700027564
 11
12.7225396756
 21
-22.7661658
  0
LINE
  5
42A
100
AcDbEntity
  8
RACCORDO
100
AcDbLine
 62
7
  6
CONTINUOUS
 10
7.5052724738
 20
-20.91594098
 11
7.3299505183
 21
-21.110153913
  0
LINE
  5
42B
100
AcDbEntity
  8
DRAFT
100
AcDbLine
 62
7
  6
CONTINUOUS
 10
7.1796745564
 20
-21.2766221413
 11
7.0794905817
 21
-21.3876009601
  0
LINE
  5
42C
100
AcDbEntity
  8
DRAFT
100
AcDbLine
 62
7
  6
CONTINUOUS
 10
6.9292146198
 20
-21.5540691883
 11
6.8290306452
 21
-21.6650480072
  0
LINE
  5
42D
100
AcDbEntity
  8
DRAFT
100
AcDbLine
 62
7
  6
CONTINUOUS
 10
6.6787546833
 20
-21.8315162354
 11
6.5785707087
 21
-21.9424950543
  0
LINE
  5
42E
100
AcDbEntity
  8
SUPERFICI
100
AcDbLine
 62
250
  6
CONTINUOUS
 10
-24.7551500723
 20
27.2584577282
 11
-25.5265278555
 21
27.4475369975
  0
LINE
  5
42F
100
AcDbEntity
  8
SUPERFICI
100
AcDbLine
 62
250
  6
CONTINUOUS
 10
-23.13536714
 20
26.8411758181
 11
-24.7551500723
 21
27.2584577282
  0
LINE
  5
430
100
AcDbEntity
  8
SUPERFICI
100
AcDbLine
 62
250
  6
CONTINUOUS
 10
-21.4324591704
 20
26.392429081
 11
-23.13536714
 21
26.8411758181
  0
LINE
  5
431
100
AcDbEntity
  8
SUPERFICI
100
AcDbLine
 62
250
  6
CONTINUOUS
 10
-19.6386440736
 20
25.9097388967
 11
-21.4324591704
 21
26.392429081
  0
LINE
  5
432
100
AcDbEntity
  8
SUPERFICI
100
AcDbLine
 62
250
  6
CONTINUOUS
 10
-17.7506083
 20
25.390958383
 11
-19.6386440736
 21
25.9097388967
  0
LINE
  5
433
100
AcDbEntity
  8
SUPERFICI
100
AcDbLine
 62
250
  6
CONTINUOUS
 10
-15.7607939039
 20
24.8329002899
 11
-17.7506083
 21
25.390958383
  0
LINE
  5
434
100
AcDbEntity
  8
SUPERFICI
100
AcDbLine
 62
250
  6
CONTINUOUS
 10
-13.6629587521
 20
24.2318784171
 11
-15.7607939039
 21
24.8329002899
  0
LWPOLYLINE
  5
435
100
AcDbEntity
  8
SUPERFICI
100
AcDbPolyline
 62
250
  6
CONTINUOUS
 90
3
 70
0
 10
-10.3029671107
 20
23.2421003388
 10
-11.4527224314
 20
23.5847111681
 10
-13.6629587521
 20
24.2318784171
  0
LINE
  5
436
100
AcDbEntity
  8
SUPERFICI
100
AcDbLine
 62
250
  6
CONTINUOUS
 10
-7.9121341409
 20
22.517175704
 11
-10.3029671107
 21
23.2421003388
  0
LWPOLYLINE
  5
437
100
AcDbEntity
  8
SUPERFICI
100
AcDbPolyline
 62
250
  6
CONTINUOUS
 90
4
 70
0
 10
3.3232052183
 20
19.0467017785
 10
2.1690930258
 20
19.4118224869
 10
0.9843902601
 20
19.782224045
 10
-7.9121341409
 20
22.517175704
  0
LINE
  5
438
100
AcDbEntity
  8
SUPERFICI
100
AcDbLine
 62
250
  6
CONTINUOUS
 10
5.5394855122
 20
18.3342134433
 11
3.3232052183
 21
19.0467017785
  0
LINE
  5
439
100
AcDbEntity
  8
SUPERFICI
100
AcDbLine
 62
250
  6
CONTINUOUS
 10
7.6402626879
 20
17.6455853073
 11
5.5394855122
 21
18.3342134433
  0
LINE
  5
43A
100
AcDbEntity
  8
SUPERFICI
100
AcDbLine
 62
250
  6
CONTINUOUS
 10
9.6301644971
 20
16.9813153879
 11
7.6402626879
 21
17.6455853073
  0
LINE
  5
43B
100
AcDbEntity
  8
SUPERFICI
100
AcDbLine
 62
250
  6
CONTINUOUS
 10
11.5159358812
 20
16.3411417711
 11
9.6301644971
 21
16.9813153879
  0
LINE
  5
43C
100
AcDbEntity
  8
SUPERFICI
100
AcDbLine
 62
250
  6
CONTINUOUS
 10
13.3051166343
 20
15.7236938538
 11
11.5159358812
 21
16.3411417711
  0
LINE
  5
43D
100
AcDbEntity
  8
SUPERFICI
100
AcDbLine
 62
250
  6
CONTINUOUS
 10
16.6129956688
 20
14.5543120603
 11
13.3051166343
 21
15.7236938538
  0
LINE
  5
43E
100
AcDbEntity
  8
SUPERFICI
100
AcDbLine
 62
250
  6
CONTINUOUS
 10
17.3798161298
 20
14.2714144345
 11
16.6129956688
 21
14.5543120603
  0
LWPOLYLINE
  5
43F
100
AcDbEntity
  8
SUPERFICI
100
AcDbPolyline
 62
250
  6
CONTINUOUS
 90
10
 70
0
 10
17.3798161298
 20
14.2714144345
 10
17.6722963365
 20
14.1529438162
 10
17.958671704
 20
14.0289025373
 10
18.2386070877
 20
13.899651435
 10
18.5116114835
 20
13.7656493264
 10
18.7775971974
 20
13.6271796687
 10
19.0368574563
 20
13.484306166
 10
19.2885079486
 20
13.3376730894
 10
19.5326251665
 20
13.1873879271
 10
19.7691347513
 20
13.0336835077
  0
LWPOLYLINE
  5
440
100
AcDbEntity
  8
SUPERFICI
100
AcDbPolyline
 62
7
  6
CONTINUOUS
 90
10
 70
0
 10
16.9014937617
 20
9.5682618728
 10
17.0901457062
 20
9.4307381145
 10
17.2730712575
 20
9.282587412
 10
17.4485360753
 20
9.1249924513
 10
17.6152586623
 20
8.9591000002
 10
17.7723537259
 20
8.7857526217
 10
17.9185691637
 20
8.6062568772
 10
18.05295333
 20
8.4218667648
 10
18.1749351656
 20
8.2332880147
 10
18.2831607376
 20
8.0425940812
  0
LWPOLYLINE
  5
441
100
AcDbEntity
  8
SUPERFICI
100
AcDbPolyline
 62
7
  6
CONTINUOUS
 90
10
 70
0
 10
18.2831606522
 20
8.0425942427
 10
18.2922857287
 20
8.0252218066
 10
18.3012947014
 20
8.0078406333
 10
18.3101882912
 20
7.9904493627
 10
18.3189657066
 20
7.9730496545
 10
18.327629227
 20
7.9556371224
 10
18.3361840002
 20
7.9382013223
 10
18.344632028
 20
7.9207378409
 10
18.3529723691
 20
7.9032483071
 10
18.3612055809
 20
7.8857313186
  0
LWPOLYLINE
  5
442
100
AcDbEntity
  8
SUPERFICI
100
AcDbPolyline
 62
7
  6
CONTINUOUS
 90
10
 70
0
 10
18.3612055052
 20
7.8857314807
 10
18.4077579251
 20
7.7814172849
 10
18.4502007851
 20
7.6768071562
 10
18.4885778856
 20
7.5717441334
 10
18.5227664036
 20
7.4664967964
 10
18.5526427634
 20
7.3613943266
 10
18.5781511112
 20
7.2565881162
 10
18.5992650688
 20
7.1521425784
 10
18.6159411088
 20
7.0481570232
 10
18.628134142
 20
6.9447274627
  0
LWPOLYLINE
  5
443
100
AcDbEntity
  8
SUPERFICI
100
AcDbPolyline
 62
7
  6
CONTINUOUS
 90
3
 70
0
 10
15.8645241475
 20
7.2635304384
 10
15.8679011142
 20
7.239397589
 10
15.8683443333
 20
7.2322115459
  0
LINE
  5
444
100
AcDbEntity
  8
SUPERFICI
100
AcDbLine
 62
250
  6
CONTINUOUS
 10
23.7134039955
 20
6.8282000989
 11
23.7666029753
 21
6.2441060428
  0
LINE
  5
445
100
AcDbEntity
  8
SUPERFICI
100
AcDbLine
 62
250
  6
CONTINUOUS
 10
23.7666029753
 20
6.2441060428
 11
23.8698835332
 21
5.0329042832
  0
LINE
  5
446
100
AcDbEntity
  8
SUPERFICI
100
AcDbLine
 62
250
  6
CONTINUOUS
 10
23.8698835332
 20
5.0329042832
 11
23.972699539
 21
3.7643932392
  0
LINE
  5
447
100
AcDbEntity
  8
SUPERFICI
100
AcDbLine
 62
250
  6
CONTINUOUS
 10
23.972699539
 20
3.7643932392
 11
24.0747025218
 21
2.4336740971
  0
LINE
  5
448
100
AcDbEntity
  8
SUPERFICI
100
AcDbLine
 62
250
  6
CONTINUOUS
 10
24.0747025218
 20
2.4336740971
 11
24.1752139626
 21
1.0383004561
  0
LINE
  5
449
100
AcDbEntity
  8
SUPERFICI
100
AcDbLine
 62
250
  6
CONTINUOUS
 10
24.1752139626
 20
1.0383004561
 11
24.2735280653
 21
-0.425388704
  0
LINE
  5
44A
100
AcDbEntity
  8
SUPERFICI
100
AcDbLine
 62
250
  6
CONTINUOUS
 10
24.2735280653
 20
-0.425388704
 11
24.3688333709
 21
-1.9614645144
  0
LINE
  5
44B
100
AcDbEntity
  8
SUPERFICI
100
AcDbLine
 62
250
  6
CONTINUOUS
 10
24.3688333709
 20
-1.9614645144
 11
24.4600988552
 21
-3.5726729735
  0
LINE
  5
44C
100
AcDbEntity
  8
SUPERFICI
100
AcDbLine
 62
250
  6
CONTINUOUS
 10
24.4600988552
 20
-3.5726729735
 11
24.5462463406
 21
-5.2634535963
  0
LINE
  5
44D
100
AcDbEntity
  8
SUPERFICI
100
AcDbLine
 62
250
  6
CONTINUOUS
 10
24.5462463406
 20
-5.2634535963
 11
24.6260461292
 21
-7.0389806893
  0
LINE
  5
44E
100
AcDbEntity
  8
SUPERFICI
100
AcDbLine
 62
250
  6
CONTINUOUS
 10
24.6260461292
 20
-7.0389806893
 11
24.6979849067
 21
-8.9025315569
  0
LWPOLYLINE
  5
44F
100
AcDbEntity
  8
SUPERFICI
100
AcDbPolyline
 62
250
  6
CONTINUOUS
 90
3
 70
0
 10
24.6979849067
 20
-8.9025315569
 10
24.760459984
 20
-10.8607195971
 10
24.7874990302
 20
-11.8746141405
  0
LWPOLYLINE
  5
450
100
AcDbEntity
  8
SUPERFICI
100
AcDbPolyline
 62
250
  6
CONTINUOUS
 90
3
 70
0
 10
24.7874990302
 20
-11.8746141405
 10
24.8108806963
 20
-12.8875818456
 10
24.8301698956
 20
-13.8752124435
  0
LINE
  5
451
100
AcDbEntity
  8
SUPERFICI
100
AcDbLine
 62
250
  6
CONTINUOUS
 10
24.8301698956
 20
-13.8752124435
 11
24.8574835733
 21
-15.7741171902
  0
LINE
  5
452
100
AcDbEntity
  8
SUPERFICI
100
AcDbLine
 62
250
  6
CONTINUOUS
 10
24.8574835733
 20
-15.7741171902
 11
24.8714381716
 21
-17.5738588868
  0
LWPOLYLINE
  5
453
100
AcDbEntity
  8
SUPERFICI
100
AcDbPolyline
 62
7
  6
CONTINUOUS
 90
10
 70
0
 10
19.50371833
 20
-28.2523793135
 10
19.5044785944
 20
-28.235577053
 10
19.5050918418
 20
-28.2186673824
 10
19.5055646196
 20
-28.2016539746
 10
19.505903579
 20
-28.1845403328
 10
19.5061154618
 20
-28.1673304639
 10
19.5062071172
 20
-28.1500288865
 10
19.5061855119
 20
-28.132639729
 10
19.5060577141
 20
-28.1151667224
 10
19.5058308917
 20
-28.0976138794
  0
LINE
  5
454
100
AcDbEntity
  8
RACCORDO
100
AcDbLine
 62
250
  6
CONTINUOUS
 10
12.8860390337
 20
-23.4674597711
 11
12.8789512956
 21
-23.4846327612
  0
LWPOLYLINE
  5
455
100
AcDbEntity
  8
RACCORDO
100
AcDbPolyline
 62
250
  6
CONTINUOUS
 90
3
 70
0
 10
12.8911860731
 20
-23.4294430963
 10
12.8999985514
 20
-23.4143451573
 10
12.9057496145
 20
-23.3987103976
  0
LINE
  5
456
100
AcDbEntity
  8
RACCORDO
100
AcDbLine
 62
250
  6
CONTINUOUS
 10
12.8789512956
 20
-23.4846327612
 11
12.8720770018
 21
-23.4959086069
  0
LINE
  5
457
100
AcDbEntity
  8
RACCORDO
100
AcDbLine
 62
7
  6
CONTINUOUS
 10
12.8651870207
 20
-22.5619188108
 11
12.7225396756
 21
-22.7661658
  0
LINE
  5
458
100
AcDbEntity
  8
DRAFT
100
AcDbLine
 62
7
  6
CONTINUOUS
 10
12.6002705226
 20
-22.941234648
 11
12.518757754
 21
-23.0579472133
  0
LINE
  5
459
100
AcDbEntity
  8
DRAFT
100
AcDbLine
 62
7
  6
CONTINUOUS
 10
12.396488601
 20
-23.2330160612
 11
12.3149758323
 21
-23.3497286265
  0
LINE
  5
45A
100
AcDbEntity
  8
DRAFT
100
AcDbLine
 62
7
  6
CONTINUOUS
 10
12.1927066793
 20
-23.5247974745
 11
12.1111939107
 21
-23.6415100398
  0
LINE
  5
45B
100
AcDbEntity
  8
RACCORDO
100
AcDbLine
 62
250
  6
CONTINUOUS
 10
12.6213462544
 20
-23.8127162266
 11
12.8911860731
 21
-23.4294430963
  0
LINE
  5
45C
100
AcDbEntity
  8
RACCORDO
100
AcDbLine
 62
7
  6
CONTINUOUS
 10
12.644109986
 20
-23.819706748
 11
12.8720770018
 21
-23.4959086069
  0
LWPOLYLINE
  5
45D
100
AcDbEntity
  8
RACCORDO
100
AcDbPolyline
 62
7
  6
CONTINUOUS
 90
5
 70
0
 10
12.8694583562
 20
-22.5560230652
 10
12.8785087173
 20
-22.543530591
 10
12.8842163861
 20
-22.5327213444
 10
12.8868883793
 20
-22.5238827169
 10
12.8871906855
 20
-22.5200115768
  0
LWPOLYLINE
  5
45E
100
AcDbEntity
  8
RACCORDO
100
AcDbPolyline
 62
7
  6
CONTINUOUS
 90
6
 70
0
 10
7.5105209847
 20
-20.9103453155
 10
7.5249517957
 20
-20.8995051254
 10
7.5413084686
 20
-20.8919660848
 10
7.5590364461
 20
-20.8877510043
 10
7.5775175836
 20
-20.8871110111
 10
7.5964003785
 20
-20.8896693511
  0
LINE
  5
45F
100
AcDbEntity
  8
RACCORDO
100
AcDbLine
 62
250
  6
CONTINUOUS
 10
34.470897268
 20
-12.7186303407
 11
34.471322968
 21
-12.7184647248
  0
LWPOLYLINE
  5
460
100
AcDbEntity
  8
SUPERFICI
100
AcDbPolyline
 62
7
  6
CONTINUOUS
 90
8
 70
0
 10
-24.4085391873
 20
19.9144427477
 10
-24.4141534372
 20
19.914050534
 10
-24.415637821
 20
19.9140074211
 10
-24.408009403
 20
19.9134380018
 10
-24.3912821013
 20
19.9111681372
 10
-24.3641298145
 20
19.9059222919
 10
-24.3264599656
 20
19.8965896519
 10
-24.2953826065
 20
19.8875596997
  0
LWPOLYLINE
  5
461
100
AcDbEntity
  8
SUPERFICI
100
AcDbPolyline
 62
250
  6
CONTINUOUS
 90
10
 70
0
 10
-25.5265278555
 20
27.4475369975
 10
-25.8175715206
 20
27.5082609072
 10
-26.1021370627
 20
27.5595500504
 10
-26.3799022679
 20
27.6015633959
 10
-26.6503915759
 20
27.6344629383
 10
-26.9135301543
 20
27.6584822248
 10
-27.1696189384
 20
27.6738674205
 10
-27.4177923079
 20
27.6807254096
 10
-27.6581333102
 20
27.6792126733
 10
-27.890578118
 20
27.6695196046
  0
LWPOLYLINE
  5
462
100
AcDbEntity
  8
SUPERFICI
100
AcDbPolyline
 62
250
  6
CONTINUOUS
 90
10
 70
0
 10
-28.4893706847
 20
32.5733300437
 10
-28.8243841247
 20
32.66035017
 10
-29.1544272287
 20
32.7426841023
 10
-29.4793742348
 20
32.8197349755
 10
-29.7992031223
 20
32.8909823551
 10
-30.1137048104
 20
32.9559150877
 10
-30.4224919091
 20
33.0140510814
 10
-30.7249640873
 20
33.0646791662
 10
-31.0208632673
 20
33.107177165
 10
-31.3102723784
 20
33.1411077813
  0
LINE
  5
463
100
AcDbEntity
  8
SUPERFICI
100
AcDbLine
 62
250
  6
CONTINUOUS
 10
-27.1277350544
 20
32.1924889758
 11
-28.4893706847
 21
32.5733300437
  0
LINE
  5
464
100
AcDbEntity
  8
SUPERFICI
100
AcDbLine
 62
250
  6
CONTINUOUS
 10
-24.2931771531
 20
31.3803755876
 11
-27.1277350544
 21
32.1924889758
  0
LINE
  5
465
100
AcDbEntity
  8
SUPERFICI
100
AcDbLine
 62
250
  6
CONTINUOUS
 10
-21.3068203333
 20
30.5154864815
 11
-24.2931771531
 21
31.3803755876
  0
LINE
  5
466
100
AcDbEntity
  8
SUPERFICI
100
AcDbLine
 62
250
  6
CONTINUOUS
 10
-18.1558673282
 20
29.5921456001
 11
-21.3068203333
 21
30.5154864815
  0
LWPOLYLINE
  5
467
100
AcDbEntity
  8
SUPERFICI
100
AcDbPolyline
 62
250
  6
CONTINUOUS
 90
3
 70
0
 10
-13.1026603024
 20
28.0870870485
 10
-14.832897754
 20
28.6058776925
 10
-18.1558673282
 20
29.5921456001
  0
LINE
  5
468
100
AcDbEntity
  8
SUPERFICI
100
AcDbLine
 62
250
  6
CONTINUOUS
 10
-9.499828068
 20
26.9940198225
 11
-13.1026603024
 21
28.0870870485
  0
LINE
  5
469
100
AcDbEntity
  8
SUPERFICI
100
AcDbLine
 62
250
  6
CONTINUOUS
 10
2.0731177535
 20
23.4400802789
 11
-9.499828068
 21
26.9940198225
  0
LINE
  5
46A
100
AcDbEntity
  8
SUPERFICI
100
AcDbLine
 62
250
  6
CONTINUOUS
 10
2.0731177535
 20
23.4400802789
 11
4.658422228
 21
22.6379835443
  0
LINE
  5
46B
100
AcDbEntity
  8
SUPERFICI
100
AcDbLine
 62
250
  6
CONTINUOUS
 10
4.658422228
 20
22.6379835443
 11
7.4074847721
 21
21.7760716826
  0
LINE
  5
46C
100
AcDbEntity
  8
SUPERFICI
100
AcDbLine
 62
250
  6
CONTINUOUS
 10
7.4074847721
 20
21.7760716826
 11
10.7321681959
 21
20.7209097567
  0
LINE
  5
46D
100
AcDbEntity
  8
SUPERFICI
100
AcDbLine
 62
250
  6
CONTINUOUS
 10
10.7321681959
 20
20.7209097567
 11
13.8853415467
 21
19.7083145083
  0
LINE
  5
46E
100
AcDbEntity
  8
SUPERFICI
100
AcDbLine
 62
250
  6
CONTINUOUS
 10
13.8853415467
 20
19.7083145083
 11
16.8743150843
 21
18.7382375504
  0
LWPOLYLINE
  5
46F
100
AcDbEntity
  8
SUPERFICI
100
AcDbPolyline
 62
250
  6
CONTINUOUS
 90
3
 70
0
 10
16.8743150843
 20
18.7382375504
 10
19.7117985303
 20
17.8085219913
 10
21.0753044404
 20
17.3524984932
  0
LWPOLYLINE
  5
470
100
AcDbEntity
  8
SUPERFICI
100
AcDbPolyline
 62
250
  6
CONTINUOUS
 90
10
 70
0
 10
21.0753044404
 20
17.3524984932
 10
21.4111130033
 20
17.2335156814
 10
21.7421096531
 20
17.1128507094
 10
22.0681966164
 20
16.9899753578
 10
22.3893776259
 20
16.864374808
 10
22.7054660089
 20
16.735659439
 10
23.0160925814
 20
16.6035794951
 10
23.3206834245
 20
16.4677844073
 10
23.6190076795
 20
16.327802146
 10
23.9111714777
 20
16.1831373561
  0
LWPOLYLINE
  5
471
100
AcDbEntity
  8
SUPERFICI
100
AcDbPolyline
 62
250
  6
CONTINUOUS
 90
10
 70
0
 10
19.7691347513
 20
13.0336835077
 10
19.8994480647
 20
12.9453608965
 10
20.0272348098
 20
12.8561004442
 10
20.152464794
 20
12.7659610928
 10
20.2750972004
 20
12.6750116885
 10
20.3951489088
 20
12.5832798595
 10
20.512620354
 20
12.4908085998
 10
20.6274499772
 20
12.3976897685
 10
20.7396041188
 20
12.3039964446
 10
20.8491415188
 20
12.209728675
  0
LWPOLYLINE
  5
472
100
AcDbEntity
  8
SUPERFICI
100
AcDbPolyline
 62
250
  6
CONTINUOUS
 90
10
 70
0
 10
20.8491415188
 20
12.209728675
 10
21.0595110775
 20
12.0204639726
 10
21.2622512788
 20
11.8268171931
 10
21.4562044403
 20
11.6299342633
 10
21.6395979741
 20
11.4319037802
 10
21.8137350736
 20
11.231668399
 10
21.9822375044
 20
11.0249645898
 10
22.1458548265
 20
10.8105442296
 10
22.3028679069
 20
10.5903820765
 10
22.4530401717
 20
10.3646667272
  0
LINE
  5
473
100
AcDbEntity
  8
SUPERFICI
100
AcDbLine
 62
250
  6
CONTINUOUS
 10
22.4530401717
 20
10.3646667272
 11
22.4786973565
 21
10.3244591354
  0
LINE
  5
474
100
AcDbEntity
  8
SUPERFICI
100
AcDbLine
 62
250
  6
CONTINUOUS
 10
22.4786973565
 20
10.3244591354
 11
22.504143446
 21
10.2840748967
  0
LINE
  5
475
100
AcDbEntity
  8
SUPERFICI
100
AcDbLine
 62
250
  6
CONTINUOUS
 10
22.504143446
 20
10.2840748967
 11
22.5293895682
 21
10.243493958
  0
LWPOLYLINE
  5
476
100
AcDbEntity
  8
SUPERFICI
100
AcDbPolyline
 62
250
  6
CONTINUOUS
 90
3
 70
0
 10
22.5293895682
 20
10.243493958
 10
22.5544535917
 20
10.2026850899
 10
22.5669195828
 20
10.1821907068
  0
LWPOLYLINE
  5
477
100
AcDbEntity
  8
SUPERFICI
100
AcDbPolyline
 62
250
  6
CONTINUOUS
 90
10
 70
0
 10
22.5669195828
 20
10.1821907068
 10
22.6370184769
 20
10.0643994669
 10
22.7054655829
 20
9.9449424213
 10
22.7722338755
 20
9.823787827
 10
22.8372266961
 20
9.7010194393
 10
22.9003887007
 20
9.5766720989
 10
22.9617366537
 20
9.4506527585
 10
23.0212497126
 20
9.3229562264
 10
23.0788413363
 20
9.1937150377
 10
23.1344530848
 20
9.0630090558
  0
LINE
  5
478
100
AcDbEntity
  8
SUPERFICI
100
AcDbLine
 62
250
  6
CONTINUOUS
 10
28.1360457146
 20
9.2104632867
 11
28.2115878621
 21
7.9874386972
  0
LINE
  5
479
100
AcDbEntity
  8
SUPERFICI
100
AcDbLine
 62
250
  6
CONTINUOUS
 10
28.2115878621
 20
7.9874386972
 11
28.350663139
 21
5.4543409236
  0
LINE
  5
47A
100
AcDbEntity
  8
SUPERFICI
100
AcDbLine
 62
250
  6
CONTINUOUS
 10
28.350663139
 20
5.4543409236
 11
28.4854135262
 21
2.8037189211
  0
LINE
  5
47B
100
AcDbEntity
  8
SUPERFICI
100
AcDbLine
 62
250
  6
CONTINUOUS
 10
28.4854135262
 20
2.8037189211
 11
28.6149315428
 21
0.0265956206
  0
LWPOLYLINE
  5
47C
100
AcDbEntity
  8
SUPERFICI
100
AcDbPolyline
 62
250
  6
CONTINUOUS
 90
8
 70
0
 10
28.6149315428
 20
0.0265956206
 10
28.7377221675
 20
-2.881887035
 10
28.7961334859
 20
-4.3883093213
 10
28.8522188912
 20
-5.9294828471
 10
28.9058190602
 20
-7.5084703918
 10
28.9566728613
 20
-9.1262261765
 10
29.0044431367
 20
-10.7816038939
 10
29.0488223957
 20
-12.4745035223
  0
LINE
  5
47D
100
AcDbEntity
  8
SUPERFICI
100
AcDbLine
 62
250
  6
CONTINUOUS
 10
24.8714381716
 20
-17.5738588868
 11
24.8738747542
 21
-19.2815148368
  0
LINE
  5
47E
100
AcDbEntity
  8
SUPERFICI
100
AcDbLine
 62
250
  6
CONTINUOUS
 10
24.8738747542
 20
-19.2815148368
 11
24.8663919363
 21
-20.9030293004
  0
LINE
  5
47F
100
AcDbEntity
  8
SUPERFICI
100
AcDbLine
 62
250
  6
CONTINUOUS
 10
24.8663919363
 20
-20.9030293004
 11
24.8504085145
 21
-22.4422749106
  0
LINE
  5
480
100
AcDbEntity
  8
SUPERFICI
100
AcDbLine
 62
250
  6
CONTINUOUS
 10
24.8504085145
 20
-22.4422749106
 11
24.8271682809
 21
-23.9045406743
  0
LINE
  5
481
100
AcDbEntity
  8
SUPERFICI
100
AcDbLine
 62
250
  6
CONTINUOUS
 10
24.8271682809
 20
-23.9045406743
 11
24.7977625102
 21
-25.2944099142
  0
LINE
  5
482
100
AcDbEntity
  8
SUPERFICI
100
AcDbLine
 62
250
  6
CONTINUOUS
 10
24.7977625102
 20
-25.2944099142
 11
24.7631842079
 21
-26.6149303796
  0
LINE
  5
483
100
AcDbEntity
  8
SUPERFICI
100
AcDbLine
 62
250
  6
CONTINUOUS
 10
24.7631842079
 20
-26.6149303796
 11
24.7242835846
 21
-27.8702815078
  0
LWPOLYLINE
  5
484
100
AcDbEntity
  8
SUPERFICI
100
AcDbPolyline
 62
250
  6
CONTINUOUS
 90
4
 70
0
 10
24.7242835846
 20
-27.8702815078
 10
24.6817620595
 20
-29.065181137
 10
24.6592926067
 20
-29.640601569
 10
24.6345548942
 20
-30.2006165224
  0
LWPOLYLINE
  5
485
100
AcDbEntity
  8
RACCORDO
100
AcDbPolyline
 62
250
  6
CONTINUOUS
 90
5
 70
0
 10
34.366453852
 20
-12.7822344115
 10
34.3817179157
 20
-12.7733047625
 10
34.4443340563
 20
-12.7538657651
 10
34.5131913197
 20
-12.747448598
 10
34.5862102615
 20
-12.7542470555
  0
LWPOLYLINE
  5
486
100
AcDbEntity
  8
SUPERFICI
100
AcDbPolyline
 62
7
  6
CONTINUOUS
 90
10
 70
0
 10
-25.5193288724
 20
22.5952855326
 10
-25.703990448
 20
22.5724027397
 10
-25.8823046703
 20
22.535185272
 10
-26.0525697918
 20
22.4837606262
 10
-26.2135420796
 20
22.4185000965
 10
-26.3643648536
 20
22.3397113028
 10
-26.5038322397
 20
22.2479459859
 10
-26.6310408109
 20
22.1438884689
 10
-26.7454460985
 20
22.0279019142
 10
-26.8457772792
 20
21.9012537389
  0
LINE
  5
487
100
AcDbEntity
  8
SUPERFICI
100
AcDbLine
 62
250
  6
CONTINUOUS
 10
30.028122324
 20
19.1512507155
 11
-35.8814264728
 21
39.3914346221
  0
LINE
  5
488
100
AcDbEntity
  8
SUPERFICI
100
AcDbLine
 62
250
  6
CONTINUOUS
 10
-36.1346974062
 20
38.3292460474
 11
29.5008563203
 21
18.1732034004
  0
LWPOLYLINE
  5
489
100
AcDbEntity
  8
SUPERFICI
100
AcDbPolyline
 62
250
  6
CONTINUOUS
 90
10
 70
0
 10
30.0281222804
 20
19.1512537502
 10
30.0700854994
 20
19.1380565751
 10
30.112013023
 20
19.1242503781
 10
30.1538925653
 20
19.1098409321
 10
30.1956932058
 20
19.0948410167
 10
30.2374215456
 20
19.0792504025
 10
30.279121535
 20
19.0630531497
 10
30.3207995886
 20
19.0462455869
 10
30.3624247663
 20
19.0288390095
 10
30.4039848071
 20
19.0108377771
  0
LWPOLYLINE
  5
48A
100
AcDbEntity
  8
SUPERFICI
100
AcDbPolyline
 62
250
  6
CONTINUOUS
 90
10
 70
0
 10
23.9111714777
 20
16.1831373561
 10
24.0729783052
 20
16.0994742275
 10
24.2321619453
 20
16.0145060293
 10
24.3886770214
 20
15.9282384446
 10
24.5424842639
 20
15.8406777567
 10
24.6934940727
 20
15.7518594106
 10
24.8417232534
 20
15.6618009835
 10
24.9871874227
 20
15.5704888435
 10
25.1297003351
 20
15.4779144929
 10
25.2689093895
 20
15.3841261246
  0
LWPOLYLINE
  5
48B
100
AcDbEntity
  8
SUPERFICI
100
AcDbPolyline
 62
250
  6
CONTINUOUS
 90
10
 70
0
 10
25.2689093236
 20
15.3841261284
 10
25.55244675
 20
15.1808251555
 10
25.8188322156
 20
14.9710777018
 10
26.0655285758
 20
14.7555903586
 10
26.2884621653
 20
14.5375980815
 10
26.4893462615
 20
14.3156947802
 10
26.6753994016
 20
14.081506692
 10
26.8485128235
 20
13.8334466593
 10
27.006255998
 20
13.5766819827
 10
27.1500590341
 20
13.3115732349
  0
LWPOLYLINE
  5
48C
100
AcDbEntity
  8
SUPERFICI
100
AcDbPolyline
 62
250
  6
CONTINUOUS
 90
10
 70
0
 10
23.1344530848
 20
9.0630090558
 10
23.2272936506
 20
8.8299035579
 10
23.3136678815
 20
8.5926142965
 10
23.3933029778
 20
8.351225642
 10
23.4658948355
 20
8.1059294613
 10
23.5311265867
 20
7.8570138143
 10
23.5887648786
 20
7.6045070571
 10
23.6385431006
 20
7.3486158622
 10
23.6801737816
 20
7.0897302918
 10
23.7134039955
 20
6.8282000989
  0
LWPOLYLINE
  5
48D
100
AcDbEntity
  8
SUPERFICI
100
AcDbPolyline
 62
250
  6
CONTINUOUS
 90
7
 70
0
 10
31.5355760546
 20
15.904784603
 10
31.5348341302
 20
15.9309425721
 10
31.5338970075
 20
15.957034308
 10
31.5326965164
 20
15.9830640434
 10
31.531166472
 20
16.0090416848
 10
31.5292423758
 20
16.0349828819
 10
31.52686182
 20
16.0608998352
  0
LINE
  5
48E
100
AcDbEntity
  8
SUPERFICI
100
AcDbLine
 62
250
  6
CONTINUOUS
 10
32.9609525399
 20
-41.3906847305
 11
32.9574131517
 21
-41.2615751939
  0
LINE
  5
48F
100
AcDbEntity
  8
SUPERFICI
100
AcDbLine
 62
250
  6
CONTINUOUS
 10
32.9574131517
 20
-41.2615751939
 11
32.8538841346
 21
-37.0965632735
  0
LWPOLYLINE
  5
490
100
AcDbEntity
  8
SUPERFICI
100
AcDbPolyline
 62
250
  6
CONTINUOUS
 90
3
 70
0
 10
32.8538841405
 20
-37.0965635134
 10
31.5367582387
 20
15.8522204249
 10
31.5355760546
 20
15.904784603
  0
LWPOLYLINE
  5
491
100
AcDbEntity
  8
SUPERFICI
100
AcDbPolyline
 62
250
  6
CONTINUOUS
 90
7
 70
0
 10
29.2138696996
 20
-22.0222685662
 10
29.1976540498
 20
-20.528804162
 10
29.1773343812
 20
-18.9986139485
 10
29.1525953616
 20
-17.4284893842
 10
29.1231239978
 20
-15.8172999398
 10
29.0886354126
 20
-14.1660009016
 10
29.0488223957
 20
-12.4745035223
  0
LINE
  5
492
100
AcDbEntity
  8
SUPERFICI
100
AcDbLine
 62
250
  6
CONTINUOUS
 10
29.2350088162
 20
-24.8995350271
 11
29.2138696996
 21
-22.0222685662
  0
LINE
  5
493
100
AcDbEntity
  8
SUPERFICI
100
AcDbLine
 62
250
  6
CONTINUOUS
 10
29.2427311048
 20
-27.6392560423
 11
29.2350088162
 21
-24.8995350271
  0
LINE
  5
494
100
AcDbEntity
  8
SUPERFICI
100
AcDbLine
 62
250
  6
CONTINUOUS
 10
29.2387981695
 20
-30.2472897472
 11
29.2427311048
 21
-27.6392560423
  0
LWPOLYLINE
  5
495
100
AcDbEntity
  8
SUPERFICI
100
AcDbPolyline
 62
250
  6
CONTINUOUS
 90
3
 70
0
 10
29.2091941231
 20
-33.9284140522
 10
29.2245815386
 20
-32.7333130713
 10
29.2387981695
 20
-30.2472897472
  0
LWPOLYLINE
  5
496
100
AcDbEntity
  8
SUPERFICI
100
AcDbPolyline
 62
7
  6
CONTINUOUS
 90
10
 70
0
 10
19.2798583722
 20
-29.0426667629
 10
19.3218976083
 20
-28.9655582059
 10
19.3597491752
 20
-28.8856057171
 10
19.3934496786
 20
-28.8026770276
 10
19.4228878698
 20
-28.716968836
 10
19.4479547745
 20
-28.6287389097
 10
19.468601269
 20
-28.5381064033
 10
19.4848037987
 20
-28.4451203963
 10
19.4965231447
 20
-28.349854788
 10
19.5037183376
 20
-28.2523791628
  0
LWPOLYLINE
  5
497
100
AcDbEntity
  8
SUPERFICI
100
AcDbPolyline
 62
7
  6
CONTINUOUS
 90
10
 70
0
 10
19.2084764218
 20
-29.1536420029
 10
19.2168710026
 20
-29.1416496837
 10
19.225147254
 20
-29.1295766351
 10
19.2333058398
 20
-29.1174219222
 10
19.2413460394
 20
-29.1051867405
 10
19.2492699476
 20
-29.0928680467
 10
19.2570822677
 20
-29.0804584222
 10
19.264784811
 20
-29.0679546246
 10
19.2723767036
 20
-29.0553577252
 10
19.2798584409
 20
-29.0426666451
  0
LINE
  5
498
100
AcDbEntity
  8
0
100
AcDbLine
 62
250
  6
CONTINUOUS
 10
16.5274637258
 20
-27.0921686515
 11
16.7162910111
 21
-26.8497360524
  0
LINE
  5
499
100
AcDbEntity
  8
RACCORDO
100
AcDbLine
 62
7
  6
CONTINUOUS
 10
35.3269750436
 20
-7.1891753435
 11
34.3976154954
 21
-8.3412279036
  0
LWPOLYLINE
  5
49A
100
AcDbEntity
  8
RACCORDO
100
AcDbPolyline
 62
250
  6
CONTINUOUS
 90
8
 70
0
 10
34.6611857569
 20
-12.7740558287
 10
34.6821786166
 20
-12.7597345957
 10
34.7054435988
 20
-12.7477329012
 10
34.7309807034
 20
-12.7380507451
 10
34.7595177537
 20
-12.7304884406
 10
34.7903269264
 20
-12.7252456746
 10
34.821224752
 20
-12.7229215079
 10
34.8514834071
 20
-12.7237156274
  0
LWPOLYLINE
  5
49B
100
AcDbEntity
  8
SUPERFICI
100
AcDbPolyline
 62
250
  6
CONTINUOUS
 90
4
 70
0
 10
16.7222648492
 20
-27.0902332927
 10
16.6792756281
 20
-27.1034480305
 10
16.6314587087
 20
-27.1082143724
 10
16.5803341385
 20
-27.1044063236
  0
LWPOLYLINE
  5
49C
100
AcDbEntity
  8
SUPERFICI
100
AcDbPolyline
 62
250
  6
CONTINUOUS
 90
10
 70
0
 10
-27.890578118
 20
27.6695196046
 10
-28.01846962
 20
27.6604891907
 10
-28.1437486346
 20
27.6489427816
 10
-28.2663874591
 20
27.63492154
 10
-28.3863480996
 20
27.6184701102
 10
-28.5036490806
 20
27.5996269926
 10
-28.6182929992
 20
27.5784361124
 10
-28.7302219549
 20
27.5549526439
 10
-28.8394054339
 20
27.5292299589
 10
-28.945903082
 20
27.5013044597
  0
LWPOLYLINE
  5
49D
100
AcDbEntity
  8
SUPERFICI
100
AcDbPolyline
 62
250
  6
CONTINUOUS
 90
10
 70
0
 10
-31.3102723784
 20
33.1411077813
 10
-31.4703765283
 20
33.1563002536
 10
-31.6277514984
 20
33.1685440148
 10
-31.7823515016
 20
33.1778167603
 10
-31.9341369722
 20
33.184100574
 10
-32.0830187168
 20
33.1873760007
 10
-32.2290147231
 20
33.1876713058
 10
-32.372140144
 20
33.1849823035
 10
-32.5122055741
 20
33.1791851829
 10
-32.6488550342
 20
33.1701104579
  0
LWPOLYLINE
  5
49E
100
AcDbEntity
  8
SUPERFICI
100
AcDbPolyline
 62
250
  6
CONTINUOUS
 90
10
 70
0
 10
-36.2560368176
 20
39.4814851813
 10
-36.2139705785
 20
39.4738970759
 10
-36.1720824797
 20
39.4656971761
 10
-36.1303873629
 20
39.4569018965
 10
-36.0890325178
 20
39.4475586715
 10
-36.047899251
 20
39.4376568821
 10
-36.0066006741
 20
39.4271076937
 10
-35.9650146788
 20
39.4158724355
 10
-35.9232861524
 20
39.4039827544
 10
-35.881426992
 20
39.3914374817
  0
LWPOLYLINE
  5
49F
100
AcDbEntity
  8
0
100
AcDbPolyline
 62
7
  6
CONTINUOUS
 90
12
 70
0
 10
-33.817171515
 20
42.1793707703
 10
-34.1010278341
 20
42.2527604643
 10
-34.3753078752
 20
42.2993320456
 10
-34.6400116383
 20
42.3190855141
 10
-34.8978107673
 20
42.3116525087
 10
-35.1460336183
 20
42.2774013906
 10
-35.3766652596
 20
42.2174372425
 10
-35.5891307648
 20
42.1309209125
 10
-35.7840050603
 20
42.0186915526
 10
-35.9549979936
 20
41.8843717019
 10
-36.1013304675
 20
41.7272397921
 10
-36.1671014917
 20
41.6381028245
  0
LINE
  5
4A0
100
AcDbEntity
  8
0
100
AcDbLine
 62
7
  6
CONTINUOUS
 10
-33.8171457228
 20
42.1793628497
 11
32.092403074
 21
21.9391789431
  0
LWPOLYLINE
  5
4A1
100
AcDbEntity
  8
SUPERFICI
100
AcDbPolyline
 62
250
  6
CONTINUOUS
 90
13
 70
0
 10
30.4039848071
 20
19.0108377771
 10
30.6760214794
 20
18.8773228205
 10
30.9397277855
 20
18.7205149034
 10
31.1918254078
 20
18.5425974998
 10
31.4283388485
 20
18.3467881946
 10
31.6474419467
 20
18.1350332087
 10
31.8487804982
 20
17.9073765612
 10
32.030103807
 20
17.6651200603
 10
32.1873483874
 20
17.4122786692
 10
32.3173309834
 20
17.1529521543
 10
32.4177816596
 20
16.8908618187
 10
32.4870632208
 20
16.6292258039
 10
32.5237567335
 20
16.3716512381
  0
LINE
  5
4A2
100
AcDbEntity
  8
SUPERFICI
100
AcDbLine
 62
250
  6
CONTINUOUS
 10
27.1500590341
 20
13.3115732349
 11
27.1742028682
 21
13.2637407543
  0
LINE
  5
4A3
100
AcDbEntity
  8
SUPERFICI
100
AcDbLine
 62
250
  6
CONTINUOUS
 10
27.1742028682
 20
13.2637407543
 11
27.1979868381
 21
13.2156073662
  0
LINE
  5
4A4
100
AcDbEntity
  8
SUPERFICI
100
AcDbLine
 62
250
  6
CONTINUOUS
 10
27.1979868381
 20
13.2156073662
 11
27.2214188164
 21
13.1671702654
  0
LWPOLYLINE
  5
4A5
100
AcDbEntity
  8
SUPERFICI
100
AcDbPolyline
 62
250
  6
CONTINUOUS
 90
3
 70
0
 10
27.2214188164
 20
13.1671702654
 10
27.2445009088
 20
13.1184402328
 10
27.2559149257
 20
13.0939618161
  0
LWPOLYLINE
  5
4A6
100
AcDbEntity
  8
SUPERFICI
100
AcDbPolyline
 62
250
  6
CONTINUOUS
 90
10
 70
0
 10
27.2559149257
 20
13.0939618161
 10
27.318305995
 20
12.9555102828
 10
27.3781435864
 20
12.8149273311
 10
27.4354862346
 20
12.6724668903
 10
27.4904084951
 20
12.5282715216
 10
27.5429189592
 20
12.3823331416
 10
27.5929983604
 20
12.2346762342
 10
27.6406437081
 20
12.0853646917
 10
27.6858740058
 20
11.9344098939
 10
27.7287104447
 20
11.7818358739
  0
LWPOLYLINE
  5
4A7
100
AcDbEntity
  8
SUPERFICI
100
AcDbPolyline
 62
250
  6
CONTINUOUS
 90
10
 70
0
 10
27.7287104447
 20
11.7818358739
 10
27.7985014332
 20
11.5089857007
 10
27.8608823205
 20
11.2327824027
 10
27.9163492367
 20
10.9531350251
 10
27.9653780044
 20
10.670256674
 10
28.0085972495
 20
10.3842838309
 10
28.0468059346
 20
10.0953078749
 10
28.0806657775
 20
9.8033707554
 10
28.1103682244
 20
9.508434207
 10
28.1360457146
 20
9.2104632867
  0
LWPOLYLINE
  5
4A8
100
AcDbEntity
  8
0
100
AcDbPolyline
 62
7
  6
CONTINUOUS
 90
16
 70
0
 10
34.8222756268
 20
18.7926025599
 10
34.8001698474
 20
19.0449057853
 10
34.7506186835
 20
19.2978815939
 10
34.6736221353
 20
19.5515299857
 10
34.5677455794
 20
19.8086252288
 10
34.4344236392
 20
20.0663930551
 10
34.2779601843
 20
20.3165106605
 10
34.0976002987
 20
20.558727558
 10
33.8940988985
 20
20.7932942347
 10
33.6740246018
 20
21.0126393473
 10
33.4368357033
 20
21.2162666504
 10
33.1830739083
 20
21.4046723895
 10
32.9209329511
 20
21.5717739578
 10
32.6531440763
 20
21.7155438196
 10
32.3769760392
 20
21.8380095106
 10
32.0924288398
 20
21.9391710307
  0
LWPOLYLINE
  5
4A9
100
AcDbEntity
  8
SUPERFICI
100
AcDbPolyline
 62
250
  6
CONTINUOUS
 90
9
 70
0
 10
32.5288046872
 20
16.2799462849
 10
32.5284137706
 20
16.2914270283
 10
32.5279532741
 20
16.3029045065
 10
32.527423616
 20
16.3143791386
 10
32.5268252872
 20
16.3258495888
 10
32.5261589041
 20
16.3373127516
 10
32.5254250335
 20
16.3487672782
 10
32.5246241396
 20
16.3602135919
 10
32.5237567335
 20
16.3716512381
  0
LINE
  5
4AA
100
AcDbEntity
  8
RACCORDO
100
AcDbLine
 62
7
  6
CONTINUOUS
 10
34.265516134
 20
-8.7246969791
 11
34.3899280927
 21
-13.725861948
  0
LINE
  5
4AB
100
AcDbEntity
  8
RACCORDO
100
AcDbLine
 62
7
  6
CONTINUOUS
 10
34.3829411073
 20
-12.7644028025
 11
34.3796612519
 21
-12.632557775
  0
LINE
  5
4AC
100
AcDbEntity
  8
RACCORDO
100
AcDbLine
 62
7
  6
CONTINUOUS
 10
34.8222761848
 20
18.79258013
 11
35.459074405
 21
-6.8057062681
  0
LINE
  5
4AD
100
AcDbEntity
  8
RACCORDO
100
AcDbLine
 62
7
  6
CONTINUOUS
 10
35.6127954212
 20
-12.9850492258
 11
36.2495936414
 21
-38.5833356239
  0
LWPOLYLINE
  5
4AE
100
AcDbEntity
  8
SUPERFICI
100
AcDbPolyline
 62
250
  6
CONTINUOUS
 90
10
 70
0
 10
32.5288046872
 20
16.2799462849
 10
33.9566929564
 20
-41.1189152263
 10
33.9568716227
 20
-41.1303307857
 10
33.9569794742
 20
-41.141699978
 10
33.9570169565
 20
-41.153023483
 10
33.9569845007
 20
-41.1643002528
 10
33.9568825769
 20
-41.1755275291
 10
33.9567116932
 20
-41.1867042976
 10
33.9564723417
 20
-41.1978312709
 10
33.9561650179
 20
-41.2089083033
  0
LWPOLYLINE
  5
4AF
100
AcDbEntity
  8
SUPERFICI
100
AcDbPolyline
 62
250
  6
CONTINUOUS
 90
7
 70
0
 10
32.9598497967
 20
-41.5438542913
 10
32.9609475545
 20
-41.5189747021
 10
32.9616108244
 20
-41.4938071428
 10
32.9618893654
 20
-41.4683725747
 10
32.9618346075
 20
-41.4426840812
 10
32.9615008944
 20
-41.4167723708
 10
32.9609525399
 20
-41.3906847305
  0
LWPOLYLINE
  5
4B0
100
AcDbEntity
  8
SUPERFICI
100
AcDbPolyline
 62
250
  6
CONTINUOUS
 90
10
 70
0
 10
28.9245062308
 20
-36.2872730467
 10
28.9816920744
 20
-36.0534162287
 10
29.0311856152
 20
-35.8115684793
 10
29.0734860619
 20
-35.5619444992
 10
29.1090872478
 20
-35.3050551906
 10
29.1386343198
 20
-35.0414281888
 10
29.1629431227
 20
-34.7716507547
 10
29.1826876654
 20
-34.4961750186
 10
29.1980604233
 20
-34.2150806186
 10
29.2091941231
 20
-33.9284140522
  0
LWPOLYLINE
  5
4B1
100
AcDbEntity
  8
SUPERFICI
100
AcDbPolyline
 62
250
  6
CONTINUOUS
 90
10
 70
0
 10
24.1587350864
 20
-32.1115156168
 10
24.2413180335
 20
-31.9322809874
 10
24.3171253298
 20
-31.7447961022
 10
24.385884205
 20
-31.5489777851
 10
24.4472954934
 20
-31.3448326755
 10
24.5010518906
 20
-31.1324571467
 10
24.5469178722
 20
-30.9117355567
 10
24.5846330846
 20
-30.6827127435
 10
24.6139251867
 20
-30.4456068616
 10
24.6345548942
 20
-30.2006165224
  0
LINE
  5
4B2
100
AcDbEntity
  8
RACCORDO
100
AcDbLine
 62
250
  6
CONTINUOUS
 10
34.373148825
 20
-13.0513617892
 11
34.6611857569
 21
-12.7740558287
  0
LINE
  5
4B3
100
AcDbEntity
  8
RACCORDO
100
AcDbLine
 62
7
  6
CONTINUOUS
 10
34.5335562602
 20
-13.8058327373
 11
35.4691672536
 21
-12.9050784365
  0
LWPOLYLINE
  5
4B4
100
AcDbEntity
  8
SUPERFICI
100
AcDbPolyline
 62
250
  6
CONTINUOUS
 90
10
 70
0
 10
-32.6488550342
 20
33.1701104579
 10
-32.9265651518
 20
33.1391631684
 10
-33.1865360512
 20
33.091054655
 10
-33.4262269138
 20
33.0249321158
 10
-33.6416635604
 20
32.9415590913
 10
-33.8345151475
 20
32.8405682038
 10
-34.0116915236
 20
32.7179243811
 10
-34.1750334704
 20
32.5731865326
 10
-34.3223321063
 20
32.4100972407
 10
-34.4550576402
 20
32.2299077379
  0
LWPOLYLINE
  5
4B5
100
AcDbEntity
  8
SUPERFICI
100
AcDbPolyline
 62
250
  6
CONTINUOUS
 90
16
 70
0
 10
31.526861845
 20
16.0608995897
 10
31.4998926967
 20
16.231385708
 10
31.4534852546
 20
16.4059458588
 10
31.3882387654
 20
16.582345223
 10
31.3042714137
 20
16.7590906499
 10
31.2018811738
 20
16.934633133
 10
31.0827123511
 20
17.1059235238
 10
30.9485109975
 20
17.2704074461
 10
30.8004335006
 20
17.426580066
 10
30.6401369194
 20
17.5728892398
 10
30.4699213159
 20
17.7073141441
 10
30.2908983419
 20
17.8288756869
 10
30.1026431831
 20
17.9375288623
 10
29.9067113774
 20
18.0317710166
 10
29.7054804339
 20
18.1091110169
 10
29.5008560296
 20
18.1732034617
  0
LWPOLYLINE
  5
4B6
100
AcDbEntity
  8
SUPERFICI
100
AcDbPolyline
 62
250
  6
CONTINUOUS
 90
6
 70
0
 10
33.9561650179
 20
-41.2089083033
 10
33.9329043854
 20
-41.4415460981
 10
33.8781284872
 20
-41.6600676693
 10
33.7925499429
 20
-41.861632764
 10
33.6772818882
 20
-42.0436214059
 10
33.5928040869
 20
-42.1442253653
  0
LWPOLYLINE
  5
4B7
100
AcDbEntity
  8
SUPERFICI
100
AcDbPolyline
 62
250
  6
CONTINUOUS
 90
12
 70
0
 10
32.9598722104
 20
-41.5438625102
 10
32.9410353538
 20
-41.7002820385
 10
32.9026651816
 20
-41.8488077958
 10
32.8452581215
 20
-41.9875414338
 10
32.7688593166
 20
-42.1150399584
 10
32.6736936676
 20
-42.229914933
 10
32.5612779233
 20
-42.3300879385
 10
32.4332569512
 20
-42.4140459174
 10
32.2907294963
 20
-42.480976565
 10
32.1353003116
 20
-42.5303294081
 10
31.9692035548
 20
-42.5614760383
 10
31.7935189054
 20
-42.5741102999
  0
LWPOLYLINE
  5
4B8
100
AcDbEntity
  8
SUPERFICI
100
AcDbPolyline
 62
250
  6
CONTINUOUS
 90
10
 70
0
 10
23.63857516
 20
-32.8966771582
 10
23.7038477154
 20
-32.8204571823
 10
23.7673595343
 20
-32.7415234501
 10
23.8290815835
 20
-32.6598269989
 10
23.8889199153
 20
-32.575393048
 10
23.9468200804
 20
-32.4882227236
 10
24.0027944366
 20
-32.3982319234
 10
24.0568215598
 20
-32.3054024769
 10
24.1088202217
 20
-32.2098153997
 10
24.1587350864
 20
-32.1115156168
  0
LWPOLYLINE
  5
4B9
100
AcDbEntity
  8
SUPERFICI
100
AcDbPolyline
 62
250
  6
CONTINUOUS
 90
10
 70
0
 10
23.5320910768
 20
-33.0114816826
 10
23.5441375703
 20
-32.9990462414
 10
23.5561274325
 20
-32.9865344958
 10
23.568061666
 20
-32.9739450616
 10
23.5799405864
 20
-32.9612772941
 10
23.5917659343
 20
-32.9485290401
 10
23.6035408325
 20
-32.9356966025
 10
23.6152669905
 20
-32.9227777535
 10
23.6269447487
 20
-32.9097717695
 10
23.63857516
 20
-32.8966771582
  0
LWPOLYLINE
  5
4BA
100
AcDbEntity
  8
SUPERFICI
100
AcDbPolyline
 62
250
  6
CONTINUOUS
 90
10
 70
0
 10
21.9960026476
 20
-33.8922840265
 10
22.200122115
 20
-33.8303048922
 10
22.3962750599
 20
-33.7591543327
 10
22.5833434286
 20
-33.6792794234
 10
22.759632056
 20
-33.5917038473
 10
22.9264111886
 20
-33.4961605378
 10
23.0871445968
 20
-33.3905618628
 10
23.2425308048
 20
-33.2741043924
 10
23.3909232185
 20
-33.1477293055
 10
23.5320910768
 20
-33.0114816826
  0
LWPOLYLINE
  5
4BB
100
AcDbEntity
  8
SUPERFICI
100
AcDbPolyline
 62
250
  6
CONTINUOUS
 90
10
 70
0
 10
28.5102163987
 20
-37.3269836554
 10
28.5666266285
 20
-37.2250148506
 10
28.6203372049
 20
-37.1193014418
 10
28.6714202949
 20
-37.0101374954
 10
28.7199587496
 20
-36.8977139111
 10
28.7659608869
 20
-36.7820277988
 10
28.8094083715
 20
-36.6630920955
 10
28.8503013701
 20
-36.5409698251
 10
28.888659749
 20
-36.4156843029
 10
28.9245062308
 20
-36.2872730467
  0
LWPOLYLINE
  5
4BC
100
AcDbEntity
  8
SUPERFICI
100
AcDbPolyline
 62
250
  6
CONTINUOUS
 90
10
 70
0
 10
28.4136409237
 20
-37.4824303819
 10
28.42474788
 20
-37.4656831481
 10
28.4357583457
 20
-37.4488042824
 10
28.4466735103
 20
-37.4317936205
 10
28.4574952764
 20
-37.4146499164
 10
28.4682242004
 20
-37.3973740955
 10
28.4788595691
 20
-37.3799693101
 10
28.4894021074
 20
-37.362436576
 10
28.4998539026
 20
-37.3447747165
 10
28.5102163987
 20
-37.3269836554
  0
LWPOLYLINE
  5
4BD
100
AcDbEntity
  8
0
100
AcDbPolyline
 62
7
  6
CONTINUOUS
 90
7
 70
0
 10
35.8525161916
 20
-39.7148354747
 10
35.919633725
 20
-39.636715296
 10
36.0420848361
 20
-39.4574928958
 10
36.136701725
 20
-39.2619672473
 10
36.2021667719
 20
-39.0520674312
 10
36.2397975967
 20
-38.8258643666
 10
36.2495941993
 20
-38.5833580537
  0
LINE
  5
4BE
100
AcDbEntity
  8
0
100
AcDbLine
 62
250
  6
CONTINUOUS
 10
36.2495936414
 20
-38.5833356239
 11
33.9564394495
 21
-41.1074521108
  0
LINE
  5
4BF
100
AcDbEntity
  8
SUPERFICI
100
AcDbLine
 62
7
  6
CONTINUOUS
 10
35.8526865218
 20
-39.7149811907
 11
33.5928084953
 21
-42.144220732
  0
LWPOLYLINE
  5
4C0
100
AcDbEntity
  8
SUPERFICI
100
AcDbPolyline
 62
250
  6
CONTINUOUS
 90
10
 70
0
 10
33.9531885783
 20
-40.9767722062
 10
33.8802123894
 20
-41.0416869632
 10
33.7940331151
 20
-41.0897652657
 10
33.6954841902
 20
-41.1196000062
 10
33.5856149939
 20
-41.1298505205
 10
33.4661930551
 20
-41.1191966822
 10
33.3398068774
 20
-41.0866407493
 10
33.2091885591
 20
-41.0314553814
 10
33.0771781778
 20
-40.952904303
 10
32.9472667485
 20
-40.8503974082
  0
LWPOLYLINE
  5
4C1
100
AcDbEntity
  8
SUPERFICI
100
AcDbPolyline
 62
250
  6
CONTINUOUS
 90
10
 70
0
 10
33.9561650142
 20
-41.2089084231
 10
33.8830062407
 20
-41.2738298776
 10
33.7968127238
 20
-41.3219215334
 10
33.6984255619
 20
-41.3518184746
 10
33.5888748065
 20
-41.3622173121
 10
33.469908407
 20
-41.3518246382
 10
33.3440966409
 20
-41.3196755486
 10
33.2141080711
 20
-41.2650781288
 10
33.0826664324
 20
-41.1873149695
 10
32.9531228889
 20
-41.085805039
  0
ARC
  5
4C2
100
AcDbEntity
  8
RACCORDO
100
AcDbCircle
 62
7
  6
CONTINUOUS
 10
34.6509982021
 20
-13.1850614805
 40
0.5
100
AcDbArc
 50
111.0605001778
 51
124.7311646238
  0
ARC
  5
4C3
100
AcDbEntity
  8
RACCORDO
100
AcDbCircle
 62
7
  6
CONTINUOUS
 10
12.7085416466
 20
-23.3807730883
 40
0.2
100
AcDbArc
 50
324.6553662461
 51
1.4250300306
  0
ARC
  5
4C4
100
AcDbEntity
  8
RACCORDO
100
AcDbCircle
 62
7
  6
CONTINUOUS
 10
-7.331523951
 20
-17.2266630906
 40
0.2
100
AcDbArc
 50
324.6553662461
 51
1.4250300306
  0
ELLIPSE
  5
4C5
100
AcDbEntity
  8
RACCORDO
100
AcDbEllipse
 62
7
  6
CONTINUOUS
 10
34.2286119153
 20
-12.7987885074
 30
0.0
 11
0.0999811795
 21
0.2830802499
 31
0.0
 40
0.4004932425
 41
-0.8097889447
 42
-0.3412546702
  0
ELLIPSE
  5
4C6
100
AcDbEntity
  8
RACCORDO
100
AcDbEllipse
 62
7
  6
CONTINUOUS
 10
7.5091300886
 20
-21.0710110233
 30
0.0
 11
0.066225087
 21
0.1888552206
 31
0.0
 40
0.3985724632
 41
0.7076711624
 42
0.76003104
  0
ELLIPSE
  5
4C7
100
AcDbEntity
  8
RACCORDO
100
AcDbEllipse
 62
7
  6
CONTINUOUS
 10
-12.5309355091
 20
-14.9169010255
 30
0.0
 11
0.066225087
 21
0.1888552206
 31
0.0
 40
0.3985724632
 41
0.7076711624
 42
0.76003104
  0
ELLIPSE
  5
4C8
100
AcDbEntity
  8
RACCORDO
100
AcDbEllipse
 62
7
  6
CONTINUOUS
 10
-7.1710209621
 20
-16.5628788563
 30
0.0
 11
0.0516258078
 21
0.1933488958
 31
0.0
 40
0.3268599536
 41
0.6798851829
 42
0.7322450604
  0
ELLIPSE
  5
4C9
100
AcDbEntity
  8
RACCORDO
100
AcDbEllipse
 62
7
  6
CONTINUOUS
 10
12.8690446355
 20
-22.716988854
 30
0.0
 11
0.0516258078
 21
0.1933488958
 31
0.0
 40
0.3268599536
 41
0.6798851829
 42
0.7322450604
  0
ELLIPSE
  5
4CA
100
AcDbEntity
  8
RACCORDO
100
AcDbEllipse
 62
7
  6
CONTINUOUS
 10
35.308047805
 20
-6.9719439827
 30
0.0
 11
0.0999622261
 21
0.2830862211
 31
0.0
 40
0.4004368298
 41
-2.2933476826
 42
-0.8098178184
  0
ELLIPSE
  5
4CB
100
AcDbEntity
  8
RACCORDO
100
AcDbEllipse
 62
7
  6
CONTINUOUS
 10
34.4165427339
 20
-8.5584592645
 30
0.0
 11
0.0999622261
 21
0.2830862211
 31
0.0
 40
0.4004368298
 41
0.848244971
 42
2.3317748352
  0
ELLIPSE
  5
4CC
100
AcDbEntity
  8
RACCORDO
100
AcDbEllipse
 62
7
  6
CONTINUOUS
 10
35.4617688212
 20
-13.1512869403
 30
0.0
 11
0.0999622261
 21
0.2830862211
 31
0.0
 40
0.4004368298
 41
5.4733674888
 42
6.956897353
  0
ELLIPSE
  5
4CD
100
AcDbEntity
  8
RACCORDO
100
AcDbEllipse
 62
7
  6
CONTINUOUS
 10
34.5409546927
 20
-13.5596242335
 30
0.0
 11
0.0999622261
 21
0.2830862211
 31
0.0
 40
0.4004368298
 41
2.3317748352
 42
3.8153046994
  0
ENDSEC
  0
SECTION
  2
OBJECTS
  0
DICTIONARY
  5
C
100
AcDbDictionary
280
0
281
1
  3
ACAD_GROUP
350
D
  3
ACAD_MLINESTYLE
350
17
  3
ACAD_LAYOUT
350
1A
  3
ACAD_PLOTSETTINGS
350
19
  3
ACAD_PLOTSTYLENAME
350
E
  0
DICTIONARY
  5
D
102
{ACAD_REACTORS
330
C
102
}
100
AcDbDictionary
280
0
281
1
  0
ACDBDICTIONARYWDFLT
  5
E
102
{ACAD_REACTORS
330
C
102
}
100
AcDbDictionary
281
1
  3
Normal
350
F
100
AcDbDictionaryWithDefault
340
F
  0
DICTIONARY
  5
17
102
{ACAD_REACTORS
330
C
102
}
100
AcDbDictionary
280
0
281
1
  3
Standard
350
18
  0
DICTIONARY
  5
19
102
{ACAD_REACTORS
330
C
102
}
100
AcDbDictionary
281
1
  0
DICTIONARY
  5
1A
102
{ACAD_REACTORS
330
C
102
}
100
AcDbDictionary
281
1
  3
Model
350
4CE
  3
Layout1
350
4CF
  0
ACDBPLACEHOLDER
  5
F
102
{ACAD_REACTORS
330
E
102
}
  0
MLINESTYLE
  5
18
102
{ACAD_REACTORS
330
17
102
}
100
AcDbMlineStyle
  2
STANDARD
 70
0
  3

 62
256
 51
90.0
 52
90.0
 71
2
 49
0.5
 62
256
  6
BYLAYER
 49
-0.5
 62
256
  6
BYLAYER
  0
LAYOUT
  5
4CE
102
{ACAD_REACTORS
330
1A
102
}
100
AcDbPlotSettings
  1

  2
none_device
  4
ISO_A4_(297.00_x_210.00_MM)
  6

 40
0.0
 41
0.0
 42
0.0
 43
0.0
 44
297.0
 45
210.0
 46
0.0
 47
0.0
 48
0.0
 49
0.0
140
0.0
141
0.0
142
1.0
143
1.0
 70
1024
 72
1
 73
0
 74
0
  7

 75
0
147
1.0
148
0.0
149
0.0
100
AcDbLayout
  1
Model
 70
0
 71
0
 10
0.0
 20
0.0
 11
297.0
 21
210.0
 12
0.0
 22
0.0
 32
0.0
 14
0.0
 24
0.0
 34
0.0
 15
0.0
 25
0.0
 35
0.0
146
0.0
 13
0.0
 23
0.0
 33
0.0
 16
1.0
 26
0.0
 36
0.0
 17
0.0
 27
1.0
 37
0.0
 76
0
330
216
345
0
346
0
  0
LAYOUT
  5
4CF
102
{ACAD_REACTORS
330
1A
102
}
100
AcDbPlotSettings
  1

  2
none_device
  4
ISO_A4_(297.00_x_210.00_MM)
  6

 40
0.0
 41
0.0
 42
0.0
 43
0.0
 44
297.0
 45
210.0
 46
0.0
 47
0.0
 48
0.0
 49
0.0
140
0.0
141
0.0
142
1.0
143
1.0
 70
0
 72
1
 73
0
 74
0
  7

 75
0
147
1.0
148
0.0
149
0.0
100
AcDbLayout
  1
Layout1
 70
0
 71
1
 10
0.0
 20
0.0
 11
297.0
 21
210.0
 12
0.0
 22
0.0
 32
0.0
 14
0.0
 24
0.0
 34
0.0
 15
0.0
 25
0.0
 35
0.0
146
0.0
 13
0.0
 23
0.0
 33
0.0
 16
1.0
 26
0.0
 36
0.0
 17
0.0
 27
1.0
 37
0.0
 76
0
330
217
345
0
346
0
  0
ENDSEC
  0
EOF
