  0
SECTION
  2
HEADER
  9
$ACADVER
  1
AC1032
  9
$ACADMAINTVER
 90
      155
  9
$DWGCODEPAGE
  3
ANSI_1252
  9
$REQUIREDVERSIONS
160
                 0
  9
$INSBASE
 10
0.0
 20
0.0
 30
0.0
  9
$EXTMIN
 10
1.000000000000000E+20
 20
1.000000000000000E+20
 30
1.000000000000000E+20
  9
$EXTMAX
 10
-1.000000000000000E+20
 20
-1.000000000000000E+20
 30
-1.000000000000000E+20
  9
$LIMMIN
 10
0.0
 20
0.0
  9
$LIMMAX
 10
12.0
 20
9.0
  9
$ORTHOMODE
 70
     0
  9
$REGENMODE
 70
     1
  9
$FILLMODE
 70
     1
  9
$QTEXTMODE
 70
     0
  9
$MIRRTEXT
 70
     0
  9
$LTSCALE
 40
1.0
  9
$ATTMODE
 70
     1
  9
$TEXTSIZE
 40
0.2
  9
$TRACEWID
 40
0.05
  9
$TEXTSTYLE
  7
Standard
  9
$CLAYER
  8
0
  9
$CELTYPE
  6
ByLayer
  9
$CECOLOR
 62
   256
  9
$CELTSCALE
 40
1.0
  9
$DISPSILH
 70
     0
  9
$DIMSCALE
 40
1.0
  9
$DIMASZ
 40
0.18
  9
$DIMEXO
 40
0.0625
  9
$DIMDLI
 40
0.38
  9
$DIMRND
 40
0.0
  9
$DIMDLE
 40
0.0
  9
$DIMEXE
 40
0.18
  9
$DIMTP
 40
0.0
  9
$DIMTM
 40
0.0
  9
$DIMTXT
 40
0.18
  9
$DIMCEN
 40
0.09
  9
$DIMTSZ
 40
0.0
  9
$DIMTOL
 70
     0
  9
$DIMLIM
 70
     0
  9
$DIMTIH
 70
     1
  9
$DIMTOH
 70
     1
  9
$DIMSE1
 70
     0
  9
$DIMSE2
 70
     0
  9
$DIMTAD
 70
     0
  9
$DIMZIN
 70
     0
  9
$DIMBLK
  1

  9
$DIMASO
 70
     1
  9
$DIMSHO
 70
     1
  9
$DIMPOST
  1

  9
$DIMAPOST
  1

  9
$DIMALT
 70
     0
  9
$DIMALTD
 70
     2
  9
$DIMALTF
 40
25.4
  9
$DIMLFAC
 40
1.0
  9
$DIMTOFL
 70
     0
  9
$DIMTVP
 40
0.0
  9
$DIMTIX
 70
     0
  9
$DIMSOXD
 70
     0
  9
$DIMSAH
 70
     0
  9
$DIMBLK1
  1

  9
$DIMBLK2
  1

  9
$DIMSTYLE
  2
Standard
  9
$DIMCLRD
 70
     0
  9
$DIMCLRE
 70
     0
  9
$DIMCLRT
 70
     0
  9
$DIMTFAC
 40
1.0
  9
$DIMGAP
 40
0.09
  9
$DIMJUST
 70
     0
  9
$DIMSD1
 70
     0
  9
$DIMSD2
 70
     0
  9
$DIMTOLJ
 70
     1
  9
$DIMTZIN
 70
     0
  9
$DIMALTZ
 70
     0
  9
$DIMALTTZ
 70
     0
  9
$DIMUPT
 70
     0
  9
$DIMDEC
 70
     4
  9
$DIMTDEC
 70
     4
  9
$DIMALTU
 70
     2
  9
$DIMALTTD
 70
     2
  9
$DIMTXSTY
  7
Standard
  9
$DIMAUNIT
 70
     0
  9
$DIMADEC
 70
     0
  9
$DIMALTRND
 40
0.0
  9
$DIMAZIN
 70
     0
  9
$DIMDSEP
 70
    46
  9
$DIMATFIT
 70
     3
  9
$DIMFRAC
 70
     0
  9
$DIMLDRBLK
  1

  9
$DIMLUNIT
 70
     2
  9
$DIMLWD
 70
    -2
  9
$DIMLWE
 70
    -2
  9
$DIMTMOVE
 70
     0
  9
$DIMFXL
 40
1.0
  9
$DIMFXLON
 70
     0
  9
$DIMJOGANG
 40
0.7853981633974483
  9
$DIMTFILL
 70
     0
  9
$DIMTFILLCLR
 70
     0
  9
$DIMARCSYM
 70
     0
  9
$DIMLTYPE
  6

  9
$DIMLTEX1
  6

  9
$DIMLTEX2
  6

  9
$DIMTXTDIRECTION
 70
     0
  9
$LUNITS
 70
     2
  9
$LUPREC
 70
     4
  9
$SKETCHINC
 40
0.1
  9
$FILLETRAD
 40
0.0
  9
$AUNITS
 70
     0
  9
$AUPREC
 70
     0
  9
$MENU
  1
.
  9
$ELEVATION
 40
0.0
  9
$PELEVATION
 40
0.0
  9
$THICKNESS
 40
0.0
  9
$LIMCHECK
 70
     0
  9
$CHAMFERA
 40
0.0
  9
$CHAMFERB
 40
0.0
  9
$CHAMFERC
 40
0.0
  9
$CHAMFERD
 40
0.0
  9
$SKPOLY
 70
     0
  9
$TDCREATE
 40
2459971.587488426
  9
$TDUCREATE
 40
2459971.545821759
  9
$TDUPDATE
 40
2459971.587488426
  9
$TDUUPDATE
 40
2459971.545821759
  9
$TDINDWG
 40
0.0000000000
  9
$TDUSRTIMER
 40
0.0000000000
  9
$USRTIMER
 70
     1
  9
$ANGBASE
 50
0.0
  9
$ANGDIR
 70
     0
  9
$PDMODE
 70
     0
  9
$PDSIZE
 40
0.0
  9
$PLINEWID
 40
0.0
  9
$SPLFRAME
 70
     0
  9
$SPLINETYPE
 70
     6
  9
$SPLINESEGS
 70
     8
  9
$HANDSEED
  5
27D
  9
$SURFTAB1
 70
     6
  9
$SURFTAB2
 70
     6
  9
$SURFTYPE
 70
     6
  9
$SURFU
 70
     6
  9
$SURFV
 70
     6
  9
$UCSBASE
  2

  9
$UCSNAME
  2

  9
$UCSORG
 10
0.0
 20
0.0
 30
0.0
  9
$UCSXDIR
 10
1.0
 20
0.0
 30
0.0
  9
$UCSYDIR
 10
0.0
 20
1.0
 30
0.0
  9
$UCSORTHOREF
  2

  9
$UCSORTHOVIEW
 70
     0
  9
$UCSORGTOP
 10
0.0
 20
0.0
 30
0.0
  9
$UCSORGBOTTOM
 10
0.0
 20
0.0
 30
0.0
  9
$UCSORGLEFT
 10
0.0
 20
0.0
 30
0.0
  9
$UCSORGRIGHT
 10
0.0
 20
0.0
 30
0.0
  9
$UCSORGFRONT
 10
0.0
 20
0.0
 30
0.0
  9
$UCSORGBACK
 10
0.0
 20
0.0
 30
0.0
  9
$PUCSBASE
  2

  9
$PUCSNAME
  2

  9
$PUCSORG
 10
0.0
 20
0.0
 30
0.0
  9
$PUCSXDIR
 10
1.0
 20
0.0
 30
0.0
  9
$PUCSYDIR
 10
0.0
 20
1.0
 30
0.0
  9
$PUCSORTHOREF
  2

  9
$PUCSORTHOVIEW
 70
     0
  9
$PUCSORGTOP
 10
0.0
 20
0.0
 30
0.0
  9
$PUCSORGBOTTOM
 10
0.0
 20
0.0
 30
0.0
  9
$PUCSORGLEFT
 10
0.0
 20
0.0
 30
0.0
  9
$PUCSORGRIGHT
 10
0.0
 20
0.0
 30
0.0
  9
$PUCSORGFRONT
 10
0.0
 20
0.0
 30
0.0
  9
$PUCSORGBACK
 10
0.0
 20
0.0
 30
0.0
  9
$USERI1
 70
     0
  9
$USERI2
 70
     0
  9
$USERI3
 70
     0
  9
$USERI4
 70
     0
  9
$USERI5
 70
     0
  9
$USERR1
 40
0.0
  9
$USERR2
 40
0.0
  9
$USERR3
 40
0.0
  9
$USERR4
 40
0.0
  9
$USERR5
 40
0.0
  9
$WORLDVIEW
 70
     1
  9
$SHADEDGE
 70
     3
  9
$SHADEDIF
 70
    70
  9
$TILEMODE
 70
     1
  9
$MAXACTVP
 70
    64
  9
$PINSBASE
 10
0.0
 20
0.0
 30
0.0
  9
$PLIMCHECK
 70
     0
  9
$PEXTMIN
 10
1.000000000000000E+20
 20
1.000000000000000E+20
 30
1.000000000000000E+20
  9
$PEXTMAX
 10
-1.000000000000000E+20
 20
-1.000000000000000E+20
 30
-1.000000000000000E+20
  9
$PLIMMIN
 10
0.0
 20
0.0
  9
$PLIMMAX
 10
12.0
 20
9.0
  9
$UNITMODE
 70
     0
  9
$VISRETAIN
 70
     1
  9
$PLINEGEN
 70
     0
  9
$PSLTSCALE
 70
     1
  9
$TREEDEPTH
 70
  3020
  9
$CMLSTYLE
  2
Standard
  9
$CMLJUST
 70
     0
  9
$CMLSCALE
 40
1.0
  9
$PROXYGRAPHICS
 70
     1
  9
$MEASUREMENT
 70
     0
  9
$CELWEIGHT
370
    -1
  9
$ENDCAPS
280
     0
  9
$JOINSTYLE
280
     0
  9
$LWDISPLAY
290
     1
  9
$INSUNITS
 70
     4
  9
$HYPERLINKBASE
  1

  9
$STYLESHEET
  1

  9
$XEDIT
290
     1
  9
$CEPSNTYPE
380
     0
  9
$PSTYLEMODE
290
     1
  9
$FINGERPRINTGUID
  2
{29C84AAC-C387-674F-97C5-5345ED0E5915}
  9
$VERSIONGUID
  2
{C3BA4DB2-AE19-DA4E-9E54-048512561FCD}
  9
$EXTNAMES
290
     1
  9
$PSVPSCALE
 40
0.0
  9
$OLESTARTUP
290
     0
  9
$SORTENTS
280
   127
  9
$INDEXCTL
280
     0
  9
$HIDETEXT
280
     1
  9
$XCLIPFRAME
280
     2
  9
$HALOGAP
280
     0
  9
$OBSCOLOR
 70
   257
  9
$OBSLTYPE
280
     0
  9
$INTERSECTIONDISPLAY
280
     0
  9
$INTERSECTIONCOLOR
 70
   257
  9
$DIMASSOC
280
     2
  9
$PROJECTNAME
  1

  9
$CAMERADISPLAY
290
     0
  9
$LENSLENGTH
 40
50.0
  9
$CAMERAHEIGHT
 40
0.0
  9
$STEPSPERSEC
 40
2.0
  9
$STEPSIZE
 40
6.0
  9
$3DDWFPREC
 40
2.0
  9
$PSOLWIDTH
 40
0.25
  9
$PSOLHEIGHT
 40
4.0
  9
$LOFTANG1
 40
1.570796326794896
  9
$LOFTANG2
 40
1.570796326794896
  9
$LOFTMAG1
 40
0.0
  9
$LOFTMAG2
 40
0.0
  9
$LOFTPARAM
 70
     7
  9
$LOFTNORMALS
280
     1
  9
$LATITUDE
 40
37.795
  9
$LONGITUDE
 40
-122.394
  9
$NORTHDIRECTION
 40
0.0
  9
$TIMEZONE
 70
 -8000
  9
$LIGHTGLYPHDISPLAY
280
     1
  9
$TILEMODELIGHTSYNCH
280
     1
  9
$CMATERIAL
347
11
  9
$SOLIDHIST
280
     0
  9
$SHOWHIST
280
     1
  9
$DWFFRAME
280
     2
  9
$DGNFRAME
280
     0
  9
$REALWORLDSCALE
290
     1
  9
$INTERFERECOLOR
 62
     1
  9
$INTERFEREOBJVS
345
33
  9
$INTERFEREVPVS
346
30
  9
$CSHADOW
280
     0
  9
$SHADOWPLANELOCATION
 40
0.0
  0
ENDSEC
  0
SECTION
  2
CLASSES
  0
CLASS
  1
ACDBDICTIONARYWDFLT
  2
AcDbDictionaryWithDefault
  3
ObjectDBX Classes
 90
        0
 91
        1
280
     0
281
     0
  0
CLASS
  1
MATERIAL
  2
AcDbMaterial
  3
ObjectDBX Classes
 90
     1153
 91
        3
280
     0
281
     0
  0
CLASS
  1
VISUALSTYLE
  2
AcDbVisualStyle
  3
ObjectDBX Classes
 90
     4095
 91
       24
280
     0
281
     0
  0
CLASS
  1
SCALE
  2
AcDbScale
  3
ObjectDBX Classes
 90
     1153
 91
       17
280
     0
281
     0
  0
CLASS
  1
TABLESTYLE
  2
AcDbTableStyle
  3
ObjectDBX Classes
 90
     4095
 91
        1
280
     0
281
     0
  0
CLASS
  1
MLEADERSTYLE
  2
AcDbMLeaderStyle
  3
ACDB_MLEADERSTYLE_CLASS
 90
     4095
 91
        1
280
     0
281
     0
  0
CLASS
  1
ACDBSECTIONVIEWSTYLE
  2
AcDbSectionViewStyle
  3
ObjectDBX Classes
 90
     1025
 91
        1
280
     0
281
     0
  0
CLASS
  1
ACDBDETAILVIEWSTYLE
  2
AcDbDetailViewStyle
  3
ObjectDBX Classes
 90
     1025
 91
        1
280
     0
281
     0
  0
CLASS
  1
DICTIONARYVAR
  2
AcDbDictionaryVar
  3
ObjectDBX Classes
 90
        0
 91
        5
280
     0
281
     0
  0
CLASS
  1
CELLSTYLEMAP
  2
AcDbCellStyleMap
  3
ObjectDBX Classes
 90
     1152
 91
        1
280
     0
281
     0
  0
ENDSEC
  0
SECTION
  2
TABLES
  0
TABLE
  2
VPORT
  5
8
330
0
100
AcDbSymbolTable
 70
     1
  0
VPORT
  5
57
330
8
100
AcDbSymbolTableRecord
100
AcDbViewportTableRecord
  2
*Active
 70
     0
 10
0.0
 20
0.0
 11
1.0
 21
1.0
 12
0.0
 22
0.0
 13
0.0
 23
0.0
 14
1.0
 24
1.0
 15
0.0
 25
0.0
 16
0.0
 26
0.0
 36
1.0
 17
104.9999970067687
 27
148.5000119155985
 37
0.0
 40
302.940024307821
 41
0.7070706301791173
 42
50.0
 43
0.0
 44
0.0
 50
0.0
 51
0.0
 71
     0
 72
   100
 73
     1
 74
     0
 75
     1
 76
     0
 77
     0
 78
     0
281
     0
 65
     1
110
0.0
120
0.0
130
0.0
111
1.0
121
0.0
131
0.0
112
0.0
122
1.0
132
0.0
 79
     0
146
0.0
 60
     3
 61
     5
292
     1
282
     1
141
0.0
142
0.0
 63
   250
421
  3355443
  0
ENDTAB
  0
TABLE
  2
LTYPE
  5
5
330
0
100
AcDbSymbolTable
 70
     1
  0
LTYPE
  5
5B
330
5
100
AcDbSymbolTableRecord
100
AcDbLinetypeTableRecord
  2
ByBlock
 70
     0
  3

 72
    65
 73
     0
 40
0.0
  0
LTYPE
  5
5C
330
5
100
AcDbSymbolTableRecord
100
AcDbLinetypeTableRecord
  2
ByLayer
 70
     0
  3

 72
    65
 73
     0
 40
0.0
  0
LTYPE
  5
5D
330
5
100
AcDbSymbolTableRecord
100
AcDbLinetypeTableRecord
  2
Continuous
 70
     0
  3
Solid line
 72
    65
 73
     0
 40
0.0
  0
ENDTAB
  0
TABLE
  2
LAYER
  5
2
330
0
100
AcDbSymbolTable
 70
     5
  0
LAYER
  5
54
330
2
100
AcDbSymbolTableRecord
100
AcDbLayerTableRecord
  2
0
 70
     0
 62
     7
  6
Continuous
370
     0
390
F
347
21
348
0
  0
LAYER
  5
78
330
2
100
AcDbSymbolTableRecord
100
AcDbLayerTableRecord
  2
RACCORDO
 70
     0
 62
     7
  6
Continuous
370
     0
390
F
347
21
348
0
  0
LAYER
  5
104
330
2
100
AcDbSymbolTableRecord
100
AcDbLayerTableRecord
  2
SUPERFICI
 70
     0
 62
     7
  6
Continuous
370
     0
390
F
347
21
348
0
  0
LAYER
  5
13D
330
2
100
AcDbSymbolTableRecord
100
AcDbLayerTableRecord
  2
DRAFT
 70
     0
 62
     7
  6
Continuous
370
     0
390
F
347
21
348
0
  0
LAYER
  5
272
330
2
100
AcDbSymbolTableRecord
100
AcDbLayerTableRecord
  2
ASSI
 70
     0
 62
     7
  6
Continuous
370
     0
390
F
347
21
348
0
  0
ENDTAB
  0
TABLE
  2
STYLE
  5
3
330
0
100
AcDbSymbolTable
 70
     2
  0
STYLE
  5
55
330
3
100
AcDbSymbolTableRecord
100
AcDbTextStyleTableRecord
  2
Standard
 70
     0
 40
0.0
 41
1.0
 50
0.0
 71
     0
 42
0.2
  3
txt
  4

  0
STYLE
  5
5A
330
3
100
AcDbSymbolTableRecord
100
AcDbTextStyleTableRecord
  2
Annotative
 70
     0
 40
0.0
 41
1.0
 50
0.0
 71
     0
 42
0.2
  3
txt
  4

1001
AcadAnnotative
1000
AnnotativeData
1002
{
1070
     1
1070
     1
1002
}
  0
ENDTAB
  0
TABLE
  2
VIEW
  5
6
330
0
100
AcDbSymbolTable
 70
     0
  0
ENDTAB
  0
TABLE
  2
UCS
  5
7
330
0
100
AcDbSymbolTable
 70
     0
  0
ENDTAB
  0
TABLE
  2
APPID
  5
9
330
0
100
AcDbSymbolTable
 70
     2
  0
APPID
  5
56
330
9
100
AcDbSymbolTableRecord
100
AcDbRegAppTableRecord
  2
ACAD
 70
     0
  0
APPID
  5
5E
330
9
100
AcDbSymbolTableRecord
100
AcDbRegAppTableRecord
  2
AcadAnnotative
 70
     0
  0
ENDTAB
  0
TABLE
  2
DIMSTYLE
  5
A
330
0
100
AcDbSymbolTable
 70
     2
100
AcDbDimStyleTable
 71
     0
  0
DIMSTYLE
105
58
330
A
100
AcDbSymbolTableRecord
100
AcDbDimStyleTableRecord
  2
Standard
 70
     0
340
55
  0
DIMSTYLE
105
59
330
A
100
AcDbSymbolTableRecord
100
AcDbDimStyleTableRecord
  2
Annotative
 70
     0
340
55
1001
AcadAnnotative
1000
AnnotativeData
1002
{
1070
     1
1070
     1
1002
}
  0
ENDTAB
  0
TABLE
  2
BLOCK_RECORD
  5
1
330
0
100
AcDbSymbolTable
 70
     1
  0
BLOCK_RECORD
  5
70
330
1
100
AcDbSymbolTableRecord
100
AcDbBlockTableRecord
  2
*Model_Space
340
73
 70
     0
280
     1
281
     0
  0
BLOCK_RECORD
  5
6C
330
1
100
AcDbSymbolTableRecord
100
AcDbBlockTableRecord
  2
*Paper_Space
340
6F
 70
     0
280
     1
281
     0
  0
BLOCK_RECORD
  5
74
330
1
100
AcDbSymbolTableRecord
100
AcDbBlockTableRecord
  2
*Paper_Space0
340
77
 70
     0
280
     1
281
     0
  0
ENDTAB
  0
ENDSEC
  0
SECTION
  2
BLOCKS
  0
BLOCK
  5
71
330
70
100
AcDbEntity
  8
0
100
AcDbBlockBegin
  2
*Model_Space
 70
     0
 10
0.0
 20
0.0
 30
0.0
  3
*Model_Space
  1

  0
ENDBLK
  5
72
330
70
100
AcDbEntity
  8
0
100
AcDbBlockEnd
  0
BLOCK
  5
6D
330
6C
100
AcDbEntity
 67
     1
  8
0
100
AcDbBlockBegin
  2
*Paper_Space
 70
     0
 10
0.0
 20
0.0
 30
0.0
  3
*Paper_Space
  1

  0
ENDBLK
  5
6E
330
6C
100
AcDbEntity
 67
     1
  8
0
100
AcDbBlockEnd
  0
BLOCK
  5
75
330
74
100
AcDbEntity
 67
     1
  8
0
100
AcDbBlockBegin
  2
*Paper_Space0
 70
     0
 10
0.0
 20
0.0
 30
0.0
  3
*Paper_Space0
  1

  0
ENDBLK
  5
76
330
74
100
AcDbEntity
 67
     1
  8
0
100
AcDbBlockEnd
  0
ENDSEC
  0
SECTION
  2
ENTITIES
  0
LWPOLYLINE
  5
79
330
70
100
AcDbEntity
  8
RACCORDO
 62
    18
420
        0
370
    25
100
AcDbPolyline
 90
       13
 70
     0
 43
0.0
 10
83.04434849759074
 20
175.6121475156145
 10
83.02765646829076
 20
175.5999967082146
 10
82.96829264949053
 20
175.5513465849146
 10
82.91239645149053
 20
175.4964061163144
 10
82.8604829627905
 20
175.4352405850144
 10
82.8131982580906
 20
175.3681470700145
 10
82.77118652019053
 20
175.2956409290144
 10
82.73477813019068
 20
175.2179943985144
 10
82.70427712069063
 20
175.1355323548147
 10
82.67999810539061
 20
175.0488031828145
 10
82.66207342929064
 20
174.9581107755145
 10
82.65060360949059
 20
174.8635671944147
 10
82.64848418279047
 20
174.8351832841146
  0
LINE
  5
7A
330
70
100
AcDbEntity
  8
RACCORDO
 62
    18
420
        0
370
    25
100
AcDbLine
 10
83.04439904119076
 20
175.6121834660146
 30
0.0
 11
83.04364285279062
 21
175.6116468640145
 31
0.0
  0
LINE
  5
7B
330
70
100
AcDbEntity
  8
RACCORDO
 62
   250
420
  3355443
370
    25
100
AcDbLine
 10
83.81537111929052
 20
175.5818131667147
 30
0.0
 11
85.29183771859072
 21
176.5834900702144
 31
0.0
  0
LINE
  5
7C
330
70
100
AcDbEntity
  8
RACCORDO
 62
    18
420
        0
370
    25
100
AcDbLine
 10
82.64848177339057
 20
174.8351834404146
 30
0.0
 11
82.64848518089076
 21
174.8352356599146
 31
0.0
  0
LWPOLYLINE
  5
7D
330
70
100
AcDbEntity
  8
RACCORDO
 62
    18
420
        0
370
    25
100
AcDbPolyline
 90
       16
 70
     0
 43
0.0
 10
81.89370533129055
 20
144.3800289112143
 10
81.8991284973905
 20
144.2791361438145
 10
81.91172114209065
 20
144.1778124326148
 10
81.93106697669056
 20
144.0767240080143
 10
81.95678772839075
 20
143.9763232358145
 10
81.98859571669055
 20
143.8768880768149
 10
82.02621983639049
 20
143.7787420867147
 10
82.06936122439051
 20
143.6824101032148
 10
82.11774054959061
 20
143.5882642425148
 10
82.17115101779073
 20
143.4966022098148
 10
82.22929616869055
 20
143.4078814517146
 10
82.29184191469078
 20
143.3225451295146
 10
82.35858787619054
 20
143.2408871847147
 10
82.4292627863906
 20
143.1632694085148
 10
82.50345904139061
 20
143.0902293504143
 10
82.58090401819059
 20
143.0221312752147
  0
LWPOLYLINE
  5
7E
330
70
100
AcDbEntity
  8
RACCORDO
 62
    18
420
        0
370
    25
100
AcDbPolyline
 90
        4
 70
     0
 43
0.0
 10
81.91483709069061
 20
146.5825614479144
 10
81.90019624029048
 20
145.8215598585148
 10
81.89109770159049
 20
145.0767266750144
 10
81.89363300359056
 20
144.3800346162146
  0
LINE
  5
7F
330
70
100
AcDbEntity
  8
RACCORDO
 62
    18
420
        0
370
    25
100
AcDbLine
 10
82.22411467369074
 20
159.5762409649147
 30
0.0
 11
82.01120160189075
 21
150.6067678577144
 31
0.0
  0
LWPOLYLINE
  5
80
330
70
100
AcDbEntity
  8
RACCORDO
 62
    18
420
        0
370
    25
100
AcDbPolyline
 90
        3
 70
     0
 43
0.0
 10
82.01120160189075
 20
150.6067678577144
 10
81.97073393959065
 20
148.9557320899147
 10
81.91483709069061
 20
146.5825614479144
  0
LINE
  5
81
330
70
100
AcDbEntity
  8
RACCORDO
 62
    18
420
        0
370
    25
100
AcDbLine
 10
82.36838646739069
 20
165.1154005657146
 30
0.0
 11
82.22412623089065
 21
159.5766848294146
 31
0.0
  0
LWPOLYLINE
  5
82
330
70
100
AcDbEntity
  8
RACCORDO
 62
    18
420
        0
370
    25
100
AcDbPolyline
 90
        6
 70
     0
 43
0.0
 10
82.64848518089076
 20
174.8352356599146
 10
82.61715156799047
 20
174.2558067125146
 10
82.59119330249061
 20
173.6055825966145
 10
82.56995156879069
 20
172.9493785169144
 10
82.55102244039052
 20
172.2852555609145
 10
82.36838646739069
 20
165.1154005657146
  0
LWPOLYLINE
  5
83
330
70
100
AcDbEntity
  8
RACCORDO
 62
    18
420
        0
370
    25
100
AcDbPolyline
 90
       13
 70
     0
 43
0.0
 10
125.1602996150906
 20
120.4304032724147
 10
125.1842554661906
 20
120.4195549136144
 10
125.2749775054906
 20
120.3830383036146
 10
125.3650425571907
 20
120.3539904374142
 10
125.4544554593904
 20
120.3323646186147
 10
125.5429863316907
 20
120.3182198839146
 10
125.6300149618908
 20
120.3115968698147
 10
125.7151735014905
 20
120.3124272198147
 10
125.7981478468906
 20
120.3205994248148
 10
125.8781375849906
 20
120.3358458808148
 10
125.9545471019906
 20
120.3577775263146
 10
126.0270927673905
 20
120.3860052731144
 10
126.0789746978907
 20
120.4111392243149
  0
LINE
  5
84
330
70
100
AcDbEntity
  8
RACCORDO
 62
    18
420
        0
370
    25
100
AcDbLine
 10
125.1602074541905
 20
120.4304459256147
 30
0.0
 11
125.1602996150906
 21
120.4304032724147
 31
0.0
  0
LWPOLYLINE
  5
85
330
70
100
AcDbEntity
  8
RACCORDO
 62
    18
420
        0
370
    25
100
AcDbPolyline
 90
        3
 70
     0
 43
0.0
 10
82.66143205359053
 20
142.9593236734145
 10
82.74476320109078
 20
142.9023023838146
 10
82.77425487639066
 20
142.8839850405148
  0
LINE
  5
86
330
70
100
AcDbEntity
  8
RACCORDO
 62
    18
420
        0
370
    25
100
AcDbLine
 10
82.58090401819059
 20
143.0221312752147
 30
0.0
 11
82.66143205359053
 21
142.9593236734145
 31
0.0
  0
LINE
  5
87
330
70
100
AcDbEntity
  8
RACCORDO
 62
    18
420
        0
370
    25
100
AcDbLine
 10
124.2935914692906
 20
120.8444420491143
 30
0.0
 11
125.1602069749908
 21
120.4304448916148
 31
0.0
  0
LWPOLYLINE
  5
88
330
70
100
AcDbEntity
  8
RACCORDO
 62
    18
420
        0
370
    25
100
AcDbPolyline
 90
        4
 70
     0
 43
0.0
 10
121.5375342544908
 20
122.2653743030144
 10
122.4600449496907
 20
121.7799498456145
 10
123.3765528750906
 20
121.3051248521147
 10
124.2935914692906
 20
120.8444420491143
  0
LINE
  5
89
330
70
100
AcDbEntity
  8
RACCORDO
 62
    18
420
        0
370
    25
100
AcDbLine
 10
87.17087672279054
 20
140.4710804224149
 30
0.0
 11
93.06917637349057
 21
137.3608726752143
 31
0.0
  0
LINE
  5
8A
330
70
100
AcDbEntity
  8
RACCORDO
 62
    18
420
        0
370
    25
100
AcDbLine
 10
93.06917637349057
 20
137.3608726752143
 30
0.0
 11
103.9192883756905
 21
131.6284435240146
 31
0.0
  0
LINE
  5
8B
330
70
100
AcDbEntity
  8
RACCORDO
 62
    18
420
        0
370
    25
100
AcDbLine
 10
103.9190121855906
 20
131.6285872960144
 30
0.0
 11
114.7350819961909
 21
125.8835993378145
 31
0.0
  0
LINE
  5
8C
330
70
100
AcDbEntity
  8
RACCORDO
 62
    18
420
        0
370
    25
100
AcDbLine
 10
119.6606986033906
 20
123.2619199708144
 30
0.0
 11
121.5375342544908
 21
122.2653743030144
 31
0.0
  0
LINE
  5
8D
330
70
100
AcDbEntity
  8
RACCORDO
 62
    18
420
        0
370
    25
100
AcDbLine
 10
114.7350819961909
 20
125.8835993378145
 30
0.0
 11
119.6606986033906
 21
123.2619199708144
 31
0.0
  0
LWPOLYLINE
  5
8E
330
70
100
AcDbEntity
  8
RACCORDO
 62
    18
420
        0
370
    25
100
AcDbPolyline
 90
        6
 70
     0
 43
0.0
 10
82.77380299399048
 20
142.8843120777144
 10
83.55320689219079
 20
142.4264774940148
 10
84.42422802209078
 20
141.9398084409142
 10
85.32116929949054
 20
141.4539126133147
 10
86.23775268859068
 20
140.9650610674145
 10
87.17087672279054
 20
140.4710804224149
  0
LINE
  5
8F
330
70
100
AcDbEntity
  8
RACCORDO
 62
    18
420
        0
370
    25
100
AcDbLine
 10
82.77380299399048
 20
142.8843120777144
 30
0.0
 11
82.77427889449075
 21
142.8840248267144
 31
0.0
  0
LINE
  5
90
330
70
100
AcDbEntity
  8
RACCORDO
 62
    18
420
        0
370
    25
100
AcDbLine
 10
96.63386499079061
 20
157.1473390961145
 30
0.0
 11
96.55007647039063
 21
157.0904946950146
 31
0.0
  0
LINE
  5
91
330
70
100
AcDbEntity
  8
RACCORDO
 62
    18
420
        0
370
    25
100
AcDbLine
 10
96.24696876999054
 20
159.7726360707147
 30
0.0
 11
96.0743532520906
 21
159.6774131707145
 31
0.0
  0
LINE
  5
92
330
70
100
AcDbEntity
  8
RACCORDO
 62
   250
420
  3355443
370
    25
100
AcDbLine
 10
96.32772852159076
 20
159.7676596837146
 30
0.0
 11
96.07310860529047
 21
159.6271992712144
 31
0.0
  0
LINE
  5
93
330
70
100
AcDbEntity
  8
RACCORDO
 62
    18
420
        0
370
    25
100
AcDbLine
 10
96.69386640029077
 20
159.5680297146144
 30
0.0
 11
96.61034483339053
 21
159.5219552602145
 31
0.0
  0
LINE
  5
94
330
70
100
AcDbEntity
  8
RACCORDO
 62
    18
420
        0
370
    25
100
AcDbLine
 10
96.5023793896905
 20
150.3450170213147
 30
0.0
 11
96.50237377089062
 21
150.3450717019144
 31
0.0
  0
LINE
  5
95
330
70
100
AcDbEntity
  8
RACCORDO
 62
    18
420
        0
370
    25
100
AcDbLine
 10
96.73159937329049
 20
159.5926441888146
 30
0.0
 11
96.73159375459071
 21
159.5926988695144
 31
0.0
  0
LINE
  5
96
330
70
100
AcDbEntity
  8
RACCORDO
 62
   250
420
  3355443
370
    25
100
AcDbLine
 10
96.69386640029077
 20
159.5680297146144
 30
0.0
 11
96.63386499079061
 21
157.1473390961145
 31
0.0
  0
LINE
  5
97
330
70
100
AcDbEntity
  8
RACCORDO
 62
   250
420
  3355443
370
    25
100
AcDbLine
 10
96.46464641659068
 20
150.3204025471145
 30
0.0
 11
96.40464500709052
 21
147.8997119286145
 31
0.0
  0
LINE
  5
98
330
70
100
AcDbEntity
  8
RACCORDO
 62
    18
420
        0
370
    25
100
AcDbLine
 10
96.7316440867907
 20
159.5926212650145
 30
0.0
 11
96.67316521059074
 21
157.2333555688147
 31
0.0
  0
LINE
  5
99
330
70
100
AcDbEntity
  8
RACCORDO
 62
    18
420
        0
370
    25
100
AcDbLine
 10
96.5024241030906
 20
150.3449940975146
 30
0.0
 11
96.44394522689065
 21
147.9857284013145
 31
0.0
  0
LINE
  5
9A
330
70
100
AcDbEntity
  8
RACCORDO
 62
   250
420
  3355443
370
    25
100
AcDbLine
 10
100.3254830732906
 20
141.3025744278146
 30
0.0
 11
102.5128108052906
 21
140.1438608420144
 31
0.0
  0
LINE
  5
9B
330
70
100
AcDbEntity
  8
RACCORDO
 62
   250
420
  3355443
370
    25
100
AcDbLine
 10
108.6816072321904
 20
136.8760065905145
 30
0.0
 11
110.8689349640904
 21
135.7172930047143
 31
0.0
  0
LINE
  5
9C
330
70
100
AcDbEntity
  8
RACCORDO
 62
    18
420
        0
370
    25
100
AcDbLine
 10
100.4222189032905
 20
141.2961559053145
 30
0.0
 11
102.5503965867905
 21
140.1687764281146
 31
0.0
  0
LINE
  5
9D
330
70
100
AcDbEntity
  8
RACCORDO
 62
    18
420
        0
370
    25
100
AcDbLine
 10
108.7783430620909
 20
136.8695880680143
 30
0.0
 11
110.9065207456907
 21
135.7422085908145
 31
0.0
  0
LINE
  5
9E
330
70
100
AcDbEntity
  8
RACCORDO
 62
    18
420
        0
370
    25
100
AcDbLine
 10
95.84513326839051
 20
150.4297860031145
 30
0.0
 11
96.01774878629077
 21
150.5250089032147
 31
0.0
  0
LINE
  5
9F
330
70
100
AcDbEntity
  8
RACCORDO
 62
   250
420
  3355443
370
    25
100
AcDbLine
 10
95.84388862169078
 20
150.3795721037145
 30
0.0
 11
96.09850853789067
 21
150.5200325162147
 31
0.0
  0
LINE
  5
A0
330
70
100
AcDbEntity
  8
RACCORDO
 62
    18
420
        0
370
    25
100
AcDbLine
 10
96.46464641659068
 20
150.3204025471145
 30
0.0
 11
96.38112484969076
 21
150.2743280926145
 31
0.0
  0
LINE
  5
A1
330
70
100
AcDbEntity
  8
RACCORDO
 62
    18
420
        0
370
    25
100
AcDbLine
 10
102.5504385390906
 20
140.1686523901146
 30
0.0
 11
102.5503964953905
 21
140.1687683588146
 31
0.0
  0
LINE
  5
A2
330
70
100
AcDbEntity
  8
RACCORDO
 62
   250
420
  3355443
370
    25
100
AcDbLine
 10
102.5075714601907
 20
139.7362488873148
 30
0.0
 11
102.5177548264905
 21
140.1470855585142
 31
0.0
  0
LINE
  5
A3
330
70
100
AcDbEntity
  8
RACCORDO
 62
    18
420
        0
370
    25
100
AcDbLine
 10
102.5410093036905
 20
139.7882401987146
 30
0.0
 11
102.5504397861906
 21
140.1687026021147
 31
0.0
  0
LINE
  5
A4
330
70
100
AcDbEntity
  8
RACCORDO
 62
    18
420
        0
370
    25
100
AcDbLine
 10
96.40464500709052
 20
147.8997119286145
 30
0.0
 11
96.32085648669054
 21
147.8428675274149
 31
0.0
  0
LINE
  5
A5
330
70
100
AcDbEntity
  8
RACCORDO
 62
   250
420
  3355443
370
    25
100
AcDbLine
 10
96.46973914349054
 20
150.3233770539144
 30
0.0
 11
96.09850853789067
 21
150.5200325162147
 31
0.0
  0
LINE
  5
A6
330
70
100
AcDbEntity
  8
RACCORDO
 62
    18
420
        0
370
    25
100
AcDbLine
 10
96.50238090379062
 20
150.3450679235144
 30
0.0
 11
96.16041973209057
 21
150.5262182146147
 31
0.0
  0
LINE
  5
A7
330
70
100
AcDbEntity
  8
RACCORDO
 62
    18
420
        0
370
    25
100
AcDbLine
 10
110.9065626978903
 20
135.7420845528145
 30
0.0
 11
110.9065206541908
 21
135.7422005215145
 31
0.0
  0
LINE
  5
A8
330
70
100
AcDbEntity
  8
RACCORDO
 62
    18
420
        0
370
    25
100
AcDbLine
 10
100.3254830732906
 20
141.3025744278146
 30
0.0
 11
100.2369621861906
 21
141.2536926288144
 31
0.0
  0
LINE
  5
A9
330
70
100
AcDbEntity
  8
RACCORDO
 62
   250
420
  3355443
370
    25
100
AcDbLine
 10
110.8636956190905
 20
135.3096810500147
 30
0.0
 11
110.8738789853906
 21
135.7205177212148
 31
0.0
  0
LINE
  5
AA
330
70
100
AcDbEntity
  8
RACCORDO
 62
    18
420
        0
370
    25
100
AcDbLine
 10
110.8971334625906
 20
135.3616723615146
 30
0.0
 11
110.9065639449907
 21
135.7421347648146
 31
0.0
  0
LINE
  5
AB
330
70
100
AcDbEntity
  8
RACCORDO
 62
    18
420
        0
370
    25
100
AcDbLine
 10
102.5128108052906
 20
140.1438608420144
 30
0.0
 11
102.4340216050907
 21
140.0898237854146
 31
0.0
  0
LINE
  5
AC
330
70
100
AcDbEntity
  8
RACCORDO
 62
   250
420
  3355443
370
    25
100
AcDbLine
 10
102.2059362820907
 20
139.5293743772145
 30
0.0
 11
102.5075714601907
 21
139.7362488873148
 31
0.0
  0
LINE
  5
AD
330
70
100
AcDbEntity
  8
RACCORDO
 62
    18
420
        0
370
    25
100
AcDbLine
 10
102.2439994308907
 20
139.5092108293143
 30
0.0
 11
102.4758954821906
 21
139.6682552164148
 31
0.0
  0
LINE
  5
AE
330
70
100
AcDbEntity
  8
RACCORDO
 62
   250
420
  3355443
370
    25
100
AcDbLine
 10
96.38959107759049
 20
159.7738711088145
 30
0.0
 11
96.38963971579066
 21
159.7738453821146
 31
0.0
  0
LINE
  5
AF
330
70
100
AcDbEntity
  8
RACCORDO
 62
   250
420
  3355443
370
    25
100
AcDbLine
 10
96.69895912719063
 20
159.5710042215145
 30
0.0
 11
96.32772852159076
 21
159.7676596837146
 31
0.0
  0
LINE
  5
B0
330
70
100
AcDbEntity
  8
RACCORDO
 62
    18
420
        0
370
    25
100
AcDbLine
 10
96.73160088739061
 20
159.5926950910147
 30
0.0
 11
96.38963971579066
 21
159.7738453821146
 31
0.0
  0
LINE
  5
B1
330
70
100
AcDbEntity
  8
RACCORDO
 62
   250
420
  3355443
370
    25
100
AcDbLine
 10
127.6295334127908
 20
154.1555407254145
 30
0.0
 11
126.1530761151909
 21
153.1538696537144
 31
0.0
  0
LINE
  5
B2
330
70
100
AcDbEntity
  8
RACCORDO
 62
   250
420
  3355443
370
    25
100
AcDbLine
 10
127.1539076245909
 20
151.4709951631147
 30
0.0
 11
128.7132587631903
 21
152.3320804250147
 31
0.0
  0
LINE
  5
B3
330
70
100
AcDbEntity
  8
RACCORDO
 62
    18
420
        0
370
    25
100
AcDbLine
 10
108.6816072321904
 20
136.8760065905145
 30
0.0
 11
108.5930863450904
 21
136.8271247915143
 31
0.0
  0
LINE
  5
B4
330
70
100
AcDbEntity
  8
RACCORDO
 62
    18
420
        0
370
    25
100
AcDbLine
 10
110.8689349640904
 20
135.7172930047143
 30
0.0
 11
110.7901457638908
 21
135.6632559481145
 31
0.0
  0
LINE
  5
B5
330
70
100
AcDbEntity
  8
RACCORDO
 62
   250
420
  3355443
370
    25
100
AcDbLine
 10
110.8636956190905
 20
135.3096810500147
 30
0.0
 11
110.5620604409909
 21
135.1028065400145
 31
0.0
  0
LINE
  5
B6
330
70
100
AcDbEntity
  8
RACCORDO
 62
    18
420
        0
370
    25
100
AcDbLine
 10
110.8320196410905
 20
135.2416873791146
 30
0.0
 11
110.6001235896905
 21
135.0826429920149
 31
0.0
  0
LINE
  5
B7
330
70
100
AcDbEntity
  8
RACCORDO
 62
   250
420
  3355443
370
    25
100
AcDbLine
 10
127.9593764758909
 20
121.9176647750146
 30
0.0
 11
126.4000253145907
 21
121.0565830658146
 31
0.0
  0
LINE
  5
B8
330
70
100
AcDbEntity
  8
RACCORDO
 62
    18
420
        0
370
    25
100
AcDbLine
 10
126.0785135065907
 20
120.4108959918143
 30
0.0
 11
126.0789671794907
 21
120.4111352647148
 31
0.0
  0
SPLINE
  5
B9
330
70
100
AcDbEntity
  8
RACCORDO
 62
   250
420
  3355443
370
    25
100
AcDbSpline
210
0.0
220
0.0
230
1.0
 70
     8
 71
     3
 72
     8
 73
     4
 74
     0
 42
0.0000000001
 43
0.0000000001
 40
0.0
 40
0.0
 40
0.0
 40
0.0
 40
1.0
 40
1.0
 40
1.0
 40
1.0
 10
82.67653318402798
 20
143.0493241184915
 30
0.0
 10
82.72439322292092
 20
143.0189203091939
 30
0.0
 10
82.77234303650439
 20
142.9886580493985
 30
0.0
 10
82.82038199622782
 20
142.9585377357985
 30
0.0
  0
SPLINE
  5
BA
330
70
100
AcDbEntity
  8
RACCORDO
 62
    18
420
        0
370
    25
100
AcDbSpline
210
0.0
220
0.0
230
1.0
 70
     8
 71
     3
 72
     8
 73
     4
 74
     0
 42
0.0000000001
 43
0.0000000001
 40
0.0
 40
0.0
 40
0.0
 40
0.0
 40
1.0
 40
1.0
 40
1.0
 40
1.0
 10
96.67245211752664
 20
157.2209978626717
 30
0.0
 10
96.67283786711719
 20
157.2251069319693
 30
0.0
 10
96.67307747329848
 20
157.2292284117436
 30
0.0
 10
96.67317048248172
 20
157.2333544997855
 30
0.0
  0
SPLINE
  5
BB
330
70
100
AcDbEntity
  8
RACCORDO
 62
    18
420
        0
370
    25
100
AcDbSpline
210
0.0
220
0.0
230
1.0
 70
     8
 71
     3
 72
     8
 73
     4
 74
     0
 42
0.0000000001
 43
0.0000000001
 40
0.0
 40
0.0
 40
0.0
 40
0.0
 40
1.0
 40
1.0
 40
1.0
 40
1.0
 10
96.44323213382689
 20
147.9733706951718
 30
0.0
 10
96.4436178834171
 20
147.977479764469
 30
0.0
 10
96.44385748959839
 20
147.9816012442436
 30
0.0
 10
96.44395049878163
 20
147.9857273322856
 30
0.0
  0
SPLINE
  5
BC
330
70
100
AcDbEntity
  8
RACCORDO
 62
    18
420
        0
370
    25
100
AcDbSpline
210
0.0
220
0.0
230
1.0
 70
     8
 71
     3
 72
     8
 73
     4
 74
     0
 42
0.0000000001
 43
0.0000000001
 40
0.0
 40
0.0
 40
0.0
 40
0.0
 40
1.0
 40
1.0
 40
1.0
 40
1.0
 10
96.06738986243431
 20
150.5419189943367
 30
0.0
 10
96.04994213990572
 20
150.539227249491
 30
0.0
 10
96.03310442701301
 20
150.5334852699676
 30
0.0
 10
96.01764744953044
 20
150.5249558878763
 30
0.0
  0
SPLINE
  5
BD
330
70
100
AcDbEntity
  8
RACCORDO
 62
    18
420
        0
370
    25
100
AcDbSpline
210
0.0
220
0.0
230
1.0
 70
     8
 71
     3
 72
     8
 73
     4
 74
     0
 42
0.0000000001
 43
0.0000000001
 40
0.0
 40
0.0
 40
0.0
 40
0.0
 40
1.0
 40
1.0
 40
1.0
 40
1.0
 10
110.831890447296
 20
135.2415997762022
 30
0.0
 10
110.844781475321
 20
135.2504309433679
 30
0.0
 10
110.8562177562946
 20
135.2612168055459
 30
0.0
 10
110.8657877733992
 20
135.2735692502294
 30
0.0
  0
SPLINE
  5
BE
330
70
100
AcDbEntity
  8
RACCORDO
 62
    18
420
        0
370
    25
100
AcDbSpline
210
0.0
220
0.0
230
1.0
 70
     8
 71
     3
 72
     8
 73
     4
 74
     0
 42
0.0000000001
 43
0.0000000001
 40
0.0
 40
0.0
 40
0.0
 40
0.0
 40
1.0
 40
1.0
 40
1.0
 40
1.0
 10
102.4757662884963
 20
139.6681676135023
 30
0.0
 10
102.4886573165209
 20
139.676998780668
 30
0.0
 10
102.5000935974946
 20
139.687784642846
 30
0.0
 10
102.5096636145992
 20
139.7001370875295
 30
0.0
  0
SPLINE
  5
BF
330
70
100
AcDbEntity
  8
RACCORDO
 62
    18
420
        0
370
    25
100
AcDbSpline
210
0.0
220
0.0
230
1.0
 70
     8
 71
     3
 72
     8
 73
     4
 74
     0
 42
0.0000000001
 43
0.0000000001
 40
0.0
 40
0.0
 40
0.0
 40
0.0
 40
1.0
 40
1.0
 40
1.0
 40
1.0
 10
96.38958322913445
 20
159.7738561596733
 30
0.0
 10
96.34490753169528
 20
159.7975645482543
 30
0.0
 10
96.29128168960537
 20
159.7971135001287
 30
0.0
 10
96.2470111082411
 20
159.7726569824601
 30
0.0
  0
LINE
  5
C0
330
70
100
AcDbEntity
  8
RACCORDO
 62
   250
420
  3355443
370
    25
100
AcDbLine
 10
102.5407646872396
 20
139.7844652468867
 30
0.0
 11
102.5409747291647
 21
139.7869792751435
 31
0.0
  0
SPLINE
  5
C1
330
70
100
AcDbEntity
  8
RACCORDO
 62
    18
420
        0
370
    25
100
AcDbSpline
210
0.0
220
0.0
230
1.0
 70
     8
 71
     3
 72
     8
 73
     4
 74
     0
 42
0.0000000001
 43
0.0000000001
 40
0.0
 40
0.0
 40
0.0
 40
0.0
 40
1.0
 40
1.0
 40
1.0
 40
1.0
 10
96.16041973209057
 20
150.5262182146147
 30
0.0
 10
96.13262969679052
 20
150.5409396900146
 30
0.0
 10
96.09847326729056
 20
150.5466970534145
 30
0.0
 10
96.06738986249046
 20
150.5419189943146
 30
0.0
  0
SPLINE
  5
C2
330
70
100
AcDbEntity
  8
RACCORDO
 62
    18
420
        0
370
    25
100
AcDbSpline
210
0.0
220
0.0
230
1.0
 70
     8
 71
     3
 72
     8
 73
     4
 74
     0
 42
0.0000000001
 43
0.0000000001
 40
0.0
 40
0.0
 40
0.0
 40
0.0
 40
1.0
 40
1.0
 40
1.0
 40
1.0
 10
110.8971334625906
 20
135.3616723615146
 30
0.0
 10
110.8963610660903
 20
135.3305108805144
 30
0.0
 10
110.8848653000906
 20
135.2982204666143
 30
0.0
 10
110.8657877734903
 20
135.2735692502146
 30
0.0
  0
SPLINE
  5
C3
330
70
100
AcDbEntity
  8
RACCORDO
 62
    18
420
        0
370
    25
100
AcDbSpline
210
0.0
220
0.0
230
1.0
 70
     8
 71
     3
 72
     8
 73
     4
 74
     0
 42
0.0000000001
 43
0.0000000001
 40
0.0
 40
0.0
 40
0.0
 40
0.0
 40
1.0
 40
1.0
 40
1.0
 40
1.0
 10
102.5410093036905
 20
139.7882401987146
 30
0.0
 10
102.5402369072906
 20
139.7570787178145
 30
0.0
 10
102.5287411411907
 20
139.7247883039144
 30
0.0
 10
102.5096636145905
 20
139.7001370875148
 30
0.0
  0
SPLINE
  5
C4
330
70
100
AcDbEntity
  8
RACCORDO
 62
    18
420
        0
370
    25
100
AcDbSpline
210
0.0
220
0.0
230
1.0
 70
     8
 71
     3
 72
     8
 73
     4
 74
     0
 42
0.0000000001
 43
0.0000000001
 40
0.0
 40
0.0
 40
0.0
 40
0.0
 40
1.0
 40
1.0
 40
1.0
 40
1.0
 10
100.3310382751904
 20
141.3054753779145
 30
0.0
 10
100.3402452473907
 20
141.3100062728143
 30
0.0
 10
100.3507417048908
 20
141.3122182558147
 30
0.0
 10
100.3609976483905
 20
141.3125543655144
 30
0.0
  0
SPLINE
  5
C5
330
70
100
AcDbEntity
  8
RACCORDO
 62
    18
420
        0
370
    25
100
AcDbSpline
210
0.0
220
0.0
230
1.0
 70
     8
 71
     3
 72
    11
 73
     7
 74
     0
 42
0.0000000001
 43
0.0000000001
 40
0.0
 40
0.0
 40
0.0
 40
0.0
 40
1.0
 40
1.0
 40
1.0
 40
2.0
 40
2.0
 40
2.0
 40
2.0
 10
100.3609976483905
 20
141.3125543655144
 30
0.0
 10
100.3648601751906
 20
141.3126809490145
 30
0.0
 10
100.3687321891876
 20
141.3125554484541
 30
0.0
 10
100.3725859702686
 20
141.3121979545086
 30
0.0
 10
100.3845867979457
 20
141.311084704132
 30
0.0
 10
100.3964108165907
 20
141.3077217573143
 30
0.0
 10
100.4075276382905
 20
141.3031124252148
 30
0.0
  0
SPLINE
  5
C6
330
70
100
AcDbEntity
  8
RACCORDO
 62
    18
420
        0
370
    25
100
AcDbSpline
210
0.0
220
0.0
230
1.0
 70
     8
 71
     3
 72
     8
 73
     4
 74
     0
 42
0.0000000001
 43
0.0000000001
 40
0.0
 40
0.0
 40
0.0
 40
0.0
 40
1.0
 40
1.0
 40
1.0
 40
1.0
 10
100.4075276382905
 20
141.3031124252148
 30
0.0
 10
100.4125328108907
 20
141.3010371464146
 30
0.0
 10
100.4174335975905
 20
141.2986974606146
 30
0.0
 10
100.4222191242907
 20
141.2961563449142
 30
0.0
  0
SPLINE
  5
C7
330
70
100
AcDbEntity
  8
RACCORDO
 62
    18
420
        0
370
    25
100
AcDbSpline
210
0.0
220
0.0
230
1.0
 70
     8
 71
     3
 72
     8
 73
     4
 74
     0
 42
0.0000000001
 43
0.0000000001
 40
0.0
 40
0.0
 40
0.0
 40
0.0
 40
1.0
 40
1.0
 40
1.0
 40
1.0
 10
108.6871624339905
 20
136.8789075407145
 30
0.0
 10
108.6963694061904
 20
136.8834384355148
 30
0.0
 10
108.7068658637906
 20
136.8856504185146
 30
0.0
 10
108.7171218071909
 20
136.8859865283144
 30
0.0
  0
SPLINE
  5
C8
330
70
100
AcDbEntity
  8
RACCORDO
 62
    18
420
        0
370
    25
100
AcDbSpline
210
0.0
220
0.0
230
1.0
 70
     8
 71
     3
 72
    11
 73
     7
 74
     0
 42
0.0000000001
 43
0.0000000001
 40
0.0
 40
0.0
 40
0.0
 40
0.0
 40
1.0
 40
1.0
 40
1.0
 40
2.0
 40
2.0
 40
2.0
 40
2.0
 10
108.7171218071909
 20
136.8859865283144
 30
0.0
 10
108.7209843340904
 20
136.8861131118145
 30
0.0
 10
108.7248563480874
 20
136.8859876112541
 30
0.0
 10
108.728710129163
 20
136.8856301173086
 30
0.0
 10
108.7407109568214
 20
136.8845168669319
 30
0.0
 10
108.7525349753905
 20
136.8811539201143
 30
0.0
 10
108.7636517970905
 20
136.8765445879147
 30
0.0
  0
SPLINE
  5
C9
330
70
100
AcDbEntity
  8
RACCORDO
 62
    18
420
        0
370
    25
100
AcDbSpline
210
0.0
220
0.0
230
1.0
 70
     8
 71
     3
 72
     8
 73
     4
 74
     0
 42
0.0000000001
 43
0.0000000001
 40
0.0
 40
0.0
 40
0.0
 40
0.0
 40
1.0
 40
1.0
 40
1.0
 40
1.0
 10
108.7636517970905
 20
136.8765445879147
 30
0.0
 10
108.7686569697906
 20
136.8744693092146
 30
0.0
 10
108.7735577564903
 20
136.8721296233144
 30
0.0
 10
108.7783432831908
 20
136.8695885076148
 30
0.0
  0
SPLINE
  5
CA
330
70
100
AcDbEntity
  8
RACCORDO
 62
    18
420
        0
370
    25
100
AcDbSpline
210
0.0
220
0.0
230
1.0
 70
     8
 71
     3
 72
    11
 73
     7
 74
     0
 42
0.0000000001
 43
0.0000000001
 40
0.0
 40
0.0
 40
0.0
 40
0.0
 40
1.0
 40
1.0
 40
1.0
 40
2.0
 40
2.0
 40
2.0
 40
2.0
 10
96.63897448319058
 20
157.1509899895145
 30
0.0
 10
96.64198850709047
 20
157.1532592919146
 30
0.0
 10
96.64479530439553
 20
157.1558050069475
 30
0.0
 10
96.64738749639367
 20
157.1585615063771
 30
0.0
 10
96.65552503914522
 20
157.1672148514885
 30
0.0
 10
96.66154766799072
 20
157.1779454558144
 30
0.0
 10
96.66558207709057
 20
157.1890809357146
 30
0.0
  0
SPLINE
  5
CB
330
70
100
AcDbEntity
  8
RACCORDO
 62
    18
420
        0
370
    25
100
AcDbSpline
210
0.0
220
0.0
230
1.0
 70
     8
 71
     3
 72
     8
 73
     4
 74
     0
 42
0.0000000001
 43
0.0000000001
 40
0.0
 40
0.0
 40
0.0
 40
0.0
 40
1.0
 40
1.0
 40
1.0
 40
1.0
 10
96.66558207709057
 20
157.1890809357146
 30
0.0
 10
96.66928908649055
 20
157.1993127511145
 30
0.0
 10
96.67142507419059
 20
157.2101637893144
 30
0.0
 10
96.67245211749072
 20
157.2209978627147
 30
0.0
  0
SPLINE
  5
CC
330
70
100
AcDbEntity
  8
RACCORDO
 62
    18
420
        0
370
    25
100
AcDbSpline
210
0.0
220
0.0
230
1.0
 70
     8
 71
     3
 72
    11
 73
     7
 74
     0
 42
0.0000000001
 43
0.0000000001
 40
0.0
 40
0.0
 40
0.0
 40
0.0
 40
1.0
 40
1.0
 40
1.0
 40
2.0
 40
2.0
 40
2.0
 40
2.0
 10
96.40975449959059
 20
147.9033628220146
 30
0.0
 10
96.41276852339068
 20
147.9056321244147
 30
0.0
 10
96.41557532069576
 20
147.9081778394473
 30
0.0
 10
96.41816751269356
 20
147.9109343388769
 30
0.0
 10
96.42630505544513
 20
147.9195876839882
 30
0.0
 10
96.43232768429061
 20
147.9303182883145
 30
0.0
 10
96.4363620933908
 20
147.9414537682143
 30
0.0
  0
SPLINE
  5
CD
330
70
100
AcDbEntity
  8
RACCORDO
 62
    18
420
        0
370
    25
100
AcDbSpline
210
0.0
220
0.0
230
1.0
 70
     8
 71
     3
 72
     8
 73
     4
 74
     0
 42
0.0000000001
 43
0.0000000001
 40
0.0
 40
0.0
 40
0.0
 40
0.0
 40
1.0
 40
1.0
 40
1.0
 40
1.0
 10
96.4363620933908
 20
147.9414537682143
 30
0.0
 10
96.44006910279077
 20
147.9516855836146
 30
0.0
 10
96.4422050905906
 20
147.9625366217144
 30
0.0
 10
96.44323213389073
 20
147.9733706951147
 30
0.0
  0
SPLINE
  5
CE
330
70
100
AcDbEntity
  8
RACCORDO
 62
   250
420
  3355443
370
    25
100
AcDbSpline
210
0.0
220
0.0
230
1.0
 70
     8
 71
     3
 72
    11
 73
     7
 74
     0
 42
0.0000000001
 43
0.0000000001
 40
0.0
 40
0.0
 40
0.0
 40
0.0
 40
1.0
 40
1.0
 40
1.0
 40
2.0
 40
2.0
 40
2.0
 40
2.0
 10
110.8320187128908
 20
135.2416887318143
 30
0.0
 10
110.8418983674908
 20
135.2484717848146
 30
0.0
 10
110.8497541378215
 20
135.2584037899718
 30
0.0
 10
110.8549467222431
 20
135.2693810201506
 30
0.0
 10
110.8609028559847
 20
135.2819724092835
 30
0.0
 10
110.8633549966904
 20
135.2959390164145
 30
0.0
 10
110.8636956190905
 20
135.3096810500147
 30
0.0
  0
SPLINE
  5
CF
330
70
100
AcDbEntity
  8
RACCORDO
 62
   250
420
  3355443
370
    25
100
AcDbSpline
210
0.0
220
0.0
230
1.0
 70
     8
 71
     3
 72
    17
 73
    13
 74
     0
 42
0.0000000001
 43
0.0000000001
 40
0.0
 40
0.0
 40
0.0
 40
0.0
 40
1.0
 40
1.0
 40
1.0
 40
2.0
 40
2.0
 40
2.0
 40
3.0
 40
3.0
 40
3.0
 40
4.0
 40
4.0
 40
4.0
 40
4.0
 10
126.0789898212907
 20
120.4111469461149
 30
0.0
 10
126.1293719281908
 20
120.4377480194145
 30
0.0
 10
126.1756778947371
 20
120.4729831129998
 30
0.0
 10
126.215203517883
 20
120.5143922510911
 30
0.0
 10
126.2564116422519
 20
120.5575640666545
 30
0.0
 10
126.2902498948089
 20
120.6074467394534
 30
0.0
 10
126.3168513751157
 20
120.6607531656598
 30
0.0
 10
126.3457686378961
 20
120.7187001639719
 30
0.0
 10
126.3661342951596
 20
120.7806929699338
 30
0.0
 10
126.3794818873988
 20
120.8440575631363
 30
0.0
 10
126.3941943033288
 20
120.9139013397305
 30
0.0
 10
126.4003800480907
 20
120.9854117835147
 30
0.0
 10
126.4000257032909
 20
121.0565828844146
 30
0.0
  0
SPLINE
  5
D0
330
70
100
AcDbEntity
  8
RACCORDO
 62
   250
420
  3355443
370
    25
100
AcDbSpline
210
0.0
220
0.0
230
1.0
 70
     8
 71
     3
 72
    17
 73
    13
 74
     0
 42
0.0000000001
 43
0.0000000001
 40
0.0
 40
0.0
 40
0.0
 40
0.0
 40
1.0
 40
1.0
 40
1.0
 40
2.0
 40
2.0
 40
2.0
 40
3.0
 40
3.0
 40
3.0
 40
4.0
 40
4.0
 40
4.0
 40
4.0
 10
125.7668515766908
 20
121.0111916638147
 30
0.0
 10
125.8169866381904
 20
120.9915788845143
 30
0.0
 10
125.8698540561417
 20
120.9786891654521
 30
0.0
 10
125.9233468056011
 20
120.9712803517586
 30
0.0
 10
125.9800067400267
 20
120.9634328789277
 30
0.0
 10
126.0373682470306
 20
120.961734549166
 30
0.0
 10
126.094326111496
 20
120.9658127522736
 30
0.0
 10
126.1502624008996
 20
120.9698178102477
 30
0.0
 10
126.2058093970831
 20
120.9793940478377
 30
0.0
 10
126.2596999480843
 20
120.9953930792686
 30
0.0
 10
126.3088069680079
 20
121.0099719755807
 30
0.0
 10
126.3565385563909
 20
121.0298840476144
 30
0.0
 10
126.4000253144906
 20
121.0565830702147
 30
0.0
  0
SPLINE
  5
D1
330
70
100
AcDbEntity
  8
RACCORDO
 62
   250
420
  3355443
370
    25
100
AcDbSpline
210
0.0
220
0.0
230
1.0
 70
     8
 71
     3
 72
    32
 73
    28
 74
     0
 42
0.0000000001
 43
0.0000000001
 40
0.0
 40
0.0
 40
0.0
 40
0.0
 40
1.0
 40
1.0
 40
1.0
 40
2.0
 40
2.0
 40
2.0
 40
3.0
 40
3.0
 40
3.0
 40
4.0
 40
4.0
 40
4.0
 40
5.0
 40
5.0
 40
5.0
 40
6.0
 40
6.0
 40
6.0
 40
7.0
 40
7.0
 40
7.0
 40
8.0
 40
8.0
 40
8.0
 40
9.0
 40
9.0
 40
9.0
 40
9.0
 10
126.4000253145907
 20
121.0565830658146
 30
0.0
 10
126.3931091226906
 20
121.3682171051147
 30
0.0
 10
126.3938434811924
 20
121.6799919783815
 30
0.0
 10
126.3967590789514
 20
121.9917096903916
 30
0.0
 10
126.399706513058
 20
122.3068311481053
 30
0.0
 10
126.4048830817971
 20
122.6218941894234
 30
0.0
 10
126.4109259489971
 20
122.9369468710058
 30
0.0
 10
126.4169913094611
 20
123.2531722679001
 30
0.0
 10
126.4239294296053
 20
123.5693872277924
 30
0.0
 10
126.4311610259668
 20
123.8855932577771
 30
0.0
 10
126.4384021951587
 20
124.2022178656716
 30
0.0
 10
126.4459376180594
 20
124.518833520001
 30
0.0
 10
126.4535695648252
 20
124.8354471993624
 30
0.0
 10
126.468841045341
 20
125.4689893064754
 30
0.0
 10
126.4844990052324
 20
126.1025235058593
 30
0.0
 10
126.5000230919156
 20
126.7360605738085
 30
0.0
 10
126.515545755438
 20
127.3695395626654
 30
0.0
 10
126.5309345702972
 20
128.0030214195615
 30
0.0
 10
126.5461745565893
 20
128.6365069661187
 30
0.0
 10
126.5614106257701
 20
129.2698296887829
 30
0.0
 10
126.5764979428808
 20
129.9031560992119
 30
0.0
 10
126.5914793147838
 20
130.5364849797831
 30
0.0
 10
126.6064578128108
 20
131.1696923688542
 30
0.0
 10
126.6213304062733
 20
131.8029022271203
 30
0.0
 10
126.6361524530897
 20
132.436113271956
 30
0.0
 10
126.665792825504
 20
133.702376387892
 30
0.0
 10
126.6952310620907
 20
134.9686442489147
 30
0.0
 10
126.7246723885905
 20
136.2349120178143
 30
0.0
  0
SPLINE
  5
D2
330
70
100
AcDbEntity
  8
RACCORDO
 62
   250
420
  3355443
370
    25
100
AcDbSpline
210
0.0
220
0.0
230
1.0
 70
     8
 71
     3
 72
    20
 73
    16
 74
     0
 42
0.0000000001
 43
0.0000000001
 40
0.0
 40
0.0
 40
0.0
 40
0.0
 40
1.0
 40
1.0
 40
1.0
 40
2.0
 40
2.0
 40
2.0
 40
3.0
 40
3.0
 40
3.0
 40
4.0
 40
4.0
 40
4.0
 40
5.0
 40
5.0
 40
5.0
 40
5.0
 10
125.7668515766908
 20
121.0111916638147
 30
0.0
 10
125.7649228786906
 20
121.2856346093149
 30
0.0
 10
125.7673339253363
 20
121.5600991545459
 30
0.0
 10
125.7712109680129
 20
121.8345292907374
 30
0.0
 10
125.7751381940398
 20
122.1125115733853
 30
0.0
 10
125.7805696125918
 20
122.3904585504663
 30
0.0
 10
125.7865613797598
 20
122.6683943796994
 30
0.0
 10
125.7986164037899
 20
123.227582179642
 30
0.0
 10
125.8129396448516
 20
123.7867248545709
 30
0.0
 10
125.8273931003084
 20
124.3458610379606
 30
0.0
 10
125.8418764444173
 20
124.9061534726425
 30
0.0
 10
125.8564905420261
 20
125.4664393889096
 30
0.0
 10
125.8709820677767
 20
126.026729384195
 30
0.0
 10
125.8854771946249
 20
126.5871586097321
 30
0.0
 10
125.8998496886906
 20
127.1475919163147
 30
0.0
 10
125.9140451004905
 20
127.7080292546147
 30
0.0
  0
SPLINE
  5
D3
330
70
100
AcDbEntity
  8
RACCORDO
 62
   250
420
  3355443
370
    25
100
AcDbSpline
210
0.0
220
0.0
230
1.0
 70
     8
 71
     3
 72
    11
 73
     7
 74
     0
 42
0.0000000001
 43
0.0000000001
 40
0.0
 40
0.0
 40
0.0
 40
0.0
 40
1.0
 40
1.0
 40
1.0
 40
2.0
 40
2.0
 40
2.0
 40
2.0
 10
125.9140451004905
 20
127.7080292546147
 30
0.0
 10
125.9319731626906
 20
128.4158322852148
 30
0.0
 10
125.9495894913547
 20
129.1236432229152
 30
0.0
 10
125.9670122476488
 20
129.831458884166
 30
0.0
 10
126.0192658055196
 20
131.9543082194275
 30
0.0
 10
126.0697781925908
 20
134.0772000427143
 30
0.0
 10
126.1205473948905
 20
136.2000853596144
 30
0.0
  0
SPLINE
  5
D4
330
70
100
AcDbEntity
  8
RACCORDO
 62
   250
420
  3355443
370
    25
100
AcDbSpline
210
0.0
220
0.0
230
1.0
 70
     8
 71
     3
 72
    11
 73
     7
 74
     0
 42
0.0000000001
 43
0.0000000001
 40
0.0
 40
0.0
 40
0.0
 40
0.0
 40
1.0
 40
1.0
 40
1.0
 40
2.0
 40
2.0
 40
2.0
 40
2.0
 10
125.0665647038906
 20
120.5936920771147
 30
0.0
 10
125.0709276964907
 20
120.5578313844147
 30
0.0
 10
125.0794753906172
 20
120.521714702227
 30
0.0
 10
125.0981539660925
 20
120.4900226826192
 30
0.0
 10
125.1129801589315
 20
120.4648670172544
 30
0.0
 10
125.1341892660906
 20
120.4424990898143
 30
0.0
 10
125.1602074652906
 20
120.4304459496148
 30
0.0
  0
SPLINE
  5
D5
330
70
100
AcDbEntity
  8
RACCORDO
 62
   250
420
  3355443
370
    25
100
AcDbSpline
210
0.0
220
0.0
230
1.0
 70
     8
 71
     3
 72
    26
 73
    22
 74
     0
 42
0.0000000001
 43
0.0000000001
 40
0.0
 40
0.0
 40
0.0
 40
0.0
 40
1.0
 40
1.0
 40
1.0
 40
2.0
 40
2.0
 40
2.0
 40
3.0
 40
3.0
 40
3.0
 40
4.0
 40
4.0
 40
4.0
 40
5.0
 40
5.0
 40
5.0
 40
6.0
 40
6.0
 40
6.0
 40
7.0
 40
7.0
 40
7.0
 40
7.0
 10
125.0665647038906
 20
120.5936920771147
 30
0.0
 10
125.1117675944905
 20
120.5739705346149
 30
0.0
 10
125.1586424848971
 20
120.5576772198865
 30
0.0
 10
125.2067711714349
 20
120.5464447341369
 30
0.0
 10
125.2499111772819
 20
120.5363765287526
 30
0.0
 10
125.2940585306103
 20
120.530374385786
 30
0.0
 10
125.3383710309303
 20
120.5300475453634
 30
0.0
 10
125.3785289405752
 20
120.5297513483962
 30
0.0
 10
125.418822481653
 20
120.5341161471403
 30
0.0
 10
125.4577175784495
 20
120.5442081240967
 30
0.0
 10
125.4942433229068
 20
120.553685333353
 30
0.0
 10
125.5295358103134
 20
120.5682132142733
 30
0.0
 10
125.5618632503116
 20
120.5877009856623
 30
0.0
 10
125.5938434690418
 20
120.6069794435799
 30
0.0
 10
125.6229219920281
 20
120.6311118181748
 30
0.0
 10
125.6479555145991
 20
120.6587918499934
 30
0.0
 10
125.6740285963004
 20
120.6876213416907
 30
0.0
 10
125.6957137512319
 20
120.7202992532914
 30
0.0
 10
125.7129011074095
 20
120.7552526267803
 30
0.0
 10
125.7515605824595
 20
120.8338731578466
 30
0.0
 10
125.7674641703903
 20
120.9240060212146
 30
0.0
 10
125.7668516244903
 20
121.0111917069144
 30
0.0
  0
LINE
  5
D6
330
70
100
AcDbEntity
  8
RACCORDO
 62
   250
420
  3355443
370
    25
100
AcDbLine
 10
103.8342932628907
 20
131.7390053177146
 30
0.0
 11
103.9461100580907
 21
131.6795558169148
 31
0.0
  0
SPLINE
  5
D7
330
70
100
AcDbEntity
  8
RACCORDO
 62
   250
420
  3355443
370
    25
100
AcDbSpline
210
0.0
220
0.0
230
1.0
 70
     8
 71
     3
 72
    32
 73
    28
 74
     0
 42
0.0000000001
 43
0.0000000001
 40
0.0
 40
0.0
 40
0.0
 40
0.0
 40
1.0
 40
1.0
 40
1.0
 40
2.0
 40
2.0
 40
2.0
 40
3.0
 40
3.0
 40
3.0
 40
4.0
 40
4.0
 40
4.0
 40
5.0
 40
5.0
 40
5.0
 40
6.0
 40
6.0
 40
6.0
 40
7.0
 40
7.0
 40
7.0
 40
8.0
 40
8.0
 40
8.0
 40
9.0
 40
9.0
 40
9.0
 40
9.0
 10
103.9461100580907
 20
131.6795558169148
 30
0.0
 10
105.7012673114907
 20
130.7464000449148
 30
0.0
 10
107.4565661784778
 20
129.8135106642367
 30
0.0
 10
109.2118909461495
 20
128.8806700099812
 30
0.0
 10
110.0894312348034
 20
128.4143145684813
 30
0.0
 10
110.9669779968273
 20
127.9479713051983
 30
0.0
 10
111.8444868273619
 20
127.4815567093256
 30
0.0
 10
112.7217679734789
 20
127.0152631325606
 30
0.0
 10
113.5990112077881
 20
126.5488982602184
 30
0.0
 10
114.4761773104272
 20
126.0823881785764
 30
0.0
 10
115.3529392767963
 20
125.616093031876
 30
0.0
 10
116.2296241825524
 20
125.1496528096495
 30
0.0
 10
117.1062098131589
 20
124.6830267017144
 30
0.0
 10
117.9822262330116
 20
124.2167035973753
 30
0.0
 10
118.8581435066025
 20
123.7501948486583
 30
0.0
 10
119.7346168935327
 20
123.2847287561288
 30
0.0
 10
120.172675769168
 20
123.0520901430455
 30
0.0
 10
120.6108735603369
 20
122.81971198252
 30
0.0
 10
121.0495768999035
 20
122.58829318131
 30
0.0
 10
121.4884070670071
 20
122.3568074777678
 30
0.0
 10
121.9277430748548
 20
122.1262816883162
 30
0.0
 10
122.368436671566
 20
121.8983427357069
 30
0.0
 10
122.8100483401523
 20
121.6699289308566
 30
0.0
 10
123.253023259869
 20
121.4441127520945
 30
0.0
 10
123.6999611023297
 20
121.2262523059827
 30
0.0
 10
124.1512053467369
 20
121.0062926985109
 30
0.0
 10
124.6064892500907
 20
120.7944428748146
 30
0.0
 10
125.0665662450907
 20
120.5936935498146
 30
0.0
  0
SPLINE
  5
D8
330
70
100
AcDbEntity
  8
RACCORDO
 62
   250
420
  3355443
370
    25
100
AcDbSpline
210
0.0
220
0.0
230
1.0
 70
     8
 71
     3
 72
    11
 73
     7
 74
     0
 42
0.0000000001
 43
0.0000000001
 40
0.0
 40
0.0
 40
0.0
 40
0.0
 40
1.0
 40
1.0
 40
1.0
 40
2.0
 40
2.0
 40
2.0
 40
2.0
 10
82.67653318399077
 20
143.0493241185146
 30
0.0
 10
82.68183212969068
 20
143.0147789311143
 30
0.0
 10
82.69208162070379
 20
142.9803843728623
 30
0.0
 10
82.71018136485334
 20
142.9500223605463
 30
0.0
 10
82.72597045204001
 20
142.9235364359022
 30
0.0
 10
82.74773336889056
 20
142.9001191693147
 30
0.0
 10
82.77380464669054
 20
142.8843148068148
 30
0.0
  0
LINE
  5
D9
330
70
100
AcDbEntity
  8
RACCORDO
 62
   250
420
  3355443
370
    25
100
AcDbLine
 10
82.8203819961906
 20
142.9585377358145
 30
0.0
 11
82.87101231689073
 21
142.9268640932146
 31
0.0
  0
SPLINE
  5
DA
330
70
100
AcDbEntity
  8
RACCORDO
 62
   250
420
  3355443
370
    25
100
AcDbSpline
210
0.0
220
0.0
230
1.0
 70
     8
 71
     3
 72
    29
 73
    25
 74
     0
 42
0.0000000001
 43
0.0000000001
 40
0.0
 40
0.0
 40
0.0
 40
0.0
 40
1.0
 40
1.0
 40
1.0
 40
2.0
 40
2.0
 40
2.0
 40
3.0
 40
3.0
 40
3.0
 40
4.0
 40
4.0
 40
4.0
 40
5.0
 40
5.0
 40
5.0
 40
6.0
 40
6.0
 40
6.0
 40
7.0
 40
7.0
 40
7.0
 40
8.0
 40
8.0
 40
8.0
 40
8.0
 10
82.87101231689073
 20
142.9268640932146
 30
0.0
 10
83.70781379799076
 20
142.4045612942147
 30
0.0
 10
84.57205515871569
 20
141.9271013923071
 30
0.0
 10
85.44023371466309
 20
141.4583839937068
 30
0.0
 10
85.87665508269267
 20
141.2227662317669
 30
0.0
 10
86.31407135398022
 20
140.9893576427363
 30
0.0
 10
86.75196149810687
 20
140.7567499418152
 30
0.0
 10
87.18992554893665
 20
140.5241029815769
 30
0.0
 10
87.62836363257887
 20
140.2922571798185
 30
0.0
 10
88.0669080318383
 20
140.0606301346801
 30
0.0
 10
88.94361364188821
 20
139.597578433974
 30
0.0
 10
89.82074414290485
 20
139.1354009953428
 30
0.0
 10
90.69778362406784
 20
138.6730325628257
 30
0.0
 10
91.57426853455364
 20
138.2109564956814
 30
0.0
 10
92.45066254025687
 20
137.7486896761141
 30
0.0
 10
93.32697982814671
 20
137.2862823859725
 30
0.0
 10
94.20291011604765
 20
136.8240793045324
 30
0.0
 10
95.07876375388034
 20
136.3617358765608
 30
0.0
 10
95.95458326351593
 20
135.8993265312394
 30
0.0
 10
96.83018497821596
 20
135.4370321758363
 30
0.0
 10
97.70575258169023
 20
134.9746719358639
 30
0.0
 10
98.58132814520493
 20
134.5123270215762
 30
0.0
 10
100.3322494191963
 20
133.5877585661723
 30
0.0
 10
102.0832025249906
 20
132.6632513974145
 30
0.0
 10
103.8342948796906
 20
131.7390075246145
 30
0.0
  0
SPLINE
  5
DB
330
70
100
AcDbEntity
  8
RACCORDO
 62
   250
420
  3355443
370
    25
100
AcDbSpline
210
0.0
220
0.0
230
1.0
 70
     8
 71
     3
 72
    11
 73
     7
 74
     0
 42
0.0000000001
 43
0.0000000001
 40
0.0
 40
0.0
 40
0.0
 40
0.0
 40
1.0
 40
1.0
 40
1.0
 40
2.0
 40
2.0
 40
2.0
 40
2.0
 10
82.0105700184907
 20
144.1905799963148
 30
0.0
 10
81.97706306199071
 20
144.2143184524147
 30
0.0
 10
81.94629830706935
 20
144.243337020116
 30
0.0
 10
81.92468504512165
 20
144.2788967288406
 30
0.0
 10
81.90612878051179
 20
144.3094268434592
 30
0.0
 10
81.89431829989052
 20
144.3447785893144
 30
0.0
 10
81.89371925239068
 20
144.3800291475148
 30
0.0
  0
SPLINE
  5
DC
330
70
100
AcDbEntity
  8
RACCORDO
 62
   250
420
  3355443
370
    25
100
AcDbSpline
210
0.0
220
0.0
230
1.0
 70
     8
 71
     3
 72
    17
 73
    13
 74
     0
 42
0.0000000001
 43
0.0000000001
 40
0.0
 40
0.0
 40
0.0
 40
0.0
 40
1.0
 40
1.0
 40
1.0
 40
2.0
 40
2.0
 40
2.0
 40
3.0
 40
3.0
 40
3.0
 40
4.0
 40
4.0
 40
4.0
 40
4.0
 10
82.0105700184907
 20
144.1905799963148
 30
0.0
 10
82.01361796919078
 20
144.0840185394147
 30
0.0
 10
82.03507683844296
 20
143.9779487717228
 30
0.0
 10
82.06744331796526
 20
143.8758624488654
 30
0.0
 10
82.10344660379403
 20
143.7623053640269
 30
0.0
 10
82.15294644561103
 20
143.6536772035728
 30
0.0
 10
82.21295401444754
 20
143.5512316798761
 30
0.0
 10
82.27361310543761
 20
143.4476738710214
 30
0.0
 10
82.34500933389707
 20
143.350433681635
 30
0.0
 10
82.42666311464772
 20
143.2620085585027
 30
0.0
 10
82.5011684316226
 20
143.1813247032422
 30
0.0
 10
82.5842139020907
 20
143.1079800276148
 30
0.0
 10
82.67653237089071
 20
143.0493235189149
 30
0.0
  0
SPLINE
  5
DD
330
70
100
AcDbEntity
  8
RACCORDO
 62
   250
420
  3355443
370
    25
100
AcDbSpline
210
0.0
220
0.0
230
1.0
 70
     8
 71
     3
 72
    32
 73
    28
 74
     0
 42
0.0000000001
 43
0.0000000001
 40
0.0
 40
0.0
 40
0.0
 40
0.0
 40
1.0
 40
1.0
 40
1.0
 40
2.0
 40
2.0
 40
2.0
 40
3.0
 40
3.0
 40
3.0
 40
4.0
 40
4.0
 40
4.0
 40
5.0
 40
5.0
 40
5.0
 40
6.0
 40
6.0
 40
6.0
 40
7.0
 40
7.0
 40
7.0
 40
8.0
 40
8.0
 40
8.0
 40
9.0
 40
9.0
 40
9.0
 40
9.0
 10
82.31989176559078
 20
159.4030164994145
 30
0.0
 10
82.29076048969051
 20
158.1346019961145
 30
0.0
 10
82.2616055400018
 20
156.8661880181076
 30
0.0
 10
82.23232788117877
 20
155.5977768989811
 30
0.0
 10
82.21768650864161
 20
154.9634611622764
 30
0.0
 10
82.20301444816113
 20
154.3291461405402
 30
0.0
 10
82.18827359543565
 20
153.6948326771509
 30
0.0
 10
82.17352872135299
 20
153.0603461707971
 30
0.0
 10
82.15871501748654
 20
152.4258612236407
 30
0.0
 10
82.14381579856658
 20
151.7913784289072
 30
0.0
 10
82.12891078254424
 20
151.1566487647411
 30
0.0
 10
82.11392018490974
 20
150.5219212546728
 30
0.0
 10
82.0988887224969
 20
149.8871941804044
 30
0.0
 10
82.08385267693991
 20
149.2522735756789
 30
0.0
 10
82.068775741681
 20
148.6173534070194
 30
0.0
 10
82.05425096257926
 20
147.9824222147193
 30
0.0
 10
82.04699030926482
 20
147.6650325158121
 30
0.0
 10
82.03986762899493
 20
147.3476400623129
 30
0.0
 10
82.03310387357918
 20
147.0302373003748
 30
0.0
 10
82.0263469640459
 20
146.7131557951723
 30
0.0
 10
82.01994825316814
 20
146.3960640023888
 30
0.0
 10
82.01453898275063
 20
146.078962708504
 30
0.0
 10
82.00914645038166
 20
145.7628426295277
 30
0.0
 10
82.004737244643
 20
145.446713108158
 30
0.0
 10
82.00283411091602
 20
145.1305233171394
 30
0.0
 10
82.00094818456827
 20
144.817192388581
 30
0.0
 10
82.00152321729076
 20
144.5038022753148
 30
0.0
 10
82.01049896559068
 20
144.1906190201144
 30
0.0
  0
SPLINE
  5
DE
330
70
100
AcDbEntity
  8
RACCORDO
 62
   250
420
  3355443
370
    25
100
AcDbSpline
210
0.0
220
0.0
230
1.0
 70
     8
 71
     3
 72
    17
 73
    13
 74
     0
 42
0.0000000001
 43
0.0000000001
 40
0.0
 40
0.0
 40
0.0
 40
0.0
 40
1.0
 40
1.0
 40
1.0
 40
2.0
 40
2.0
 40
2.0
 40
3.0
 40
3.0
 40
3.0
 40
4.0
 40
4.0
 40
4.0
 40
4.0
 10
82.76546079469047
 20
174.6485330044146
 30
0.0
 10
82.74690042969048
 20
174.6611850651145
 30
0.0
 10
82.72923926623937
 20
174.6752827137683
 30
0.0
 10
82.71323042831474
 20
174.6911128698193
 30
0.0
 10
82.69902717897636
 20
174.7051575902745
 30
0.0
 10
82.68612455260608
 20
174.720566048611
 30
0.0
 10
82.6755121536914
 20
174.7375004774541
 30
0.0
 10
82.66606457956491
 20
174.7525761708078
 30
0.0
 10
82.65843207009387
 20
174.768861235364
 30
0.0
 10
82.65370430360205
 20
174.7860523517132
 30
0.0
 10
82.6493157460017
 20
174.8020100358417
 30
0.0
 10
82.64743006409059
 20
174.8187484207144
 30
0.0
 10
82.64849341889052
 20
174.8351826904147
 30
0.0
  0
SPLINE
  5
DF
330
70
100
AcDbEntity
  8
RACCORDO
 62
   250
420
  3355443
370
    25
100
AcDbSpline
210
0.0
220
0.0
230
1.0
 70
     8
 71
     3
 72
    29
 73
    25
 74
     0
 42
0.0000000001
 43
0.0000000001
 40
0.0
 40
0.0
 40
0.0
 40
0.0
 40
1.0
 40
1.0
 40
1.0
 40
2.0
 40
2.0
 40
2.0
 40
3.0
 40
3.0
 40
3.0
 40
4.0
 40
4.0
 40
4.0
 40
5.0
 40
5.0
 40
5.0
 40
6.0
 40
6.0
 40
6.0
 40
7.0
 40
7.0
 40
7.0
 40
8.0
 40
8.0
 40
8.0
 40
8.0
 10
82.76546079469047
 20
174.6485330044146
 30
0.0
 10
82.74109124409049
 20
174.3280328048144
 30
0.0
 10
82.72456916875928
 20
174.006961621187
 30
0.0
 10
82.71063124156766
 20
173.6858170559087
 30
0.0
 10
82.69681598576596
 20
173.3674989690366
 30
0.0
 10
82.68553959073257
 20
173.0491087865317
 30
0.0
 10
82.67515500466428
 20
172.7306864834304
 30
0.0
 10
82.6544606099096
 20
172.0961347742143
 30
0.0
 10
82.63730781028566
 20
171.4614555061233
 30
0.0
 10
82.62048878461325
 20
170.8267751997696
 30
0.0
 10
82.60368234215556
 20
170.1925697317751
 30
0.0
 10
82.58720917440818
 20
169.5583632270714
 30
0.0
 10
82.57075422024271
 20
168.9241541991172
 30
0.0
 10
82.55429424926068
 20
168.2897518123407
 30
0.0
 10
82.53785250296836
 20
167.6553469007752
 30
0.0
 10
82.52130920454932
 20
167.0209451829714
 30
0.0
 10
82.50475945303181
 20
166.3862960020182
 30
0.0
 10
82.48810807014606
 20
165.7516500173186
 30
0.0
 10
82.47139276221849
 20
165.1170055761271
 30
0.0
 10
82.45467290391863
 20
164.4821883670518
 30
0.0
 10
82.43788908576762
 20
163.847372702325
 30
0.0
 10
82.42107384921283
 20
163.2125578991366
 30
0.0
 10
82.38743754803955
 20
161.9427082696016
 30
0.0
 10
82.35367552969071
 20
160.6728620874147
 30
0.0
 10
82.31989156809058
 20
159.4030164358144
 30
0.0
  0
SPLINE
  5
E0
330
70
100
AcDbEntity
  8
RACCORDO
 62
   250
420
  3355443
370
    25
100
AcDbSpline
210
0.0
220
0.0
230
1.0
 70
     8
 71
     3
 72
    14
 73
    10
 74
     0
 42
0.0000000001
 43
0.0000000001
 40
0.0
 40
0.0
 40
0.0
 40
0.0
 40
1.0
 40
1.0
 40
1.0
 40
2.0
 40
2.0
 40
2.0
 40
3.0
 40
3.0
 40
3.0
 40
3.0
 10
83.47017227129059
 20
175.0687553427144
 30
0.0
 10
83.48861571249052
 20
175.1739518171144
 30
0.0
 10
83.53347241142637
 20
175.2753629009751
 30
0.0
 10
83.59351285835936
 20
175.3644667361645
 30
0.0
 10
83.6240846050188
 20
175.409837149194
 30
0.0
 10
83.65859304568019
 20
175.452016658895
 30
0.0
 10
83.69752484280116
 20
175.4901556569768
 30
0.0
 10
83.73315021802845
 20
175.5250555644543
 30
0.0
 10
83.77247951609072
 20
175.5565721264146
 30
0.0
 10
83.81537132539078
 20
175.5818040719145
 30
0.0
  0
SPLINE
  5
E1
330
70
100
AcDbEntity
  8
RACCORDO
 62
   250
420
  3355443
370
    25
100
AcDbSpline
210
0.0
220
0.0
230
1.0
 70
     8
 71
     3
 72
    17
 73
    13
 74
     0
 42
0.0000000001
 43
0.0000000001
 40
0.0
 40
0.0
 40
0.0
 40
0.0
 40
1.0
 40
1.0
 40
1.0
 40
2.0
 40
2.0
 40
2.0
 40
3.0
 40
3.0
 40
3.0
 40
4.0
 40
4.0
 40
4.0
 40
4.0
 10
83.81537132539078
 20
175.5818040719145
 30
0.0
 10
83.7489666454906
 20
175.6204861133145
 30
0.0
 10
83.67849386380305
 20
175.6529088127166
 30
0.0
 10
83.60493613184164
 20
175.6759845684257
 30
0.0
 10
83.53833718805997
 20
175.6968772865155
 30
0.0
 10
83.46920937610169
 20
175.7101079075359
 30
0.0
 10
83.39944761858149
 20
175.7126758394361
 30
0.0
 10
83.33552771030742
 20
175.7150287327311
 30
0.0
 10
83.27107558419685
 20
175.7084299530783
 30
0.0
 10
83.20943178405228
 20
175.6909065449108
 30
0.0
 10
83.15050001763975
 20
175.6741540832775
 30
0.0
 10
83.09413490699078
 20
175.6474171109146
 30
0.0
 10
83.04440097149079
 20
175.6121863489146
 30
0.0
  0
SPLINE
  5
E2
330
70
100
AcDbEntity
  8
RACCORDO
 62
   250
420
  3355443
370
    25
100
AcDbSpline
210
0.0
220
0.0
230
1.0
 70
     8
 71
     3
 72
    23
 73
    19
 74
     0
 42
0.0000000001
 43
0.0000000001
 40
0.0
 40
0.0
 40
0.0
 40
0.0
 40
1.0
 40
1.0
 40
1.0
 40
2.0
 40
2.0
 40
2.0
 40
3.0
 40
3.0
 40
3.0
 40
4.0
 40
4.0
 40
4.0
 40
5.0
 40
5.0
 40
5.0
 40
6.0
 40
6.0
 40
6.0
 40
6.0
 10
83.47017227129059
 20
175.0687553427144
 30
0.0
 10
83.39369963159075
 20
175.1124239580145
 30
0.0
 10
83.30536780082217
 20
175.1413329152436
 30
0.0
 10
83.21685927611573
 20
175.1437729379779
 30
0.0
 10
83.17726080890876
 20
175.1448645973469
 30
0.0
 10
83.1376269738894
 20
175.1406581218853
 30
0.0
 10
83.09938082332088
 20
175.1307613786784
 30
0.0
 10
83.06259830724615
 20
175.1212433720119
 30
0.0
 10
83.02709929783569
 20
175.106462283693
 30
0.0
 10
82.99453589213296
 20
175.0868384915065
 30
0.0
 10
82.96173070186807
 20
175.067068991895
 30
0.0
 10
82.93190487109933
 20
175.0423846069003
 30
0.0
 10
82.90597831310954
 20
175.0142310872525
 30
0.0
 10
82.87860594636915
 20
174.9845075711129
 30
0.0
 10
82.85557986853071
 20
174.9509172156174
 30
0.0
 10
82.83672960197753
 20
174.9151234247726
 30
0.0
 10
82.79370550122242
 20
174.8334271973287
 30
0.0
 10
82.77243491719056
 20
174.7402523698144
 30
0.0
 10
82.76546085989062
 20
174.6485330307146
 30
0.0
  0
SPLINE
  5
E3
330
70
100
AcDbEntity
  8
RACCORDO
 62
   250
420
  3355443
370
    25
100
AcDbSpline
210
0.0
220
0.0
230
1.0
 70
     8
 71
     3
 72
    32
 73
    28
 74
     0
 42
0.0000000001
 43
0.0000000001
 40
0.0
 40
0.0
 40
0.0
 40
0.0
 40
1.0
 40
1.0
 40
1.0
 40
2.0
 40
2.0
 40
2.0
 40
3.0
 40
3.0
 40
3.0
 40
4.0
 40
4.0
 40
4.0
 40
5.0
 40
5.0
 40
5.0
 40
6.0
 40
6.0
 40
6.0
 40
7.0
 40
7.0
 40
7.0
 40
8.0
 40
8.0
 40
8.0
 40
9.0
 40
9.0
 40
9.0
 40
9.0
 10
104.9347396705906
 20
164.3342555317144
 30
0.0
 10
103.1683613974908
 20
165.2673087373147
 30
0.0
 10
101.4020728589066
 20
166.2005318190761
 30
0.0
 10
99.63574725347267
 20
167.1336847148139
 30
0.0
 10
98.75255962371054
 20
167.6002742788537
 30
0.0
 10
97.86936272671503
 20
168.0668462954011
 30
0.0
 10
96.98610234002877
 20
168.5332981490724
 30
0.0
 10
96.10271346557777
 20
168.9998178574295
 30
0.0
 10
95.21926108296307
 20
169.4662173679472
 30
0.0
 10
94.3356879551497
 20
169.9323879299168
 30
0.0
 10
93.45187320705937
 20
170.3986859700279
 30
0.0
 10
92.5679376477238
 20
170.8647549363575
 30
0.0
 10
91.68382721605849
 20
171.3304925044463
 30
0.0
 10
90.79953129620644
 20
171.7963277852346
 30
0.0
 10
89.91506043063958
 20
172.2618315287112
 30
0.0
 10
89.0308568743792
 20
172.727840546303
 30
0.0
 10
88.58897548745554
 20
172.9607289005225
 30
0.0
 10
88.14716086124693
 20
173.1937434473603
 30
0.0
 10
87.70569041592144
 20
173.4274130669848
 30
0.0
 10
87.26503747580151
 20
173.6606499823767
 30
0.0
 10
86.82472744305167
 20
173.8945395467027
 30
0.0
 10
86.3854256382209
 20
174.1303072663949
 30
0.0
 10
85.94862671489281
 20
174.3647317212559
 30
0.0
 10
85.51282456364024
 20
174.6010129912148
 30
0.0
 10
85.08026882936286
 20
174.8432628360447
 30
0.0
 10
84.65424735595865
 20
175.081853213303
 30
0.0
 10
84.23137495849065
 20
175.3262332028147
 30
0.0
 10
83.81537111929052
 20
175.5818131667147
 30
0.0
  0
SPLINE
  5
E4
330
70
100
AcDbEntity
  8
RACCORDO
 62
   250
420
  3355443
370
    25
100
AcDbSpline
210
0.0
220
0.0
230
1.0
 70
     8
 71
     3
 72
     8
 73
     4
 74
     0
 42
0.0000000001
 43
0.0000000001
 40
0.0
 40
0.0
 40
0.0
 40
0.0
 40
1.0
 40
1.0
 40
1.0
 40
1.0
 10
104.6293174336904
 20
163.8784564051147
 30
0.0
 10
102.0504322744905
 20
165.2436538338147
 30
0.0
 10
99.47158627329072
 20
166.6089257228145
 30
0.0
 10
96.89205720069077
 20
167.9729060918146
 30
0.0
  0
SPLINE
  5
E5
330
70
100
AcDbEntity
  8
RACCORDO
 62
   250
420
  3355443
370
    25
100
AcDbSpline
210
0.0
220
0.0
230
1.0
 70
     8
 71
     3
 72
    29
 73
    25
 74
     0
 42
0.0000000001
 43
0.0000000001
 40
0.0
 40
0.0
 40
0.0
 40
0.0
 40
1.0
 40
1.0
 40
1.0
 40
2.0
 40
2.0
 40
2.0
 40
3.0
 40
3.0
 40
3.0
 40
4.0
 40
4.0
 40
4.0
 40
5.0
 40
5.0
 40
5.0
 40
6.0
 40
6.0
 40
6.0
 40
7.0
 40
7.0
 40
7.0
 40
8.0
 40
8.0
 40
8.0
 40
8.0
 10
96.89205720069077
 20
167.9729060918146
 30
0.0
 10
95.76841973179046
 20
168.5670530878146
 30
0.0
 10
94.64463492680691
 20
169.1609217557249
 30
0.0
 10
93.52051587841122
 20
169.7541571805894
 30
0.0
 10
92.95834280872728
 20
170.0508348147927
 30
0.0
 10
92.39608614442563
 20
170.3473540742654
 30
0.0
 10
91.83372255291306
 20
170.64367035361
 30
0.0
 10
91.27130608961431
 20
170.9400144917481
 30
0.0
 10
90.70878267899798
 20
171.2361556115898
 30
0.0
 10
90.14612250582789
 20
171.5320370059845
 30
0.0
 10
89.58356541212191
 20
171.8278641948448
 30
0.0
 10
89.02087160596797
 20
172.1234317534133
 30
0.0
 10
88.4580758005328
 20
172.4188036062969
 30
0.0
 10
87.89609899260641
 20
172.7137456251105
 30
0.0
 10
87.33402048204792
 20
173.0084925074184
 30
0.0
 10
86.77196862706081
 20
173.3032949650484
 30
0.0
 10
86.21335411985704
 20
173.5962944954834
 30
0.0
 10
85.6547659431861
 20
173.8893489235536
 30
0.0
 10
85.0972026730794
 20
174.184336724978
 30
0.0
 10
84.8220866668481
 20
174.3298912658991
 30
0.0
 10
84.54722019343911
 20
174.4759165230067
 30
0.0
 10
84.27341219391188
 20
174.6239383613739
 30
0.0
 10
84.00416857179335
 20
174.7694926767462
 30
0.0
 10
83.73594842819077
 20
174.9169775622146
 30
0.0
 10
83.47017405909076
 20
175.0687559178144
 30
0.0
  0
SPLINE
  5
E6
330
70
100
AcDbEntity
  8
RACCORDO
 62
   250
420
  3355443
370
    25
100
AcDbSpline
210
0.0
220
0.0
230
1.0
 70
     8
 71
     3
 72
    17
 73
    13
 74
     0
 42
0.0000000001
 43
0.0000000001
 40
0.0
 40
0.0
 40
0.0
 40
0.0
 40
1.0
 40
1.0
 40
1.0
 40
2.0
 40
2.0
 40
2.0
 40
3.0
 40
3.0
 40
3.0
 40
4.0
 40
4.0
 40
4.0
 40
4.0
 10
125.8602147892908
 20
152.6131241252147
 30
0.0
 10
125.8677583917906
 20
152.6652900355147
 30
0.0
 10
125.8808174542167
 20
152.7167161744686
 30
0.0
 10
125.8978807989407
 20
152.7666980975113
 30
0.0
 10
125.9158108325828
 20
152.8192187243961
 30
0.0
 10
125.9381622535979
 20
152.8701446989769
 30
0.0
 10
125.9645551478685
 20
152.918891158921
 30
0.0
 10
125.9900463582803
 20
152.965972250314
 30
0.0
 10
126.0193076141667
 20
153.0110202045876
 30
0.0
 10
126.0528703600623
 20
153.0528853263644
 30
0.0
 10
126.0826226323504
 20
153.0899973822836
 30
0.0
 10
126.1157551188906
 20
153.1246082919146
 30
0.0
 10
126.1530675680908
 20
153.1538736549146
 30
0.0
  0
SPLINE
  5
E7
330
70
100
AcDbEntity
  8
RACCORDO
 62
   250
420
  3355443
370
    25
100
AcDbSpline
210
0.0
220
0.0
230
1.0
 70
     8
 71
     3
 72
    11
 73
     7
 74
     0
 42
0.0000000001
 43
0.0000000001
 40
0.0
 40
0.0
 40
0.0
 40
0.0
 40
1.0
 40
1.0
 40
1.0
 40
2.0
 40
2.0
 40
2.0
 40
2.0
 10
96.01774879189056
 20
150.5250088932145
 30
0.0
 10
96.02901909199077
 20
150.5312249495147
 30
0.0
 10
96.04248512131677
 20
150.5336928421293
 30
0.0
 10
96.05552906378596
 20
150.5329827408102
 30
0.0
 10
96.07069298475581
 20
150.5321572296345
 30
0.0
 10
96.08528646949052
 20
150.5270367662145
 30
0.0
 10
96.09850853789067
 20
150.5200325162147
 30
0.0
  0
SPLINE
  5
E8
330
70
100
AcDbEntity
  8
RACCORDO
 62
   250
420
  3355443
370
    25
100
AcDbSpline
210
0.0
220
0.0
230
1.0
 70
     8
 71
     3
 72
    29
 73
    25
 74
     0
 42
0.0000000001
 43
0.0000000001
 40
0.0
 40
0.0
 40
0.0
 40
0.0
 40
1.0
 40
1.0
 40
1.0
 40
2.0
 40
2.0
 40
2.0
 40
3.0
 40
3.0
 40
3.0
 40
4.0
 40
4.0
 40
4.0
 40
5.0
 40
5.0
 40
5.0
 40
6.0
 40
6.0
 40
6.0
 40
7.0
 40
7.0
 40
7.0
 40
8.0
 40
8.0
 40
8.0
 40
8.0
 10
126.1530761151909
 20
153.1538696537144
 30
0.0
 10
125.2321251546905
 20
153.5733630374145
 30
0.0
 10
124.3308524866927
 20
154.0351945409772
 30
0.0
 10
123.4339527822666
 20
154.5042387293396
 30
0.0
 10
122.9911149812864
 20
154.7358259357036
 30
0.0
 10
122.5493432300468
 20
154.9691714646863
 30
0.0
 10
122.1078994332384
 20
155.2032039357776
 30
0.0
 10
121.6672715653491
 20
155.4368038402263
 30
0.0
 10
121.2269704406824
 20
155.6710881497543
 30
0.0
 10
120.7867406565098
 20
155.9054936004528
 30
0.0
 10
119.9067221800248
 20
156.3740696373763
 30
0.0
 10
119.026988779665
 20
156.8431297535906
 30
0.0
 10
118.1470745284276
 20
157.3118640721667
 30
0.0
 10
117.2669747195373
 20
157.7806972381468
 30
0.0
 10
116.3866939834848
 20
158.2492044690647
 30
0.0
 10
115.5062927285297
 20
158.7174813835484
 30
0.0
 10
114.6256497085378
 20
159.1858868905176
 30
0.0
 10
113.744886103443
 20
159.6540619545422
 30
0.0
 10
112.8640582986933
 20
160.1221171487618
 30
0.0
 10
111.9831018613097
 20
160.5902406959238
 30
0.0
 10
111.1020812055194
 20
161.0582443382673
 30
0.0
 10
110.2210513252547
 20
161.5262304192816
 30
0.0
 10
108.4589419863588
 20
162.4622289163826
 30
0.0
 10
106.6967957474906
 20
163.3981571642147
 30
0.0
 10
104.9347396705906
 20
164.3342555317144
 30
0.0
  0
SPLINE
  5
E9
330
70
100
AcDbEntity
  8
RACCORDO
 62
   250
420
  3355443
370
    25
100
AcDbSpline
210
0.0
220
0.0
230
1.0
 70
     8
 71
     3
 72
    23
 73
    19
 74
     0
 42
0.0000000001
 43
0.0000000001
 40
0.0
 40
0.0
 40
0.0
 40
0.0
 40
1.0
 40
1.0
 40
1.0
 40
2.0
 40
2.0
 40
2.0
 40
3.0
 40
3.0
 40
3.0
 40
4.0
 40
4.0
 40
4.0
 40
5.0
 40
5.0
 40
5.0
 40
6.0
 40
6.0
 40
6.0
 40
6.0
 10
125.8602147892908
 20
152.6131241252147
 30
0.0
 10
125.3376296792905
 20
152.8707848083145
 30
0.0
 10
124.8214298092662
 20
153.1412345588376
 30
0.0
 10
124.306379367411
 20
153.4137198443799
 30
0.0
 10
123.8009028271111
 20
153.6811400972817
 30
0.0
 10
123.2965333803512
 20
153.9505209143411
 30
0.0
 10
122.7922641389563
 20
154.2201199321583
 30
0.0
 10
122.291455556479
 20
154.4878687672388
 30
0.0
 10
121.7907458087232
 20
154.7558328184514
 30
0.0
 10
121.2899905542056
 20
155.0237038520418
 30
0.0
 10
120.7902451986886
 20
155.291034656276
 30
0.0
 10
120.2904545197765
 20
155.5582728176963
 30
0.0
 10
119.7905462816556
 20
155.82529238818
 30
0.0
 10
118.7911959315662
 20
156.3590825538443
 30
0.0
 10
117.7913757829983
 20
156.8919991708489
 30
0.0
 10
116.7912380155142
 20
157.4243169599679
 30
0.0
 10
115.790912853578
 20
157.9567344887462
 30
0.0
 10
114.7902699536906
 20
158.4885529652145
 30
0.0
 10
113.7894559971907
 20
159.0200500247147
 30
0.0
  0
SPLINE
  5
EA
330
70
100
AcDbEntity
  8
RACCORDO
 62
   250
420
  3355443
370
    25
100
AcDbSpline
210
0.0
220
0.0
230
1.0
 70
     8
 71
     3
 72
     8
 73
     4
 74
     0
 42
0.0000000001
 43
0.0000000001
 40
0.0
 40
0.0
 40
0.0
 40
0.0
 40
1.0
 40
1.0
 40
1.0
 40
1.0
 10
113.7894559971907
 20
159.0200500247147
 30
0.0
 10
110.7369354423904
 20
160.6411362299144
 30
0.0
 10
107.6830529917904
 20
162.2596569371146
 30
0.0
 10
104.6293189955907
 20
163.8784561533146
 30
0.0
  0
SPLINE
  5
EB
330
70
100
AcDbEntity
  8
RACCORDO
 62
   250
420
  3355443
370
    25
100
AcDbSpline
210
0.0
220
0.0
230
1.0
 70
     8
 71
     3
 72
    17
 73
    13
 74
     0
 42
0.0000000001
 43
0.0000000001
 40
0.0
 40
0.0
 40
0.0
 40
0.0
 40
1.0
 40
1.0
 40
1.0
 40
2.0
 40
2.0
 40
2.0
 40
3.0
 40
3.0
 40
3.0
 40
4.0
 40
4.0
 40
4.0
 40
4.0
 10
126.5217278190907
 20
151.4691338228147
 30
0.0
 10
126.5719039938904
 20
151.4484691029145
 30
0.0
 10
126.6245956513339
 20
151.4337209509453
 30
0.0
 10
126.6780841237878
 20
151.4238037172973
 30
0.0
 10
126.7344063261836
 20
151.4133610851729
 30
0.0
 10
126.791612007871
 20
151.408274798295
 30
0.0
 10
126.8488133421205
 20
151.4084379961078
 30
0.0
 10
126.9041571627783
 20
151.4085958943564
 30
0.0
 10
126.9594969137642
 20
151.4136678772179
 30
0.0
 10
127.0138562593923
 20
151.4248077177891
 30
0.0
 10
127.0621632666315
 20
151.4347072548951
 30
0.0
 10
127.1096960304906
 20
151.4493986861145
 30
0.0
 10
127.1538096500906
 20
151.4710236820145
 30
0.0
  0
SPLINE
  5
EC
330
70
100
AcDbEntity
  8
RACCORDO
 62
   250
420
  3355443
370
    25
100
AcDbSpline
210
0.0
220
0.0
230
1.0
 70
     8
 71
     3
 72
    17
 73
    13
 74
     0
 42
0.0000000001
 43
0.0000000001
 40
0.0
 40
0.0
 40
0.0
 40
0.0
 40
1.0
 40
1.0
 40
1.0
 40
2.0
 40
2.0
 40
2.0
 40
3.0
 40
3.0
 40
3.0
 40
4.0
 40
4.0
 40
4.0
 40
4.0
 10
127.1538130841905
 20
151.4710215580145
 30
0.0
 10
127.1624862337905
 20
151.6327813089146
 30
0.0
 10
127.1391249405401
 20
151.7964826052673
 30
0.0
 10
127.0955014942378
 20
151.953486813972
 30
0.0
 10
127.0476374887534
 20
152.1257531281544
 30
0.0
 10
126.975380566946
 20
152.2899570464908
 30
0.0
 10
126.8846869442388
 20
152.4432600454786
 30
0.0
 10
126.7935224433661
 20
152.5973589883557
 30
0.0
 10
126.6837292991721
 20
152.7404435236378
 30
0.0
 10
126.5550766869994
 20
152.8659155800372
 30
0.0
 10
126.4363744624354
 20
152.9816832427664
 30
0.0
 10
126.3016172516908
 20
153.0824574759146
 30
0.0
 10
126.1530798955907
 20
153.1539422657147
 30
0.0
  0
SPLINE
  5
ED
330
70
100
AcDbEntity
  8
RACCORDO
 62
   250
420
  3355443
370
    25
100
AcDbSpline
210
0.0
220
0.0
230
1.0
 70
     8
 71
     3
 72
    17
 73
    13
 74
     0
 42
0.0000000001
 43
0.0000000001
 40
0.0
 40
0.0
 40
0.0
 40
0.0
 40
1.0
 40
1.0
 40
1.0
 40
2.0
 40
2.0
 40
2.0
 40
3.0
 40
3.0
 40
3.0
 40
4.0
 40
4.0
 40
4.0
 40
4.0
 10
126.5217278190907
 20
151.4691338228147
 30
0.0
 10
126.5276890119907
 20
151.5782276941144
 30
0.0
 10
126.5115500890297
 20
151.6886006640995
 30
0.0
 10
126.4821803798677
 20
151.7945091094931
 30
0.0
 10
126.4502032524995
 20
151.9098200180584
 30
0.0
 10
126.4025418210584
 20
152.0198385002951
 30
0.0
 10
126.3434417602767
 20
152.1233055046529
 30
0.0
 10
126.2838677722542
 20
152.2276022176655
 30
0.0
 10
126.2126709650968
 20
152.3252419580477
 30
0.0
 10
126.1285750971098
 20
152.4118163787254
 30
0.0
 10
126.0501500118737
 20
152.4925528819977
 30
0.0
 10
125.9605068403905
 20
152.5636660714145
 30
0.0
 10
125.8602141040904
 20
152.6131238031145
 30
0.0
  0
SPLINE
  5
EE
330
70
100
AcDbEntity
  8
RACCORDO
 62
   250
420
  3355443
370
    25
100
AcDbSpline
210
0.0
220
0.0
230
1.0
 70
     8
 71
     3
 72
    29
 73
    25
 74
     0
 42
0.0000000001
 43
0.0000000001
 40
0.0
 40
0.0
 40
0.0
 40
0.0
 40
1.0
 40
1.0
 40
1.0
 40
2.0
 40
2.0
 40
2.0
 40
3.0
 40
3.0
 40
3.0
 40
4.0
 40
4.0
 40
4.0
 40
5.0
 40
5.0
 40
5.0
 40
6.0
 40
6.0
 40
6.0
 40
7.0
 40
7.0
 40
7.0
 40
8.0
 40
8.0
 40
8.0
 40
8.0
 10
126.7246723885905
 20
136.2349120178143
 30
0.0
 10
126.7580570456903
 20
137.5032799873145
 30
0.0
 10
126.7914461890063
 20
138.7716478018675
 30
0.0
 10
126.8246307061519
 20
140.0400210715938
 30
0.0
 10
126.8412208885539
 20
140.6741283513864
 30
0.0
 10
126.8577599272153
 20
141.3082369946309
 30
0.0
 10
126.8741966484022
 20
141.9423481811231
 30
0.0
 10
126.8906302203067
 20
142.5763378716669
 30
0.0
 10
126.9069615139408
 20
143.210330104485
 30
0.0
 10
126.92313004622
 20
143.844326935884
 30
0.0
 10
126.9392944411632
 20
144.4781615350192
 30
0.0
 10
126.9552961580384
 20
145.1120007303829
 30
0.0
 10
126.9712190233149
 20
145.7458402174784
 30
0.0
 10
126.9871404242194
 20
146.3796214125157
 30
0.0
 10
127.0029829880283
 20
147.0134028992309
 30
0.0
 10
127.0190046402422
 20
147.6471861599353
 30
0.0
 10
127.035044764388
 20
148.2817001318528
 30
0.0
 10
127.0512643901327
 20
148.9162158818522
 30
0.0
 10
127.0705978273205
 20
149.5506262208427
 30
0.0
 10
127.0803061978997
 20
149.8691981649031
 30
0.0
 10
127.0907997441915
 20
150.1877435286242
 30
0.0
 10
127.1035390061109
 20
150.506230480086
 30
0.0
 10
127.116410257669
 20
150.8280172285163
 30
0.0
 10
127.1315740009909
 20
151.1497443480146
 30
0.0
 10
127.1539076245909
 20
151.4709951631147
 30
0.0
  0
SPLINE
  5
EF
330
70
100
AcDbEntity
  8
RACCORDO
 62
   250
420
  3355443
370
    25
100
AcDbSpline
210
0.0
220
0.0
230
1.0
 70
     8
 71
     3
 72
    11
 73
     7
 74
     0
 42
0.0000000001
 43
0.0000000001
 40
0.0
 40
0.0
 40
0.0
 40
0.0
 40
1.0
 40
1.0
 40
1.0
 40
2.0
 40
2.0
 40
2.0
 40
2.0
 10
126.1205472977905
 20
136.2000852420147
 30
0.0
 10
126.1423783701907
 20
137.0509679432144
 30
0.0
 10
126.1642333915164
 20
137.9018499341834
 30
0.0
 10
126.1859939078707
 20
138.7527345415064
 30
0.0
 10
126.2512587515797
 20
141.3047351469918
 30
0.0
 10
126.3156734857903
 20
143.8567592876148
 30
0.0
 10
126.3761779108908
 20
146.4088768979145
 30
0.0
  0
LINE
  5
F0
330
70
100
AcDbEntity
  8
RACCORDO
 62
   250
420
  3355443
370
    25
100
AcDbLine
 10
126.3761779108908
 20
146.4088768979145
 30
0.0
 11
126.3767108721908
 21
146.4313604530147
 31
0.0
  0
SPLINE
  5
F1
330
70
100
AcDbEntity
  8
RACCORDO
 62
   250
420
  3355443
370
    25
100
AcDbSpline
210
0.0
220
0.0
230
1.0
 70
     8
 71
     3
 72
    17
 73
    13
 74
     0
 42
0.0000000001
 43
0.0000000001
 40
0.0
 40
0.0
 40
0.0
 40
0.0
 40
1.0
 40
1.0
 40
1.0
 40
2.0
 40
2.0
 40
2.0
 40
3.0
 40
3.0
 40
3.0
 40
4.0
 40
4.0
 40
4.0
 40
4.0
 10
126.3767108721908
 20
146.4313604530147
 30
0.0
 10
126.3866090179904
 20
146.8489782466148
 30
0.0
 10
126.3964172895112
 20
147.2665971736446
 30
0.0
 10
126.4062871885078
 20
147.684216627811
 30
0.0
 10
126.4161661092948
 20
148.1022178158988
 30
0.0
 10
126.4261067702733
 20
148.5202195320872
 30
0.0
 10
126.4365565254267
 20
148.9382021034068
 30
0.0
 10
126.4470406856759
 20
149.3575608534323
 30
0.0
 10
126.4580372979327
 20
149.7769003323154
 30
0.0
 10
126.4708363003727
 20
150.1962157567793
 30
0.0
 10
126.4837921078194
 20
150.6206683595608
 30
0.0
 10
126.4985947393909
 20
151.0450963149144
 30
0.0
 10
126.5218045029903
 20
151.4690944342146
 30
0.0
  0
SPLINE
  5
F2
330
70
100
AcDbEntity
  8
RACCORDO
 62
   250
420
  3355443
370
    25
100
AcDbSpline
210
0.0
220
0.0
230
1.0
 70
     8
 71
     3
 72
    11
 73
     7
 74
     0
 42
0.0000000001
 43
0.0000000001
 40
0.0
 40
0.0
 40
0.0
 40
0.0
 40
1.0
 40
1.0
 40
1.0
 40
2.0
 40
2.0
 40
2.0
 40
2.0
 10
102.5075714601907
 20
139.7362488873148
 30
0.0
 10
102.5072308377905
 20
139.7225068537146
 30
0.0
 10
102.5047786970846
 20
139.7085402465836
 30
0.0
 10
102.4988225633715
 20
139.6959488574508
 30
0.0
 10
102.4936299789749
 20
139.6849716272719
 30
0.0
 10
102.4857742086905
 20
139.6750396221147
 30
0.0
 10
102.4758945540907
 20
139.6682565691144
 30
0.0
  0
SPLINE
  5
F3
330
70
100
AcDbEntity
  8
RACCORDO
 62
    18
420
        0
370
    25
100
AcDbSpline
210
0.0
220
0.0
230
1.0
 70
     8
 71
     3
 72
    17
 73
    13
 74
     0
 42
0.0000000001
 43
0.0000000001
 40
0.0
 40
0.0
 40
0.0
 40
0.0
 40
1.0
 40
1.0
 40
1.0
 40
2.0
 40
2.0
 40
2.0
 40
3.0
 40
3.0
 40
3.0
 40
4.0
 40
4.0
 40
4.0
 40
4.0
 10
102.5177548264905
 20
140.1470855585142
 30
0.0
 10
102.5226751878905
 20
140.1501290221146
 30
0.0
 10
102.5274446631845
 20
140.1532276477223
 30
0.0
 10
102.5324686217985
 20
140.1562919624063
 30
0.0
 10
102.5360399079334
 20
140.158470233643
 30
0.0
 10
102.5397397868263
 20
140.1606311672543
 30
0.0
 10
102.5428287848543
 20
140.1629922053006
 30
0.0
 10
102.5446081866627
 20
140.1643522694154
 30
0.0
 10
102.5461848812058
 20
140.1657787337484
 30
0.0
 10
102.5486663997925
 20
140.1670462342334
 30
0.0
 10
102.5495157958146
 20
140.1674800854555
 30
0.0
 10
102.5504712024906
 20
140.1678953122146
 30
0.0
 10
102.5504451638907
 20
140.1687058039144
 30
0.0
  0
SPLINE
  5
F4
330
70
100
AcDbEntity
  8
RACCORDO
 62
   250
420
  3355443
370
    25
100
AcDbSpline
210
0.0
220
0.0
230
1.0
 70
     8
 71
     3
 72
    11
 73
     7
 74
     0
 42
0.0000000001
 43
0.0000000001
 40
0.0
 40
0.0
 40
0.0
 40
0.0
 40
1.0
 40
1.0
 40
1.0
 40
2.0
 40
2.0
 40
2.0
 40
2.0
 10
102.5075714601907
 20
139.7362488873148
 30
0.0
 10
102.5122371561906
 20
139.7394488243143
 30
0.0
 10
102.51665551324
 20
139.7429275518462
 30
0.0
 10
102.5207561702996
 20
139.7469371173999
 30
0.0
 10
102.5310312264089
 20
139.7569839246412
 30
0.0
 10
102.5393115773906
 20
139.7703636414143
 30
0.0
 10
102.5407646871904
 20
139.7844652468148
 30
0.0
  0
SPLINE
  5
F5
330
70
100
AcDbEntity
  8
RACCORDO
 62
    18
420
        0
370
    25
100
AcDbSpline
210
0.0
220
0.0
230
1.0
 70
     8
 71
     3
 72
    17
 73
    13
 74
     0
 42
0.0000000001
 43
0.0000000001
 40
0.0
 40
0.0
 40
0.0
 40
0.0
 40
1.0
 40
1.0
 40
1.0
 40
2.0
 40
2.0
 40
2.0
 40
3.0
 40
3.0
 40
3.0
 40
4.0
 40
4.0
 40
4.0
 40
4.0
 10
110.8738789853906
 20
135.7205177212148
 30
0.0
 10
110.8787993467904
 20
135.7235611849145
 30
0.0
 10
110.8835688220844
 20
135.7266598105223
 30
0.0
 10
110.8885927806708
 20
135.7297241252062
 30
0.0
 10
110.8921640667861
 20
135.7319023964431
 30
0.0
 10
110.8958639456459
 20
135.7340633300543
 30
0.0
 10
110.8989529436973
 20
135.7364243681006
 30
0.0
 10
110.9007323455192
 20
135.7377844322154
 30
0.0
 10
110.9023090400947
 20
135.7392108965483
 30
0.0
 10
110.9047905586898
 20
135.7404783969782
 30
0.0
 10
110.9056399547144
 20
135.7409122481811
 30
0.0
 10
110.9065953613904
 20
135.7413274749145
 30
0.0
 10
110.9065693227905
 20
135.7421379666143
 30
0.0
  0
SPLINE
  5
F6
330
70
100
AcDbEntity
  8
RACCORDO
 62
   250
420
  3355443
370
    25
100
AcDbSpline
210
0.0
220
0.0
230
1.0
 70
     8
 71
     3
 72
    11
 73
     7
 74
     0
 42
0.0000000001
 43
0.0000000001
 40
0.0
 40
0.0
 40
0.0
 40
0.0
 40
1.0
 40
1.0
 40
1.0
 40
2.0
 40
2.0
 40
2.0
 40
2.0
 10
110.8636956190905
 20
135.3096810500147
 30
0.0
 10
110.8731680726909
 20
135.3161776703148
 30
0.0
 10
110.8819424574031
 20
135.324096358361
 30
0.0
 10
110.8881709065526
 20
135.3339372116962
 30
0.0
 10
110.893439179913
 20
135.3422610021347
 30
0.0
 10
110.8968859742907
 20
135.3519599977148
 30
0.0
 10
110.8971307541907
 20
135.3616724290149
 30
0.0
  0
SPLINE
  5
F7
330
70
100
AcDbEntity
  8
RACCORDO
 62
    18
420
        0
370
    25
100
AcDbSpline
210
0.0
220
0.0
230
1.0
 70
     8
 71
     3
 72
    17
 73
    13
 74
     0
 42
0.0000000001
 43
0.0000000001
 40
0.0
 40
0.0
 40
0.0
 40
0.0
 40
1.0
 40
1.0
 40
1.0
 40
2.0
 40
2.0
 40
2.0
 40
3.0
 40
3.0
 40
3.0
 40
4.0
 40
4.0
 40
4.0
 40
4.0
 10
96.69895912719063
 20
159.5710042215145
 30
0.0
 10
96.70387948859072
 20
159.5740476851144
 30
0.0
 10
96.70864896388472
 20
159.5771463107222
 30
0.0
 10
96.7136729224711
 20
159.5802106254062
 30
0.0
 10
96.71724420858645
 20
159.5823888966426
 30
0.0
 10
96.72094408744563
 20
159.5845498302546
 30
0.0
 10
96.72403308546142
 20
159.5869108683004
 30
0.0
 10
96.72581248726281
 20
159.5882709324153
 30
0.0
 10
96.72738918180554
 20
159.5896973967482
 30
0.0
 10
96.72987070039258
 20
159.5909648972336
 30
0.0
 10
96.73072009641467
 20
159.5913987484554
 30
0.0
 10
96.73167550309067
 20
159.5918139752145
 30
0.0
 10
96.73164946459056
 20
159.5926244669146
 30
0.0
  0
SPLINE
  5
F8
330
70
100
AcDbEntity
  8
RACCORDO
 62
   250
420
  3355443
370
    25
100
AcDbSpline
210
0.0
220
0.0
230
1.0
 70
     8
 71
     3
 72
    11
 73
     7
 74
     0
 42
0.0000000001
 43
0.0000000001
 40
0.0
 40
0.0
 40
0.0
 40
0.0
 40
1.0
 40
1.0
 40
1.0
 40
2.0
 40
2.0
 40
2.0
 40
2.0
 10
96.32772852159076
 20
159.7676596837146
 30
0.0
 10
96.33800864109057
 20
159.7733306848145
 30
0.0
 10
96.34923179404667
 20
159.7778071015578
 30
0.0
 10
96.36111331785713
 20
159.7788857857437
 30
0.0
 10
96.37086749021504
 20
159.779771334739
 30
0.0
 10
96.38106538069076
 20
159.7783669350144
 30
0.0
 10
96.38959027419069
 20
159.7738695904147
 30
0.0
  0
SPLINE
  5
F9
330
70
100
AcDbEntity
  8
RACCORDO
 62
   250
420
  3355443
370
    25
100
AcDbSpline
210
0.0
220
0.0
230
1.0
 70
     8
 71
     3
 72
    11
 73
     7
 74
     0
 42
0.0000000001
 43
0.0000000001
 40
0.0
 40
0.0
 40
0.0
 40
0.0
 40
1.0
 40
1.0
 40
1.0
 40
2.0
 40
2.0
 40
2.0
 40
2.0
 10
96.32772852159076
 20
159.7676596837146
 30
0.0
 10
96.31450555849049
 20
159.7746644076147
 30
0.0
 10
96.29991084057964
 20
159.779784497708
 30
0.0
 10
96.28474577947969
 20
159.7806095898352
 30
0.0
 10
96.27170284055111
 20
159.7813192227313
 30
0.0
 10
96.25823801199066
 20
159.7788517946144
 30
0.0
 10
96.24696877219061
 20
159.7726360667146
 30
0.0
  0
SPLINE
  5
FA
330
70
100
AcDbEntity
  8
RACCORDO
 62
    18
420
        0
370
    25
100
AcDbSpline
210
0.0
220
0.0
230
1.0
 70
     8
 71
     3
 72
    17
 73
    13
 74
     0
 42
0.0000000001
 43
0.0000000001
 40
0.0
 40
0.0
 40
0.0
 40
0.0
 40
1.0
 40
1.0
 40
1.0
 40
2.0
 40
2.0
 40
2.0
 40
3.0
 40
3.0
 40
3.0
 40
4.0
 40
4.0
 40
4.0
 40
4.0
 10
96.46973914349054
 20
150.3233770539144
 30
0.0
 10
96.47465950489063
 20
150.3264205176145
 30
0.0
 10
96.47942898018463
 20
150.3295191431639
 30
0.0
 10
96.48445293877101
 20
150.3325834578231
 30
0.0
 10
96.48802422488635
 20
150.3347617290429
 30
0.0
 10
96.49172410374585
 20
150.3369226626545
 30
0.0
 10
96.49481310179726
 20
150.3392837007363
 30
0.0
 10
96.49659250361917
 20
150.3406437648717
 30
0.0
 10
96.49816919819464
 20
150.342070229237
 30
0.0
 10
96.50065071678969
 20
150.3433377296752
 30
0.0
 10
96.50150011281468
 20
150.3437715808807
 30
0.0
 10
96.50245551949067
 20
150.3441868076145
 30
0.0
 10
96.50242948089047
 20
150.3449972993146
 30
0.0
  0
SPLINE
  5
FB
330
70
100
AcDbEntity
  8
RACCORDO
 62
   250
420
  3355443
370
    25
100
AcDbSpline
210
0.0
220
0.0
230
1.0
 70
     8
 71
     3
 72
    11
 73
     7
 74
     0
 42
0.0000000001
 43
0.0000000001
 40
0.0
 40
0.0
 40
0.0
 40
0.0
 40
1.0
 40
1.0
 40
1.0
 40
2.0
 40
2.0
 40
2.0
 40
2.0
 10
96.09850853789067
 20
150.5200325162147
 30
0.0
 10
96.10879772139071
 20
150.5257085174146
 30
0.0
 10
96.12003207776295
 20
150.5301890017209
 30
0.0
 10
96.13192493320969
 20
150.5312620803971
 30
0.0
 10
96.14168717365185
 20
150.5321429161309
 30
0.0
 10
96.15189310639053
 20
150.5307278646147
 30
0.0
 10
96.1604188971907
 20
150.5262166380144
 30
0.0
  0
SPLINE
  5
FC
330
70
100
AcDbEntity
  8
RACCORDO
 62
    18
420
        0
370
    25
100
AcDbSpline
210
0.0
220
0.0
230
1.0
 70
     8
 71
     3
 72
     8
 73
     4
 74
     0
 42
0.0000000001
 43
0.0000000001
 40
0.0
 40
0.0
 40
0.0
 40
0.0
 40
1.0
 40
1.0
 40
1.0
 40
1.0
 10
100.3310382751253
 20
141.3054753779318
 30
0.0
 10
100.3291895249177
 20
141.3045655790679
 30
0.0
 10
100.3273371563246
 20
141.3035982642667
 30
0.0
 10
100.3254830733009
 20
141.3025744277825
 30
0.0
  0
SPLINE
  5
FD
330
70
100
AcDbEntity
  8
RACCORDO
 62
    18
420
        0
370
    25
100
AcDbSpline
210
0.0
220
0.0
230
1.0
 70
     8
 71
     3
 72
     8
 73
     4
 74
     0
 42
0.0000000001
 43
0.0000000001
 40
0.0
 40
0.0
 40
0.0
 40
0.0
 40
1.0
 40
1.0
 40
1.0
 40
1.0
 10
108.6871624339257
 20
136.8789075407318
 30
0.0
 10
108.6853136837175
 20
136.8779977418679
 30
0.0
 10
108.6834613151243
 20
136.8770304270667
 30
0.0
 10
108.6816072321006
 20
136.8760065905825
 30
0.0
  0
SPLINE
  5
FE
330
70
100
AcDbEntity
  8
RACCORDO
 62
    18
420
        0
370
    25
100
AcDbSpline
210
0.0
220
0.0
230
1.0
 70
     8
 71
     3
 72
     8
 73
     4
 74
     0
 42
0.0000000001
 43
0.0000000001
 40
0.0
 40
0.0
 40
0.0
 40
0.0
 40
1.0
 40
1.0
 40
1.0
 40
1.0
 10
96.63386499075052
 20
157.1473390961007
 30
0.0
 10
96.6356199536538
 20
157.1485297104566
 30
0.0
 10
96.63732370152908
 20
157.1497470920193
 30
0.0
 10
96.63897448318095
 20
157.1509899895043
 30
0.0
  0
SPLINE
  5
FF
330
70
100
AcDbEntity
  8
RACCORDO
 62
    18
420
        0
370
    25
100
AcDbSpline
210
0.0
220
0.0
230
1.0
 70
     8
 71
     3
 72
     8
 73
     4
 74
     0
 42
0.0000000001
 43
0.0000000001
 40
0.0
 40
0.0
 40
0.0
 40
0.0
 40
1.0
 40
1.0
 40
1.0
 40
1.0
 10
96.40464500715053
 20
147.8997119286004
 30
0.0
 10
96.40639997005381
 20
147.9009025429563
 30
0.0
 10
96.40810371792909
 20
147.9021199245191
 30
0.0
 10
96.40975449958096
 20
147.9033628220043
 30
0.0
  0
SPLINE
  5
100
330
70
100
AcDbEntity
  8
RACCORDO
 62
    18
420
        0
370
    25
100
AcDbSpline
210
0.0
220
0.0
230
1.0
 70
     8
 71
     3
 72
     8
 73
     4
 74
     0
 42
0.0000000001
 43
0.0000000001
 40
0.0
 40
0.0
 40
0.0
 40
0.0
 40
1.0
 40
1.0
 40
1.0
 40
1.0
 10
102.5177548265075
 20
140.1470855585515
 30
0.0
 10
102.5161096285712
 20
140.1460679300383
 30
0.0
 10
102.5144610566578
 20
140.1449926561154
 30
0.0
 10
102.5128108052496
 20
140.1438608420028
 30
0.0
  0
SPLINE
  5
101
330
70
100
AcDbEntity
  8
RACCORDO
 62
    18
420
        0
370
    25
100
AcDbSpline
210
0.0
220
0.0
230
1.0
 70
     8
 71
     3
 72
     8
 73
     4
 74
     0
 42
0.0000000001
 43
0.0000000001
 40
0.0
 40
0.0
 40
0.0
 40
0.0
 40
1.0
 40
1.0
 40
1.0
 40
1.0
 10
110.8738789854073
 20
135.7205177212513
 30
0.0
 10
110.8722337874714
 20
135.7195000927382
 30
0.0
 10
110.8705852155576
 20
135.7184248188153
 30
0.0
 10
110.8689349641494
 20
135.7172930047027
 30
0.0
  0
SPLINE
  5
102
330
70
100
AcDbEntity
  8
RACCORDO
 62
    18
420
        0
370
    25
100
AcDbSpline
210
0.0
220
0.0
230
1.0
 70
     8
 71
     3
 72
     8
 73
     4
 74
     0
 42
0.0000000001
 43
0.0000000001
 40
0.0
 40
0.0
 40
0.0
 40
0.0
 40
1.0
 40
1.0
 40
1.0
 40
1.0
 10
96.69386640027248
 20
159.5680297145878
 30
0.0
 10
96.69561577179793
 20
159.5689947508248
 30
0.0
 10
96.69731392925342
 20
159.569986592932
 30
0.0
 10
96.69895912718965
 20
159.5710042214455
 30
0.0
  0
SPLINE
  5
103
330
70
100
AcDbEntity
  8
RACCORDO
 62
    18
420
        0
370
    25
100
AcDbSpline
210
0.0
220
0.0
230
1.0
 70
     8
 71
     3
 72
     8
 73
     4
 74
     0
 42
0.0000000001
 43
0.0000000001
 40
0.0
 40
0.0
 40
0.0
 40
0.0
 40
1.0
 40
1.0
 40
1.0
 40
1.0
 10
96.46464641657239
 20
150.3204025470876
 30
0.0
 10
96.46639578809784
 20
150.3213675833249
 30
0.0
 10
96.46809394555333
 20
150.322359425432
 30
0.0
 10
96.46973914348956
 20
150.3233770539452
 30
0.0
  0
LINE
  5
105
330
70
100
AcDbEntity
  8
SUPERFICI
 62
    18
420
        0
370
    25
100
AcDbLine
 10
84.44331034929062
 20
176.6069495806146
 30
0.0
 11
83.04364360899057
 21
175.6116511623146
 31
0.0
  0
LINE
  5
106
330
70
100
AcDbEntity
  8
SUPERFICI
 62
   250
420
  3355443
370
    25
100
AcDbLine
 10
95.08622054959054
 20
161.3358481242147
 30
0.0
 11
95.22470868919059
 21
161.6966367199146
 31
0.0
  0
LINE
  5
107
330
70
100
AcDbEntity
  8
SUPERFICI
 62
   250
420
  3355443
370
    25
100
AcDbLine
 10
111.7734637892903
 20
133.2581677143149
 30
0.0
 11
112.0950446949904
 21
133.2137984608144
 31
0.0
  0
LINE
  5
108
330
70
100
AcDbEntity
  8
SUPERFICI
 62
   250
420
  3355443
370
    25
100
AcDbLine
 10
94.72183201529073
 20
141.4086325210148
 30
0.0
 11
94.59721791779067
 21
141.6075768335145
 31
0.0
  0
LINE
  5
109
330
70
100
AcDbEntity
  8
SUPERFICI
 62
   250
420
  3355443
370
    25
100
AcDbLine
 10
93.84556898019075
 20
142.8812639879144
 30
0.0
 11
93.94706558379061
 21
142.7015124338148
 31
0.0
  0
LINE
  5
10A
330
70
100
AcDbEntity
  8
SUPERFICI
 62
   250
420
  3355443
370
    25
100
AcDbLine
 10
93.94706558379061
 20
142.7015124338148
 30
0.0
 11
94.3993930181907
 21
160.9501633778146
 31
0.0
  0
LINE
  5
10B
330
70
100
AcDbEntity
  8
SUPERFICI
 62
   250
420
  3355443
370
    25
100
AcDbLine
 10
95.24565812239073
 20
160.8091369482145
 30
0.0
 11
94.79393009949076
 21
142.5846685983144
 31
0.0
  0
LINE
  5
10C
330
70
100
AcDbEntity
  8
SUPERFICI
 62
   250
420
  3355443
370
    25
100
AcDbLine
 10
94.59721791779067
 20
141.6075768335145
 30
0.0
 11
111.0866362578905
 21
132.8724829679144
 31
0.0
  0
LINE
  5
10D
330
70
100
AcDbEntity
  8
SUPERFICI
 62
   250
420
  3355443
370
    25
100
AcDbLine
 10
111.3808340715906
 20
133.6730120366148
 30
0.0
 11
94.90228882179057
 21
142.4023459983147
 31
0.0
  0
LINE
  5
10E
330
70
100
AcDbEntity
  8
SUPERFICI
 62
   250
420
  3355443
370
    25
100
AcDbLine
 10
111.0866362578905
 20
132.8724829679144
 30
0.0
 11
111.2112503554906
 21
132.6735386555149
 31
0.0
  0
LINE
  5
10F
330
70
100
AcDbEntity
  8
SUPERFICI
 62
   250
420
  3355443
370
    25
100
AcDbLine
 10
94.3993930181907
 20
160.9501633778146
 30
0.0
 11
94.2978964145905
 21
161.1299149318144
 31
0.0
  0
LINE
  5
110
330
70
100
AcDbEntity
  8
SUPERFICI
 62
   250
420
  3355443
370
    25
100
AcDbLine
 10
111.5756388897907
 20
152.6007542587145
 30
0.0
 11
111.7141270293905
 21
152.9615428543146
 31
0.0
  0
LINE
  5
111
330
70
100
AcDbEntity
  8
SUPERFICI
 62
   250
420
  3355443
370
    25
100
AcDbLine
 10
112.2257912237905
 20
151.5068186583147
 30
0.0
 11
112.5473721293905
 21
151.4624494047147
 31
0.0
  0
LINE
  5
112
330
70
100
AcDbEntity
  8
SUPERFICI
 62
    18
420
        0
370
    25
100
AcDbLine
 10
111.8300426743903
 20
151.7958371625146
 30
0.0
 11
111.3777152399909
 21
133.5471862186146
 31
0.0
  0
LINE
  5
113
330
70
100
AcDbEntity
  8
SUPERFICI
 62
   250
420
  3355443
370
    25
100
AcDbLine
 10
112.2257912237905
 20
151.5068186583147
 30
0.0
 11
111.7734637892903
 21
133.2581677143149
 31
0.0
  0
LINE
  5
114
330
70
100
AcDbEntity
  8
SUPERFICI
 62
    18
420
        0
370
    25
100
AcDbLine
 10
95.13685943669051
 20
160.8667718940145
 30
0.0
 11
111.6262777767909
 21
152.1316780285146
 31
0.0
  0
LINE
  5
115
330
70
100
AcDbEntity
  8
SUPERFICI
 62
   250
420
  3355443
370
    25
100
AcDbLine
 10
95.08622054959054
 20
161.3358481242147
 30
0.0
 11
111.5756388897907
 21
152.6007542587145
 31
0.0
  0
LINE
  5
116
330
70
100
AcDbEntity
  8
SUPERFICI
 62
    18
420
        0
370
    25
100
AcDbLine
 10
126.0785398985903
 20
120.4109011176145
 30
0.0
 11
127.5978240599904
 21
121.2111842668145
 31
0.0
  0
SPLINE
  5
117
330
70
100
AcDbEntity
  8
SUPERFICI
 62
   250
420
  3355443
370
    25
100
AcDbSpline
210
0.0
220
0.0
230
1.0
 70
     8
 71
     3
 72
     8
 73
     4
 74
     0
 42
0.0000000001
 43
0.0000000001
 40
0.0
 40
0.0
 40
0.0
 40
0.0
 40
1.0
 40
1.0
 40
1.0
 40
1.0
 10
111.3804992598735
 20
133.660127009835
 30
0.0
 10
111.37104773157
 20
133.6539133752704
 30
0.0
 10
111.3618071878118
 20
133.6473846011602
 30
0.0
 10
111.3527932007072
 20
133.6405516897565
 30
0.0
  0
SPLINE
  5
118
330
70
100
AcDbEntity
  8
SUPERFICI
 62
   250
420
  3355443
370
    25
100
AcDbSpline
210
0.0
220
0.0
230
1.0
 70
     8
 71
     3
 72
     8
 73
     4
 74
     0
 42
0.0000000001
 43
0.0000000001
 40
0.0
 40
0.0
 40
0.0
 40
0.0
 40
1.0
 40
1.0
 40
1.0
 40
1.0
 10
95.20487785036324
 20
160.8107678829617
 30
0.0
 10
95.21133859113254
 20
160.8138863020629
 30
0.0
 10
95.21773036527353
 20
160.8171456328931
 30
0.0
 10
95.22404858890022
 20
160.8205435380104
 30
0.0
  0
SPLINE
  5
119
330
70
100
AcDbEntity
  8
SUPERFICI
 62
    18
420
        0
370
    25
100
AcDbSpline
210
0.0
220
0.0
230
1.0
 70
     8
 71
     3
 72
    11
 73
     7
 74
     0
 42
0.0000000001
 43
0.0000000001
 40
0.0
 40
0.0
 40
0.0
 40
0.0
 40
1.0
 40
1.0
 40
1.0
 40
2.0
 40
2.0
 40
2.0
 40
2.0
 10
95.13685943669051
 20
160.8667718940145
 30
0.0
 10
95.13566984869049
 20
160.8674020656147
 30
0.0
 10
95.13505086141007
 20
160.8678152100482
 30
0.0
 10
95.13325716402134
 20
160.8685977510708
 30
0.0
 10
95.1311165655616
 20
160.8695316355251
 30
0.0
 10
95.12730294079076
 20
160.8709916159144
 30
0.0
 10
95.12884158679067
 20
160.8705294892145
 30
0.0
  0
SPLINE
  5
11A
330
70
100
AcDbEntity
  8
SUPERFICI
 62
    18
420
        0
370
    25
100
AcDbSpline
210
0.0
220
0.0
230
1.0
 70
     8
 71
     3
 72
    20
 73
    16
 74
     0
 42
0.0000000001
 43
0.0000000001
 40
0.0
 40
0.0
 40
0.0
 40
0.0
 40
1.0
 40
1.0
 40
1.0
 40
2.0
 40
2.0
 40
2.0
 40
3.0
 40
3.0
 40
3.0
 40
4.0
 40
4.0
 40
4.0
 40
5.0
 40
5.0
 40
5.0
 40
5.0
 10
111.8300426743903
 20
151.7958371625146
 30
0.0
 10
111.8302501458909
 20
151.8042073705146
 30
0.0
 10
111.8294970582244
 20
151.8125878728816
 30
0.0
 10
111.8283545478013
 20
151.8208987079677
 30
0.0
 10
111.8262944243519
 20
151.8358844322898
 30
0.0
 10
111.8229681441468
 20
151.8506436426313
 30
0.0
 10
111.8188430601052
 20
151.8651809845293
 30
0.0
 10
111.8074176939548
 20
151.9054454863823
 30
0.0
 10
111.789864383719
 20
151.9440079465647
 30
0.0
 10
111.7684228652664
 20
151.9800497178782
 30
0.0
 10
111.7463987124094
 20
152.0170708590072
 30
0.0
 10
111.7202721703279
 20
152.0514324597326
 30
0.0
 10
111.6898016172048
 20
152.0821408111526
 30
0.0
 10
111.6707526496083
 20
152.1013384407058
 30
0.0
 10
111.6500059343906
 20
152.1191082895145
 30
0.0
 10
111.6262777767909
 20
152.1316780285146
 30
0.0
  0
SPLINE
  5
11B
330
70
100
AcDbEntity
  8
SUPERFICI
 62
   250
420
  3355443
370
    25
100
AcDbSpline
210
0.0
220
0.0
230
1.0
 70
     8
 71
     3
 72
    11
 73
     7
 74
     0
 42
0.0000000001
 43
0.0000000001
 40
0.0
 40
0.0
 40
0.0
 40
0.0
 40
1.0
 40
1.0
 40
1.0
 40
2.0
 40
2.0
 40
2.0
 40
2.0
 10
95.20487785039051
 20
160.8107678830147
 30
0.0
 10
95.1975002308905
 20
160.8072040599147
 30
0.0
 10
95.19003770701791
 20
160.8038171779061
 30
0.0
 10
95.18250245572552
 20
160.8005937664674
 30
0.0
 10
95.15874027665612
 20
160.7904288394001
 30
0.0
 10
95.13425486959055
 20
160.7818895233145
 30
0.0
 10
95.10941391659073
 20
160.7747836598146
 30
0.0
  0
SPLINE
  5
11C
330
70
100
AcDbEntity
  8
SUPERFICI
 62
   250
420
  3355443
370
    25
100
AcDbSpline
210
0.0
220
0.0
230
1.0
 70
     8
 71
     3
 72
    17
 73
    13
 74
     0
 42
0.0000000001
 43
0.0000000001
 40
0.0
 40
0.0
 40
0.0
 40
0.0
 40
1.0
 40
1.0
 40
1.0
 40
2.0
 40
2.0
 40
2.0
 40
3.0
 40
3.0
 40
3.0
 40
4.0
 40
4.0
 40
4.0
 40
4.0
 10
95.10941391659073
 20
160.7747836598146
 30
0.0
 10
95.04192256409051
 20
160.7554774626146
 30
0.0
 10
94.97137988291205
 20
160.7462686830254
 30
0.0
 10
94.90087840116727
 20
160.7454026110215
 30
0.0
 10
94.82898220441876
 20
160.744519405709
 30
0.0
 10
94.75712885330649
 20
160.7523122567959
 30
0.0
 10
94.68745741270003
 20
160.7693586148375
 30
0.0
 10
94.62498775201417
 20
160.7846429292356
 30
0.0
 10
94.56427223695985
 20
160.8073665949535
 30
0.0
 10
94.50917718625522
 20
160.842133907513
 30
0.0
 10
94.46510887524334
 20
160.8699428798852
 30
0.0
 10
94.4246363998905
 20
160.9054570830147
 30
0.0
 10
94.3993930181907
 20
160.9501633778146
 30
0.0
  0
SPLINE
  5
11D
330
70
100
AcDbEntity
  8
SUPERFICI
 62
   250
420
  3355443
370
    25
100
AcDbSpline
210
0.0
220
0.0
230
1.0
 70
     8
 71
     3
 72
    17
 73
    13
 74
     0
 42
0.0000000001
 43
0.0000000001
 40
0.0
 40
0.0
 40
0.0
 40
0.0
 40
1.0
 40
1.0
 40
1.0
 40
2.0
 40
2.0
 40
2.0
 40
3.0
 40
3.0
 40
3.0
 40
4.0
 40
4.0
 40
4.0
 40
4.0
 10
93.66089531649077
 20
152.3516884320144
 30
0.0
 10
93.64349739279058
 20
151.5907183355147
 30
0.0
 10
93.62619985376795
 20
150.8297460921005
 30
0.0
 10
93.60949461020959
 20
150.0687601484522
 30
0.0
 10
93.59278981113723
 20
149.3077944527973
 30
0.0
 10
93.57667727601112
 20
148.5468150576374
 30
0.0
 10
93.5602127436722
 20
147.7858459152495
 30
0.0
 10
93.54381514328574
 20
147.0279702801197
 30
0.0
 10
93.52706840176216
 20
146.2701048145714
 30
0.0
 10
93.50804659043554
 20
145.5122809135749
 30
0.0
 10
93.48929858991338
 20
144.7653655621666
 30
0.0
 10
93.46834054549075
 20
144.0184905873147
 30
0.0
 10
93.43992455309072
 20
143.2718885591146
 30
0.0
  0
SPLINE
  5
11E
330
70
100
AcDbEntity
  8
SUPERFICI
 62
   250
420
  3355443
370
    25
100
AcDbSpline
210
0.0
220
0.0
230
1.0
 70
     8
 71
     3
 72
    32
 73
    28
 74
     0
 42
0.0000000001
 43
0.0000000001
 40
0.0
 40
0.0
 40
0.0
 40
0.0
 40
1.0
 40
1.0
 40
1.0
 40
2.0
 40
2.0
 40
2.0
 40
3.0
 40
3.0
 40
3.0
 40
4.0
 40
4.0
 40
4.0
 40
5.0
 40
5.0
 40
5.0
 40
6.0
 40
6.0
 40
6.0
 40
7.0
 40
7.0
 40
7.0
 40
8.0
 40
8.0
 40
8.0
 40
9.0
 40
9.0
 40
9.0
 40
9.0
 10
93.43987807779074
 20
143.2719161980143
 30
0.0
 10
93.43755380669055
 20
143.1643613290143
 30
0.0
 10
93.44348268952636
 20
143.0564336499242
 30
0.0
 10
93.45762203355416
 20
142.9496644008627
 30
0.0
 10
93.47288610349108
 20
142.8344021028634
 30
0.0
 10
93.4977188026014
 20
142.7204898614694
 30
0.0
 10
93.5303249749873
 20
142.6089216938103
 30
0.0
 10
93.56489197065043
 20
142.490644199538
 30
0.0
 10
93.60819549162629
 20
142.3750011852192
 30
0.0
 10
93.65839204265006
 20
142.2624693160982
 30
0.0
 10
93.71011868269565
 20
142.1465072555784
 30
0.0
 10
93.76916498351169
 20
142.0338488985524
 30
0.0
 10
93.83493164165221
 20
141.9252627173296
 30
0.0
 10
93.90098853522481
 20
141.8161973334517
 30
0.0
 10
93.97382523234318
 20
141.7112401465967
 30
0.0
 10
94.05284035624353
 20
141.6111419953254
 30
0.0
 10
94.13016954327101
 20
141.5131796271275
 30
0.0
 10
94.21341631308406
 20
141.4198711532517
 30
0.0
 10
94.3027226843432
 20
141.3326741024471
 30
0.0
 10
94.38773492922818
 20
141.2496697553685
 30
0.0
 10
94.4782380565236
 20
141.1722032486478
 30
0.0
 10
94.57362921901879
 20
141.1014664822971
 30
0.0
 10
94.61906975945501
 20
141.0677703116292
 30
0.0
 10
94.6656194875214
 20
141.0356012463249
 30
0.0
 10
94.71345458155676
 20
141.0053783845564
 30
0.0
 10
94.75905160993981
 20
140.9765695630484
 30
0.0
 10
94.80581654089057
 20
140.9495290909146
 30
0.0
 10
94.8540745235905
 20
140.9255056706146
 30
0.0
  0
SPLINE
  5
11F
330
70
100
AcDbEntity
  8
SUPERFICI
 62
   250
420
  3355443
370
    25
100
AcDbSpline
210
0.0
220
0.0
230
1.0
 70
     8
 71
     3
 72
    11
 73
     7
 74
     0
 42
0.0000000001
 43
0.0000000001
 40
0.0
 40
0.0
 40
0.0
 40
0.0
 40
1.0
 40
1.0
 40
1.0
 40
2.0
 40
2.0
 40
2.0
 40
2.0
 10
103.0627082280906
 20
136.6428606660148
 30
0.0
 10
101.6915133894906
 20
137.3617724320144
 30
0.0
 10
100.3191418929292
 20
138.0784330514417
 30
0.0
 10
98.94678390328945
 20
138.7951273005394
 30
0.0
 10
97.58350111305322
 20
139.5070821570947
 30
0.0
 10
96.22023165169053
 20
140.2190702000147
 30
0.0
 10
94.85407505989078
 20
140.9254895275144
 30
0.0
  0
SPLINE
  5
120
330
70
100
AcDbEntity
  8
SUPERFICI
 62
   250
420
  3355443
370
    25
100
AcDbSpline
210
0.0
220
0.0
230
1.0
 70
     8
 71
     3
 72
    17
 73
    13
 74
     0
 42
0.0000000001
 43
0.0000000001
 40
0.0
 40
0.0
 40
0.0
 40
0.0
 40
1.0
 40
1.0
 40
1.0
 40
2.0
 40
2.0
 40
2.0
 40
3.0
 40
3.0
 40
3.0
 40
4.0
 40
4.0
 40
4.0
 40
4.0
 10
112.7702161601909
 20
133.0318724187148
 30
0.0
 10
112.7573140642904
 20
133.7894224087148
 30
0.0
 10
112.7639489926674
 20
134.5472374481101
 30
0.0
 10
112.7768411186176
 20
135.3048423201892
 30
0.0
 10
112.7897384105011
 20
136.0627507679616
 30
0.0
 10
112.8088979155371
 20
136.8204488799533
 30
0.0
 10
112.8295459927385
 20
137.578121783413
 30
0.0
 10
112.850212132537
 20
138.3364574865891
 30
0.0
 10
112.8723694499965
 20
139.0947679371094
 30
0.0
 10
112.8938202332312
 20
139.8530935132787
 30
0.0
 10
112.9152884486283
 20
140.6120353492249
 30
0.0
 10
112.9360489809906
 20
141.3709923354146
 30
0.0
 10
112.9566736835909
 20
142.1299551587144
 30
0.0
  0
SPLINE
  5
121
330
70
100
AcDbEntity
  8
SUPERFICI
 62
   250
420
  3355443
370
    25
100
AcDbSpline
210
0.0
220
0.0
230
1.0
 70
     8
 71
     3
 72
    29
 73
    25
 74
     0
 42
0.0000000001
 43
0.0000000001
 40
0.0
 40
0.0
 40
0.0
 40
0.0
 40
1.0
 40
1.0
 40
1.0
 40
2.0
 40
2.0
 40
2.0
 40
3.0
 40
3.0
 40
3.0
 40
4.0
 40
4.0
 40
4.0
 40
5.0
 40
5.0
 40
5.0
 40
6.0
 40
6.0
 40
6.0
 40
7.0
 40
7.0
 40
7.0
 40
8.0
 40
8.0
 40
8.0
 40
8.0
 10
111.0866362578905
 20
132.8724829679144
 30
0.0
 10
111.1283699916904
 20
132.8503749666143
 30
0.0
 10
111.1720583071613
 20
132.8316267272967
 30
0.0
 10
111.21729488393
 20
132.8176875508624
 30
0.0
 10
111.2584563890754
 20
132.8050040649858
 30
0.0
 10
111.3008997739698
 20
132.7963022328082
 30
0.0
 10
111.3438819138075
 20
132.7932718145818
 30
0.0
 10
111.383044459283
 20
132.7905106935195
 30
0.0
 10
111.4226542616363
 20
132.7924577963409
 30
0.0
 10
111.4611279355978
 20
132.8004196023176
 30
0.0
 10
111.4972995797491
 20
132.8079050224223
 30
0.0
 10
111.532466986038
 20
132.820706912644
 30
0.0
 10
111.5646795549977
 20
132.8387997668633
 30
0.0
 10
111.5966480434605
 20
132.8567555282334
 30
0.0
 10
111.625706303626
 20
132.8799223761799
 30
0.0
 10
111.650613002899
 20
132.906823993488
 30
0.0
 10
111.6767937355461
 20
132.9351016886889
 30
0.0
 10
111.6983873212779
 20
132.9675060090788
 30
0.0
 10
111.7155526671746
 20
133.0019816983138
 30
0.0
 10
111.7343001565835
 20
133.0396350391004
 30
0.0
 10
111.7477654775075
 20
133.0797591853628
 30
0.0
 10
111.7570286728124
 20
133.1207724875085
 30
0.0
 10
111.767215909064
 20
133.1658770313143
 30
0.0
 10
111.7723208470903
 20
133.2120569726143
 30
0.0
 10
111.7734637892903
 20
133.2581677143149
 30
0.0
  0
LINE
  5
122
330
70
100
AcDbEntity
  8
SUPERFICI
 62
   250
420
  3355443
370
    25
100
AcDbLine
 10
108.0127397350909
 20
134.3954885726143
 30
0.0
 11
108.0185079096909
 21
134.3923963867144
 31
0.0
  0
SPLINE
  5
123
330
70
100
AcDbEntity
  8
SUPERFICI
 62
   250
420
  3355443
370
    25
100
AcDbSpline
210
0.0
220
0.0
230
1.0
 70
     8
 71
     3
 72
    11
 73
     7
 74
     0
 42
0.0000000001
 43
0.0000000001
 40
0.0
 40
0.0
 40
0.0
 40
0.0
 40
1.0
 40
1.0
 40
1.0
 40
2.0
 40
2.0
 40
2.0
 40
2.0
 10
111.3179455641908
 20
132.2039452657149
 30
0.0
 10
111.3182581814909
 20
132.2493372762149
 30
0.0
 10
111.3164347690394
 20
132.2945491867886
 30
0.0
 10
111.3119120938647
 20
132.3399908036114
 30
0.0
 10
111.3003411060093
 20
132.4562504013287
 30
0.0
 10
111.2711017988905
 20
132.5740135664145
 30
0.0
 10
111.2112503508909
 20
132.6735386584147
 30
0.0
  0
SPLINE
  5
124
330
70
100
AcDbEntity
  8
SUPERFICI
 62
   250
420
  3355443
370
    25
100
AcDbSpline
210
0.0
220
0.0
230
1.0
 70
     8
 71
     3
 72
    11
 73
     7
 74
     0
 42
0.0000000001
 43
0.0000000001
 40
0.0
 40
0.0
 40
0.0
 40
0.0
 40
1.0
 40
1.0
 40
1.0
 40
2.0
 40
2.0
 40
2.0
 40
2.0
 10
94.85407448129064
 20
140.9255058417147
 30
0.0
 10
94.85249249459048
 20
140.9720685594146
 30
0.0
 10
94.84866158007356
 20
141.018381677707
 30
0.0
 10
94.84199908782491
 20
141.0647519873281
 30
0.0
 10
94.82463499118722
 20
141.1856044412338
 30
0.0
 10
94.78803734489062
 20
141.3068453684147
 30
0.0
 10
94.7218320054907
 20
141.4086325268145
 30
0.0
  0
SPLINE
  5
125
330
70
100
AcDbEntity
  8
SUPERFICI
 62
   250
420
  3355443
370
    25
100
AcDbSpline
210
0.0
220
0.0
230
1.0
 70
     8
 71
     3
 72
    11
 73
     7
 74
     0
 42
0.0000000001
 43
0.0000000001
 40
0.0
 40
0.0
 40
0.0
 40
0.0
 40
1.0
 40
1.0
 40
1.0
 40
2.0
 40
2.0
 40
2.0
 40
2.0
 10
112.7702603931904
 20
133.0318498727147
 30
0.0
 10
112.6691573246906
 20
133.0803887233148
 30
0.0
 10
112.5627866241693
 20
133.1181832058052
 30
0.0
 10
112.4542770979587
 20
133.1474146228005
 30
0.0
 10
112.3364573923239
 20
133.1791541120966
 30
0.0
 10
112.2161160905906
 20
133.2007980650145
 30
0.0
 10
112.0950386055906
 20
133.2138004293148
 30
0.0
  0
SPLINE
  5
126
330
70
100
AcDbEntity
  8
SUPERFICI
 62
   250
420
  3355443
370
    25
100
AcDbSpline
210
0.0
220
0.0
230
1.0
 70
     8
 71
     3
 72
    11
 73
     7
 74
     0
 42
0.0000000001
 43
0.0000000001
 40
0.0
 40
0.0
 40
0.0
 40
0.0
 40
1.0
 40
1.0
 40
1.0
 40
2.0
 40
2.0
 40
2.0
 40
2.0
 10
113.2215079539906
 20
151.2369299396147
 30
0.0
 10
113.1726790155906
 20
151.2637956845146
 30
0.0
 10
113.1224851984277
 20
151.2881573840119
 30
0.0
 10
113.0712989809594
 20
151.3103572214983
 30
0.0
 10
112.9042791697574
 20
151.3827949371396
 30
0.0
 10
112.7266932080907
 20
151.4322151676144
 30
0.0
 10
112.5473720957905
 20
151.4624489030145
 30
0.0
  0
SPLINE
  5
127
330
70
100
AcDbEntity
  8
SUPERFICI
 62
   250
420
  3355443
370
    25
100
AcDbSpline
210
0.0
220
0.0
230
1.0
 70
     8
 71
     3
 72
    11
 73
     7
 74
     0
 42
0.0000000001
 43
0.0000000001
 40
0.0
 40
0.0
 40
0.0
 40
0.0
 40
1.0
 40
1.0
 40
1.0
 40
2.0
 40
2.0
 40
2.0
 40
2.0
 10
111.8485020837909
 20
153.6086764075145
 30
0.0
 10
111.8463510605905
 20
153.5568480082146
 30
0.0
 10
111.8417894788996
 20
153.5051276894462
 30
0.0
 10
111.8352293145202
 20
153.4536244084184
 30
0.0
 10
111.8138663479884
 20
153.2859056127831
 30
0.0
 10
111.7713092414905
 20
153.1204884123144
 30
0.0
 10
111.7141258027905
 20
152.9615388094144
 30
0.0
  0
SPLINE
  5
128
330
70
100
AcDbEntity
  8
SUPERFICI
 62
   250
420
  3355443
370
    25
100
AcDbSpline
210
0.0
220
0.0
230
1.0
 70
     8
 71
     3
 72
    17
 73
    13
 74
     0
 42
0.0000000001
 43
0.0000000001
 40
0.0
 40
0.0
 40
0.0
 40
0.0
 40
1.0
 40
1.0
 40
1.0
 40
2.0
 40
2.0
 40
2.0
 40
3.0
 40
3.0
 40
3.0
 40
4.0
 40
4.0
 40
4.0
 40
4.0
 10
112.9566715408904
 20
142.1299561651147
 30
0.0
 10
112.9737152024904
 20
142.8906895398148
 30
0.0
 10
112.990623494435
 20
143.6514236448037
 30
0.0
 10
113.0068246576693
 20
144.4121779880633
 30
0.0
 10
113.023028371586
 20
145.1730521031299
 30
0.0
 10
113.0385247341165
 20
145.9339464628393
 30
0.0
 10
113.0555169556495
 20
146.6947909228892
 30
0.0
 10
113.0724807458601
 20
147.4543623407963
 30
0.0
 10
113.0909353935291
 20
148.213884025888
 30
0.0
 10
113.1156362830513
 20
148.9733100238078
 30
0.0
 10
113.1401941828008
 20
149.7283398176817
 30
0.0
 10
113.1709262165908
 20
150.4832750290145
 30
0.0
 10
113.2214608774905
 20
151.2369552398147
 30
0.0
  0
SPLINE
  5
129
330
70
100
AcDbEntity
  8
SUPERFICI
 62
   250
420
  3355443
370
    25
100
AcDbSpline
210
0.0
220
0.0
230
1.0
 70
     8
 71
     3
 72
    32
 73
    28
 74
     0
 42
0.0000000001
 43
0.0000000001
 40
0.0
 40
0.0
 40
0.0
 40
0.0
 40
1.0
 40
1.0
 40
1.0
 40
2.0
 40
2.0
 40
2.0
 40
3.0
 40
3.0
 40
3.0
 40
4.0
 40
4.0
 40
4.0
 40
5.0
 40
5.0
 40
5.0
 40
6.0
 40
6.0
 40
6.0
 40
7.0
 40
7.0
 40
7.0
 40
8.0
 40
8.0
 40
8.0
 40
9.0
 40
9.0
 40
9.0
 40
9.0
 10
113.2215097730906
 20
151.2369290875144
 30
0.0
 10
113.2269938591908
 20
151.3461511910146
 30
0.0
 10
113.2242388055509
 20
151.4559890981655
 30
0.0
 10
113.2130621328182
 20
151.5648993989236
 30
0.0
 10
113.2010639832451
 20
151.6818145229246
 30
0.0
 10
113.179360754803
 20
151.7976606727645
 30
0.0
 10
113.149601647962
 20
151.911327498458
 30
0.0
 10
113.1182090984923
 20
152.0312333635031
 30
0.0
 10
113.0778520444839
 20
152.1487140974523
 30
0.0
 10
113.03031460331
 20
152.2631808078687
 30
0.0
 10
112.9815164005094
 20
152.3806833408394
 30
0.0
 10
112.9251518914677
 20
152.495009857734
 30
0.0
 10
112.8616769580473
 20
152.6052482013545
 30
0.0
 10
112.7981035275025
 20
152.7156576071449
 30
0.0
 10
112.7273975882788
 20
152.8219661421845
 30
0.0
 10
112.6500450389288
 20
152.9232300214454
 30
0.0
 10
112.574429720231
 20
153.0222196548477
 30
0.0
 10
112.4924629861629
 20
153.1163886799038
 30
0.0
 10
112.4038778597906
 20
153.2039832453214
 30
0.0
 10
112.3193918782637
 20
153.2875245026257
 30
0.0
 10
112.228885845383
 20
153.3650856694747
 30
0.0
 10
112.1330922245628
 20
153.4352652355845
 30
0.0
 10
112.0872658532873
 20
153.4688381898678
 30
0.0
 10
112.0402293984436
 20
153.5007218382021
 30
0.0
 10
111.9918089162649
 20
153.5304564953163
 30
0.0
 10
111.9454051506139
 20
153.5589527018462
 30
0.0
 10
111.8977302463903
 20
153.5854752005146
 30
0.0
 10
111.8485024644904
 20
153.6086766338145
 30
0.0
  0
SPLINE
  5
12A
330
70
100
AcDbEntity
  8
SUPERFICI
 62
   250
420
  3355443
370
    25
100
AcDbSpline
210
0.0
220
0.0
230
1.0
 70
     8
 71
     3
 72
    14
 73
    10
 74
     0
 42
0.0000000001
 43
0.0000000001
 40
0.0
 40
0.0
 40
0.0
 40
0.0
 40
1.0
 40
1.0
 40
1.0
 40
2.0
 40
2.0
 40
2.0
 40
3.0
 40
3.0
 40
3.0
 40
3.0
 10
103.5540479215907
 20
157.8385299472147
 30
0.0
 10
104.2416001213906
 20
157.4781806551144
 30
0.0
 10
104.9299745167424
 20
157.1193898239913
 30
0.0
 10
105.6194418872663
 20
156.7627211700963
 30
0.0
 10
106.3087180209291
 20
156.4061514450222
 30
0.0
 10
106.9990865235331
 20
156.0517027200879
 30
0.0
 10
107.6902147050628
 20
155.6987152261999
 30
0.0
 10
109.0717925028004
 20
154.9930868095496
 30
0.0
 10
110.4564060334905
 20
154.2932975798144
 30
0.0
 10
111.8485031233908
 20
153.6086935122145
 30
0.0
  0
SPLINE
  5
12B
330
70
100
AcDbEntity
  8
SUPERFICI
 62
   250
420
  3355443
370
    25
100
AcDbSpline
210
0.0
220
0.0
230
1.0
 70
     8
 71
     3
 72
     8
 73
     4
 74
     0
 42
0.0000000001
 43
0.0000000001
 40
0.0
 40
0.0
 40
0.0
 40
0.0
 40
1.0
 40
1.0
 40
1.0
 40
1.0
 10
95.13686307789074
 20
160.8667787637145
 30
0.0
 10
95.12180873949077
 20
160.8747687512147
 30
0.0
 10
95.10802799279073
 20
160.8855878452145
 30
0.0
 10
95.09643473339076
 20
160.8980806167146
 30
0.0
  0
SPLINE
  5
12C
330
70
100
AcDbEntity
  8
SUPERFICI
 62
   250
420
  3355443
370
    25
100
AcDbSpline
210
0.0
220
0.0
230
1.0
 70
     8
 71
     3
 72
    14
 73
    10
 74
     0
 42
0.0000000001
 43
0.0000000001
 40
0.0
 40
0.0
 40
0.0
 40
0.0
 40
1.0
 40
1.0
 40
1.0
 40
2.0
 40
2.0
 40
2.0
 40
3.0
 40
3.0
 40
3.0
 40
3.0
 10
95.09643473339076
 20
160.8980806167146
 30
0.0
 10
95.05316020049072
 20
160.9447127872146
 30
0.0
 10
95.03802239886864
 20
161.0139642508398
 30
0.0
 10
95.03627157086091
 20
161.0792037643443
 30
0.0
 10
95.03512975840001
 20
161.121750084789
 30
0.0
 10
95.0396815202488
 20
161.1625900945468
 30
0.0
 10
95.04768581086249
 20
161.2031457263037
 30
0.0
 10
95.05657226967782
 20
161.2481710719262
 30
0.0
 10
95.06971421359059
 20
161.2928459016147
 30
0.0
 10
95.08622054959054
 20
161.3358481242147
 30
0.0
  0
SPLINE
  5
12D
330
70
100
AcDbEntity
  8
SUPERFICI
 62
   250
420
  3355443
370
    25
100
AcDbSpline
210
0.0
220
0.0
230
1.0
 70
     8
 71
     3
 72
    14
 73
    10
 74
     0
 42
0.0000000001
 43
0.0000000001
 40
0.0
 40
0.0
 40
0.0
 40
0.0
 40
1.0
 40
1.0
 40
1.0
 40
2.0
 40
2.0
 40
2.0
 40
3.0
 40
3.0
 40
3.0
 40
3.0
 10
95.38463262299071
 20
162.3302521684144
 30
0.0
 10
96.73555926469058
 20
161.5620923812145
 30
0.0
 10
98.09469133350384
 20
160.8083886601472
 30
0.0
 10
99.45696704560388
 20
160.0605071163871
 30
0.0
 10
100.1379127541266
 20
159.6866718323961
 30
0.0
 10
100.8196439301259
 20
159.314291271636
 30
0.0
 10
101.5024891456961
 20
158.9439559339994
 30
0.0
 10
102.1853115981944
 20
158.5736329417228
 30
0.0
 10
102.8692480159907
 20
158.2053550362146
 30
0.0
 10
103.5540556674907
 20
157.8387139080146
 30
0.0
  0
SPLINE
  5
12E
330
70
100
AcDbEntity
  8
SUPERFICI
 62
   250
420
  3355443
370
    25
100
AcDbSpline
210
0.0
220
0.0
230
1.0
 70
     8
 71
     3
 72
    29
 73
    25
 74
     0
 42
0.0000000001
 43
0.0000000001
 40
0.0
 40
0.0
 40
0.0
 40
0.0
 40
1.0
 40
1.0
 40
1.0
 40
2.0
 40
2.0
 40
2.0
 40
3.0
 40
3.0
 40
3.0
 40
4.0
 40
4.0
 40
4.0
 40
5.0
 40
5.0
 40
5.0
 40
6.0
 40
6.0
 40
6.0
 40
7.0
 40
7.0
 40
7.0
 40
8.0
 40
8.0
 40
8.0
 40
8.0
 10
95.38463140049051
 20
162.3302371017147
 30
0.0
 10
95.2959688268907
 20
162.3825232208146
 30
0.0
 10
95.20112775763275
 20
162.4246789181734
 30
0.0
 10
95.1029625378254
 20
162.4567940600438
 30
0.0
 10
95.01355808774626
 20
162.4860430812732
 30
0.0
 10
94.92139633989273
 20
162.5069637187878
 30
0.0
 10
94.82776168368618
 20
162.5147440510157
 30
0.0
 10
94.74202301660914
 20
162.5218682862256
 30
0.0
 10
94.65504938086317
 20
162.5179749552066
 30
0.0
 10
94.57063008554362
 20
162.5006044353872
 30
0.0
 10
94.49090063743462
 20
162.4841989210634
 30
0.0
 10
94.4134496044113
 20
162.4557720528308
 30
0.0
 10
94.34283106481906
 20
162.4153956718991
 30
0.0
 10
94.27233820285287
 20
162.3750911475609
 30
0.0
 10
94.2086535368046
 20
162.3228796050319
 30
0.0
 10
94.15414122728831
 20
162.262625535682
 30
0.0
 10
94.09658223807785
 20
162.19900388108
 30
0.0
 10
94.04924953831004
 20
162.1264155877714
 30
0.0
 10
94.01218957564207
 20
162.0491659694458
 30
0.0
 10
93.9716515773834
 20
161.96466656179
 30
0.0
 10
93.94340496401065
 20
161.8745898538194
 30
0.0
 10
93.92443606527169
 20
161.7828428970097
 30
0.0
 10
93.90362383586625
 20
161.682180294575
 30
0.0
 10
93.89398008419076
 20
161.5795070529144
 30
0.0
 10
93.89112547989048
 20
161.4769944297144
 30
0.0
  0
SPLINE
  5
12F
330
70
100
AcDbEntity
  8
SUPERFICI
 62
   250
420
  3355443
370
    25
100
AcDbSpline
210
0.0
220
0.0
230
1.0
 70
     8
 71
     3
 72
    17
 73
    13
 74
     0
 42
0.0000000001
 43
0.0000000001
 40
0.0
 40
0.0
 40
0.0
 40
0.0
 40
1.0
 40
1.0
 40
1.0
 40
2.0
 40
2.0
 40
2.0
 40
3.0
 40
3.0
 40
3.0
 40
4.0
 40
4.0
 40
4.0
 40
4.0
 10
93.89116929029071
 20
161.4769713887147
 30
0.0
 10
93.8818900628906
 20
160.7114774049145
 30
0.0
 10
93.86554351993856
 20
159.9460773115817
 30
0.0
 10
93.84684258042717
 20
159.1807485268095
 30
0.0
 10
93.82828503687488
 20
158.4212881667195
 30
0.0
 10
93.8074090646438
 20
157.6618980258157
 30
0.0
 10
93.78618332934699
 20
156.9025156276664
 30
0.0
 10
93.76498998843104
 20
156.1442921869028
 30
0.0
 10
93.74344795124097
 20
155.3860764652776
 30
0.0
 10
93.72249739977599
 20
154.6278449236431
 30
0.0
 10
93.70153371532799
 20
153.8691380798536
 30
0.0
 10
93.68116225839058
 20
153.1104153962145
 30
0.0
 10
93.66089204389048
 20
152.3516899473145
 30
0.0
  0
SPLINE
  5
130
330
70
100
AcDbEntity
  8
SUPERFICI
 62
   250
420
  3355443
370
    25
100
AcDbSpline
210
0.0
220
0.0
230
1.0
 70
     8
 71
     3
 72
    17
 73
    13
 74
     0
 42
0.0000000001
 43
0.0000000001
 40
0.0
 40
0.0
 40
0.0
 40
0.0
 40
1.0
 40
1.0
 40
1.0
 40
2.0
 40
2.0
 40
2.0
 40
3.0
 40
3.0
 40
3.0
 40
4.0
 40
4.0
 40
4.0
 40
4.0
 10
111.8300456469905
 20
151.7958370894145
 30
0.0
 10
111.8292377071905
 20
151.7624226239145
 30
0.0
 10
111.8398634874338
 20
151.7285025065965
 30
0.0
 10
111.856915334951
 20
151.699231533912
 30
0.0
 10
111.8772404094436
 20
151.6643417837147
 30
0.0
 10
111.9066953977756
 20
151.6360573627362
 30
0.0
 10
111.939134850079
 20
151.6124838152201
 30
0.0
 10
111.9783039843328
 20
151.5840198498334
 30
0.0
 10
112.0218243006876
 20
151.5624240753463
 30
0.0
 10
112.0670901033015
 20
151.5457417680762
 30
0.0
 10
112.1183432546108
 20
151.5268528769195
 30
0.0
 10
112.1718341845904
 20
151.5142632345145
 30
0.0
 10
112.2257912237905
 20
151.5068186583147
 30
0.0
  0
SPLINE
  5
131
330
70
100
AcDbEntity
  8
SUPERFICI
 62
   250
420
  3355443
370
    25
100
AcDbSpline
210
0.0
220
0.0
230
1.0
 70
     8
 71
     3
 72
    17
 73
    13
 74
     0
 42
0.0000000001
 43
0.0000000001
 40
0.0
 40
0.0
 40
0.0
 40
0.0
 40
1.0
 40
1.0
 40
1.0
 40
2.0
 40
2.0
 40
2.0
 40
3.0
 40
3.0
 40
3.0
 40
4.0
 40
4.0
 40
4.0
 40
4.0
 10
111.3777182124904
 20
133.5471861455148
 30
0.0
 10
111.3769102727905
 20
133.5137716799148
 30
0.0
 10
111.3875360530337
 20
133.4798515625964
 30
0.0
 10
111.404587900551
 20
133.4505805899119
 30
0.0
 10
111.4249129750442
 20
133.4156908397149
 30
0.0
 10
111.4543679633755
 20
133.3874064187361
 30
0.0
 10
111.4868074156661
 20
133.36383287122
 30
0.0
 10
111.5259765499045
 20
133.3353689058333
 30
0.0
 10
111.5694968662259
 20
133.3137731313462
 30
0.0
 10
111.6147626688437
 20
133.2970908240761
 30
0.0
 10
111.6660158201574
 20
133.2782019329194
 30
0.0
 10
111.7195067501903
 20
133.2656122905145
 30
0.0
 10
111.7734637892903
 20
133.2581677143149
 30
0.0
  0
SPLINE
  5
132
330
70
100
AcDbEntity
  8
SUPERFICI
 62
   250
420
  3355443
370
    25
100
AcDbSpline
210
0.0
220
0.0
230
1.0
 70
     8
 71
     3
 72
    11
 73
     7
 74
     0
 42
0.0000000001
 43
0.0000000001
 40
0.0
 40
0.0
 40
0.0
 40
0.0
 40
1.0
 40
1.0
 40
1.0
 40
2.0
 40
2.0
 40
2.0
 40
2.0
 10
95.38463135799046
 20
162.3302369982147
 30
0.0
 10
95.3804648622906
 20
162.2794604943146
 30
0.0
 10
95.3738891425891
 20
162.2288888488009
 30
0.0
 10
95.36534630523808
 20
162.1786170652035
 30
0.0
 10
95.33728334088808
 20
162.0134757646139
 30
0.0
 10
95.28799315519078
 20
161.8515702823145
 30
0.0
 10
95.22470869419072
 20
161.6966367172147
 30
0.0
  0
SPLINE
  5
133
330
70
100
AcDbEntity
  8
SUPERFICI
 62
   250
420
  3355443
370
    25
100
AcDbSpline
210
0.0
220
0.0
230
1.0
 70
     8
 71
     3
 72
    11
 73
     7
 74
     0
 42
0.0000000001
 43
0.0000000001
 40
0.0
 40
0.0
 40
0.0
 40
0.0
 40
1.0
 40
1.0
 40
1.0
 40
2.0
 40
2.0
 40
2.0
 40
2.0
 10
93.8911234581907
 20
161.4769929525146
 30
0.0
 10
93.93599421649069
 20
161.4541642586145
 30
0.0
 10
93.97955914209523
 20
161.4292659216335
 30
0.0
 10
94.02195139239216
 20
161.4015286593275
 30
0.0
 10
94.13063183291241
 20
161.3304190139295
 30
0.0
 10
94.23160487839053
 20
161.2406505643145
 30
0.0
 10
94.29790099399067
 20
161.1299120336147
 30
0.0
  0
SPLINE
  5
134
330
70
100
AcDbEntity
  8
SUPERFICI
 62
   250
420
  3355443
370
    25
100
AcDbSpline
210
0.0
220
0.0
230
1.0
 70
     8
 71
     3
 72
    29
 73
    25
 74
     0
 42
0.0000000001
 43
0.0000000001
 40
0.0
 40
0.0
 40
0.0
 40
0.0
 40
1.0
 40
1.0
 40
1.0
 40
2.0
 40
2.0
 40
2.0
 40
3.0
 40
3.0
 40
3.0
 40
4.0
 40
4.0
 40
4.0
 40
5.0
 40
5.0
 40
5.0
 40
6.0
 40
6.0
 40
6.0
 40
7.0
 40
7.0
 40
7.0
 40
8.0
 40
8.0
 40
8.0
 40
8.0
 10
94.3993930181907
 20
160.9501633778146
 30
0.0
 10
94.40053596019074
 20
160.9962741110146
 30
0.0
 10
94.40564088731594
 20
161.0424540453808
 30
0.0
 10
94.41582811949823
 20
161.0875585805819
 30
0.0
 10
94.42509130733951
 20
161.1285718582404
 30
0.0
 10
94.43855662303425
 20
161.1686959793575
 30
0.0
 10
94.45730409504122
 20
161.2063493012808
 30
0.0
 10
94.47446942911431
 20
161.2408249814977
 30
0.0
 10
94.49606299493842
 20
161.2732292971438
 30
0.0
 10
94.52224370655731
 20
161.3015069928641
 30
0.0
 10
94.54715039399264
 20
161.3284086194875
 30
0.0
 10
94.57620864403015
 20
161.3515754790638
 30
0.0
 10
94.6081771242574
 20
161.3695312532365
 30
0.0
 10
94.64038968590392
 20
161.3876241209096
 30
0.0
 10
94.67555708698196
 20
161.4004260254533
 30
0.0
 10
94.71172872861489
 20
161.4079114600617
 30
0.0
 10
94.75020241295265
 20
161.4158732841665
 30
0.0
 10
94.78981222949814
 20
161.4178204012403
 30
0.0
 10
94.82897478870595
 20
161.4150592856367
 30
0.0
 10
94.87195695421675
 20
161.4120288726535
 30
0.0
 10
94.91440036396317
 20
161.4033270323282
 30
0.0
 10
94.9555618945542
 20
161.3906435405291
 30
0.0
 10
95.00079848098659
 20
161.3767043632247
 30
0.0
 10
95.0444868080905
 20
161.3579561296146
 30
0.0
 10
95.08622054959054
 20
161.3358481242147
 30
0.0
  0
SPLINE
  5
135
330
70
100
AcDbEntity
  8
SUPERFICI
 62
   250
420
  3355443
370
    25
100
AcDbSpline
210
0.0
220
0.0
230
1.0
 70
     8
 71
     3
 72
    20
 73
    16
 74
     0
 42
0.0000000001
 43
0.0000000001
 40
0.0
 40
0.0
 40
0.0
 40
0.0
 40
1.0
 40
1.0
 40
1.0
 40
2.0
 40
2.0
 40
2.0
 40
3.0
 40
3.0
 40
3.0
 40
4.0
 40
4.0
 40
4.0
 40
5.0
 40
5.0
 40
5.0
 40
5.0
 10
111.3527932006905
 20
133.6405516897148
 30
0.0
 10
111.2924777158907
 20
133.5949076311145
 30
0.0
 10
111.241188848924
 20
133.5373515659004
 30
0.0
 10
111.1978627883634
 20
133.4747548032418
 30
0.0
 10
111.1511599591183
 20
133.4072793420532
 30
0.0
 10
111.1137095242058
 20
133.3339468352335
 30
0.0
 10
111.0870447731912
 20
133.2566937622823
 30
0.0
 10
111.0743518753101
 20
133.2199199193393
 30
0.0
 10
111.0641029379979
 20
133.18225770352
 30
0.0
 10
111.0570308775969
 20
133.1441926109401
 30
0.0
 10
111.0505834116774
 20
133.1094893740861
 30
0.0
 10
111.0467764482181
 20
133.0744512809848
 30
0.0
 10
111.0467451834724
 20
133.0385395655717
 30
0.0
 10
111.0466948839772
 20
132.980763910028
 30
0.0
 10
111.0564172895905
 20
132.9207270430146
 30
0.0
 10
111.0866362578905
 20
132.8724829679144
 30
0.0
  0
SPLINE
  5
136
330
70
100
AcDbEntity
  8
SUPERFICI
 62
   250
420
  3355443
370
    25
100
AcDbSpline
210
0.0
220
0.0
230
1.0
 70
     8
 71
     3
 72
    17
 73
    13
 74
     0
 42
0.0000000001
 43
0.0000000001
 40
0.0
 40
0.0
 40
0.0
 40
0.0
 40
1.0
 40
1.0
 40
1.0
 40
2.0
 40
2.0
 40
2.0
 40
3.0
 40
3.0
 40
3.0
 40
4.0
 40
4.0
 40
4.0
 40
4.0
 10
111.5756388897907
 20
152.6007542587145
 30
0.0
 10
111.5566159686909
 20
152.5511958418144
 30
0.0
 10
111.5419110122946
 20
152.4997420943777
 30
0.0
 10
111.5333690839019
 20
152.4472145654724
 30
0.0
 10
111.5258921370185
 20
152.4012360082309
 30
0.0
 10
111.5231372433728
 20
152.3544347298763
 30
0.0
 10
111.5280176720223
 20
152.3079204457711
 30
0.0
 10
111.5320062683267
 20
152.2699060181401
 30
0.0
 10
111.5410946465312
 20
152.232083279611
 30
0.0
 10
111.5602007435203
 20
152.1986367609459
 30
0.0
 10
111.5759771834099
 20
152.1710190328704
 30
0.0
 10
111.5985839722904
 20
152.1463851287144
 30
0.0
 10
111.6262814179908
 20
152.1316848982146
 30
0.0
  0
SPLINE
  5
137
330
70
100
AcDbEntity
  8
SUPERFICI
 62
   250
420
  3355443
370
    25
100
AcDbSpline
210
0.0
220
0.0
230
1.0
 70
     8
 71
     3
 72
    17
 73
    13
 74
     0
 42
0.0000000001
 43
0.0000000001
 40
0.0
 40
0.0
 40
0.0
 40
0.0
 40
1.0
 40
1.0
 40
1.0
 40
2.0
 40
2.0
 40
2.0
 40
3.0
 40
3.0
 40
3.0
 40
4.0
 40
4.0
 40
4.0
 40
4.0
 10
111.5756388897907
 20
152.6007542587145
 30
0.0
 10
111.6695073199907
 20
152.5510284568146
 30
0.0
 10
111.7545850078178
 20
152.4843805103868
 30
0.0
 10
111.8300925309283
 20
152.4088981079071
 30
0.0
 10
111.9125341935982
 20
152.3264838727892
 30
0.0
 10
111.98356725378
 20
152.2335380741852
 30
0.0
 10
112.0429391900355
 20
152.1336516105436
 30
0.0
 10
112.1019585892242
 20
152.0343582500267
 30
0.0
 10
112.1494549355566
 20
151.928206403948
 30
0.0
 10
112.181916759882
 20
151.8169243887158
 30
0.0
 10
112.2113111726332
 20
151.7161577326351
 30
0.0
 10
112.2283781323907
 20
151.6111846296146
 30
0.0
 10
112.2257912237905
 20
151.5068186583147
 30
0.0
  0
SPLINE
  5
138
330
70
100
AcDbEntity
  8
SUPERFICI
 62
   250
420
  3355443
370
    25
100
AcDbSpline
210
0.0
220
0.0
230
1.0
 70
     8
 71
     3
 72
    17
 73
    13
 74
     0
 42
0.0000000001
 43
0.0000000001
 40
0.0
 40
0.0
 40
0.0
 40
0.0
 40
1.0
 40
1.0
 40
1.0
 40
2.0
 40
2.0
 40
2.0
 40
3.0
 40
3.0
 40
3.0
 40
4.0
 40
4.0
 40
4.0
 40
4.0
 10
94.59721791779067
 20
141.6075768335145
 30
0.0
 10
94.50334948759076
 20
141.6573026353149
 30
0.0
 10
94.41827179971522
 20
141.7239505817423
 30
0.0
 10
94.34276427659535
 20
141.7994329842221
 30
0.0
 10
94.26032261391453
 20
141.8818472193403
 30
0.0
 10
94.1892895537671
 20
141.9747930179436
 30
0.0
 10
94.12991761751124
 20
142.0746794815856
 30
0.0
 10
94.07089821832284
 20
142.1739728421025
 30
0.0
 10
94.02340187195585
 20
142.2801246881811
 30
0.0
 10
93.99094004764164
 20
142.3914067034137
 30
0.0
 10
93.96154563490036
 20
142.4921733594941
 30
0.0
 10
93.94447867519074
 20
142.5971464625143
 30
0.0
 10
93.94706558379061
 20
142.7015124338148
 30
0.0
  0
SPLINE
  5
139
330
70
100
AcDbEntity
  8
SUPERFICI
 62
   250
420
  3355443
370
    25
100
AcDbSpline
210
0.0
220
0.0
230
1.0
 70
     8
 71
     3
 72
    20
 73
    16
 74
     0
 42
0.0000000001
 43
0.0000000001
 40
0.0
 40
0.0
 40
0.0
 40
0.0
 40
1.0
 40
1.0
 40
1.0
 40
2.0
 40
2.0
 40
2.0
 40
3.0
 40
3.0
 40
3.0
 40
4.0
 40
4.0
 40
4.0
 40
5.0
 40
5.0
 40
5.0
 40
5.0
 10
94.79393009949076
 20
142.5846685983144
 30
0.0
 10
94.72857155219061
 20
142.5444640476147
 30
0.0
 10
94.65323514761163
 20
142.5209183326631
 30
0.0
 10
94.5768331268577
 20
142.508103496216
 30
0.0
 10
94.49107086461767
 20
142.493718675591
 30
0.0
 10
94.40396588821473
 20
142.492855142359
 30
0.0
 10
94.31844895887973
 20
142.5047760745894
 30
0.0
 10
94.27678137211586
 20
142.5105844739537
 30
0.0
 10
94.23549079795726
 20
142.5194279877837
 30
0.0
 10
94.19544888118768
 20
142.531672693515
 30
0.0
 10
94.15852282468206
 20
142.5429645779251
 30
0.0
 10
94.1226586579396
 20
142.5571489217834
 30
0.0
 10
94.08795182167338
 20
142.5755555316062
 30
0.0
 10
94.03146222288636
 20
142.6055145286163
 30
0.0
 10
93.97803856879063
 20
142.6466589512148
 30
0.0
 10
93.94706558379061
 20
142.7015124338148
 30
0.0
  0
SPLINE
  5
13A
330
70
100
AcDbEntity
  8
SUPERFICI
 62
   250
420
  3355443
370
    25
100
AcDbSpline
210
0.0
220
0.0
230
1.0
 70
     8
 71
     3
 72
    11
 73
     7
 74
     0
 42
0.0000000001
 43
0.0000000001
 40
0.0
 40
0.0
 40
0.0
 40
0.0
 40
1.0
 40
1.0
 40
1.0
 40
2.0
 40
2.0
 40
2.0
 40
2.0
 10
94.79393009949076
 20
142.5846685983144
 30
0.0
 10
94.79303073749049
 20
142.5483848316146
 30
0.0
 10
94.80535032364807
 20
142.5122032520108
 30
0.0
 10
94.82441850669962
 20
142.4801394529124
 30
0.0
 10
94.84369441793869
 20
142.4477263517933
 30
0.0
 10
94.86986676499071
 20
142.4195212378142
 30
0.0
 10
94.90228882179057
 20
142.4023459983147
 30
0.0
  0
SPLINE
  5
13B
330
70
100
AcDbEntity
  8
SUPERFICI
 62
   250
420
  3355443
370
    25
100
AcDbSpline
210
0.0
220
0.0
230
1.0
 70
     8
 71
     3
 72
    11
 73
     7
 74
     0
 42
0.0000000001
 43
0.0000000001
 40
0.0
 40
0.0
 40
0.0
 40
0.0
 40
1.0
 40
1.0
 40
1.0
 40
2.0
 40
2.0
 40
2.0
 40
2.0
 10
93.84558080529071
 20
142.8812551158143
 30
0.0
 10
93.82547744649075
 20
142.9188912070147
 30
0.0
 10
93.80188152148244
 20
142.9546779308226
 30
0.0
 10
93.77575509746529
 20
142.9885395698366
 30
0.0
 10
93.68606181675389
 20
143.1047882187694
 30
0.0
 10
93.56654452519064
 20
143.1983481610147
 30
0.0
 10
93.43987334609067
 20
143.2719139156146
 30
0.0
  0
SPLINE
  5
13C
330
70
100
AcDbEntity
  8
SUPERFICI
 62
   250
420
  3355443
370
    25
100
AcDbSpline
210
0.0
220
0.0
230
1.0
 70
     8
 71
     3
 72
    20
 73
    16
 74
     0
 42
0.0000000001
 43
0.0000000001
 40
0.0
 40
0.0
 40
0.0
 40
0.0
 40
1.0
 40
1.0
 40
1.0
 40
2.0
 40
2.0
 40
2.0
 40
3.0
 40
3.0
 40
3.0
 40
4.0
 40
4.0
 40
4.0
 40
5.0
 40
5.0
 40
5.0
 40
5.0
 10
94.59721791779067
 20
141.6075768335145
 30
0.0
 10
94.56495445729055
 20
141.6590849059146
 30
0.0
 10
94.55595288076438
 20
141.723765643191
 30
0.0
 10
94.55748317815581
 20
141.7855298107872
 30
0.0
 10
94.55844183583989
 20
141.82422208994
 30
0.0
 10
94.56353364279776
 20
141.8617697847625
 30
0.0
 10
94.57152857927052
 20
141.898887192725
 30
0.0
 10
94.58027470718233
 20
141.9394920929531
 30
0.0
 10
94.59249514077038
 20
141.9795820495408
 30
0.0
 10
94.60740550115206
 20
142.0185825597067
 30
0.0
 10
94.63826629617738
 20
142.0993040660493
 30
0.0
 10
94.68065043183926
 20
142.1753585077508
 30
0.0
 10
94.7335957506951
 20
142.2443372892712
 30
0.0
 10
94.7809128667456
 20
142.3059834759552
 30
0.0
 10
94.83666515539072
 20
142.3619783626148
 30
0.0
 10
94.90228882179057
 20
142.4023459983147
 30
0.0
  0
LINE
  5
13E
330
70
100
AcDbEntity
  8
DRAFT
 62
    18
420
        0
370
    25
100
AcDbLine
 10
96.4495302458905
 20
157.0222814135147
 30
0.0
 11
96.38249942959065
 21
156.9768058926146
 31
0.0
  0
LINE
  5
13F
330
70
100
AcDbEntity
  8
DRAFT
 62
    18
420
        0
370
    25
100
AcDbLine
 10
96.28195320499074
 20
156.9085926112145
 30
0.0
 11
96.21492238869057
 21
156.8631170902146
 31
0.0
  0
LINE
  5
140
330
70
100
AcDbEntity
  8
DRAFT
 62
    18
420
        0
370
    25
100
AcDbLine
 10
96.11437616419076
 20
156.7949038088145
 30
0.0
 11
96.04734534789059
 21
156.7494282879146
 31
0.0
  0
LINE
  5
141
330
70
100
AcDbEntity
  8
DRAFT
 62
    18
420
        0
370
    25
100
AcDbLine
 10
96.51011895319051
 20
159.4666659149145
 30
0.0
 11
96.44330169969077
 21
159.4298063513147
 31
0.0
  0
LINE
  5
142
330
70
100
AcDbEntity
  8
DRAFT
 62
    18
420
        0
370
    25
100
AcDbLine
 10
96.34307581949075
 20
159.3745170060145
 30
0.0
 11
96.2762585659907
 21
159.3376574424144
 31
0.0
  0
LINE
  5
143
330
70
100
AcDbEntity
  8
DRAFT
 62
    18
420
        0
370
    25
100
AcDbLine
 10
96.17603268569057
 20
159.2823680971146
 30
0.0
 11
96.10921543229062
 21
159.2455085336146
 31
0.0
  0
LINE
  5
144
330
70
100
AcDbEntity
  8
DRAFT
 62
    18
420
        0
370
    25
100
AcDbLine
 10
95.94681270209058
 20
150.0347409296147
 30
0.0
 11
95.94121814779049
 21
150.0918960545145
 31
0.0
  0
LINE
  5
145
330
70
100
AcDbEntity
  8
DRAFT
 62
    18
420
        0
370
    25
100
AcDbLine
 10
96.11385583579066
 20
150.1268898384145
 30
0.0
 11
96.10826128149057
 21
150.1840449634144
 31
0.0
  0
LINE
  5
146
330
70
100
AcDbEntity
  8
DRAFT
 62
    18
420
        0
370
    25
100
AcDbLine
 10
96.28089896949072
 20
150.2190387473144
 30
0.0
 11
96.27530441519063
 21
150.2761938722145
 31
0.0
  0
LINE
  5
147
330
70
100
AcDbEntity
  8
DRAFT
 62
    18
420
        0
370
    25
100
AcDbLine
 10
96.17603268569057
 20
159.2823680971146
 30
0.0
 11
96.17043813149059
 21
159.3395232220144
 31
0.0
  0
LINE
  5
148
330
70
100
AcDbEntity
  8
DRAFT
 62
    18
420
        0
370
    25
100
AcDbLine
 10
96.34307581949075
 20
159.3745170060145
 30
0.0
 11
96.33748126519066
 21
159.4316721309146
 31
0.0
  0
LINE
  5
149
330
70
100
AcDbEntity
  8
DRAFT
 62
    18
420
        0
370
    25
100
AcDbLine
 10
96.51011895319051
 20
159.4666659149145
 30
0.0
 11
96.50452439889074
 21
159.5238210398146
 31
0.0
  0
LINE
  5
14A
330
70
100
AcDbEntity
  8
DRAFT
 62
    18
420
        0
370
    25
100
AcDbLine
 10
96.10921543229062
 20
159.2455085336146
 30
0.0
 11
96.04734534789059
 21
156.7494282879146
 31
0.0
  0
LINE
  5
14B
330
70
100
AcDbEntity
  8
DRAFT
 62
    18
420
        0
370
    25
100
AcDbLine
 10
95.8181253641905
 20
147.5018011203143
 30
0.0
 11
95.87999544859053
 21
149.9978813660146
 31
0.0
  0
LINE
  5
14C
330
70
100
AcDbEntity
  8
DRAFT
 62
    18
420
        0
370
    25
100
AcDbLine
 10
96.17603268569057
 20
159.2823680971146
 30
0.0
 11
96.11437616419076
 21
156.7949038088145
 31
0.0
  0
LINE
  5
14D
330
70
100
AcDbEntity
  8
DRAFT
 62
    18
420
        0
370
    25
100
AcDbLine
 10
95.88515618049067
 20
147.5472766413149
 30
0.0
 11
95.94681270209058
 21
150.0347409296147
 31
0.0
  0
LINE
  5
14E
330
70
100
AcDbEntity
  8
DRAFT
 62
    18
420
        0
370
    25
100
AcDbLine
 10
96.2762585659907
 20
159.3376574424144
 30
0.0
 11
96.21492238869057
 21
156.8631170902146
 31
0.0
  0
LINE
  5
14F
330
70
100
AcDbEntity
  8
DRAFT
 62
    18
420
        0
370
    25
100
AcDbLine
 10
95.98570240499048
 20
147.6154899227143
 30
0.0
 11
96.04703858229061
 21
150.0900302749145
 31
0.0
  0
LINE
  5
150
330
70
100
AcDbEntity
  8
DRAFT
 62
    18
420
        0
370
    25
100
AcDbLine
 10
96.34307581949075
 20
159.3745170060145
 30
0.0
 11
96.28195320509052
 21
156.9085926112145
 31
0.0
  0
LINE
  5
151
330
70
100
AcDbEntity
  8
DRAFT
 62
    18
420
        0
370
    25
100
AcDbLine
 10
96.05273322139076
 20
147.6609654436147
 30
0.0
 11
96.11385583579066
 21
150.1268898384145
 31
0.0
  0
LINE
  5
152
330
70
100
AcDbEntity
  8
DRAFT
 62
    18
420
        0
370
    25
100
AcDbLine
 10
96.44330169969077
 20
159.4298063513147
 30
0.0
 11
96.38249942959065
 21
156.9768058926146
 31
0.0
  0
LINE
  5
153
330
70
100
AcDbEntity
  8
DRAFT
 62
    18
420
        0
370
    25
100
AcDbLine
 10
96.15327944589056
 20
147.7291787251143
 30
0.0
 11
96.21408171599068
 21
150.1821791838147
 31
0.0
  0
LINE
  5
154
330
70
100
AcDbEntity
  8
DRAFT
 62
    18
420
        0
370
    25
100
AcDbLine
 10
96.51011895319051
 20
159.4666659149145
 30
0.0
 11
96.4495302458905
 21
157.0222814135147
 31
0.0
  0
LINE
  5
155
330
70
100
AcDbEntity
  8
DRAFT
 62
    18
420
        0
370
    25
100
AcDbLine
 10
96.22031026219072
 20
147.7746542460148
 30
0.0
 11
96.28089896949072
 21
150.2190387473144
 31
0.0
  0
LINE
  5
156
330
70
100
AcDbEntity
  8
DRAFT
 62
    18
420
        0
370
    25
100
AcDbLine
 10
96.61034483339053
 20
159.5219552602145
 30
0.0
 11
96.55007647039063
 21
157.0904946950146
 31
0.0
  0
LINE
  5
157
330
70
100
AcDbEntity
  8
DRAFT
 62
    18
420
        0
370
    25
100
AcDbLine
 10
96.32085648669054
 20
147.8428675274149
 30
0.0
 11
96.38112484969076
 21
150.2743280926145
 31
0.0
  0
LINE
  5
158
330
70
100
AcDbEntity
  8
DRAFT
 62
    18
420
        0
370
    25
100
AcDbLine
 10
108.0619610225904
 20
136.5338339973146
 30
0.0
 11
110.3174105627909
 21
135.3390336086147
 31
0.0
  0
LINE
  5
159
330
70
100
AcDbEntity
  8
DRAFT
 62
    18
420
        0
370
    25
100
AcDbLine
 10
101.9612864039905
 20
139.7656014459148
 30
0.0
 11
99.70583686369055
 21
140.9604018346147
 31
0.0
  0
LINE
  5
15A
330
70
100
AcDbEntity
  8
DRAFT
 62
    18
420
        0
370
    25
100
AcDbLine
 10
108.1327777321904
 20
136.5729394366148
 30
0.0
 11
110.3804419229907
 21
135.3822632539145
 31
0.0
  0
LINE
  5
15B
330
70
100
AcDbEntity
  8
DRAFT
 62
    18
420
        0
370
    25
100
AcDbLine
 10
102.0243177640906
 20
139.8088310911145
 30
0.0
 11
99.77665357339072
 21
140.9995072738148
 31
0.0
  0
LINE
  5
15C
330
70
100
AcDbEntity
  8
DRAFT
 62
    18
420
        0
370
    25
100
AcDbLine
 10
108.2390027967904
 20
136.6315975954143
 30
0.0
 11
110.4749889631907
 21
135.4471077218149
 31
0.0
  0
LINE
  5
15D
330
70
100
AcDbEntity
  8
DRAFT
 62
    18
420
        0
370
    25
100
AcDbLine
 10
102.1188648042905
 20
139.8736755590149
 30
0.0
 11
99.88287863789061
 21
141.0581654327144
 31
0.0
  0
LINE
  5
15E
330
70
100
AcDbEntity
  8
DRAFT
 62
    18
420
        0
370
    25
100
AcDbLine
 10
108.3098195063905
 20
136.6707030346144
 30
0.0
 11
110.5380203233905
 21
135.4903373670146
 31
0.0
  0
LINE
  5
15F
330
70
100
AcDbEntity
  8
DRAFT
 62
    18
420
        0
370
    25
100
AcDbLine
 10
102.1818961644907
 20
139.9169052043147
 30
0.0
 11
99.95369534759078
 21
141.0972708719145
 31
0.0
  0
LINE
  5
160
330
70
100
AcDbEntity
  8
DRAFT
 62
    18
420
        0
370
    25
100
AcDbLine
 10
108.4160445708904
 20
136.7293611934146
 30
0.0
 11
110.6325673635905
 21
135.5551818349143
 31
0.0
  0
LINE
  5
161
330
70
100
AcDbEntity
  8
DRAFT
 62
    18
420
        0
370
    25
100
AcDbLine
 10
102.2764432046906
 20
139.9817496722144
 30
0.0
 11
100.0599204120906
 21
141.1559290307147
 31
0.0
  0
LINE
  5
162
330
70
100
AcDbEntity
  8
DRAFT
 62
    18
420
        0
370
    25
100
AcDbLine
 10
108.4868612805905
 20
136.7684666327148
 30
0.0
 11
110.6955987236908
 21
135.5984114802148
 31
0.0
  0
LINE
  5
163
330
70
100
AcDbEntity
  8
DRAFT
 62
    18
420
        0
370
    25
100
AcDbLine
 10
102.3394745648904
 20
140.0249793175143
 30
0.0
 11
100.1307371216907
 21
141.1950344699148
 31
0.0
  0
LINE
  5
164
330
70
100
AcDbEntity
  8
DRAFT
 62
    18
420
        0
370
    25
100
AcDbLine
 10
108.5930863450904
 20
136.8271247915143
 30
0.0
 11
110.7901457638908
 21
135.6632559481145
 31
0.0
  0
LINE
  5
165
330
70
100
AcDbEntity
  8
DRAFT
 62
    18
420
        0
370
    25
100
AcDbLine
 10
102.4340216050907
 20
140.0898237854146
 30
0.0
 11
100.2369621861906
 21
141.2536926288144
 31
0.0
  0
LINE
  5
166
330
70
100
AcDbEntity
  8
DRAFT
 62
    18
420
        0
370
    25
100
AcDbLine
 10
102.0700631509907
 20
139.7796024773148
 30
0.0
 11
102.0243177640906
 21
139.8088310911145
 31
0.0
  0
LINE
  5
167
330
70
100
AcDbEntity
  8
DRAFT
 62
    18
420
        0
370
    25
100
AcDbLine
 10
102.2276415513905
 20
139.8876765905143
 30
0.0
 11
102.1818961644907
 21
139.9169052043147
 31
0.0
  0
LINE
  5
168
330
70
100
AcDbEntity
  8
DRAFT
 62
    18
420
        0
370
    25
100
AcDbLine
 10
102.3852199517906
 20
139.9957507036144
 30
0.0
 11
102.3394745648904
 21
140.0249793175143
 31
0.0
  0
LINE
  5
169
330
70
100
AcDbEntity
  8
DRAFT
 62
    18
420
        0
370
    25
100
AcDbLine
 10
110.4261873098909
 20
135.3530346400146
 30
0.0
 11
110.3804419229907
 21
135.3822632539145
 31
0.0
  0
LINE
  5
16A
330
70
100
AcDbEntity
  8
DRAFT
 62
    18
420
        0
370
    25
100
AcDbLine
 10
110.5837657101906
 20
135.4611087532148
 30
0.0
 11
110.5380203233905
 21
135.4903373670146
 31
0.0
  0
LINE
  5
16B
330
70
100
AcDbEntity
  8
DRAFT
 62
    18
420
        0
370
    25
100
AcDbLine
 10
110.7413441105904
 20
135.5691828664144
 30
0.0
 11
110.6955987236908
 21
135.5984114802148
 31
0.0
  0
LINE
  5
16C
330
70
100
AcDbEntity
  8
DRAFT
 62
    18
420
        0
370
    25
100
AcDbLine
 10
96.28089896949072
 20
150.2190387473144
 30
0.0
 11
96.21408171599068
 21
150.1821791838147
 31
0.0
  0
LINE
  5
16D
330
70
100
AcDbEntity
  8
DRAFT
 62
    18
420
        0
370
    25
100
AcDbLine
 10
96.11385583579066
 20
150.1268898384145
 30
0.0
 11
96.04703858229061
 21
150.0900302749145
 31
0.0
  0
LINE
  5
16E
330
70
100
AcDbEntity
  8
DRAFT
 62
    18
420
        0
370
    25
100
AcDbLine
 10
95.94681270209058
 20
150.0347409296147
 30
0.0
 11
95.87999544859053
 21
149.9978813660146
 31
0.0
  0
LINE
  5
16F
330
70
100
AcDbEntity
  8
DRAFT
 62
    18
420
        0
370
    25
100
AcDbLine
 10
96.05273322139076
 20
147.6609654436147
 30
0.0
 11
95.98570240499048
 21
147.6154899227143
 31
0.0
  0
LINE
  5
170
330
70
100
AcDbEntity
  8
DRAFT
 62
    18
420
        0
370
    25
100
AcDbLine
 10
96.22031026219072
 20
147.7746542460148
 30
0.0
 11
96.15327944589056
 21
147.7291787251143
 31
0.0
  0
LINE
  5
171
330
70
100
AcDbEntity
  8
DRAFT
 62
    18
420
        0
370
    25
100
AcDbLine
 10
95.88515618049067
 20
147.5472766413149
 30
0.0
 11
95.8181253641905
 21
147.5018011203143
 31
0.0
  0
LINE
  5
172
330
70
100
AcDbEntity
  8
DRAFT
 62
    18
420
        0
370
    25
100
AcDbLine
 10
99.70583686369055
 20
140.9604018346147
 30
0.0
 11
99.65725545149075
 21
140.8795109211143
 31
0.0
  0
LINE
  5
173
330
70
100
AcDbEntity
  8
DRAFT
 62
    18
420
        0
370
    25
100
AcDbLine
 10
99.88287863789061
 20
141.0581654327144
 30
0.0
 11
99.82823797239047
 21
140.9671855055147
 31
0.0
  0
LINE
  5
174
330
70
100
AcDbEntity
  8
DRAFT
 62
    18
420
        0
370
    25
100
AcDbLine
 10
100.0599204120906
 20
141.1559290307147
 30
0.0
 11
100.0052797465905
 21
141.0649491035143
 31
0.0
  0
LINE
  5
175
330
70
100
AcDbEntity
  8
DRAFT
 62
    18
420
        0
370
    25
100
AcDbLine
 10
100.2369621861906
 20
141.2536926288144
 30
0.0
 11
100.1823215207905
 21
141.1627127016147
 31
0.0
  0
LINE
  5
176
330
70
100
AcDbEntity
  8
DRAFT
 62
    18
420
        0
370
    25
100
AcDbLine
 10
95.7725085717905
 20
147.4998228020143
 30
0.0
 11
95.8181253641905
 21
147.5018011203143
 31
0.0
  0
LINE
  5
177
330
70
100
AcDbEntity
  8
DRAFT
 62
    18
420
        0
370
    25
100
AcDbLine
 10
95.88674059579069
 20
147.6111981269147
 30
0.0
 11
95.98570240499048
 21
147.6154899227143
 31
0.0
  0
LINE
  5
178
330
70
100
AcDbEntity
  8
DRAFT
 62
    18
420
        0
370
    25
100
AcDbLine
 10
96.05431763669077
 20
147.7248869292146
 30
0.0
 11
96.15327944589056
 21
147.7291787251143
 31
0.0
  0
LINE
  5
179
330
70
100
AcDbEntity
  8
DRAFT
 62
    18
420
        0
370
    25
100
AcDbLine
 10
96.22189467749073
 20
147.8385757316146
 30
0.0
 11
96.32085648669054
 21
147.8428675274149
 31
0.0
  0
LINE
  5
17A
330
70
100
AcDbEntity
  8
DRAFT
 62
    18
420
        0
370
    25
100
AcDbLine
 10
101.9612864039905
 20
139.7656014459148
 30
0.0
 11
101.9178964997905
 21
139.6819603862147
 31
0.0
  0
LINE
  5
17B
330
70
100
AcDbEntity
  8
DRAFT
 62
    18
420
        0
370
    25
100
AcDbLine
 10
102.1188648042905
 20
139.8736755590149
 30
0.0
 11
102.0700631509907
 21
139.7796024773148
 31
0.0
  0
LINE
  5
17C
330
70
100
AcDbEntity
  8
DRAFT
 62
    18
420
        0
370
    25
100
AcDbLine
 10
102.2764432046906
 20
139.9817496722144
 30
0.0
 11
102.2276415513905
 21
139.8876765905143
 31
0.0
  0
LINE
  5
17D
330
70
100
AcDbEntity
  8
DRAFT
 62
    18
420
        0
370
    25
100
AcDbLine
 10
102.4340216050907
 20
140.0898237854146
 30
0.0
 11
102.3852199517906
 21
139.9957507036144
 31
0.0
  0
LINE
  5
17E
330
70
100
AcDbEntity
  8
DRAFT
 62
    18
420
        0
370
    25
100
AcDbLine
 10
95.83444759849077
 20
149.9986844458145
 30
0.0
 11
95.87999544859053
 21
149.9978813660146
 31
0.0
  0
LINE
  5
17F
330
70
100
AcDbEntity
  8
DRAFT
 62
    18
420
        0
370
    25
100
AcDbLine
 10
95.94121814779049
 20
150.0918960545145
 30
0.0
 11
96.04703858229061
 21
150.0900302749145
 31
0.0
  0
LINE
  5
180
330
70
100
AcDbEntity
  8
DRAFT
 62
    18
420
        0
370
    25
100
AcDbLine
 10
96.10826128149057
 20
150.1840449634144
 30
0.0
 11
96.21408171599068
 21
150.1821791838147
 31
0.0
  0
LINE
  5
181
330
70
100
AcDbEntity
  8
DRAFT
 62
    18
420
        0
370
    25
100
AcDbLine
 10
96.27530441519063
 20
150.2761938722145
 30
0.0
 11
96.38112484969076
 21
150.2743280926145
 31
0.0
  0
LINE
  5
182
330
70
100
AcDbEntity
  8
DRAFT
 62
    18
420
        0
370
    25
100
AcDbLine
 10
100.1307371216907
 20
141.1950344699148
 30
0.0
 11
100.0599204120906
 21
141.1559290307147
 31
0.0
  0
LINE
  5
183
330
70
100
AcDbEntity
  8
DRAFT
 62
    18
420
        0
370
    25
100
AcDbLine
 10
99.95369534759078
 20
141.0972708719145
 30
0.0
 11
99.88287863789061
 21
141.0581654327144
 31
0.0
  0
LINE
  5
184
330
70
100
AcDbEntity
  8
DRAFT
 62
    18
420
        0
370
    25
100
AcDbLine
 10
99.77665357339072
 20
140.9995072738148
 30
0.0
 11
99.70583686369055
 21
140.9604018346147
 31
0.0
  0
LINE
  5
185
330
70
100
AcDbEntity
  8
DRAFT
 62
    18
420
        0
370
    25
100
AcDbLine
 10
102.3394745648904
 20
140.0249793175143
 30
0.0
 11
102.2764432046906
 21
139.9817496722144
 31
0.0
  0
LINE
  5
186
330
70
100
AcDbEntity
  8
DRAFT
 62
    18
420
        0
370
    25
100
AcDbLine
 10
102.1818961644907
 20
139.9169052043147
 30
0.0
 11
102.1188648042905
 21
139.8736755590149
 31
0.0
  0
LINE
  5
187
330
70
100
AcDbEntity
  8
DRAFT
 62
    18
420
        0
370
    25
100
AcDbLine
 10
102.0243177640906
 20
139.8088310911145
 30
0.0
 11
101.9612864039905
 21
139.7656014459148
 31
0.0
  0
LINE
  5
188
330
70
100
AcDbEntity
  8
DRAFT
 62
    18
420
        0
370
    25
100
AcDbLine
 10
108.0619610225904
 20
136.5338339973146
 30
0.0
 11
108.0133796103909
 21
136.4529430838149
 31
0.0
  0
LINE
  5
189
330
70
100
AcDbEntity
  8
DRAFT
 62
    18
420
        0
370
    25
100
AcDbLine
 10
108.2390027967904
 20
136.6315975954143
 30
0.0
 11
108.1843621312903
 21
136.5406176682146
 31
0.0
  0
LINE
  5
18A
330
70
100
AcDbEntity
  8
DRAFT
 62
    18
420
        0
370
    25
100
AcDbLine
 10
108.4160445708904
 20
136.7293611934146
 30
0.0
 11
108.3614039054903
 21
136.6383812662148
 31
0.0
  0
LINE
  5
18B
330
70
100
AcDbEntity
  8
DRAFT
 62
    18
420
        0
370
    25
100
AcDbLine
 10
108.5930863450904
 20
136.8271247915143
 30
0.0
 11
108.5384456795909
 21
136.7361448643146
 31
0.0
  0
LINE
  5
18C
330
70
100
AcDbEntity
  8
DRAFT
 62
    18
420
        0
370
    25
100
AcDbLine
 10
96.00172855549061
 20
156.7474499696147
 30
0.0
 11
96.04734534789059
 21
156.7494282879146
 31
0.0
  0
LINE
  5
18D
330
70
100
AcDbEntity
  8
DRAFT
 62
    18
420
        0
370
    25
100
AcDbLine
 10
96.11596057949078
 20
156.8588252944146
 30
0.0
 11
96.21492238869057
 21
156.8631170902146
 31
0.0
  0
LINE
  5
18E
330
70
100
AcDbEntity
  8
DRAFT
 62
    18
420
        0
370
    25
100
AcDbLine
 10
96.28353762029076
 20
156.9725140968146
 30
0.0
 11
96.38249942959065
 21
156.9768058926146
 31
0.0
  0
LINE
  5
18F
330
70
100
AcDbEntity
  8
DRAFT
 62
    18
420
        0
370
    25
100
AcDbLine
 10
96.45111466119052
 20
157.0862028991145
 30
0.0
 11
96.55007647039063
 21
157.0904946950146
 31
0.0
  0
LINE
  5
190
330
70
100
AcDbEntity
  8
DRAFT
 62
    18
420
        0
370
    25
100
AcDbLine
 10
110.3174105627909
 20
135.3390336086147
 30
0.0
 11
110.2740206586906
 21
135.2553925489146
 31
0.0
  0
LINE
  5
191
330
70
100
AcDbEntity
  8
DRAFT
 62
    18
420
        0
370
    25
100
AcDbLine
 10
110.4749889631907
 20
135.4471077218149
 30
0.0
 11
110.4261873098909
 21
135.3530346400146
 31
0.0
  0
LINE
  5
192
330
70
100
AcDbEntity
  8
DRAFT
 62
    18
420
        0
370
    25
100
AcDbLine
 10
110.6325673635905
 20
135.5551818349143
 30
0.0
 11
110.5837657101906
 21
135.4611087532148
 31
0.0
  0
LINE
  5
193
330
70
100
AcDbEntity
  8
DRAFT
 62
    18
420
        0
370
    25
100
AcDbLine
 10
110.7901457638908
 20
135.6632559481145
 30
0.0
 11
110.7413441105904
 21
135.5691828664144
 31
0.0
  0
LINE
  5
194
330
70
100
AcDbEntity
  8
DRAFT
 62
    18
420
        0
370
    25
100
AcDbLine
 10
108.4868612805905
 20
136.7684666327148
 30
0.0
 11
108.4160445708904
 21
136.7293611934146
 31
0.0
  0
LINE
  5
195
330
70
100
AcDbEntity
  8
DRAFT
 62
    18
420
        0
370
    25
100
AcDbLine
 10
108.3098195063905
 20
136.6707030346144
 30
0.0
 11
108.2390027967904
 21
136.6315975954143
 31
0.0
  0
LINE
  5
196
330
70
100
AcDbEntity
  8
DRAFT
 62
    18
420
        0
370
    25
100
AcDbLine
 10
108.1327777321904
 20
136.5729394366148
 30
0.0
 11
108.0619610225904
 21
136.5338339973146
 31
0.0
  0
LINE
  5
197
330
70
100
AcDbEntity
  8
DRAFT
 62
    18
420
        0
370
    25
100
AcDbLine
 10
96.06366758209077
 20
159.2463116133145
 30
0.0
 11
96.10921543229062
 21
159.2455085336146
 31
0.0
  0
LINE
  5
198
330
70
100
AcDbEntity
  8
DRAFT
 62
    18
420
        0
370
    25
100
AcDbLine
 10
96.17043813149059
 20
159.3395232220144
 30
0.0
 11
96.2762585659907
 21
159.3376574424144
 31
0.0
  0
LINE
  5
199
330
70
100
AcDbEntity
  8
DRAFT
 62
    18
420
        0
370
    25
100
AcDbLine
 10
96.33748126519066
 20
159.4316721309146
 30
0.0
 11
96.44330169969077
 21
159.4298063513147
 31
0.0
  0
LINE
  5
19A
330
70
100
AcDbEntity
  8
DRAFT
 62
    18
420
        0
370
    25
100
AcDbLine
 10
96.50452439889074
 20
159.5238210398146
 30
0.0
 11
96.61034483339053
 21
159.5219552602145
 31
0.0
  0
LINE
  5
19B
330
70
100
AcDbEntity
  8
DRAFT
 62
    18
420
        0
370
    25
100
AcDbLine
 10
110.6955987236908
 20
135.5984114802148
 30
0.0
 11
110.6325673635905
 21
135.5551818349143
 31
0.0
  0
LINE
  5
19C
330
70
100
AcDbEntity
  8
DRAFT
 62
    18
420
        0
370
    25
100
AcDbLine
 10
110.3804419229907
 20
135.3822632539145
 30
0.0
 11
110.3174105627909
 21
135.3390336086147
 31
0.0
  0
LINE
  5
19D
330
70
100
AcDbEntity
  8
DRAFT
 62
    18
420
        0
370
    25
100
AcDbLine
 10
110.5380203233905
 20
135.4903373670146
 30
0.0
 11
110.4749889631907
 21
135.4471077218149
 31
0.0
  0
LINE
  5
19E
330
70
100
AcDbEntity
  8
0
 62
    18
420
        0
370
    25
100
AcDbLine
 10
96.09130137399066
 20
160.3611664361144
 30
0.0
 11
95.66394255329047
 21
143.1198466475146
 31
0.0
  0
LINE
  5
19F
330
70
100
AcDbEntity
  8
0
 62
    18
420
        0
370
    25
100
AcDbLine
 10
95.7723012755906
 20
142.9375240475143
 30
0.0
 11
111.4052032738905
 21
134.6561605980143
 31
0.0
  0
LINE
  5
1A0
330
70
100
AcDbEntity
  8
0
 62
   250
420
  3355443
370
    25
100
AcDbLine
 10
95.66394255329047
 20
143.1198466475146
 30
0.0
 11
94.79393009949076
 21
142.5846685983144
 31
0.0
  0
LINE
  5
1A1
330
70
100
AcDbEntity
  8
0
 62
   250
420
  3355443
370
    25
100
AcDbLine
 10
94.90228882179057
 20
142.4023459983147
 30
0.0
 11
95.7723012755906
 21
142.9375240475143
 31
0.0
  0
LINE
  5
1A2
330
70
100
AcDbEntity
  8
0
 62
    18
420
        0
370
    25
100
AcDbLine
 10
127.6094568791906
 20
135.9796499598145
 30
0.0
 11
128.2988784249904
 21
135.6144362336145
 31
0.0
  0
LINE
  5
1A3
330
70
100
AcDbEntity
  8
0
 62
    18
420
        0
370
    25
100
AcDbLine
 10
107.7415672124907
 20
134.1194358400146
 30
0.0
 11
107.7516075839906
 21
134.1256586802145
 31
0.0
  0
LINE
  5
1A4
330
70
100
AcDbEntity
  8
0
 62
    18
420
        0
370
    25
100
AcDbLine
 10
108.4369748579905
 20
133.7553852425149
 30
0.0
 11
108.4471460533903
 21
133.7616419351145
 31
0.0
  0
LINE
  5
1A5
330
70
100
AcDbEntity
  8
0
 62
    18
420
        0
370
    25
100
AcDbLine
 10
108.6537027621908
 20
133.6420812528145
 30
0.0
 11
108.6638830105908
 21
133.6483435143146
 31
0.0
  0
LINE
  5
1A6
330
70
100
AcDbEntity
  8
0
 62
    18
420
        0
370
    25
100
AcDbLine
 10
108.7982154364909
 20
133.5665655190146
 30
0.0
 11
108.8083996020907
 21
133.5728301901144
 31
0.0
  0
LINE
  5
1A7
330
70
100
AcDbEntity
  8
0
 62
    18
420
        0
370
    25
100
AcDbLine
 10
109.0150318861908
 20
133.4533189734146
 30
0.0
 11
109.0252188617907
 21
133.4595853730143
 31
0.0
  0
LINE
  5
1A8
330
70
100
AcDbEntity
  8
0
 62
    18
420
        0
370
    25
100
AcDbLine
 10
109.2318947165909
 20
133.3401103125144
 30
0.0
 11
109.2420811963904
 21
133.3463764072146
 31
0.0
  0
LINE
  5
1A9
330
70
100
AcDbEntity
  8
0
 62
    18
420
        0
370
    25
100
AcDbLine
 10
107.9581417483907
 20
134.0060375077144
 30
0.0
 11
107.9684571611904
 21
134.0120804190145
 31
0.0
  0
LINE
  5
1AA
330
70
100
AcDbEntity
  8
0
 62
    18
420
        0
370
    25
100
AcDbLine
 10
108.3542609539905
 20
132.6799972743144
 30
0.0
 11
108.3643625018906
 21
132.6862111241146
 31
0.0
  0
LINE
  5
1AB
330
70
100
AcDbEntity
  8
0
 62
    18
420
        0
370
    25
100
AcDbLine
 10
109.5598486554906
 20
133.1690263871147
 30
0.0
 11
109.5700290608906
 21
133.1752887451147
 31
0.0
  0
LINE
  5
1AC
330
70
100
AcDbEntity
  8
0
 62
    18
420
        0
370
    25
100
AcDbLine
 10
109.9651326065905
 20
132.9577955896143
 30
0.0
 11
109.9752994364905
 21
132.9640495968145
 31
0.0
  0
LINE
  5
1AD
330
70
100
AcDbEntity
  8
0
 62
    18
420
        0
370
    25
100
AcDbLine
 10
109.0608506260906
 20
132.3077109960147
 30
0.0
 11
109.0709482690905
 21
132.3139224437146
 31
0.0
  0
LINE
  5
1AE
330
70
100
AcDbEntity
  8
0
 62
    18
420
        0
370
    25
100
AcDbLine
 10
110.2933612564909
 20
132.7868806494147
 30
0.0
 11
110.3035160062904
 21
132.7931272257144
 31
0.0
  0
LINE
  5
1AF
330
70
100
AcDbEntity
  8
0
 62
    18
420
        0
370
    25
100
AcDbLine
 10
109.4930792135903
 20
132.0803604365146
 30
0.0
 11
109.5031744160906
 21
132.0865703830147
 31
0.0
  0
LINE
  5
1B0
330
70
100
AcDbEntity
  8
0
 62
    18
420
        0
370
    25
100
AcDbLine
 10
110.7868839875908
 20
132.5301531928148
 30
0.0
 11
110.7970270217908
 21
132.5363925624146
 31
0.0
  0
LINE
  5
1B1
330
70
100
AcDbEntity
  8
0
 62
    18
420
        0
370
    25
100
AcDbLine
 10
109.9137689127909
 20
131.8593706161145
 30
0.0
 11
109.9238617258908
 21
131.8655790928145
 31
0.0
  0
LINE
  5
1B2
330
70
100
AcDbEntity
  8
0
 62
    18
420
        0
370
    25
100
AcDbLine
 10
111.0041993845907
 20
132.4172016635143
 30
0.0
 11
111.0143434678904
 21
132.4234416785144
 31
0.0
  0
LINE
  5
1B3
330
70
100
AcDbEntity
  8
0
 62
    18
420
        0
370
    25
100
AcDbLine
 10
110.3347250721908
 20
131.6385293008146
 30
0.0
 11
110.3448154939903
 21
131.6447363065146
 31
0.0
  0
LINE
  5
1B4
330
70
100
AcDbEntity
  8
0
 62
    18
420
        0
370
    25
100
AcDbLine
 10
110.8088385918906
 20
131.8199190758143
 30
0.0
 11
110.8189062304904
 21
131.8261120667148
 31
0.0
  0
LINE
  5
1B5
330
70
100
AcDbEntity
  8
0
 62
    18
420
        0
370
    25
100
AcDbLine
 10
111.4986907503904
 20
132.1610612656143
 30
0.0
 11
111.5089187835908
 21
132.1673529213145
 31
0.0
  0
LINE
  5
1B6
330
70
100
AcDbEntity
  8
0
 62
    18
420
        0
370
    25
100
AcDbLine
 10
110.6955707656908
 20
131.4494724575143
 30
0.0
 11
110.7056591449905
 21
131.4556782068144
 31
0.0
  0
LINE
  5
1B7
330
70
100
AcDbEntity
  8
0
 62
    18
420
        0
370
    25
100
AcDbLine
 10
85.29183762629065
 20
176.5834863665146
 30
0.0
 11
127.6296549424906
 21
154.1554763463147
 31
0.0
  0
LINE
  5
1B8
330
70
100
AcDbEntity
  8
0
 62
    18
420
        0
370
    25
100
AcDbLine
 10
112.0100510886907
 20
131.8981212815147
 30
0.0
 11
112.0201003115907
 21
131.9043029442146
 31
0.0
  0
LINE
  5
1B9
330
70
100
AcDbEntity
  8
0
 62
    18
420
        0
370
    25
100
AcDbLine
 10
111.7240452600908
 20
131.5536763408148
 30
0.0
 11
111.7341038177906
 21
131.5598637456148
 31
0.0
  0
LINE
  5
1BA
330
70
100
AcDbEntity
  8
0
 62
    18
420
        0
370
    25
100
AcDbLine
 10
111.3913107898905
 20
131.0856201045144
 30
0.0
 11
111.4013953061908
 21
131.0918234775144
 31
0.0
  0
LINE
  5
1BB
330
70
100
AcDbEntity
  8
0
 62
    18
420
        0
370
    25
100
AcDbLine
 10
111.9888306758906
 20
131.4165107156143
 30
0.0
 11
111.9988886215904
 21
131.4226977440148
 31
0.0
  0
LINE
  5
1BC
330
70
100
AcDbEntity
  8
0
 62
    18
420
        0
370
    25
100
AcDbLine
 10
111.7527933996904
 20
130.8969525017149
 30
0.0
 11
111.7628759647906
 21
130.9031546745143
 31
0.0
  0
LINE
  5
1BD
330
70
100
AcDbEntity
  8
0
 62
    18
420
        0
370
    25
100
AcDbLine
 10
112.4043749670905
 20
130.5575762701143
 30
0.0
 11
112.4144541152909
 21
130.5637763410145
 31
0.0
  0
LINE
  5
1BE
330
70
100
AcDbEntity
  8
0
 62
    18
420
        0
370
    25
100
AcDbLine
 10
127.6638070483909
 20
138.1723379451147
 30
0.0
 11
128.3737568139908
 21
138.6353089665143
 31
0.0
  0
LINE
  5
1BF
330
70
100
AcDbEntity
  8
0
 62
    18
420
        0
370
    25
100
AcDbLine
 10
128.2988784249904
 20
135.6144362336145
 30
0.0
 11
127.5924938569904
 21
135.2952985448144
 31
0.0
  0
LINE
  5
1C0
330
70
100
AcDbEntity
  8
0
 62
    18
420
        0
370
    25
100
AcDbLine
 10
127.5924938569904
 20
135.2952985448144
 30
0.0
 11
127.6638070483909
 21
138.1723379451147
 31
0.0
  0
LINE
  5
1C1
330
70
100
AcDbEntity
  8
0
 62
    18
420
        0
370
    25
100
AcDbLine
 10
128.2988784249904
 20
135.6144362336145
 30
0.0
 11
127.9593780398905
 21
121.9176639440143
 31
0.0
  0
LINE
  5
1C2
330
70
100
AcDbEntity
  8
0
 62
    18
420
        0
370
    25
100
AcDbLine
 10
128.7133321500903
 20
152.3350411325144
 30
0.0
 11
128.3737568139908
 21
138.6353089665143
 31
0.0
  0
SPLINE
  5
1C3
330
70
100
AcDbEntity
  8
0
 62
    18
420
        0
370
    25
100
AcDbSpline
210
0.0
220
0.0
230
1.0
 70
     8
 71
     3
 72
     8
 73
     4
 74
     0
 42
0.0000000001
 43
0.0000000001
 40
0.0
 40
0.0
 40
0.0
 40
0.0
 40
1.0
 40
1.0
 40
1.0
 40
1.0
 10
111.7509113308856
 20
132.0319890362886
 30
0.0
 10
111.6949748620225
 20
132.0608077618585
 30
0.0
 10
111.638970103366
 20
132.0894937452339
 30
0.0
 10
111.5828975277175
 20
132.1180467442448
 30
0.0
  0
SPLINE
  5
1C4
330
70
100
AcDbEntity
  8
0
 62
    18
420
        0
370
    25
100
AcDbSpline
210
0.0
220
0.0
230
1.0
 70
     8
 71
     3
 72
     8
 73
     4
 74
     0
 42
0.0000000001
 43
0.0000000001
 40
0.0
 40
0.0
 40
0.0
 40
0.0
 40
1.0
 40
1.0
 40
1.0
 40
1.0
 10
111.0334228783496
 20
132.3581054067495
 30
0.0
 10
111.0274708146086
 20
132.3800011660988
 30
0.0
 10
111.0211098995399
 20
132.4017837297728
 30
0.0
 10
111.0143434677935
 20
132.4234416784676
 30
0.0
  0
SPLINE
  5
1C5
330
70
100
AcDbEntity
  8
0
 62
    18
420
        0
370
    25
100
AcDbSpline
210
0.0
220
0.0
230
1.0
 70
     8
 71
     3
 72
     8
 73
     4
 74
     0
 42
0.0000000001
 43
0.0000000001
 40
0.0
 40
0.0
 40
0.0
 40
0.0
 40
1.0
 40
1.0
 40
1.0
 40
1.0
 10
111.0237826903898
 20
132.3504209941287
 30
0.0
 10
111.0176985761931
 20
132.3728089244489
 30
0.0
 10
111.0111695148648
 20
132.3950735558203
 30
0.0
 10
111.004199384515
 20
132.4172016635676
 30
0.0
  0
SPLINE
  5
1C6
330
70
100
AcDbEntity
  8
0
 62
    18
420
        0
370
    25
100
AcDbSpline
210
0.0
220
0.0
230
1.0
 70
     8
 71
     3
 72
     8
 73
     4
 74
     0
 42
0.0000000001
 43
0.0000000001
 40
0.0
 40
0.0
 40
0.0
 40
0.0
 40
1.0
 40
1.0
 40
1.0
 40
1.0
 10
112.1539173660637
 20
131.1481067563035
 30
0.0
 10
112.1572368208568
 20
131.1478624640935
 30
0.0
 10
112.1605611045379
 20
131.1476889359086
 30
0.0
 10
112.1638879532884
 20
131.1475862899201
 30
0.0
  0
SPLINE
  5
1C7
330
70
100
AcDbEntity
  8
0
 62
    18
420
        0
370
    25
100
AcDbSpline
210
0.0
220
0.0
230
1.0
 70
     8
 71
     3
 72
     8
 73
     4
 74
     0
 42
0.0000000001
 43
0.0000000001
 40
0.0
 40
0.0
 40
0.0
 40
0.0
 40
1.0
 40
1.0
 40
1.0
 40
1.0
 10
112.1638879532409
 20
131.1475862899464
 30
0.0
 10
112.1675353071561
 20
131.1474735898964
 30
0.0
 10
112.1711848823683
 20
131.1474506731162
 30
0.0
 10
112.1748333639663
 20
131.1475175604205
 30
0.0
  0
SPLINE
  5
1C8
330
70
100
AcDbEntity
  8
0
 62
    18
420
        0
370
    25
100
AcDbSpline
210
0.0
220
0.0
230
1.0
 70
     8
 71
     3
 72
     8
 73
     4
 74
     0
 42
0.0000000001
 43
0.0000000001
 40
0.0
 40
0.0
 40
0.0
 40
0.0
 40
1.0
 40
1.0
 40
1.0
 40
1.0
 10
111.9988886420748
 20
131.4226969470991
 30
0.0
 10
112.0027722125998
 20
131.4206827184886
 30
0.0
 10
112.0067326086243
 20
131.4188202051341
 30
0.0
 10
112.0107608614417
 20
131.4171136248811
 30
0.0
  0
SPLINE
  5
1C9
330
70
100
AcDbEntity
  8
0
 62
    18
420
        0
370
    25
100
AcDbSpline
210
0.0
220
0.0
230
1.0
 70
     8
 71
     3
 72
     8
 73
     4
 74
     0
 42
0.0000000001
 43
0.0000000001
 40
0.0
 40
0.0
 40
0.0
 40
0.0
 40
1.0
 40
1.0
 40
1.0
 40
1.0
 10
112.0836864487089
 20
131.4105370534496
 30
0.0
 10
112.0863991331129
 20
131.4122078011545
 30
0.0
 10
112.0889784420951
 20
131.4140859907839
 30
0.0
 10
112.0914012698539
 20
131.4161547972575
 30
0.0
  0
SPLINE
  5
1CA
330
70
100
AcDbEntity
  8
0
 62
    18
420
        0
370
    25
100
AcDbSpline
210
0.0
220
0.0
230
1.0
 70
     8
 71
     3
 72
     8
 73
     4
 74
     0
 42
0.0000000001
 43
0.0000000001
 40
0.0
 40
0.0
 40
0.0
 40
0.0
 40
1.0
 40
1.0
 40
1.0
 40
1.0
 10
109.5780154478537
 20
133.1443010568297
 30
0.0
 10
109.5754468284603
 20
133.1546541608428
 30
0.0
 10
109.5727845904992
 20
133.1649838130378
 30
0.0
 10
109.5700290608515
 20
133.1752887450929
 30
0.0
  0
SPLINE
  5
1CB
330
70
100
AcDbEntity
  8
0
 62
   250
420
  3355443
370
    25
100
AcDbSpline
210
0.0
220
0.0
230
1.0
 70
     8
 71
     3
 72
     8
 73
     4
 74
     0
 42
0.0000000001
 43
0.0000000001
 40
0.0
 40
0.0
 40
0.0
 40
0.0
 40
1.0
 40
1.0
 40
1.0
 40
1.0
 10
111.4904799341268
 20
132.1212213181577
 30
0.0
 10
111.4950823856474
 20
132.1193634246597
 30
0.0
 10
111.4996938178867
 20
132.1175278564956
 30
0.0
 10
111.5043140682477
 20
132.1157146783872
 30
0.0
  0
SPLINE
  5
1CC
330
70
100
AcDbEntity
  8
0
 62
   250
420
  3355443
370
    25
100
AcDbSpline
210
0.0
220
0.0
230
1.0
 70
     8
 71
     3
 72
     8
 73
     4
 74
     0
 42
0.0000000001
 43
0.0000000001
 40
0.0
 40
0.0
 40
0.0
 40
0.0
 40
1.0
 40
1.0
 40
1.0
 40
1.0
 10
111.483837614872
 20
132.1239207761281
 30
0.0
 10
111.4860496116304
 20
132.1230157744304
 30
0.0
 10
111.4882637241245
 20
132.1221159526402
 30
0.0
 10
111.4904799341486
 20
132.1212213181558
 30
0.0
  0
SPLINE
  5
1CD
330
70
100
AcDbEntity
  8
0
 62
   250
420
  3355443
370
    25
100
AcDbSpline
210
0.0
220
0.0
230
1.0
 70
     8
 71
     3
 72
     8
 73
     4
 74
     0
 42
0.0000000001
 43
0.0000000001
 40
0.0
 40
0.0
 40
0.0
 40
0.0
 40
1.0
 40
1.0
 40
1.0
 40
1.0
 10
111.3179455875185
 20
132.2039452027591
 30
0.0
 10
111.3715368567498
 20
132.1738693309193
 30
0.0
 10
111.4269403713497
 20
132.1471433058293
 30
0.0
 10
111.4838376148861
 20
132.1239207761929
 30
0.0
  0
SPLINE
  5
1CE
330
70
100
AcDbEntity
  8
0
 62
    18
420
        0
370
    25
100
AcDbSpline
210
0.0
220
0.0
230
1.0
 70
     8
 71
     3
 72
     8
 73
     4
 74
     0
 42
0.0000000001
 43
0.0000000001
 40
0.0
 40
0.0
 40
0.0
 40
0.0
 40
1.0
 40
1.0
 40
1.0
 40
1.0
 10
108.6605331521998
 20
133.6382597930127
 30
0.0
 10
108.6616618988248
 20
133.6416169925902
 30
0.0
 10
108.6627785255311
 20
133.6449782549195
 30
0.0
 10
108.6638830105029
 20
133.6483435143287
 30
0.0
  0
SPLINE
  5
1CF
330
70
100
AcDbEntity
  8
0
 62
    18
420
        0
370
    25
100
AcDbSpline
210
0.0
220
0.0
230
1.0
 70
     8
 71
     3
 72
     8
 73
     4
 74
     0
 42
0.0000000001
 43
0.0000000001
 40
0.0
 40
0.0
 40
0.0
 40
0.0
 40
1.0
 40
1.0
 40
1.0
 40
1.0
 10
109.0256058445953
 20
133.4418294609189
 30
0.0
 10
109.0255143212077
 20
133.4477488556425
 30
0.0
 10
109.0253853243501
 20
133.4536676116407
 30
0.0
 10
109.0252188617779
 20
133.4595853730958
 30
0.0
  0
SPLINE
  5
1D0
330
70
100
AcDbEntity
  8
0
 62
    18
420
        0
370
    25
100
AcDbSpline
210
0.0
220
0.0
230
1.0
 70
     8
 71
     3
 72
     8
 73
     4
 74
     0
 42
0.0000000001
 43
0.0000000001
 40
0.0
 40
0.0
 40
0.0
 40
0.0
 40
1.0
 40
1.0
 40
1.0
 40
1.0
 10
110.3047166391283
 20
132.7521881905371
 30
0.0
 10
110.3045180308352
 20
132.7658397029971
 30
0.0
 10
110.3041177761942
 20
132.779487536909
 30
0.0
 10
110.3035160061967
 20
132.7931272257093
 30
0.0
  0
SPLINE
  5
1D1
330
70
100
AcDbEntity
  8
0
 62
    18
420
        0
370
    25
100
AcDbSpline
210
0.0
220
0.0
230
1.0
 70
     8
 71
     3
 72
     8
 73
     4
 74
     0
 42
0.0000000001
 43
0.0000000001
 40
0.0
 40
0.0
 40
0.0
 40
0.0
 40
1.0
 40
1.0
 40
1.0
 40
1.0
 10
110.7730145393933
 20
132.4867767069591
 30
0.0
 10
110.7770794556962
 20
132.4987895021269
 30
0.0
 10
110.7809755756541
 20
132.5108587556606
 30
0.0
 10
110.7847017482341
 20
132.5229809019314
 30
0.0
  0
SPLINE
  5
1D2
330
70
100
AcDbEntity
  8
0
 62
    18
420
        0
370
    25
100
AcDbSpline
210
0.0
220
0.0
230
1.0
 70
     8
 71
     3
 72
     8
 73
     4
 74
     0
 42
0.0000000001
 43
0.0000000001
 40
0.0
 40
0.0
 40
0.0
 40
0.0
 40
1.0
 40
1.0
 40
1.0
 40
1.0
 10
111.5006155792759
 20
132.1065854977294
 30
0.0
 10
111.5003851904792
 20
132.121727976834
 30
0.0
 10
111.4999004989969
 20
132.1368655186428
 30
0.0
 10
111.4991617098783
 20
132.151991719193
 30
0.0
  0
SPLINE
  5
1D3
330
70
100
AcDbEntity
  8
0
 62
    18
420
        0
370
    25
100
AcDbSpline
210
0.0
220
0.0
230
1.0
 70
     8
 71
     3
 72
     8
 73
     4
 74
     0
 42
0.0000000001
 43
0.0000000001
 40
0.0
 40
0.0
 40
0.0
 40
0.0
 40
1.0
 40
1.0
 40
1.0
 40
1.0
 10
110.2946481630971
 20
132.7453303833238
 30
0.0
 10
110.2944391925953
 20
132.7591864116128
 30
0.0
 10
110.2940101696206
 20
132.7730382471262
 30
0.0
 10
110.2933612564813
 20
132.7868806493872
 30
0.0
  0
SPLINE
  5
1D4
330
70
100
AcDbEntity
  8
0
 62
    18
420
        0
370
    25
100
AcDbSpline
210
0.0
220
0.0
230
1.0
 70
     8
 71
     3
 72
     8
 73
     4
 74
     0
 42
0.0000000001
 43
0.0000000001
 40
0.0
 40
0.0
 40
0.0
 40
0.0
 40
1.0
 40
1.0
 40
1.0
 40
1.0
 10
111.4991617099451
 20
132.1519917192391
 30
0.0
 10
111.4990154789866
 20
132.1550154502917
 30
0.0
 10
111.4988584914985
 20
132.1580386515569
 30
0.0
 10
111.498690750461
 20
132.1610612656431
 30
0.0
  0
SPLINE
  5
1D5
330
70
100
AcDbEntity
  8
0
 62
    18
420
        0
370
    25
100
AcDbSpline
210
0.0
220
0.0
230
1.0
 70
     8
 71
     3
 72
     8
 73
     4
 74
     0
 42
0.0000000001
 43
0.0000000001
 40
0.0
 40
0.0
 40
0.0
 40
0.0
 40
1.0
 40
1.0
 40
1.0
 40
1.0
 10
110.7847017482116
 20
132.5229809019808
 30
0.0
 10
110.7854362310259
 20
132.5253695088519
 30
0.0
 10
110.7861636473337
 20
132.5277602829146
 30
0.0
 10
110.7868839875882
 20
132.5301531927969
 30
0.0
  0
SPLINE
  5
1D6
330
70
100
AcDbEntity
  8
0
 62
    18
420
        0
370
    25
100
AcDbSpline
210
0.0
220
0.0
230
1.0
 70
     8
 71
     3
 72
     8
 73
     4
 74
     0
 42
0.0000000001
 43
0.0000000001
 40
0.0
 40
0.0
 40
0.0
 40
0.0
 40
1.0
 40
1.0
 40
1.0
 40
1.0
 10
109.9637792151061
 20
132.9528016422287
 30
0.0
 10
109.9642341411204
 20
132.9544652604108
 30
0.0
 10
109.9646852727908
 20
132.9561299138543
 30
0.0
 10
109.9651326065982
 20
132.9577955895726
 30
0.0
  0
SPLINE
  5
1D7
330
70
100
AcDbEntity
  8
0
 62
    18
420
        0
370
    25
100
AcDbSpline
210
0.0
220
0.0
230
1.0
 70
     8
 71
     3
 72
     8
 73
     4
 74
     0
 42
0.0000000001
 43
0.0000000001
 40
0.0
 40
0.0
 40
0.0
 40
0.0
 40
1.0
 40
1.0
 40
1.0
 40
1.0
 10
110.9070081471816
 20
132.0997287454603
 30
0.0
 10
110.8981878857687
 20
132.0728482983733
 30
0.0
 10
110.8894099953667
 20
132.0459539666074
 30
0.0
 10
110.8806745086823
 20
132.0190458503716
 30
0.0
  0
SPLINE
  5
1D8
330
70
100
AcDbEntity
  8
0
 62
    18
420
        0
370
    25
100
AcDbSpline
210
0.0
220
0.0
230
1.0
 70
     8
 71
     3
 72
     8
 73
     4
 74
     0
 42
0.0000000001
 43
0.0000000001
 40
0.0
 40
0.0
 40
0.0
 40
0.0
 40
1.0
 40
1.0
 40
1.0
 40
1.0
 10
110.9033029203744
 20
132.1128765969167
 30
0.0
 10
110.8712319285132
 20
132.0154130017936
 30
0.0
 10
110.8397432575364
 20
131.9177587534718
 30
0.0
 10
110.8088385918675
 20
131.8199190757681
 30
0.0
  0
SPLINE
  5
1D9
330
70
100
AcDbEntity
  8
0
 62
    18
420
        0
370
    25
100
AcDbSpline
210
0.0
220
0.0
230
1.0
 70
     8
 71
     3
 72
     8
 73
     4
 74
     0
 42
0.0000000001
 43
0.0000000001
 40
0.0
 40
0.0
 40
0.0
 40
0.0
 40
1.0
 40
1.0
 40
1.0
 40
1.0
 10
110.8806745087895
 20
132.019045850326
 30
0.0
 10
110.8598192060079
 20
131.9548200134184
 30
0.0
 10
110.8392296038651
 20
131.8905082022305
 30
0.0
 10
110.8189062305744
 20
131.8261120666417
 30
0.0
  0
SPLINE
  5
1DA
330
70
100
AcDbEntity
  8
0
 62
    18
420
        0
370
    25
100
AcDbSpline
210
0.0
220
0.0
230
1.0
 70
     8
 71
     3
 72
     8
 73
     4
 74
     0
 42
0.0000000001
 43
0.0000000001
 40
0.0
 40
0.0
 40
0.0
 40
0.0
 40
1.0
 40
1.0
 40
1.0
 40
1.0
 10
109.9567755937987
 20
132.9279566675454
 30
0.0
 10
109.9027302020758
 20
132.7446252210406
 30
0.0
 10
109.8508854447813
 20
132.5606522015018
 30
0.0
 10
109.8012525064862
 20
132.3760772977898
 30
0.0
  0
SPLINE
  5
1DB
330
70
100
AcDbEntity
  8
0
 62
    18
420
        0
370
    25
100
AcDbSpline
210
0.0
220
0.0
230
1.0
 70
     8
 71
     3
 72
     8
 73
     4
 74
     0
 42
0.0000000001
 43
0.0000000001
 40
0.0
 40
0.0
 40
0.0
 40
0.0
 40
1.0
 40
1.0
 40
1.0
 40
1.0
 10
108.4345524769833
 20
133.7479642407543
 30
0.0
 10
108.4257582314612
 20
133.7217962509475
 30
0.0
 10
108.4170107659883
 20
133.6956125630852
 30
0.0
 10
108.4083101224863
 20
133.6694133026476
 30
0.0
  0
SPLINE
  5
1DC
330
70
100
AcDbEntity
  8
0
 62
    18
420
        0
370
    25
100
AcDbSpline
210
0.0
220
0.0
230
1.0
 70
     8
 71
     3
 72
     8
 73
     4
 74
     0
 42
0.0000000001
 43
0.0000000001
 40
0.0
 40
0.0
 40
0.0
 40
0.0
 40
1.0
 40
1.0
 40
1.0
 40
1.0
 10
110.0849038804203
 20
132.5055160028781
 30
0.0
 10
110.0244678873785
 20
132.2910466455551
 30
0.0
 10
109.9674158132907
 20
132.0756380999219
 30
0.0
 10
109.9137689128217
 20
131.8593706161075
 30
0.0
  0
SPLINE
  5
1DD
330
70
100
AcDbEntity
  8
0
 62
    18
420
        0
370
    25
100
AcDbSpline
210
0.0
220
0.0
230
1.0
 70
     8
 71
     3
 72
     8
 73
     4
 74
     0
 42
0.0000000001
 43
0.0000000001
 40
0.0
 40
0.0
 40
0.0
 40
0.0
 40
1.0
 40
1.0
 40
1.0
 40
1.0
 10
108.4083101224799
 20
133.6694133026278
 30
0.0
 10
108.3516717749089
 20
133.4992808154511
 30
0.0
 10
108.2972299659367
 20
133.3284249434582
 30
0.0
 10
108.2449982774161
 20
133.156888310861
 30
0.0
  0
SPLINE
  5
1DE
330
70
100
AcDbEntity
  8
0
 62
    18
420
        0
370
    25
100
AcDbSpline
210
0.0
220
0.0
230
1.0
 70
     8
 71
     3
 72
     8
 73
     4
 74
     0
 42
0.0000000001
 43
0.0000000001
 40
0.0
 40
0.0
 40
0.0
 40
0.0
 40
1.0
 40
1.0
 40
1.0
 40
1.0
 10
109.8012525064227
 20
132.3760772978796
 30
0.0
 10
109.7955536062776
 20
132.3548547760226
 30
0.0
 10
109.7898884243754
 20
132.3336232141373
 30
0.0
 10
109.784256982161
 20
132.3123826925941
 30
0.0
  0
SPLINE
  5
1DF
330
70
100
AcDbEntity
  8
0
 62
    18
420
        0
370
    25
100
AcDbSpline
210
0.0
220
0.0
230
1.0
 70
     8
 71
     3
 72
     8
 73
     4
 74
     0
 42
0.0000000001
 43
0.0000000001
 40
0.0
 40
0.0
 40
0.0
 40
0.0
 40
1.0
 40
1.0
 40
1.0
 40
1.0
 10
110.7590799418167
 20
131.6334855810993
 30
0.0
 10
110.7504995524163
 20
131.6053967858574
 30
0.0
 10
110.7419797356442
 20
131.5772895229586
 30
0.0
 10
110.7335205509115
 20
131.549163988403
 30
0.0
  0
SPLINE
  5
1E0
330
70
100
AcDbEntity
  8
0
 62
    18
420
        0
370
    25
100
AcDbSpline
210
0.0
220
0.0
230
1.0
 70
     8
 71
     3
 72
     8
 73
     4
 74
     0
 42
0.0000000001
 43
0.0000000001
 40
0.0
 40
0.0
 40
0.0
 40
0.0
 40
1.0
 40
1.0
 40
1.0
 40
1.0
 10
110.0740627962546
 20
132.4369471886475
 30
0.0
 10
110.0275669097494
 20
132.2700096650268
 30
0.0
 10
109.9832078675609
 20
132.1024843374966
 30
0.0
 10
109.9409965515346
 20
131.9344123021845
 30
0.0
  0
SPLINE
  5
1E1
330
70
100
AcDbEntity
  8
0
 62
    18
420
        0
370
    25
100
AcDbSpline
210
0.0
220
0.0
230
1.0
 70
     8
 71
     3
 72
     8
 73
     4
 74
     0
 42
0.0000000001
 43
0.0000000001
 40
0.0
 40
0.0
 40
0.0
 40
0.0
 40
1.0
 40
1.0
 40
1.0
 40
1.0
 10
110.7520268375588
 20
131.6371771433053
 30
0.0
 10
110.7329009335163
 20
131.5747017270209
 30
0.0
 10
110.714082015879
 20
131.512132743635
 30
0.0
 10
110.6955707656902
 20
131.4494724574733
 30
0.0
  0
SPLINE
  5
1E2
330
70
100
AcDbEntity
  8
0
 62
    18
420
        0
370
    25
100
AcDbSpline
210
0.0
220
0.0
230
1.0
 70
     8
 71
     3
 72
     8
 73
     4
 74
     0
 42
0.0000000001
 43
0.0000000001
 40
0.0
 40
0.0
 40
0.0
 40
0.0
 40
1.0
 40
1.0
 40
1.0
 40
1.0
 10
108.2449982774707
 20
133.1568883108328
 30
0.0
 10
108.2381225534946
 20
133.1342907797128
 30
0.0
 10
108.2312881181372
 20
133.1116807063547
 30
0.0
 10
108.2244950056132
 20
133.0890582039478
 30
0.0
  0
SPLINE
  5
1E3
330
70
100
AcDbEntity
  8
0
 62
    18
420
        0
370
    25
100
AcDbSpline
210
0.0
220
0.0
230
1.0
 70
     8
 71
     3
 72
     8
 73
     4
 74
     0
 42
0.0000000001
 43
0.0000000001
 40
0.0
 40
0.0
 40
0.0
 40
0.0
 40
1.0
 40
1.0
 40
1.0
 40
1.0
 10
110.733520550907
 20
131.5491639883895
 30
0.0
 10
110.7241550430084
 20
131.5180254721084
 30
0.0
 10
110.7148678783283
 20
131.4868634463121
 30
0.0
 10
110.705659145013
 20
131.4556782067733
 30
0.0
  0
SPLINE
  5
1E4
330
70
100
AcDbEntity
  8
0
 62
    18
420
        0
370
    25
100
AcDbSpline
210
0.0
220
0.0
230
1.0
 70
     8
 71
     3
 72
     8
 73
     4
 74
     0
 42
0.0000000001
 43
0.0000000001
 40
0.0
 40
0.0
 40
0.0
 40
0.0
 40
1.0
 40
1.0
 40
1.0
 40
1.0
 10
108.3905023749475
 20
132.7775094168427
 30
0.0
 10
108.3817122107885
 20
132.7470987149113
 30
0.0
 10
108.3729988919459
 20
132.716665853547
 30
0.0
 10
108.3643625018451
 20
132.6862111241293
 30
0.0
  0
SPLINE
  5
1E5
330
70
100
AcDbEntity
  8
0
 62
    18
420
        0
370
    25
100
AcDbSpline
210
0.0
220
0.0
230
1.0
 70
     8
 71
     3
 72
     8
 73
     4
 74
     0
 42
0.0000000001
 43
0.0000000001
 40
0.0
 40
0.0
 40
0.0
 40
0.0
 40
1.0
 40
1.0
 40
1.0
 40
1.0
 10
109.9409965515615
 20
131.9344123021357
 30
0.0
 10
109.9352413529176
 20
131.9114787719795
 30
0.0
 10
109.9295297340615
 20
131.8885343274211
 30
0.0
 10
109.9238617259223
 20
131.8655790927106
 30
0.0
  0
SPLINE
  5
1E6
330
70
100
AcDbEntity
  8
0
 62
    18
420
        0
370
    25
100
AcDbSpline
210
0.0
220
0.0
230
1.0
 70
     8
 71
     3
 72
     8
 73
     4
 74
     0
 42
0.0000000001
 43
0.0000000001
 40
0.0
 40
0.0
 40
0.0
 40
0.0
 40
1.0
 40
1.0
 40
1.0
 40
1.0
 10
112.1724115706616
 20
131.1340352354159
 30
0.0
 10
112.2426681696937
 20
130.9652165285069
 30
0.0
 10
112.3139705191257
 20
130.7968349297506
 30
0.0
 10
112.3863145097127
 20
130.6289001431935
 30
0.0
  0
SPLINE
  5
1E7
330
70
100
AcDbEntity
  8
0
 62
    18
420
        0
370
    25
100
AcDbSpline
210
0.0
220
0.0
230
1.0
 70
     8
 71
     3
 72
     8
 73
     4
 74
     0
 42
0.0000000001
 43
0.0000000001
 40
0.0
 40
0.0
 40
0.0
 40
0.0
 40
1.0
 40
1.0
 40
1.0
 40
1.0
 10
112.153917366072
 20
131.1481067562798
 30
0.0
 10
112.2359639040382
 20
130.9506559078636
 30
0.0
 10
112.3194519994189
 20
130.7538071584254
 30
0.0
 10
112.4043749670873
 20
130.5575762701978
 30
0.0
  0
SPLINE
  5
1E8
330
70
100
AcDbEntity
  8
0
 62
    18
420
        0
370
    25
100
AcDbSpline
210
0.0
220
0.0
230
1.0
 70
     8
 71
     3
 72
     8
 73
     4
 74
     0
 42
0.0000000001
 43
0.0000000001
 40
0.0
 40
0.0
 40
0.0
 40
0.0
 40
1.0
 40
1.0
 40
1.0
 40
1.0
 10
111.9233410304447
 20
131.2404452105814
 30
0.0
 10
112.0008430570226
 20
131.0547037447686
 30
0.0
 10
112.0796489246951
 20
130.8695090069546
 30
0.0
 10
112.1597528002554
 20
130.6848747052495
 30
0.0
  0
SPLINE
  5
1E9
330
70
100
AcDbEntity
  8
0
 62
    18
420
        0
370
    25
100
AcDbSpline
210
0.0
220
0.0
230
1.0
 70
     8
 71
     3
 72
     8
 73
     4
 74
     0
 42
0.0000000001
 43
0.0000000001
 40
0.0
 40
0.0
 40
0.0
 40
0.0
 40
1.0
 40
1.0
 40
1.0
 40
1.0
 10
110.9033029203448
 20
132.1128765969455
 30
0.0
 10
110.9117738024604
 20
132.082819413312
 30
0.0
 10
110.9202823499444
 20
132.0527728574768
 30
0.0
 10
110.9288285427493
 20
132.0227370002334
 30
0.0
  0
SPLINE
  5
1EA
330
70
100
AcDbEntity
  8
0
 62
    18
420
        0
370
    25
100
AcDbSpline
210
0.0
220
0.0
230
1.0
 70
     8
 71
     3
 72
     8
 73
     4
 74
     0
 42
0.0000000001
 43
0.0000000001
 40
0.0
 40
0.0
 40
0.0
 40
0.0
 40
1.0
 40
1.0
 40
1.0
 40
1.0
 10
110.9288285427396
 20
132.0227370001211
 30
0.0
 10
110.9500579256845
 20
131.9481172685941
 30
0.0
 10
110.9715313306244
 20
131.873567177302
 30
0.0
 10
110.9932484129368
 20
131.7990879226786
 30
0.0
  0
SPLINE
  5
1EB
330
70
100
AcDbEntity
  8
0
 62
    18
420
        0
370
    25
100
AcDbSpline
210
0.0
220
0.0
230
1.0
 70
     8
 71
     3
 72
     8
 73
     4
 74
     0
 42
0.0000000001
 43
0.0000000001
 40
0.0
 40
0.0
 40
0.0
 40
0.0
 40
1.0
 40
1.0
 40
1.0
 40
1.0
 10
110.9932484129567
 20
131.7990879227517
 30
0.0
 10
111.0018804513055
 20
131.7694875356813
 30
0.0
 10
111.0105526510067
 20
131.739898875215
 30
0.0
 10
111.0192649881101
 20
131.7103220230671
 30
0.0
  0
SPLINE
  5
1EC
330
70
100
AcDbEntity
  8
0
 62
    18
420
        0
370
    25
100
AcDbSpline
210
0.0
220
0.0
230
1.0
 70
     8
 71
     3
 72
     8
 73
     4
 74
     0
 42
0.0000000001
 43
0.0000000001
 40
0.0
 40
0.0
 40
0.0
 40
0.0
 40
1.0
 40
1.0
 40
1.0
 40
1.0
 10
111.7281052998975
 20
131.83018903499
 30
0.0
 10
111.7286113220256
 20
131.8020027455289
 30
0.0
 10
111.7291535341803
 20
131.7738171174001
 30
0.0
 10
111.7297319350203
 20
131.7456322203027
 30
0.0
  0
SPLINE
  5
1ED
330
70
100
AcDbEntity
  8
0
 62
    18
420
        0
370
    25
100
AcDbSpline
210
0.0
220
0.0
230
1.0
 70
     8
 71
     3
 72
     8
 73
     4
 74
     0
 42
0.0000000001
 43
0.0000000001
 40
0.0
 40
0.0
 40
0.0
 40
0.0
 40
1.0
 40
1.0
 40
1.0
 40
1.0
 10
109.5680489589458
 20
133.1375327227395
 30
0.0
 10
109.6364949254678
 20
132.8615460368106
 30
0.0
 10
109.7085705093095
 20
132.5864722015611
 30
0.0
 10
109.7842569822566
 20
132.3123826925382
 30
0.0
  0
SPLINE
  5
1EE
330
70
100
AcDbEntity
  8
0
 62
    18
420
        0
370
    25
100
AcDbSpline
210
0.0
220
0.0
230
1.0
 70
     8
 71
     3
 72
     8
 73
     4
 74
     0
 42
0.0000000001
 43
0.0000000001
 40
0.0
 40
0.0
 40
0.0
 40
0.0
 40
1.0
 40
1.0
 40
1.0
 40
1.0
 10
111.7178480634826
 20
131.8355039898996
 30
0.0
 10
111.7194907392436
 20
131.7415526140002
 30
0.0
 10
111.7215564924078
 20
131.6476091117825
 30
0.0
 10
111.7240452601383
 20
131.5536763408648
 30
0.0
  0
SPLINE
  5
1EF
330
70
100
AcDbEntity
  8
0
 62
    18
420
        0
370
    25
100
AcDbSpline
210
0.0
220
0.0
230
1.0
 70
     8
 71
     3
 72
     8
 73
     4
 74
     0
 42
0.0000000001
 43
0.0000000001
 40
0.0
 40
0.0
 40
0.0
 40
0.0
 40
1.0
 40
1.0
 40
1.0
 40
1.0
 10
109.5780154479666
 20
133.1443010568316
 30
0.0
 10
109.6391612855758
 20
132.8971264521436
 30
0.0
 10
109.7033292202387
 20
132.6507092691728
 30
0.0
 10
109.7705048426364
 20
132.4051048424724
 30
0.0
  0
SPLINE
  5
1F0
330
70
100
AcDbEntity
  8
0
 62
    18
420
        0
370
    25
100
AcDbSpline
210
0.0
220
0.0
230
1.0
 70
     8
 71
     3
 72
     8
 73
     4
 74
     0
 42
0.0000000001
 43
0.0000000001
 40
0.0
 40
0.0
 40
0.0
 40
0.0
 40
1.0
 40
1.0
 40
1.0
 40
1.0
 10
111.7297319350446
 20
131.7456322202475
 30
0.0
 10
111.731000148843
 20
131.6837050899678
 30
0.0
 10
111.7324574498872
 20
131.6217819764348
 30
0.0
 10
111.7341038177984
 20
131.5598637456494
 30
0.0
  0
SPLINE
  5
1F1
330
70
100
AcDbEntity
  8
0
 62
    18
420
        0
370
    25
100
AcDbSpline
210
0.0
220
0.0
230
1.0
 70
     8
 71
     3
 72
     8
 73
     4
 74
     0
 42
0.0000000001
 43
0.0000000001
 40
0.0
 40
0.0
 40
0.0
 40
0.0
 40
1.0
 40
1.0
 40
1.0
 40
1.0
 10
111.0945689789821
 20
131.4583961916935
 30
0.0
 10
111.1208340866466
 20
131.3717763894665
 30
0.0
 10
111.147487746886
 20
131.285274881403
 30
0.0
 10
111.1745291546857
 20
131.1988942800933
 30
0.0
  0
SPLINE
  5
1F2
330
70
100
AcDbEntity
  8
0
 62
    18
420
        0
370
    25
100
AcDbSpline
210
0.0
220
0.0
230
1.0
 70
     8
 71
     3
 72
     8
 73
     4
 74
     0
 42
0.0000000001
 43
0.0000000001
 40
0.0
 40
0.0
 40
0.0
 40
0.0
 40
1.0
 40
1.0
 40
1.0
 40
1.0
 10
111.3800085262224
 20
131.1606309907746
 30
0.0
 10
111.3871093371564
 20
131.1376864235284
 30
0.0
 10
111.3942382691641
 20
131.1147505685454
 30
0.0
 10
111.4013953061799
 20
131.0918234775131
 30
0.0
  0
SPLINE
  5
1F3
330
70
100
AcDbEntity
  8
0
 62
    18
420
        0
370
    25
100
AcDbSpline
210
0.0
220
0.0
230
1.0
 70
     8
 71
     3
 72
     8
 73
     4
 74
     0
 42
0.0000000001
 43
0.0000000001
 40
0.0
 40
0.0
 40
0.0
 40
0.0
 40
1.0
 40
1.0
 40
1.0
 40
1.0
 10
109.7705048425659
 20
132.4051048425308
 30
0.0
 10
109.7769851712458
 20
132.3814276020751
 30
0.0
 10
109.7834954943731
 20
132.3577585811449
 30
0.0
 10
109.7900357962735
 20
132.3340978367264
 30
0.0
  0
SPLINE
  5
1F4
330
70
100
AcDbEntity
  8
0
 62
    18
420
        0
370
    25
100
AcDbSpline
210
0.0
220
0.0
230
1.0
 70
     8
 71
     3
 72
     8
 73
     4
 74
     0
 42
0.0000000001
 43
0.0000000001
 40
0.0
 40
0.0
 40
0.0
 40
0.0
 40
1.0
 40
1.0
 40
1.0
 40
1.0
 10
107.7415672124862
 20
134.1194358400576
 30
0.0
 10
107.748308819506
 20
134.0947323754729
 30
0.0
 10
107.755083162045
 20
134.0700378561074
 30
0.0
 10
107.7618902222576
 20
134.0453523470184
 30
0.0
  0
SPLINE
  5
1F5
330
70
100
AcDbEntity
  8
0
 62
    18
420
        0
370
    25
100
AcDbSpline
210
0.0
220
0.0
230
1.0
 70
     8
 71
     3
 72
     8
 73
     4
 74
     0
 42
0.0000000001
 43
0.0000000001
 40
0.0
 40
0.0
 40
0.0
 40
0.0
 40
1.0
 40
1.0
 40
1.0
 40
1.0
 10
107.9581417483419
 20
134.0060375076579
 30
0.0
 10
108.0418259135153
 20
133.6989192936768
 30
0.0
 10
108.1306226625796
 20
133.3932170770293
 30
0.0
 10
108.2244950055208
 20
133.0890582039215
 30
0.0
  0
SPLINE
  5
1F6
330
70
100
AcDbEntity
  8
0
 62
    18
420
        0
370
    25
100
AcDbSpline
210
0.0
220
0.0
230
1.0
 70
     8
 71
     3
 72
     8
 73
     4
 74
     0
 42
0.0000000001
 43
0.0000000001
 40
0.0
 40
0.0
 40
0.0
 40
0.0
 40
1.0
 40
1.0
 40
1.0
 40
1.0
 10
109.45774782193
 20
132.8326664052614
 30
0.0
 10
109.5331494988066
 20
132.5448518892509
 30
0.0
 10
109.6130753566342
 20
132.2582416582718
 30
0.0
 10
109.6974957146536
 20
131.9729421460855
 30
0.0
  0
SPLINE
  5
1F7
330
70
100
AcDbEntity
  8
0
 62
    18
420
        0
370
    25
100
AcDbSpline
210
0.0
220
0.0
230
1.0
 70
     8
 71
     3
 72
     8
 73
     4
 74
     0
 42
0.0000000001
 43
0.0000000001
 40
0.0
 40
0.0
 40
0.0
 40
0.0
 40
1.0
 40
1.0
 40
1.0
 40
1.0
 10
107.9682196347072
 20
134.0121246787067
 30
0.0
 10
108.0506164472525
 20
133.7095614120538
 30
0.0
 10
108.1380289779706
 20
133.4083864525501
 30
0.0
 10
108.2304211173978
 20
133.1087242133245
 30
0.0
  0
SPLINE
  5
1F8
330
70
100
AcDbEntity
  8
0
 62
    18
420
        0
370
    25
100
AcDbSpline
210
0.0
220
0.0
230
1.0
 70
     8
 71
     3
 72
     8
 73
     4
 74
     0
 42
0.0000000001
 43
0.0000000001
 40
0.0
 40
0.0
 40
0.0
 40
0.0
 40
1.0
 40
1.0
 40
1.0
 40
1.0
 10
107.7618902222537
 20
134.0453523470492
 30
0.0
 10
107.8776672362288
 20
133.6253196913116
 30
0.0
 10
108.0032158223143
 20
133.2080418074824
 30
0.0
 10
108.1384337586041
 20
132.793858444035
 30
0.0
  0
SPLINE
  5
1F9
330
70
100
AcDbEntity
  8
0
 62
    18
420
        0
370
    25
100
AcDbSpline
210
0.0
220
0.0
230
1.0
 70
     8
 71
     3
 72
     8
 73
     4
 74
     0
 42
0.0000000001
 43
0.0000000001
 40
0.0
 40
0.0
 40
0.0
 40
0.0
 40
1.0
 40
1.0
 40
1.0
 40
1.0
 10
111.7440215121493
 20
131.3335026948799
 30
0.0
 10
111.7450458686684
 20
131.3040652845167
 30
0.0
 10
111.7461215562446
 20
131.2746296827641
 30
0.0
 10
111.7472485699716
 20
131.2451960238812
 30
0.0
  0
SPLINE
  5
1FA
330
70
100
AcDbEntity
  8
0
 62
    18
420
        0
370
    25
100
AcDbSpline
210
0.0
220
0.0
230
1.0
 70
     8
 71
     3
 72
     8
 73
     4
 74
     0
 42
0.0000000001
 43
0.0000000001
 40
0.0
 40
0.0
 40
0.0
 40
0.0
 40
1.0
 40
1.0
 40
1.0
 40
1.0
 10
110.0849038804248
 20
132.5055160029365
 30
0.0
 10
110.085708446179
 20
132.4766042192776
 30
0.0
 10
110.0865640422413
 20
132.4476938782396
 30
0.0
 10
110.0874706646129
 20
132.4187851149272
 30
0.0
  0
SPLINE
  5
1FB
330
70
100
AcDbEntity
  8
0
 62
    18
420
        0
370
    25
100
AcDbSpline
210
0.0
220
0.0
230
1.0
 70
     8
 71
     3
 72
     8
 73
     4
 74
     0
 42
0.0000000001
 43
0.0000000001
 40
0.0
 40
0.0
 40
0.0
 40
0.0
 40
1.0
 40
1.0
 40
1.0
 40
1.0
 10
111.7335545525024
 20
131.3389466802336
 30
0.0
 10
111.7385875576938
 20
131.1915584587479
 30
0.0
 10
111.745000787973
 20
131.0442206047703
 30
0.0
 10
111.7527933996307
 20
130.8969525017149
 30
0.0
  0
SPLINE
  5
1FC
330
70
100
AcDbEntity
  8
0
 62
    18
420
        0
370
    25
100
AcDbSpline
210
0.0
220
0.0
230
1.0
 70
     8
 71
     3
 72
     8
 73
     4
 74
     0
 42
0.0000000001
 43
0.0000000001
 40
0.0
 40
0.0
 40
0.0
 40
0.0
 40
1.0
 40
1.0
 40
1.0
 40
1.0
 10
108.798588372866
 20
133.5519167286326
 30
0.0
 10
108.7989855325418
 20
133.5263587839322
 30
0.0
 10
108.7994256308588
 20
133.5008015245183
 30
0.0
 10
108.7999086659541
 20
133.4752450586012
 30
0.0
  0
SPLINE
  5
1FD
330
70
100
AcDbEntity
  8
0
 62
    18
420
        0
370
    25
100
AcDbSpline
210
0.0
220
0.0
230
1.0
 70
     8
 71
     3
 72
     8
 73
     4
 74
     0
 42
0.0000000001
 43
0.0000000001
 40
0.0
 40
0.0
 40
0.0
 40
0.0
 40
1.0
 40
1.0
 40
1.0
 40
1.0
 10
111.7472485700922
 20
131.2451960238498
 30
0.0
 10
111.7509857099293
 20
131.147192859108
 30
0.0
 10
111.7553548705572
 20
131.0492148157106
 30
0.0
 10
111.7603557793801
 20
130.9512680065513
 30
0.0
  0
SPLINE
  5
1FE
330
70
100
AcDbEntity
  8
0
 62
    18
420
        0
370
    25
100
AcDbSpline
210
0.0
220
0.0
230
1.0
 70
     8
 71
     3
 72
     8
 73
     4
 74
     0
 42
0.0000000001
 43
0.0000000001
 40
0.0
 40
0.0
 40
0.0
 40
0.0
 40
1.0
 40
1.0
 40
1.0
 40
1.0
 10
110.0874706646026
 20
132.4187851148335
 30
0.0
 10
110.0942968597884
 20
132.1963851633226
 30
0.0
 10
110.1045787118805
 20
131.9741047176172
 30
0.0
 10
110.1183124969131
 20
131.7520242850675
 30
0.0
  0
SPLINE
  5
1FF
330
70
100
AcDbEntity
  8
0
 62
    18
420
        0
370
    25
100
AcDbSpline
210
0.0
220
0.0
230
1.0
 70
     8
 71
     3
 72
     8
 73
     4
 74
     0
 42
0.0000000001
 43
0.0000000001
 40
0.0
 40
0.0
 40
0.0
 40
0.0
 40
1.0
 40
1.0
 40
1.0
 40
1.0
 10
109.4577478219326
 20
132.8326664051998
 30
0.0
 10
109.4651238578457
 20
132.5817104002894
 30
0.0
 10
109.4769028014336
 20
132.3309031394408
 30
0.0
 10
109.4930792135999
 20
132.080360436503
 30
0.0
  0
SPLINE
  5
200
330
70
100
AcDbEntity
  8
0
 62
    18
420
        0
370
    25
100
AcDbSpline
210
0.0
220
0.0
230
1.0
 70
     8
 71
     3
 72
     8
 73
     4
 74
     0
 42
0.0000000001
 43
0.0000000001
 40
0.0
 40
0.0
 40
0.0
 40
0.0
 40
1.0
 40
1.0
 40
1.0
 40
1.0
 10
109.4705102089662
 20
132.753233084634
 30
0.0
 10
109.4769549768178
 20
132.5580760678023
 30
0.0
 10
109.486126724088
 20
132.3630186446303
 30
0.0
 10
109.4980227642171
 20
132.1681179507357
 30
0.0
  0
SPLINE
  5
201
330
70
100
AcDbEntity
  8
0
 62
    18
420
        0
370
    25
100
AcDbSpline
210
0.0
220
0.0
230
1.0
 70
     8
 71
     3
 72
     8
 73
     4
 74
     0
 42
0.0000000001
 43
0.0000000001
 40
0.0
 40
0.0
 40
0.0
 40
0.0
 40
1.0
 40
1.0
 40
1.0
 40
1.0
 10
110.3405916491317
 20
131.7160372296235
 30
0.0
 10
110.3419576339443
 20
131.6922677879189
 30
0.0
 10
110.3433655843866
 20
131.6685007764851
 30
0.0
 10
110.3448154938748
 20
131.6447363064529
 30
0.0
  0
SPLINE
  5
202
330
70
100
AcDbEntity
  8
0
 62
    18
420
        0
370
    25
100
AcDbSpline
210
0.0
220
0.0
230
1.0
 70
     8
 71
     3
 72
     8
 73
     4
 74
     0
 42
0.0000000001
 43
0.0000000001
 40
0.0
 40
0.0
 40
0.0
 40
0.0
 40
1.0
 40
1.0
 40
1.0
 40
1.0
 10
109.4980227642582
 20
132.1681179507036
 30
0.0
 10
109.4996848020427
 20
132.1409319703517
 30
0.0
 10
109.5014020228678
 20
132.1137493917717
 30
0.0
 10
109.5031744161201
 20
132.0865703829692
 30
0.0
  0
SPLINE
  5
203
330
70
100
AcDbEntity
  8
0
 62
    18
420
        0
370
    25
100
AcDbSpline
210
0.0
220
0.0
230
1.0
 70
     8
 71
     3
 72
     8
 73
     4
 74
     0
 42
0.0000000001
 43
0.0000000001
 40
0.0
 40
0.0
 40
0.0
 40
0.0
 40
1.0
 40
1.0
 40
1.0
 40
1.0
 10
109.0663630812581
 20
132.3838999012292
 30
0.0
 10
109.0678506915756
 20
132.3605714275575
 30
0.0
 10
109.069379089851
 20
132.3372455727565
 30
0.0
 10
109.0709482690745
 20
132.3139224437884
 30
0.0
  0
SPLINE
  5
204
330
70
100
AcDbEntity
  8
0
 62
    18
420
        0
370
    25
100
AcDbSpline
210
0.0
220
0.0
230
1.0
 70
     8
 71
     3
 72
    11
 73
     7
 74
     0
 42
0.0000000001
 43
0.0000000001
 40
0.0
 40
0.0
 40
0.0
 40
0.0
 40
1.0
 40
1.0
 40
1.0
 40
2.0
 40
2.0
 40
2.0
 40
2.0
 10
112.0914012698905
 20
131.4161547972145
 30
0.0
 10
112.0944415509908
 20
131.4187503420147
 30
0.0
 10
112.0972374676418
 20
131.4216390507981
 30
0.0
 10
112.0997469195039
 20
131.4247670900892
 30
0.0
 10
112.10790059187
 20
131.4349306672085
 30
0.0
 10
112.1130299979904
 20
131.4476209045148
 30
0.0
 10
112.1156399581906
 20
131.4603446571146
 30
0.0
  0
SPLINE
  5
205
330
70
100
AcDbEntity
  8
0
 62
    18
420
        0
370
    25
100
AcDbSpline
210
0.0
220
0.0
230
1.0
 70
     8
 71
     3
 72
    17
 73
    13
 74
     0
 42
0.0000000001
 43
0.0000000001
 40
0.0
 40
0.0
 40
0.0
 40
0.0
 40
1.0
 40
1.0
 40
1.0
 40
2.0
 40
2.0
 40
2.0
 40
3.0
 40
3.0
 40
3.0
 40
4.0
 40
4.0
 40
4.0
 40
4.0
 10
112.1156399581906
 20
131.4603446571146
 30
0.0
 10
112.1198443849905
 20
131.4808415541143
 30
0.0
 10
112.1183001634012
 20
131.5024256924854
 30
0.0
 10
112.1138216460728
 20
131.523089327386
 30
0.0
 10
112.108507478673
 20
131.5476086061779
 30
0.0
 10
112.0990618296353
 20
131.5708318182055
 30
0.0
 10
112.0869370716411
 20
131.5925516338978
 30
0.0
 10
112.0742348248461
 20
131.6153059403685
 30
0.0
 10
112.0585921855167
 20
131.6364102298256
 30
0.0
 10
112.0402570112326
 20
131.6550801872609
 30
0.0
 10
112.0233475920211
 20
131.6722983566688
 30
0.0
 10
112.0041481033904
 20
131.6874460648147
 30
0.0
 10
111.9828384509904
 20
131.6984602397146
 30
0.0
  0
SPLINE
  5
206
330
70
100
AcDbEntity
  8
0
 62
    18
420
        0
370
    25
100
AcDbSpline
210
0.0
220
0.0
230
1.0
 70
     8
 71
     3
 72
    11
 73
     7
 74
     0
 42
0.0000000001
 43
0.0000000001
 40
0.0
 40
0.0
 40
0.0
 40
0.0
 40
1.0
 40
1.0
 40
1.0
 40
2.0
 40
2.0
 40
2.0
 40
2.0
 10
112.2636467547906
 20
131.1720529381143
 30
0.0
 10
112.2572861124908
 20
131.1681402655143
 30
0.0
 10
112.2506426352914
 20
131.1646852096567
 30
0.0
 10
112.2437679485847
 20
131.1617217202608
 30
0.0
 10
112.2221701109691
 20
131.1524114832307
 30
0.0
 10
112.1982902482907
 20
131.1479529800148
 30
0.0
 10
112.1748333639907
 20
131.1475175604147
 30
0.0
  0
SPLINE
  5
207
330
70
100
AcDbEntity
  8
0
 62
    18
420
        0
370
    25
100
AcDbSpline
210
0.0
220
0.0
230
1.0
 70
     8
 71
     3
 72
    17
 73
    13
 74
     0
 42
0.0000000001
 43
0.0000000001
 40
0.0
 40
0.0
 40
0.0
 40
0.0
 40
1.0
 40
1.0
 40
1.0
 40
2.0
 40
2.0
 40
2.0
 40
3.0
 40
3.0
 40
3.0
 40
4.0
 40
4.0
 40
4.0
 40
4.0
 10
84.44331036129071
 20
176.6069495621147
 30
0.0
 10
84.49704395949055
 20
176.6451584832146
 30
0.0
 10
84.55802435625413
 20
176.6740649992261
 30
0.0
 10
84.62172788262357
 20
176.6923438189282
 30
0.0
 10
84.6889603734297
 20
176.7116352247202
 30
0.0
 10
84.7592260552904
 20
176.7190888416269
 30
0.0
 10
84.82900276491413
 20
176.7171827116961
 30
0.0
 10
84.90579575767169
 20
176.7150849139816
 30
0.0
 10
84.98199649859342
 20
176.70165042509
 30
0.0
 10
85.05577895639733
 20
176.6803419434759
 30
0.0
 10
85.13772072324913
 20
176.6566770414881
 30
0.0
 10
85.21667977649073
 20
176.6233003464144
 30
0.0
 10
85.29183762629065
 20
176.5834863665146
 30
0.0
  0
LINE
  5
208
330
70
100
AcDbEntity
  8
0
 62
    18
420
        0
370
    25
100
AcDbLine
 10
108.4345524769903
 20
133.7479642407146
 30
0.0
 11
108.4369748579905
 21
133.7553852425149
 31
0.0
  0
LINE
  5
209
330
70
100
AcDbEntity
  8
0
 62
    18
420
        0
370
    25
100
AcDbLine
 10
108.3542609539905
 20
132.6799972743144
 30
0.0
 11
108.3184782764903
 21
132.6988699361144
 31
0.0
  0
LINE
  5
20A
330
70
100
AcDbEntity
  8
0
 62
    18
420
        0
370
    25
100
AcDbLine
 10
108.3184782764903
 20
132.6988699361144
 30
0.0
 11
108.1384337585906
 21
132.7938584440145
 31
0.0
  0
SPLINE
  5
20B
330
70
100
AcDbEntity
  8
0
 62
    18
420
        0
370
    25
100
AcDbSpline
210
0.0
220
0.0
230
1.0
 70
     8
 71
     3
 72
    11
 73
     7
 74
     0
 42
0.0000000001
 43
0.0000000001
 40
0.0
 40
0.0
 40
0.0
 40
0.0
 40
1.0
 40
1.0
 40
1.0
 40
2.0
 40
2.0
 40
2.0
 40
2.0
 10
108.8448297962904
 20
132.4214441247147
 30
0.0
 10
108.8389197659907
 20
132.5080714682144
 30
0.0
 10
108.8335679727884
 20
132.5947367093705
 30
0.0
 10
108.8287853609115
 20
132.6814356667725
 30
0.0
 10
108.8142011167963
 20
132.9458181405778
 30
0.0
 10
108.8049097059904
 20
133.2105141427148
 30
0.0
 10
108.7999086658906
 20
133.4752450586147
 30
0.0
  0
LINE
  5
20C
330
70
100
AcDbEntity
  8
0
 62
    18
420
        0
370
    25
100
AcDbLine
 10
108.7985883728904
 20
133.5519167286146
 30
0.0
 11
108.7982154364909
 21
133.5665655190146
 31
0.0
  0
LINE
  5
20D
330
70
100
AcDbEntity
  8
0
 62
    18
420
        0
370
    25
100
AcDbLine
 10
109.0608506260906
 20
132.3077109960147
 30
0.0
 11
108.9891833994909
 21
132.3454351767144
 31
0.0
  0
LINE
  5
20E
330
70
100
AcDbEntity
  8
0
 62
    18
420
        0
370
    25
100
AcDbLine
 10
108.9891833994909
 20
132.3454351767144
 30
0.0
 11
108.8448297962904
 21
132.4214441247147
 31
0.0
  0
SPLINE
  5
20F
330
70
100
AcDbEntity
  8
0
 62
    18
420
        0
370
    25
100
AcDbSpline
210
0.0
220
0.0
230
1.0
 70
     8
 71
     3
 72
    11
 73
     7
 74
     0
 42
0.0000000001
 43
0.0000000001
 40
0.0
 40
0.0
 40
0.0
 40
0.0
 40
1.0
 40
1.0
 40
1.0
 40
2.0
 40
2.0
 40
2.0
 40
2.0
 10
109.2769297542903
 20
132.1940172735144
 30
0.0
 10
109.2708147638909
 20
132.2863958915144
 30
0.0
 10
109.2653369234962
 20
132.37881652883
 30
0.0
 10
109.2604896013842
 20
132.4712726449436
 30
0.0
 10
109.2456994419869
 20
132.7533749404127
 30
0.0
 10
109.2367793032904
 20
133.0358075376148
 30
0.0
 10
109.2324686559907
 20
133.3182573383145
 30
0.0
  0
LINE
  5
210
330
70
100
AcDbEntity
  8
0
 62
    18
420
        0
370
    25
100
AcDbLine
 10
109.2324686559907
 20
133.3182573383145
 30
0.0
 11
109.2318947165909
 21
133.3401103125144
 31
0.0
  0
LINE
  5
211
330
70
100
AcDbEntity
  8
0
 62
    18
420
        0
370
    25
100
AcDbLine
 10
109.4930792135903
 20
132.0803604365146
 30
0.0
 11
109.4213938199908
 21
132.1180461623149
 31
0.0
  0
LINE
  5
212
330
70
100
AcDbEntity
  8
0
 62
    18
420
        0
370
    25
100
AcDbLine
 10
109.4213938199908
 20
132.1180461623149
 30
0.0
 11
109.2769297542903
 21
132.1940172735144
 31
0.0
  0
LINE
  5
213
330
70
100
AcDbEntity
  8
0
 62
    18
420
        0
370
    25
100
AcDbLine
 10
109.9137689127909
 20
131.8593706161145
 30
0.0
 11
109.8779659780905
 21
131.8781664780143
 31
0.0
  0
LINE
  5
214
330
70
100
AcDbEntity
  8
0
 62
    18
420
        0
370
    25
100
AcDbLine
 10
109.8779659780905
 20
131.8781664780143
 30
0.0
 11
109.6974957145907
 21
131.9729421460143
 31
0.0
  0
LINE
  5
215
330
70
100
AcDbEntity
  8
0
 62
    18
420
        0
370
    25
100
AcDbLine
 10
110.3347250721908
 20
131.6385293008146
 30
0.0
 11
110.2629990599906
 21
131.6761362620145
 31
0.0
  0
LINE
  5
216
330
70
100
AcDbEntity
  8
0
 62
    18
420
        0
370
    25
100
AcDbLine
 10
110.2629990599906
 20
131.6761362620145
 30
0.0
 11
110.1183124968906
 21
131.7520242851144
 31
0.0
  0
LINE
  5
217
330
70
100
AcDbEntity
  8
0
 62
    18
420
        0
370
    25
100
AcDbLine
 10
109.9567755937904
 20
132.9279566676147
 30
0.0
 11
109.9637792150907
 21
132.9528016422146
 31
0.0
  0
LINE
  5
218
330
70
100
AcDbEntity
  8
0
 62
    18
420
        0
370
    25
100
AcDbLine
 10
111.0945689789905
 20
131.4583961917147
 30
0.0
 11
110.7574009286906
 21
131.6343705850145
 31
0.0
  0
LINE
  5
219
330
70
100
AcDbEntity
  8
0
 62
    18
420
        0
370
    25
100
AcDbLine
 10
110.7574009286906
 20
131.6343705850145
 30
0.0
 11
110.7520268375909
 21
131.6371771433143
 31
0.0
  0
LINE
  5
21A
330
70
100
AcDbEntity
  8
0
 62
    18
420
        0
370
    25
100
AcDbLine
 10
111.3913107898905
 20
131.0856201045144
 30
0.0
 11
111.3195076561904
 21
131.1231289877145
 31
0.0
  0
LINE
  5
21B
330
70
100
AcDbEntity
  8
0
 62
    18
420
        0
370
    25
100
AcDbLine
 10
111.3195076561904
 20
131.1231289877145
 30
0.0
 11
111.1745291546908
 21
131.1988942800143
 31
0.0
  0
SPLINE
  5
21C
330
70
100
AcDbEntity
  8
0
 62
    18
420
        0
370
    25
100
AcDbSpline
210
0.0
220
0.0
230
1.0
 70
     8
 71
     3
 72
    11
 73
     7
 74
     0
 42
0.0000000001
 43
0.0000000001
 40
0.0
 40
0.0
 40
0.0
 40
0.0
 40
1.0
 40
1.0
 40
1.0
 40
2.0
 40
2.0
 40
2.0
 40
2.0
 10
110.4790386900903
 20
131.5628906946148
 30
0.0
 10
110.5013968403908
 20
131.6388960542148
 30
0.0
 10
110.5242311818078
 20
131.7147615235095
 30
0.0
 10
110.5474940795154
 20
131.7904959974186
 30
0.0
 10
110.6191288675004
 20
132.0237095484458
 30
0.0
 10
110.6948274169906
 20
132.2556809429145
 30
0.0
 10
110.7730145392907
 20
132.4867767070143
 30
0.0
  0
LINE
  5
21D
330
70
100
AcDbEntity
  8
0
 62
    18
420
        0
370
    25
100
AcDbLine
 10
110.6955707656908
 20
131.4494724575143
 30
0.0
 11
110.6597485467908
 21
131.4682301402143
 31
0.0
  0
LINE
  5
21E
330
70
100
AcDbEntity
  8
0
 62
    18
420
        0
370
    25
100
AcDbLine
 10
110.6597485467908
 20
131.4682301402143
 30
0.0
 11
110.4790386900903
 21
131.5628906946148
 31
0.0
  0
LINE
  5
21F
330
70
100
AcDbEntity
  8
0
 62
    18
420
        0
370
    25
100
AcDbLine
 10
111.9828385053904
 20
131.6984610826145
 30
0.0
 11
111.7232536835907
 21
131.8327068514145
 31
0.0
  0
LINE
  5
220
330
70
100
AcDbEntity
  8
0
 62
    18
420
        0
370
    25
100
AcDbLine
 10
111.7232536835907
 20
131.8327068514145
 30
0.0
 11
111.7178480634903
 21
131.8355039899144
 31
0.0
  0
SPLINE
  5
221
330
70
100
AcDbEntity
  8
0
 62
    18
420
        0
370
    25
100
AcDbSpline
210
0.0
220
0.0
230
1.0
 70
     8
 71
     3
 72
    11
 73
     7
 74
     0
 42
0.0000000001
 43
0.0000000001
 40
0.0
 40
0.0
 40
0.0
 40
0.0
 40
1.0
 40
1.0
 40
1.0
 40
2.0
 40
2.0
 40
2.0
 40
2.0
 10
111.5358739167906
 20
131.0101386439147
 30
0.0
 10
111.5309332265905
 20
131.1004737222145
 30
0.0
 10
111.5265917008029
 20
131.1908416547966
 30
0.0
 10
111.5227691957324
 20
131.2812323497271
 30
0.0
 10
111.511140848133
 20
131.5562076345188
 30
0.0
 10
111.5043156329904
 20
131.8313935671147
 30
0.0
 10
111.5006155792906
 20
132.1065854977146
 30
0.0
  0
LINE
  5
222
330
70
100
AcDbEntity
  8
0
 62
    18
420
        0
370
    25
100
AcDbLine
 10
111.7527933996904
 20
130.8969525017149
 30
0.0
 11
111.7169376210908
 21
130.9156549341147
 31
0.0
  0
LINE
  5
223
330
70
100
AcDbEntity
  8
0
 62
    18
420
        0
370
    25
100
AcDbLine
 10
111.7169376210908
 20
130.9156549341147
 30
0.0
 11
111.5358739167906
 21
131.0101386439147
 31
0.0
  0
LINE
  5
224
330
70
100
AcDbEntity
  8
0
 62
    18
420
        0
370
    25
100
AcDbLine
 10
111.9233410304909
 20
131.2404452106147
 30
0.0
 11
111.7389502406904
 21
131.3361451977149
 31
0.0
  0
LINE
  5
225
330
70
100
AcDbEntity
  8
0
 62
    18
420
        0
370
    25
100
AcDbLine
 10
111.7389502406904
 20
131.3361451977149
 30
0.0
 11
111.7335545524908
 21
131.3389466802144
 31
0.0
  0
LINE
  5
226
330
70
100
AcDbEntity
  8
0
 62
    18
420
        0
370
    25
100
AcDbLine
 10
112.4043749670905
 20
130.5575762701143
 30
0.0
 11
112.3233578329907
 21
130.5997212034145
 31
0.0
  0
LINE
  5
227
330
70
100
AcDbEntity
  8
0
 62
    18
420
        0
370
    25
100
AcDbLine
 10
112.3233578329907
 20
130.5997212034145
 30
0.0
 11
112.1597528002907
 21
130.6848747052148
 31
0.0
  0
SPLINE
  5
228
330
70
100
AcDbEntity
  8
0
 62
    18
420
        0
370
    25
100
AcDbSpline
210
0.0
220
0.0
230
1.0
 70
     8
 71
     3
 72
    17
 73
    13
 74
     0
 42
0.0000000001
 43
0.0000000001
 40
0.0
 40
0.0
 40
0.0
 40
0.0
 40
1.0
 40
1.0
 40
1.0
 40
2.0
 40
2.0
 40
2.0
 40
3.0
 40
3.0
 40
3.0
 40
4.0
 40
4.0
 40
4.0
 40
4.0
 10
128.7133321500903
 20
152.3350411325144
 30
0.0
 10
128.7172355790907
 20
152.5088548936144
 30
0.0
 10
128.6885571775094
 20
152.6836002362749
 30
0.0
 10
128.6394188181122
 20
152.8513501116153
 30
0.0
 10
128.5851711714599
 20
153.0365422115349
 30
0.0
 10
128.5059876140934
 20
153.2132084703912
 30
0.0
 10
128.4076193855322
 20
153.3784364343403
 30
0.0
 10
128.3086912242332
 20
153.5446049107649
 30
0.0
 10
128.1903593637294
 20
153.6992045032849
 30
0.0
 10
128.0530957721141
 20
153.8363111279379
 30
0.0
 10
127.9274064136836
 20
153.9618567550519
 30
0.0
 10
127.7858434114906
 20
154.0727350948146
 30
0.0
 10
127.6296549424906
 20
154.1554763463147
 30
0.0
  0
SPLINE
  5
229
330
70
100
AcDbEntity
  8
0
 62
    18
420
        0
370
    25
100
AcDbSpline
210
0.0
220
0.0
230
1.0
 70
     8
 71
     3
 72
    17
 73
    13
 74
     0
 42
0.0000000001
 43
0.0000000001
 40
0.0
 40
0.0
 40
0.0
 40
0.0
 40
1.0
 40
1.0
 40
1.0
 40
2.0
 40
2.0
 40
2.0
 40
3.0
 40
3.0
 40
3.0
 40
4.0
 40
4.0
 40
4.0
 40
4.0
 10
127.9593780398905
 20
121.9176639440143
 30
0.0
 10
127.9574327224909
 20
121.8391851440145
 30
0.0
 10
127.9486803273327
 20
121.7605673518679
 30
0.0
 10
127.9309662212297
 20
121.6838753100046
 30
0.0
 10
127.9149263205299
 20
121.6144316288574
 30
0.0
 10
127.8915386456735
 20
121.5465668848404
 30
0.0
 10
127.8590441575393
 20
121.4831195883548
 30
0.0
 10
127.8292734246011
 20
121.4249905754726
 30
0.0
 10
127.7918585964928
 20
121.3705694885474
 30
0.0
 10
127.7464932587896
 20
121.3234207107576
 30
0.0
 10
127.7032402386494
 20
121.2784672917248
 30
0.0
 10
127.6527598608906
 20
121.2401247167147
 30
0.0
 10
127.5978233781909
 20
121.2111854412148
 30
0.0
  0
SPLINE
  5
22A
330
70
100
AcDbEntity
  8
0
 62
    18
420
        0
370
    25
100
AcDbSpline
210
0.0
220
0.0
230
1.0
 70
     8
 71
     3
 72
    11
 73
     7
 74
     0
 42
0.0000000001
 43
0.0000000001
 40
0.0
 40
0.0
 40
0.0
 40
0.0
 40
1.0
 40
1.0
 40
1.0
 40
2.0
 40
2.0
 40
2.0
 40
2.0
 10
95.7723012755906
 20
142.9375240475143
 30
0.0
 10
95.73986429269076
 20
142.9547071939145
 30
0.0
 10
95.71369231139597
 20
142.9829385142709
 30
0.0
 10
95.69441414124762
 20
143.0153723597629
 30
0.0
 10
95.67536254286123
 20
143.0474250179604
 30
0.0
 10
95.66304366519073
 20
143.0835819992149
 30
0.0
 10
95.66394255329047
 20
143.1198466475146
 30
0.0
  0
SPLINE
  5
22B
330
70
100
AcDbEntity
  8
0
 62
    18
420
        0
370
    25
100
AcDbSpline
210
0.0
220
0.0
230
1.0
 70
     8
 71
     3
 72
    23
 73
    19
 74
     0
 42
0.0000000001
 43
0.0000000001
 40
0.0
 40
0.0
 40
0.0
 40
0.0
 40
1.0
 40
1.0
 40
1.0
 40
2.0
 40
2.0
 40
2.0
 40
3.0
 40
3.0
 40
3.0
 40
4.0
 40
4.0
 40
4.0
 40
5.0
 40
5.0
 40
5.0
 40
6.0
 40
6.0
 40
6.0
 40
6.0
 10
112.3060380892909
 20
131.2047866221142
 30
0.0
 10
112.3231440086909
 20
131.2231653818144
 30
0.0
 10
112.3358541889786
 20
131.2457807396738
 30
0.0
 10
112.3444463810654
 20
131.2695811025687
 30
0.0
 10
112.3543384047372
 20
131.2969819975646
 30
0.0
 10
112.3587722536489
 20
131.3259535538302
 30
0.0
 10
112.3597545187473
 20
131.3549369025561
 30
0.0
 10
112.3608878988789
 20
131.3883791490928
 30
0.0
 10
112.3574259968036
 20
131.4218370955768
 30
0.0
 10
112.3508455479852
 20
131.4545980934515
 30
0.0
 10
112.3435153340126
 20
131.4910918237394
 30
0.0
 10
112.3323154446902
 20
131.5267207393961
 30
0.0
 10
112.3183305457761
 20
131.5612090977299
 30
0.0
 10
112.2884557179861
 20
131.6348838359112
 30
0.0
 10
112.2458716714918
 20
131.7033537114245
 30
0.0
 10
112.1933238732832
 20
131.7638553983484
 30
0.0
 10
112.1441072925993
 20
131.8205216385617
 30
0.0
 10
112.0861502028908
 20
131.8701979390148
 30
0.0
 10
112.0201003030908
 20
131.9043037027144
 30
0.0
  0
LINE
  5
22C
330
70
100
AcDbEntity
  8
0
 62
    18
420
        0
370
    25
100
AcDbLine
 10
112.4144541152909
 20
130.5637763410145
 30
0.0
 11
112.3863145096908
 21
130.6289001432147
 31
0.0
  0
LINE
  5
22D
330
70
100
AcDbEntity
  8
0
 62
    18
420
        0
370
    25
100
AcDbLine
 10
112.1724115706905
 20
131.1340352354146
 30
0.0
 11
112.1667068012907
 21
131.1477407749148
 31
0.0
  0
LINE
  5
22E
330
70
100
AcDbEntity
  8
0
 62
    18
420
        0
370
    25
100
AcDbLine
 10
109.5700290608906
 20
133.1752887451147
 30
0.0
 11
109.3150822929906
 21
133.3082807158147
 31
0.0
  0
LINE
  5
22F
330
70
100
AcDbEntity
  8
0
 62
    18
420
        0
370
    25
100
AcDbLine
 10
109.3150822929906
 20
133.3082807158147
 30
0.0
 11
109.2460596319904
 21
133.3443000856143
 31
0.0
  0
LINE
  5
230
330
70
100
AcDbEntity
  8
0
 62
    18
420
        0
370
    25
100
AcDbLine
 10
109.2460596319904
 20
133.3443000856143
 30
0.0
 11
109.2420811963904
 21
133.3463764072146
 31
0.0
  0
LINE
  5
231
330
70
100
AcDbEntity
  8
0
 62
    18
420
        0
370
    25
100
AcDbLine
 10
112.0201003115907
 20
131.9043029442146
 30
0.0
 11
111.7593144064906
 21
132.0390424881144
 31
0.0
  0
SPLINE
  5
232
330
70
100
AcDbEntity
  8
0
 62
   250
420
  3355443
370
    25
100
AcDbSpline
210
0.0
220
0.0
230
1.0
 70
     8
 71
     3
 72
    23
 73
    19
 74
     0
 42
0.0000000001
 43
0.0000000001
 40
0.0
 40
0.0
 40
0.0
 40
0.0
 40
1.0
 40
1.0
 40
1.0
 40
2.0
 40
2.0
 40
2.0
 40
3.0
 40
3.0
 40
3.0
 40
4.0
 40
4.0
 40
4.0
 40
5.0
 40
5.0
 40
5.0
 40
6.0
 40
6.0
 40
6.0
 40
6.0
 10
111.7595015321903
 20
132.0389460612145
 30
0.0
 10
111.8299676776908
 20
132.0246732385143
 30
0.0
 10
111.9020886695265
 20
132.0173339747295
 30
0.0
 10
111.9741807693501
 20
132.0180763405406
 30
0.0
 10
112.0409032550567
 20
132.0187634129435
 30
0.0
 10
112.1076009923776
 20
132.0263730660176
 30
0.0
 10
112.1722942664787
 20
132.0426034626383
 30
0.0
 10
112.2337204758488
 20
132.0580142105839
 30
0.0
 10
112.293339564102
 20
132.0811969782654
 30
0.0
 10
112.3486292341278
 20
132.1121245210883
 30
0.0
 10
112.4033774004514
 20
132.1427491614169
 30
0.0
 10
112.4538805373878
 20
132.180967616052
 30
0.0
 10
112.4984989664447
 20
132.2251111143632
 30
0.0
 10
112.5934682294557
 20
132.3190694985999
 30
0.0
 10
112.6617773482865
 20
132.4398707647476
 30
0.0
 10
112.7047703376154
 20
132.567228756903
 30
0.0
 10
112.7552671151456
 20
132.7168151963891
 30
0.0
 10
112.7708394606908
 20
132.8754468547146
 30
0.0
 10
112.7702623709909
 20
133.0318508557148
 30
0.0
  0
LINE
  5
233
330
70
100
AcDbEntity
  8
0
 62
   250
420
  3355443
370
    25
100
AcDbLine
 10
107.7511971153907
 20
134.1269865700144
 30
0.0
 11
107.7469332589908
 21
134.1292769693144
 31
0.0
  0
SPLINE
  5
234
330
70
100
AcDbEntity
  8
0
 62
   250
420
  3355443
370
    25
100
AcDbSpline
210
0.0
220
0.0
230
1.0
 70
     8
 71
     3
 72
    11
 73
     7
 74
     0
 42
0.0000000001
 43
0.0000000001
 40
0.0
 40
0.0
 40
0.0
 40
0.0
 40
1.0
 40
1.0
 40
1.0
 40
2.0
 40
2.0
 40
2.0
 40
2.0
 10
107.7469332589908
 20
134.1292769693144
 30
0.0
 10
107.3557565862909
 20
134.3394037492149
 30
0.0
 10
106.9645626171305
 20
134.5494982415918
 30
0.0
 10
106.5733701259659
 20
134.7595956576015
 30
0.0
 10
105.4034502992928
 20
135.3879234963884
 30
0.0
 10
104.2335436917905
 20
136.0162774841148
 30
0.0
 10
103.0627009596907
 20
136.6428836158143
 30
0.0
  0
SPLINE
  5
235
330
70
100
AcDbEntity
  8
0
 62
    18
420
        0
370
    25
100
AcDbSpline
210
0.0
220
0.0
230
1.0
 70
     8
 71
     3
 72
    11
 73
     7
 74
     0
 42
0.0000000001
 43
0.0000000001
 40
0.0
 40
0.0
 40
0.0
 40
0.0
 40
1.0
 40
1.0
 40
1.0
 40
2.0
 40
2.0
 40
2.0
 40
2.0
 10
108.3905023749905
 20
132.7775094169146
 30
0.0
 10
108.4109511353905
 20
132.8482552379146
 30
0.0
 10
108.4318120417429
 20
132.918881903491
 30
0.0
 10
108.4530825062204
 20
132.9893863484919
 30
0.0
 10
108.5186704350452
 20
133.2067883015756
 30
0.0
 10
108.5881524847909
 20
133.4230281688143
 30
0.0
 10
108.6605331522903
 20
133.6382597930146
 30
0.0
  0
LINE
  5
236
330
70
100
AcDbEntity
  8
0
 62
   250
420
  3355443
370
    25
100
AcDbLine
 10
108.7982714897907
 20
133.5641127218149
 30
0.0
 11
108.7591132907905
 21
133.5851764427148
 31
0.0
  0
LINE
  5
237
330
70
100
AcDbEntity
  8
0
 62
   250
420
  3355443
370
    25
100
AcDbLine
 10
108.7591132907905
 20
133.5851764427148
 30
0.0
 11
108.6605170511906
 21
133.6382059193148
 31
0.0
  0
LINE
  5
238
330
70
100
AcDbEntity
  8
0
 62
    18
420
        0
370
    25
100
AcDbLine
 10
109.0252188617907
 20
133.4595853730143
 30
0.0
 11
108.8807376318903
 21
133.5350415340146
 31
0.0
  0
LINE
  5
239
330
70
100
AcDbEntity
  8
0
 62
    18
420
        0
370
    25
100
AcDbLine
 10
108.8807376318903
 20
133.5350415340146
 30
0.0
 11
108.8083996020907
 21
133.5728301901144
 31
0.0
  0
SPLINE
  5
23A
330
70
100
AcDbEntity
  8
0
 62
    18
420
        0
370
    25
100
AcDbSpline
210
0.0
220
0.0
230
1.0
 70
     8
 71
     3
 72
    11
 73
     7
 74
     0
 42
0.0000000001
 43
0.0000000001
 40
0.0
 40
0.0
 40
0.0
 40
0.0
 40
1.0
 40
1.0
 40
1.0
 40
2.0
 40
2.0
 40
2.0
 40
2.0
 10
109.0663630812908
 20
132.3838999012145
 30
0.0
 10
109.0608154856906
 20
132.4708946774144
 30
0.0
 10
109.0558300147181
 20
132.557925171371
 30
0.0
 10
109.0514088673656
 20
132.6449864264781
 30
0.0
 10
109.037930426102
 20
132.9104039571782
 30
0.0
 10
109.0296968893904
 20
133.1761073864148
 30
0.0
 10
109.0256058445908
 20
133.4418294609144
 30
0.0
  0
LINE
  5
23B
330
70
100
AcDbEntity
  8
0
 62
   250
420
  3355443
370
    25
100
AcDbLine
 10
109.2321583122907
 20
133.3306118172148
 30
0.0
 11
109.2062465517906
 21
133.3445631844144
 31
0.0
  0
LINE
  5
23C
330
70
100
AcDbEntity
  8
0
 62
   250
420
  3355443
370
    25
100
AcDbLine
 10
109.2062465517906
 20
133.3445631844144
 30
0.0
 11
109.0256068990903
 21
133.4417998230144
 31
0.0
  0
LINE
  5
23D
330
70
100
AcDbEntity
  8
0
 62
    18
420
        0
370
    25
100
AcDbLine
 10
108.6638830105908
 20
133.6483435143146
 30
0.0
 11
108.4471460533903
 21
133.7616419351145
 31
0.0
  0
LINE
  5
23E
330
70
100
AcDbEntity
  8
0
 62
    18
420
        0
370
    25
100
AcDbLine
 10
109.4705102089906
 20
132.7532330846147
 30
0.0
 11
109.4693570629905
 21
132.7885509672146
 31
0.0
  0
LINE
  5
23F
330
70
100
AcDbEntity
  8
0
 62
    18
420
        0
370
    25
100
AcDbLine
 10
110.0740627961904
 20
132.4369471886148
 30
0.0
 11
110.0856620711907
 21
132.4785513271144
 31
0.0
  0
SPLINE
  5
240
330
70
100
AcDbEntity
  8
0
 62
    18
420
        0
370
    25
100
AcDbSpline
210
0.0
220
0.0
230
1.0
 70
     8
 71
     3
 72
    11
 73
     7
 74
     0
 42
0.0000000001
 43
0.0000000001
 40
0.0
 40
0.0
 40
0.0
 40
0.0
 40
1.0
 40
1.0
 40
1.0
 40
2.0
 40
2.0
 40
2.0
 40
2.0
 10
110.3405916491907
 20
131.7160372296145
 30
0.0
 10
110.3356871942909
 20
131.8013692542148
 30
0.0
 10
110.3313119892765
 20
131.8867317461452
 30
0.0
 10
110.3274395211137
 20
131.9721182606592
 30
0.0
 10
110.3156538008965
 20
132.2319891048144
 30
0.0
 10
110.3085247699908
 20
132.4920824624148
 30
0.0
 10
110.3047166391905
 20
132.7521881905147
 30
0.0
  0
LINE
  5
241
330
70
100
AcDbEntity
  8
0
 62
   250
420
  3355443
370
    25
100
AcDbLine
 10
110.7707323499908
 20
132.5003203942148
 30
0.0
 11
110.3047163411906
 21
132.7521987046148
 31
0.0
  0
LINE
  5
242
330
70
100
AcDbEntity
  8
0
 62
    18
420
        0
370
    25
100
AcDbLine
 10
111.0143434678904
 20
132.4234416785144
 30
0.0
 11
110.7970270217908
 21
132.5363925624146
 31
0.0
  0
SPLINE
  5
243
330
70
100
AcDbEntity
  8
0
 62
    18
420
        0
370
    25
100
AcDbSpline
210
0.0
220
0.0
230
1.0
 70
     8
 71
     3
 72
     8
 73
     4
 74
     0
 42
0.0000000001
 43
0.0000000001
 40
0.0
 40
0.0
 40
0.0
 40
0.0
 40
1.0
 40
1.0
 40
1.0
 40
1.0
 10
111.7593144064906
 20
132.0390424881144
 30
0.0
 10
111.6819915850904
 20
132.0790166927148
 30
0.0
 10
111.6044135634909
 20
132.1184953872144
 30
0.0
 10
111.5269211054908
 20
132.1581397400147
 30
0.0
  0
LINE
  5
244
330
70
100
AcDbEntity
  8
0
 62
    18
420
        0
370
    25
100
AcDbLine
 10
111.5269211054908
 20
132.1581397400147
 30
0.0
 11
111.5089187835908
 21
132.1673529213145
 31
0.0
  0
SPLINE
  5
245
330
70
100
AcDbEntity
  8
0
 62
   250
420
  3355443
370
    25
100
AcDbSpline
210
0.0
220
0.0
230
1.0
 70
     8
 71
     3
 72
    11
 73
     7
 74
     0
 42
0.0000000001
 43
0.0000000001
 40
0.0
 40
0.0
 40
0.0
 40
0.0
 40
1.0
 40
1.0
 40
1.0
 40
2.0
 40
2.0
 40
2.0
 40
2.0
 10
111.5006375971905
 20
132.1065792202148
 30
0.0
 10
111.5215881695909
 20
132.0982837126146
 30
0.0
 10
111.5427215887904
 20
132.0904583224476
 30
0.0
 10
111.5640309026403
 20
132.0831065512375
 30
0.0
 10
111.6251256188405
 20
132.0620287080562
 30
0.0
 10
111.6876661775905
 20
132.0448439818147
 30
0.0
 10
111.7509752549906
 20
132.0319767259144
 30
0.0
  0
LINE
  5
246
330
70
100
AcDbEntity
  8
0
 62
   250
420
  3355443
370
    25
100
AcDbLine
 10
111.0235823578906
 20
132.3511053073143
 30
0.0
 11
110.7729842244905
 21
132.4867247815147
 31
0.0
  0
LINE
  5
247
330
70
100
AcDbEntity
  8
0
 62
   250
420
  3355443
370
    25
100
AcDbLine
 10
110.2946176259906
 20
132.7453051339143
 30
0.0
 11
109.9567112401905
 21
132.9276691507146
 31
0.0
  0
LINE
  5
248
330
70
100
AcDbEntity
  8
0
 62
   250
420
  3355443
370
    25
100
AcDbLine
 10
109.5680508894903
 20
133.1373731469148
 30
0.0
 11
109.2324159802904
 21
133.3181454275145
 31
0.0
  0
LINE
  5
249
330
70
100
AcDbEntity
  8
0
 62
   250
420
  3355443
370
    25
100
AcDbLine
 10
109.0154447108908
 20
133.4351289805145
 30
0.0
 11
108.7985365954905
 21
133.5518321140144
 31
0.0
  0
LINE
  5
24A
330
70
100
AcDbEntity
  8
0
 62
   250
420
  3355443
370
    25
100
AcDbLine
 10
108.6502700250905
 20
133.6317524434148
 30
0.0
 11
108.4384806738905
 21
133.7456325777143
 31
0.0
  0
LINE
  5
24B
330
70
100
AcDbEntity
  8
0
 62
   250
420
  3355443
370
    25
100
AcDbLine
 10
108.4384806738905
 20
133.7456325777143
 30
0.0
 11
108.4345234881907
 21
133.7477600467143
 31
0.0
  0
LINE
  5
24C
330
70
100
AcDbEntity
  8
0
 62
    18
420
        0
370
    25
100
AcDbLine
 10
108.6537027621908
 20
133.6420812528145
 30
0.0
 11
108.6503051417906
 21
133.6316950249143
 31
0.0
  0
SPLINE
  5
24D
330
70
100
AcDbEntity
  8
0
 62
    18
420
        0
370
    25
100
AcDbSpline
210
0.0
220
0.0
230
1.0
 70
     8
 71
     3
 72
    11
 73
     7
 74
     0
 42
0.0000000001
 43
0.0000000001
 40
0.0
 40
0.0
 40
0.0
 40
0.0
 40
1.0
 40
1.0
 40
1.0
 40
2.0
 40
2.0
 40
2.0
 40
2.0
 10
108.6503051417906
 20
133.6316950249143
 30
0.0
 10
108.6232429003904
 20
133.5512253436143
 30
0.0
 10
108.5966022643012
 20
133.4706152591618
 30
0.0
 10
108.5704203715694
 20
133.3898520301399
 30
0.0
 10
108.4941412190322
 20
133.1545538899699
 30
0.0
 10
108.4217559183906
 20
132.9179558459145
 30
0.0
 10
108.3542609539905
 20
132.6799972743144
 30
0.0
  0
SPLINE
  5
24E
330
70
100
AcDbEntity
  8
0
 62
    18
420
        0
370
    25
100
AcDbSpline
210
0.0
220
0.0
230
1.0
 70
     8
 71
     3
 72
    11
 73
     7
 74
     0
 42
0.0000000001
 43
0.0000000001
 40
0.0
 40
0.0
 40
0.0
 40
0.0
 40
1.0
 40
1.0
 40
1.0
 40
2.0
 40
2.0
 40
2.0
 40
2.0
 10
111.3800085261903
 20
131.1606309908144
 30
0.0
 10
111.3494406902909
 20
131.2594017425144
 30
0.0
 10
111.3193842080395
 20
131.3583306744356
 30
0.0
 10
111.2897924597032
 20
131.4573994985249
 30
0.0
 10
111.2004499084554
 20
131.7565052286953
 30
0.0
 10
111.1153435899904
 20
132.0568861311149
 30
0.0
 10
111.0334228783907
 20
132.3581054068144
 30
0.0
  0
LINE
  5
24F
330
70
100
AcDbEntity
  8
0
 62
    18
420
        0
370
    25
100
AcDbLine
 10
108.4369748579905
 20
133.7553852425149
 30
0.0
 11
108.4731344305906
 21
133.7364769175144
 31
0.0
  0
LINE
  5
250
330
70
100
AcDbEntity
  8
0
 62
    18
420
        0
370
    25
100
AcDbLine
 10
108.4731344305906
 20
133.7364769175144
 30
0.0
 11
108.6537027621908
 21
133.6420812528145
 31
0.0
  0
LINE
  5
251
330
70
100
AcDbEntity
  8
0
 62
    18
420
        0
370
    25
100
AcDbLine
 10
107.7515078104909
 20
134.1256765248144
 30
0.0
 11
107.8242349203909
 21
134.0875896132146
 31
0.0
  0
LINE
  5
252
330
70
100
AcDbEntity
  8
0
 62
    18
420
        0
370
    25
100
AcDbLine
 10
107.8242349203909
 20
134.0875896132146
 30
0.0
 11
107.9684571611904
 21
134.0120804190145
 31
0.0
  0
LINE
  5
253
330
70
100
AcDbEntity
  8
0
 62
    18
420
        0
370
    25
100
AcDbLine
 10
107.7415672124907
 20
134.1194358401147
 30
0.0
 11
107.9581417483907
 21
134.0060375077144
 31
0.0
  0
LINE
  5
254
330
70
100
AcDbEntity
  8
0
 62
   250
420
  3355443
370
    25
100
AcDbLine
 10
111.3179454871908
 20
132.2039361850144
 30
0.0
 11
111.0334214223903
 21
132.3580912718144
 31
0.0
  0
LINE
  5
255
330
70
100
AcDbEntity
  8
0
 62
    18
420
        0
370
    25
100
AcDbLine
 10
108.7982154364909
 20
133.5665655190146
 30
0.0
 11
108.8705523816908
 21
133.5287759149148
 31
0.0
  0
LINE
  5
256
330
70
100
AcDbEntity
  8
0
 62
    18
420
        0
370
    25
100
AcDbLine
 10
108.8705523816908
 20
133.5287759149148
 30
0.0
 11
109.0150318861908
 21
133.4533189734146
 31
0.0
  0
LINE
  5
257
330
70
100
AcDbEntity
  8
0
 62
    18
420
        0
370
    25
100
AcDbLine
 10
109.0150318861908
 20
133.4533189734146
 30
0.0
 11
109.0155004331907
 21
133.4351135997143
 31
0.0
  0
SPLINE
  5
258
330
70
100
AcDbEntity
  8
0
 62
    18
420
        0
370
    25
100
AcDbSpline
210
0.0
220
0.0
230
1.0
 70
     8
 71
     3
 72
    11
 73
     7
 74
     0
 42
0.0000000001
 43
0.0000000001
 40
0.0
 40
0.0
 40
0.0
 40
0.0
 40
1.0
 40
1.0
 40
1.0
 40
2.0
 40
2.0
 40
2.0
 40
2.0
 10
109.0155004331907
 20
133.4351135997143
 30
0.0
 10
109.0169654905905
 20
133.3399226875145
 30
0.0
 10
109.0189888187564
 20
133.2447420402309
 30
0.0
 10
109.0215923825705
 20
133.1495720203118
 30
0.0
 10
109.0292750521231
 20
132.8687416406234
 30
0.0
 10
109.0420100580904
 20
132.5880037975146
 30
0.0
 10
109.0608506260906
 20
132.3077109960147
 30
0.0
  0
LINE
  5
259
330
70
100
AcDbEntity
  8
0
 62
    18
420
        0
370
    25
100
AcDbLine
 10
109.2318947165909
 20
133.3401103125144
 30
0.0
 11
109.3048968904909
 21
133.3020150088144
 31
0.0
  0
LINE
  5
25A
330
70
100
AcDbEntity
  8
0
 62
    18
420
        0
370
    25
100
AcDbLine
 10
109.3048968904909
 20
133.3020150088144
 30
0.0
 11
109.5598486554906
 21
133.1690263871147
 31
0.0
  0
LINE
  5
25B
330
70
100
AcDbEntity
  8
0
 62
    18
420
        0
370
    25
100
AcDbLine
 10
111.7628759647906
 20
130.9031546745143
 30
0.0
 11
111.7603557792903
 21
130.9512680065147
 31
0.0
  0
LINE
  5
25C
330
70
100
AcDbEntity
  8
0
 62
    18
420
        0
370
    25
100
AcDbLine
 10
111.9988886215904
 20
131.4226977440148
 30
0.0
 11
111.7341038177906
 21
131.5598637456148
 31
0.0
  0
SPLINE
  5
25D
330
70
100
AcDbEntity
  8
0
 62
    18
420
        0
370
    25
100
AcDbSpline
210
0.0
220
0.0
230
1.0
 70
     8
 71
     3
 72
    11
 73
     7
 74
     0
 42
0.0000000001
 43
0.0000000001
 40
0.0
 40
0.0
 40
0.0
 40
0.0
 40
1.0
 40
1.0
 40
1.0
 40
2.0
 40
2.0
 40
2.0
 40
2.0
 10
110.2946481630907
 20
132.7453303833148
 30
0.0
 10
110.2960146726905
 20
132.6520276531145
 30
0.0
 10
110.2978179450108
 20
132.5587329242068
 30
0.0
 10
110.3001102256114
 20
132.4654454655472
 30
0.0
 10
110.3068873779503
 20
132.1896400870219
 30
0.0
 10
110.3179389301906
 20
131.9138982574149
 30
0.0
 10
110.3347250721908
 20
131.6385293008146
 30
0.0
  0
LINE
  5
25E
330
70
100
AcDbEntity
  8
0
 62
    18
420
        0
370
    25
100
AcDbLine
 10
109.9651326065905
 20
132.9577955896143
 30
0.0
 11
110.0016796958906
 21
132.9387579872143
 31
0.0
  0
LINE
  5
25F
330
70
100
AcDbEntity
  8
0
 62
    18
420
        0
370
    25
100
AcDbLine
 10
110.0016796958906
 20
132.9387579872143
 30
0.0
 11
110.2933612564909
 21
132.7868806494147
 31
0.0
  0
LINE
  5
260
330
70
100
AcDbEntity
  8
0
 62
    18
420
        0
370
    25
100
AcDbLine
 10
109.5598486554906
 20
133.1690263871147
 30
0.0
 11
109.5680489588906
 21
133.1375327227145
 31
0.0
  0
LINE
  5
261
330
70
100
AcDbEntity
  8
0
 62
    18
420
        0
370
    25
100
AcDbLine
 10
111.0152985022904
 20
131.7238210568148
 30
0.0
 11
110.9245602794908
 21
131.7710729974147
 31
0.0
  0
LINE
  5
262
330
70
100
AcDbEntity
  8
0
 62
    18
420
        0
370
    25
100
AcDbLine
 10
110.9245602794908
 20
131.7710729974147
 30
0.0
 11
110.8189062304904
 21
131.8261120667148
 31
0.0
  0
LINE
  5
263
330
70
100
AcDbEntity
  8
0
 62
   250
420
  3355443
370
    25
100
AcDbLine
 10
109.9558353072905
 20
132.9405938585144
 30
0.0
 11
109.9017477200908
 21
132.9697713701145
 31
0.0
  0
LINE
  5
264
330
70
100
AcDbEntity
  8
0
 62
   250
420
  3355443
370
    25
100
AcDbLine
 10
109.9017477200908
 20
132.9697713701145
 30
0.0
 11
109.5780165151904
 21
133.1443130414146
 31
0.0
  0
SPLINE
  5
265
330
70
100
AcDbEntity
  8
0
 62
    18
420
        0
370
    25
100
AcDbSpline
210
0.0
220
0.0
230
1.0
 70
     8
 71
     3
 72
    11
 73
     7
 74
     0
 42
0.0000000001
 43
0.0000000001
 40
0.0
 40
0.0
 40
0.0
 40
0.0
 40
1.0
 40
1.0
 40
1.0
 40
2.0
 40
2.0
 40
2.0
 40
2.0
 10
111.0237826903905
 20
132.3504209941146
 30
0.0
 10
111.0527273138903
 20
132.2439940360144
 30
0.0
 10
111.0820670437234
 20
132.1376757848412
 30
0.0
 10
111.1118511109828
 20
132.0314784427646
 30
0.0
 10
111.2006311808074
 20
131.7149263962448
 30
0.0
 10
111.2933592388903
 20
131.3994486407144
 30
0.0
 10
111.3913107898905
 20
131.0856201045144
 30
0.0
  0
LINE
  5
266
330
70
100
AcDbEntity
  8
0
 62
    18
420
        0
370
    25
100
AcDbLine
 10
110.7868839875908
 20
132.5301531928148
 30
0.0
 11
110.7937176130906
 21
132.5266004758147
 31
0.0
  0
LINE
  5
267
330
70
100
AcDbEntity
  8
0
 62
    18
420
        0
370
    25
100
AcDbLine
 10
110.7937176130906
 20
132.5266004758147
 30
0.0
 11
111.0041993845907
 21
132.4172016635143
 31
0.0
  0
LINE
  5
268
330
70
100
AcDbEntity
  8
0
 62
   250
420
  3355443
370
    25
100
AcDbLine
 10
108.4394671686903
 20
133.7572143630147
 30
0.0
 11
108.3642457326904
 21
133.7976511913144
 31
0.0
  0
LINE
  5
269
330
70
100
AcDbEntity
  8
0
 62
   250
420
  3355443
370
    25
100
AcDbLine
 10
108.3642457326904
 20
133.7976511913144
 30
0.0
 11
107.9687243606906
 21
134.0102050225148
 31
0.0
  0
LINE
  5
26A
330
70
100
AcDbEntity
  8
0
 62
    18
420
        0
370
    25
100
AcDbLine
 10
110.8088385918906
 20
131.8199190758143
 30
0.0
 11
111.0192649881909
 21
131.7103220230145
 31
0.0
  0
LINE
  5
26B
330
70
100
AcDbEntity
  8
0
 62
    18
420
        0
370
    25
100
AcDbLine
 10
111.7240452600908
 20
131.5536763408148
 30
0.0
 11
111.9888306758906
 21
131.4165107156143
 31
0.0
  0
SPLINE
  5
26C
330
70
100
AcDbEntity
  8
0
 62
    18
420
        0
370
    25
100
AcDbSpline
210
0.0
220
0.0
230
1.0
 70
     8
 71
     3
 72
    11
 73
     7
 74
     0
 42
0.0000000001
 43
0.0000000001
 40
0.0
 40
0.0
 40
0.0
 40
0.0
 40
1.0
 40
1.0
 40
1.0
 40
2.0
 40
2.0
 40
2.0
 40
2.0
 10
111.9888306146905
 20
131.4165098685144
 30
0.0
 10
112.0048739488908
 20
131.4082036624149
 30
0.0
 10
112.0223459498962
 20
131.4018452623193
 30
0.0
 10
112.0407234788644
 20
131.4008712837322
 30
0.0
 10
112.0556555215296
 20
131.400079910211
 30
0.0
 10
112.0711853781909
 20
131.4028432392146
 30
0.0
 10
112.0836864487904
 20
131.4105370534143
 30
0.0
  0
SPLINE
  5
26D
330
70
100
AcDbEntity
  8
0
 62
    18
420
        0
370
    25
100
AcDbSpline
210
0.0
220
0.0
230
1.0
 70
     8
 71
     3
 72
    26
 73
    22
 74
     0
 42
0.0000000001
 43
0.0000000001
 40
0.0
 40
0.0
 40
0.0
 40
0.0
 40
1.0
 40
1.0
 40
1.0
 40
2.0
 40
2.0
 40
2.0
 40
3.0
 40
3.0
 40
3.0
 40
4.0
 40
4.0
 40
4.0
 40
5.0
 40
5.0
 40
5.0
 40
6.0
 40
6.0
 40
6.0
 40
7.0
 40
7.0
 40
7.0
 40
7.0
 10
112.0100511356907
 20
131.8981220742145
 30
0.0
 10
112.0812644266905
 20
131.8613501570148
 30
0.0
 10
112.1433903287033
 20
131.8063539800502
 30
0.0
 10
112.1947288943206
 20
131.7441555653619
 30
0.0
 10
112.2223259881644
 20
131.7107207495178
 30
0.0
 10
112.2468059624365
 20
131.6752047678201
 30
0.0
 10
112.2680829838192
 20
131.6377390997077
 30
0.0
 10
112.2887945926932
 20
131.6012690388752
 30
0.0
 10
112.3064712164693
 20
131.562951536192
 30
0.0
 10
112.3202398467724
 20
131.5232450069868
 30
0.0
 10
112.3329266378398
 20
131.4866583292291
 30
0.0
 10
112.3422954323804
 20
131.4488923288317
 30
0.0
 10
112.3468957381275
 20
131.4104224457663
 30
0.0
 10
112.3509264189479
 20
131.3767160296385
 30
0.0
 10
112.351296399339
 20
131.3424692528855
 30
0.0
 10
112.3458925162396
 20
131.3088533587681
 30
0.0
 10
112.3412863358854
 20
131.2801997279941
 30
0.0
 10
112.3324851117438
 20
131.2520044697262
 30
0.0
 10
112.3173571192195
 20
131.2271108821009
 30
0.0
 10
112.3039175830162
 20
131.2049957024711
 30
0.0
 10
112.2854847440904
 20
131.1854863146145
 30
0.0
 10
112.2636467547906
 20
131.1720529381143
 30
0.0
  0
LINE
  5
26E
330
70
100
AcDbEntity
  8
0
 62
    18
420
        0
370
    25
100
AcDbLine
 10
111.4986907503904
 20
132.1610612656143
 30
0.0
 11
111.5828975277906
 21
132.1180467443147
 31
0.0
  0
LINE
  5
26F
330
70
100
AcDbEntity
  8
0
 62
    18
420
        0
370
    25
100
AcDbLine
 10
111.7509113308908
 20
132.0319890363143
 30
0.0
 11
112.0100510886907
 21
131.8981212815147
 31
0.0
  0
LINE
  5
270
330
70
100
AcDbEntity
  8
0
 62
    18
420
        0
370
    25
100
AcDbLine
 10
110.3035160062904
 20
132.7931272257144
 30
0.0
 11
109.9752994364905
 21
132.9640495968145
 31
0.0
  0
SPLINE
  5
271
330
70
100
AcDbEntity
  8
0
 62
    18
420
        0
370
    25
100
AcDbSpline
210
0.0
220
0.0
230
1.0
 70
     8
 71
     3
 72
    11
 73
     7
 74
     0
 42
0.0000000001
 43
0.0000000001
 40
0.0
 40
0.0
 40
0.0
 40
0.0
 40
1.0
 40
1.0
 40
1.0
 40
2.0
 40
2.0
 40
2.0
 40
2.0
 10
112.0883893235907
 20
131.4137883880145
 30
0.0
 10
112.0830824217904
 20
131.4112046583143
 30
0.0
 10
112.0773903899927
 20
131.4093688463925
 30
0.0
 10
112.0715701073696
 20
131.4082509008214
 30
0.0
 10
112.051371345025
 20
131.4043711722287
 30
0.0
 10
112.0296279630907
 20
131.4091372393147
 30
0.0
 10
112.0107608614904
 20
131.4171136249145
 30
0.0
  0
LINE
  5
273
330
70
100
AcDbEntity
  8
ASSI
 62
    18
420
        0
370
    25
100
AcDbLine
 10
112.2737064434907
 20
131.1782414481144
 30
0.0
 11
112.2636465642907
 21
131.1720532303145
 31
0.0
  0
ENDSEC
  0
SECTION
  2
OBJECTS
  0
DICTIONARY
  5
C
330
0
100
AcDbDictionary
281
     1
  3
ACAD_COLOR
350
63
  3
ACAD_DETAILVIEWSTYLE
350
6A
  3
ACAD_GROUP
350
D
  3
ACAD_LAYOUT
350
62
  3
ACAD_MATERIAL
350
10
  3
ACAD_MLEADERSTYLE
350
66
  3
ACAD_MLINESTYLE
350
5F
  3
ACAD_PLOTSETTINGS
350
61
  3
ACAD_PLOTSTYLENAME
350
E
  3
ACAD_SCALELIST
350
42
  3
ACAD_SECTIONVIEWSTYLE
350
68
  3
ACAD_TABLESTYLE
350
64
  3
ACAD_VISUALSTYLE
350
29
  3
ACDB_RECOMPOSE_DATA
350
27C
  3
AcDbVariableDictionary
350
274
  0
DICTIONARY
  5
63
102
{ACAD_REACTORS
330
C
102
}
330
C
100
AcDbDictionary
281
     1
  0
DICTIONARY
  5
6A
102
{ACAD_REACTORS
330
C
102
}
330
C
100
AcDbDictionary
281
     1
  3
Imperial24
350
6B
  0
DICTIONARY
  5
D
102
{ACAD_REACTORS
330
C
102
}
330
C
100
AcDbDictionary
281
     1
  0
DICTIONARY
  5
62
102
{ACAD_REACTORS
330
C
102
}
330
C
100
AcDbDictionary
281
     1
  3
Layout1
350
6F
  3
Layout2
350
77
  3
Model
350
73
  0
DICTIONARY
  5
10
102
{ACAD_REACTORS
330
C
102
}
330
C
100
AcDbDictionary
281
     1
  3
ByBlock
350
19
  3
ByLayer
350
11
  3
Global
350
21
  0
DICTIONARY
  5
66
102
{ACAD_REACTORS
330
C
102
}
330
C
100
AcDbDictionary
281
     1
  3
Standard
350
67
  0
DICTIONARY
  5
5F
102
{ACAD_REACTORS
330
C
102
}
330
C
100
AcDbDictionary
281
     1
  3
Standard
350
60
  0
DICTIONARY
  5
61
102
{ACAD_REACTORS
330
C
102
}
330
C
100
AcDbDictionary
281
     1
  0
ACDBDICTIONARYWDFLT
  5
E
102
{ACAD_REACTORS
330
C
102
}
330
C
100
AcDbDictionary
281
     1
  3
Normal
350
F
100
AcDbDictionaryWithDefault
340
F
  0
DICTIONARY
  5
42
102
{ACAD_REACTORS
330
C
102
}
330
C
100
AcDbDictionary
281
     1
  3
A0
350
43
  3
A1
350
44
  3
A2
350
45
  3
A3
350
46
  3
A4
350
47
  3
A5
350
48
  3
A6
350
49
  3
A7
350
4A
  3
A8
350
4B
  3
A9
350
4C
  3
B0
350
4D
  3
B1
350
4E
  3
B2
350
4F
  3
B3
350
50
  3
B4
350
51
  3
B5
350
52
  3
B6
350
53
  0
DICTIONARY
  5
68
102
{ACAD_REACTORS
330
C
102
}
330
C
100
AcDbDictionary
281
     1
  3
Imperial24
350
69
  0
DICTIONARY
  5
64
102
{ACAD_REACTORS
330
C
102
}
330
C
100
AcDbDictionary
281
     1
  3
Standard
350
65
  0
DICTIONARY
  5
29
102
{ACAD_REACTORS
330
C
102
}
330
C
100
AcDbDictionary
281
     1
  3
2dWireframe
350
2F
  3
Basic
350
2E
  3
Brighten
350
35
  3
ColorChange
350
39
  3
Conceptual
350
32
  3
Dim
350
34
  3
EdgeColorOff
350
41
  3
Facepattern
350
38
  3
Flat
350
2A
  3
FlatWithEdges
350
2B
  3
Gouraud
350
2C
  3
GouraudWithEdges
350
2D
  3
Hidden
350
31
  3
JitterOff
350
3F
  3
Linepattern
350
37
  3
OverhangOff
350
40
  3
Realistic
350
33
  3
Shaded
350
3E
  3
Shaded with edges
350
3D
  3
Shades of Gray
350
3A
  3
Sketchy
350
3B
  3
Thicken
350
36
  3
Wireframe
350
30
  3
X-Ray
350
3C
  0
XRECORD
  5
27C
102
{ACAD_REACTORS
330
C
102
}
330
C
100
AcDbXrecord
280
     1
 90
        1
330
65
  0
DICTIONARY
  5
274
102
{ACAD_REACTORS
330
C
102
}
330
C
100
AcDbDictionary
281
     1
  3
CANNOSCALE
350
279
  3
CMLEADERSTYLE
350
276
  3
CTABLESTYLE
350
275
  3
CVIEWDETAILSTYLE
350
277
  3
CVIEWSECTIONSTYLE
350
278
  0
ACDBDETAILVIEWSTYLE
  5
6B
102
{ACAD_REACTORS
330
6A
102
}
330
6A
100
AcDbModelDocViewStyle
 70
     0
  3
Imperial24
290
     1
300
Imperial24
 90
        0
100
AcDbDetailViewStyle
 70
     0
 71
     0
 90
        3
 71
     1
340
55
 62
   256
 40
0.24
340
0
 62
   256
 40
0.24
300

 40
0.36
280
     3
 71
     2
340
5D
 90
       25
 62
   256
 71
     3
340
55
 62
   256
 40
0.24
 90
        1
 40
0.75
 90
        1
300
%<\AcVar ViewType \f "%tc1">% %<\AcVar ViewDetailId>%\PSCALE %<\AcVar ViewScale \f "%sn">%
 71
     4
340
5D
 90
       25
 62
   256
340
5D
 90
       25
 62
   256
280
     0
  0
LAYOUT
  5
6F
102
{ACAD_REACTORS
330
62
102
}
330
62
100
AcDbPlotSettings
  1

  2

  4

  6

 40
0.0
 41
0.0
 42
0.0
 43
0.0
 44
0.0
 45
0.0
 46
0.0
 47
0.0
 48
0.0
 49
0.0
140
0.0
141
0.0
142
1.0
143
1.0
 70
   688
 72
     0
 73
     0
 74
     5
  7

 75
    16
147
1.0
 76
     0
 77
     2
 78
   300
148
0.0
149
0.0
100
AcDbLayout
  1
Layout1
 70
     1
 71
     1
 10
0.0
 20
0.0
 11
12.0
 21
9.0
 12
0.0
 22
0.0
 32
0.0
 14
0.0
 24
0.0
 34
0.0
 15
0.0
 25
0.0
 35
0.0
146
0.0
 13
0.0
 23
0.0
 33
0.0
 16
1.0
 26
0.0
 36
0.0
 17
0.0
 27
1.0
 37
0.0
 76
     0
330
6C
  0
LAYOUT
  5
77
102
{ACAD_REACTORS
330
62
102
}
330
62
100
AcDbPlotSettings
  1

  2

  4

  6

 40
0.0
 41
0.0
 42
0.0
 43
0.0
 44
0.0
 45
0.0
 46
0.0
 47
0.0
 48
0.0
 49
0.0
140
0.0
141
0.0
142
1.0
143
1.0
 70
   688
 72
     0
 73
     0
 74
     5
  7

 75
    16
147
1.0
 76
     0
 77
     2
 78
   300
148
0.0
149
0.0
100
AcDbLayout
  1
Layout2
 70
     1
 71
     2
 10
0.0
 20
0.0
 11
12.0
 21
9.0
 12
0.0
 22
0.0
 32
0.0
 14
0.0
 24
0.0
 34
0.0
 15
0.0
 25
0.0
 35
0.0
146
0.0
 13
0.0
 23
0.0
 33
0.0
 16
1.0
 26
0.0
 36
0.0
 17
0.0
 27
1.0
 37
0.0
 76
     0
330
74
  0
LAYOUT
  5
73
102
{ACAD_REACTORS
330
62
102
}
330
62
100
AcDbPlotSettings
  1

  2

  4

  6

 40
0.0
 41
0.0
 42
0.0
 43
0.0
 44
0.0
 45
0.0
 46
0.0
 47
0.0
 48
0.0
 49
0.0
140
0.0
141
0.0
142
1.0
143
1.0
 70
  1712
 72
     0
 73
     0
 74
     0
  7

 75
     0
147
1.0
 76
     0
 77
     2
 78
   300
148
0.0
149
0.0
100
AcDbLayout
  1
Model
 70
     1
 71
     0
 10
0.0
 20
0.0
 11
12.0
 21
9.0
 12
0.0
 22
0.0
 32
0.0
 14
0.0
 24
0.0
 34
0.0
 15
0.0
 25
0.0
 35
0.0
146
0.0
 13
0.0
 23
0.0
 33
0.0
 16
1.0
 26
0.0
 36
0.0
 17
0.0
 27
1.0
 37
0.0
 76
     0
330
70
  0
MATERIAL
  5
19
102
{ACAD_XDICTIONARY
360
1A
102
}
102
{ACAD_REACTORS
330
10
102
}
330
10
100
AcDbMaterial
  1
ByBlock
 72
     0
 43
0.0208333333333333
 43
0.0
 43
0.0
 43
0.0
 43
0.0
 43
0.0208333333333333
 43
0.0
 43
0.0
 43
0.0
 43
0.0
 43
1.0
 43
0.0
 43
0.0
 43
0.0
 43
0.0
 43
1.0
 77
     0
 47
0.0208333333333333
 47
0.0
 47
0.0
 47
0.0
 47
0.0
 47
0.0208333333333333
 47
0.0
 47
0.0
 47
0.0
 47
0.0
 47
1.0
 47
0.0
 47
0.0
 47
0.0
 47
0.0
 47
1.0
171
     0
 49
0.0208333333333333
 49
0.0
 49
0.0
 49
0.0
 49
0.0
 49
0.0208333333333333
 49
0.0
 49
0.0
 49
0.0
 49
0.0
 49
1.0
 49
0.0
 49
0.0
 49
0.0
 49
0.0
 49
1.0
175
     0
142
0.0208333333333333
142
0.0
142
0.0
142
0.0
142
0.0
142
0.0208333333333333
142
0.0
142
0.0
142
0.0
142
0.0
142
1.0
142
0.0
142
0.0
142
0.0
142
0.0
142
1.0
179
     0
144
0.0208333333333333
144
0.0
144
0.0
144
0.0
144
0.0
144
0.0208333333333333
144
0.0
144
0.0
144
0.0
144
0.0
144
1.0
144
0.0
144
0.0
144
0.0
144
0.0
144
1.0
147
0.0208333333333333
147
0.0
147
0.0
147
0.0
147
0.0
147
0.0208333333333333
147
0.0
147
0.0
147
0.0
147
0.0
147
1.0
147
0.0
147
0.0
147
0.0
147
0.0
147
1.0
  0
MATERIAL
  5
11
102
{ACAD_XDICTIONARY
360
12
102
}
102
{ACAD_REACTORS
330
10
102
}
330
10
100
AcDbMaterial
  1
ByLayer
 72
     0
 43
0.0208333333333333
 43
0.0
 43
0.0
 43
0.0
 43
0.0
 43
0.0208333333333333
 43
0.0
 43
0.0
 43
0.0
 43
0.0
 43
1.0
 43
0.0
 43
0.0
 43
0.0
 43
0.0
 43
1.0
 77
     0
 47
0.0208333333333333
 47
0.0
 47
0.0
 47
0.0
 47
0.0
 47
0.0208333333333333
 47
0.0
 47
0.0
 47
0.0
 47
0.0
 47
1.0
 47
0.0
 47
0.0
 47
0.0
 47
0.0
 47
1.0
171
     0
 49
0.0208333333333333
 49
0.0
 49
0.0
 49
0.0
 49
0.0
 49
0.0208333333333333
 49
0.0
 49
0.0
 49
0.0
 49
0.0
 49
1.0
 49
0.0
 49
0.0
 49
0.0
 49
0.0
 49
1.0
175
     0
142
0.0208333333333333
142
0.0
142
0.0
142
0.0
142
0.0
142
0.0208333333333333
142
0.0
142
0.0
142
0.0
142
0.0
142
1.0
142
0.0
142
0.0
142
0.0
142
0.0
142
1.0
179
     0
144
0.0208333333333333
144
0.0
144
0.0
144
0.0
144
0.0
144
0.0208333333333333
144
0.0
144
0.0
144
0.0
144
0.0
144
1.0
144
0.0
144
0.0
144
0.0
144
0.0
144
1.0
147
0.0208333333333333
147
0.0
147
0.0
147
0.0
147
0.0
147
0.0208333333333333
147
0.0
147
0.0
147
0.0
147
0.0
147
1.0
147
0.0
147
0.0
147
0.0
147
0.0
147
1.0
  0
MATERIAL
  5
21
102
{ACAD_XDICTIONARY
360
22
102
}
102
{ACAD_REACTORS
330
10
102
}
330
10
100
AcDbMaterial
  1
Global
 72
     0
 43
0.0208333333333333
 43
0.0
 43
0.0
 43
0.0
 43
0.0
 43
0.0208333333333333
 43
0.0
 43
0.0
 43
0.0
 43
0.0
 43
1.0
 43
0.0
 43
0.0
 43
0.0
 43
0.0
 43
1.0
 77
     0
 47
0.0208333333333333
 47
0.0
 47
0.0
 47
0.0
 47
0.0
 47
0.0208333333333333
 47
0.0
 47
0.0
 47
0.0
 47
0.0
 47
1.0
 47
0.0
 47
0.0
 47
0.0
 47
0.0
 47
1.0
171
     0
 49
0.0208333333333333
 49
0.0
 49
0.0
 49
0.0
 49
0.0
 49
0.0208333333333333
 49
0.0
 49
0.0
 49
0.0
 49
0.0
 49
1.0
 49
0.0
 49
0.0
 49
0.0
 49
0.0
 49
1.0
175
     0
142
0.0208333333333333
142
0.0
142
0.0
142
0.0
142
0.0
142
0.0208333333333333
142
0.0
142
0.0
142
0.0
142
0.0
142
1.0
142
0.0
142
0.0
142
0.0
142
0.0
142
1.0
179
     0
144
0.0208333333333333
144
0.0
144
0.0
144
0.0
144
0.0
144
0.0208333333333333
144
0.0
144
0.0
144
0.0
144
0.0
144
1.0
144
0.0
144
0.0
144
0.0
144
0.0
144
1.0
147
0.0208333333333333
147
0.0
147
0.0
147
0.0
147
0.0
147
0.0208333333333333
147
0.0
147
0.0
147
0.0
147
0.0
147
1.0
147
0.0
147
0.0
147
0.0
147
0.0
147
1.0
  0
MLEADERSTYLE
  5
67
102
{ACAD_REACTORS
330
66
102
}
330
66
100
AcDbMLeaderStyle
179
     2
170
     2
171
     1
172
     0
 90
        2
 40
0.0
 41
0.0
173
     1
 91
-1056964608
340
5B
 92
       -2
290
     1
 42
0.09
291
     1
 43
0.36
  3
Standard
 44
0.18
300

342
55
174
     1
178
     6
175
     1
176
     0
 93
-1056964608
 45
0.18
292
     0
297
     0
 46
0.18
 94
-1056964608
 47
1.0
 49
1.0
140
1.0
293
     1
141
0.0
294
     1
177
     0
142
1.0
295
     1
296
     0
143
0.125
271
     0
272
     9
273
     9
298
     1
  0
MLINESTYLE
  5
60
102
{ACAD_REACTORS
330
5F
102
}
330
5F
100
AcDbMlineStyle
  2
STANDARD
 70
     0
  3

 62
   256
 51
90.0
 52
90.0
 71
     2
 49
0.5
 62
   256
  6
BYLAYER
 49
-0.5
 62
   256
  6
BYLAYER
  0
ACDBPLACEHOLDER
  5
F
102
{ACAD_REACTORS
330
E
102
}
330
E
  0
SCALE
  5
43
102
{ACAD_REACTORS
330
42
102
}
330
42
100
AcDbScale
 70
     0
300
1:1
140
1.0
141
1.0
290
     1
  0
SCALE
  5
44
102
{ACAD_REACTORS
330
42
102
}
330
42
100
AcDbScale
 70
     0
300
1/128" = 1'-0"
140
0.0078125
141
12.0
290
     0
  0
SCALE
  5
45
102
{ACAD_REACTORS
330
42
102
}
330
42
100
AcDbScale
 70
     0
300
1/64" = 1'-0"
140
0.015625
141
12.0
290
     0
  0
SCALE
  5
46
102
{ACAD_REACTORS
330
42
102
}
330
42
100
AcDbScale
 70
     0
300
1/32" = 1'-0"
140
0.03125
141
12.0
290
     0
  0
SCALE
  5
47
102
{ACAD_REACTORS
330
42
102
}
330
42
100
AcDbScale
 70
     0
300
1/16" = 1'-0"
140
0.0625
141
12.0
290
     0
  0
SCALE
  5
48
102
{ACAD_REACTORS
330
42
102
}
330
42
100
AcDbScale
 70
     0
300
3/32" = 1'-0"
140
0.09375
141
12.0
290
     0
  0
SCALE
  5
49
102
{ACAD_REACTORS
330
42
102
}
330
42
100
AcDbScale
 70
     0
300
1/8" = 1'-0"
140
0.125
141
12.0
290
     0
  0
SCALE
  5
4A
102
{ACAD_REACTORS
330
42
102
}
330
42
100
AcDbScale
 70
     0
300
3/16" = 1'-0"
140
0.1875
141
12.0
290
     0
  0
SCALE
  5
4B
102
{ACAD_REACTORS
330
42
102
}
330
42
100
AcDbScale
 70
     0
300
1/4" = 1'-0"
140
0.25
141
12.0
290
     0
  0
SCALE
  5
4C
102
{ACAD_REACTORS
330
42
102
}
330
42
100
AcDbScale
 70
     0
300
3/8" = 1'-0"
140
0.375
141
12.0
290
     0
  0
SCALE
  5
4D
102
{ACAD_REACTORS
330
42
102
}
330
42
100
AcDbScale
 70
     0
300
1/2" = 1'-0"
140
0.5
141
12.0
290
     0
  0
SCALE
  5
4E
102
{ACAD_REACTORS
330
42
102
}
330
42
100
AcDbScale
 70
     0
300
3/4" = 1'-0"
140
0.75
141
12.0
290
     0
  0
SCALE
  5
4F
102
{ACAD_REACTORS
330
42
102
}
330
42
100
AcDbScale
 70
     0
300
1" = 1'-0"
140
1.0
141
12.0
290
     0
  0
SCALE
  5
50
102
{ACAD_REACTORS
330
42
102
}
330
42
100
AcDbScale
 70
     0
300
1-1/2" = 1'-0"
140
1.5
141
12.0
290
     0
  0
SCALE
  5
51
102
{ACAD_REACTORS
330
42
102
}
330
42
100
AcDbScale
 70
     0
300
3" = 1'-0"
140
3.0
141
12.0
290
     0
  0
SCALE
  5
52
102
{ACAD_REACTORS
330
42
102
}
330
42
100
AcDbScale
 70
     0
300
6" = 1'-0"
140
6.0
141
12.0
290
     0
  0
SCALE
  5
53
102
{ACAD_REACTORS
330
42
102
}
330
42
100
AcDbScale
 70
     0
300
1'-0" = 1'-0"
140
12.0
141
12.0
290
     0
  0
ACDBSECTIONVIEWSTYLE
  5
69
102
{ACAD_REACTORS
330
68
102
}
330
68
100
AcDbModelDocViewStyle
 70
     0
  3
Imperial24
290
     1
300
Imperial24
 90
        0
100
AcDbSectionViewStyle
 70
     0
 71
     0
 90
       78
 71
     1
340
55
 62
   256
 40
0.24
340
0
340
0
 62
   256
 40
0.24
300
I, O, Q, S, X, Z
 40
0.48
 90
        3
 40
0.18
 90
        1
 71
     2
340
5D
 90
       25
 62
   256
340
5D
 90
       50
 62
   256
 40
0.24
 40
0.0
 40
0.24
 71
     3
340
55
 62
   256
 40
0.24
 90
        1
 40
0.75
 90
        1
300
%<\AcVar ViewType \f "%tc1">% %<\AcVar ViewSectionStartId>%-%<\AcVar ViewSectionEndId>%\PSCALE %<\AcVar ViewScale \f "%sn">%
 71
     4
 62
   256
 62
   257
300
ANSI31
 40
1.0
 90
        0
290
     0
290
     0
 90
        6
 40
0.0
 40
1.570796326794896
 40
0.2617993877991494
 40
1.308996938995747
 40
-0.2617993877991494
 40
1.832595714594046
  0
TABLESTYLE
  5
65
102
{ACAD_XDICTIONARY
360
27A
102
}
102
{ACAD_REACTORS
330
64
102
}
330
64
100
AcDbTableStyle
280
     0
  3
Standard
 70
     0
 71
     0
 40
0.06
 41
0.06
280
     0
281
     0
  7
Standard
140
0.18
170
     2
 62
     0
 63
     7
283
     0
 90
      512
 91
        0
  1

274
    -2
284
     1
 64
     0
275
    -2
285
     1
 65
     0
276
    -2
286
     1
 66
     0
277
    -2
287
     1
 67
     0
278
    -2
288
     1
 68
     0
279
    -2
289
     1
 69
     0
  7
Standard
140
0.25
170
     5
 62
     0
 63
     7
283
     0
 90
      512
 91
        0
  1

274
    -2
284
     1
 64
     0
275
    -2
285
     1
 65
     0
276
    -2
286
     1
 66
     0
277
    -2
287
     1
 67
     0
278
    -2
288
     1
 68
     0
279
    -2
289
     1
 69
     0
  7
Standard
140
0.18
170
     5
 62
     0
 63
     7
283
     0
 90
      512
 91
        0
  1

274
    -2
284
     1
 64
     0
275
    -2
285
     1
 65
     0
276
    -2
286
     1
 66
     0
277
    -2
287
     1
 67
     0
278
    -2
288
     1
 68
     0
279
    -2
289
     1
 69
     0
  0
VISUALSTYLE
  5
2F
102
{ACAD_REACTORS
330
29
102
}
330
29
100
AcDbVisualStyle
  2
2dWireframe
 70
     4
177
     3
291
     0
 70
    58
 90
        0
176
     1
 90
        2
176
     1
 90
        0
176
     1
 90
        0
176
     1
 40
0.6
176
     1
 40
30.0
176
     1
 62
     7
420
 16777215
176
     1
 90
        1
176
     1
 90
        4
176
     1
 62
     7
176
     1
 62
   257
176
     1
 90
        1
176
     1
 90
        1
176
     1
 40
1.0
176
     1
 90
        0
176
     1
 62
   257
176
     1
 40
1.0
176
     1
 90
        1
176
     1
 90
        6
176
     1
 90
        2
176
     1
 62
     7
176
     1
 90
        5
176
     1
 90
        0
176
     1
 90
        0
176
     1
290
     0
176
     1
 90
        1
176
     1
 40
0.0
176
     1
 90
        0
176
     1
290
     1
176
     1
290
     1
176
     1
290
     0
176
     1
290
     0
176
     1
290
     0
176
     1
290
     0
176
     1
290
     0
176
     1
290
     0
176
     1
290
     0
176
     1
 90
       50
176
     1
 40
0.0
176
     1
 40
1.0
176
     1
 90
        0
176
     1
 62
    18
420
        0
176
     1
 90
       50
176
     1
 90
        3
176
     1
 62
     5
420
      255
176
     1
290
     0
176
     1
 90
       50
176
     1
 90
       50
176
     1
 90
       50
176
     1
290
     0
176
     1
 90
       50
176
     1
 62
   256
176
     0
 40
1.0
176
     0
 90
        2
176
     1
  1
strokes_ogs.tif
176
     1
290
     0
176
     1
 40
1.0
176
     1
 40
1.0
176
     1
  0
VISUALSTYLE
  5
2E
102
{ACAD_REACTORS
330
29
102
}
330
29
100
AcDbVisualStyle
  2
Basic
 70
     7
177
     3
291
     1
 70
    58
 90
        1
176
     1
 90
        0
176
     1
 90
        1
176
     1
 90
        0
176
     1
 40
0.6
176
     1
 40
30.0
176
     1
 62
     7
420
 16777215
176
     1
 90
        0
176
     1
 90
        4
176
     1
 62
     7
176
     1
 62
   257
176
     1
 90
        1
176
     1
 90
        1
176
     1
 40
1.0
176
     1
 90
        8
176
     1
 62
     7
176
     1
 40
1.0
176
     1
 90
        1
176
     1
 90
        6
176
     1
 90
        2
176
     1
 62
     7
176
     1
 90
        5
176
     1
 90
        0
176
     1
 90
        0
176
     1
290
     0
176
     1
 90
        1
176
     1
 40
0.0
176
     1
 90
        0
176
     1
290
     0
176
     1
290
     1
176
     1
290
     1
176
     1
290
     0
176
     1
290
     0
176
     1
290
     0
176
     1
290
     0
176
     1
290
     0
176
     1
290
     0
176
     1
 90
       50
176
     1
 40
0.0
176
     1
 40
1.0
176
     1
 90
        0
176
     1
 62
    18
420
        0
176
     1
 90
       50
176
     1
 90
        3
176
     1
 62
     5
420
      255
176
     1
290
     0
176
     1
 90
       50
176
     1
 90
       50
176
     1
 90
       50
176
     1
290
     0
176
     1
 90
       50
176
     1
 62
   256
176
     0
 40
1.0
176
     0
 90
        2
176
     1
  1
strokes_ogs.tif
176
     1
290
     0
176
     1
 40
1.0
176
     1
 40
1.0
176
     1
  0
VISUALSTYLE
  5
35
102
{ACAD_REACTORS
330
29
102
}
330
29
100
AcDbVisualStyle
  2
Brighten
 70
    12
177
     3
291
     1
 70
    58
 90
        2
176
     1
 90
        2
176
     1
 90
        0
176
     1
 90
        0
176
     1
 40
0.6
176
     1
 40
30.0
176
     1
 62
     7
420
 16777215
176
     1
 90
        1
176
     1
 90
        4
176
     1
 62
     7
176
     1
 62
   257
176
     1
 90
        1
176
     1
 90
        1
176
     1
 40
1.0
176
     1
 90
        8
176
     1
 62
     7
176
     1
 40
1.0
176
     1
 90
        1
176
     1
 90
        6
176
     1
 90
        2
176
     1
 62
     7
176
     1
 90
        5
176
     1
 90
        0
176
     1
 90
        0
176
     1
290
     0
176
     1
 90
        1
176
     1
 40
50.0
176
     1
 90
        0
176
     1
290
     0
176
     1
290
     1
176
     1
290
     1
176
     1
290
     0
176
     1
290
     0
176
     1
290
     0
176
     1
290
     0
176
     1
290
     0
176
     1
290
     0
176
     1
 90
       50
176
     1
 40
0.0
176
     1
 40
1.0
176
     1
 90
        0
176
     1
 62
    18
420
        0
176
     1
 90
       50
176
     1
 90
        3
176
     1
 62
     5
420
      255
176
     1
290
     0
176
     1
 90
       50
176
     1
 90
       50
176
     1
 90
       50
176
     1
290
     0
176
     1
 90
       50
176
     1
 62
   256
176
     0
 40
1.0
176
     0
 90
        2
176
     1
  1
strokes_ogs.tif
176
     1
290
     0
176
     1
 40
1.0
176
     1
 40
1.0
176
     1
  0
VISUALSTYLE
  5
39
102
{ACAD_REACTORS
330
29
102
}
330
29
100
AcDbVisualStyle
  2
ColorChange
 70
    16
177
     3
291
     1
 70
    58
 90
        2
176
     1
 90
        2
176
     1
 90
        3
176
     1
 90
        0
176
     1
 40
0.6
176
     1
 40
30.0
176
     1
 62
     8
420
  8421504
176
     1
 90
        1
176
     1
 90
        4
176
     1
 62
     7
176
     1
 62
   257
176
     1
 90
        1
176
     1
 90
        1
176
     1
 40
1.0
176
     1
 90
        8
176
     1
 62
     8
420
  8421504
176
     1
 40
1.0
176
     1
 90
        1
176
     1
 90
        6
176
     1
 90
        2
176
     1
 62
     7
176
     1
 90
        5
176
     1
 90
        0
176
     1
 90
        0
176
     1
290
     0
176
     1
 90
        1
176
     1
 40
0.0
176
     1
 90
        0
176
     1
290
     0
176
     1
290
     1
176
     1
290
     1
176
     1
290
     0
176
     1
290
     0
176
     1
290
     0
176
     1
290
     0
176
     1
290
     0
176
     1
290
     0
176
     1
 90
       50
176
     1
 40
0.0
176
     1
 40
1.0
176
     1
 90
        0
176
     1
 62
    18
420
        0
176
     1
 90
       50
176
     1
 90
        3
176
     1
 62
     5
420
      255
176
     1
290
     0
176
     1
 90
       50
176
     1
 90
       50
176
     1
 90
       50
176
     1
290
     0
176
     1
 90
       50
176
     1
 62
   256
176
     0
 40
1.0
176
     0
 90
        2
176
     1
  1
strokes_ogs.tif
176
     1
290
     0
176
     1
 40
1.0
176
     1
 40
1.0
176
     1
  0
VISUALSTYLE
  5
32
102
{ACAD_REACTORS
330
29
102
}
330
29
100
AcDbVisualStyle
  2
Conceptual
 70
     9
177
     3
291
     0
 70
    58
 90
        3
176
     1
 90
        2
176
     1
 90
        0
176
     1
 90
        0
176
     1
 40
0.6
176
     1
 40
30.0
176
     1
 62
     7
420
 16777215
176
     1
 90
        2
176
     1
 90
        2
176
     1
 62
     7
176
     1
 62
   257
176
     1
 90
        1
176
     1
 90
        1
176
     1
 40
179.0
176
     1
 90
        8
176
     1
 62
     7
176
     1
 40
1.0
176
     1
 90
        1
176
     1
 90
        6
176
     1
 90
        2
176
     1
 62
     7
176
     1
 90
        3
176
     1
 90
        0
176
     1
 90
        0
176
     1
290
     0
176
     1
 90
        1
176
     1
 40
0.0
176
     1
 90
        0
176
     1
290
     0
176
     1
290
     1
176
     1
290
     1
176
     1
290
     0
176
     1
290
     0
176
     1
290
     0
176
     1
290
     0
176
     1
290
     0
176
     1
290
     0
176
     1
 90
       50
176
     1
 40
0.0
176
     1
 40
1.0
176
     1
 90
        0
176
     1
 62
    18
420
        0
176
     1
 90
       50
176
     1
 90
        3
176
     1
 62
     5
420
      255
176
     1
290
     0
176
     1
 90
       50
176
     1
 90
       50
176
     1
 90
       50
176
     1
290
     0
176
     1
 90
       50
176
     1
 62
   256
176
     0
 40
1.0
176
     0
 90
        2
176
     1
  1
strokes_ogs.tif
176
     1
290
     0
176
     1
 40
1.0
176
     1
 40
1.0
176
     1
  0
VISUALSTYLE
  5
34
102
{ACAD_REACTORS
330
29
102
}
330
29
100
AcDbVisualStyle
  2
Dim
 70
    11
177
     3
291
     1
 70
    58
 90
        2
176
     1
 90
        2
176
     1
 90
        0
176
     1
 90
        0
176
     1
 40
0.6
176
     1
 40
30.0
176
     1
 62
     7
420
 16777215
176
     1
 90
        1
176
     1
 90
        4
176
     1
 62
     7
176
     1
 62
   257
176
     1
 90
        1
176
     1
 90
        1
176
     1
 40
1.0
176
     1
 90
        8
176
     1
 62
     7
176
     1
 40
1.0
176
     1
 90
        1
176
     1
 90
        6
176
     1
 90
        2
176
     1
 62
     7
176
     1
 90
        5
176
     1
 90
        0
176
     1
 90
        0
176
     1
290
     0
176
     1
 90
        1
176
     1
 40
-50.0
176
     1
 90
        0
176
     1
290
     0
176
     1
290
     1
176
     1
290
     1
176
     1
290
     0
176
     1
290
     0
176
     1
290
     0
176
     1
290
     0
176
     1
290
     0
176
     1
290
     0
176
     1
 90
       50
176
     1
 40
0.0
176
     1
 40
1.0
176
     1
 90
        0
176
     1
 62
    18
420
        0
176
     1
 90
       50
176
     1
 90
        3
176
     1
 62
     5
420
      255
176
     1
290
     0
176
     1
 90
       50
176
     1
 90
       50
176
     1
 90
       50
176
     1
290
     0
176
     1
 90
       50
176
     1
 62
   256
176
     0
 40
1.0
176
     0
 90
        2
176
     1
  1
strokes_ogs.tif
176
     1
290
     0
176
     1
 40
1.0
176
     1
 40
1.0
176
     1
  0
VISUALSTYLE
  5
41
102
{ACAD_REACTORS
330
29
102
}
330
29
100
AcDbVisualStyle
  2
EdgeColorOff
 70
    22
177
     3
291
     1
 70
    58
 90
        2
176
     0
 90
        2
176
     0
 90
        0
176
     0
 90
        0
176
     0
 40
0.6
176
     0
 40
30.0
176
     0
 62
     7
420
 16777215
176
     0
 90
        1
176
     0
 90
        4
176
     0
 62
     7
176
     0
 62
   257
176
     0
 90
        1
176
     0
 90
        1
176
     0
 40
1.0
176
     0
 90
        8
176
     2
 62
     7
176
     0
 40
1.0
176
     0
 90
        1
176
     0
 90
        6
176
     0
 90
        2
176
     0
 62
     7
176
     0
 90
        5
176
     0
 90
        0
176
     0
 90
        0
176
     0
290
     0
176
     0
 90
        1
176
     0
 40
0.0
176
     0
 90
        0
176
     0
290
     0
176
     0
290
     1
176
     0
290
     1
176
     0
290
     0
176
     0
290
     0
176
     0
290
     0
176
     0
290
     0
176
     0
290
     0
176
     0
290
     0
176
     0
 90
       50
176
     0
 40
0.0
176
     0
 40
1.0
176
     0
 90
        0
176
     0
 62
    18
420
        0
176
     0
 90
       50
176
     0
 90
        3
176
     0
 62
     5
420
      255
176
     0
290
     0
176
     0
 90
       50
176
     0
 90
       50
176
     0
 90
       50
176
     0
290
     0
176
     0
 90
       50
176
     0
 62
   256
176
     0
 40
1.0
176
     0
 90
        2
176
     0
  1
strokes_ogs.tif
176
     0
290
     0
176
     0
 40
1.0
176
     0
 40
1.0
176
     0
  0
VISUALSTYLE
  5
38
102
{ACAD_REACTORS
330
29
102
}
330
29
100
AcDbVisualStyle
  2
Facepattern
 70
    15
177
     3
291
     1
 70
    58
 90
        2
176
     1
 90
        2
176
     1
 90
        0
176
     1
 90
        0
176
     1
 40
0.6
176
     1
 40
30.0
176
     1
 62
     7
420
 16777215
176
     1
 90
        1
176
     1
 90
        4
176
     1
 62
     7
176
     1
 62
   257
176
     1
 90
        1
176
     1
 90
        1
176
     1
 40
1.0
176
     1
 90
        8
176
     1
 62
     7
176
     1
 40
1.0
176
     1
 90
        1
176
     1
 90
        6
176
     1
 90
        2
176
     1
 62
     7
176
     1
 90
        5
176
     1
 90
        0
176
     1
 90
        0
176
     1
290
     0
176
     1
 90
        1
176
     1
 40
0.0
176
     1
 90
        0
176
     1
290
     0
176
     1
290
     1
176
     1
290
     1
176
     1
290
     0
176
     1
290
     0
176
     1
290
     0
176
     1
290
     0
176
     1
290
     0
176
     1
290
     0
176
     1
 90
       50
176
     1
 40
0.0
176
     1
 40
1.0
176
     1
 90
        0
176
     1
 62
    18
420
        0
176
     1
 90
       50
176
     1
 90
        3
176
     1
 62
     5
420
      255
176
     1
290
     0
176
     1
 90
       50
176
     1
 90
       50
176
     1
 90
       50
176
     1
290
     0
176
     1
 90
       50
176
     1
 62
   256
176
     0
 40
1.0
176
     0
 90
        2
176
     1
  1
strokes_ogs.tif
176
     1
290
     0
176
     1
 40
1.0
176
     1
 40
1.0
176
     1
  0
VISUALSTYLE
  5
2A
102
{ACAD_REACTORS
330
29
102
}
330
29
100
AcDbVisualStyle
  2
Flat
 70
     0
177
     3
291
     1
 70
    58
 90
        2
176
     1
 90
        1
176
     1
 90
        1
176
     1
 90
        2
176
     1
 40
0.6
176
     1
 40
30.0
176
     1
 62
     7
420
 16777215
176
     1
 90
        0
176
     1
 90
        0
176
     1
 62
     7
176
     1
 62
   257
176
     1
 90
        1
176
     1
 90
        1
176
     1
 40
1.0
176
     1
 90
        8
176
     1
 62
     7
176
     1
 40
1.0
176
     1
 90
        1
176
     1
 90
        6
176
     1
 90
        2
176
     1
 62
     7
176
     1
 90
        5
176
     1
 90
        0
176
     1
 90
        0
176
     1
290
     0
176
     1
 90
       13
176
     1
 40
0.0
176
     1
 90
        0
176
     1
290
     0
176
     1
290
     1
176
     1
290
     1
176
     1
290
     0
176
     1
290
     0
176
     1
290
     0
176
     1
290
     0
176
     1
290
     0
176
     1
290
     0
176
     1
 90
       50
176
     1
 40
0.0
176
     1
 40
1.0
176
     1
 90
        0
176
     1
 62
    18
420
        0
176
     1
 90
       50
176
     1
 90
        3
176
     1
 62
     5
420
      255
176
     1
290
     0
176
     1
 90
       50
176
     1
 90
       50
176
     1
 90
       50
176
     1
290
     0
176
     1
 90
       50
176
     1
 62
   256
176
     0
 40
1.0
176
     0
 90
        2
176
     1
  1
strokes_ogs.tif
176
     1
290
     0
176
     1
 40
1.0
176
     1
 40
1.0
176
     1
  0
VISUALSTYLE
  5
2B
102
{ACAD_REACTORS
330
29
102
}
330
29
100
AcDbVisualStyle
  2
FlatWithEdges
 70
     1
177
     3
291
     1
 70
    58
 90
        2
176
     1
 90
        1
176
     1
 90
        1
176
     1
 90
        2
176
     1
 40
0.6
176
     1
 40
30.0
176
     1
 62
     7
420
 16777215
176
     1
 90
        1
176
     1
 90
        0
176
     1
 62
     7
176
     1
 62
   257
176
     1
 90
        1
176
     1
 90
        1
176
     1
 40
1.0
176
     1
 90
        0
176
     1
 62
   257
176
     1
 40
1.0
176
     1
 90
        1
176
     1
 90
        6
176
     1
 90
        2
176
     1
 62
     7
176
     1
 90
        5
176
     1
 90
        0
176
     1
 90
        0
176
     1
290
     0
176
     1
 90
       13
176
     1
 40
0.0
176
     1
 90
        0
176
     1
290
     0
176
     1
290
     1
176
     1
290
     1
176
     1
290
     0
176
     1
290
     0
176
     1
290
     0
176
     1
290
     0
176
     1
290
     0
176
     1
290
     0
176
     1
 90
       50
176
     1
 40
0.0
176
     1
 40
1.0
176
     1
 90
        0
176
     1
 62
    18
420
        0
176
     1
 90
       50
176
     1
 90
        3
176
     1
 62
     5
420
      255
176
     1
290
     0
176
     1
 90
       50
176
     1
 90
       50
176
     1
 90
       50
176
     1
290
     0
176
     1
 90
       50
176
     1
 62
   256
176
     0
 40
1.0
176
     0
 90
        2
176
     1
  1
strokes_ogs.tif
176
     1
290
     0
176
     1
 40
1.0
176
     1
 40
1.0
176
     1
  0
VISUALSTYLE
  5
2C
102
{ACAD_REACTORS
330
29
102
}
330
29
100
AcDbVisualStyle
  2
Gouraud
 70
     2
177
     3
291
     1
 70
    58
 90
        2
176
     1
 90
        2
176
     1
 90
        1
176
     1
 90
        2
176
     1
 40
0.6
176
     1
 40
30.0
176
     1
 62
     7
420
 16777215
176
     1
 90
        0
176
     1
 90
        0
176
     1
 62
     7
176
     1
 62
   257
176
     1
 90
        1
176
     1
 90
        1
176
     1
 40
1.0
176
     1
 90
        0
176
     1
 62
     7
176
     1
 40
1.0
176
     1
 90
        1
176
     1
 90
        6
176
     1
 90
        2
176
     1
 62
     7
176
     1
 90
        5
176
     1
 90
        0
176
     1
 90
        0
176
     1
290
     0
176
     1
 90
       13
176
     1
 40
0.0
176
     1
 90
        0
176
     1
290
     0
176
     1
290
     1
176
     1
290
     1
176
     1
290
     0
176
     1
290
     0
176
     1
290
     0
176
     1
290
     0
176
     1
290
     0
176
     1
290
     0
176
     1
 90
       50
176
     1
 40
0.0
176
     1
 40
1.0
176
     1
 90
        0
176
     1
 62
    18
420
        0
176
     1
 90
       50
176
     1
 90
        3
176
     1
 62
     5
420
      255
176
     1
290
     0
176
     1
 90
       50
176
     1
 90
       50
176
     1
 90
       50
176
     1
290
     0
176
     1
 90
       50
176
     1
 62
   256
176
     0
 40
1.0
176
     0
 90
        2
176
     1
  1
strokes_ogs.tif
176
     1
290
     0
176
     1
 40
1.0
176
     1
 40
1.0
176
     1
  0
VISUALSTYLE
  5
2D
102
{ACAD_REACTORS
330
29
102
}
330
29
100
AcDbVisualStyle
  2
GouraudWithEdges
 70
     3
177
     3
291
     1
 70
    58
 90
        2
176
     1
 90
        2
176
     1
 90
        1
176
     1
 90
        2
176
     1
 40
0.6
176
     1
 40
30.0
176
     1
 62
     7
420
 16777215
176
     1
 90
        1
176
     1
 90
        0
176
     1
 62
     7
176
     1
 62
   257
176
     1
 90
        1
176
     1
 90
        1
176
     1
 40
1.0
176
     1
 90
        0
176
     1
 62
   257
176
     1
 40
1.0
176
     1
 90
        1
176
     1
 90
        6
176
     1
 90
        2
176
     1
 62
     7
176
     1
 90
        5
176
     1
 90
        0
176
     1
 90
        0
176
     1
290
     0
176
     1
 90
       13
176
     1
 40
0.0
176
     1
 90
        0
176
     1
290
     0
176
     1
290
     1
176
     1
290
     1
176
     1
290
     0
176
     1
290
     0
176
     1
290
     0
176
     1
290
     0
176
     1
290
     0
176
     1
290
     0
176
     1
 90
       50
176
     1
 40
0.0
176
     1
 40
1.0
176
     1
 90
        0
176
     1
 62
    18
420
        0
176
     1
 90
       50
176
     1
 90
        3
176
     1
 62
     5
420
      255
176
     1
290
     0
176
     1
 90
       50
176
     1
 90
       50
176
     1
 90
       50
176
     1
290
     0
176
     1
 90
       50
176
     1
 62
   256
176
     0
 40
1.0
176
     0
 90
        2
176
     1
  1
strokes_ogs.tif
176
     1
290
     0
176
     1
 40
1.0
176
     1
 40
1.0
176
     1
  0
VISUALSTYLE
  5
31
102
{ACAD_REACTORS
330
29
102
}
330
29
100
AcDbVisualStyle
  2
Hidden
 70
     6
177
     3
291
     0
 70
    58
 90
        1
176
     1
 90
        2
176
     1
 90
        2
176
     1
 90
        0
176
     1
 40
0.6
176
     1
 40
30.0
176
     1
 62
     7
420
 16777215
176
     1
 90
        2
176
     1
 90
        2
176
     1
 62
     7
176
     1
 62
   257
176
     1
 90
        2
176
     1
 90
        1
176
     1
 40
40.0
176
     1
 90
        0
176
     1
 62
   257
176
     1
 40
1.0
176
     1
 90
        1
176
     1
 90
        6
176
     1
 90
        2
176
     1
 62
     7
176
     1
 90
        3
176
     1
 90
        0
176
     1
 90
        0
176
     1
290
     0
176
     1
 90
        1
176
     1
 40
0.0
176
     1
 90
        0
176
     1
290
     0
176
     1
290
     1
176
     1
290
     1
176
     1
290
     0
176
     1
290
     0
176
     1
290
     0
176
     1
290
     0
176
     1
290
     0
176
     1
290
     0
176
     1
 90
       50
176
     1
 40
0.0
176
     1
 40
1.0
176
     1
 90
        0
176
     1
 62
    18
420
        0
176
     1
 90
       50
176
     1
 90
        3
176
     1
 62
     5
420
      255
176
     1
290
     0
176
     1
 90
       50
176
     1
 90
       50
176
     1
 90
       50
176
     1
290
     0
176
     1
 90
       50
176
     1
 62
   256
176
     0
 40
1.0
176
     0
 90
        2
176
     1
  1
strokes_ogs.tif
176
     1
290
     0
176
     1
 40
1.0
176
     1
 40
1.0
176
     1
  0
VISUALSTYLE
  5
3F
102
{ACAD_REACTORS
330
29
102
}
330
29
100
AcDbVisualStyle
  2
JitterOff
 70
    20
177
     3
291
     1
 70
    58
 90
        2
176
     0
 90
        2
176
     0
 90
        0
176
     0
 90
        0
176
     0
 40
0.6
176
     0
 40
30.0
176
     0
 62
     7
420
 16777215
176
     0
 90
        1
176
     0
 90
        4
176
     0
 62
     7
176
     0
 62
   257
176
     0
 90
        1
176
     0
 90
        1
176
     0
 40
1.0
176
     0
 90
       10
176
     2
 62
     7
176
     0
 40
1.0
176
     0
 90
        1
176
     0
 90
        6
176
     0
 90
        2
176
     0
 62
     7
176
     0
 90
        5
176
     0
 90
        0
176
     0
 90
        0
176
     0
290
     0
176
     0
 90
        1
176
     0
 40
0.0
176
     0
 90
        0
176
     0
290
     0
176
     0
290
     1
176
     0
290
     1
176
     0
290
     0
176
     0
290
     0
176
     0
290
     0
176
     0
290
     0
176
     0
290
     0
176
     0
290
     0
176
     0
 90
       50
176
     0
 40
0.0
176
     0
 40
1.0
176
     0
 90
        0
176
     0
 62
    18
420
        0
176
     0
 90
       50
176
     0
 90
        3
176
     0
 62
     5
420
      255
176
     0
290
     0
176
     0
 90
       50
176
     0
 90
       50
176
     0
 90
       50
176
     0
290
     0
176
     0
 90
       50
176
     0
 62
   256
176
     0
 40
1.0
176
     0
 90
        2
176
     0
  1
strokes_ogs.tif
176
     0
290
     0
176
     0
 40
1.0
176
     0
 40
1.0
176
     0
  0
VISUALSTYLE
  5
37
102
{ACAD_REACTORS
330
29
102
}
330
29
100
AcDbVisualStyle
  2
Linepattern
 70
    14
177
     3
291
     1
 70
    58
 90
        2
176
     1
 90
        2
176
     1
 90
        0
176
     1
 90
        0
176
     1
 40
0.6
176
     1
 40
30.0
176
     1
 62
     7
420
 16777215
176
     1
 90
        1
176
     1
 90
        4
176
     1
 62
     7
176
     1
 62
   257
176
     1
 90
        7
176
     1
 90
        7
176
     1
 40
1.0
176
     1
 90
        8
176
     1
 62
     7
176
     1
 40
1.0
176
     1
 90
        1
176
     1
 90
        6
176
     1
 90
        2
176
     1
 62
     7
176
     1
 90
        5
176
     1
 90
        0
176
     1
 90
        0
176
     1
290
     0
176
     1
 90
        1
176
     1
 40
0.0
176
     1
 90
        0
176
     1
290
     0
176
     1
290
     1
176
     1
290
     1
176
     1
290
     0
176
     1
290
     0
176
     1
290
     0
176
     1
290
     0
176
     1
290
     0
176
     1
290
     0
176
     1
 90
       50
176
     1
 40
0.0
176
     1
 40
1.0
176
     1
 90
        0
176
     1
 62
    18
420
        0
176
     1
 90
       50
176
     1
 90
        3
176
     1
 62
     5
420
      255
176
     1
290
     0
176
     1
 90
       50
176
     1
 90
       50
176
     1
 90
       50
176
     1
290
     0
176
     1
 90
       50
176
     1
 62
   256
176
     0
 40
1.0
176
     0
 90
        2
176
     1
  1
strokes_ogs.tif
176
     1
290
     0
176
     1
 40
1.0
176
     1
 40
1.0
176
     1
  0
VISUALSTYLE
  5
40
102
{ACAD_REACTORS
330
29
102
}
330
29
100
AcDbVisualStyle
  2
OverhangOff
 70
    21
177
     3
291
     1
 70
    58
 90
        2
176
     0
 90
        2
176
     0
 90
        0
176
     0
 90
        0
176
     0
 40
0.6
176
     0
 40
30.0
176
     0
 62
     7
420
 16777215
176
     0
 90
        1
176
     0
 90
        4
176
     0
 62
     7
176
     0
 62
   257
176
     0
 90
        1
176
     0
 90
        1
176
     0
 40
1.0
176
     0
 90
        9
176
     2
 62
     7
176
     0
 40
1.0
176
     0
 90
        1
176
     0
 90
        6
176
     0
 90
        2
176
     0
 62
     7
176
     0
 90
        5
176
     0
 90
        0
176
     0
 90
        0
176
     0
290
     0
176
     0
 90
        1
176
     0
 40
0.0
176
     0
 90
        0
176
     0
290
     0
176
     0
290
     1
176
     0
290
     1
176
     0
290
     0
176
     0
290
     0
176
     0
290
     0
176
     0
290
     0
176
     0
290
     0
176
     0
290
     0
176
     0
 90
       50
176
     0
 40
0.0
176
     0
 40
1.0
176
     0
 90
        0
176
     0
 62
    18
420
        0
176
     0
 90
       50
176
     0
 90
        3
176
     0
 62
     5
420
      255
176
     0
290
     0
176
     0
 90
       50
176
     0
 90
       50
176
     0
 90
       50
176
     0
290
     0
176
     0
 90
       50
176
     0
 62
   256
176
     0
 40
1.0
176
     0
 90
        2
176
     0
  1
strokes_ogs.tif
176
     0
290
     0
176
     0
 40
1.0
176
     0
 40
1.0
176
     0
  0
VISUALSTYLE
  5
33
102
{ACAD_REACTORS
330
29
102
}
330
29
100
AcDbVisualStyle
  2
Realistic
 70
     8
177
     3
291
     0
 70
    58
 90
        2
176
     1
 90
        3
176
     1
 90
        0
176
     1
 90
        2
176
     1
 40
0.6
176
     1
 40
30.0
176
     1
 62
     7
420
 16777215
176
     1
 90
        0
176
     1
 90
        0
176
     1
 62
     7
176
     1
 62
   257
176
     1
 90
        1
176
     1
 90
        1
176
     1
 40
1.0
176
     1
 90
        8
176
     1
 62
   257
176
     1
 40
1.0
176
     1
 90
        1
176
     1
 90
        6
176
     1
 90
        2
176
     1
 62
     7
176
     1
 90
        3
176
     1
 90
        0
176
     1
 90
        0
176
     1
290
     0
176
     1
 90
       13
176
     1
 40
0.0
176
     1
 90
        0
176
     1
290
     0
176
     1
290
     1
176
     1
290
     1
176
     1
290
     0
176
     1
290
     0
176
     1
290
     0
176
     1
290
     0
176
     1
290
     0
176
     1
290
     0
176
     1
 90
       50
176
     1
 40
0.0
176
     1
 40
1.0
176
     1
 90
        0
176
     1
 62
    18
420
        0
176
     1
 90
       50
176
     1
 90
        3
176
     1
 62
     5
420
      255
176
     1
290
     0
176
     1
 90
       50
176
     1
 90
       50
176
     1
 90
       50
176
     1
290
     0
176
     1
 90
       50
176
     1
 62
   256
176
     0
 40
1.0
176
     0
 90
        2
176
     1
  1
strokes_ogs.tif
176
     1
290
     0
176
     1
 40
1.0
176
     1
 40
1.0
176
     1
  0
VISUALSTYLE
  5
3E
102
{ACAD_REACTORS
330
29
102
}
330
29
100
AcDbVisualStyle
  2
Shaded
 70
    27
177
     3
291
     0
 70
    58
 90
        2
176
     1
 90
        2
176
     1
 90
        1
176
     1
 90
        2
176
     1
 40
0.6
176
     1
 40
30.0
176
     1
 62
     7
420
 16777215
176
     1
 90
        0
176
     1
 90
        4
176
     1
 62
     7
176
     1
 62
   257
176
     1
 90
        1
176
     1
 90
        1
176
     1
 40
1.0
176
     1
 90
        8
176
     1
 62
   257
176
     1
 40
1.0
176
     1
 90
        1
176
     1
 90
        6
176
     1
 90
        2
176
     1
 62
     8
420
  7895160
176
     1
 90
        3
176
     1
 90
        0
176
     1
 90
        0
176
     1
290
     0
176
     1
 90
        5
176
     1
 40
0.0
176
     1
 90
        0
176
     1
290
     0
176
     1
290
     1
176
     1
290
     1
176
     1
290
     0
176
     1
290
     0
176
     1
290
     0
176
     1
290
     0
176
     1
290
     0
176
     1
290
     0
176
     1
 90
       50
176
     1
 40
0.0
176
     1
 40
1.0
176
     1
 90
        0
176
     1
 62
    18
420
        0
176
     1
 90
       50
176
     1
 90
        3
176
     1
 62
     5
420
      255
176
     1
290
     0
176
     1
 90
       50
176
     1
 90
       50
176
     1
 90
       50
176
     1
290
     0
176
     1
 90
       50
176
     1
 62
   256
176
     0
 40
1.0
176
     0
 90
        2
176
     1
  1
strokes_ogs.tif
176
     1
290
     0
176
     1
 40
1.0
176
     1
 40
1.0
176
     1
  0
VISUALSTYLE
  5
3D
102
{ACAD_REACTORS
330
29
102
}
330
29
100
AcDbVisualStyle
  2
Shaded with edges
 70
    26
177
     3
291
     0
 70
    58
 90
        2
176
     1
 90
        2
176
     1
 90
        1
176
     1
 90
        2
176
     1
 40
0.6
176
     1
 40
30.0
176
     1
 62
     7
420
 16777215
176
     1
 90
        1
176
     1
 90
        2
176
     1
 62
     7
176
     1
 62
   257
176
     1
 90
        2
176
     1
 90
        1
176
     1
 40
1.0
176
     1
 90
        8
176
     1
 62
   257
176
     1
 40
1.0
176
     1
 90
        1
176
     1
 90
        6
176
     1
 90
        2
176
     1
 62
     7
176
     1
 90
        3
176
     1
 90
        0
176
     1
 90
        0
176
     1
290
     0
176
     1
 90
        5
176
     1
 40
0.0
176
     1
 90
        0
176
     1
290
     0
176
     1
290
     1
176
     1
290
     1
176
     1
290
     0
176
     1
290
     0
176
     1
290
     0
176
     1
290
     0
176
     1
290
     0
176
     1
290
     0
176
     1
 90
       50
176
     1
 40
0.0
176
     1
 40
1.0
176
     1
 90
        0
176
     1
 62
    18
420
        0
176
     1
 90
       50
176
     1
 90
        3
176
     1
 62
     5
420
      255
176
     1
290
     0
176
     1
 90
       50
176
     1
 90
       50
176
     1
 90
       50
176
     1
290
     0
176
     1
 90
       50
176
     1
 62
   256
176
     0
 40
1.0
176
     0
 90
        2
176
     1
  1
strokes_ogs.tif
176
     1
290
     0
176
     1
 40
1.0
176
     1
 40
1.0
176
     1
  0
VISUALSTYLE
  5
3A
102
{ACAD_REACTORS
330
29
102
}
330
29
100
AcDbVisualStyle
  2
Shades of Gray
 70
    23
177
     3
291
     0
 70
    58
 90
        2
176
     1
 90
        2
176
     1
 90
        3
176
     1
 90
        0
176
     1
 40
0.6
176
     1
 40
30.0
176
     1
 62
     7
420
 16777215
176
     1
 90
        2
176
     1
 90
        2
176
     1
 62
     7
176
     1
 62
     7
176
     1
 90
        1
176
     1
 90
        1
176
     1
 40
40.0
176
     1
 90
        8
176
     1
 62
     7
176
     1
 40
1.0
176
     1
 90
        1
176
     1
 90
        6
176
     1
 90
        2
176
     1
 62
     7
176
     1
 90
        3
176
     1
 90
        0
176
     1
 90
        0
176
     1
290
     0
176
     1
 90
        1
176
     1
 40
0.0
176
     1
 90
        0
176
     1
290
     0
176
     1
290
     1
176
     1
290
     1
176
     1
290
     0
176
     1
290
     0
176
     1
290
     0
176
     1
290
     0
176
     1
290
     0
176
     1
290
     0
176
     1
 90
       50
176
     1
 40
0.0
176
     1
 40
1.0
176
     1
 90
        0
176
     1
 62
    18
420
        0
176
     1
 90
       50
176
     1
 90
        3
176
     1
 62
     5
420
      255
176
     1
290
     0
176
     1
 90
       50
176
     1
 90
       50
176
     1
 90
       50
176
     1
290
     0
176
     1
 90
       50
176
     1
 62
   256
176
     0
 40
1.0
176
     0
 90
        2
176
     1
  1
strokes_ogs.tif
176
     1
290
     0
176
     1
 40
1.0
176
     1
 40
1.0
176
     1
  0
VISUALSTYLE
  5
3B
102
{ACAD_REACTORS
330
29
102
}
330
29
100
AcDbVisualStyle
  2
Sketchy
 70
    24
177
     3
291
     0
 70
    58
 90
        1
176
     1
 90
        2
176
     1
 90
        2
176
     1
 90
        0
176
     1
 40
0.6
176
     1
 40
30.0
176
     1
 62
     7
420
 16777215
176
     1
 90
        2
176
     1
 90
        2
176
     1
 62
     7
176
     1
 62
     7
176
     1
 90
        1
176
     1
 90
        1
176
     1
 40
40.0
176
     1
 90
       11
176
     1
 62
     7
176
     1
 40
1.0
176
     1
 90
        1
176
     1
 90
        6
176
     1
 90
        2
176
     1
 62
     7
176
     1
 90
        6
176
     1
 90
        0
176
     1
 90
        0
176
     1
290
     0
176
     1
 90
        1
176
     1
 40
0.0
176
     1
 90
        0
176
     1
290
     0
176
     1
290
     1
176
     1
290
     1
176
     1
290
     0
176
     1
290
     0
176
     1
290
     0
176
     1
290
     0
176
     1
290
     0
176
     1
290
     0
176
     1
 90
       50
176
     1
 40
0.0
176
     1
 40
1.0
176
     1
 90
        0
176
     1
 62
    18
420
        0
176
     1
 90
       50
176
     1
 90
        3
176
     1
 62
     5
420
      255
176
     1
290
     0
176
     1
 90
       50
176
     1
 90
       50
176
     1
 90
       50
176
     1
290
     0
176
     1
 90
       50
176
     1
 62
   256
176
     0
 40
1.0
176
     0
 90
        2
176
     1
  1
strokes_ogs.tif
176
     1
290
     0
176
     1
 40
1.0
176
     1
 40
1.0
176
     1
  0
VISUALSTYLE
  5
36
102
{ACAD_REACTORS
330
29
102
}
330
29
100
AcDbVisualStyle
  2
Thicken
 70
    13
177
     3
291
     1
 70
    58
 90
        2
176
     1
 90
        2
176
     1
 90
        0
176
     1
 90
        0
176
     1
 40
0.6
176
     1
 40
30.0
176
     1
 62
     7
420
 16777215
176
     1
 90
        1
176
     1
 90
        4
176
     1
 62
     7
176
     1
 62
   257
176
     1
 90
        1
176
     1
 90
        1
176
     1
 40
1.0
176
     1
 90
       12
176
     1
 62
     7
176
     1
 40
1.0
176
     1
 90
        1
176
     1
 90
        6
176
     1
 90
        2
176
     1
 62
     7
176
     1
 90
        5
176
     1
 90
        0
176
     1
 90
        0
176
     1
290
     0
176
     1
 90
        1
176
     1
 40
0.0
176
     1
 90
        0
176
     1
290
     0
176
     1
290
     1
176
     1
290
     1
176
     1
290
     0
176
     1
290
     0
176
     1
290
     0
176
     1
290
     0
176
     1
290
     0
176
     1
290
     0
176
     1
 90
       50
176
     1
 40
0.0
176
     1
 40
1.0
176
     1
 90
        0
176
     1
 62
    18
420
        0
176
     1
 90
       50
176
     1
 90
        3
176
     1
 62
     5
420
      255
176
     1
290
     0
176
     1
 90
       50
176
     1
 90
       50
176
     1
 90
       50
176
     1
290
     0
176
     1
 90
       50
176
     1
 62
   256
176
     0
 40
1.0
176
     0
 90
        2
176
     1
  1
strokes_ogs.tif
176
     1
290
     0
176
     1
 40
1.0
176
     1
 40
1.0
176
     1
  0
VISUALSTYLE
  5
30
102
{ACAD_REACTORS
330
29
102
}
330
29
100
AcDbVisualStyle
  2
Wireframe
 70
     5
177
     3
291
     0
 70
    58
 90
        0
176
     1
 90
        2
176
     1
 90
        0
176
     1
 90
        0
176
     1
 40
0.6
176
     1
 40
30.0
176
     1
 62
     7
420
 16777215
176
     1
 90
        1
176
     1
 90
        4
176
     1
 62
     7
176
     1
 62
   257
176
     1
 90
        1
176
     1
 90
        1
176
     1
 40
1.0
176
     1
 90
        0
176
     1
 62
   257
176
     1
 40
1.0
176
     1
 90
        1
176
     1
 90
        6
176
     1
 90
        2
176
     1
 62
     7
176
     1
 90
        3
176
     1
 90
        0
176
     1
 90
        0
176
     1
290
     0
176
     1
 90
        1
176
     1
 40
0.0
176
     1
 90
        0
176
     1
290
     0
176
     1
290
     1
176
     1
290
     1
176
     1
290
     0
176
     1
290
     0
176
     1
290
     0
176
     1
290
     0
176
     1
290
     0
176
     1
290
     0
176
     1
 90
       50
176
     1
 40
0.0
176
     1
 40
1.0
176
     1
 90
        0
176
     1
 62
    18
420
        0
176
     1
 90
       50
176
     1
 90
        3
176
     1
 62
     5
420
      255
176
     1
290
     0
176
     1
 90
       50
176
     1
 90
       50
176
     1
 90
       50
176
     1
290
     0
176
     1
 90
       50
176
     1
 62
   256
176
     0
 40
1.0
176
     0
 90
        2
176
     1
  1
strokes_ogs.tif
176
     1
290
     0
176
     1
 40
1.0
176
     1
 40
1.0
176
     1
  0
VISUALSTYLE
  5
3C
102
{ACAD_REACTORS
330
29
102
}
330
29
100
AcDbVisualStyle
  2
X-Ray
 70
    25
177
     3
291
     0
 70
    58
 90
        2
176
     1
 90
        2
176
     1
 90
        1
176
     1
 90
        1
176
     1
 40
0.5
176
     1
 40
30.0
176
     1
 62
     7
420
 16777215
176
     1
 90
        1
176
     1
 90
        0
176
     1
 62
     7
176
     1
 62
   257
176
     1
 90
        1
176
     1
 90
        1
176
     1
 40
1.0
176
     1
 90
        8
176
     1
 62
     7
176
     1
 40
1.0
176
     1
 90
        1
176
     1
 90
        6
176
     1
 90
        2
176
     1
 62
     7
176
     1
 90
        3
176
     1
 90
        0
176
     1
 90
        0
176
     1
290
     0
176
     1
 90
       13
176
     1
 40
0.0
176
     1
 90
        0
176
     1
290
     0
176
     1
290
     1
176
     1
290
     1
176
     1
290
     0
176
     1
290
     0
176
     1
290
     0
176
     1
290
     0
176
     1
290
     0
176
     1
290
     0
176
     1
 90
       50
176
     1
 40
0.0
176
     1
 40
1.0
176
     1
 90
        0
176
     1
 62
    18
420
        0
176
     1
 90
       50
176
     1
 90
        3
176
     1
 62
     5
420
      255
176
     1
290
     0
176
     1
 90
       50
176
     1
 90
       50
176
     1
 90
       50
176
     1
290
     0
176
     1
 90
       50
176
     1
 62
   256
176
     0
 40
1.0
176
     0
 90
        2
176
     1
  1
strokes_ogs.tif
176
     1
290
     0
176
     1
 40
1.0
176
     1
 40
1.0
176
     1
  0
DICTIONARYVAR
  5
279
102
{ACAD_REACTORS
330
274
102
}
330
274
100
DictionaryVariables
280
     0
  1
1:1
  0
DICTIONARYVAR
  5
276
102
{ACAD_REACTORS
330
274
102
}
330
274
100
DictionaryVariables
280
     0
  1
STANDARD
  0
DICTIONARYVAR
  5
275
102
{ACAD_REACTORS
330
274
102
}
330
274
100
DictionaryVariables
280
     0
  1
STANDARD
  0
DICTIONARYVAR
  5
277
102
{ACAD_REACTORS
330
274
102
}
330
274
100
DictionaryVariables
280
     0
  1
Imperial24
  0
DICTIONARYVAR
  5
278
102
{ACAD_REACTORS
330
274
102
}
330
274
100
DictionaryVariables
280
     0
  1
Imperial24
  0
DICTIONARY
  5
1A
330
19
100
AcDbDictionary
280
     1
281
     1
  3
BUMPTILE
360
1C
  3
DIFFUSETILE
360
1B
  3
OPACITYTILE
360
1F
  3
REFLECTIONTILE
360
1E
  3
REFRACTIONTILE
360
20
  3
SPECULARTILE
360
1D
  0
DICTIONARY
  5
12
330
11
100
AcDbDictionary
280
     1
281
     1
  3
BUMPTILE
360
14
  3
DIFFUSETILE
360
13
  3
OPACITYTILE
360
17
  3
REFLECTIONTILE
360
16
  3
REFRACTIONTILE
360
18
  3
SPECULARTILE
360
15
  0
DICTIONARY
  5
22
330
21
100
AcDbDictionary
280
     1
281
     1
  3
BUMPTILE
360
24
  3
DIFFUSETILE
360
23
  3
OPACITYTILE
360
27
  3
REFLECTIONTILE
360
26
  3
REFRACTIONTILE
360
28
  3
SPECULARTILE
360
25
  0
DICTIONARY
  5
27A
330
65
100
AcDbDictionary
280
     1
281
     1
  3
ACAD_ROUNDTRIP_2008_TABLESTYLE_CELLSTYLEMAP
360
27B
  0
XRECORD
  5
1C
102
{ACAD_REACTORS
330
1A
102
}
330
1A
100
AcDbXrecord
280
     1
270
     1
271
     1
  0
XRECORD
  5
1B
102
{ACAD_REACTORS
330
1A
102
}
330
1A
100
AcDbXrecord
280
     1
270
     1
271
     1
  0
XRECORD
  5
1F
102
{ACAD_REACTORS
330
1A
102
}
330
1A
100
AcDbXrecord
280
     1
270
     1
271
     1
  0
XRECORD
  5
1E
102
{ACAD_REACTORS
330
1A
102
}
330
1A
100
AcDbXrecord
280
     1
270
     1
271
     1
  0
XRECORD
  5
20
102
{ACAD_REACTORS
330
1A
102
}
330
1A
100
AcDbXrecord
280
     1
270
     1
271
     1
  0
XRECORD
  5
1D
102
{ACAD_REACTORS
330
1A
102
}
330
1A
100
AcDbXrecord
280
     1
270
     1
271
     1
  0
XRECORD
  5
14
102
{ACAD_REACTORS
330
12
102
}
330
12
100
AcDbXrecord
280
     1
270
     1
271
     1
  0
XRECORD
  5
13
102
{ACAD_REACTORS
330
12
102
}
330
12
100
AcDbXrecord
280
     1
270
     1
271
     1
  0
XRECORD
  5
17
102
{ACAD_REACTORS
330
12
102
}
330
12
100
AcDbXrecord
280
     1
270
     1
271
     1
  0
XRECORD
  5
16
102
{ACAD_REACTORS
330
12
102
}
330
12
100
AcDbXrecord
280
     1
270
     1
271
     1
  0
XRECORD
  5
18
102
{ACAD_REACTORS
330
12
102
}
330
12
100
AcDbXrecord
280
     1
270
     1
271
     1
  0
XRECORD
  5
15
102
{ACAD_REACTORS
330
12
102
}
330
12
100
AcDbXrecord
280
     1
270
     1
271
     1
  0
XRECORD
  5
24
102
{ACAD_REACTORS
330
22
102
}
330
22
100
AcDbXrecord
280
     1
270
     1
271
     1
  0
XRECORD
  5
23
102
{ACAD_REACTORS
330
22
102
}
330
22
100
AcDbXrecord
280
     1
270
     1
271
     1
  0
XRECORD
  5
27
102
{ACAD_REACTORS
330
22
102
}
330
22
100
AcDbXrecord
280
     1
270
     1
271
     1
  0
XRECORD
  5
26
102
{ACAD_REACTORS
330
22
102
}
330
22
100
AcDbXrecord
280
     1
270
     1
271
     1
  0
XRECORD
  5
28
102
{ACAD_REACTORS
330
22
102
}
330
22
100
AcDbXrecord
280
     1
270
     1
271
     1
  0
XRECORD
  5
25
102
{ACAD_REACTORS
330
22
102
}
330
22
100
AcDbXrecord
280
     1
270
     1
271
     1
  0
CELLSTYLEMAP
  5
27B
102
{ACAD_REACTORS
330
27A
102
}
330
27A
100
AcDbCellStyleMap
 90
        3
300
CELLSTYLE
  1
TABLEFORMAT_BEGIN
 90
        5
170
     1
 91
        0
 92
    32768
 62
   257
 93
        1
300
CONTENTFORMAT
  1
CONTENTFORMAT_BEGIN
 90
        0
 91
        0
 92
      512
 93
        0
300

 40
0.0
140
1.0
 94
        5
 62
     0
340
55
144
0.25
309
CONTENTFORMAT_END
171
     0
 94
        0
309
TABLEFORMAT_END
  1
CELLSTYLE_BEGIN
 90
        1
 91
        1
300
_TITLE
309
CELLSTYLE_END
300
CELLSTYLE
  1
TABLEFORMAT_BEGIN
 90
        5
170
     1
 91
        0
 92
        0
 62
   257
 93
        1
300
CONTENTFORMAT
  1
CONTENTFORMAT_BEGIN
 90
        0
 91
        0
 92
      512
 93
        0
300

 40
0.0
140
1.0
 94
        5
 62
     0
340
55
144
0.18
309
CONTENTFORMAT_END
171
     0
 94
        0
309
TABLEFORMAT_END
  1
CELLSTYLE_BEGIN
 90
        2
 91
        1
300
_HEADER
309
CELLSTYLE_END
300
CELLSTYLE
  1
TABLEFORMAT_BEGIN
 90
        5
170
     1
 91
        0
 92
        0
 62
   257
 93
        1
300
CONTENTFORMAT
  1
CONTENTFORMAT_BEGIN
 90
        0
 91
        0
 92
      512
 93
        0
300

 40
0.0
140
1.0
 94
        2
 62
     0
340
55
144
0.18
309
CONTENTFORMAT_END
171
     0
 94
        0
309
TABLEFORMAT_END
  1
CELLSTYLE_BEGIN
 90
        3
 91
        2
300
_DATA
309
CELLSTYLE_END
  0
ENDSEC
  0
EOF
