  0
SECTION
  2
HEADER
  9
$ACADVER
  1
AC1032
  9
$ACADMAINTVER
 90
      155
  9
$DWGCODEPAGE
  3
ANSI_1252
  9
$REQUIREDVERSIONS
160
                 0
  9
$INSBASE
 10
0.0
 20
0.0
 30
0.0
  9
$EXTMIN
 10
1.000000000000000E+20
 20
1.000000000000000E+20
 30
1.000000000000000E+20
  9
$EXTMAX
 10
-1.000000000000000E+20
 20
-1.000000000000000E+20
 30
-1.000000000000000E+20
  9
$LIMMIN
 10
0.0
 20
0.0
  9
$LIMMAX
 10
12.0
 20
9.0
  9
$ORTHOMODE
 70
     0
  9
$REGENMODE
 70
     1
  9
$FILLMODE
 70
     1
  9
$QTEXTMODE
 70
     0
  9
$MIRRTEXT
 70
     0
  9
$LTSCALE
 40
1.0
  9
$ATTMODE
 70
     1
  9
$TEXTSIZE
 40
0.2
  9
$TRACEWID
 40
0.05
  9
$TEXTSTYLE
  7
Standard
  9
$CLAYER
  8
0
  9
$CELTYPE
  6
ByLayer
  9
$CECOLOR
 62
   256
  9
$CELTSCALE
 40
1.0
  9
$DISPSILH
 70
     0
  9
$DIMSCALE
 40
1.0
  9
$DIMASZ
 40
0.18
  9
$DIMEXO
 40
0.0625
  9
$DIMDLI
 40
0.38
  9
$DIMRND
 40
0.0
  9
$DIMDLE
 40
0.0
  9
$DIMEXE
 40
0.18
  9
$DIMTP
 40
0.0
  9
$DIMTM
 40
0.0
  9
$DIMTXT
 40
0.18
  9
$DIMCEN
 40
0.09
  9
$DIMTSZ
 40
0.0
  9
$DIMTOL
 70
     0
  9
$DIMLIM
 70
     0
  9
$DIMTIH
 70
     1
  9
$DIMTOH
 70
     1
  9
$DIMSE1
 70
     0
  9
$DIMSE2
 70
     0
  9
$DIMTAD
 70
     0
  9
$DIMZIN
 70
     0
  9
$DIMBLK
  1

  9
$DIMASO
 70
     1
  9
$DIMSHO
 70
     1
  9
$DIMPOST
  1

  9
$DIMAPOST
  1

  9
$DIMALT
 70
     0
  9
$DIMALTD
 70
     2
  9
$DIMALTF
 40
25.4
  9
$DIMLFAC
 40
1.0
  9
$DIMTOFL
 70
     0
  9
$DIMTVP
 40
0.0
  9
$DIMTIX
 70
     0
  9
$DIMSOXD
 70
     0
  9
$DIMSAH
 70
     0
  9
$DIMBLK1
  1

  9
$DIMBLK2
  1

  9
$DIMSTYLE
  2
Standard
  9
$DIMCLRD
 70
     0
  9
$DIMCLRE
 70
     0
  9
$DIMCLRT
 70
     0
  9
$DIMTFAC
 40
1.0
  9
$DIMGAP
 40
0.09
  9
$DIMJUST
 70
     0
  9
$DIMSD1
 70
     0
  9
$DIMSD2
 70
     0
  9
$DIMTOLJ
 70
     1
  9
$DIMTZIN
 70
     0
  9
$DIMALTZ
 70
     0
  9
$DIMALTTZ
 70
     0
  9
$DIMUPT
 70
     0
  9
$DIMDEC
 70
     4
  9
$DIMTDEC
 70
     4
  9
$DIMALTU
 70
     2
  9
$DIMALTTD
 70
     2
  9
$DIMTXSTY
  7
Standard
  9
$DIMAUNIT
 70
     0
  9
$DIMADEC
 70
     0
  9
$DIMALTRND
 40
0.0
  9
$DIMAZIN
 70
     0
  9
$DIMDSEP
 70
    46
  9
$DIMATFIT
 70
     3
  9
$DIMFRAC
 70
     0
  9
$DIMLDRBLK
  1

  9
$DIMLUNIT
 70
     2
  9
$DIMLWD
 70
    -2
  9
$DIMLWE
 70
    -2
  9
$DIMTMOVE
 70
     0
  9
$DIMFXL
 40
1.0
  9
$DIMFXLON
 70
     0
  9
$DIMJOGANG
 40
0.7853981633974483
  9
$DIMTFILL
 70
     0
  9
$DIMTFILLCLR
 70
     0
  9
$DIMARCSYM
 70
     0
  9
$DIMLTYPE
  6

  9
$DIMLTEX1
  6

  9
$DIMLTEX2
  6

  9
$DIMTXTDIRECTION
 70
     0
  9
$LUNITS
 70
     2
  9
$LUPREC
 70
     4
  9
$SKETCHINC
 40
0.1
  9
$FILLETRAD
 40
0.0
  9
$AUNITS
 70
     0
  9
$AUPREC
 70
     0
  9
$MENU
  1
.
  9
$ELEVATION
 40
0.0
  9
$PELEVATION
 40
0.0
  9
$THICKNESS
 40
0.0
  9
$LIMCHECK
 70
     0
  9
$CHAMFERA
 40
0.0
  9
$CHAMFERB
 40
0.0
  9
$CHAMFERC
 40
0.0
  9
$CHAMFERD
 40
0.0
  9
$SKPOLY
 70
     0
  9
$TDCREATE
 40
2459975.571921297
  9
$TDUCREATE
 40
2459975.530254630
  9
$TDUPDATE
 40
2459975.571921297
  9
$TDUUPDATE
 40
2459975.530254630
  9
$TDINDWG
 40
0.0000000000
  9
$TDUSRTIMER
 40
0.0000000000
  9
$USRTIMER
 70
     1
  9
$ANGBASE
 50
0.0
  9
$ANGDIR
 70
     0
  9
$PDMODE
 70
     0
  9
$PDSIZE
 40
0.0
  9
$PLINEWID
 40
0.0
  9
$SPLFRAME
 70
     0
  9
$SPLINETYPE
 70
     6
  9
$SPLINESEGS
 70
     8
  9
$HANDSEED
  5
1BD
  9
$SURFTAB1
 70
     6
  9
$SURFTAB2
 70
     6
  9
$SURFTYPE
 70
     6
  9
$SURFU
 70
     6
  9
$SURFV
 70
     6
  9
$UCSBASE
  2

  9
$UCSNAME
  2

  9
$UCSORG
 10
0.0
 20
0.0
 30
0.0
  9
$UCSXDIR
 10
1.0
 20
0.0
 30
0.0
  9
$UCSYDIR
 10
0.0
 20
1.0
 30
0.0
  9
$UCSORTHOREF
  2

  9
$UCSORTHOVIEW
 70
     0
  9
$UCSORGTOP
 10
0.0
 20
0.0
 30
0.0
  9
$UCSORGBOTTOM
 10
0.0
 20
0.0
 30
0.0
  9
$UCSORGLEFT
 10
0.0
 20
0.0
 30
0.0
  9
$UCSORGRIGHT
 10
0.0
 20
0.0
 30
0.0
  9
$UCSORGFRONT
 10
0.0
 20
0.0
 30
0.0
  9
$UCSORGBACK
 10
0.0
 20
0.0
 30
0.0
  9
$PUCSBASE
  2

  9
$PUCSNAME
  2

  9
$PUCSORG
 10
0.0
 20
0.0
 30
0.0
  9
$PUCSXDIR
 10
1.0
 20
0.0
 30
0.0
  9
$PUCSYDIR
 10
0.0
 20
1.0
 30
0.0
  9
$PUCSORTHOREF
  2

  9
$PUCSORTHOVIEW
 70
     0
  9
$PUCSORGTOP
 10
0.0
 20
0.0
 30
0.0
  9
$PUCSORGBOTTOM
 10
0.0
 20
0.0
 30
0.0
  9
$PUCSORGLEFT
 10
0.0
 20
0.0
 30
0.0
  9
$PUCSORGRIGHT
 10
0.0
 20
0.0
 30
0.0
  9
$PUCSORGFRONT
 10
0.0
 20
0.0
 30
0.0
  9
$PUCSORGBACK
 10
0.0
 20
0.0
 30
0.0
  9
$USERI1
 70
     0
  9
$USERI2
 70
     0
  9
$USERI3
 70
     0
  9
$USERI4
 70
     0
  9
$USERI5
 70
     0
  9
$USERR1
 40
0.0
  9
$USERR2
 40
0.0
  9
$USERR3
 40
0.0
  9
$USERR4
 40
0.0
  9
$USERR5
 40
0.0
  9
$WORLDVIEW
 70
     1
  9
$SHADEDGE
 70
     3
  9
$SHADEDIF
 70
    70
  9
$TILEMODE
 70
     1
  9
$MAXACTVP
 70
    64
  9
$PINSBASE
 10
0.0
 20
0.0
 30
0.0
  9
$PLIMCHECK
 70
     0
  9
$PEXTMIN
 10
1.000000000000000E+20
 20
1.000000000000000E+20
 30
1.000000000000000E+20
  9
$PEXTMAX
 10
-1.000000000000000E+20
 20
-1.000000000000000E+20
 30
-1.000000000000000E+20
  9
$PLIMMIN
 10
0.0
 20
0.0
  9
$PLIMMAX
 10
12.0
 20
9.0
  9
$UNITMODE
 70
     0
  9
$VISRETAIN
 70
     1
  9
$PLINEGEN
 70
     0
  9
$PSLTSCALE
 70
     1
  9
$TREEDEPTH
 70
  3020
  9
$CMLSTYLE
  2
Standard
  9
$CMLJUST
 70
     0
  9
$CMLSCALE
 40
1.0
  9
$PROXYGRAPHICS
 70
     1
  9
$MEASUREMENT
 70
     0
  9
$CELWEIGHT
370
    -1
  9
$ENDCAPS
280
     0
  9
$JOINSTYLE
280
     0
  9
$LWDISPLAY
290
     1
  9
$INSUNITS
 70
     4
  9
$HYPERLINKBASE
  1

  9
$STYLESHEET
  1

  9
$XEDIT
290
     1
  9
$CEPSNTYPE
380
     0
  9
$PSTYLEMODE
290
     1
  9
$FINGERPRINTGUID
  2
{D11DFD3B-B3F8-F44F-989F-7AA8A02C225F}
  9
$VERSIONGUID
  2
{2CA20F39-821F-E447-9804-EBB220306663}
  9
$EXTNAMES
290
     1
  9
$PSVPSCALE
 40
0.0
  9
$OLESTARTUP
290
     0
  9
$SORTENTS
280
   127
  9
$INDEXCTL
280
     0
  9
$HIDETEXT
280
     1
  9
$XCLIPFRAME
280
     2
  9
$HALOGAP
280
     0
  9
$OBSCOLOR
 70
   257
  9
$OBSLTYPE
280
     0
  9
$INTERSECTIONDISPLAY
280
     0
  9
$INTERSECTIONCOLOR
 70
   257
  9
$DIMASSOC
280
     2
  9
$PROJECTNAME
  1

  9
$CAMERADISPLAY
290
     0
  9
$LENSLENGTH
 40
50.0
  9
$CAMERAHEIGHT
 40
0.0
  9
$STEPSPERSEC
 40
2.0
  9
$STEPSIZE
 40
6.0
  9
$3DDWFPREC
 40
2.0
  9
$PSOLWIDTH
 40
0.25
  9
$PSOLHEIGHT
 40
4.0
  9
$LOFTANG1
 40
1.570796326794896
  9
$LOFTANG2
 40
1.570796326794896
  9
$LOFTMAG1
 40
0.0
  9
$LOFTMAG2
 40
0.0
  9
$LOFTPARAM
 70
     7
  9
$LOFTNORMALS
280
     1
  9
$LATITUDE
 40
37.795
  9
$LONGITUDE
 40
-122.394
  9
$NORTHDIRECTION
 40
0.0
  9
$TIMEZONE
 70
 -8000
  9
$LIGHTGLYPHDISPLAY
280
     1
  9
$TILEMODELIGHTSYNCH
280
     1
  9
$CMATERIAL
347
11
  9
$SOLIDHIST
280
     0
  9
$SHOWHIST
280
     1
  9
$DWFFRAME
280
     2
  9
$DGNFRAME
280
     0
  9
$REALWORLDSCALE
290
     1
  9
$INTERFERECOLOR
 62
     1
  9
$INTERFEREOBJVS
345
33
  9
$INTERFEREVPVS
346
30
  9
$CSHADOW
280
     0
  9
$SHADOWPLANELOCATION
 40
0.0
  0
ENDSEC
  0
SECTION
  2
CLASSES
  0
CLASS
  1
ACDBDICTIONARYWDFLT
  2
AcDbDictionaryWithDefault
  3
ObjectDBX Classes
 90
        0
 91
        1
280
     0
281
     0
  0
CLASS
  1
MATERIAL
  2
AcDbMaterial
  3
ObjectDBX Classes
 90
     1153
 91
        3
280
     0
281
     0
  0
CLASS
  1
VISUALSTYLE
  2
AcDbVisualStyle
  3
ObjectDBX Classes
 90
     4095
 91
       24
280
     0
281
     0
  0
CLASS
  1
SCALE
  2
AcDbScale
  3
ObjectDBX Classes
 90
     1153
 91
       17
280
     0
281
     0
  0
CLASS
  1
TABLESTYLE
  2
AcDbTableStyle
  3
ObjectDBX Classes
 90
     4095
 91
        1
280
     0
281
     0
  0
CLASS
  1
MLEADERSTYLE
  2
AcDbMLeaderStyle
  3
ACDB_MLEADERSTYLE_CLASS
 90
     4095
 91
        1
280
     0
281
     0
  0
CLASS
  1
ACDBSECTIONVIEWSTYLE
  2
AcDbSectionViewStyle
  3
ObjectDBX Classes
 90
     1025
 91
        1
280
     0
281
     0
  0
CLASS
  1
ACDBDETAILVIEWSTYLE
  2
AcDbDetailViewStyle
  3
ObjectDBX Classes
 90
     1025
 91
        1
280
     0
281
     0
  0
CLASS
  1
DICTIONARYVAR
  2
AcDbDictionaryVar
  3
ObjectDBX Classes
 90
        0
 91
        5
280
     0
281
     0
  0
CLASS
  1
CELLSTYLEMAP
  2
AcDbCellStyleMap
  3
ObjectDBX Classes
 90
     1152
 91
        1
280
     0
281
     0
  0
ENDSEC
  0
SECTION
  2
TABLES
  0
TABLE
  2
VPORT
  5
8
330
0
100
AcDbSymbolTable
 70
     1
  0
VPORT
  5
57
330
8
100
AcDbSymbolTableRecord
100
AcDbViewportTableRecord
  2
*Active
 70
     0
 10
0.0
 20
0.0
 11
1.0
 21
1.0
 12
0.0
 22
0.0
 13
0.0
 23
0.0
 14
1.0
 24
1.0
 15
0.0
 25
0.0
 16
0.0
 26
0.0
 36
1.0
 17
77.37586961336869
 27
172.5611214025045
 37
0.0
 40
352.0246876611093
 41
0.7685631811050794
 42
50.0
 43
0.0
 44
0.0
 50
0.0
 51
0.0
 71
     0
 72
   100
 73
     1
 74
     0
 75
     1
 76
     0
 77
     0
 78
     0
281
     0
 65
     1
110
0.0
120
0.0
130
0.0
111
1.0
121
0.0
131
0.0
112
0.0
122
1.0
132
0.0
 79
     0
146
0.0
 60
     3
 61
     5
292
     1
282
     1
141
0.0
142
0.0
 63
   250
421
  3355443
  0
ENDTAB
  0
TABLE
  2
LTYPE
  5
5
330
0
100
AcDbSymbolTable
 70
     1
  0
LTYPE
  5
5B
330
5
100
AcDbSymbolTableRecord
100
AcDbLinetypeTableRecord
  2
ByBlock
 70
     0
  3

 72
    65
 73
     0
 40
0.0
  0
LTYPE
  5
5C
330
5
100
AcDbSymbolTableRecord
100
AcDbLinetypeTableRecord
  2
ByLayer
 70
     0
  3

 72
    65
 73
     0
 40
0.0
  0
LTYPE
  5
5D
330
5
100
AcDbSymbolTableRecord
100
AcDbLinetypeTableRecord
  2
Continuous
 70
     0
  3
Solid line
 72
    65
 73
     0
 40
0.0
  0
ENDTAB
  0
TABLE
  2
LAYER
  5
2
330
0
100
AcDbSymbolTable
 70
     4
  0
LAYER
  5
54
330
2
100
AcDbSymbolTableRecord
100
AcDbLayerTableRecord
  2
0
 70
     0
 62
     7
  6
Continuous
370
     0
390
F
347
21
348
0
  0
LAYER
  5
78
330
2
100
AcDbSymbolTableRecord
100
AcDbLayerTableRecord
  2
SUPERFICI
 70
     0
 62
     7
  6
Continuous
370
     0
390
F
347
21
348
0
  0
LAYER
  5
1A2
330
2
100
AcDbSymbolTableRecord
100
AcDbLayerTableRecord
  2
IGES
 70
     0
 62
     7
  6
Continuous
370
     0
390
F
347
21
348
0
  0
LAYER
  5
1A7
330
2
100
AcDbSymbolTableRecord
100
AcDbLayerTableRecord
  2
RACCORDO
 70
     0
 62
     7
  6
Continuous
370
     0
390
F
347
21
348
0
  0
ENDTAB
  0
TABLE
  2
STYLE
  5
3
330
0
100
AcDbSymbolTable
 70
     2
  0
STYLE
  5
55
330
3
100
AcDbSymbolTableRecord
100
AcDbTextStyleTableRecord
  2
Standard
 70
     0
 40
0.0
 41
1.0
 50
0.0
 71
     0
 42
0.2
  3
txt
  4

  0
STYLE
  5
5A
330
3
100
AcDbSymbolTableRecord
100
AcDbTextStyleTableRecord
  2
Annotative
 70
     0
 40
0.0
 41
1.0
 50
0.0
 71
     0
 42
0.2
  3
txt
  4

1001
AcadAnnotative
1000
AnnotativeData
1002
{
1070
     1
1070
     1
1002
}
  0
ENDTAB
  0
TABLE
  2
VIEW
  5
6
330
0
100
AcDbSymbolTable
 70
     0
  0
ENDTAB
  0
TABLE
  2
UCS
  5
7
330
0
100
AcDbSymbolTable
 70
     0
  0
ENDTAB
  0
TABLE
  2
APPID
  5
9
330
0
100
AcDbSymbolTable
 70
     2
  0
APPID
  5
56
330
9
100
AcDbSymbolTableRecord
100
AcDbRegAppTableRecord
  2
ACAD
 70
     0
  0
APPID
  5
5E
330
9
100
AcDbSymbolTableRecord
100
AcDbRegAppTableRecord
  2
AcadAnnotative
 70
     0
  0
ENDTAB
  0
TABLE
  2
DIMSTYLE
  5
A
330
0
100
AcDbSymbolTable
 70
     2
100
AcDbDimStyleTable
 71
     0
  0
DIMSTYLE
105
58
330
A
100
AcDbSymbolTableRecord
100
AcDbDimStyleTableRecord
  2
Standard
 70
     0
340
55
  0
DIMSTYLE
105
59
330
A
100
AcDbSymbolTableRecord
100
AcDbDimStyleTableRecord
  2
Annotative
 70
     0
340
55
1001
AcadAnnotative
1000
AnnotativeData
1002
{
1070
     1
1070
     1
1002
}
  0
ENDTAB
  0
TABLE
  2
BLOCK_RECORD
  5
1
330
0
100
AcDbSymbolTable
 70
     1
  0
BLOCK_RECORD
  5
70
330
1
100
AcDbSymbolTableRecord
100
AcDbBlockTableRecord
  2
*Model_Space
340
73
 70
     0
280
     1
281
     0
  0
BLOCK_RECORD
  5
6C
330
1
100
AcDbSymbolTableRecord
100
AcDbBlockTableRecord
  2
*Paper_Space
340
6F
 70
     0
280
     1
281
     0
  0
BLOCK_RECORD
  5
74
330
1
100
AcDbSymbolTableRecord
100
AcDbBlockTableRecord
  2
*Paper_Space0
340
77
 70
     0
280
     1
281
     0
  0
ENDTAB
  0
ENDSEC
  0
SECTION
  2
BLOCKS
  0
BLOCK
  5
71
330
70
100
AcDbEntity
  8
0
100
AcDbBlockBegin
  2
*Model_Space
 70
     0
 10
0.0
 20
0.0
 30
0.0
  3
*Model_Space
  1

  0
ENDBLK
  5
72
330
70
100
AcDbEntity
  8
0
100
AcDbBlockEnd
  0
BLOCK
  5
6D
330
6C
100
AcDbEntity
 67
     1
  8
0
100
AcDbBlockBegin
  2
*Paper_Space
 70
     0
 10
0.0
 20
0.0
 30
0.0
  3
*Paper_Space
  1

  0
ENDBLK
  5
6E
330
6C
100
AcDbEntity
 67
     1
  8
0
100
AcDbBlockEnd
  0
BLOCK
  5
75
330
74
100
AcDbEntity
 67
     1
  8
0
100
AcDbBlockBegin
  2
*Paper_Space0
 70
     0
 10
0.0
 20
0.0
 30
0.0
  3
*Paper_Space0
  1

  0
ENDBLK
  5
76
330
74
100
AcDbEntity
 67
     1
  8
0
100
AcDbBlockEnd
  0
ENDSEC
  0
SECTION
  2
ENTITIES
  0
LWPOLYLINE
  5
79
330
70
100
AcDbEntity
  8
SUPERFICI
 62
    18
420
        0
370
    25
100
AcDbPolyline
 90
        6
 70
     0
 43
0.0
 10
-54.79339265930009
 20
341.6444455101089
 10
-54.86219412839992
 20
341.5359573282091
 10
-54.92603642130013
 20
341.4172575361092
 10
-54.98136149380001
 20
341.2936111378093
 10
-55.02787291820006
 20
341.165637862509
 10
-55.06096714030003
 20
341.0512206098091
  0
LINE
  5
7A
330
70
100
AcDbEntity
  8
SUPERFICI
 62
    18
420
        0
370
    25
100
AcDbLine
 10
-54.79313513310008
 20
341.6444132956091
 30
0.0
 11
-52.94873184299984
 21
344.3313654552091
 31
0.0
  0
LWPOLYLINE
  5
7B
330
70
100
AcDbEntity
  8
SUPERFICI
 62
   250
420
  3355443
370
    25
100
AcDbPolyline
 90
       13
 70
     0
 43
0.0
 10
-52.46274523040014
 20
342.0654567994089
 10
-52.51064273899995
 20
341.9969435308089
 10
-52.55718825699991
 20
341.9211875798089
 10
-52.60213358999987
 20
341.838782712809
 10
-52.64520126649999
 20
341.750363321409
 10
-52.68588315799984
 20
341.6569722665092
 10
-52.72359345150004
 20
341.559843672109
 10
-52.75783730960007
 20
341.460103605309
 10
-52.78822096220006
 20
341.3589533055091
 10
-52.81434147349991
 20
341.2577580928091
 10
-52.83588745679995
 20
341.1576976169089
 10
-52.85275514850015
 20
341.0595302163092
 10
-52.86487431099998
 20
340.9639763527092
  0
LWPOLYLINE
  5
7C
330
70
100
AcDbEntity
  8
SUPERFICI
 62
   250
420
  3355443
370
    25
100
AcDbPolyline
 90
       14
 70
     0
 43
0.0
 10
-54.79236812559989
 20
341.6455319374092
 10
-54.77044156080002
 20
341.676491831409
 10
-54.66125594369986
 20
341.8069555566089
 10
-54.53514934060006
 20
341.9227157378092
 10
-54.39323264310004
 20
342.022715539809
 10
-54.23664907729996
 20
342.1061438219089
 10
-54.06670837080016
 20
342.172300361909
 10
-53.88498775549992
 20
342.220538016409
 10
-53.69217707320001
 20
342.250680358809
 10
-53.49064412980013
 20
342.262189390009
 10
-53.28493337930006
 20
342.254805065709
 10
-53.07793516579998
 20
342.2292876685091
 10
-52.87053263049983
 20
342.186652407409
 10
-52.66443254929994
 20
342.1278769353091
  0
LWPOLYLINE
  5
7D
330
70
100
AcDbEntity
  8
SUPERFICI
 62
    18
420
        0
370
    25
100
AcDbPolyline
 90
        9
 70
     0
 43
0.0
 10
-55.06070837020012
 20
341.0504577890092
 10
-55.07222359160002
 20
341.002479716909
 10
-55.09505926119987
 20
340.8814785962091
 10
-55.11032528059987
 20
340.759710617409
 10
-55.11923288409992
 20
340.6381470449089
 10
-55.12309289940005
 20
340.5177236306091
 10
-55.12325478679993
 20
340.3993317146091
 10
-55.12078093630016
 20
340.282647113109
 10
-55.11214694600006
 20
340.052034952109
  0
LINE
  5
7E
330
70
100
AcDbEntity
  8
SUPERFICI
 62
    18
420
        0
370
    25
100
AcDbLine
 10
-55.06112185049989
 20
341.0506140858089
 30
0.0
 11
-55.06096714030003
 21
341.0512206098091
 31
0.0
  0
LWPOLYLINE
  5
7F
330
70
100
AcDbEntity
  8
SUPERFICI
 62
   250
420
  3355443
370
    25
100
AcDbPolyline
 90
       10
 70
     0
 43
0.0
 10
-54.65889637669992
 20
340.304709666109
 10
-54.66990600930013
 20
340.2617411474092
 10
-54.67950383670001
 20
340.218179163209
 10
-54.68773834590006
 20
340.173741063709
 10
-54.69455557559995
 20
340.127867988809
 10
-54.70008594180008
 20
340.0805593586091
 10
-54.70470425820012
 20
340.0324266616092
 10
-54.70861602890014
 20
339.983588323309
 10
-54.71183056519993
 20
339.933730965509
 10
-54.71454899410012
 20
339.883199667109
  0
LWPOLYLINE
  5
80
330
70
100
AcDbEntity
  8
SUPERFICI
 62
   250
420
  3355443
370
    25
100
AcDbPolyline
 90
       10
 70
     0
 43
0.0
 10
-54.11157373409985
 20
340.9375135168092
 10
-54.19775662749984
 20
340.8930627602089
 10
-54.27833728460011
 20
340.841703803309
 10
-54.35301061570008
 20
340.7835313604091
 10
-54.42143109349984
 20
340.7186682864092
 10
-54.48328279670008
 20
340.647328806909
 10
-54.53825986109992
 20
340.5697869877091
 10
-54.58604373600007
 20
340.4866635067091
 10
-54.62634712810011
 20
340.3982437646089
 10
-54.65889638369989
 20
340.3047096596092
  0
LINE
  5
81
330
70
100
AcDbEntity
  8
SUPERFICI
 62
   250
420
  3355443
370
    25
100
AcDbLine
 10
-53.28039898000004
 20
282.576809751909
 30
0.0
 11
-53.29142258050014
 21
282.6842050510091
 31
0.0
  0
LWPOLYLINE
  5
82
330
70
100
AcDbEntity
  8
SUPERFICI
 62
   250
420
  3355443
370
    25
100
AcDbPolyline
 90
        7
 70
     0
 43
0.0
 10
-53.29141983980001
 20
282.6842079644087
 10
-53.29946730289996
 20
282.8726443335089
 10
-53.30410089719992
 20
283.0629026226091
 10
-53.3077904991999
 20
283.2555086918087
 10
-53.31257415339984
 20
283.4508485491092
 10
-53.31874309980014
 20
283.6491171199092
 10
-53.35091244980008
 20
284.4740488374089
  0
LINE
  5
83
330
70
100
AcDbEntity
  8
SUPERFICI
 62
    18
420
        0
370
    25
100
AcDbLine
 10
-55.11214694600006
 20
340.052034952109
 30
0.0
 11
-55.10810163830008
 21
339.937017765909
 31
0.0
  0
LINE
  5
84
330
70
100
AcDbEntity
  8
SUPERFICI
 62
   250
420
  3355443
370
    25
100
AcDbLine
 10
-53.35048637789984
 20
284.4737018153089
 30
0.0
 11
-53.55664500709989
 21
291.6866254888089
 31
0.0
  0
LINE
  5
85
330
70
100
AcDbEntity
  8
SUPERFICI
 62
    18
420
        0
370
    25
100
AcDbLine
 10
-53.73697799180003
 20
284.7127086146092
 30
0.0
 11
-53.7119871485
 21
283.8433953573089
 31
0.0
  0
LINE
  5
86
330
70
100
AcDbEntity
  8
SUPERFICI
 62
   250
420
  3355443
370
    25
100
AcDbLine
 10
-53.55664500709989
 20
291.6866254888089
 30
0.0
 11
-53.73997695679999
 21
298.4865194657092
 31
0.0
  0
LINE
  5
87
330
70
100
AcDbEntity
  8
SUPERFICI
 62
    18
420
        0
370
    25
100
AcDbLine
 10
-55.10810163830008
 20
339.937017765909
 30
0.0
 11
-55.10154839510016
 21
339.7015347780092
 31
0.0
  0
LINE
  5
88
330
70
100
AcDbEntity
  8
SUPERFICI
 62
   250
420
  3355443
370
    25
100
AcDbLine
 10
-53.73997695679999
 20
298.4865194657092
 30
0.0
 11
-53.90473312499994
 21
304.850212491009
 31
0.0
  0
LWPOLYLINE
  5
89
330
70
100
AcDbEntity
  8
SUPERFICI
 62
    18
420
        0
370
    25
100
AcDbPolyline
 90
        3
 70
     0
 43
0.0
 10
-53.7119871485
 20
283.8433953573089
 10
-53.70878467520014
 20
283.7084839393092
 10
-53.70631204169992
 20
283.5758184832091
  0
LINE
  5
8A
330
70
100
AcDbEntity
  8
SUPERFICI
 62
   250
420
  3355443
370
    25
100
AcDbLine
 10
-54.37787995189995
 20
324.129218040609
 30
0.0
 11
-53.90473312499994
 21
304.850212491009
 31
0.0
  0
LINE
  5
8B
330
70
100
AcDbEntity
  8
SUPERFICI
 62
    18
420
        0
370
    25
100
AcDbLine
 10
-53.95881832139995
 20
293.6525850554092
 30
0.0
 11
-53.73697799180003
 21
284.7127086146092
 31
0.0
  0
LINE
  5
8C
330
70
100
AcDbEntity
  8
SUPERFICI
 62
    18
420
        0
370
    25
100
AcDbLine
 10
-55.09149566419995
 20
339.2073307725091
 30
0.0
 11
-53.95881832139995
 21
293.6525850554092
 31
0.0
  0
LINE
  5
8D
330
70
100
AcDbEntity
  8
SUPERFICI
 62
    18
420
        0
370
    25
100
AcDbLine
 10
-55.10154839510016
 20
339.7015347780092
 30
0.0
 11
-55.09149566419995
 21
339.2073307725091
 31
0.0
  0
LINE
  5
8E
330
70
100
AcDbEntity
  8
SUPERFICI
 62
   250
420
  3355443
370
    25
100
AcDbLine
 10
-54.68463987379987
 20
338.1045771152091
 30
0.0
 11
-54.37787995189995
 21
324.129218040609
 31
0.0
  0
LWPOLYLINE
  5
8F
330
70
100
AcDbEntity
  8
SUPERFICI
 62
    18
420
        0
370
    25
100
AcDbPolyline
 90
        8
 70
     0
 43
0.0
 10
-53.70631204169992
 20
283.5758184832091
 10
-53.70329948799992
 20
283.3173130209088
 10
-53.70034773450006
 20
283.1863940271087
 10
-53.69418666100004
 20
283.0507099994089
 10
-53.68329778049999
 20
282.9108019579089
 10
-53.66598517549984
 20
282.7691236863093
 10
-53.6407546871999
 20
282.6279325254089
 10
-53.61478161770001
 20
282.519120600709
  0
LINE
  5
90
330
70
100
AcDbEntity
  8
SUPERFICI
 62
   250
420
  3355443
370
    25
100
AcDbLine
 10
-54.69371382369991
 20
338.9207808831092
 30
0.0
 11
-54.68506596529985
 21
338.1049249261089
 31
0.0
  0
LWPOLYLINE
  5
91
330
70
100
AcDbEntity
  8
SUPERFICI
 62
   250
420
  3355443
370
    25
100
AcDbPolyline
 90
        6
 70
     0
 43
0.0
 10
-54.71434046140007
 20
339.8833823119089
 10
-54.71307144229992
 20
339.6973107266092
 10
-54.70824248930001
 20
339.507189474809
 10
-54.70233457769991
 20
339.3139905717089
 10
-54.69739540970008
 20
339.1184882459091
 10
-54.69371382369991
 20
338.9207808831092
  0
LWPOLYLINE
  5
92
330
70
100
AcDbEntity
  8
SUPERFICI
 62
   250
420
  3355443
370
    25
100
AcDbPolyline
 90
        8
 70
     0
 43
0.0
 10
-53.61473360500014
 20
282.5189390733091
 10
-53.59095835189997
 20
282.4577170669089
 10
-53.5553455454999
 20
282.403658102009
 10
-53.50792745489994
 20
282.3548449118088
 10
-53.44945625720011
 20
282.3118318819089
 10
-53.38054438500011
 20
282.2749157876092
 10
-53.30183296469993
 20
282.2444743038088
 10
-53.2139692002999
 20
282.2209063767093
  0
LWPOLYLINE
  5
93
330
70
100
AcDbEntity
  8
SUPERFICI
 62
    18
420
        0
370
    25
100
AcDbPolyline
 90
       45
 70
     0
 43
0.0
 10
-53.61470350479988
 20
282.5187242029089
 10
-53.59758536240001
 20
282.4579278918093
 10
-53.53599055100008
 20
282.274228633409
 10
-53.46762882330005
 20
282.1089065459089
 10
-53.39655236669993
 20
281.9627787593088
 10
-53.32515665650003
 20
281.833908561509
 10
-53.25374501209996
 20
281.7181846745091
 10
-53.18445642350006
 20
281.6156757508093
 10
-53.11832833909998
 20
281.5251717117093
 10
-53.05255359020012
 20
281.4411616090089
 10
-52.98655572660011
 20
281.3620885725088
 10
-52.92180778620013
 20
281.2889951141092
 10
-52.85791281939993
 20
281.2207549072093
 10
-52.79511628839985
 20
281.1570946931093
 10
-52.73375399899996
 20
281.0978716416093
 10
-52.67342984000003
 20
281.0423040137089
 10
-52.61432137450002
 20
280.9902436799091
 10
-52.55665461290004
 20
280.9416077721092
 10
-52.50003127230006
 20
280.8958246543091
 10
-52.44454569880007
 20
280.8527790590088
 10
-52.39037383160004
 20
280.8124243622088
 10
-52.33720465319991
 20
280.7743703832088
 10
-52.28509578019998
 20
280.7385290843093
 10
-52.23419705830014
 20
280.7048618414091
 10
-52.18429586389994
 20
280.6730828272092
 10
-52.13542075400011
 20
280.6430835929088
 10
-52.08764331640014
 20
280.6147804732089
 10
-52.0408024208001
 20
280.587958955409
 10
-51.99493761230017
 20
280.5625393399091
 10
-51.95008704890007
 20
280.5384844635093
 10
-51.90607079709985
 20
280.5156828703089
 10
-51.86287969759995
 20
280.4941182086088
 10
-51.82056336470015
 20
280.4737858267094
 10
-51.77902987839996
 20
280.4545669754089
 10
-51.73832278650003
 20
280.4364045106089
 10
-51.69845269109988
 20
280.4192310654089
 10
-51.6592854186001
 20
280.402933112709
 10
-51.62085339750005
 20
280.3874896555088
 10
-51.58319104920003
 20
280.3728828045091
 10
-51.54616838790013
 20
280.3590345987093
 10
-51.50963322959985
 20
280.345874580109
 10
-51.4737118387
 20
280.3334521280092
 10
-51.43872921640014
 20
280.321850351709
 10
-51.40507224919988
 20
280.3110198980092
 10
-51.30730152229996
 20
280.2800976150091
  0
LWPOLYLINE
  5
94
330
70
100
AcDbEntity
  8
SUPERFICI
 62
   250
420
  3355443
370
    25
100
AcDbPolyline
 90
        8
 70
     0
 43
0.0
 10
-53.21394903390013
 20
282.2209263293091
 10
-53.2270034983999
 20
282.2701174701091
 10
-53.2389695651999
 20
282.3198914215089
 10
-53.24977481670001
 20
282.3702134432089
 10
-53.25911588909989
 20
282.420950898209
 10
-53.26709906239988
 20
282.4721637042088
 10
-53.27418877229985
 20
282.5240993837093
 10
-53.28039898000004
 20
282.576809751909
  0
LWPOLYLINE
  5
95
330
70
100
AcDbEntity
  8
SUPERFICI
 62
   250
420
  3355443
370
    25
100
AcDbPolyline
 90
        7
 70
     0
 43
0.0
 10
-51.35991201350013
 20
280.4671429812087
 10
-51.34383738699986
 20
280.4065579198091
 10
-51.32313724219987
 20
280.3550933456092
 10
-51.29798267739996
 20
280.3131243454093
 10
-51.26851130560015
 20
280.2810047612092
 10
-51.23484891820008
 20
280.259100537009
 10
-51.21770043129999
 20
280.2524419268091
  0
LINE
  5
96
330
70
100
AcDbEntity
  8
SUPERFICI
 62
    18
420
        0
370
    25
100
AcDbLine
 10
-53.61478161770001
 20
282.519120600709
 30
0.0
 11
-53.61473360500014
 21
282.5189390733091
 31
0.0
  0
LWPOLYLINE
  5
97
330
70
100
AcDbEntity
  8
SUPERFICI
 62
   250
420
  3355443
370
    25
100
AcDbPolyline
 90
       10
 70
     0
 43
0.0
 10
-52.62676872100001
 20
281.2508036553091
 10
-52.71526064029997
 20
281.3464591989088
 10
-52.79885015380012
 20
281.4460344803091
 10
-52.87715013030013
 20
281.5491778846092
 10
-52.94956079329987
 20
281.655208752409
 10
-53.01581273919996
 20
281.7638842717088
 10
-53.07574189689997
 20
281.8750651918092
 10
-53.12903000699987
 20
281.9885199854093
 10
-53.17523267229995
 20
282.103917841309
 10
-53.21394903390013
 20
282.2209263293091
  0
LWPOLYLINE
  5
98
330
70
100
AcDbEntity
  8
SUPERFICI
 62
   250
420
  3355443
370
    25
100
AcDbPolyline
 90
       16
 70
     0
 43
0.0
 10
-35.98466165020007
 20
322.168084643809
 10
-35.87604215220016
 20
322.3134482191092
 10
-35.75159935020008
 20
322.4456482377091
 10
-35.61222212959986
 20
322.5640001273089
 10
-35.45890390239991
 20
322.6678407955091
 10
-35.29253924979986
 20
322.7565603628091
 10
-35.11389682619995
 20
322.8295617271091
 10
-34.92387677700011
 20
322.8863152118091
 10
-34.72390331609989
 20
322.926571413409
 10
-34.5155689304001
 20
322.950262680509
 10
-34.30014074319988
 20
322.9572566731091
 10
-34.07885103429999
 20
322.9473200733091
 10
-33.8533213274
 20
322.920609057809
 10
-33.6250383493999
 20
322.8774568863092
 10
-33.39528348739996
 20
322.8181485725091
 10
-33.09487926870006
 20
322.7200611950089
  0
LINE
  5
99
330
70
100
AcDbEntity
  8
SUPERFICI
 62
   250
420
  3355443
370
    25
100
AcDbLine
 10
-36.26405037530015
 20
321.4182557152089
 30
0.0
 11
-36.26119433170004
 21
321.436985135609
 31
0.0
  0
LWPOLYLINE
  5
9A
330
70
100
AcDbEntity
  8
SUPERFICI
 62
   250
420
  3355443
370
    25
100
AcDbPolyline
 90
        7
 70
     0
 43
0.0
 10
-36.26119433170004
 20
321.436985135609
 10
-36.25823696830002
 20
321.455586738409
 10
-36.25671844820003
 20
321.4648503550092
 10
-36.25516472259999
 20
321.474074158409
 10
-36.25357287150005
 20
321.4832561080091
 10
-36.2519444771
 20
321.4924063100091
 10
-36.25027885629998
 20
321.501528721509
  0
LWPOLYLINE
  5
9B
330
70
100
AcDbEntity
  8
SUPERFICI
 62
   250
420
  3355443
370
    25
100
AcDbPolyline
 90
       10
 70
     0
 43
0.0
 10
-36.25029084809987
 20
321.5015421527092
 10
-36.23365750719994
 20
321.5824419537091
 10
-36.21373998750014
 20
321.6618824834091
 10
-36.19055285969992
 20
321.7397721158091
 10
-36.16408422199994
 20
321.816072781409
 10
-36.13437132360002
 20
321.8906339758091
 10
-36.10152435219998
 20
321.9632086007091
 10
-36.06561399010003
 20
322.0336680035091
 10
-36.02664762859986
 20
322.101986134109
 10
-35.98466165020007
 20
322.168084643809
  0
LWPOLYLINE
  5
9C
330
70
100
AcDbEntity
  8
SUPERFICI
 62
   250
420
  3355443
370
    25
100
AcDbPolyline
 90
       16
 70
     0
 43
0.0
 10
-35.0912334251
 20
320.4584962983091
 10
-35.05891264459992
 20
320.582807998009
 10
-35.0122653975
 20
320.6992656927091
 10
-34.95159579260004
 20
320.8069566598092
 10
-34.87736140999987
 20
320.9051095234089
 10
-34.79026818769995
 20
320.9928145495088
 10
-34.69125183789992
 20
321.069074879609
 10
-34.58119252769988
 20
321.1331109765091
 10
-34.46093280139999
 20
321.184451653509
 10
-34.33152824520007
 20
321.222740441809
 10
-34.19410187140007
 20
321.247694790509
 10
-34.04990420340006
 20
321.2591325461091
 10
-33.90018520630011
 20
321.2569462004092
 10
-33.74613031429991
 20
321.2411515818089
 10
-33.58879255610002
 20
321.2117977617091
 10
-33.42897028269987
 20
321.168979737509
  0
LWPOLYLINE
  5
9D
330
70
100
AcDbEntity
  8
SUPERFICI
 62
   250
420
  3355443
370
    25
100
AcDbPolyline
 90
       10
 70
     0
 43
0.0
 10
-33.4277478873
 20
321.1688188881089
 10
-33.37735119530008
 20
321.3469361365091
 10
-33.33194159170009
 20
321.5262449645091
 10
-33.29170435900011
 20
321.7060886386092
 10
-33.25690302710007
 20
321.886320382209
 10
-33.22766080689996
 20
322.065674713909
 10
-33.20385087210003
 20
322.2418374891091
 10
-33.18544041909993
 20
322.413619244709
 10
-33.17260165270002
 20
322.5808847606091
 10
-33.16541571759993
 20
322.742973760209
  0
LWPOLYLINE
  5
9E
330
70
100
AcDbEntity
  8
SUPERFICI
 62
   250
420
  3355443
370
    25
100
AcDbPolyline
 90
       10
 70
     0
 43
0.0
 10
-36.27935962670014
 20
320.9983277845091
 10
-36.28220991410009
 20
321.044040069809
 10
-36.2836246059999
 20
321.0901324142089
 10
-36.2838675009
 20
321.1365003076092
 10
-36.28314463989986
 20
321.1830848520089
 10
-36.28147810280014
 20
321.2298553140092
 10
-36.27878031169986
 20
321.2767686021089
 10
-36.27496169389992
 20
321.323812294209
 10
-36.27006156999987
 20
321.3709885414091
 10
-36.26405231079985
 20
321.418263929709
  0
LINE
  5
9F
330
70
100
AcDbEntity
  8
SUPERFICI
 62
   250
420
  3355443
370
    25
100
AcDbLine
 10
-35.4839172169001
 20
287.7870169384088
 30
0.0
 11
-35.44254765899996
 21
287.1014715164092
 31
0.0
  0
LINE
  5
A0
330
70
100
AcDbEntity
  8
SUPERFICI
 62
   250
420
  3355443
370
    25
100
AcDbLine
 10
-35.44254765899996
 20
287.1014715164092
 30
0.0
 11
-35.43825786710002
 21
287.0234080128088
 31
0.0
  0
LINE
  5
A1
330
70
100
AcDbEntity
  8
SUPERFICI
 62
   250
420
  3355443
370
    25
100
AcDbLine
 10
-35.50593137770005
 20
288.194920917909
 30
0.0
 11
-35.4839172169001
 21
287.7870169384088
 31
0.0
  0
LWPOLYLINE
  5
A2
330
70
100
AcDbEntity
  8
SUPERFICI
 62
   250
420
  3355443
370
    25
100
AcDbPolyline
 90
        5
 70
     0
 43
0.0
 10
-35.43825786710002
 20
287.0234080128088
 10
-35.43080347189994
 20
286.8698787291094
 10
-35.42774002720009
 20
286.7943290937088
 10
-35.42571289790004
 20
286.7197779491087
 10
-35.42305592130002
 20
286.5736859342091
  0
LINE
  5
A3
330
70
100
AcDbEntity
  8
SUPERFICI
 62
   250
420
  3355443
370
    25
100
AcDbLine
 10
-35.52575631339998
 20
288.6056304363091
 30
0.0
 11
-35.50593137770005
 21
288.194920917909
 31
0.0
  0
LINE
  5
A4
330
70
100
AcDbEntity
  8
SUPERFICI
 62
   250
420
  3355443
370
    25
100
AcDbLine
 10
-35.56923651350007
 20
289.6583333568093
 30
0.0
 11
-35.61269084280008
 21
290.6373420242089
 31
0.0
  0
LINE
  5
A5
330
70
100
AcDbEntity
  8
SUPERFICI
 62
   250
420
  3355443
370
    25
100
AcDbLine
 10
-35.54347712330012
 20
289.019025318009
 30
0.0
 11
-35.52575631339998
 21
288.6056304363091
 31
0.0
  0
LWPOLYLINE
  5
A6
330
70
100
AcDbEntity
  8
SUPERFICI
 62
   250
420
  3355443
370
    25
100
AcDbPolyline
 90
        5
 70
     0
 43
0.0
 10
-35.61269084280008
 20
290.6373420242089
 10
-35.62570184980009
 20
290.9682124549091
 10
-35.6358253692999
 20
291.300977050609
 10
-35.64375032390012
 20
291.6357303788093
 10
-35.6500433907
 20
291.9726678242088
  0
LINE
  5
A7
330
70
100
AcDbEntity
  8
SUPERFICI
 62
   250
420
  3355443
370
    25
100
AcDbLine
 10
-35.6500433907
 20
291.9726678242088
 30
0.0
 11
-35.79670049190009
 21
295.9384875887093
 31
0.0
  0
LINE
  5
A8
330
70
100
AcDbEntity
  8
SUPERFICI
 62
   250
420
  3355443
370
    25
100
AcDbLine
 10
-35.54506841180006
 20
289.0188946297091
 30
0.0
 11
-35.56923651350007
 21
289.6583333568093
 31
0.0
  0
LINE
  5
A9
330
70
100
AcDbEntity
  8
SUPERFICI
 62
   250
420
  3355443
370
    25
100
AcDbLine
 10
-35.79670049190009
 20
295.9384875887093
 30
0.0
 11
-35.88511941209999
 21
298.5483069430089
 31
0.0
  0
LWPOLYLINE
  5
AA
330
70
100
AcDbEntity
  8
SUPERFICI
 62
   250
420
  3355443
370
    25
100
AcDbPolyline
 90
       10
 70
     0
 43
0.0
 10
-34.25248604110004
 20
285.6596528011091
 10
-34.25149071099992
 20
285.6293549752093
 10
-34.24980149119988
 20
285.5989061532093
 10
-34.24741956679997
 20
285.5683125693092
 10
-34.24434585060005
 20
285.537582152409
 10
-34.24058196349985
 20
285.5067195576091
 10
-34.2361296785
 20
285.4757259087094
 10
-34.23098986810006
 20
285.444605549909
 10
-34.22516306100005
 20
285.4133663034088
 10
-34.21865003359998
 20
285.382014320609
  0
LWPOLYLINE
  5
AB
330
70
100
AcDbEntity
  8
SUPERFICI
 62
   250
420
  3355443
370
    25
100
AcDbPolyline
 90
        3
 70
     0
 43
0.0
 10
-36.27300723800014
 20
320.779679776109
 10
-36.27763574300011
 20
320.926452679809
 10
-36.27935549809996
 20
320.9983320711091
  0
LINE
  5
AC
330
70
100
AcDbEntity
  8
SUPERFICI
 62
   250
420
  3355443
370
    25
100
AcDbLine
 10
-35.88511941209999
 20
298.5483069430089
 30
0.0
 11
-35.96603094019997
 21
301.170323933009
 31
0.0
  0
LINE
  5
AD
330
70
100
AcDbEntity
  8
SUPERFICI
 62
   250
420
  3355443
370
    25
100
AcDbLine
 10
-35.96603094019997
 20
301.170323933009
 30
0.0
 11
-36.03882678240001
 21
303.8148051544089
 31
0.0
  0
LINE
  5
AE
330
70
100
AcDbEntity
  8
SUPERFICI
 62
   250
420
  3355443
370
    25
100
AcDbLine
 10
-35.04222420069995
 20
317.6807925122089
 30
0.0
 11
-35.10853014319992
 21
320.195922531909
 31
0.0
  0
LINE
  5
AF
330
70
100
AcDbEntity
  8
SUPERFICI
 62
   250
420
  3355443
370
    25
100
AcDbLine
 10
-35.42305592130002
 20
286.5736859342091
 30
0.0
 11
-35.42120451230006
 21
286.502010135909
 31
0.0
  0
LINE
  5
B0
330
70
100
AcDbEntity
  8
SUPERFICI
 62
   250
420
  3355443
370
    25
100
AcDbLine
 10
-34.30823965050006
 20
288.1757434336094
 30
0.0
 11
-35.04222478970009
 21
317.680793337809
 31
0.0
  0
LINE
  5
B1
330
70
100
AcDbEntity
  8
SUPERFICI
 62
   250
420
  3355443
370
    25
100
AcDbLine
 10
-34.30823906149992
 20
288.1757426094091
 30
0.0
 11
-34.24940859449988
 21
285.660585491709
 31
0.0
  0
LINE
  5
B2
330
70
100
AcDbEntity
  8
SUPERFICI
 62
   250
420
  3355443
370
    25
100
AcDbLine
 10
-36.09750206810006
 20
306.455256802309
 30
0.0
 11
-36.03882678250012
 21
303.8148051544089
 31
0.0
  0
LINE
  5
B3
330
70
100
AcDbEntity
  8
SUPERFICI
 62
   250
420
  3355443
370
    25
100
AcDbLine
 10
-36.14681561909991
 20
309.0680834810091
 30
0.0
 11
-36.09750206810006
 21
306.455256802309
 31
0.0
  0
LWPOLYLINE
  5
B4
330
70
100
AcDbEntity
  8
SUPERFICI
 62
   250
420
  3355443
370
    25
100
AcDbPolyline
 90
       10
 70
     0
 43
0.0
 10
-35.11160766010013
 20
320.1949926696092
 10
-35.11212345590015
 20
320.2254397278091
 10
-35.11194211719995
 20
320.255605358409
 10
-35.11106453480006
 20
320.285483962809
 10
-35.1094912071001
 20
320.315066808609
 10
-35.10722357760013
 20
320.3443514151091
 10
-35.1042634828999
 20
320.373341474609
 10
-35.10061162240006
 20
320.4020343646092
 10
-35.09626810980002
 20
320.4304212270092
 10
-35.0912334251
 20
320.4584962983091
  0
LINE
  5
B5
330
70
100
AcDbEntity
  8
SUPERFICI
 62
   250
420
  3355443
370
    25
100
AcDbLine
 10
-36.1878832848001
 20
311.6634215298089
 30
0.0
 11
-36.14681561909991
 21
309.0680834810091
 31
0.0
  0
LINE
  5
B6
330
70
100
AcDbEntity
  8
SUPERFICI
 62
   250
420
  3355443
370
    25
100
AcDbLine
 10
-36.23774934919996
 20
315.5975243900092
 30
0.0
 11
-36.1878832848001
 21
311.6634215298089
 31
0.0
  0
LWPOLYLINE
  5
B7
330
70
100
AcDbEntity
  8
SUPERFICI
 62
   250
420
  3355443
370
    25
100
AcDbPolyline
 90
        5
 70
     0
 43
0.0
 10
-36.26675873130004
 20
316.9298439514092
 10
-36.26339192409993
 20
316.6023519756091
 10
-36.25699221420009
 20
316.2709086985091
 10
-36.24825576910004
 20
315.9358999233092
 10
-36.23774934919996
 20
315.5975243900092
  0
LINE
  5
B8
330
70
100
AcDbEntity
  8
SUPERFICI
 62
   250
420
  3355443
370
    25
100
AcDbLine
 10
-36.2791703751
 20
318.5286406754091
 30
0.0
 11
-36.27167460769999
 21
317.8952415933092
 31
0.0
  0
LWPOLYLINE
  5
B9
330
70
100
AcDbEntity
  8
SUPERFICI
 62
   250
420
  3355443
370
    25
100
AcDbPolyline
 90
        3
 70
     0
 43
0.0
 10
-36.27066353840016
 20
320.6309344338089
 10
-36.27133264920001
 20
320.7054276703091
 10
-36.27300723800014
 20
320.779679776109
  0
LINE
  5
BA
330
70
100
AcDbEntity
  8
SUPERFICI
 62
   250
420
  3355443
370
    25
100
AcDbLine
 10
-36.27754455070011
 20
318.5273830735091
 30
0.0
 11
-36.28025368999987
 21
318.9352400659091
 31
0.0
  0
LINE
  5
BB
330
70
100
AcDbEntity
  8
SUPERFICI
 62
   250
420
  3355443
370
    25
100
AcDbLine
 10
-36.27167460769999
 20
317.8952415933092
 30
0.0
 11
-36.26675873130004
 21
316.9298439514092
 31
0.0
  0
LINE
  5
BC
330
70
100
AcDbEntity
  8
SUPERFICI
 62
   250
420
  3355443
370
    25
100
AcDbLine
 10
-36.28025368999987
 20
318.9352400659091
 30
0.0
 11
-36.28068381480002
 21
319.3387521726091
 31
0.0
  0
LWPOLYLINE
  5
BD
330
70
100
AcDbEntity
  8
SUPERFICI
 62
   250
420
  3355443
370
    25
100
AcDbPolyline
 90
        3
 70
     0
 43
0.0
 10
-36.2710082289999
 20
320.4042853646092
 10
-36.270554795
 20
320.4804374226091
 10
-36.27066353840016
 20
320.6309344338089
  0
LWPOLYLINE
  5
BE
330
70
100
AcDbEntity
  8
SUPERFICI
 62
   250
420
  3355443
370
    25
100
AcDbPolyline
 90
       10
 70
     0
 43
0.0
 10
-35.42120451230006
 20
286.502010135909
 10
-35.42149245700006
 20
286.4567432699093
 10
-35.42071134739986
 20
286.4108430827093
 10
-35.41881869430011
 20
286.3643064476093
 10
-35.4158264129999
 20
286.3171684272089
 10
-35.4117574842001
 20
286.2693908085089
 10
-35.40663459499989
 20
286.220858497209
 10
-35.40044214279993
 20
286.1715054721091
 10
-35.39314603329991
 20
286.121326009309
 10
-35.38471281849986
 20
286.0702752351088
  0
LINE
  5
BF
330
70
100
AcDbEntity
  8
SUPERFICI
 62
   250
420
  3355443
370
    25
100
AcDbLine
 10
-36.28068381480002
 20
319.3387521726091
 30
0.0
 11
-36.27873953490008
 21
319.737625885109
 31
0.0
  0
LWPOLYLINE
  5
C0
330
70
100
AcDbEntity
  8
SUPERFICI
 62
   250
420
  3355443
370
    25
100
AcDbPolyline
 90
        3
 70
     0
 43
0.0
 10
-36.27873953490008
 20
319.737625885109
 10
-36.27461592699989
 20
320.132094577709
 10
-36.2710082289999
 20
320.4042853646092
  0
LWPOLYLINE
  5
C1
330
70
100
AcDbEntity
  8
SUPERFICI
 62
   250
420
  3355443
370
    25
100
AcDbPolyline
 90
       10
 70
     0
 43
0.0
 10
29.00153845879998
 20
266.2368248641091
 10
29.19536066040015
 20
266.262007310909
 10
29.39348019830004
 20
266.2788103446091
 10
29.59474795589976
 20
266.2871010650093
 10
29.79979050190009
 20
266.2861383498093
 10
30.0056889996001
 20
266.2761142646092
 10
30.20627116279986
 20
266.259165814109
 10
30.39922568800029
 20
266.2368266211093
 10
30.58567382639975
 20
266.2091116294089
 10
30.76487569500029
 20
266.1768992687088
  0
LINE
  5
C2
330
70
100
AcDbEntity
  8
SUPERFICI
 62
   250
420
  3355443
370
    25
100
AcDbLine
 10
49.98241217419989
 20
249.3518769832089
 30
0.0
 11
50.03658895809988
 21
249.3412274330093
 31
0.0
  0
LWPOLYLINE
  5
C3
330
70
100
AcDbEntity
  8
SUPERFICI
 62
   250
420
  3355443
370
    25
100
AcDbPolyline
 90
       17
 70
     0
 43
0.0
 10
50.03658895809988
 20
249.3412274330093
 10
50.14377575600026
 20
249.319147514109
 10
50.20114465110017
 20
249.3092495641091
 10
50.26062179019971
 20
249.3009218506089
 10
50.32076252070031
 20
249.2940389546091
 10
50.38167966029983
 20
249.2885552414092
 10
50.44416959779975
 20
249.2847520119094
 10
50.50810538239981
 20
249.2827609859092
 10
50.57305063489996
 20
249.282757280309
 10
50.63887791759991
 20
249.2850452894091
 10
50.70571013129981
 20
249.2899909335091
 10
50.77327176489975
 20
249.2979476457092
 10
50.84131687090007
 20
249.3091527917088
 10
50.90983541680022
 20
249.3239136726089
 10
50.9785805739002
 20
249.3425573685092
 10
51.04703265639987
 20
249.3654002833089
 10
51.11479468640011
 20
249.3927490399094
  0
LWPOLYLINE
  5
C4
330
70
100
AcDbEntity
  8
SUPERFICI
 62
   250
420
  3355443
370
    25
100
AcDbPolyline
 90
        3
 70
     0
 43
0.0
 10
-51.46679400389991
 20
280.505947284309
 10
-51.5227079769001
 20
280.5291055411093
 10
-51.63132239970005
 20
280.5732960905092
  0
LWPOLYLINE
  5
C5
330
70
100
AcDbEntity
  8
SUPERFICI
 62
   250
420
  3355443
370
    25
100
AcDbPolyline
 90
       16
 70
     0
 43
0.0
 10
-51.63132239970005
 20
280.5732960905092
 10
-51.68945688930005
 20
280.5988681131091
 10
-51.74992061859986
 20
280.6273730805092
 10
-51.81106722330016
 20
280.6577363525093
 10
-51.87299294649999
 20
280.6899764947088
 10
-51.93658993230016
 20
280.7248933402089
 10
-52.00172438020013
 20
280.762538534709
 10
-52.06795128690007
 20
280.8028165308091
 10
-52.13518197709997
 20
280.8459653568088
 10
-52.2035933764
 20
280.8924430067092
 10
-52.27294633209989
 20
280.9424448656088
 10
-52.34299621070004
 20
280.9960576461088
 10
-52.41373718259988
 20
281.0535837783088
 10
-52.48493168880006
 20
281.1152015918089
 10
-52.55607289349999
 20
281.1809122554091
 10
-52.62677113409996
 20
281.2507808223092
  0
LWPOLYLINE
  5
C6
330
70
100
AcDbEntity
  8
SUPERFICI
 62
   250
420
  3355443
370
    25
100
AcDbPolyline
 90
       10
 70
     0
 43
0.0
 10
-34.24940859449988
 20
285.660585491709
 10
-34.3344080111999
 20
285.7698202607087
 10
-34.43181940110003
 20
285.875787813109
 10
-34.54117198099992
 20
285.9786378717089
 10
-34.66290814109984
 20
286.0775722430093
 10
-34.79653653859986
 20
286.1717917234093
 10
-34.93990065539987
 20
286.2614203899088
 10
-35.09175533620009
 20
286.3465716099089
 10
-35.25230897370013
 20
286.4268062128088
 10
-35.42113161590008
 20
286.5019780324088
  0
LWPOLYLINE
  5
C7
330
70
100
AcDbEntity
  8
SUPERFICI
 62
   250
420
  3355443
370
    25
100
AcDbPolyline
 90
       16
 70
     0
 43
0.0
 10
-35.06359793879987
 20
285.1427699404088
 10
-34.94605274810012
 20
284.9293346838093
 10
-34.81309728279988
 20
284.7193390085092
 10
-34.66566810589995
 20
284.5140149009089
 10
-34.50480684900009
 20
284.3146376235088
 10
-34.33145208710002
 20
284.1223657706091
 10
-34.1464138235999
 20
283.9382644194088
 10
-33.95063164570011
 20
283.7633893780089
 10
-33.74556332349995
 20
283.598840154909
 10
-33.53282888749996
 20
283.445656313809
 10
-33.31372079980006
 20
283.3047240848091
 10
-33.08950066909989
 20
283.1769891306091
 10
-32.86180532209994
 20
283.063222783109
 10
-32.63212533199999
 20
282.9639129191093
 10
-32.40174513239985
 20
282.8794670121089
 10
-32.10154135529993
 20
282.7894370744094
  0
LWPOLYLINE
  5
C8
330
70
100
AcDbEntity
  8
SUPERFICI
 62
   250
420
  3355443
370
    25
100
AcDbPolyline
 90
       16
 70
     0
 43
0.0
 10
-34.21865003359998
 20
285.382014320609
 10
-34.17961211719991
 20
285.2363077051093
 10
-34.1264196654001
 20
285.0896584472092
 10
-34.05942727699985
 20
284.9431834480093
 10
-33.97913828330005
 20
284.7979504504091
 10
-33.88631512490005
 20
284.6553210478088
 10
-33.78195791520001
 20
284.5168871976092
 10
-33.66699946819987
 20
284.3839856904089
 10
-33.54231892499997
 20
284.2576164701088
 10
-33.40900598080015
 20
284.1387941970089
 10
-33.26821511719987
 20
284.0285013399089
 10
-33.12122517879988
 20
283.9276942085088
 10
-32.96931062560008
 20
283.8372499554091
 10
-32.8136742713
 20
283.7578830379093
 10
-32.65538289250005
 20
283.6901951684093
 10
-32.49524234699998
 20
283.634583104409
  0
LWPOLYLINE
  5
C9
330
70
100
AcDbEntity
  8
SUPERFICI
 62
   250
420
  3355443
370
    25
100
AcDbPolyline
 90
       10
 70
     0
 43
0.0
 10
-35.3665838511999
 20
285.9779087026092
 10
-35.34565692360015
 20
285.8862130609091
 10
-35.32146802679989
 20
285.793950939909
 10
-35.29403652759986
 20
285.701223507409
 10
-35.26335222270011
 20
285.6080609723093
 10
-35.22946046119987
 20
285.5146384316088
 10
-35.19248550749985
 20
285.4212746539094
 10
-35.15250556769992
 20
285.3281434251093
 10
-35.10952942789999
 20
285.2352747676091
 10
-35.06359793879987
 20
285.1427699404088
  0
LINE
  5
CA
330
70
100
AcDbEntity
  8
SUPERFICI
 62
   250
420
  3355443
370
    25
100
AcDbLine
 10
-35.37082891620001
 20
285.9983354184089
 30
0.0
 11
-35.36657202979998
 21
285.977902120509
 31
0.0
  0
LINE
  5
CB
330
70
100
AcDbEntity
  8
SUPERFICI
 62
   250
420
  3355443
370
    25
100
AcDbLine
 10
-35.37494176300013
 20
286.018812408109
 30
0.0
 11
-35.37082891620001
 21
285.9983354184089
 31
0.0
  0
LINE
  5
CC
330
70
100
AcDbEntity
  8
SUPERFICI
 62
   250
420
  3355443
370
    25
100
AcDbLine
 10
-35.37892375399985
 20
286.039355155809
 30
0.0
 11
-35.37494176300013
 21
286.018812408109
 31
0.0
  0
LWPOLYLINE
  5
CD
330
70
100
AcDbEntity
  8
SUPERFICI
 62
   250
420
  3355443
370
    25
100
AcDbPolyline
 90
        3
 70
     0
 43
0.0
 10
-35.38471303310006
 20
286.0702755216088
 10
-35.38280717419984
 20
286.0599468768093
 10
-35.37892375399985
 20
286.039355155809
  0
LWPOLYLINE
  5
CE
330
70
100
AcDbEntity
  8
SUPERFICI
 62
   250
420
  3355443
370
    25
100
AcDbPolyline
 90
        3
 70
     0
 43
0.0
 10
48.31580964509996
 20
249.8294841039091
 10
49.58208798689994
 20
249.464258801409
 10
49.8773691998998
 20
249.3778355858093
  0
LWPOLYLINE
  5
CF
330
70
100
AcDbEntity
  8
SUPERFICI
 62
    18
420
        0
370
    25
100
AcDbPolyline
 90
       23
 70
     0
 43
0.0
 10
50.19733818530029
 20
249.109782414109
 10
50.25811930910021
 20
249.0920620425092
 10
50.32225128499991
 20
249.0746497399089
 10
50.39123566340005
 20
249.0576342818088
 10
50.46563300809999
 20
249.0411727318088
 10
50.54497614949983
 20
249.0257431383092
 10
50.62979454690022
 20
249.0117231650091
 10
50.72021031880027
 20
248.9998114798089
 10
50.81591008750005
 20
248.9907049979089
 10
50.91694573130021
 20
248.9847357632089
 10
51.02262331030006
 20
248.9824946703093
 10
51.13335118299989
 20
248.9848884736093
 10
51.25087633430012
 20
248.9930999197088
 10
51.37456553649984
 20
249.0083962645089
 10
51.50387466130029
 20
249.0320506830089
 10
51.64052084969974
 20
249.0660744263088
 10
51.78700261379996
 20
249.1136418056093
 10
51.93814577529977
 20
249.1760313381091
 10
52.08444676289969
 20
249.2511170271088
 10
52.22319119779971
 20
249.3380094144088
 10
52.35480081049998
 20
249.4375418292089
 10
52.4757456375998
 20
249.5474978612091
 10
52.52431644200018
 20
249.5978160065091
  0
LINE
  5
D0
330
70
100
AcDbEntity
  8
SUPERFICI
 62
   250
420
  3355443
370
    25
100
AcDbLine
 10
47.97614538039995
 20
249.9295553667092
 30
0.0
 11
48.31580964509996
 21
249.8294841039091
 31
0.0
  0
LINE
  5
D1
330
70
100
AcDbEntity
  8
SUPERFICI
 62
   250
420
  3355443
370
    25
100
AcDbLine
 10
45.71579845340019
 20
250.6009068031088
 30
0.0
 11
46.89521541499993
 21
250.254243754909
 31
0.0
  0
LINE
  5
D2
330
70
100
AcDbEntity
  8
SUPERFICI
 62
    18
420
        0
370
    25
100
AcDbLine
 10
50.08578606580006
 20
249.1431735398091
 30
0.0
 11
50.19733818530029
 21
249.109782414109
 31
0.0
  0
LINE
  5
D3
330
70
100
AcDbEntity
  8
SUPERFICI
 62
   250
420
  3355443
370
    25
100
AcDbLine
 10
46.89521541499993
 20
250.254243754909
 30
0.0
 11
47.97614538039995
 21
249.9295553667092
 31
0.0
  0
LINE
  5
D4
330
70
100
AcDbEntity
  8
SUPERFICI
 62
    18
420
        0
370
    25
100
AcDbLine
 10
40.56678968039994
 20
252.0634536357093
 30
0.0
 11
50.08578606580006
 21
249.1431735398091
 31
0.0
  0
LINE
  5
D5
330
70
100
AcDbEntity
  8
SUPERFICI
 62
   250
420
  3355443
370
    25
100
AcDbLine
 10
35.08509343810024
 20
253.8604473365087
 30
0.0
 11
-42.98048664780011
 21
277.8337930803089
 31
0.0
  0
LWPOLYLINE
  5
D6
330
70
100
AcDbEntity
  8
SUPERFICI
 62
   250
420
  3355443
370
    25
100
AcDbPolyline
 90
        3
 70
     0
 43
0.0
 10
35.08509343810024
 20
253.8604473365087
 10
37.25302141569997
 20
253.1937849729089
 10
45.71581050199974
 20
250.6008981583088
  0
LINE
  5
D7
330
70
100
AcDbEntity
  8
SUPERFICI
 62
   250
420
  3355443
370
    25
100
AcDbLine
 10
-42.98048664780011
 20
277.8337930803089
 30
0.0
 11
-47.17289977569987
 21
279.1261229402089
 31
0.0
  0
LWPOLYLINE
  5
D8
330
70
100
AcDbEntity
  8
SUPERFICI
 62
   250
420
  3355443
370
    25
100
AcDbPolyline
 90
       10
 70
     0
 43
0.0
 10
-51.35991922409995
 20
280.4671453340091
 10
-51.37131975280008
 20
280.470664262809
 10
-51.38276723029998
 20
280.4742524920089
 10
-51.39430856219989
 20
280.4779878578094
 10
-51.4060412771001
 20
280.4820225510089
 10
-51.41796662539994
 20
280.4863692746094
 10
-51.4299856372999
 20
280.4908944854089
 10
-51.44209400760004
 20
280.4956019443089
 10
-51.45437918339998
 20
280.5006314859093
 10
-51.46679400389991
 20
280.505947284309
  0
LINE
  5
D9
330
70
100
AcDbEntity
  8
SUPERFICI
 62
    18
420
        0
370
    25
100
AcDbLine
 10
-51.30730152229996
 20
280.2800976150091
 30
0.0
 11
40.56678968039994
 21
252.0634536357093
 31
0.0
  0
LWPOLYLINE
  5
DA
330
70
100
AcDbEntity
  8
SUPERFICI
 62
   250
420
  3355443
370
    25
100
AcDbPolyline
 90
       10
 70
     0
 43
0.0
 10
49.8773691998998
 20
249.3778355858093
 10
49.88875652100014
 20
249.3742826043093
 10
49.90022356589975
 20
249.3708866928088
 10
49.91176906319968
 20
249.3676530576093
 10
49.92339712999989
 20
249.364589475109
 10
49.93510073249989
 20
249.361700167109
 10
49.9468617944003
 20
249.358985346709
 10
49.95867319410014
 20
249.3564495989091
 10
49.97053859690028
 20
249.3541023776089
 10
49.9824556885003
 20
249.3519515134094
  0
LINE
  5
DB
330
70
100
AcDbEntity
  8
SUPERFICI
 62
   250
420
  3355443
370
    25
100
AcDbLine
 10
-48.36230994849985
 20
279.5069087454091
 30
0.0
 11
-49.44700685809987
 21
279.8472634310092
 31
0.0
  0
LINE
  5
DC
330
70
100
AcDbEntity
  8
SUPERFICI
 62
   250
420
  3355443
370
    25
100
AcDbLine
 10
-47.17289349399985
 20
279.1261259559088
 30
0.0
 11
-48.36230994849985
 21
279.5069087454091
 31
0.0
  0
LINE
  5
DD
330
70
100
AcDbEntity
  8
SUPERFICI
 62
   250
420
  3355443
370
    25
100
AcDbLine
 10
-49.44700685809987
 20
279.8472634310092
 30
0.0
 11
-50.12078867749988
 21
280.0640596778089
 31
0.0
  0
LWPOLYLINE
  5
DE
330
70
100
AcDbEntity
  8
SUPERFICI
 62
   250
420
  3355443
370
    25
100
AcDbPolyline
 90
        3
 70
     0
 43
0.0
 10
-50.12078867749988
 20
280.0640596778089
 10
-50.7580473715
 20
280.272563934209
 10
-51.36007932230012
 20
280.4668771582088
  0
LWPOLYLINE
  5
DF
330
70
100
AcDbEntity
  8
SUPERFICI
 62
   250
420
  3355443
370
    25
100
AcDbPolyline
 90
        6
 70
     0
 43
0.0
 10
-0.6015252896998478
 20
264.7055492092093
 10
-0.631149113799946
 20
264.7187807548089
 10
-0.6605932814000838
 20
264.741786649609
 10
-0.6866554106999459
 20
264.7734210740091
 10
-0.7091729244000339
 20
264.8134645959093
 10
-0.7279557852000541
 20
264.8616887896088
  0
LWPOLYLINE
  5
E0
330
70
100
AcDbEntity
  8
SUPERFICI
 62
   250
420
  3355443
370
    25
100
AcDbPolyline
 90
       10
 70
     0
 43
0.0
 10
-32.49410152129993
 20
283.6377012284092
 10
-32.43800960419997
 20
283.586879374709
 10
-32.38660331329997
 20
283.525130789909
 10
-32.34008830890012
 20
283.4526179000093
 10
-32.29873135050008
 20
283.3693237559089
 10
-32.26269490090004
 20
283.2755607338088
 10
-32.2319326207
 20
283.172250141909
 10
-32.20645888090011
 20
283.060098859209
 10
-32.18645453540013
 20
282.9393193494091
 10
-32.17202768420006
 20
282.8103348958093
  0
LINE
  5
E1
330
70
100
AcDbEntity
  8
SUPERFICI
 62
   250
420
  3355443
370
    25
100
AcDbLine
 10
26.65723131309999
 20
264.7284303918088
 30
0.0
 11
26.53373104200029
 21
264.7636286207091
 31
0.0
  0
LWPOLYLINE
  5
E2
330
70
100
AcDbEntity
  8
SUPERFICI
 62
   250
420
  3355443
370
    25
100
AcDbPolyline
 90
        7
 70
     0
 43
0.0
 10
50.01860148769978
 20
249.1637512297089
 10
50.0008488386999
 20
249.1706499982089
 10
49.9679309470002
 20
249.1924746308088
 10
49.93886936860004
 20
249.2245189856088
 10
49.91397264969972
 20
249.2663802758093
 10
49.89345482320004
 20
249.317698405809
 10
49.87752634870006
 20
249.3781046672088
  0
LINE
  5
E3
330
70
100
AcDbEntity
  8
SUPERFICI
 62
   250
420
  3355443
370
    25
100
AcDbLine
 10
26.53373104200029
 20
264.7636286207091
 30
0.0
 11
26.04396443100024
 21
264.9045204843092
 31
0.0
  0
LWPOLYLINE
  5
E4
330
70
100
AcDbEntity
  8
SUPERFICI
 62
   250
420
  3355443
370
    25
100
AcDbPolyline
 90
        3
 70
     0
 43
0.0
 10
25.5370768060998
 20
265.0538770996091
 10
25.16690678679973
 20
265.1610884805094
 10
24.97890506059996
 20
265.2167890284088
  0
LWPOLYLINE
  5
E5
330
70
100
AcDbEntity
  8
SUPERFICI
 62
   250
420
  3355443
370
    25
100
AcDbPolyline
 90
        3
 70
     0
 43
0.0
 10
26.04396443100024
 20
264.9045204843092
 10
25.67009744500021
 20
265.0143102536091
 10
25.5370768060998
 20
265.0538770996091
  0
LWPOLYLINE
  5
E6
330
70
100
AcDbEntity
  8
SUPERFICI
 62
   250
420
  3355443
370
    25
100
AcDbPolyline
 90
        3
 70
     0
 43
0.0
 10
24.40352209420003
 20
265.3925086598091
 10
24.20851273699983
 20
265.4508923268091
 10
23.81359021669991
 20
265.5673024851091
  0
LINE
  5
E7
330
70
100
AcDbEntity
  8
SUPERFICI
 62
   250
420
  3355443
370
    25
100
AcDbLine
 10
23.81359021669991
 20
265.5673024851091
 30
0.0
 11
18.48005473679999
 21
267.1852329005089
 31
0.0
  0
LWPOLYLINE
  5
E8
330
70
100
AcDbEntity
  8
SUPERFICI
 62
   250
420
  3355443
370
    25
100
AcDbPolyline
 90
        4
 70
     0
 43
0.0
 10
-32.10154135529993
 20
282.7894370744094
 10
-32.01432638459984
 20
282.7628150675094
 10
-31.91037153000011
 20
282.7304845625089
 10
-31.78111607730004
 20
282.6891267296091
  0
LINE
  5
E9
330
70
100
AcDbEntity
  8
SUPERFICI
 62
   250
420
  3355443
370
    25
100
AcDbLine
 10
18.48005473679999
 20
267.1852329005089
 30
0.0
 11
14.25540522640003
 21
268.4716511988092
 31
0.0
  0
LWPOLYLINE
  5
EA
330
70
100
AcDbEntity
  8
SUPERFICI
 62
   250
420
  3355443
370
    25
100
AcDbPolyline
 90
        3
 70
     0
 43
0.0
 10
14.25540522640003
 20
268.4716511988092
 10
5.414727334700132
 20
271.1795885420088
 10
-4.139484366800062
 20
274.1116488856091
  0
LINE
  5
EB
330
70
100
AcDbEntity
  8
SUPERFICI
 62
   250
420
  3355443
370
    25
100
AcDbLine
 10
-28.65245606480011
 20
282.461755704809
 30
0.0
 11
-32.49410152129993
 21
283.6377012284092
 31
0.0
  0
LINE
  5
EC
330
70
100
AcDbEntity
  8
SUPERFICI
 62
   250
420
  3355443
370
    25
100
AcDbLine
 10
-28.6540284900001
 20
282.4570617140091
 30
0.0
 11
23.48188465179979
 21
266.4466268922088
 31
0.0
  0
LINE
  5
ED
330
70
100
AcDbEntity
  8
SUPERFICI
 62
   250
420
  3355443
370
    25
100
AcDbLine
 10
24.97890506059996
 20
265.2167890284088
 30
0.0
 11
24.40352209420003
 21
265.3925086598091
 31
0.0
  0
LINE
  5
EE
330
70
100
AcDbEntity
  8
SUPERFICI
 62
   250
420
  3355443
370
    25
100
AcDbLine
 10
23.48345593319981
 20
266.4513212343087
 30
0.0
 11
27.3241041090003
 21
265.2681086638088
 31
0.0
  0
LINE
  5
EF
330
70
100
AcDbEntity
  8
SUPERFICI
 62
   250
420
  3355443
370
    25
100
AcDbLine
 10
-29.48852600309992
 20
281.9432104604092
 30
0.0
 11
-28.91320608579988
 21
281.7655603625092
 31
0.0
  0
LINE
  5
F0
330
70
100
AcDbEntity
  8
SUPERFICI
 62
   250
420
  3355443
370
    25
100
AcDbLine
 10
-19.89989313700011
 20
278.9629920229093
 30
0.0
 11
-4.139484366800062
 21
274.1116488856091
 31
0.0
  0
LINE
  5
F1
330
70
100
AcDbEntity
  8
SUPERFICI
 62
   250
420
  3355443
370
    25
100
AcDbLine
 10
-28.32232613490008
 20
281.5777382926092
 30
0.0
 11
-19.89989313700011
 21
278.9629920229093
 31
0.0
  0
LWPOLYLINE
  5
F2
330
70
100
AcDbEntity
  8
SUPERFICI
 62
   250
420
  3355443
370
    25
100
AcDbPolyline
 90
        7
 70
     0
 43
0.0
 10
27.88733829959987
 20
264.3652724275089
 10
27.58457775719971
 20
264.4604070022093
 10
27.49720820929991
 20
264.4873982130091
 10
27.39331700000008
 20
264.518895224509
 10
27.26444293310028
 20
264.5568064712092
 10
27.11928305909997
 20
264.598302272009
 10
26.65723131309999
 20
264.7284303918088
  0
LWPOLYLINE
  5
F3
330
70
100
AcDbEntity
  8
SUPERFICI
 62
   250
420
  3355443
370
    25
100
AcDbPolyline
 90
        3
 70
     0
 43
0.0
 10
-28.91320608579988
 20
281.7655603625092
 10
-28.52103473010008
 20
281.6415094587087
 10
-28.32232613490008
 20
281.5777382926092
  0
LINE
  5
F4
330
70
100
AcDbEntity
  8
SUPERFICI
 62
   250
420
  3355443
370
    25
100
AcDbLine
 10
-30.43621456619984
 20
282.2471725047093
 30
0.0
 11
-30.04797328309997
 21
282.1235085281088
 31
0.0
  0
LWPOLYLINE
  5
F5
330
70
100
AcDbEntity
  8
SUPERFICI
 62
   250
420
  3355443
370
    25
100
AcDbPolyline
 90
        3
 70
     0
 43
0.0
 10
-30.04797328309997
 20
282.1235085281088
 10
-29.8632889944999
 20
282.0631718106089
 10
-29.48852600309992
 20
281.9432104604092
  0
LINE
  5
F6
330
70
100
AcDbEntity
  8
SUPERFICI
 62
   250
420
  3355443
370
    25
100
AcDbLine
 10
-30.9172835919999
 20
282.4035901184087
 30
0.0
 11
-30.43621456619984
 21
282.2471725047093
 31
0.0
  0
LWPOLYLINE
  5
F7
330
70
100
AcDbEntity
  8
SUPERFICI
 62
   250
420
  3355443
370
    25
100
AcDbPolyline
 90
        4
 70
     0
 43
0.0
 10
-31.78111607730004
 20
282.6891267296091
 10
-31.38543332229993
 20
282.5582746063092
 10
-31.28122577510013
 20
282.5234834568093
 10
-30.9172835919999
 20
282.4035901184087
  0
LWPOLYLINE
  5
F8
330
70
100
AcDbEntity
  8
SUPERFICI
 62
   250
420
  3355443
370
    25
100
AcDbPolyline
 90
       10
 70
     0
 43
0.0
 10
-35.10852437910012
 20
320.1959145240091
 10
-35.19509209430003
 20
320.3051369140089
 10
-35.29479578999991
 20
320.4116626625092
 10
-35.40706216470012
 20
320.514903093409
 10
-35.5324735101
 20
320.6156548141089
 10
-35.6695429511001
 20
320.711931311209
 10
-35.81408794279988
 20
320.7991021566092
 10
-35.9639581377
 20
320.875432027209
 10
-36.11944984480005
 20
320.9419397470091
 10
-36.27935962670014
 20
320.9983277845091
  0
LWPOLYLINE
  5
F9
330
70
100
AcDbEntity
  8
SUPERFICI
 62
   250
420
  3355443
370
    25
100
AcDbPolyline
 90
       10
 70
     0
 43
0.0
 10
28.14243069030029
 20
300.7721640358089
 10
28.33252897230012
 20
300.794632809409
 10
28.52633570369985
 20
300.8094620701091
 10
28.72373371630033
 20
300.8169452239089
 10
28.92488718400023
 20
300.817531820309
 10
29.12752402940024
 20
300.8097895539091
 10
29.32775538189994
 20
300.7914234686091
 10
29.52414096310004
 20
300.762075680309
 10
29.71723412259986
 20
300.722617639009
 10
29.90664524839987
 20
300.6732460622089
  0
LWPOLYLINE
  5
FA
330
70
100
AcDbEntity
  8
SUPERFICI
 62
   250
420
  3355443
370
    25
100
AcDbPolyline
 90
       10
 70
     0
 43
0.0
 10
27.3241041090003
 20
265.2681086638088
 10
27.37625449760031
 20
265.2184972154088
 10
27.42524859200019
 20
265.1574893928088
 10
27.47087791100009
 20
265.0852484884094
 10
27.51319667359992
 20
265.001658983509
 10
27.55166098890005
 20
264.9071503873091
 10
27.58528540120005
 20
264.802960862309
 10
27.61373143159981
 20
264.6898968179089
 10
27.63715130249972
 20
264.5680684333092
 10
27.65543701429972
 20
264.4378989609088
  0
LWPOLYLINE
  5
FB
330
70
100
AcDbEntity
  8
SUPERFICI
 62
   250
420
  3355443
370
    25
100
AcDbPolyline
 90
       11
 70
     0
 43
0.0
 10
-54.65889638369989
 20
340.3047096596092
 10
-54.7477812983999
 20
340.366350527409
 10
-54.82752728910007
 20
340.4334717524089
 10
-54.89749323559984
 20
340.505486028309
 10
-54.957035243
 20
340.581761221809
 10
-55.00531900310006
 20
340.6612425172089
 10
-55.04146734049999
 20
340.7426830498089
 10
-55.06483825359992
 20
340.8249675989091
 10
-55.07526649219989
 20
340.9069162899092
 10
-55.07273319010011
 20
340.9871784570091
 10
-55.06112185049989
 20
341.0506140858089
  0
LWPOLYLINE
  5
FC
330
70
100
AcDbEntity
  8
SUPERFICI
 62
   250
420
  3355443
370
    25
100
AcDbPolyline
 90
       13
 70
     0
 43
0.0
 10
50.21008940120011
 20
308.1004581072091
 10
50.31783459549977
 20
308.101715769809
 10
50.42801593190015
 20
308.110512149009
 10
50.5396921633998
 20
308.1267458683092
 10
50.65187141670022
 20
308.150287123009
 10
50.76300454540032
 20
308.1808130333091
 10
50.87130587370009
 20
308.217894470309
 10
50.97523470660004
 20
308.2610864982092
 10
51.07337614030012
 20
308.309694492709
 10
51.16418574789999
 20
308.3628478599091
 10
51.24641546629999
 20
308.4197784371091
 10
51.31937150549973
 20
308.4799797969091
 10
51.38240283380006
 20
308.542953485009
  0
LWPOLYLINE
  5
FD
330
70
100
AcDbEntity
  8
SUPERFICI
 62
   250
420
  3355443
370
    25
100
AcDbPolyline
 90
        5
 70
     0
 43
0.0
 10
26.89379987479992
 20
304.3039540094091
 10
26.59123977410015
 20
304.3910311443089
 10
26.50388380619991
 20
304.4174764618092
 10
26.39997056509979
 20
304.4498591143092
 10
26.27100182109978
 20
304.4915762330092
  0
LWPOLYLINE
  5
FE
330
70
100
AcDbEntity
  8
SUPERFICI
 62
   250
420
  3355443
370
    25
100
AcDbPolyline
 90
        3
 70
     0
 43
0.0
 10
-29.9089781028
 20
321.7940316242089
 10
-29.71384333560011
 20
321.7358051131089
 10
-29.31844111379994
 20
321.6199960872092
  0
LINE
  5
FF
330
70
100
AcDbEntity
  8
SUPERFICI
 62
   250
420
  3355443
370
    25
100
AcDbLine
 10
-29.31844111379994
 20
321.6199960872092
 30
0.0
 11
-25.24438170799994
 21
320.3862603490092
 31
0.0
  0
LINE
  5
100
330
70
100
AcDbEntity
  8
SUPERFICI
 62
   250
420
  3355443
370
    25
100
AcDbLine
 10
-25.24438170799994
 20
320.3862603490092
 30
0.0
 11
-20.64355365129999
 21
318.987794746209
 31
0.0
  0
LINE
  5
101
330
70
100
AcDbEntity
  8
SUPERFICI
 62
    18
420
        0
370
    25
100
AcDbLine
 10
-33.3590859918
 20
320.1687564598092
 30
0.0
 11
26.4577736190999
 21
301.7995772448089
 31
0.0
  0
LINE
  5
102
330
70
100
AcDbEntity
  8
SUPERFICI
 62
   250
420
  3355443
370
    25
100
AcDbLine
 10
-20.64390794769992
 20
318.9885957695092
 30
0.0
 11
-5.137660518299984
 21
314.2367600789092
 31
0.0
  0
LINE
  5
103
330
70
100
AcDbEntity
  8
SUPERFICI
 62
   250
420
  3355443
370
    25
100
AcDbLine
 10
26.39173439610026
 20
302.7991426084089
 30
0.0
 11
24.52528718090006
 21
303.3703392852091
 31
0.0
  0
LINE
  5
104
330
70
100
AcDbEntity
  8
SUPERFICI
 62
   250
420
  3355443
370
    25
100
AcDbLine
 10
23.79313057070031
 20
305.3025418798091
 30
0.0
 11
23.40775000730027
 21
305.4209799430089
 31
0.0
  0
LINE
  5
105
330
70
100
AcDbEntity
  8
SUPERFICI
 62
   250
420
  3355443
370
    25
100
AcDbLine
 10
24.52528718090006
 20
303.3703392852091
 30
0.0
 11
-33.4277478873
 21
321.1688188881089
 31
0.0
  0
LWPOLYLINE
  5
106
330
70
100
AcDbEntity
  8
SUPERFICI
 62
   250
420
  3355443
370
    25
100
AcDbPolyline
 90
        5
 70
     0
 43
0.0
 10
-33.09487926870006
 20
322.7200611950089
 10
-33.00765071809988
 20
322.692893294909
 10
-32.90371789520001
 20
322.6614484309091
 10
-32.77455711960016
 20
322.6238964700091
 10
-32.62893377700009
 20
322.5829814597092
  0
LINE
  5
107
330
70
100
AcDbEntity
  8
SUPERFICI
 62
   250
420
  3355443
370
    25
100
AcDbLine
 10
14.39649621800019
 20
308.2261286845092
 30
0.0
 11
-5.137660518299984
 21
314.2367600789092
 31
0.0
  0
LINE
  5
108
330
70
100
AcDbEntity
  8
SUPERFICI
 62
   250
420
  3355443
370
    25
100
AcDbLine
 10
22.81747516790009
 20
305.6095603013091
 30
0.0
 11
14.39649621800019
 21
308.2261286845092
 31
0.0
  0
LWPOLYLINE
  5
109
330
70
100
AcDbEntity
  8
SUPERFICI
 62
   250
420
  3355443
370
    25
100
AcDbPolyline
 90
        3
 70
     0
 43
0.0
 10
23.40775000730027
 20
305.4209799430089
 10
23.01590660709995
 20
305.5454418204091
 10
22.81747516790009
 20
305.6095603013091
  0
LWPOLYLINE
  5
10A
330
70
100
AcDbEntity
  8
SUPERFICI
 62
    18
420
        0
370
    25
100
AcDbPolyline
 90
       20
 70
     0
 43
0.0
 10
26.45949495099995
 20
301.7934563338089
 10
26.47670186010023
 20
301.7878673227092
 10
26.51031730140017
 20
301.7752637691089
 10
26.54589096340004
 20
301.7596028492091
 10
26.58273567830001
 20
301.740925827609
 10
26.62017994330001
 20
301.7193820044091
 10
26.65761065819978
 20
301.6951800106091
 10
26.69449563189986
 20
301.668558824809
 10
26.73034294819987
 20
301.6398024208091
 10
26.76449030240027
 20
301.6094128069092
 10
26.79623894750005
 20
301.578082598709
 10
26.82519616779972
 20
301.5463548211092
 10
26.85098086549997
 20
301.5148819948092
 10
26.87316712819998
 20
301.484622501309
 10
26.89170359459997
 20
301.456249723509
 10
26.90670181000033
 20
301.4302953447089
 10
26.91824252780004
 20
301.4074659986091
 10
26.92655521749969
 20
301.3883771295089
 10
26.93211636330023
 20
301.373246851109
 10
26.93545073999985
 20
301.3621846800092
  0
LWPOLYLINE
  5
10B
330
70
100
AcDbEntity
  8
SUPERFICI
 62
   250
420
  3355443
370
    25
100
AcDbPolyline
 90
        3
 70
     0
 43
0.0
 10
25.04903460590003
 20
304.8991341685089
 10
24.92963634510012
 20
304.937961601509
 10
24.54180737859998
 20
305.0621422678091
  0
LINE
  5
10C
330
70
100
AcDbEntity
  8
SUPERFICI
 62
   250
420
  3355443
370
    25
100
AcDbLine
 10
-32.62893377700009
 20
322.5829814597092
 30
0.0
 11
-32.16538427910002
 21
322.454730231509
 31
0.0
  0
LWPOLYLINE
  5
10D
330
70
100
AcDbEntity
  8
SUPERFICI
 62
   250
420
  3355443
370
    25
100
AcDbPolyline
 90
        6
 70
     0
 43
0.0
 10
-31.04324264079994
 20
322.131773674809
 10
-30.85875489059997
 20
322.0793374957091
 10
-30.67241922899992
 20
322.0253810855091
 10
-30.4842533545999
 20
321.969886238009
 10
-30.29424036479985
 20
321.912250521309
 10
-29.9089781028
 20
321.7940316242089
  0
LINE
  5
10E
330
70
100
AcDbEntity
  8
SUPERFICI
 62
   250
420
  3355443
370
    25
100
AcDbLine
 10
-32.16538427910002
 20
322.454730231509
 30
0.0
 11
-31.66641750619997
 21
322.3135100913089
 31
0.0
  0
LINE
  5
10F
330
70
100
AcDbEntity
  8
SUPERFICI
 62
   250
420
  3355443
370
    25
100
AcDbLine
 10
-31.66641750619997
 20
322.3135100913089
 30
0.0
 11
-31.43124525120003
 21
322.2458433842091
 31
0.0
  0
LINE
  5
110
330
70
100
AcDbEntity
  8
SUPERFICI
 62
   250
420
  3355443
370
    25
100
AcDbLine
 10
-31.43124525120003
 20
322.2458433842091
 30
0.0
 11
-31.04324264079994
 21
322.131773674809
 31
0.0
  0
LWPOLYLINE
  5
111
330
70
100
AcDbEntity
  8
SUPERFICI
 62
   250
420
  3355443
370
    25
100
AcDbPolyline
 90
        5
 70
     0
 43
0.0
 10
24.54180737859998
 20
305.0621422678091
 10
24.35750525620023
 20
305.122957892709
 10
24.17128771080025
 20
305.1834089701091
 10
23.9831776392998
 20
305.2434648274089
 10
23.79313057070031
 20
305.3025418798091
  0
LINE
  5
112
330
70
100
AcDbEntity
  8
SUPERFICI
 62
   250
420
  3355443
370
    25
100
AcDbLine
 10
25.53931937600001
 20
304.7374131238091
 30
0.0
 11
25.04903460590003
 21
304.8991341685089
 31
0.0
  0
LWPOLYLINE
  5
113
330
70
100
AcDbEntity
  8
SUPERFICI
 62
   250
420
  3355443
370
    25
100
AcDbPolyline
 90
        4
 70
     0
 43
0.0
 10
26.27100182109978
 20
304.4915762330092
 10
25.87659570609973
 20
304.6240281638091
 10
25.77273750370013
 20
304.6592570911091
 10
25.53931937600001
 20
304.7374131238091
  0
LWPOLYLINE
  5
114
330
70
100
AcDbEntity
  8
SUPERFICI
 62
   250
420
  3355443
370
    25
100
AcDbPolyline
 90
       10
 70
     0
 43
0.0
 10
26.39045767739997
 20
302.7992263436091
 10
26.43691284060029
 20
302.9785539974092
 10
26.47991024730004
 20
303.1586035877091
 10
26.51926179409986
 20
303.3387192474091
 10
26.55502492990003
 20
303.518655630309
 10
26.58669501520025
 20
303.697264388209
 10
26.61336708159993
 20
303.8725482304092
 10
26.63474982470001
 20
304.0434172245089
 10
26.6510041160003
 20
304.209633865709
 10
26.66204891119979
 20
304.3705378467091
  0
LWPOLYLINE
  5
115
330
70
100
AcDbEntity
  8
SUPERFICI
 62
   250
420
  3355443
370
    25
100
AcDbPolyline
 90
       10
 70
     0
 43
0.0
 10
30.76487569500029
 20
266.1768992687088
 10
30.76807792579984
 20
266.131628017309
 10
30.76980850789999
 20
266.085931527309
 10
30.77034590000032
 20
266.0399326798089
 10
30.76991021400016
 20
265.9937080055091
 10
30.76852788740004
 20
265.9472936988092
 10
30.76610799850028
 20
265.900728660809
 10
30.7625591981
 20
265.8540230874092
 10
30.75793047350003
 20
265.807186941309
 10
30.75219391720016
 20
265.7602532877088
  0
LWPOLYLINE
  5
116
330
70
100
AcDbEntity
  8
SUPERFICI
 62
   250
420
  3355443
370
    25
100
AcDbPolyline
 90
        9
 70
     0
 43
0.0
 10
28.14229762690021
 20
300.8006186227091
 10
28.14079507110026
 20
300.831301360909
 10
28.13859644239974
 20
300.862124640009
 10
28.13570186070008
 20
300.8930795376092
 10
28.13211373759999
 20
300.9241623892092
 10
28.1278362221002
 20
300.955375048709
 10
28.12287098099986
 20
300.9867141673091
 10
28.11721775259998
 20
301.0181709322091
 10
28.11087731470012
 20
301.049739193709
  0
LINE
  5
117
330
70
100
AcDbEntity
  8
SUPERFICI
 62
    18
420
        0
370
    25
100
AcDbLine
 10
26.94259019540014
 20
301.3649244202091
 30
0.0
 11
27.80164147319995
 21
266.8324145610089
 31
0.0
  0
LINE
  5
118
330
70
100
AcDbEntity
  8
SUPERFICI
 62
   250
420
  3355443
370
    25
100
AcDbLine
 10
29.00009694029996
 20
266.2388747445088
 30
0.0
 11
28.14229762690021
 21
300.8006186227091
 31
0.0
  0
LWPOLYLINE
  5
119
330
70
100
AcDbEntity
  8
SUPERFICI
 62
   250
420
  3355443
370
    25
100
AcDbPolyline
 90
       10
 70
     0
 43
0.0
 10
29.00222460479995
 20
266.234742773909
 10
29.00293043210026
 20
266.204533851609
 10
29.00293575750027
 20
266.1746021371093
 10
29.00224147099997
 20
266.144953227909
 10
29.00084727799983
 20
266.1155948627091
 10
28.99875541239986
 20
266.086530512909
 10
28.99597008740024
 20
266.0577594641089
 10
28.9924927963001
 20
266.0292853339091
 10
28.9883228625003
 20
266.0011159899093
 10
28.98346076730014
 20
265.9732571972088
  0
LWPOLYLINE
  5
11A
330
70
100
AcDbEntity
  8
SUPERFICI
 62
   250
420
  3355443
370
    25
100
AcDbPolyline
 90
       10
 70
     0
 43
0.0
 10
29.9067276641003
 20
300.673225887709
 10
29.90732966920032
 20
300.718886315309
 10
29.90685787069989
 20
300.765174112609
 10
29.9052688665003
 20
300.8120912623089
 10
29.90257283039973
 20
300.8596005194091
 10
29.8987925697001
 20
300.9077398797091
 10
29.89395239380012
 20
300.956626470309
 10
29.88803875630024
 20
301.0063288891091
 10
29.88101883249976
 20
301.0568544513091
 10
29.87286081070014
 20
301.108250080909
  0
LWPOLYLINE
  5
11B
330
70
100
AcDbEntity
  8
SUPERFICI
 62
   250
420
  3355443
370
    25
100
AcDbPolyline
 90
        5
 70
     0
 43
0.0
 10
-48.68146530650004
 20
339.7683436658092
 10
-49.48522527649992
 20
339.9939019630089
 10
-49.86975633920007
 20
340.1038862664091
 10
-50.24209641410006
 20
340.2130399594091
 10
-50.95396142659994
 20
340.424470471209
  0
LWPOLYLINE
  5
11C
330
70
100
AcDbEntity
  8
SUPERFICI
 62
   250
420
  3355443
370
    25
100
AcDbPolyline
 90
        6
 70
     0
 43
0.0
 10
48.97167893260021
 20
310.9164114662091
 10
48.9493579567997
 20
310.9227912894092
 10
48.9270279597002
 20
310.9292925659092
 10
48.90468894160009
 20
310.9359152958092
 10
48.88240065160003
 20
310.9426894280092
 10
48.8601033403998
 20
310.949585013509
  0
LWPOLYLINE
  5
11D
330
70
100
AcDbEntity
  8
SUPERFICI
 62
   250
420
  3355443
370
    25
100
AcDbPolyline
 90
        3
 70
     0
 43
0.0
 10
-50.95396142659994
 20
340.424470471209
 10
-51.29549954359997
 20
340.5221935362089
 10
-52.26356691790005
 20
340.7920853416089
  0
LINE
  5
11E
330
70
100
AcDbEntity
  8
SUPERFICI
 62
   250
420
  3355443
370
    25
100
AcDbLine
 10
-52.26356691790005
 20
340.7920853416089
 30
0.0
 11
-52.86503777939998
 21
340.963843656009
 31
0.0
  0
LWPOLYLINE
  5
11F
330
70
100
AcDbEntity
  8
SUPERFICI
 62
   250
420
  3355443
370
    25
100
AcDbPolyline
 90
       10
 70
     0
 43
0.0
 10
48.37257115620012
 20
309.8749357183091
 10
48.38401390730006
 20
309.8714697001089
 10
48.39547471770014
 20
309.8678981789091
 10
48.40698184289973
 20
309.864119947309
 10
48.41859233020011
 20
309.8599320859091
 10
48.43030972210018
 20
309.8553247639091
 10
48.44208059200014
 20
309.8504885964091
 10
48.45390396440002
 20
309.8454239956091
 10
48.4658299974999
 20
309.839944398109
 10
48.477820459
 20
309.8340968186091
  0
LINE
  5
120
330
70
100
AcDbEntity
  8
SUPERFICI
 62
   250
420
  3355443
370
    25
100
AcDbLine
 10
-44.48942964549991
 20
338.490931853509
 30
0.0
 11
-48.68147204379996
 21
339.7683589664092
 31
0.0
  0
LINE
  5
121
330
70
100
AcDbEntity
  8
SUPERFICI
 62
   250
420
  3355443
370
    25
100
AcDbLine
 10
3.701830831300103
 20
323.6847930137091
 30
0.0
 11
35.74399708979994
 21
313.8541887892091
 31
0.0
  0
LINE
  5
122
330
70
100
AcDbEntity
  8
SUPERFICI
 62
   250
420
  3355443
370
    25
100
AcDbLine
 10
-40.21475968590004
 20
337.1803885470091
 30
0.0
 11
-44.48942964549991
 21
338.490931853509
 31
0.0
  0
LINE
  5
123
330
70
100
AcDbEntity
  8
SUPERFICI
 62
   250
420
  3355443
370
    25
100
AcDbLine
 10
3.701830831300103
 20
323.6847930137091
 30
0.0
 11
-26.19451619769985
 21
332.8678114519089
 31
0.0
  0
LINE
  5
124
330
70
100
AcDbEntity
  8
SUPERFICI
 62
   250
420
  3355443
370
    25
100
AcDbLine
 10
-26.19451619769985
 20
332.8678114519089
 30
0.0
 11
-40.21475968590004
 21
337.1803885470091
 31
0.0
  0
LINE
  5
125
330
70
100
AcDbEntity
  8
SUPERFICI
 62
   250
420
  3355443
370
    25
100
AcDbLine
 10
35.74399708979994
 20
313.8541887892091
 30
0.0
 11
40.01804776589991
 21
312.539502646409
 31
0.0
  0
LINE
  5
126
330
70
100
AcDbEntity
  8
SUPERFICI
 62
   250
420
  3355443
370
    25
100
AcDbLine
 10
40.01804776589991
 20
312.539502646409
 30
0.0
 11
44.20723812800007
 21
311.2431342170091
 31
0.0
  0
LWPOLYLINE
  5
127
330
70
100
AcDbEntity
  8
SUPERFICI
 62
   250
420
  3355443
370
    25
100
AcDbPolyline
 90
       10
 70
     0
 43
0.0
 10
-52.86487431099998
 20
340.9639763527092
 10
-52.87627559179995
 20
340.9675255157092
 10
-52.88771993980004
 20
340.970987947209
 10
-52.89925035110015
 20
340.9742843203091
 10
-52.91095664209998
 20
340.9772568161089
 10
-52.92283953549993
 20
340.979896913509
 10
-52.93480701399995
 20
340.9823505633089
 10
-52.94685464789991
 20
340.984616517609
 10
-52.95906276159985
 20
340.9865482833089
 10
-52.97138561349988
 20
340.9881670873092
  0
LINE
  5
128
330
70
100
AcDbEntity
  8
SUPERFICI
 62
   250
420
  3355443
370
    25
100
AcDbLine
 10
-52.59829519980016
 20
342.1066264549092
 30
0.0
 11
48.8601033403998
 21
310.949585013509
 31
0.0
  0
LWPOLYLINE
  5
129
330
70
100
AcDbEntity
  8
SUPERFICI
 62
   250
420
  3355443
370
    25
100
AcDbPolyline
 90
        3
 70
     0
 43
0.0
 10
45.75890448120029
 20
310.732060821809
 10
46.46919070620018
 20
310.5067624394092
 10
46.80914065539981
 20
310.3952071085091
  0
LINE
  5
12A
330
70
100
AcDbEntity
  8
SUPERFICI
 62
   250
420
  3355443
370
    25
100
AcDbLine
 10
45.38776891850022
 20
310.851221308309
 30
0.0
 11
45.75890448120029
 21
310.732060821809
 31
0.0
  0
LWPOLYLINE
  5
12B
330
70
100
AcDbEntity
  8
SUPERFICI
 62
   250
420
  3355443
370
    25
100
AcDbPolyline
 90
        3
 70
     0
 43
0.0
 10
-52.6644998227001
 20
342.1278992742092
 10
-52.64254427590001
 20
342.1207663307092
 10
-52.59829519980016
 20
342.1066264549092
  0
LINE
  5
12C
330
70
100
AcDbEntity
  8
SUPERFICI
 62
   250
420
  3355443
370
    25
100
AcDbLine
 10
47.7726299824002
 20
310.0719365272091
 30
0.0
 11
48.37241063720034
 21
309.8748021160089
 31
0.0
  0
LWPOLYLINE
  5
12D
330
70
100
AcDbEntity
  8
SUPERFICI
 62
   250
420
  3355443
370
    25
100
AcDbPolyline
 90
        3
 70
     0
 43
0.0
 10
44.20722653509987
 20
311.2431245455089
 10
44.61177471440005
 20
311.1074256187091
 10
45.38776891850022
 20
310.851221308309
  0
LINE
  5
12E
330
70
100
AcDbEntity
  8
SUPERFICI
 62
   250
420
  3355443
370
    25
100
AcDbLine
 10
46.80914065539981
 20
310.3952071085091
 30
0.0
 11
47.7726299824002
 21
310.0719365272091
 31
0.0
  0
LWPOLYLINE
  5
12F
330
70
100
AcDbEntity
  8
SUPERFICI
 62
   250
420
  3355443
370
    25
100
AcDbPolyline
 90
       15
 70
     0
 43
0.0
 10
29.55606079020024
 20
302.0411624980092
 10
29.43940092250029
 20
302.2557071883089
 10
29.30724589189986
 20
302.4667059202091
 10
29.16052382449994
 20
302.6729161349089
 10
29.00026816579987
 20
302.873052311509
 10
28.82740837039989
 20
303.0659444268092
 10
28.64274366450021
 20
303.2505138977091
 10
28.44718874600001
 20
303.4256737269089
 10
28.24217900080031
 20
303.5902963552091
 10
28.02932508879988
 20
303.7433304761092
 10
27.80989887629984
 20
303.8838640503089
 10
27.58512767949986
 20
304.010908441609
 10
27.35660147349979
 20
304.123633606709
 10
27.12575111999973
 20
304.2214768418092
 10
26.89379987479992
 20
304.3039540094091
  0
LWPOLYLINE
  5
130
330
70
100
AcDbEntity
  8
SUPERFICI
 62
   250
420
  3355443
370
    25
100
AcDbPolyline
 90
       16
 70
     0
 43
0.0
 10
28.11087731470012
 20
301.049739193709
 10
28.07217181700019
 20
301.1958623767091
 10
28.01927947659983
 20
301.3428877163091
 10
27.95255610719987
 20
301.489699834009
 10
27.87250586059972
 20
301.635232015409
 10
27.77989177670007
 20
301.7781234177092
 10
27.67571436959978
 20
301.9167825858091
 10
27.56090677679981
 20
302.0498731344089
 10
27.43634816760029
 20
302.1763951551092
 10
27.30312785019974
 20
302.2953335027089
 10
27.16240064079973
 20
302.4057061273091
 10
27.0154437249
 20
302.5065546404092
 10
26.86352798469974
 20
302.5969974060092
 10
26.70785423289996
 20
302.6763174592091
 10
26.5494891257
 20
302.7439129365089
 10
26.3892379554999
 20
302.7993863720091
  0
LINE
  5
131
330
70
100
AcDbEntity
  8
SUPERFICI
 62
    18
420
        0
370
    25
100
AcDbLine
 10
26.93545073999985
 20
301.3621846800092
 30
0.0
 11
26.93659477960013
 21
301.3575588487089
 31
0.0
  0
LINE
  5
132
330
70
100
AcDbEntity
  8
SUPERFICI
 62
   250
420
  3355443
370
    25
100
AcDbLine
 10
29.96036060490016
 20
299.5945967495091
 30
0.0
 11
29.92898334759979
 21
300.0749080416091
 31
0.0
  0
LINE
  5
133
330
70
100
AcDbEntity
  8
SUPERFICI
 62
   250
420
  3355443
370
    25
100
AcDbLine
 10
29.92898334759979
 20
300.0749080416091
 30
0.0
 11
29.92440203020017
 21
300.1526062231091
 31
0.0
  0
LINE
  5
134
330
70
100
AcDbEntity
  8
SUPERFICI
 62
   250
420
  3355443
370
    25
100
AcDbLine
 10
29.98469144600023
 20
299.1895418860091
 30
0.0
 11
29.96036060490016
 21
299.5945967495091
 31
0.0
  0
LINE
  5
135
330
70
100
AcDbEntity
  8
SUPERFICI
 62
   250
420
  3355443
370
    25
100
AcDbLine
 10
30.0064295836998
 20
298.7813694222091
 30
0.0
 11
29.98469144600023
 21
299.1895418860091
 31
0.0
  0
LWPOLYLINE
  5
136
330
70
100
AcDbEntity
  8
SUPERFICI
 62
   250
420
  3355443
370
    25
100
AcDbPolyline
 90
        4
 70
     0
 43
0.0
 10
29.92440203020017
 20
300.1526062231091
 10
29.91644995550009
 20
300.3055118455091
 10
29.91318069349973
 20
300.3808035633092
 10
29.91103128920011
 20
300.4552014804092
  0
LINE
  5
137
330
70
100
AcDbEntity
  8
SUPERFICI
 62
   250
420
  3355443
370
    25
100
AcDbLine
 10
30.0612537612998
 20
297.5250406668091
 30
0.0
 11
30.10584653940011
 21
296.547458632009
 31
0.0
  0
LWPOLYLINE
  5
138
330
70
100
AcDbEntity
  8
SUPERFICI
 62
   250
420
  3355443
370
    25
100
AcDbPolyline
 90
        3
 70
     0
 43
0.0
 10
30.03481581500029
 20
298.1634983819089
 10
30.02599847510002
 20
298.3701996271092
 10
30.0064295836998
 20
298.7813694222091
  0
LWPOLYLINE
  5
139
330
70
100
AcDbEntity
  8
SUPERFICI
 62
   250
420
  3355443
370
    25
100
AcDbPolyline
 90
        5
 70
     0
 43
0.0
 10
30.10584653940011
 20
296.547458632009
 10
30.11912469630019
 20
296.2169229765089
 10
30.12936215649972
 20
295.884301163409
 10
30.13728310839982
 20
295.5495428183093
 10
30.14348374830027
 20
295.2124895484092
  0
LINE
  5
13A
330
70
100
AcDbEntity
  8
SUPERFICI
 62
   250
420
  3355443
370
    25
100
AcDbLine
 10
30.03649617330012
 20
298.163740687009
 30
0.0
 11
30.0612537612998
 21
297.5250406668091
 31
0.0
  0
LINE
  5
13B
330
70
100
AcDbEntity
  8
SUPERFICI
 62
   250
420
  3355443
370
    25
100
AcDbLine
 10
30.14348374830027
 20
295.2124895484092
 30
0.0
 11
30.29141843270016
 21
291.2482707632089
 31
0.0
  0
LINE
  5
13C
330
70
100
AcDbEntity
  8
SUPERFICI
 62
   250
420
  3355443
370
    25
100
AcDbLine
 10
30.29141843270016
 20
291.2482707632089
 30
0.0
 11
30.37979902539972
 21
288.6384033720093
 31
0.0
  0
LINE
  5
13D
330
70
100
AcDbEntity
  8
SUPERFICI
 62
   250
420
  3355443
370
    25
100
AcDbLine
 10
30.37979902539972
 20
288.6384033720093
 30
0.0
 11
30.46038168219976
 21
286.0159742532088
 31
0.0
  0
LWPOLYLINE
  5
13E
330
70
100
AcDbEntity
  8
SUPERFICI
 62
   250
420
  3355443
370
    25
100
AcDbPolyline
 90
        4
 70
     0
 43
0.0
 10
30.7311909246003
 20
271.5875060659091
 10
30.74011719059984
 20
271.2676843066088
 10
30.74762911649982
 20
270.9463094736092
 10
30.75376320949999
 20
270.6234044563093
  0
LINE
  5
13F
330
70
100
AcDbEntity
  8
SUPERFICI
 62
   250
420
  3355443
370
    25
100
AcDbLine
 10
30.46038168219976
 20
286.0159742532088
 30
0.0
 11
30.53298094719969
 21
283.371246686009
 31
0.0
  0
LINE
  5
140
330
70
100
AcDbEntity
  8
SUPERFICI
 62
   250
420
  3355443
370
    25
100
AcDbLine
 10
30.76300255309993
 20
266.2485873322089
 30
0.0
 11
30.76487871010023
 21
266.1769039340091
 31
0.0
  0
LINE
  5
141
330
70
100
AcDbEntity
  8
SUPERFICI
 62
   250
420
  3355443
370
    25
100
AcDbLine
 10
30.59185281929989
 20
280.7310413812089
 30
0.0
 11
30.53298094719969
 21
283.371246686009
 31
0.0
  0
LINE
  5
142
330
70
100
AcDbEntity
  8
SUPERFICI
 62
   250
420
  3355443
370
    25
100
AcDbLine
 10
30.64149525080003
 20
278.1186268283093
 30
0.0
 11
30.59185281929989
 21
280.7310413812089
 31
0.0
  0
LWPOLYLINE
  5
143
330
70
100
AcDbEntity
  8
SUPERFICI
 62
   250
420
  3355443
370
    25
100
AcDbPolyline
 90
        3
 70
     0
 43
0.0
 10
29.91103128920011
 20
300.4552014804092
 10
29.90842267149981
 20
300.6013540962091
 10
29.9067276641003
 20
300.673225887709
  0
LINE
  5
144
330
70
100
AcDbEntity
  8
SUPERFICI
 62
   250
420
  3355443
370
    25
100
AcDbLine
 10
30.68260125320028
 20
275.523336813609
 30
0.0
 11
30.64149525080003
 21
278.1186268283093
 31
0.0
  0
LINE
  5
145
330
70
100
AcDbEntity
  8
SUPERFICI
 62
   250
420
  3355443
370
    25
100
AcDbLine
 10
30.7311897481003
 20
271.5876329699089
 30
0.0
 11
30.68260125320028
 21
275.523336813609
 31
0.0
  0
LINE
  5
146
330
70
100
AcDbEntity
  8
SUPERFICI
 62
   250
420
  3355443
370
    25
100
AcDbLine
 10
30.75376320949999
 20
270.6234044563087
 30
0.0
 11
30.76152765579979
 21
269.9731756428092
 31
0.0
  0
LWPOLYLINE
  5
147
330
70
100
AcDbEntity
  8
SUPERFICI
 62
   250
420
  3355443
370
    25
100
AcDbPolyline
 90
        4
 70
     0
 43
0.0
 10
30.75631008089995
 20
266.5444561227088
 10
30.75677337469992
 20
266.4697049685093
 10
30.75832568859994
 20
266.3952996351093
 10
30.76300255309993
 20
266.2485873322089
  0
LINE
  5
148
330
70
100
AcDbEntity
  8
SUPERFICI
 62
   250
420
  3355443
370
    25
100
AcDbLine
 10
30.76152765579979
 20
269.9731756428092
 30
0.0
 11
30.77030369740013
 21
268.4503006747089
 31
0.0
  0
LINE
  5
149
330
70
100
AcDbEntity
  8
SUPERFICI
 62
   250
420
  3355443
370
    25
100
AcDbLine
 10
30.77030369740013
 20
268.4503006747089
 30
0.0
 11
30.77107584750017
 21
268.0437926046087
 31
0.0
  0
LINE
  5
14A
330
70
100
AcDbEntity
  8
SUPERFICI
 62
   250
420
  3355443
370
    25
100
AcDbLine
 10
30.77107584750017
 20
268.0437926046087
 30
0.0
 11
30.76950272529983
 21
267.6413631709093
 31
0.0
  0
LWPOLYLINE
  5
14B
330
70
100
AcDbEntity
  8
SUPERFICI
 62
   250
420
  3355443
370
    25
100
AcDbPolyline
 90
        3
 70
     0
 43
0.0
 10
30.75744397569981
 20
266.7720941755093
 10
30.7566990163998
 20
266.6955767954089
 10
30.75631008089995
 20
266.5444561227088
  0
LINE
  5
14C
330
70
100
AcDbEntity
  8
SUPERFICI
 62
   250
420
  3355443
370
    25
100
AcDbLine
 10
30.76950272529983
 20
267.6413631709093
 30
0.0
 11
30.76515242259991
 21
267.2432318241088
 31
0.0
  0
LINE
  5
14D
330
70
100
AcDbEntity
  8
SUPERFICI
 62
   250
420
  3355443
370
    25
100
AcDbLine
 10
30.76515242259991
 20
267.2432318241088
 30
0.0
 11
30.75744397569981
 21
266.7720941755093
 31
0.0
  0
LWPOLYLINE
  5
14E
330
70
100
AcDbEntity
  8
SUPERFICI
 62
    18
420
        0
370
    25
100
AcDbPolyline
 90
       10
 70
     0
 43
0.0
 10
-33.44055309659987
 20
320.181669426409
 10
-33.4454132390999
 20
320.180584789809
 10
-33.45122277169995
 20
320.179596596109
 10
-33.4513615735001
 20
320.1795416344089
 10
-33.44560584289989
 20
320.1795850862091
 10
-33.4338720029001
 20
320.1788956103089
 10
-33.41609011709991
 20
320.1766461619091
 10
-33.39287899310015
 20
320.1721504640091
 10
-33.36587055010011
 20
320.1651722703091
 10
-33.35748478239997
 20
320.1626724503089
  0
LWPOLYLINE
  5
14F
330
70
100
AcDbEntity
  8
SUPERFICI
 62
   250
420
  3355443
370
    25
100
AcDbPolyline
 90
       19
 70
     0
 43
0.0
 10
48.477820459
 20
309.8340968186091
 10
48.53235152739993
 20
309.8092055894091
 10
48.58614745709981
 20
309.7860378884092
 10
48.64011489320015
 20
309.763948547009
 10
48.69788506320015
 20
309.7379199812091
 10
48.75787879529974
 20
309.7088260417089
 10
48.81861638800021
 20
309.6779502207089
 10
48.88020950510004
 20
309.6452932768091
 10
48.94348351199976
 20
309.6099716936091
 10
49.00831567430008
 20
309.5719476932091
 10
49.07427127180024
 20
309.531329708709
 10
49.14123712430021
 20
309.4878490042091
 10
49.20935764229999
 20
309.441006839509
 10
49.27837165409996
 20
309.390580236609
 10
49.34804106990016
 20
309.3364906832089
 10
49.41837069379972
 20
309.2784490745092
 10
49.48912617030016
 20
309.2162810955091
 10
49.55979586319987
 20
309.1499795618091
 10
49.62999198220015
 20
309.079481766409
  0
LWPOLYLINE
  5
150
330
70
100
AcDbEntity
  8
SUPERFICI
 62
   250
420
  3355443
370
    25
100
AcDbPolyline
 90
       10
 70
     0
 43
0.0
 10
29.85518834180015
 20
301.201188669809
 10
29.8347347767999
 20
301.293477501109
 10
29.81100931329984
 20
301.386320368909
 10
29.78403075410022
 20
301.479615398709
 10
29.75378820870012
 20
301.5733315203091
 10
29.72032653099995
 20
301.667293016209
 10
29.68376977540024
 20
301.7611808546092
 10
29.64419577049988
 20
301.8548207767091
 10
29.60161266440014
 20
301.948181960309
 10
29.55606079020024
 20
302.0411624980092
  0
LINE
  5
151
330
70
100
AcDbEntity
  8
SUPERFICI
 62
   250
420
  3355443
370
    25
100
AcDbLine
 10
29.85932391980021
 20
301.1806247515092
 30
0.0
 11
29.8551683801999
 21
301.2011850512091
 31
0.0
  0
LINE
  5
152
330
70
100
AcDbEntity
  8
SUPERFICI
 62
   250
420
  3355443
370
    25
100
AcDbLine
 10
29.86333565659976
 20
301.160021056709
 30
0.0
 11
29.85932391980021
 21
301.1806247515092
 31
0.0
  0
LINE
  5
153
330
70
100
AcDbEntity
  8
SUPERFICI
 62
   250
420
  3355443
370
    25
100
AcDbLine
 10
29.86721702809985
 20
301.139352218809
 30
0.0
 11
29.86333565659976
 21
301.160021056709
 31
0.0
  0
LWPOLYLINE
  5
154
330
70
100
AcDbEntity
  8
SUPERFICI
 62
   250
420
  3355443
370
    25
100
AcDbPolyline
 90
        3
 70
     0
 43
0.0
 10
29.87286096749994
 20
301.1082497221091
 10
29.87100303070003
 20
301.1186384198091
 10
29.86721702809985
 20
301.139352218809
  0
LINE
  5
155
330
70
100
AcDbEntity
  8
SUPERFICI
 62
   250
420
  3355443
370
    25
100
AcDbLine
 10
30.75219837150014
 20
265.7602695095089
 30
0.0
 11
30.74943866849976
 21
265.7416608173088
 31
0.0
  0
LWPOLYLINE
  5
156
330
70
100
AcDbEntity
  8
SUPERFICI
 62
   250
420
  3355443
370
    25
100
AcDbPolyline
 90
        7
 70
     0
 43
0.0
 10
30.74943866849976
 20
265.7416608173088
 10
30.7465802432003
 20
265.7231831978088
 10
30.74511240360009
 20
265.7139830908088
 10
30.7436093429999
 20
265.7048227776093
 10
30.74206793709993
 20
265.6957040428088
 10
30.74049011719996
 20
265.6866172179093
 10
30.7388752688
 20
265.6775584311092
  0
LWPOLYLINE
  5
157
330
70
100
AcDbEntity
  8
SUPERFICI
 62
   250
420
  3355443
370
    25
100
AcDbPolyline
 90
       10
 70
     0
 43
0.0
 10
30.73889540070012
 20
265.677555200709
 10
30.72273542269968
 20
265.5972485891092
 10
30.70328133669987
 20
265.5183888062094
 10
30.68054714919973
 20
265.4410667710091
 10
30.65452027130003
 20
265.3653196918092
 10
30.62523745699986
 20
265.2912974525093
 10
30.59280868390001
 20
265.219246888209
 10
30.55730425700027
 20
265.1492961785089
 10
30.51873092940017
 20
265.0814705740091
 10
30.47712456619996
 20
265.0158477749088
  0
LWPOLYLINE
  5
158
330
70
100
AcDbEntity
  8
SUPERFICI
 62
   250
420
  3355443
370
    25
100
AcDbPolyline
 90
       16
 70
     0
 43
0.0
 10
28.98346076730014
 20
265.9732571972088
 10
28.9514724061002
 20
265.8493620648093
 10
28.90512527080017
 20
265.7332804517093
 10
28.84472468539973
 20
265.6259266030092
 10
28.77072905039973
 20
265.528072923009
 10
28.68384490289983
 20
265.4406298965092
 10
28.58500835609997
 20
265.364594884209
 10
28.47509990040009
 20
265.3007478286089
 10
28.35496210840027
 20
265.249559951909
 10
28.22565017940004
 20
265.2113872380094
 10
28.08828745989977
 20
265.1865126568089
 10
27.9441228147
 20
265.1751162829092
 10
27.79440263079982
 20
265.1773011410089
 10
27.64031034140002
 20
265.1930488952092
 10
27.48289885479981
 20
265.2223103231088
 10
27.32296595669994
 20
265.2649897188092
  0
LWPOLYLINE
  5
159
330
70
100
AcDbEntity
  8
SUPERFICI
 62
   250
420
  3355443
370
    25
100
AcDbPolyline
 90
       19
 70
     0
 43
0.0
 10
-52.97138561349988
 20
340.9881670873092
 10
-53.02694530200013
 20
340.997083665109
 10
-53.08116517749989
 20
341.007086573409
 10
-53.13498315689993
 20
341.0180970910091
 10
-53.19271637169993
 20
341.0275384978092
 10
-53.25266350800002
 20
341.035277239309
 10
-53.31321325059992
 20
341.0416475862092
 10
-53.37446299630009
 20
341.046714497709
 10
-53.43727591290001
 20
341.0501129895089
 10
-53.50151398310003
 20
341.0517252096091
 10
-53.56673054490007
 20
341.0513889269088
 10
-53.63282266540005
 20
341.0487690393089
 10
-53.69994576039989
 20
341.0434588805092
 10
-53.76784633799986
 20
341.0350774242091
 10
-53.83627190689991
 20
341.0233955054092
 10
-53.90520180090012
 20
341.008119148109
 10
-53.97438598790007
 20
340.9889252867092
 10
-54.04330958239984
 20
340.9654915018092
 10
-54.11157373409985
 20
340.9375135168092
  0
LWPOLYLINE
  5
15A
330
70
100
AcDbEntity
  8
SUPERFICI
 62
   250
420
  3355443
370
    25
100
AcDbPolyline
 90
       15
 70
     0
 43
0.0
 10
30.47712456619996
 20
265.0158477749088
 10
30.36939039189994
 20
264.8715936330092
 10
30.24574802509988
 20
264.7403966709089
 10
30.1070779146003
 20
264.6229308881093
 10
29.95436528599992
 20
264.5198491189089
 10
29.78849560059974
 20
264.431749813909
 10
29.61022673489994
 20
264.3592165692094
 10
29.42043394549979
 20
264.3027478722093
 10
29.2205190619998
 20
264.2625650757089
 10
29.0120652005001
 20
264.2387240882088
 10
28.79631888869996
 20
264.231331440709
 10
28.57447811400025
 20
264.2405774777092
 10
28.34811754830002
 20
264.2662473106089
 10
28.11866420700024
 20
264.307932853309
 10
27.88733829959987
 20
264.3652724275089
  0
LWPOLYLINE
  5
15B
330
70
100
AcDbEntity
  8
SUPERFICI
 62
   250
420
  3355443
370
    25
100
AcDbPolyline
 90
       13
 70
     0
 43
0.0
 10
48.37256400479993
 20
309.8749381452091
 10
48.38466399759976
 20
309.9708299361092
 10
48.40155042500029
 20
310.0693957298092
 10
48.42302427550006
 20
310.1697966406092
 10
48.44890297990021
 20
310.2712775934092
 10
48.47897042730006
 20
310.3730441929092
 10
48.51284919270002
 20
310.4736778046092
 10
48.55012406710002
 20
310.5715748567089
 10
48.59023034509998
 20
310.6650990307089
 10
48.63252543919994
 20
310.752890101909
 10
48.67660183359996
 20
310.8344621324089
 10
48.72215845279977
 20
310.9094576426091
 10
48.7688231639001
 20
310.9773436891091
  0
LWPOLYLINE
  5
15C
330
70
100
AcDbEntity
  8
SUPERFICI
 62
   250
420
  3355443
370
    25
100
AcDbPolyline
 90
       10
 70
     0
 43
0.0
 10
49.63000895019995
 20
309.0794832206091
 10
49.7176877551999
 20
308.9828087312091
 10
49.80042061220015
 20
308.8821599395091
 10
49.87782205100018
 20
308.7778905421092
 10
49.94933051100005
 20
308.6707290878091
 10
50.01470157730011
 20
308.5609497035089
 10
50.07380567320025
 20
308.4487348655092
 10
50.12635013549981
 20
308.3343481774091
 10
50.17190740520021
 20
308.2181415505089
 10
50.21010147280009
 20
308.1004785550089
  0
LWPOLYLINE
  5
15D
330
70
100
AcDbEntity
  8
SUPERFICI
 62
   250
420
  3355443
370
    25
100
AcDbPolyline
 90
        8
 70
     0
 43
0.0
 10
50.28828580050021
 20
307.6380910612092
 10
50.29651476879974
 20
307.449882142809
 10
50.30127464599972
 20
307.259782103509
 10
50.30502089869985
 20
307.0672470249091
 10
50.30973103090004
 20
306.8718150338091
 10
50.31577010170003
 20
306.6733837102091
 10
50.32317389899983
 20
306.4719330556092
 10
50.34912680249971
 20
305.849939906709
  0
LINE
  5
15E
330
70
100
AcDbEntity
  8
SUPERFICI
 62
   250
420
  3355443
370
    25
100
AcDbLine
 10
50.34912678630002
 20
305.8499398612091
 30
0.0
 11
50.38014138050026
 21
304.8617994010091
 31
0.0
  0
LINE
  5
15F
330
70
100
AcDbEntity
  8
SUPERFICI
 62
   250
420
  3355443
370
    25
100
AcDbLine
 10
50.40626115589997
 20
303.8659451650092
 30
0.0
 11
50.57456505070027
 21
298.1098662268092
 31
0.0
  0
LINE
  5
160
330
70
100
AcDbEntity
  8
SUPERFICI
 62
   250
420
  3355443
370
    25
100
AcDbLine
 10
50.57456499039981
 20
298.109866085209
 30
0.0
 11
50.74563898969978
 21
291.8468018169089
 31
0.0
  0
LINE
  5
161
330
70
100
AcDbEntity
  8
SUPERFICI
 62
   250
420
  3355443
370
    25
100
AcDbLine
 10
50.74563898969978
 20
291.8468018169089
 30
0.0
 11
50.91209820459976
 21
285.485242826009
 31
0.0
  0
LINE
  5
162
330
70
100
AcDbEntity
  8
SUPERFICI
 62
   250
420
  3355443
370
    25
100
AcDbLine
 10
50.38014138050026
 20
304.8617994010091
 30
0.0
 11
50.40626115589997
 21
303.8659451650092
 31
0.0
  0
LINE
  5
163
330
70
100
AcDbEntity
  8
SUPERFICI
 62
   250
420
  3355443
370
    25
100
AcDbLine
 10
51.4499704356002
 20
308.0597192417089
 30
0.0
 11
52.18156803880029
 21
278.5896543197093
 31
0.0
  0
LINE
  5
164
330
70
100
AcDbEntity
  8
SUPERFICI
 62
   250
420
  3355443
370
    25
100
AcDbLine
 10
52.18156803880029
 20
278.5896543197093
 30
0.0
 11
52.87888983089999
 21
250.6194075433088
 31
0.0
  0
LINE
  5
165
330
70
100
AcDbEntity
  8
SUPERFICI
 62
   250
420
  3355443
370
    25
100
AcDbLine
 10
51.28465672430028
 20
270.4321647437093
 30
0.0
 11
50.91209820459976
 21
285.485242826009
 31
0.0
  0
LINE
  5
166
330
70
100
AcDbEntity
  8
SUPERFICI
 62
   250
420
  3355443
370
    25
100
AcDbLine
 10
51.53505163849998
 20
259.4139815845089
 30
0.0
 11
51.28465672430028
 21
270.4321647437093
 31
0.0
  0
LINE
  5
167
330
70
100
AcDbEntity
  8
SUPERFICI
 62
   250
420
  3355443
370
    25
100
AcDbLine
 10
51.68257670590008
 20
252.2190637109094
 30
0.0
 11
51.53505163849998
 21
259.4139815845089
 31
0.0
  0
LWPOLYLINE
  5
168
330
70
100
AcDbEntity
  8
SUPERFICI
 62
   250
420
  3355443
370
    25
100
AcDbPolyline
 90
       10
 70
     0
 43
0.0
 10
52.87970125729987
 20
250.6203035066088
 10
52.88037007810022
 20
250.5687923847092
 10
52.87960166499998
 20
250.5177994338091
 10
52.87739740349993
 20
250.4673550421089
 10
52.87376812300033
 20
250.4174948530089
 10
52.86870812229974
 20
250.3682430271093
 10
52.86219643129984
 20
250.3196118944088
 10
52.85423084920011
 20
250.2716243355093
 10
52.84482667310009
 20
250.2243140979088
 10
52.83399160430012
 20
250.1777088276093
  0
LINE
  5
169
330
70
100
AcDbEntity
  8
SUPERFICI
 62
   250
420
  3355443
370
    25
100
AcDbLine
 10
51.6907409221001
 20
251.4017199174089
 30
0.0
 11
51.68622676699977
 21
251.8045196988091
 31
0.0
  0
LINE
  5
16A
330
70
100
AcDbEntity
  8
SUPERFICI
 62
   250
420
  3355443
370
    25
100
AcDbLine
 10
51.68622676699977
 20
251.8045196988091
 30
0.0
 11
51.68328041160026
 21
252.2190637892088
 31
0.0
  0
LWPOLYLINE
  5
16B
330
70
100
AcDbEntity
  8
SUPERFICI
 62
   250
420
  3355443
370
    25
100
AcDbPolyline
 90
        6
 70
     0
 43
0.0
 10
51.71120652200028
 20
250.4389166831089
 10
51.71011900729986
 20
250.6252157192091
 10
51.70541633660029
 20
250.8154952210091
 10
51.69956507510003
 20
251.0087651150092
 10
51.69455238439971
 20
251.2041753072093
 10
51.6907409221001
 20
251.4017199174089
  0
LWPOLYLINE
  5
16C
330
70
100
AcDbEntity
  8
SUPERFICI
 62
   250
420
  3355443
370
    25
100
AcDbPolyline
 90
       16
 70
     0
 43
0.0
 10
51.38206173890025
 20
308.543005152309
 10
51.3201065370001
 20
308.746152937809
 10
51.2392537457
 20
308.949831609209
 10
51.14016307379969
 20
309.1523692017092
 10
51.0236604460001
 20
309.352139604609
 10
50.89068270640023
 20
309.547462082509
 10
50.74228016380025
 20
309.7366161159091
 10
50.57965105150009
 20
309.9180715250089
 10
50.40416354720012
 20
310.0903057286089
 10
50.21733058949984
 20
310.251722621809
 10
50.0200233863999
 20
310.401666394709
 10
49.81451116190015
 20
310.5381750612091
 10
49.60481446579978
 20
310.6583583472089
 10
49.39362766469993
 20
310.7612615246091
 10
49.1819988060001
 20
310.8473067530089
 10
48.97161185769968
 20
310.9164304206091
  0
LWPOLYLINE
  5
16D
330
70
100
AcDbEntity
  8
SUPERFICI
 62
   250
420
  3355443
370
    25
100
AcDbPolyline
 90
       10
 70
     0
 43
0.0
 10
50.2100894056997
 20
308.100458114509
 10
50.22314656220011
 20
308.050098917609
 10
50.23488920860031
 20
307.999983480209
 10
50.24536862820028
 20
307.9497985141091
 10
50.25452611439977
 20
307.8990197585091
 10
50.26250438740001
 20
307.8475627557091
 10
50.26970811940019
 20
307.7957996220091
 10
50.27635628980029
 20
307.7437184279089
 10
50.28244972500022
 20
307.691002682009
 10
50.28817691619994
 20
307.637877815409
  0
LWPOLYLINE
  5
16E
330
70
100
AcDbEntity
  8
SUPERFICI
 62
   250
420
  3355443
370
    25
100
AcDbPolyline
 90
       10
 70
     0
 43
0.0
 10
51.38206173890025
 20
308.543005152309
 10
51.39541650749978
 20
308.488385732809
 10
51.40735296969971
 20
308.4339344836091
 10
51.41786207840027
 20
308.3796842294091
 10
51.42692737629976
 20
308.325653321009
 10
51.43454951809996
 20
308.2718889616091
 10
51.44074749190004
 20
308.2184667513089
 10
51.4455253698002
 20
308.1654330295091
 10
51.44887109700012
 20
308.112805291309
 10
51.45078186020011
 20
308.0606152092091
  0
LINE
  5
16F
330
70
100
AcDbEntity
  8
SUPERFICI
 62
   250
420
  3355443
370
    25
100
AcDbLine
 10
51.70415673989986
 20
250.3370677899093
 30
0.0
 11
51.71120476059995
 21
250.438913468909
 31
0.0
  0
LWPOLYLINE
  5
170
330
70
100
AcDbEntity
  8
SUPERFICI
 62
   250
420
  3355443
370
    25
100
AcDbPolyline
 90
        8
 70
     0
 43
0.0
 10
51.65502870049976
 20
250.0166772492092
 10
51.66550286290014
 20
250.0586429761093
 10
51.67490698619987
 20
250.1018543487088
 10
51.68317245819995
 20
250.1463199356091
 10
51.68996496720026
 20
250.1921029238091
 10
51.6954302097998
 20
250.239185851309
 10
51.70014276410007
 20
250.2874971696088
 10
51.70415673989986
 20
250.3370677899093
  0
LWPOLYLINE
  5
171
330
70
100
AcDbEntity
  8
SUPERFICI
 62
   250
420
  3355443
370
    25
100
AcDbPolyline
 90
        5
 70
     0
 43
0.0
 10
52.83399160430012
 20
250.1777088276093
 10
52.78123168060004
 20
250.011220892109
 10
52.70931098689992
 20
249.8558432951092
 10
52.61881556329997
 20
249.7128654224088
 10
52.52617134600016
 20
249.6001649262088
  0
LINE
  5
172
330
70
100
AcDbEntity
  8
SUPERFICI
 62
    18
420
        0
370
    25
100
AcDbLine
 10
52.52617134600016
 20
249.6001649262088
 30
0.0
 11
54.73548862889987
 21
251.9933344141089
 31
0.0
  0
LWPOLYLINE
  5
173
330
70
100
AcDbEntity
  8
SUPERFICI
 62
   250
420
  3355443
370
    25
100
AcDbPolyline
 90
       13
 70
     0
 43
0.0
 10
52.83404034150002
 20
250.1777627754093
 10
52.7700321274002
 20
250.1170159855092
 10
52.69605468420028
 20
250.0637541101089
 10
52.61306673520029
 20
250.0183944026089
 10
52.52199494180007
 20
249.9813550618091
 10
52.4235705803003
 20
249.9530125631093
 10
52.31899100029988
 20
249.9337956682092
 10
52.21006842760012
 20
249.9241221206092
 10
52.09880829499979
 20
249.9240374785089
 10
51.98666225589985
 20
249.9334193523088
 10
51.87457919229979
 20
249.9520850527089
 10
51.76365359519982
 20
249.9798792634088
 10
51.65501668339993
 20
250.0166547939093
  0
LWPOLYLINE
  5
174
330
70
100
AcDbEntity
  8
SUPERFICI
 62
   250
420
  3355443
370
    25
100
AcDbPolyline
 90
       10
 70
     0
 43
0.0
 10
51.11481123049993
 20
249.3927675334087
 10
51.19902487930012
 20
249.4353868670089
 10
51.27801887739967
 20
249.4850343240091
 10
51.35141948759977
 20
249.5415919450093
 10
51.41869153520008
 20
249.6047276029091
 10
51.47959960860028
 20
249.6743535097093
 10
51.53401993569993
 20
249.7504188088091
 10
51.58166756229976
 20
249.8328772136091
 10
51.62212533130021
 20
249.9216624880089
 10
51.65502870049976
 20
250.0166772492092
  0
LINE
  5
175
330
70
100
AcDbEntity
  8
0
 62
   250
420
  3355443
370
    25
100
AcDbLine
 10
-52.6644998227001
 20
342.1278992742092
 30
0.0
 11
-50.63385444259985
 21
344.8602997982091
 31
0.0
  0
LWPOLYLINE
  5
176
330
70
100
AcDbEntity
  8
0
 62
    18
420
        0
370
    25
100
AcDbPolyline
 90
       16
 70
     0
 43
0.0
 10
-52.94871123950002
 20
344.3313501113089
 10
-52.88736246240012
 20
344.413820068009
 10
-52.78576837139994
 20
344.5272950994089
 10
-52.6724969521001
 20
344.6292764310089
 10
-52.54735300050016
 20
344.7195719273091
 10
-52.4105317205999
 20
344.7983737237092
 10
-52.26430761380009
 20
344.8643718422091
 10
-52.1085234989999
 20
344.9173522493089
 10
-51.94333655729984
 20
344.9575289784091
 10
-51.77149283359984
 20
344.984234152109
 10
-51.59288203970014
 20
344.9972428050091
 10
-51.40761446379985
 20
344.9967799025092
 10
-51.21876701460008
 20
344.982852462809
 10
-51.02736532840006
 20
344.9554628253092
 10
-50.83238376900002
 20
344.914608650609
 10
-50.63382233629984
 20
344.8602899386089
  0
LWPOLYLINE
  5
177
330
70
100
AcDbEntity
  8
0
 62
   250
420
  3355443
370
    25
100
AcDbPolyline
 90
       31
 70
     0
 43
0.0
 10
-33.42647102270014
 20
321.1687351080091
 10
-33.43820185040005
 20
321.1223113271089
 10
-33.4492423760999
 20
321.0756906124092
 10
-33.45956822429986
 20
321.0289699173089
 10
-33.46920765469989
 20
320.9822046006091
 10
-33.47808010559994
 20
320.9355449444089
 10
-33.48600811260013
 20
320.8892312593089
 10
-33.49293433030013
 20
320.8433723866092
 10
-33.49888668679996
 20
320.7980707471089
 10
-33.50383407860003
 20
320.7535490828091
 10
-33.50776909030003
 20
320.7099140300089
 10
-33.51068473780003
 20
320.6672627914091
 10
-33.5125656525001
 20
320.625790929309
 10
-33.51341170339997
 20
320.5856124209089
 10
-33.51322418710001
 20
320.5467963377091
 10
-33.51199951680005
 20
320.5094584555089
 10
-33.50973778330015
 20
320.473702648609
 10
-33.50644554530002
 20
320.439590789409
 10
-33.50212835509993
 20
320.407174429909
 10
-33.49678862929997
 20
320.3765393105091
 10
-33.49042397869998
 20
320.3477661413092
 10
-33.48302634750004
 20
320.3209076213091
 10
-33.47459650879991
 20
320.2960578081091
 10
-33.4651278374
 20
320.273293668209
 10
-33.45460530169987
 20
320.2526354762089
 10
-33.44306324309985
 20
320.2340923117091
 10
-33.43054987229991
 20
320.217672667409
 10
-33.41709246080016
 20
320.2033621498092
 10
-33.40272659309996
 20
320.1911692871091
 10
-33.38749817789992
 20
320.181113796809
 10
-33.37144655980009
 20
320.1732078973091
  0
LINE
  5
178
330
70
100
AcDbEntity
  8
0
 62
   250
420
  3355443
370
    25
100
AcDbLine
 10
-33.33740505359989
 20
320.1492882525091
 30
0.0
 11
-33.32806836140011
 21
320.1592312449091
 31
0.0
  0
LWPOLYLINE
  5
179
330
70
100
AcDbEntity
  8
0
 62
   250
420
  3355443
370
    25
100
AcDbPolyline
 90
        4
 70
     0
 43
0.0
 10
-33.33757773479984
 20
320.156224606909
 10
-33.36208815530006
 20
320.1316238867089
 10
-33.38881414379997
 20
320.1074271076091
 10
-33.41773173190003
 20
320.0836958524092
  0
LINE
  5
17A
330
70
100
AcDbEntity
  8
0
 62
   250
420
  3355443
370
    25
100
AcDbLine
 10
-33.41773173190003
 20
320.0836958524092
 30
0.0
 11
-33.44887805520014
 21
320.0604132077092
 31
0.0
  0
LINE
  5
17B
330
70
100
AcDbEntity
  8
0
 62
    18
420
        0
370
    25
100
AcDbLine
 10
-33.33735056350008
 20
320.1492703949091
 30
0.0
 11
-33.33681172079992
 21
320.1619162461091
 31
0.0
  0
LWPOLYLINE
  5
17C
330
70
100
AcDbEntity
  8
0
 62
   250
420
  3355443
370
    25
100
AcDbPolyline
 90
       42
 70
     0
 43
0.0
 10
-33.44887805520014
 20
320.0604132077092
 10
-33.482156137
 20
320.0377317501091
 10
-33.51729866110003
 20
320.0159532916091
 10
-33.55419680200014
 20
319.9951861109092
 10
-33.59279364829998
 20
319.9754284477091
 10
-33.63284548309998
 20
319.956787944509
 10
-33.67423522350014
 20
319.939309927309
 10
-33.71686889549991
 20
319.923036036509
 10
-33.76050924089993
 20
319.9080452771089
 10
-33.80500987240008
 20
319.894379243009
 10
-33.85028510199996
 20
319.8820607544089
 10
-33.89617793680008
 20
319.8711256483091
 10
-33.94255774569994
 20
319.8616043922089
 10
-33.98932668440002
 20
319.8535220702091
 10
-34.03637703900006
 20
319.846902446009
 10
-34.08357596450002
 20
319.8417752125092
 10
-34.13083671159987
 20
319.8381638106092
 10
-34.17812330020014
 20
319.8360892787091
 10
-34.22532252870012
 20
319.835585588309
 10
-34.27233721609988
 20
319.836675990109
 10
-34.31916911830008
 20
319.8393362768089
 10
-34.36574556460009
 20
319.8435340673091
 10
-34.4119689843
 20
319.8492351627092
 10
-34.45780520139999
 20
319.856409463309
 10
-34.50317192930015
 20
319.8650355730091
 10
-34.54797197670003
 20
319.8750753348091
 10
-34.59214375239984
 20
319.8864806473089
 10
-34.63560817599985
 20
319.899201981909
 10
-34.67825216579987
 20
319.9132316468091
 10
-34.71996038419998
 20
319.9285843562091
 10
-34.76066122369988
 20
319.945268277009
 10
-34.80022607689997
 20
319.9632107364089
 10
-34.83846249639998
 20
319.9822940060089
 10
-34.8752800676
 20
320.002461438209
 10
-34.91058364809997
 20
320.0236844307089
 10
-34.9441949966999
 20
320.0458705602089
 10
-34.97605348879995
 20
320.0689407619089
 10
-35.00605972109983
 20
320.0928750679091
 10
-35.03401624010004
 20
320.1176500682091
 10
-35.05983703679985
 20
320.1432133933092
 10
-35.08351985629997
 20
320.1694974210091
 10
-35.10502273479984
 20
320.196446268709
  0
LINE
  5
17D
330
70
100
AcDbEntity
  8
0
 62
   250
420
  3355443
370
    25
100
AcDbLine
 10
27.78825530619968
 20
266.9606921227091
 30
0.0
 11
27.76041416109999
 21
266.954851211609
 31
0.0
  0
LWPOLYLINE
  5
17E
330
70
100
AcDbEntity
  8
0
 62
   250
420
  3355443
370
    25
100
AcDbPolyline
 90
       46
 70
     0
 43
0.0
 10
-34.2459011864999
 20
285.6611092413089
 10
-34.22442039940003
 20
285.6349707746094
 10
-34.20075274380007
 20
285.6092352746089
 10
-34.17493998029984
 20
285.5839586877088
 10
-34.14698165779999
 20
285.5591142041088
 10
-34.11696610409997
 20
285.5348487893093
 10
-34.08509822379988
 20
285.5114694237092
 10
-34.05147954899998
 20
285.4890839034091
 10
-34.01616846999999
 20
285.4676835632093
 10
-33.97934432409986
 20
285.4473809634087
 10
-33.94110302269986
 20
285.428235617109
 10
-33.90153428320001
 20
285.4102732610087
 10
-33.86082960790015
 20
285.3935388999089
 10
-33.81911644609994
 20
285.3780460926092
 10
-33.77646775979994
 20
285.363845606809
 10
-33.7330017844
 20
285.3510269758087
 10
-33.68883348869986
 20
285.3396497802091
 10
-33.64404021069994
 20
285.3297113822092
 10
-33.59868092249994
 20
285.3212081428091
 10
-33.55285214840006
 20
285.3141642770089
 10
-33.50663678189988
 20
285.308615125209
 10
-33.46006821180008
 20
285.3045810499091
 10
-33.41324386820013
 20
285.3020965673088
 10
-33.36623649989994
 20
285.301193840909
 10
-33.31904387820012
 20
285.3018866231089
 10
-33.27176314640014
 20
285.304150543409
 10
-33.22450751620009
 20
285.3079529104089
 10
-33.17731257839989
 20
285.3132658760091
 10
-33.13026458770007
 20
285.3200660328088
 10
-33.08349693980007
 20
285.328323860809
 10
-33.03711851220006
 20
285.3380088912091
 10
-32.99122746439989
 20
285.3490980108091
 10
-32.94595411110009
 20
285.3615586932092
 10
-32.90145559300011
 20
285.3753421908089
 10
-32.85781792779988
 20
285.3904265081088
 10
-32.81518705810013
 20
285.4067690653089
 10
-32.77379923119999
 20
285.424275243809
 10
-32.7337485888
 20
285.4429099753091
 10
-32.69515198569993
 20
285.4626213355089
 10
-32.65825164399992
 20
285.4832664165089
 10
-32.62310259650007
 20
285.5047693338088
 10
-32.58981563869984
 20
285.5270995297092
 10
-32.55866253320014
 20
285.5501530746088
 10
-32.52974188979993
 20
285.5738434221088
 10
-32.50301529360012
 20
285.5981216089093
 10
-32.47850689820004
 20
285.6229261124093
  0
LINE
  5
17F
330
70
100
AcDbEntity
  8
0
 62
   250
420
  3355443
370
    25
100
AcDbLine
 10
-33.33740505359989
 20
320.1492882525091
 30
0.0
 11
-32.4786795911001
 21
285.6298732298094
 31
0.0
  0
LINE
  5
180
330
70
100
AcDbEntity
  8
0
 62
    18
420
        0
370
    25
100
AcDbLine
 10
-31.85188614810002
 20
286.2974661466091
 30
0.0
 11
-32.68931872550016
 21
319.9630773957092
 31
0.0
  0
LINE
  5
181
330
70
100
AcDbEntity
  8
0
 62
   250
420
  3355443
370
    25
100
AcDbLine
 10
27.76041416109999
 20
266.954851211609
 30
0.0
 11
27.7306040998997
 21
266.9528501236088
 31
0.0
  0
LWPOLYLINE
  5
182
330
70
100
AcDbEntity
  8
0
 62
    18
420
        0
370
    25
100
AcDbPolyline
 90
        3
 70
     0
 43
0.0
 10
27.71473388669998
 20
266.9240490104092
 10
27.68054060589976
 20
266.9240718980088
 10
27.64437179840026
 20
266.9286110914093
  0
LINE
  5
183
330
70
100
AcDbEntity
  8
0
 62
   250
420
  3355443
370
    25
100
AcDbLine
 10
-32.3587283754
 20
285.4486846757091
 30
0.0
 11
-32.38238456859985
 21
285.4759644165088
 31
0.0
  0
LWPOLYLINE
  5
184
330
70
100
AcDbEntity
  8
0
 62
   250
420
  3355443
370
    25
100
AcDbPolyline
 90
        5
 70
     0
 43
0.0
 10
-32.38238456859985
 20
285.4759644165088
 10
-32.4030704662999
 20
285.5048341950093
 10
-32.42047729869983
 20
285.5349400057093
 10
-32.43424995679986
 20
285.5657673450089
 10
-32.44413503620008
 20
285.5968501571091
  0
LINE
  5
185
330
70
100
AcDbEntity
  8
0
 62
   250
420
  3355443
370
    25
100
AcDbLine
 10
27.7306040998997
 20
266.9528501236088
 30
0.0
 11
27.6992727139001
 21
266.9547600808091
 31
0.0
  0
LWPOLYLINE
  5
186
330
70
100
AcDbEntity
  8
0
 62
   250
420
  3355443
370
    25
100
AcDbPolyline
 90
        5
 70
     0
 43
0.0
 10
-32.24003131080014
 20
285.361550543709
 10
-32.27247982399985
 20
285.3792505232088
 10
-32.30338577080003
 20
285.3999248771092
 10
-32.33229397470008
 20
285.423218935409
 10
-32.3587283754
 20
285.4486846757091
  0
LWPOLYLINE
  5
187
330
70
100
AcDbEntity
  8
0
 62
   250
420
  3355443
370
    25
100
AcDbPolyline
 90
       43
 70
     0
 43
0.0
 10
-32.26311320600013
 20
285.2144602409089
 10
-32.28413489849993
 20
285.1790625985091
 10
-32.30478743429996
 20
285.1421284282091
 10
-32.32522909169991
 20
285.1036243164093
 10
-32.34550695979996
 20
285.0635384652093
 10
-32.36547041589993
 20
285.022056083709
 10
-32.38498007030003
 20
284.9794397912091
 10
-32.40397965579999
 20
284.9358117961089
 10
-32.42242873250003
 20
284.8912735400092
 10
-32.44022207809983
 20
284.8460787113092
 10
-32.45730408589995
 20
284.8003793473093
 10
-32.4736451404999
 20
284.7542628513092
 10
-32.48918735209984
 20
284.7078930665087
 10
-32.50388509140009
 20
284.661404553209
 10
-32.51770559539995
 20
284.6148966296092
 10
-32.53061304270014
 20
284.5684792270092
 10
-32.5425654637999
 20
284.522286403809
 10
-32.55352950260017
 20
284.476408702709
 10
-32.56347849960013
 20
284.4308898535091
 10
-32.57236733310008
 20
284.3858484198092
 10
-32.58016430349988
 20
284.3413830531092
 10
-32.58688472470003
 20
284.2974871150094
 10
-32.59253859410013
 20
284.2542209259092
 10
-32.59712956450012
 20
284.2116707239089
 10
-32.60066768459986
 20
284.1698650775093
 10
-32.60315936819989
 20
284.1288806368091
 10
-32.60460617170015
 20
284.088797287509
 10
-32.60500457139999
 20
284.0496557053092
 10
-32.60435100820007
 20
284.0115176183092
 10
-32.60265101700006
 20
283.9744929652091
 10
-32.59991433980012
 20
283.9386971388093
 10
-32.59614337980006
 20
283.9041984665091
 10
-32.59134364610002
 20
283.8711031735093
 10
-32.58553911220009
 20
283.8395718436093
 10
-32.57874095479992
 20
283.8096794746089
 10
-32.57096137809986
 20
283.781507506809
 10
-32.5622405735999
 20
283.755201962409
 10
-32.55255420540012
 20
283.7308056805091
 10
-32.54196434819998
 20
283.7084029532091
 10
-32.53065841609988
 20
283.6881648272088
 10
-32.51872229199994
 20
283.6701624226093
 10
-32.50612895499989
 20
283.654391170309
 10
-32.49290589640005
 20
283.6408831550092
  0
LWPOLYLINE
  5
188
330
70
100
AcDbEntity
  8
0
 62
   250
420
  3355443
370
    25
100
AcDbPolyline
 90
        4
 70
     0
 43
0.0
 10
-32.19805664609986
 20
285.3105207211088
 10
-32.21999686490001
 20
285.2803102103091
 10
-32.24169665730013
 20
285.2482568091089
 10
-32.26311320600013
 20
285.2144602409089
  0
LINE
  5
189
330
70
100
AcDbEntity
  8
0
 62
   250
420
  3355443
370
    25
100
AcDbLine
 10
-32.19009662189988
 20
285.3080659843089
 30
0.0
 11
-31.64474892240014
 21
286.0587070193091
 31
0.0
  0
LINE
  5
18A
330
70
100
AcDbEntity
  8
0
 62
    18
420
        0
370
    25
100
AcDbLine
 10
27.64437179840026
 20
266.9286110914093
 30
0.0
 11
27.60578507440031
 21
266.9381476617091
 31
0.0
  0
LINE
  5
18B
330
70
100
AcDbEntity
  8
0
 62
    18
420
        0
370
    25
100
AcDbLine
 10
27.77730334389973
 20
267.8107690631088
 30
0.0
 11
-31.64475038070003
 21
286.0587280304088
 31
0.0
  0
LINE
  5
18C
330
70
100
AcDbEntity
  8
0
 62
   250
420
  3355443
370
    25
100
AcDbLine
 10
-32.19009662189988
 20
285.3080659843089
 30
0.0
 11
27.61004870470014
 21
266.9439933530088
 31
0.0
  0
LWPOLYLINE
  5
18D
330
70
100
AcDbEntity
  8
0
 62
    18
420
        0
370
    25
100
AcDbPolyline
 90
       13
 70
     0
 43
0.0
 10
-31.64475038070003
 20
286.0587280304088
 10
-31.67163095050011
 20
286.0685616978089
 10
-31.69739084070008
 20
286.080824911909
 10
-31.72203005119984
 20
286.0955176729088
 10
-31.74597170640012
 20
286.1129819132092
 10
-31.76879268180007
 20
286.1328757002091
 10
-31.7892236045001
 20
286.1541732370091
 10
-31.80710776279996
 20
286.1769740526089
 10
-31.82260186819999
 20
286.2011786179093
 10
-31.83490668330009
 20
286.225462548409
 10
-31.8437557953
 20
286.2493843826091
 10
-31.84941561689986
 20
286.2733855820092
 10
-31.85188614810002
 20
286.2974661466091
  0
LWPOLYLINE
  5
18E
330
70
100
AcDbEntity
  8
0
 62
    18
420
        0
370
    25
100
AcDbPolyline
 90
       13
 70
     0
 43
0.0
 10
-32.19437724079997
 20
285.3021974985092
 10
-32.23315200129993
 20
285.3164211042092
 10
-32.26971749869988
 20
285.3342308645089
 10
-32.30442017720005
 20
285.3553691217092
 10
-32.33687550859997
 20
285.3793991399093
 10
-32.36663311579994
 20
285.405777830809
 10
-32.39364390769985
 20
285.4343705297091
 10
-32.41758665720008
 20
285.4648325698089
 10
-32.43802033420009
 20
285.4966621410093
 10
-32.45468269970007
 20
285.5295128846093
 10
-32.46717004579996
 20
285.5627944904088
 10
-32.4752563381999
 20
285.5961656616091
 10
-32.47862520809986
 20
285.6298554179092
  0
LINE
  5
18F
330
70
100
AcDbEntity
  8
0
 62
   250
420
  3355443
370
    25
100
AcDbLine
 10
-32.4786795911001
 20
285.6298732298094
 30
0.0
 11
-31.85188614810002
 21
286.2974661466091
 31
0.0
  0
LWPOLYLINE
  5
190
330
70
100
AcDbEntity
  8
0
 62
   250
420
  3355443
370
    25
100
AcDbPolyline
 90
       38
 70
     0
 43
0.0
 10
28.1409753317002
 20
300.774211790409
 10
28.09393076829986
 20
300.7683149939089
 10
28.04624269190013
 20
300.7639492481092
 10
27.99800813770016
 20
300.761127876009
 10
27.9492524830001
 20
300.7599100537091
 10
27.90015765450021
 20
300.7602661123092
 10
27.85106134599976
 20
300.762055482009
 10
27.80210746950003
 20
300.765223479009
 10
27.75337615089978
 20
300.7698060070091
 10
27.70510785000016
 20
300.7757671047092
 10
27.65741732849993
 20
300.783070883809
 10
27.61041165639992
 20
300.7917133552092
 10
27.56431111439967
 20
300.801685581209
 10
27.51924796420027
 20
300.8129800364092
 10
27.47529391880024
 20
300.825544389909
 10
27.43256910320028
 20
300.8392914774089
 10
27.39118659499985
 20
300.8541593521091
 10
27.35122291199985
 20
300.870149624809
 10
27.31274183029994
 20
300.8872719517091
 10
27.27584175749975
 20
300.9055044794089
 10
27.24060941500014
 20
300.9248166674091
 10
27.20709730820022
 20
300.9452121103091
 10
27.17540857909996
 20
300.9666634530091
 10
27.1456287451002
 20
300.989154533909
 10
27.1177807814002
 20
301.0127031804091
 10
27.09189312020015
 20
301.0372476574091
 10
27.06799173519977
 20
301.0627113376092
 10
27.04606690320003
 20
301.089065288309
 10
27.02614100599991
 20
301.1162528766091
 10
27.00825700029994
 20
301.144190292609
 10
26.99244598009999
 20
301.1728105378091
 10
26.97873651750028
 20
301.2020495246091
 10
26.96716725349998
 20
301.2318249010089
 10
26.95777907590032
 20
301.262039737309
 10
26.95059529649992
 20
301.2926374497092
 10
26.94565047670018
 20
301.3235210443091
 10
26.94297662220005
 20
301.3545292022089
 10
26.9427612657
 20
301.3594650174089
  0
LWPOLYLINE
  5
191
330
70
100
AcDbEntity
  8
0
 62
   250
420
  3355443
370
    25
100
AcDbPolyline
 90
       45
 70
     0
 43
0.0
 10
27.32529958790018
 20
265.2712906353091
 10
27.31102160939974
 20
265.2851213809088
 10
27.29763746579975
 20
265.301134180409
 10
27.28517473560003
 20
265.3192971884091
 10
27.27368944419999
 20
265.3395898433093
 10
27.26318462610006
 20
265.361966623109
 10
27.25359889150029
 20
265.3863326777089
 10
27.2449141906997
 20
265.4126284109092
 10
27.23718640420015
 20
265.440786434609
 10
27.23044731980011
 20
265.4706628265089
 10
27.22470952309984
 20
265.502176018509
 10
27.21998379189995
 20
265.5352510684093
 10
27.21628439869978
 20
265.569729562609
 10
27.21361705189997
 20
265.6055048457091
 10
27.21198378019995
 20
265.6425087659091
 10
27.2113836789998
 20
265.680628908509
 10
27.21181360159994
 20
265.719757345509
 10
27.21327844430007
 20
265.7598301236094
 10
27.21578983630003
 20
265.8008033059091
 10
27.21935402709969
 20
265.8425959576093
 10
27.22397277150017
 20
265.8851325644088
 10
27.22965738840001
 20
265.9283847071091
 10
27.23641437349977
 20
265.9722655026093
 10
27.24425098020027
 20
266.0167153786092
 10
27.25317547200014
 20
266.0617432467092
 10
27.26315179139977
 20
266.1072518053089
 10
27.27413928949994
 20
266.1531212137091
 10
27.28611751390009
 20
266.199306066209
 10
27.29905630899984
 20
266.2457154558092
 10
27.31291062959996
 20
266.2922156902091
 10
27.32764137060011
 20
266.3386962487092
 10
27.34321444439995
 20
266.3850578040089
 10
27.35958546840008
 20
266.4311658026091
 10
27.37669703220022
 20
266.4768558627089
 10
27.39451827850015
 20
266.5220405653089
 10
27.41299475770026
 20
266.5665679833089
 10
27.43202534829976
 20
266.6101840687091
 10
27.45156391459992
 20
266.6527891546091
 10
27.47155989360022
 20
266.6942593104092
 10
27.49189515269973
 20
266.7343262140089
 10
27.51250175710004
 20
266.772779406809
 10
27.53334415630025
 20
266.8096558314088
 10
27.55435391759997
 20
266.8450586948093
 10
27.57548118149977
 20
266.8789466363092
 10
27.59668992269984
 20
266.9111541650091
  0
LINE
  5
192
330
70
100
AcDbEntity
  8
0
 62
    18
420
        0
370
    25
100
AcDbLine
 10
26.46106934019975
 20
301.7986097112092
 30
0.0
 11
26.4577736190999
 21
301.7995772448089
 31
0.0
  0
LWPOLYLINE
  5
193
330
70
100
AcDbEntity
  8
0
 62
   250
420
  3355443
370
    25
100
AcDbPolyline
 90
       32
 70
     0
 43
0.0
 10
26.4577736190999
 20
301.7995772448089
 10
26.44539381149984
 20
301.8040341943091
 10
26.42931005870032
 20
301.811949195709
 10
26.41404883230029
 20
301.8220136515092
 10
26.39965185740014
 20
301.834214806609
 10
26.3861679224003
 20
301.8485323341089
 10
26.37362984710016
 20
301.864958618609
 10
26.36205888969973
 20
301.8835099777092
 10
26.35149890840006
 20
301.9041793515091
 10
26.34198870240031
 20
301.926956433609
 10
26.33352043240022
 20
301.9518188485091
 10
26.32609026750015
 20
301.9786889470091
 10
26.31969628490027
 20
302.0074735036089
 10
26.31432933469997
 20
302.0381198911092
 10
26.30999165950005
 20
302.070546231409
 10
26.30668108099988
 20
302.1046679590091
 10
26.30438807430019
 20
302.1404368781091
 10
26.3031105386997
 20
302.1777930876091
 10
26.30285700129996
 20
302.2166303983092
 10
26.3036343471999
 20
302.2568298374092
 10
26.30544404259969
 20
302.2983219027092
 10
26.30828560950027
 20
302.340992866209
 10
26.31215346030021
 20
302.3846450993089
 10
26.31704100239983
 20
302.429181336009
 10
26.3229404092
 20
302.474495034609
 10
26.32982928359979
 20
302.520361740109
 10
26.33765542990007
 20
302.5667037008089
 10
26.34644172080025
 20
302.6133874988092
 10
26.3562600263001
 20
302.6600972930091
 10
26.36711298750006
 20
302.7066576490089
 10
26.37894587110023
 20
302.7530384084091
 10
26.39173439610026
 20
302.7991426084089
  0
LINE
  5
194
330
70
100
AcDbEntity
  8
0
 62
   250
420
  3355443
370
    25
100
AcDbLine
 10
-33.37144655980009
 20
320.1732078973091
 30
0.0
 11
-33.3590859918
 21
320.1687564598092
 31
0.0
  0
LWPOLYLINE
  5
195
330
70
100
AcDbEntity
  8
0
 62
   250
420
  3355443
370
    25
100
AcDbPolyline
 90
       38
 70
     0
 43
0.0
 10
27.80181243740001
 20
266.8269579001092
 10
27.80202782260005
 20
266.8220205841089
 10
27.80470237220014
 20
266.7909826222091
 10
27.80964900050027
 20
266.7600290195088
 10
27.81683516430029
 20
266.729337299809
 10
27.82622607049989
 20
266.6990057090091
 10
27.83779836279987
 20
266.6690895370094
 10
27.85151087910029
 20
266.639698093209
 10
27.86732478610016
 20
266.6109159434089
 10
27.8852115912
 20
266.5828049078088
 10
27.9051405798
 20
266.5554377057093
 10
27.92706917769975
 20
266.5288977621092
 10
27.9509749201998
 20
266.5032421916091
 10
27.97686735469998
 20
266.4785070043091
 10
28.00472062370005
 20
266.4547676783092
 10
28.03450636690028
 20
266.432087207109
 10
28.06620130529991
 20
266.4104584298093
 10
28.09972004270027
 20
266.3898977781093
 10
28.13495940660019
 20
266.3704324281089
 10
28.17186626189998
 20
266.3520687217089
 10
28.21035445749982
 20
266.3348232111092
 10
28.25032498249968
 20
266.3187317688089
 10
28.29171149509976
 20
266.3038365405088
 10
28.33443554899975
 20
266.2901878448092
 10
28.3783857275002
 20
266.2777954590089
 10
28.42344464700029
 20
266.2666421070093
 10
28.46954177319997
 20
266.2567209658091
 10
28.51654355539998
 20
266.2480985085089
 10
28.56422883870005
 20
266.240856483209
 10
28.61248985229982
 20
266.2350297851093
 10
28.66121257940017
 20
266.2306233606087
 10
28.71015792320019
 20
266.2276533649088
 10
28.75924360759979
 20
266.2261717273091
 10
28.80832793370027
 20
266.226145410009
 10
28.85708112429977
 20
266.2274319968092
 10
28.90532388460031
 20
266.2299669532087
 10
28.95302818220012
 20
266.2337855971088
 10
29.00009694029996
 20
266.2388747445088
  0
LINE
  5
196
330
70
100
AcDbEntity
  8
0
 62
    18
420
        0
370
    25
100
AcDbLine
 10
27.80164147319995
 20
266.8324145610089
 30
0.0
 11
27.80181243740001
 21
266.8269579001092
 31
0.0
  0
LINE
  5
197
330
70
100
AcDbEntity
  8
0
 62
   250
420
  3355443
370
    25
100
AcDbLine
 10
48.97167893260021
 20
310.9164114662091
 30
0.0
 11
51.0023424129997
 21
313.6488083925089
 31
0.0
  0
LINE
  5
198
330
70
100
AcDbEntity
  8
0
 62
   250
420
  3355443
370
    25
100
AcDbLine
 10
51.4499704356002
 20
308.0597192417089
 30
0.0
 11
53.69433568200017
 21
310.5457748381092
 31
0.0
  0
LINE
  5
199
330
70
100
AcDbEntity
  8
0
 62
    18
420
        0
370
    25
100
AcDbLine
 10
51.00231069889971
 20
313.648818131609
 30
0.0
 11
-50.63382233629984
 21
344.8602899386089
 31
0.0
  0
LINE
  5
19A
330
70
100
AcDbEntity
  8
0
 62
    18
420
        0
370
    25
100
AcDbLine
 10
27.7987712
 20
266.9477950309093
 30
0.0
 11
27.77543702749986
 21
266.9367354342092
 31
0.0
  0
LINE
  5
19B
330
70
100
AcDbEntity
  8
0
 62
   250
420
  3355443
370
    25
100
AcDbLine
 10
27.79835614049976
 20
266.9644797684092
 30
0.0
 11
27.78825530619968
 21
266.9606921227091
 31
0.0
  0
LWPOLYLINE
  5
19C
330
70
100
AcDbEntity
  8
0
 62
    18
420
        0
370
    25
100
AcDbPolyline
 90
        3
 70
     0
 43
0.0
 10
27.77543702749986
 20
266.9367354342092
 10
27.74651792790016
 20
266.9283610873091
 10
27.71473388669998
 20
266.9240490104092
  0
LINE
  5
19D
330
70
100
AcDbEntity
  8
0
 62
   250
420
  3355443
370
    25
100
AcDbLine
 10
27.59668992269984
 20
266.9111541650091
 30
0.0
 11
27.61793732949992
 21
266.9415814336088
 31
0.0
  0
LINE
  5
19E
330
70
100
AcDbEntity
  8
0
 62
   250
420
  3355443
370
    25
100
AcDbLine
 10
27.61004870470014
 20
266.9439933530088
 30
0.0
 11
27.78954391079994
 21
267.1910984659088
 31
0.0
  0
LWPOLYLINE
  5
19F
330
70
100
AcDbEntity
  8
0
 62
    18
420
        0
370
    25
100
AcDbPolyline
 90
       22
 70
     0
 43
0.0
 10
53.69433657899982
 20
310.545738780409
 10
53.68233729819989
 20
310.721100500909
 10
53.65609450860021
 20
310.8980120405089
 10
53.61560821010002
 20
311.0764733993089
 10
53.56049401190009
 20
311.257495437909
 10
53.49113630480031
 20
311.4400672957091
 10
53.40868826180027
 20
311.6211563902089
 10
53.31293111740011
 20
311.8007387598091
 10
53.20408363710033
 20
311.978838366009
 10
53.08395528999978
 20
312.1524945114091
 10
52.95235750009995
 20
312.3216329153089
 10
52.80947884350009
 20
312.486327858409
 10
52.65769451830021
 20
312.643841484509
 10
52.49685565410019
 20
312.7940537458092
 10
52.32711112120004
 20
312.9370846902091
 10
52.1512827285003
 20
313.0705566062092
 10
51.96926975429986
 20
313.1943093292089
 10
51.78117292019971
 20
313.3085030239091
 10
51.59011620019986
 20
313.4112404731089
 10
51.39714091900015
 20
313.5018892713091
 10
51.20120575190011
 20
313.5810818241089
 10
51.00231069889971
 20
313.648818131609
  0
LWPOLYLINE
  5
1A0
330
70
100
AcDbEntity
  8
0
 62
    18
420
        0
370
    25
100
AcDbPolyline
 90
        9
 70
     0
 43
0.0
 10
55.12325389010028
 20
253.105511391009
 10
55.11986183520013
 20
252.9348762066093
 10
55.10208467539978
 20
252.7714827714089
 10
55.0699224106999
 20
252.6153310855091
 10
55.02303541269984
 20
252.4656326269093
 10
54.96176330980024
 20
252.323175917709
 10
54.88712498760012
 20
252.1903265235088
 10
54.79889711099978
 20
252.0672441714089
 10
54.7353578969002
 20
251.9934461523092
  0
LINE
  5
1A1
330
70
100
AcDbEntity
  8
0
 62
   250
420
  3355443
370
    25
100
AcDbLine
 10
52.87888983089999
 20
250.6194075433088
 30
0.0
 11
55.12325478680025
 21
253.1054753469093
 31
0.0
  0
LINE
  5
1A3
330
70
100
AcDbEntity
  8
IGES
 62
    18
420
        0
370
    25
100
AcDbLine
 10
-21.22320608650006
 20
283.159757260409
 30
0.0
 11
-21.21565085269991
 21
282.856048750209
 31
0.0
  0
LWPOLYLINE
  5
1A4
330
70
100
AcDbEntity
  8
IGES
 62
    18
420
        0
370
    25
100
AcDbPolyline
 90
        7
 70
     0
 43
0.0
 10
-21.22320870070012
 20
283.1597557549092
 10
-21.00127687859991
 20
283.0897543412088
 10
-20.77228786879997
 20
282.9978121568089
 10
-20.5465005094999
 20
282.8870204366088
 10
-20.33370562090011
 20
282.7632258454088
 10
-20.12089571509994
 20
282.6188612060091
 10
-19.91471050520004
 20
282.4567877785087
  0
LWPOLYLINE
  5
1A5
330
70
100
AcDbEntity
  8
IGES
 62
    18
420
        0
370
    25
100
AcDbPolyline
 90
        7
 70
     0
 43
0.0
 10
-17.31752193739996
 20
281.9603571880089
 10
-17.09559012240015
 20
281.890355551209
 10
-16.86660114679987
 20
281.7984131464092
 10
-16.64081384860014
 20
281.6876212186092
 10
-16.42801904400004
 20
281.5638264413088
 10
-16.21520925020009
 20
281.4194616257088
 10
-16.00902394689994
 20
281.2573878425089
  0
LINE
  5
1A6
330
70
100
AcDbEntity
  8
IGES
 62
    18
420
        0
370
    25
100
AcDbLine
 10
-17.31752199530014
 20
281.9603595141089
 30
0.0
 11
-17.30996672530015
 21
281.6566495503092
 31
0.0
  0
LINE
  5
1A8
330
70
100
AcDbEntity
  8
RACCORDO
 62
   250
420
  3355443
370
    25
100
AcDbLine
 10
53.6933032866997
 20
278.1989621181091
 30
0.0
 11
53.47394098019974
 21
278.2663261573087
 31
0.0
  0
LINE
  5
1A9
330
70
100
AcDbEntity
  8
RACCORDO
 62
   250
420
  3355443
370
    25
100
AcDbLine
 10
53.45058755370025
 20
278.9602073505092
 30
0.0
 11
54.26250103039976
 21
278.7108765876091
 31
0.0
  0
LINE
  5
1AA
330
70
100
AcDbEntity
  8
RACCORDO
 62
    18
420
        0
370
    25
100
AcDbLine
 10
53.44819682340013
 20
279.0563109466088
 30
0.0
 11
54.40196890290019
 21
278.7634167811091
 31
0.0
  0
LINE
  5
1AB
330
70
100
AcDbEntity
  8
RACCORDO
 62
    18
420
        0
370
    25
100
AcDbLine
 10
53.3478628667999
 20
283.0895781211092
 30
0.0
 11
53.46596419679986
 21
278.3420904980094
 31
0.0
  0
LINE
  5
1AC
330
70
100
AcDbEntity
  8
RACCORDO
 62
    18
420
        0
370
    25
100
AcDbLine
 10
55.12325389010028
 20
253.105511391009
 30
0.0
 11
54.4898401203997
 21
278.5677482077088
 31
0.0
  0
LINE
  5
1AD
330
70
100
AcDbEntity
  8
RACCORDO
 62
    18
420
        0
370
    25
100
AcDbLine
 10
54.32775112449977
 20
285.0834707810092
 30
0.0
 11
53.69433657899982
 21
310.545738780409
 31
0.0
  0
LINE
  5
1AE
330
70
100
AcDbEntity
  8
RACCORDO
 62
    18
420
        0
370
    25
100
AcDbLine
 10
54.11953509630007
 20
284.4578821733093
 30
0.0
 11
53.55607889500024
 21
283.7151667289092
 31
0.0
  0
LINE
  5
1AF
330
70
100
AcDbEntity
  8
RACCORDO
 62
    18
420
        0
370
    25
100
AcDbLine
 10
53.6933032866997
 20
278.1989621181091
 30
0.0
 11
54.26250103039976
 21
278.7108765876091
 31
0.0
  0
SPLINE
  5
1B0
330
70
100
AcDbEntity
  8
RACCORDO
 62
    18
420
        0
370
    25
100
AcDbSpline
210
0.0
220
0.0
230
1.0
 70
     8
 71
     3
 72
     8
 73
     4
 74
     0
 42
0.0000000001
 43
0.0000000001
 40
0.0
 40
0.0
 40
0.0
 40
0.0
 40
1.0
 40
1.0
 40
1.0
 40
1.0
 10
54.11953509618777
 20
284.4578821732708
 30
0.0
 10
54.24352196857323
 20
284.6213145124766
 30
0.0
 10
54.3325908024336
 20
284.8889233426809
 30
0.0
 10
54.32775112449465
 20
285.083470780981
 30
0.0
  0
SPLINE
  5
1B1
330
70
100
AcDbEntity
  8
RACCORDO
 62
    18
420
        0
370
    25
100
AcDbSpline
210
0.0
220
0.0
230
1.0
 70
     8
 71
     3
 72
     8
 73
     4
 74
     0
 42
0.0000000001
 43
0.0000000001
 40
0.0
 40
0.0
 40
0.0
 40
0.0
 40
1.0
 40
1.0
 40
1.0
 40
1.0
 10
53.55607889500987
 20
283.7151667288438
 30
0.0
 10
53.43209202262443
 20
283.5517343896361
 30
0.0
 10
53.34302318876533
 20
283.2841255594324
 30
0.0
 10
53.34786286670492
 20
283.0895781211329
 30
0.0
  0
SPLINE
  5
1B2
330
70
100
AcDbEntity
  8
RACCORDO
 62
    18
420
        0
370
    25
100
AcDbSpline
210
0.0
220
0.0
230
1.0
 70
     8
 71
     3
 72
     8
 73
     4
 74
     0
 42
0.0000000001
 43
0.0000000001
 40
0.0
 40
0.0
 40
0.0
 40
0.0
 40
1.0
 40
1.0
 40
1.0
 40
1.0
 10
54.48984012039456
 20
278.5677482076889
 30
0.0
 10
54.48500044245368
 20
278.7622956459871
 30
0.0
 10
54.38775131233811
 20
278.8235218541357
 30
0.0
 10
54.26250103048639
 20
278.7108765875789
 30
0.0
  0
SPLINE
  5
1B3
330
70
100
AcDbEntity
  8
RACCORDO
 62
    18
420
        0
370
    25
100
AcDbSpline
210
0.0
220
0.0
230
1.0
 70
     8
 71
     3
 72
     8
 73
     4
 74
     0
 42
0.0000000001
 43
0.0000000001
 40
0.0
 40
0.0
 40
0.0
 40
0.0
 40
1.0
 40
1.0
 40
1.0
 40
1.0
 10
53.4659641967049
 20
278.3420904980332
 30
0.0
 10
53.47080387464513
 20
278.1475430597337
 30
0.0
 10
53.56805300475942
 20
278.0863168515818
 30
0.0
 10
53.69330328661114
 20
278.1989621181367
 30
0.0
  0
ENDSEC
  0
SECTION
  2
OBJECTS
  0
DICTIONARY
  5
C
330
0
100
AcDbDictionary
281
     1
  3
ACAD_COLOR
350
63
  3
ACAD_DETAILVIEWSTYLE
350
6A
  3
ACAD_GROUP
350
D
  3
ACAD_LAYOUT
350
62
  3
ACAD_MATERIAL
350
10
  3
ACAD_MLEADERSTYLE
350
66
  3
ACAD_MLINESTYLE
350
5F
  3
ACAD_PLOTSETTINGS
350
61
  3
ACAD_PLOTSTYLENAME
350
E
  3
ACAD_SCALELIST
350
42
  3
ACAD_SECTIONVIEWSTYLE
350
68
  3
ACAD_TABLESTYLE
350
64
  3
ACAD_VISUALSTYLE
350
29
  3
ACDB_RECOMPOSE_DATA
350
1BC
  3
AcDbVariableDictionary
350
1B4
  0
DICTIONARY
  5
63
102
{ACAD_REACTORS
330
C
102
}
330
C
100
AcDbDictionary
281
     1
  0
DICTIONARY
  5
6A
102
{ACAD_REACTORS
330
C
102
}
330
C
100
AcDbDictionary
281
     1
  3
Imperial24
350
6B
  0
DICTIONARY
  5
D
102
{ACAD_REACTORS
330
C
102
}
330
C
100
AcDbDictionary
281
     1
  0
DICTIONARY
  5
62
102
{ACAD_REACTORS
330
C
102
}
330
C
100
AcDbDictionary
281
     1
  3
Layout1
350
6F
  3
Layout2
350
77
  3
Model
350
73
  0
DICTIONARY
  5
10
102
{ACAD_REACTORS
330
C
102
}
330
C
100
AcDbDictionary
281
     1
  3
ByBlock
350
19
  3
ByLayer
350
11
  3
Global
350
21
  0
DICTIONARY
  5
66
102
{ACAD_REACTORS
330
C
102
}
330
C
100
AcDbDictionary
281
     1
  3
Standard
350
67
  0
DICTIONARY
  5
5F
102
{ACAD_REACTORS
330
C
102
}
330
C
100
AcDbDictionary
281
     1
  3
Standard
350
60
  0
DICTIONARY
  5
61
102
{ACAD_REACTORS
330
C
102
}
330
C
100
AcDbDictionary
281
     1
  0
ACDBDICTIONARYWDFLT
  5
E
102
{ACAD_REACTORS
330
C
102
}
330
C
100
AcDbDictionary
281
     1
  3
Normal
350
F
100
AcDbDictionaryWithDefault
340
F
  0
DICTIONARY
  5
42
102
{ACAD_REACTORS
330
C
102
}
330
C
100
AcDbDictionary
281
     1
  3
A0
350
43
  3
A1
350
44
  3
A2
350
45
  3
A3
350
46
  3
A4
350
47
  3
A5
350
48
  3
A6
350
49
  3
A7
350
4A
  3
A8
350
4B
  3
A9
350
4C
  3
B0
350
4D
  3
B1
350
4E
  3
B2
350
4F
  3
B3
350
50
  3
B4
350
51
  3
B5
350
52
  3
B6
350
53
  0
DICTIONARY
  5
68
102
{ACAD_REACTORS
330
C
102
}
330
C
100
AcDbDictionary
281
     1
  3
Imperial24
350
69
  0
DICTIONARY
  5
64
102
{ACAD_REACTORS
330
C
102
}
330
C
100
AcDbDictionary
281
     1
  3
Standard
350
65
  0
DICTIONARY
  5
29
102
{ACAD_REACTORS
330
C
102
}
330
C
100
AcDbDictionary
281
     1
  3
2dWireframe
350
2F
  3
Basic
350
2E
  3
Brighten
350
35
  3
ColorChange
350
39
  3
Conceptual
350
32
  3
Dim
350
34
  3
EdgeColorOff
350
41
  3
Facepattern
350
38
  3
Flat
350
2A
  3
FlatWithEdges
350
2B
  3
Gouraud
350
2C
  3
GouraudWithEdges
350
2D
  3
Hidden
350
31
  3
JitterOff
350
3F
  3
Linepattern
350
37
  3
OverhangOff
350
40
  3
Realistic
350
33
  3
Shaded
350
3E
  3
Shaded with edges
350
3D
  3
Shades of Gray
350
3A
  3
Sketchy
350
3B
  3
Thicken
350
36
  3
Wireframe
350
30
  3
X-Ray
350
3C
  0
XRECORD
  5
1BC
102
{ACAD_REACTORS
330
C
102
}
330
C
100
AcDbXrecord
280
     1
 90
        1
330
65
  0
DICTIONARY
  5
1B4
102
{ACAD_REACTORS
330
C
102
}
330
C
100
AcDbDictionary
281
     1
  3
CANNOSCALE
350
1B9
  3
CMLEADERSTYLE
350
1B6
  3
CTABLESTYLE
350
1B5
  3
CVIEWDETAILSTYLE
350
1B7
  3
CVIEWSECTIONSTYLE
350
1B8
  0
ACDBDETAILVIEWSTYLE
  5
6B
102
{ACAD_REACTORS
330
6A
102
}
330
6A
100
AcDbModelDocViewStyle
 70
     0
  3
Imperial24
290
     1
300
Imperial24
 90
        0
100
AcDbDetailViewStyle
 70
     0
 71
     0
 90
        3
 71
     1
340
55
 62
   256
 40
0.24
340
0
 62
   256
 40
0.24
300

 40
0.36
280
     3
 71
     2
340
5D
 90
       25
 62
   256
 71
     3
340
55
 62
   256
 40
0.24
 90
        1
 40
0.75
 90
        1
300
%<\AcVar ViewType \f "%tc1">% %<\AcVar ViewDetailId>%\PSCALE %<\AcVar ViewScale \f "%sn">%
 71
     4
340
5D
 90
       25
 62
   256
340
5D
 90
       25
 62
   256
280
     0
  0
LAYOUT
  5
6F
102
{ACAD_REACTORS
330
62
102
}
330
62
100
AcDbPlotSettings
  1

  2

  4

  6

 40
0.0
 41
0.0
 42
0.0
 43
0.0
 44
0.0
 45
0.0
 46
0.0
 47
0.0
 48
0.0
 49
0.0
140
0.0
141
0.0
142
1.0
143
1.0
 70
   688
 72
     0
 73
     0
 74
     5
  7

 75
    16
147
1.0
 76
     0
 77
     2
 78
   300
148
0.0
149
0.0
100
AcDbLayout
  1
Layout1
 70
     1
 71
     1
 10
0.0
 20
0.0
 11
12.0
 21
9.0
 12
0.0
 22
0.0
 32
0.0
 14
0.0
 24
0.0
 34
0.0
 15
0.0
 25
0.0
 35
0.0
146
0.0
 13
0.0
 23
0.0
 33
0.0
 16
1.0
 26
0.0
 36
0.0
 17
0.0
 27
1.0
 37
0.0
 76
     0
330
6C
  0
LAYOUT
  5
77
102
{ACAD_REACTORS
330
62
102
}
330
62
100
AcDbPlotSettings
  1

  2

  4

  6

 40
0.0
 41
0.0
 42
0.0
 43
0.0
 44
0.0
 45
0.0
 46
0.0
 47
0.0
 48
0.0
 49
0.0
140
0.0
141
0.0
142
1.0
143
1.0
 70
   688
 72
     0
 73
     0
 74
     5
  7

 75
    16
147
1.0
 76
     0
 77
     2
 78
   300
148
0.0
149
0.0
100
AcDbLayout
  1
Layout2
 70
     1
 71
     2
 10
0.0
 20
0.0
 11
12.0
 21
9.0
 12
0.0
 22
0.0
 32
0.0
 14
0.0
 24
0.0
 34
0.0
 15
0.0
 25
0.0
 35
0.0
146
0.0
 13
0.0
 23
0.0
 33
0.0
 16
1.0
 26
0.0
 36
0.0
 17
0.0
 27
1.0
 37
0.0
 76
     0
330
74
  0
LAYOUT
  5
73
102
{ACAD_REACTORS
330
62
102
}
330
62
100
AcDbPlotSettings
  1

  2

  4

  6

 40
0.0
 41
0.0
 42
0.0
 43
0.0
 44
0.0
 45
0.0
 46
0.0
 47
0.0
 48
0.0
 49
0.0
140
0.0
141
0.0
142
1.0
143
1.0
 70
  1712
 72
     0
 73
     0
 74
     0
  7

 75
     0
147
1.0
 76
     0
 77
     2
 78
   300
148
0.0
149
0.0
100
AcDbLayout
  1
Model
 70
     1
 71
     0
 10
0.0
 20
0.0
 11
12.0
 21
9.0
 12
0.0
 22
0.0
 32
0.0
 14
0.0
 24
0.0
 34
0.0
 15
0.0
 25
0.0
 35
0.0
146
0.0
 13
0.0
 23
0.0
 33
0.0
 16
1.0
 26
0.0
 36
0.0
 17
0.0
 27
1.0
 37
0.0
 76
     0
330
70
  0
MATERIAL
  5
19
102
{ACAD_XDICTIONARY
360
1A
102
}
102
{ACAD_REACTORS
330
10
102
}
330
10
100
AcDbMaterial
  1
ByBlock
 72
     0
 43
0.0208333333333333
 43
0.0
 43
0.0
 43
0.0
 43
0.0
 43
0.0208333333333333
 43
0.0
 43
0.0
 43
0.0
 43
0.0
 43
1.0
 43
0.0
 43
0.0
 43
0.0
 43
0.0
 43
1.0
 77
     0
 47
0.0208333333333333
 47
0.0
 47
0.0
 47
0.0
 47
0.0
 47
0.0208333333333333
 47
0.0
 47
0.0
 47
0.0
 47
0.0
 47
1.0
 47
0.0
 47
0.0
 47
0.0
 47
0.0
 47
1.0
171
     0
 49
0.0208333333333333
 49
0.0
 49
0.0
 49
0.0
 49
0.0
 49
0.0208333333333333
 49
0.0
 49
0.0
 49
0.0
 49
0.0
 49
1.0
 49
0.0
 49
0.0
 49
0.0
 49
0.0
 49
1.0
175
     0
142
0.0208333333333333
142
0.0
142
0.0
142
0.0
142
0.0
142
0.0208333333333333
142
0.0
142
0.0
142
0.0
142
0.0
142
1.0
142
0.0
142
0.0
142
0.0
142
0.0
142
1.0
179
     0
144
0.0208333333333333
144
0.0
144
0.0
144
0.0
144
0.0
144
0.0208333333333333
144
0.0
144
0.0
144
0.0
144
0.0
144
1.0
144
0.0
144
0.0
144
0.0
144
0.0
144
1.0
147
0.0208333333333333
147
0.0
147
0.0
147
0.0
147
0.0
147
0.0208333333333333
147
0.0
147
0.0
147
0.0
147
0.0
147
1.0
147
0.0
147
0.0
147
0.0
147
0.0
147
1.0
  0
MATERIAL
  5
11
102
{ACAD_XDICTIONARY
360
12
102
}
102
{ACAD_REACTORS
330
10
102
}
330
10
100
AcDbMaterial
  1
ByLayer
 72
     0
 43
0.0208333333333333
 43
0.0
 43
0.0
 43
0.0
 43
0.0
 43
0.0208333333333333
 43
0.0
 43
0.0
 43
0.0
 43
0.0
 43
1.0
 43
0.0
 43
0.0
 43
0.0
 43
0.0
 43
1.0
 77
     0
 47
0.0208333333333333
 47
0.0
 47
0.0
 47
0.0
 47
0.0
 47
0.0208333333333333
 47
0.0
 47
0.0
 47
0.0
 47
0.0
 47
1.0
 47
0.0
 47
0.0
 47
0.0
 47
0.0
 47
1.0
171
     0
 49
0.0208333333333333
 49
0.0
 49
0.0
 49
0.0
 49
0.0
 49
0.0208333333333333
 49
0.0
 49
0.0
 49
0.0
 49
0.0
 49
1.0
 49
0.0
 49
0.0
 49
0.0
 49
0.0
 49
1.0
175
     0
142
0.0208333333333333
142
0.0
142
0.0
142
0.0
142
0.0
142
0.0208333333333333
142
0.0
142
0.0
142
0.0
142
0.0
142
1.0
142
0.0
142
0.0
142
0.0
142
0.0
142
1.0
179
     0
144
0.0208333333333333
144
0.0
144
0.0
144
0.0
144
0.0
144
0.0208333333333333
144
0.0
144
0.0
144
0.0
144
0.0
144
1.0
144
0.0
144
0.0
144
0.0
144
0.0
144
1.0
147
0.0208333333333333
147
0.0
147
0.0
147
0.0
147
0.0
147
0.0208333333333333
147
0.0
147
0.0
147
0.0
147
0.0
147
1.0
147
0.0
147
0.0
147
0.0
147
0.0
147
1.0
  0
MATERIAL
  5
21
102
{ACAD_XDICTIONARY
360
22
102
}
102
{ACAD_REACTORS
330
10
102
}
330
10
100
AcDbMaterial
  1
Global
 72
     0
 43
0.0208333333333333
 43
0.0
 43
0.0
 43
0.0
 43
0.0
 43
0.0208333333333333
 43
0.0
 43
0.0
 43
0.0
 43
0.0
 43
1.0
 43
0.0
 43
0.0
 43
0.0
 43
0.0
 43
1.0
 77
     0
 47
0.0208333333333333
 47
0.0
 47
0.0
 47
0.0
 47
0.0
 47
0.0208333333333333
 47
0.0
 47
0.0
 47
0.0
 47
0.0
 47
1.0
 47
0.0
 47
0.0
 47
0.0
 47
0.0
 47
1.0
171
     0
 49
0.0208333333333333
 49
0.0
 49
0.0
 49
0.0
 49
0.0
 49
0.0208333333333333
 49
0.0
 49
0.0
 49
0.0
 49
0.0
 49
1.0
 49
0.0
 49
0.0
 49
0.0
 49
0.0
 49
1.0
175
     0
142
0.0208333333333333
142
0.0
142
0.0
142
0.0
142
0.0
142
0.0208333333333333
142
0.0
142
0.0
142
0.0
142
0.0
142
1.0
142
0.0
142
0.0
142
0.0
142
0.0
142
1.0
179
     0
144
0.0208333333333333
144
0.0
144
0.0
144
0.0
144
0.0
144
0.0208333333333333
144
0.0
144
0.0
144
0.0
144
0.0
144
1.0
144
0.0
144
0.0
144
0.0
144
0.0
144
1.0
147
0.0208333333333333
147
0.0
147
0.0
147
0.0
147
0.0
147
0.0208333333333333
147
0.0
147
0.0
147
0.0
147
0.0
147
1.0
147
0.0
147
0.0
147
0.0
147
0.0
147
1.0
  0
MLEADERSTYLE
  5
67
102
{ACAD_REACTORS
330
66
102
}
330
66
100
AcDbMLeaderStyle
179
     2
170
     2
171
     1
172
     0
 90
        2
 40
0.0
 41
0.0
173
     1
 91
-1056964608
340
5B
 92
       -2
290
     1
 42
0.09
291
     1
 43
0.36
  3
Standard
 44
0.18
300

342
55
174
     1
178
     6
175
     1
176
     0
 93
-1056964608
 45
0.18
292
     0
297
     0
 46
0.18
 94
-1056964608
 47
1.0
 49
1.0
140
1.0
293
     1
141
0.0
294
     1
177
     0
142
1.0
295
     1
296
     0
143
0.125
271
     0
272
     9
273
     9
298
     1
  0
MLINESTYLE
  5
60
102
{ACAD_REACTORS
330
5F
102
}
330
5F
100
AcDbMlineStyle
  2
STANDARD
 70
     0
  3

 62
   256
 51
90.0
 52
90.0
 71
     2
 49
0.5
 62
   256
  6
BYLAYER
 49
-0.5
 62
   256
  6
BYLAYER
  0
ACDBPLACEHOLDER
  5
F
102
{ACAD_REACTORS
330
E
102
}
330
E
  0
SCALE
  5
43
102
{ACAD_REACTORS
330
42
102
}
330
42
100
AcDbScale
 70
     0
300
1:1
140
1.0
141
1.0
290
     1
  0
SCALE
  5
44
102
{ACAD_REACTORS
330
42
102
}
330
42
100
AcDbScale
 70
     0
300
1/128" = 1'-0"
140
0.0078125
141
12.0
290
     0
  0
SCALE
  5
45
102
{ACAD_REACTORS
330
42
102
}
330
42
100
AcDbScale
 70
     0
300
1/64" = 1'-0"
140
0.015625
141
12.0
290
     0
  0
SCALE
  5
46
102
{ACAD_REACTORS
330
42
102
}
330
42
100
AcDbScale
 70
     0
300
1/32" = 1'-0"
140
0.03125
141
12.0
290
     0
  0
SCALE
  5
47
102
{ACAD_REACTORS
330
42
102
}
330
42
100
AcDbScale
 70
     0
300
1/16" = 1'-0"
140
0.0625
141
12.0
290
     0
  0
SCALE
  5
48
102
{ACAD_REACTORS
330
42
102
}
330
42
100
AcDbScale
 70
     0
300
3/32" = 1'-0"
140
0.09375
141
12.0
290
     0
  0
SCALE
  5
49
102
{ACAD_REACTORS
330
42
102
}
330
42
100
AcDbScale
 70
     0
300
1/8" = 1'-0"
140
0.125
141
12.0
290
     0
  0
SCALE
  5
4A
102
{ACAD_REACTORS
330
42
102
}
330
42
100
AcDbScale
 70
     0
300
3/16" = 1'-0"
140
0.1875
141
12.0
290
     0
  0
SCALE
  5
4B
102
{ACAD_REACTORS
330
42
102
}
330
42
100
AcDbScale
 70
     0
300
1/4" = 1'-0"
140
0.25
141
12.0
290
     0
  0
SCALE
  5
4C
102
{ACAD_REACTORS
330
42
102
}
330
42
100
AcDbScale
 70
     0
300
3/8" = 1'-0"
140
0.375
141
12.0
290
     0
  0
SCALE
  5
4D
102
{ACAD_REACTORS
330
42
102
}
330
42
100
AcDbScale
 70
     0
300
1/2" = 1'-0"
140
0.5
141
12.0
290
     0
  0
SCALE
  5
4E
102
{ACAD_REACTORS
330
42
102
}
330
42
100
AcDbScale
 70
     0
300
3/4" = 1'-0"
140
0.75
141
12.0
290
     0
  0
SCALE
  5
4F
102
{ACAD_REACTORS
330
42
102
}
330
42
100
AcDbScale
 70
     0
300
1" = 1'-0"
140
1.0
141
12.0
290
     0
  0
SCALE
  5
50
102
{ACAD_REACTORS
330
42
102
}
330
42
100
AcDbScale
 70
     0
300
1-1/2" = 1'-0"
140
1.5
141
12.0
290
     0
  0
SCALE
  5
51
102
{ACAD_REACTORS
330
42
102
}
330
42
100
AcDbScale
 70
     0
300
3" = 1'-0"
140
3.0
141
12.0
290
     0
  0
SCALE
  5
52
102
{ACAD_REACTORS
330
42
102
}
330
42
100
AcDbScale
 70
     0
300
6" = 1'-0"
140
6.0
141
12.0
290
     0
  0
SCALE
  5
53
102
{ACAD_REACTORS
330
42
102
}
330
42
100
AcDbScale
 70
     0
300
1'-0" = 1'-0"
140
12.0
141
12.0
290
     0
  0
ACDBSECTIONVIEWSTYLE
  5
69
102
{ACAD_REACTORS
330
68
102
}
330
68
100
AcDbModelDocViewStyle
 70
     0
  3
Imperial24
290
     1
300
Imperial24
 90
        0
100
AcDbSectionViewStyle
 70
     0
 71
     0
 90
       78
 71
     1
340
55
 62
   256
 40
0.24
340
0
340
0
 62
   256
 40
0.24
300
I, O, Q, S, X, Z
 40
0.48
 90
        3
 40
0.18
 90
        1
 71
     2
340
5D
 90
       25
 62
   256
340
5D
 90
       50
 62
   256
 40
0.24
 40
0.0
 40
0.24
 71
     3
340
55
 62
   256
 40
0.24
 90
        1
 40
0.75
 90
        1
300
%<\AcVar ViewType \f "%tc1">% %<\AcVar ViewSectionStartId>%-%<\AcVar ViewSectionEndId>%\PSCALE %<\AcVar ViewScale \f "%sn">%
 71
     4
 62
   256
 62
   257
300
ANSI31
 40
1.0
 90
        0
290
     0
290
     0
 90
        6
 40
0.0
 40
1.570796326794896
 40
0.2617993877991494
 40
1.308996938995747
 40
-0.2617993877991494
 40
1.832595714594046
  0
TABLESTYLE
  5
65
102
{ACAD_XDICTIONARY
360
1BA
102
}
102
{ACAD_REACTORS
330
64
102
}
330
64
100
AcDbTableStyle
280
     0
  3
Standard
 70
     0
 71
     0
 40
0.06
 41
0.06
280
     0
281
     0
  7
Standard
140
0.18
170
     2
 62
     0
 63
     7
283
     0
 90
      512
 91
        0
  1

274
    -2
284
     1
 64
     0
275
    -2
285
     1
 65
     0
276
    -2
286
     1
 66
     0
277
    -2
287
     1
 67
     0
278
    -2
288
     1
 68
     0
279
    -2
289
     1
 69
     0
  7
Standard
140
0.25
170
     5
 62
     0
 63
     7
283
     0
 90
      512
 91
        0
  1

274
    -2
284
     1
 64
     0
275
    -2
285
     1
 65
     0
276
    -2
286
     1
 66
     0
277
    -2
287
     1
 67
     0
278
    -2
288
     1
 68
     0
279
    -2
289
     1
 69
     0
  7
Standard
140
0.18
170
     5
 62
     0
 63
     7
283
     0
 90
      512
 91
        0
  1

274
    -2
284
     1
 64
     0
275
    -2
285
     1
 65
     0
276
    -2
286
     1
 66
     0
277
    -2
287
     1
 67
     0
278
    -2
288
     1
 68
     0
279
    -2
289
     1
 69
     0
  0
VISUALSTYLE
  5
2F
102
{ACAD_REACTORS
330
29
102
}
330
29
100
AcDbVisualStyle
  2
2dWireframe
 70
     4
177
     3
291
     0
 70
    58
 90
        0
176
     1
 90
        2
176
     1
 90
        0
176
     1
 90
        0
176
     1
 40
0.6
176
     1
 40
30.0
176
     1
 62
     7
420
 16777215
176
     1
 90
        1
176
     1
 90
        4
176
     1
 62
     7
176
     1
 62
   257
176
     1
 90
        1
176
     1
 90
        1
176
     1
 40
1.0
176
     1
 90
        0
176
     1
 62
   257
176
     1
 40
1.0
176
     1
 90
        1
176
     1
 90
        6
176
     1
 90
        2
176
     1
 62
     7
176
     1
 90
        5
176
     1
 90
        0
176
     1
 90
        0
176
     1
290
     0
176
     1
 90
        1
176
     1
 40
0.0
176
     1
 90
        0
176
     1
290
     1
176
     1
290
     1
176
     1
290
     0
176
     1
290
     0
176
     1
290
     0
176
     1
290
     0
176
     1
290
     0
176
     1
290
     0
176
     1
290
     0
176
     1
 90
       50
176
     1
 40
0.0
176
     1
 40
1.0
176
     1
 90
        0
176
     1
 62
    18
420
        0
176
     1
 90
       50
176
     1
 90
        3
176
     1
 62
     5
420
      255
176
     1
290
     0
176
     1
 90
       50
176
     1
 90
       50
176
     1
 90
       50
176
     1
290
     0
176
     1
 90
       50
176
     1
 62
   256
176
     0
 40
1.0
176
     0
 90
        2
176
     1
  1
strokes_ogs.tif
176
     1
290
     0
176
     1
 40
1.0
176
     1
 40
1.0
176
     1
  0
VISUALSTYLE
  5
2E
102
{ACAD_REACTORS
330
29
102
}
330
29
100
AcDbVisualStyle
  2
Basic
 70
     7
177
     3
291
     1
 70
    58
 90
        1
176
     1
 90
        0
176
     1
 90
        1
176
     1
 90
        0
176
     1
 40
0.6
176
     1
 40
30.0
176
     1
 62
     7
420
 16777215
176
     1
 90
        0
176
     1
 90
        4
176
     1
 62
     7
176
     1
 62
   257
176
     1
 90
        1
176
     1
 90
        1
176
     1
 40
1.0
176
     1
 90
        8
176
     1
 62
     7
176
     1
 40
1.0
176
     1
 90
        1
176
     1
 90
        6
176
     1
 90
        2
176
     1
 62
     7
176
     1
 90
        5
176
     1
 90
        0
176
     1
 90
        0
176
     1
290
     0
176
     1
 90
        1
176
     1
 40
0.0
176
     1
 90
        0
176
     1
290
     0
176
     1
290
     1
176
     1
290
     1
176
     1
290
     0
176
     1
290
     0
176
     1
290
     0
176
     1
290
     0
176
     1
290
     0
176
     1
290
     0
176
     1
 90
       50
176
     1
 40
0.0
176
     1
 40
1.0
176
     1
 90
        0
176
     1
 62
    18
420
        0
176
     1
 90
       50
176
     1
 90
        3
176
     1
 62
     5
420
      255
176
     1
290
     0
176
     1
 90
       50
176
     1
 90
       50
176
     1
 90
       50
176
     1
290
     0
176
     1
 90
       50
176
     1
 62
   256
176
     0
 40
1.0
176
     0
 90
        2
176
     1
  1
strokes_ogs.tif
176
     1
290
     0
176
     1
 40
1.0
176
     1
 40
1.0
176
     1
  0
VISUALSTYLE
  5
35
102
{ACAD_REACTORS
330
29
102
}
330
29
100
AcDbVisualStyle
  2
Brighten
 70
    12
177
     3
291
     1
 70
    58
 90
        2
176
     1
 90
        2
176
     1
 90
        0
176
     1
 90
        0
176
     1
 40
0.6
176
     1
 40
30.0
176
     1
 62
     7
420
 16777215
176
     1
 90
        1
176
     1
 90
        4
176
     1
 62
     7
176
     1
 62
   257
176
     1
 90
        1
176
     1
 90
        1
176
     1
 40
1.0
176
     1
 90
        8
176
     1
 62
     7
176
     1
 40
1.0
176
     1
 90
        1
176
     1
 90
        6
176
     1
 90
        2
176
     1
 62
     7
176
     1
 90
        5
176
     1
 90
        0
176
     1
 90
        0
176
     1
290
     0
176
     1
 90
        1
176
     1
 40
50.0
176
     1
 90
        0
176
     1
290
     0
176
     1
290
     1
176
     1
290
     1
176
     1
290
     0
176
     1
290
     0
176
     1
290
     0
176
     1
290
     0
176
     1
290
     0
176
     1
290
     0
176
     1
 90
       50
176
     1
 40
0.0
176
     1
 40
1.0
176
     1
 90
        0
176
     1
 62
    18
420
        0
176
     1
 90
       50
176
     1
 90
        3
176
     1
 62
     5
420
      255
176
     1
290
     0
176
     1
 90
       50
176
     1
 90
       50
176
     1
 90
       50
176
     1
290
     0
176
     1
 90
       50
176
     1
 62
   256
176
     0
 40
1.0
176
     0
 90
        2
176
     1
  1
strokes_ogs.tif
176
     1
290
     0
176
     1
 40
1.0
176
     1
 40
1.0
176
     1
  0
VISUALSTYLE
  5
39
102
{ACAD_REACTORS
330
29
102
}
330
29
100
AcDbVisualStyle
  2
ColorChange
 70
    16
177
     3
291
     1
 70
    58
 90
        2
176
     1
 90
        2
176
     1
 90
        3
176
     1
 90
        0
176
     1
 40
0.6
176
     1
 40
30.0
176
     1
 62
     8
420
  8421504
176
     1
 90
        1
176
     1
 90
        4
176
     1
 62
     7
176
     1
 62
   257
176
     1
 90
        1
176
     1
 90
        1
176
     1
 40
1.0
176
     1
 90
        8
176
     1
 62
     8
420
  8421504
176
     1
 40
1.0
176
     1
 90
        1
176
     1
 90
        6
176
     1
 90
        2
176
     1
 62
     7
176
     1
 90
        5
176
     1
 90
        0
176
     1
 90
        0
176
     1
290
     0
176
     1
 90
        1
176
     1
 40
0.0
176
     1
 90
        0
176
     1
290
     0
176
     1
290
     1
176
     1
290
     1
176
     1
290
     0
176
     1
290
     0
176
     1
290
     0
176
     1
290
     0
176
     1
290
     0
176
     1
290
     0
176
     1
 90
       50
176
     1
 40
0.0
176
     1
 40
1.0
176
     1
 90
        0
176
     1
 62
    18
420
        0
176
     1
 90
       50
176
     1
 90
        3
176
     1
 62
     5
420
      255
176
     1
290
     0
176
     1
 90
       50
176
     1
 90
       50
176
     1
 90
       50
176
     1
290
     0
176
     1
 90
       50
176
     1
 62
   256
176
     0
 40
1.0
176
     0
 90
        2
176
     1
  1
strokes_ogs.tif
176
     1
290
     0
176
     1
 40
1.0
176
     1
 40
1.0
176
     1
  0
VISUALSTYLE
  5
32
102
{ACAD_REACTORS
330
29
102
}
330
29
100
AcDbVisualStyle
  2
Conceptual
 70
     9
177
     3
291
     0
 70
    58
 90
        3
176
     1
 90
        2
176
     1
 90
        0
176
     1
 90
        0
176
     1
 40
0.6
176
     1
 40
30.0
176
     1
 62
     7
420
 16777215
176
     1
 90
        2
176
     1
 90
        2
176
     1
 62
     7
176
     1
 62
   257
176
     1
 90
        1
176
     1
 90
        1
176
     1
 40
179.0
176
     1
 90
        8
176
     1
 62
     7
176
     1
 40
1.0
176
     1
 90
        1
176
     1
 90
        6
176
     1
 90
        2
176
     1
 62
     7
176
     1
 90
        3
176
     1
 90
        0
176
     1
 90
        0
176
     1
290
     0
176
     1
 90
        1
176
     1
 40
0.0
176
     1
 90
        0
176
     1
290
     0
176
     1
290
     1
176
     1
290
     1
176
     1
290
     0
176
     1
290
     0
176
     1
290
     0
176
     1
290
     0
176
     1
290
     0
176
     1
290
     0
176
     1
 90
       50
176
     1
 40
0.0
176
     1
 40
1.0
176
     1
 90
        0
176
     1
 62
    18
420
        0
176
     1
 90
       50
176
     1
 90
        3
176
     1
 62
     5
420
      255
176
     1
290
     0
176
     1
 90
       50
176
     1
 90
       50
176
     1
 90
       50
176
     1
290
     0
176
     1
 90
       50
176
     1
 62
   256
176
     0
 40
1.0
176
     0
 90
        2
176
     1
  1
strokes_ogs.tif
176
     1
290
     0
176
     1
 40
1.0
176
     1
 40
1.0
176
     1
  0
VISUALSTYLE
  5
34
102
{ACAD_REACTORS
330
29
102
}
330
29
100
AcDbVisualStyle
  2
Dim
 70
    11
177
     3
291
     1
 70
    58
 90
        2
176
     1
 90
        2
176
     1
 90
        0
176
     1
 90
        0
176
     1
 40
0.6
176
     1
 40
30.0
176
     1
 62
     7
420
 16777215
176
     1
 90
        1
176
     1
 90
        4
176
     1
 62
     7
176
     1
 62
   257
176
     1
 90
        1
176
     1
 90
        1
176
     1
 40
1.0
176
     1
 90
        8
176
     1
 62
     7
176
     1
 40
1.0
176
     1
 90
        1
176
     1
 90
        6
176
     1
 90
        2
176
     1
 62
     7
176
     1
 90
        5
176
     1
 90
        0
176
     1
 90
        0
176
     1
290
     0
176
     1
 90
        1
176
     1
 40
-50.0
176
     1
 90
        0
176
     1
290
     0
176
     1
290
     1
176
     1
290
     1
176
     1
290
     0
176
     1
290
     0
176
     1
290
     0
176
     1
290
     0
176
     1
290
     0
176
     1
290
     0
176
     1
 90
       50
176
     1
 40
0.0
176
     1
 40
1.0
176
     1
 90
        0
176
     1
 62
    18
420
        0
176
     1
 90
       50
176
     1
 90
        3
176
     1
 62
     5
420
      255
176
     1
290
     0
176
     1
 90
       50
176
     1
 90
       50
176
     1
 90
       50
176
     1
290
     0
176
     1
 90
       50
176
     1
 62
   256
176
     0
 40
1.0
176
     0
 90
        2
176
     1
  1
strokes_ogs.tif
176
     1
290
     0
176
     1
 40
1.0
176
     1
 40
1.0
176
     1
  0
VISUALSTYLE
  5
41
102
{ACAD_REACTORS
330
29
102
}
330
29
100
AcDbVisualStyle
  2
EdgeColorOff
 70
    22
177
     3
291
     1
 70
    58
 90
        2
176
     0
 90
        2
176
     0
 90
        0
176
     0
 90
        0
176
     0
 40
0.6
176
     0
 40
30.0
176
     0
 62
     7
420
 16777215
176
     0
 90
        1
176
     0
 90
        4
176
     0
 62
     7
176
     0
 62
   257
176
     0
 90
        1
176
     0
 90
        1
176
     0
 40
1.0
176
     0
 90
        8
176
     2
 62
     7
176
     0
 40
1.0
176
     0
 90
        1
176
     0
 90
        6
176
     0
 90
        2
176
     0
 62
     7
176
     0
 90
        5
176
     0
 90
        0
176
     0
 90
        0
176
     0
290
     0
176
     0
 90
        1
176
     0
 40
0.0
176
     0
 90
        0
176
     0
290
     0
176
     0
290
     1
176
     0
290
     1
176
     0
290
     0
176
     0
290
     0
176
     0
290
     0
176
     0
290
     0
176
     0
290
     0
176
     0
290
     0
176
     0
 90
       50
176
     0
 40
0.0
176
     0
 40
1.0
176
     0
 90
        0
176
     0
 62
    18
420
        0
176
     0
 90
       50
176
     0
 90
        3
176
     0
 62
     5
420
      255
176
     0
290
     0
176
     0
 90
       50
176
     0
 90
       50
176
     0
 90
       50
176
     0
290
     0
176
     0
 90
       50
176
     0
 62
   256
176
     0
 40
1.0
176
     0
 90
        2
176
     0
  1
strokes_ogs.tif
176
     0
290
     0
176
     0
 40
1.0
176
     0
 40
1.0
176
     0
  0
VISUALSTYLE
  5
38
102
{ACAD_REACTORS
330
29
102
}
330
29
100
AcDbVisualStyle
  2
Facepattern
 70
    15
177
     3
291
     1
 70
    58
 90
        2
176
     1
 90
        2
176
     1
 90
        0
176
     1
 90
        0
176
     1
 40
0.6
176
     1
 40
30.0
176
     1
 62
     7
420
 16777215
176
     1
 90
        1
176
     1
 90
        4
176
     1
 62
     7
176
     1
 62
   257
176
     1
 90
        1
176
     1
 90
        1
176
     1
 40
1.0
176
     1
 90
        8
176
     1
 62
     7
176
     1
 40
1.0
176
     1
 90
        1
176
     1
 90
        6
176
     1
 90
        2
176
     1
 62
     7
176
     1
 90
        5
176
     1
 90
        0
176
     1
 90
        0
176
     1
290
     0
176
     1
 90
        1
176
     1
 40
0.0
176
     1
 90
        0
176
     1
290
     0
176
     1
290
     1
176
     1
290
     1
176
     1
290
     0
176
     1
290
     0
176
     1
290
     0
176
     1
290
     0
176
     1
290
     0
176
     1
290
     0
176
     1
 90
       50
176
     1
 40
0.0
176
     1
 40
1.0
176
     1
 90
        0
176
     1
 62
    18
420
        0
176
     1
 90
       50
176
     1
 90
        3
176
     1
 62
     5
420
      255
176
     1
290
     0
176
     1
 90
       50
176
     1
 90
       50
176
     1
 90
       50
176
     1
290
     0
176
     1
 90
       50
176
     1
 62
   256
176
     0
 40
1.0
176
     0
 90
        2
176
     1
  1
strokes_ogs.tif
176
     1
290
     0
176
     1
 40
1.0
176
     1
 40
1.0
176
     1
  0
VISUALSTYLE
  5
2A
102
{ACAD_REACTORS
330
29
102
}
330
29
100
AcDbVisualStyle
  2
Flat
 70
     0
177
     3
291
     1
 70
    58
 90
        2
176
     1
 90
        1
176
     1
 90
        1
176
     1
 90
        2
176
     1
 40
0.6
176
     1
 40
30.0
176
     1
 62
     7
420
 16777215
176
     1
 90
        0
176
     1
 90
        0
176
     1
 62
     7
176
     1
 62
   257
176
     1
 90
        1
176
     1
 90
        1
176
     1
 40
1.0
176
     1
 90
        8
176
     1
 62
     7
176
     1
 40
1.0
176
     1
 90
        1
176
     1
 90
        6
176
     1
 90
        2
176
     1
 62
     7
176
     1
 90
        5
176
     1
 90
        0
176
     1
 90
        0
176
     1
290
     0
176
     1
 90
       13
176
     1
 40
0.0
176
     1
 90
        0
176
     1
290
     0
176
     1
290
     1
176
     1
290
     1
176
     1
290
     0
176
     1
290
     0
176
     1
290
     0
176
     1
290
     0
176
     1
290
     0
176
     1
290
     0
176
     1
 90
       50
176
     1
 40
0.0
176
     1
 40
1.0
176
     1
 90
        0
176
     1
 62
    18
420
        0
176
     1
 90
       50
176
     1
 90
        3
176
     1
 62
     5
420
      255
176
     1
290
     0
176
     1
 90
       50
176
     1
 90
       50
176
     1
 90
       50
176
     1
290
     0
176
     1
 90
       50
176
     1
 62
   256
176
     0
 40
1.0
176
     0
 90
        2
176
     1
  1
strokes_ogs.tif
176
     1
290
     0
176
     1
 40
1.0
176
     1
 40
1.0
176
     1
  0
VISUALSTYLE
  5
2B
102
{ACAD_REACTORS
330
29
102
}
330
29
100
AcDbVisualStyle
  2
FlatWithEdges
 70
     1
177
     3
291
     1
 70
    58
 90
        2
176
     1
 90
        1
176
     1
 90
        1
176
     1
 90
        2
176
     1
 40
0.6
176
     1
 40
30.0
176
     1
 62
     7
420
 16777215
176
     1
 90
        1
176
     1
 90
        0
176
     1
 62
     7
176
     1
 62
   257
176
     1
 90
        1
176
     1
 90
        1
176
     1
 40
1.0
176
     1
 90
        0
176
     1
 62
   257
176
     1
 40
1.0
176
     1
 90
        1
176
     1
 90
        6
176
     1
 90
        2
176
     1
 62
     7
176
     1
 90
        5
176
     1
 90
        0
176
     1
 90
        0
176
     1
290
     0
176
     1
 90
       13
176
     1
 40
0.0
176
     1
 90
        0
176
     1
290
     0
176
     1
290
     1
176
     1
290
     1
176
     1
290
     0
176
     1
290
     0
176
     1
290
     0
176
     1
290
     0
176
     1
290
     0
176
     1
290
     0
176
     1
 90
       50
176
     1
 40
0.0
176
     1
 40
1.0
176
     1
 90
        0
176
     1
 62
    18
420
        0
176
     1
 90
       50
176
     1
 90
        3
176
     1
 62
     5
420
      255
176
     1
290
     0
176
     1
 90
       50
176
     1
 90
       50
176
     1
 90
       50
176
     1
290
     0
176
     1
 90
       50
176
     1
 62
   256
176
     0
 40
1.0
176
     0
 90
        2
176
     1
  1
strokes_ogs.tif
176
     1
290
     0
176
     1
 40
1.0
176
     1
 40
1.0
176
     1
  0
VISUALSTYLE
  5
2C
102
{ACAD_REACTORS
330
29
102
}
330
29
100
AcDbVisualStyle
  2
Gouraud
 70
     2
177
     3
291
     1
 70
    58
 90
        2
176
     1
 90
        2
176
     1
 90
        1
176
     1
 90
        2
176
     1
 40
0.6
176
     1
 40
30.0
176
     1
 62
     7
420
 16777215
176
     1
 90
        0
176
     1
 90
        0
176
     1
 62
     7
176
     1
 62
   257
176
     1
 90
        1
176
     1
 90
        1
176
     1
 40
1.0
176
     1
 90
        0
176
     1
 62
     7
176
     1
 40
1.0
176
     1
 90
        1
176
     1
 90
        6
176
     1
 90
        2
176
     1
 62
     7
176
     1
 90
        5
176
     1
 90
        0
176
     1
 90
        0
176
     1
290
     0
176
     1
 90
       13
176
     1
 40
0.0
176
     1
 90
        0
176
     1
290
     0
176
     1
290
     1
176
     1
290
     1
176
     1
290
     0
176
     1
290
     0
176
     1
290
     0
176
     1
290
     0
176
     1
290
     0
176
     1
290
     0
176
     1
 90
       50
176
     1
 40
0.0
176
     1
 40
1.0
176
     1
 90
        0
176
     1
 62
    18
420
        0
176
     1
 90
       50
176
     1
 90
        3
176
     1
 62
     5
420
      255
176
     1
290
     0
176
     1
 90
       50
176
     1
 90
       50
176
     1
 90
       50
176
     1
290
     0
176
     1
 90
       50
176
     1
 62
   256
176
     0
 40
1.0
176
     0
 90
        2
176
     1
  1
strokes_ogs.tif
176
     1
290
     0
176
     1
 40
1.0
176
     1
 40
1.0
176
     1
  0
VISUALSTYLE
  5
2D
102
{ACAD_REACTORS
330
29
102
}
330
29
100
AcDbVisualStyle
  2
GouraudWithEdges
 70
     3
177
     3
291
     1
 70
    58
 90
        2
176
     1
 90
        2
176
     1
 90
        1
176
     1
 90
        2
176
     1
 40
0.6
176
     1
 40
30.0
176
     1
 62
     7
420
 16777215
176
     1
 90
        1
176
     1
 90
        0
176
     1
 62
     7
176
     1
 62
   257
176
     1
 90
        1
176
     1
 90
        1
176
     1
 40
1.0
176
     1
 90
        0
176
     1
 62
   257
176
     1
 40
1.0
176
     1
 90
        1
176
     1
 90
        6
176
     1
 90
        2
176
     1
 62
     7
176
     1
 90
        5
176
     1
 90
        0
176
     1
 90
        0
176
     1
290
     0
176
     1
 90
       13
176
     1
 40
0.0
176
     1
 90
        0
176
     1
290
     0
176
     1
290
     1
176
     1
290
     1
176
     1
290
     0
176
     1
290
     0
176
     1
290
     0
176
     1
290
     0
176
     1
290
     0
176
     1
290
     0
176
     1
 90
       50
176
     1
 40
0.0
176
     1
 40
1.0
176
     1
 90
        0
176
     1
 62
    18
420
        0
176
     1
 90
       50
176
     1
 90
        3
176
     1
 62
     5
420
      255
176
     1
290
     0
176
     1
 90
       50
176
     1
 90
       50
176
     1
 90
       50
176
     1
290
     0
176
     1
 90
       50
176
     1
 62
   256
176
     0
 40
1.0
176
     0
 90
        2
176
     1
  1
strokes_ogs.tif
176
     1
290
     0
176
     1
 40
1.0
176
     1
 40
1.0
176
     1
  0
VISUALSTYLE
  5
31
102
{ACAD_REACTORS
330
29
102
}
330
29
100
AcDbVisualStyle
  2
Hidden
 70
     6
177
     3
291
     0
 70
    58
 90
        1
176
     1
 90
        2
176
     1
 90
        2
176
     1
 90
        0
176
     1
 40
0.6
176
     1
 40
30.0
176
     1
 62
     7
420
 16777215
176
     1
 90
        2
176
     1
 90
        2
176
     1
 62
     7
176
     1
 62
   257
176
     1
 90
        2
176
     1
 90
        1
176
     1
 40
40.0
176
     1
 90
        0
176
     1
 62
   257
176
     1
 40
1.0
176
     1
 90
        1
176
     1
 90
        6
176
     1
 90
        2
176
     1
 62
     7
176
     1
 90
        3
176
     1
 90
        0
176
     1
 90
        0
176
     1
290
     0
176
     1
 90
        1
176
     1
 40
0.0
176
     1
 90
        0
176
     1
290
     0
176
     1
290
     1
176
     1
290
     1
176
     1
290
     0
176
     1
290
     0
176
     1
290
     0
176
     1
290
     0
176
     1
290
     0
176
     1
290
     0
176
     1
 90
       50
176
     1
 40
0.0
176
     1
 40
1.0
176
     1
 90
        0
176
     1
 62
    18
420
        0
176
     1
 90
       50
176
     1
 90
        3
176
     1
 62
     5
420
      255
176
     1
290
     0
176
     1
 90
       50
176
     1
 90
       50
176
     1
 90
       50
176
     1
290
     0
176
     1
 90
       50
176
     1
 62
   256
176
     0
 40
1.0
176
     0
 90
        2
176
     1
  1
strokes_ogs.tif
176
     1
290
     0
176
     1
 40
1.0
176
     1
 40
1.0
176
     1
  0
VISUALSTYLE
  5
3F
102
{ACAD_REACTORS
330
29
102
}
330
29
100
AcDbVisualStyle
  2
JitterOff
 70
    20
177
     3
291
     1
 70
    58
 90
        2
176
     0
 90
        2
176
     0
 90
        0
176
     0
 90
        0
176
     0
 40
0.6
176
     0
 40
30.0
176
     0
 62
     7
420
 16777215
176
     0
 90
        1
176
     0
 90
        4
176
     0
 62
     7
176
     0
 62
   257
176
     0
 90
        1
176
     0
 90
        1
176
     0
 40
1.0
176
     0
 90
       10
176
     2
 62
     7
176
     0
 40
1.0
176
     0
 90
        1
176
     0
 90
        6
176
     0
 90
        2
176
     0
 62
     7
176
     0
 90
        5
176
     0
 90
        0
176
     0
 90
        0
176
     0
290
     0
176
     0
 90
        1
176
     0
 40
0.0
176
     0
 90
        0
176
     0
290
     0
176
     0
290
     1
176
     0
290
     1
176
     0
290
     0
176
     0
290
     0
176
     0
290
     0
176
     0
290
     0
176
     0
290
     0
176
     0
290
     0
176
     0
 90
       50
176
     0
 40
0.0
176
     0
 40
1.0
176
     0
 90
        0
176
     0
 62
    18
420
        0
176
     0
 90
       50
176
     0
 90
        3
176
     0
 62
     5
420
      255
176
     0
290
     0
176
     0
 90
       50
176
     0
 90
       50
176
     0
 90
       50
176
     0
290
     0
176
     0
 90
       50
176
     0
 62
   256
176
     0
 40
1.0
176
     0
 90
        2
176
     0
  1
strokes_ogs.tif
176
     0
290
     0
176
     0
 40
1.0
176
     0
 40
1.0
176
     0
  0
VISUALSTYLE
  5
37
102
{ACAD_REACTORS
330
29
102
}
330
29
100
AcDbVisualStyle
  2
Linepattern
 70
    14
177
     3
291
     1
 70
    58
 90
        2
176
     1
 90
        2
176
     1
 90
        0
176
     1
 90
        0
176
     1
 40
0.6
176
     1
 40
30.0
176
     1
 62
     7
420
 16777215
176
     1
 90
        1
176
     1
 90
        4
176
     1
 62
     7
176
     1
 62
   257
176
     1
 90
        7
176
     1
 90
        7
176
     1
 40
1.0
176
     1
 90
        8
176
     1
 62
     7
176
     1
 40
1.0
176
     1
 90
        1
176
     1
 90
        6
176
     1
 90
        2
176
     1
 62
     7
176
     1
 90
        5
176
     1
 90
        0
176
     1
 90
        0
176
     1
290
     0
176
     1
 90
        1
176
     1
 40
0.0
176
     1
 90
        0
176
     1
290
     0
176
     1
290
     1
176
     1
290
     1
176
     1
290
     0
176
     1
290
     0
176
     1
290
     0
176
     1
290
     0
176
     1
290
     0
176
     1
290
     0
176
     1
 90
       50
176
     1
 40
0.0
176
     1
 40
1.0
176
     1
 90
        0
176
     1
 62
    18
420
        0
176
     1
 90
       50
176
     1
 90
        3
176
     1
 62
     5
420
      255
176
     1
290
     0
176
     1
 90
       50
176
     1
 90
       50
176
     1
 90
       50
176
     1
290
     0
176
     1
 90
       50
176
     1
 62
   256
176
     0
 40
1.0
176
     0
 90
        2
176
     1
  1
strokes_ogs.tif
176
     1
290
     0
176
     1
 40
1.0
176
     1
 40
1.0
176
     1
  0
VISUALSTYLE
  5
40
102
{ACAD_REACTORS
330
29
102
}
330
29
100
AcDbVisualStyle
  2
OverhangOff
 70
    21
177
     3
291
     1
 70
    58
 90
        2
176
     0
 90
        2
176
     0
 90
        0
176
     0
 90
        0
176
     0
 40
0.6
176
     0
 40
30.0
176
     0
 62
     7
420
 16777215
176
     0
 90
        1
176
     0
 90
        4
176
     0
 62
     7
176
     0
 62
   257
176
     0
 90
        1
176
     0
 90
        1
176
     0
 40
1.0
176
     0
 90
        9
176
     2
 62
     7
176
     0
 40
1.0
176
     0
 90
        1
176
     0
 90
        6
176
     0
 90
        2
176
     0
 62
     7
176
     0
 90
        5
176
     0
 90
        0
176
     0
 90
        0
176
     0
290
     0
176
     0
 90
        1
176
     0
 40
0.0
176
     0
 90
        0
176
     0
290
     0
176
     0
290
     1
176
     0
290
     1
176
     0
290
     0
176
     0
290
     0
176
     0
290
     0
176
     0
290
     0
176
     0
290
     0
176
     0
290
     0
176
     0
 90
       50
176
     0
 40
0.0
176
     0
 40
1.0
176
     0
 90
        0
176
     0
 62
    18
420
        0
176
     0
 90
       50
176
     0
 90
        3
176
     0
 62
     5
420
      255
176
     0
290
     0
176
     0
 90
       50
176
     0
 90
       50
176
     0
 90
       50
176
     0
290
     0
176
     0
 90
       50
176
     0
 62
   256
176
     0
 40
1.0
176
     0
 90
        2
176
     0
  1
strokes_ogs.tif
176
     0
290
     0
176
     0
 40
1.0
176
     0
 40
1.0
176
     0
  0
VISUALSTYLE
  5
33
102
{ACAD_REACTORS
330
29
102
}
330
29
100
AcDbVisualStyle
  2
Realistic
 70
     8
177
     3
291
     0
 70
    58
 90
        2
176
     1
 90
        3
176
     1
 90
        0
176
     1
 90
        2
176
     1
 40
0.6
176
     1
 40
30.0
176
     1
 62
     7
420
 16777215
176
     1
 90
        0
176
     1
 90
        0
176
     1
 62
     7
176
     1
 62
   257
176
     1
 90
        1
176
     1
 90
        1
176
     1
 40
1.0
176
     1
 90
        8
176
     1
 62
   257
176
     1
 40
1.0
176
     1
 90
        1
176
     1
 90
        6
176
     1
 90
        2
176
     1
 62
     7
176
     1
 90
        3
176
     1
 90
        0
176
     1
 90
        0
176
     1
290
     0
176
     1
 90
       13
176
     1
 40
0.0
176
     1
 90
        0
176
     1
290
     0
176
     1
290
     1
176
     1
290
     1
176
     1
290
     0
176
     1
290
     0
176
     1
290
     0
176
     1
290
     0
176
     1
290
     0
176
     1
290
     0
176
     1
 90
       50
176
     1
 40
0.0
176
     1
 40
1.0
176
     1
 90
        0
176
     1
 62
    18
420
        0
176
     1
 90
       50
176
     1
 90
        3
176
     1
 62
     5
420
      255
176
     1
290
     0
176
     1
 90
       50
176
     1
 90
       50
176
     1
 90
       50
176
     1
290
     0
176
     1
 90
       50
176
     1
 62
   256
176
     0
 40
1.0
176
     0
 90
        2
176
     1
  1
strokes_ogs.tif
176
     1
290
     0
176
     1
 40
1.0
176
     1
 40
1.0
176
     1
  0
VISUALSTYLE
  5
3E
102
{ACAD_REACTORS
330
29
102
}
330
29
100
AcDbVisualStyle
  2
Shaded
 70
    27
177
     3
291
     0
 70
    58
 90
        2
176
     1
 90
        2
176
     1
 90
        1
176
     1
 90
        2
176
     1
 40
0.6
176
     1
 40
30.0
176
     1
 62
     7
420
 16777215
176
     1
 90
        0
176
     1
 90
        4
176
     1
 62
     7
176
     1
 62
   257
176
     1
 90
        1
176
     1
 90
        1
176
     1
 40
1.0
176
     1
 90
        8
176
     1
 62
   257
176
     1
 40
1.0
176
     1
 90
        1
176
     1
 90
        6
176
     1
 90
        2
176
     1
 62
     8
420
  7895160
176
     1
 90
        3
176
     1
 90
        0
176
     1
 90
        0
176
     1
290
     0
176
     1
 90
        5
176
     1
 40
0.0
176
     1
 90
        0
176
     1
290
     0
176
     1
290
     1
176
     1
290
     1
176
     1
290
     0
176
     1
290
     0
176
     1
290
     0
176
     1
290
     0
176
     1
290
     0
176
     1
290
     0
176
     1
 90
       50
176
     1
 40
0.0
176
     1
 40
1.0
176
     1
 90
        0
176
     1
 62
    18
420
        0
176
     1
 90
       50
176
     1
 90
        3
176
     1
 62
     5
420
      255
176
     1
290
     0
176
     1
 90
       50
176
     1
 90
       50
176
     1
 90
       50
176
     1
290
     0
176
     1
 90
       50
176
     1
 62
   256
176
     0
 40
1.0
176
     0
 90
        2
176
     1
  1
strokes_ogs.tif
176
     1
290
     0
176
     1
 40
1.0
176
     1
 40
1.0
176
     1
  0
VISUALSTYLE
  5
3D
102
{ACAD_REACTORS
330
29
102
}
330
29
100
AcDbVisualStyle
  2
Shaded with edges
 70
    26
177
     3
291
     0
 70
    58
 90
        2
176
     1
 90
        2
176
     1
 90
        1
176
     1
 90
        2
176
     1
 40
0.6
176
     1
 40
30.0
176
     1
 62
     7
420
 16777215
176
     1
 90
        1
176
     1
 90
        2
176
     1
 62
     7
176
     1
 62
   257
176
     1
 90
        2
176
     1
 90
        1
176
     1
 40
1.0
176
     1
 90
        8
176
     1
 62
   257
176
     1
 40
1.0
176
     1
 90
        1
176
     1
 90
        6
176
     1
 90
        2
176
     1
 62
     7
176
     1
 90
        3
176
     1
 90
        0
176
     1
 90
        0
176
     1
290
     0
176
     1
 90
        5
176
     1
 40
0.0
176
     1
 90
        0
176
     1
290
     0
176
     1
290
     1
176
     1
290
     1
176
     1
290
     0
176
     1
290
     0
176
     1
290
     0
176
     1
290
     0
176
     1
290
     0
176
     1
290
     0
176
     1
 90
       50
176
     1
 40
0.0
176
     1
 40
1.0
176
     1
 90
        0
176
     1
 62
    18
420
        0
176
     1
 90
       50
176
     1
 90
        3
176
     1
 62
     5
420
      255
176
     1
290
     0
176
     1
 90
       50
176
     1
 90
       50
176
     1
 90
       50
176
     1
290
     0
176
     1
 90
       50
176
     1
 62
   256
176
     0
 40
1.0
176
     0
 90
        2
176
     1
  1
strokes_ogs.tif
176
     1
290
     0
176
     1
 40
1.0
176
     1
 40
1.0
176
     1
  0
VISUALSTYLE
  5
3A
102
{ACAD_REACTORS
330
29
102
}
330
29
100
AcDbVisualStyle
  2
Shades of Gray
 70
    23
177
     3
291
     0
 70
    58
 90
        2
176
     1
 90
        2
176
     1
 90
        3
176
     1
 90
        0
176
     1
 40
0.6
176
     1
 40
30.0
176
     1
 62
     7
420
 16777215
176
     1
 90
        2
176
     1
 90
        2
176
     1
 62
     7
176
     1
 62
     7
176
     1
 90
        1
176
     1
 90
        1
176
     1
 40
40.0
176
     1
 90
        8
176
     1
 62
     7
176
     1
 40
1.0
176
     1
 90
        1
176
     1
 90
        6
176
     1
 90
        2
176
     1
 62
     7
176
     1
 90
        3
176
     1
 90
        0
176
     1
 90
        0
176
     1
290
     0
176
     1
 90
        1
176
     1
 40
0.0
176
     1
 90
        0
176
     1
290
     0
176
     1
290
     1
176
     1
290
     1
176
     1
290
     0
176
     1
290
     0
176
     1
290
     0
176
     1
290
     0
176
     1
290
     0
176
     1
290
     0
176
     1
 90
       50
176
     1
 40
0.0
176
     1
 40
1.0
176
     1
 90
        0
176
     1
 62
    18
420
        0
176
     1
 90
       50
176
     1
 90
        3
176
     1
 62
     5
420
      255
176
     1
290
     0
176
     1
 90
       50
176
     1
 90
       50
176
     1
 90
       50
176
     1
290
     0
176
     1
 90
       50
176
     1
 62
   256
176
     0
 40
1.0
176
     0
 90
        2
176
     1
  1
strokes_ogs.tif
176
     1
290
     0
176
     1
 40
1.0
176
     1
 40
1.0
176
     1
  0
VISUALSTYLE
  5
3B
102
{ACAD_REACTORS
330
29
102
}
330
29
100
AcDbVisualStyle
  2
Sketchy
 70
    24
177
     3
291
     0
 70
    58
 90
        1
176
     1
 90
        2
176
     1
 90
        2
176
     1
 90
        0
176
     1
 40
0.6
176
     1
 40
30.0
176
     1
 62
     7
420
 16777215
176
     1
 90
        2
176
     1
 90
        2
176
     1
 62
     7
176
     1
 62
     7
176
     1
 90
        1
176
     1
 90
        1
176
     1
 40
40.0
176
     1
 90
       11
176
     1
 62
     7
176
     1
 40
1.0
176
     1
 90
        1
176
     1
 90
        6
176
     1
 90
        2
176
     1
 62
     7
176
     1
 90
        6
176
     1
 90
        0
176
     1
 90
        0
176
     1
290
     0
176
     1
 90
        1
176
     1
 40
0.0
176
     1
 90
        0
176
     1
290
     0
176
     1
290
     1
176
     1
290
     1
176
     1
290
     0
176
     1
290
     0
176
     1
290
     0
176
     1
290
     0
176
     1
290
     0
176
     1
290
     0
176
     1
 90
       50
176
     1
 40
0.0
176
     1
 40
1.0
176
     1
 90
        0
176
     1
 62
    18
420
        0
176
     1
 90
       50
176
     1
 90
        3
176
     1
 62
     5
420
      255
176
     1
290
     0
176
     1
 90
       50
176
     1
 90
       50
176
     1
 90
       50
176
     1
290
     0
176
     1
 90
       50
176
     1
 62
   256
176
     0
 40
1.0
176
     0
 90
        2
176
     1
  1
strokes_ogs.tif
176
     1
290
     0
176
     1
 40
1.0
176
     1
 40
1.0
176
     1
  0
VISUALSTYLE
  5
36
102
{ACAD_REACTORS
330
29
102
}
330
29
100
AcDbVisualStyle
  2
Thicken
 70
    13
177
     3
291
     1
 70
    58
 90
        2
176
     1
 90
        2
176
     1
 90
        0
176
     1
 90
        0
176
     1
 40
0.6
176
     1
 40
30.0
176
     1
 62
     7
420
 16777215
176
     1
 90
        1
176
     1
 90
        4
176
     1
 62
     7
176
     1
 62
   257
176
     1
 90
        1
176
     1
 90
        1
176
     1
 40
1.0
176
     1
 90
       12
176
     1
 62
     7
176
     1
 40
1.0
176
     1
 90
        1
176
     1
 90
        6
176
     1
 90
        2
176
     1
 62
     7
176
     1
 90
        5
176
     1
 90
        0
176
     1
 90
        0
176
     1
290
     0
176
     1
 90
        1
176
     1
 40
0.0
176
     1
 90
        0
176
     1
290
     0
176
     1
290
     1
176
     1
290
     1
176
     1
290
     0
176
     1
290
     0
176
     1
290
     0
176
     1
290
     0
176
     1
290
     0
176
     1
290
     0
176
     1
 90
       50
176
     1
 40
0.0
176
     1
 40
1.0
176
     1
 90
        0
176
     1
 62
    18
420
        0
176
     1
 90
       50
176
     1
 90
        3
176
     1
 62
     5
420
      255
176
     1
290
     0
176
     1
 90
       50
176
     1
 90
       50
176
     1
 90
       50
176
     1
290
     0
176
     1
 90
       50
176
     1
 62
   256
176
     0
 40
1.0
176
     0
 90
        2
176
     1
  1
strokes_ogs.tif
176
     1
290
     0
176
     1
 40
1.0
176
     1
 40
1.0
176
     1
  0
VISUALSTYLE
  5
30
102
{ACAD_REACTORS
330
29
102
}
330
29
100
AcDbVisualStyle
  2
Wireframe
 70
     5
177
     3
291
     0
 70
    58
 90
        0
176
     1
 90
        2
176
     1
 90
        0
176
     1
 90
        0
176
     1
 40
0.6
176
     1
 40
30.0
176
     1
 62
     7
420
 16777215
176
     1
 90
        1
176
     1
 90
        4
176
     1
 62
     7
176
     1
 62
   257
176
     1
 90
        1
176
     1
 90
        1
176
     1
 40
1.0
176
     1
 90
        0
176
     1
 62
   257
176
     1
 40
1.0
176
     1
 90
        1
176
     1
 90
        6
176
     1
 90
        2
176
     1
 62
     7
176
     1
 90
        3
176
     1
 90
        0
176
     1
 90
        0
176
     1
290
     0
176
     1
 90
        1
176
     1
 40
0.0
176
     1
 90
        0
176
     1
290
     0
176
     1
290
     1
176
     1
290
     1
176
     1
290
     0
176
     1
290
     0
176
     1
290
     0
176
     1
290
     0
176
     1
290
     0
176
     1
290
     0
176
     1
 90
       50
176
     1
 40
0.0
176
     1
 40
1.0
176
     1
 90
        0
176
     1
 62
    18
420
        0
176
     1
 90
       50
176
     1
 90
        3
176
     1
 62
     5
420
      255
176
     1
290
     0
176
     1
 90
       50
176
     1
 90
       50
176
     1
 90
       50
176
     1
290
     0
176
     1
 90
       50
176
     1
 62
   256
176
     0
 40
1.0
176
     0
 90
        2
176
     1
  1
strokes_ogs.tif
176
     1
290
     0
176
     1
 40
1.0
176
     1
 40
1.0
176
     1
  0
VISUALSTYLE
  5
3C
102
{ACAD_REACTORS
330
29
102
}
330
29
100
AcDbVisualStyle
  2
X-Ray
 70
    25
177
     3
291
     0
 70
    58
 90
        2
176
     1
 90
        2
176
     1
 90
        1
176
     1
 90
        1
176
     1
 40
0.5
176
     1
 40
30.0
176
     1
 62
     7
420
 16777215
176
     1
 90
        1
176
     1
 90
        0
176
     1
 62
     7
176
     1
 62
   257
176
     1
 90
        1
176
     1
 90
        1
176
     1
 40
1.0
176
     1
 90
        8
176
     1
 62
     7
176
     1
 40
1.0
176
     1
 90
        1
176
     1
 90
        6
176
     1
 90
        2
176
     1
 62
     7
176
     1
 90
        3
176
     1
 90
        0
176
     1
 90
        0
176
     1
290
     0
176
     1
 90
       13
176
     1
 40
0.0
176
     1
 90
        0
176
     1
290
     0
176
     1
290
     1
176
     1
290
     1
176
     1
290
     0
176
     1
290
     0
176
     1
290
     0
176
     1
290
     0
176
     1
290
     0
176
     1
290
     0
176
     1
 90
       50
176
     1
 40
0.0
176
     1
 40
1.0
176
     1
 90
        0
176
     1
 62
    18
420
        0
176
     1
 90
       50
176
     1
 90
        3
176
     1
 62
     5
420
      255
176
     1
290
     0
176
     1
 90
       50
176
     1
 90
       50
176
     1
 90
       50
176
     1
290
     0
176
     1
 90
       50
176
     1
 62
   256
176
     0
 40
1.0
176
     0
 90
        2
176
     1
  1
strokes_ogs.tif
176
     1
290
     0
176
     1
 40
1.0
176
     1
 40
1.0
176
     1
  0
DICTIONARYVAR
  5
1B9
102
{ACAD_REACTORS
330
1B4
102
}
330
1B4
100
DictionaryVariables
280
     0
  1
1:1
  0
DICTIONARYVAR
  5
1B6
102
{ACAD_REACTORS
330
1B4
102
}
330
1B4
100
DictionaryVariables
280
     0
  1
STANDARD
  0
DICTIONARYVAR
  5
1B5
102
{ACAD_REACTORS
330
1B4
102
}
330
1B4
100
DictionaryVariables
280
     0
  1
STANDARD
  0
DICTIONARYVAR
  5
1B7
102
{ACAD_REACTORS
330
1B4
102
}
330
1B4
100
DictionaryVariables
280
     0
  1
Imperial24
  0
DICTIONARYVAR
  5
1B8
102
{ACAD_REACTORS
330
1B4
102
}
330
1B4
100
DictionaryVariables
280
     0
  1
Imperial24
  0
DICTIONARY
  5
1A
330
19
100
AcDbDictionary
280
     1
281
     1
  3
BUMPTILE
360
1C
  3
DIFFUSETILE
360
1B
  3
OPACITYTILE
360
1F
  3
REFLECTIONTILE
360
1E
  3
REFRACTIONTILE
360
20
  3
SPECULARTILE
360
1D
  0
DICTIONARY
  5
12
330
11
100
AcDbDictionary
280
     1
281
     1
  3
BUMPTILE
360
14
  3
DIFFUSETILE
360
13
  3
OPACITYTILE
360
17
  3
REFLECTIONTILE
360
16
  3
REFRACTIONTILE
360
18
  3
SPECULARTILE
360
15
  0
DICTIONARY
  5
22
330
21
100
AcDbDictionary
280
     1
281
     1
  3
BUMPTILE
360
24
  3
DIFFUSETILE
360
23
  3
OPACITYTILE
360
27
  3
REFLECTIONTILE
360
26
  3
REFRACTIONTILE
360
28
  3
SPECULARTILE
360
25
  0
DICTIONARY
  5
1BA
330
65
100
AcDbDictionary
280
     1
281
     1
  3
ACAD_ROUNDTRIP_2008_TABLESTYLE_CELLSTYLEMAP
360
1BB
  0
XRECORD
  5
1C
102
{ACAD_REACTORS
330
1A
102
}
330
1A
100
AcDbXrecord
280
     1
270
     1
271
     1
  0
XRECORD
  5
1B
102
{ACAD_REACTORS
330
1A
102
}
330
1A
100
AcDbXrecord
280
     1
270
     1
271
     1
  0
XRECORD
  5
1F
102
{ACAD_REACTORS
330
1A
102
}
330
1A
100
AcDbXrecord
280
     1
270
     1
271
     1
  0
XRECORD
  5
1E
102
{ACAD_REACTORS
330
1A
102
}
330
1A
100
AcDbXrecord
280
     1
270
     1
271
     1
  0
XRECORD
  5
20
102
{ACAD_REACTORS
330
1A
102
}
330
1A
100
AcDbXrecord
280
     1
270
     1
271
     1
  0
XRECORD
  5
1D
102
{ACAD_REACTORS
330
1A
102
}
330
1A
100
AcDbXrecord
280
     1
270
     1
271
     1
  0
XRECORD
  5
14
102
{ACAD_REACTORS
330
12
102
}
330
12
100
AcDbXrecord
280
     1
270
     1
271
     1
  0
XRECORD
  5
13
102
{ACAD_REACTORS
330
12
102
}
330
12
100
AcDbXrecord
280
     1
270
     1
271
     1
  0
XRECORD
  5
17
102
{ACAD_REACTORS
330
12
102
}
330
12
100
AcDbXrecord
280
     1
270
     1
271
     1
  0
XRECORD
  5
16
102
{ACAD_REACTORS
330
12
102
}
330
12
100
AcDbXrecord
280
     1
270
     1
271
     1
  0
XRECORD
  5
18
102
{ACAD_REACTORS
330
12
102
}
330
12
100
AcDbXrecord
280
     1
270
     1
271
     1
  0
XRECORD
  5
15
102
{ACAD_REACTORS
330
12
102
}
330
12
100
AcDbXrecord
280
     1
270
     1
271
     1
  0
XRECORD
  5
24
102
{ACAD_REACTORS
330
22
102
}
330
22
100
AcDbXrecord
280
     1
270
     1
271
     1
  0
XRECORD
  5
23
102
{ACAD_REACTORS
330
22
102
}
330
22
100
AcDbXrecord
280
     1
270
     1
271
     1
  0
XRECORD
  5
27
102
{ACAD_REACTORS
330
22
102
}
330
22
100
AcDbXrecord
280
     1
270
     1
271
     1
  0
XRECORD
  5
26
102
{ACAD_REACTORS
330
22
102
}
330
22
100
AcDbXrecord
280
     1
270
     1
271
     1
  0
XRECORD
  5
28
102
{ACAD_REACTORS
330
22
102
}
330
22
100
AcDbXrecord
280
     1
270
     1
271
     1
  0
XRECORD
  5
25
102
{ACAD_REACTORS
330
22
102
}
330
22
100
AcDbXrecord
280
     1
270
     1
271
     1
  0
CELLSTYLEMAP
  5
1BB
102
{ACAD_REACTORS
330
1BA
102
}
330
1BA
100
AcDbCellStyleMap
 90
        3
300
CELLSTYLE
  1
TABLEFORMAT_BEGIN
 90
        5
170
     1
 91
        0
 92
    32768
 62
   257
 93
        1
300
CONTENTFORMAT
  1
CONTENTFORMAT_BEGIN
 90
        0
 91
        0
 92
      512
 93
        0
300

 40
0.0
140
1.0
 94
        5
 62
     0
340
55
144
0.25
309
CONTENTFORMAT_END
171
     0
 94
        0
309
TABLEFORMAT_END
  1
CELLSTYLE_BEGIN
 90
        1
 91
        1
300
_TITLE
309
CELLSTYLE_END
300
CELLSTYLE
  1
TABLEFORMAT_BEGIN
 90
        5
170
     1
 91
        0
 92
        0
 62
   257
 93
        1
300
CONTENTFORMAT
  1
CONTENTFORMAT_BEGIN
 90
        0
 91
        0
 92
      512
 93
        0
300

 40
0.0
140
1.0
 94
        5
 62
     0
340
55
144
0.18
309
CONTENTFORMAT_END
171
     0
 94
        0
309
TABLEFORMAT_END
  1
CELLSTYLE_BEGIN
 90
        2
 91
        1
300
_HEADER
309
CELLSTYLE_END
300
CELLSTYLE
  1
TABLEFORMAT_BEGIN
 90
        5
170
     1
 91
        0
 92
        0
 62
   257
 93
        1
300
CONTENTFORMAT
  1
CONTENTFORMAT_BEGIN
 90
        0
 91
        0
 92
      512
 93
        0
300

 40
0.0
140
1.0
 94
        2
 62
     0
340
55
144
0.18
309
CONTENTFORMAT_END
171
     0
 94
        0
309
TABLEFORMAT_END
  1
CELLSTYLE_BEGIN
 90
        3
 91
        2
300
_DATA
309
CELLSTYLE_END
  0
ENDSEC
  0
EOF
