  0
SECTION
  2
HEADER
  9
$ACADVER
  1
AC1024
  9
$DWGCODEPAGE
  3
ANSI_1252
  9
$EXTMAX
 10
297.0
 20
210.0
 30
0.0
  9
$EXTMIN
 10
0.0
 20
0.0
 30
0.0
  9
$LIMMIN
 10
0.0
 20
0.0
  9
$LIMMAX
 10
297.0
 20
210.0
  9
$VIEWCTR
 10
148.5
 20
105.0
  9
$VIEWSIZE
 40
210.0
  9
$CLAYER
  8
0
  9
$LTSCALE
 40
16.335
  9
$CELTYPE
  6
BYLAYER
  9
$DIMSCALE
 40
1.0
  9
$DIMASZ
 40
3.0
  9
$DIMEXO
 40
0.5
  9
$DIMDLI
 40
11.286
  9
$DIMEXE
 40
1.5
  9
$DIMCEN
 40
2.673
  9
$DIMLFAC
 40
1.0
  9
$DIMBLK
  1
_FILLED
  9
$DIMALT
 70
0
  9
$DIMALTF
 40
0.0393700787
  9
$DIMTXT
 40
3.0
  9
$DIMTOL
 70
1
  9
$DIMLIM
 70
0
  9
$DIMTFAC
 40
1.0
  9
$DIMTP
 40
0.01
  9
$DIMTM
 40
0.01
  9
$DIMGAP
 40
0.625
  9
$DIMDSEP
 70
44
  9
$AUNITS
 70
0
  9
$PDMODE
 70
3
  9
$PDSIZE
 40
3.0
  9
$HANDSEED
  5
6B6
  9
$TILEMODE
 70
1
  9
$MEASUREMENT
 70
1
  9
$INSUNITS
 70
4
  0
ENDSEC
  0
SECTION
  2
CLASSES
  0
CLASS
  1
ACDBDICTIONARYWDFLT
  2
AcDbDictionaryWithDefault
  3
AutoCAD 2000
 90
0
 91
1
280
0
281
0
  0
CLASS
  1
ACDBPLACEHOLDER
  2
AcDbPlaceHolder
  3
AutoCAD 2000
 90
0
 91
1
280
0
281
0
  0
CLASS
  1
LAYOUT
  2
AcDbLayout
  3
AutoCAD 2000
 90
0
 91
0
280
0
281
0
  0
ENDSEC
  0
SECTION
  2
TABLES
  0
TABLE
  2
VPORT
  5
8
100
AcDbSymbolTable
 70
2
  0
VPORT
  5
1F4
100
AcDbSymbolTableRecord
100
AcDbViewportTableRecord
  2
*ACTIVE
 70
0
 10
0.0
 20
0.0
 11
1.0
 21
1.0
 12
148.5
 22
105.0
 13
0.0
 23
0.0
 14
1.0
 24
1.0
 15
0.0
 25
0.0
 16
0.0
 26
0.0
 36
1.0
 17
0.0
 27
0.0
 37
0.0
 40
210.0
 41
1.4142857143
 42
50.0
 43
0.0
 44
0.0
 50
0.0
 51
0.0
 71
0
 72
100
 73
1
 74
1
 75
0
 76
0
 77
0
 78
0
  0
ENDTAB
  0
TABLE
  2
LTYPE
  5
5
100
AcDbSymbolTable
 70
6
  0
LTYPE
  5
14
100
AcDbSymbolTableRecord
100
AcDbLinetypeTableRecord
  2
BYBLOCK
 70
0
  3

 72
65
 73
0
 40
0.0
  0
LTYPE
  5
15
100
AcDbSymbolTableRecord
100
AcDbLinetypeTableRecord
  2
BYLAYER
 70
0
  3

 72
65
 73
0
 40
0.0
  0
LTYPE
  5
16
100
AcDbSymbolTableRecord
100
AcDbLinetypeTableRecord
  2
CONTINUOUS
 70
64
  3
Solid line
 72
65
 73
0
 40
0.0
  0
LTYPE
  5
1F5
100
AcDbSymbolTableRecord
100
AcDbLinetypeTableRecord
  2
CENTER
 70
64
  3
____ _ ____ _ ____ _ ____ _ ____ _ ____ _ ____
 72
65
 73
4
 40
0.6
 49
0.375
 74
0
 49
-0.075
 74
0
 49
0.075
 74
0
 49
-0.075
 74
0
  0
LTYPE
  5
1F6
100
AcDbSymbolTableRecord
100
AcDbLinetypeTableRecord
  2
HIDDEN
 70
64
  3
- - - - - - - - - - - - - - - - - - - -
 72
65
 73
2
 40
0.2
 49
0.1
 74
0
 49
-0.1
 74
0
  0
LTYPE
  5
1F7
100
AcDbSymbolTableRecord
100
AcDbLinetypeTableRecord
  2
PHANTOM
 70
64
  3
_____ _ _ _____ _ _ _____ _ _ _____
 72
65
 73
6
 40
0.8
 49
0.45
 74
0
 49
-0.05
 74
0
 49
0.1
 74
0
 49
-0.05
 74
0
 49
0.1
 74
0
 49
-0.05
 74
0
  0
LTYPE
  5
1F8
100
AcDbSymbolTableRecord
100
AcDbLinetypeTableRecord
  2
DOT
 70
64
  3
. . . . . . . . . . . . . . . . . . . .
 72
65
 73
2
 40
0.2
 49
0.1
 74
0
 49
-0.1
 74
0
  0
LTYPE
  5
1F9
100
AcDbSymbolTableRecord
100
AcDbLinetypeTableRecord
  2
DASHED
 70
64
  3
- - - - - - - - - - - - - - - - - - - -
 72
65
 73
2
 40
0.2
 49
0.1
 74
0
 49
-0.1
 74
0
  0
ENDTAB
  0
TABLE
  2
LAYER
  5
2
100
AcDbSymbolTable
 70
36
  0
LAYER
  5
10
100
AcDbSymbolTableRecord
100
AcDbLayerTableRecord
  2
0
 70
0
 62
7
  6
CONTINUOUS
370
-3
390
F
  0
LAYER
  5
1FA
100
AcDbSymbolTableRecord
100
AcDbLayerTableRecord
  2
DEFAULT_1
 70
0
 62
7
  6
CENTER
370
-3
390
F
  0
LAYER
  5
1FB
100
AcDbSymbolTableRecord
100
AcDbLayerTableRecord
  2
DEFAULT_2
 70
0
 62
7
  6
HIDDEN
370
-3
390
F
  0
LAYER
  5
1FC
100
AcDbSymbolTableRecord
100
AcDbLayerTableRecord
  2
DEFAULT_3
 70
0
 62
7
  6
PHANTOM
370
-3
390
F
  0
LAYER
  5
1FD
100
AcDbSymbolTableRecord
100
AcDbLayerTableRecord
  2
ASSI
 70
0
 62
7
  6
CONTINUOUS
370
-3
390
F
  0
LAYER
  5
1FE
100
AcDbSymbolTableRecord
100
AcDbLayerTableRecord
  2
COLOR5
 70
0
 62
7
  6
CONTINUOUS
370
-3
390
F
  0
LAYER
  5
1FF
100
AcDbSymbolTableRecord
100
AcDbLayerTableRecord
  2
COORDINATE
 70
0
 62
7
  6
CONTINUOUS
370
-3
390
F
  0
LAYER
  5
200
100
AcDbSymbolTableRecord
100
AcDbLayerTableRecord
  2
COORD_ORIGINE
 70
0
 62
7
  6
CONTINUOUS
370
-3
390
F
  0
LAYER
  5
201
100
AcDbSymbolTableRecord
100
AcDbLayerTableRecord
  2
CURVE
 70
0
 62
7
  6
CONTINUOUS
370
-3
390
F
  0
LAYER
  5
202
100
AcDbSymbolTableRecord
100
AcDbLayerTableRecord
  2
DRAFT
 70
0
 62
7
  6
CONTINUOUS
370
-3
390
F
  0
LAYER
  5
203
100
AcDbSymbolTableRecord
100
AcDbLayerTableRecord
  2
ESTRATTORI
 70
0
 62
7
  6
CONTINUOUS
370
-3
390
F
  0
LAYER
  5
204
100
AcDbSymbolTableRecord
100
AcDbLayerTableRecord
  2
IGES
 70
0
 62
7
  6
CONTINUOUS
370
-3
390
F
  0
LAYER
  5
205
100
AcDbSymbolTableRecord
100
AcDbLayerTableRecord
  2
INTF_1
 70
0
 62
7
  6
CONTINUOUS
370
-3
390
F
  0
LAYER
  5
206
100
AcDbSymbolTableRecord
100
AcDbLayerTableRecord
  2
INTF_7
 70
0
 62
7
  6
CONTINUOUS
370
-3
390
F
  0
LAYER
  5
207
100
AcDbSymbolTableRecord
100
AcDbLayerTableRecord
  2
INTF_CYAN
 70
0
 62
7
  6
CONTINUOUS
370
-3
390
F
  0
LAYER
  5
208
100
AcDbSymbolTableRecord
100
AcDbLayerTableRecord
  2
INTF_MAGENTA
 70
0
 62
7
  6
CONTINUOUS
370
-3
390
F
  0
LAYER
  5
209
100
AcDbSymbolTableRecord
100
AcDbLayerTableRecord
  2
INTF_RED
 70
0
 62
7
  6
CONTINUOUS
370
-3
390
F
  0
LAYER
  5
20A
100
AcDbSymbolTableRecord
100
AcDbLayerTableRecord
  2
INTF_YELLOW
 70
0
 62
7
  6
CONTINUOUS
370
-3
390
F
  0
LAYER
  5
20B
100
AcDbSymbolTableRecord
100
AcDbLayerTableRecord
  2
NOTE
 70
0
 62
7
  6
CONTINUOUS
370
-3
390
F
  0
LAYER
  5
20C
100
AcDbSymbolTableRecord
100
AcDbLayerTableRecord
  2
PIANI
 70
0
 62
7
  6
CONTINUOUS
370
-3
390
F
  0
LAYER
  5
20D
100
AcDbSymbolTableRecord
100
AcDbLayerTableRecord
  2
PIANI_ORIGINE
 70
0
 62
7
  6
CONTINUOUS
370
-3
390
F
  0
LAYER
  5
20E
100
AcDbSymbolTableRecord
100
AcDbLayerTableRecord
  2
PLACCA
 70
0
 62
7
  6
CONTINUOUS
370
-3
390
F
  0
LAYER
  5
20F
100
AcDbSymbolTableRecord
100
AcDbLayerTableRecord
  2
PUNTI
 70
0
 62
7
  6
CONTINUOUS
370
-3
390
F
  0
LAYER
  5
210
100
AcDbSymbolTableRecord
100
AcDbLayerTableRecord
  2
RACCORDO
 70
0
 62
7
  6
CONTINUOUS
370
-3
390
F
  0
LAYER
  5
211
100
AcDbSymbolTableRecord
100
AcDbLayerTableRecord
  2
RGB__255__255__255__
 70
0
 62
7
  6
CONTINUOUS
370
-3
390
F
  0
LAYER
  5
212
100
AcDbSymbolTableRecord
100
AcDbLayerTableRecord
  2
RGB____0____0____0__
 70
0
 62
7
  6
CONTINUOUS
370
-3
390
F
  0
LAYER
  5
213
100
AcDbSymbolTableRecord
100
AcDbLayerTableRecord
  2
SMUSSO
 70
0
 62
7
  6
CONTINUOUS
370
-3
390
F
  0
LAYER
  5
214
100
AcDbSymbolTableRecord
100
AcDbLayerTableRecord
  2
SNAPLINE
 70
0
 62
7
  6
CONTINUOUS
370
-3
390
F
  0
LAYER
  5
215
100
AcDbSymbolTableRecord
100
AcDbLayerTableRecord
  2
SUPERFICI
 70
0
 62
7
  6
CONTINUOUS
370
-3
390
F
  0
LAYER
  5
216
100
AcDbSymbolTableRecord
100
AcDbLayerTableRecord
  2
SUPPORTO
 70
0
 62
7
  6
CONTINUOUS
370
-3
390
F
  0
LAYER
  5
217
100
AcDbSymbolTableRecord
100
AcDbLayerTableRecord
  2
TRASH
 70
0
 62
7
  6
CONTINUOUS
370
-3
390
F
  0
LAYER
  5
218
100
AcDbSymbolTableRecord
100
AcDbLayerTableRecord
  2
XSEC_DATUMS
 70
0
 62
7
  6
CONTINUOUS
370
-3
390
F
  0
ENDTAB
  0
TABLE
  2
STYLE
  5
3
100
AcDbSymbolTable
 70
1
  0
STYLE
  5
11
100
AcDbSymbolTableRecord
100
AcDbTextStyleTableRecord
  2
STANDARD
 70
0
 40
0.0
 41
0.8
 50
0.0
 71
0
 42
0.2
  3
txt
  4

  0
STYLE
  5
219
100
AcDbSymbolTableRecord
100
AcDbTextStyleTableRecord
  2
TEXTSTYLE_1
 70
0
 40
0.0
 41
0.8
 50
0.0
 71
0
 42
0.2
  3
gdt
  4

  0
ENDTAB
  0
TABLE
  2
VIEW
  5
6
100
AcDbSymbolTable
 70
0
  0
ENDTAB
  0
TABLE
  2
UCS
  5
7
100
AcDbSymbolTable
 70
0
  0
ENDTAB
  0
TABLE
  2
APPID
  5
9
100
AcDbSymbolTable
 70
1
  0
APPID
  5
21A
100
AcDbSymbolTableRecord
100
AcDbRegAppTableRecord
  2
ACAD
 70
0
  0
ENDTAB
  0
TABLE
  2
BLOCK_RECORD
  5
1
100
AcDbSymbolTable
 70
0
  0
BLOCK_RECORD
  5
21B
100
AcDbSymbolTableRecord
100
AcDbBlockTableRecord
  2
*Model_Space
  0
BLOCK_RECORD
  5
21C
100
AcDbSymbolTableRecord
100
AcDbBlockTableRecord
  2
*Paper_Space
  0
BLOCK_RECORD
  5
21D
100
AcDbSymbolTableRecord
100
AcDbBlockTableRecord
  2
_FILLED
  0
ENDTAB
  0
TABLE
  2
DIMSTYLE
  5
A
100
AcDbSymbolTable
 70
1
100
AcDbDimStyleTable
 71
0
  0
DIMSTYLE
105
21E
100
AcDbSymbolTableRecord
100
AcDbDimStyleTableRecord
  2
STANDARD
 70
0
  3

  4

 40
1.0
 41
3.0
 42
0.5
 43
0.38
 44
1.5
 45
0.0
 46
0.0
 47
0.01
 48
0.01
140
3.0
141
0.09
142
0.0
143
25.4
144
1.0
145
0.0
146
1.0
147
0.625
 71
1
 72
0
 73
0
 74
0
 75
0
 76
0
 77
1
 78
8
 79
2
170
0
171
1
172
0
173
0
174
0
175
0
176
0
177
0
178
0
270
2
179
2
271
2
272
2
273
2
274
2
275
0
280
0
281
0
282
0
283
1
284
8
285
0
286
0
287
3
288
0
340
11
278
44
341
21D
342
21D
343
21D
344
21D
  0
ENDTAB
  0
ENDSEC
  0
SECTION
  2
BLOCKS
  0
BLOCK
  5
20
100
AcDbEntity
  8
0
100
AcDbBlockBegin
  2
*Model_Space
 70
0
 10
0.0
 20
0.0
 30
0.0
  3
*Model_Space
  1

  0
ENDBLK
  5
21
100
AcDbEntity
  8
0
100
AcDbBlockEnd
  0
BLOCK
  5
1C
100
AcDbEntity
  8
0
100
AcDbBlockBegin
  2
*Paper_Space
 70
0
 10
0.0
 20
0.0
 30
0.0
  3
*Paper_Space
  1

  0
ENDBLK
  5
1D
100
AcDbEntity
  8
0
100
AcDbBlockEnd
  0
BLOCK
  5
21F
100
AcDbEntity
  8
0
100
AcDbBlockBegin
  2
_FILLED
 70
64
 10
0.0
 20
0.0
  3
_FILLED
  1

  0
SOLID
  5
220
100
AcDbEntity
  8
0
  6
BYBLOCK
 62
0
100
AcDbTrace
 10
0.0
 20
0.0
 11
-1.0
 21
0.3166666667
 12
-1.0
 22
-0.3166666667
 13
-1.0
 23
-0.3166666667
  0
ENDBLK
  5
221
100
AcDbEntity
  8
0
  6
BYBLOCK
 62
0
100
AcDbBlockEnd
  0
ENDSEC
  0
SECTION
  2
ENTITIES
  0
LWPOLYLINE
  5
222
100
AcDbEntity
  8
SUPERFICI
100
AcDbPolyline
 62
250
  6
CONTINUOUS
 90
9
 70
0
 10
-55.6542146731
 20
42.2527184007
 10
-55.6049403392
 20
42.3570596801
 10
-55.5455658229
 20
42.4524654303
 10
-55.4767998384
 20
42.5387400964
 10
-55.399730793
 20
42.6153673098
 10
-55.3146802762
 20
42.682648018
 10
-55.2209161255
 20
42.7412442515
 10
-55.118399778
 20
42.7908036489
 10
-55.0078701721
 20
42.8305173958
  0
LWPOLYLINE
  5
223
100
AcDbEntity
  8
SUPERFICI
100
AcDbPolyline
 62
7
  6
CONTINUOUS
 90
6
 70
0
 10
-55.8271386174
 20
43.4849020515
 10
-55.8742610942
 20
43.4125600187
 10
-55.9547929744
 20
43.2678455712
 10
-56.0224957959
 20
43.1152547725
 10
-56.0763100181
 20
42.9577379295
 10
-56.0943282219
 20
42.8921408699
  0
LINE
  5
224
100
AcDbEntity
  8
SUPERFICI
100
AcDbLine
 62
7
  6
CONTINUOUS
 10
-55.8271386174
 20
43.4849020515
 11
-53.982499799
 21
46.1718691533
  0
LWPOLYLINE
  5
225
100
AcDbEntity
  8
SUPERFICI
100
AcDbPolyline
 62
250
  6
CONTINUOUS
 90
9
 70
0
 10
-55.8270416866
 20
43.4850433114
 10
-55.7716086258
 20
43.5600073613
 10
-55.5732959335
 20
43.7601193054
 10
-55.3316121287
 20
43.917477949
 10
-55.0521398752
 20
44.0284069862
 10
-54.7416206929
 20
44.0899548728
 10
-54.4072457491
 20
44.1006473204
 10
-54.0564473526
 20
44.0604740219
 10
-53.6971604336
 20
43.9703830569
  0
LINE
  5
226
100
AcDbEntity
  8
0
100
AcDbLine
 62
250
  6
CONTINUOUS
 10
-53.698415843
 20
43.9686910461
 11
-51.668082854
 21
46.7006855786
  0
LWPOLYLINE
  5
227
100
AcDbEntity
  8
0
100
AcDbPolyline
 62
7
  6
CONTINUOUS
 90
10
 70
0
 10
-53.9813758399
 20
46.173503952
 10
-53.9210062656
 20
46.2526385914
 10
-53.7337017138
 20
46.4453932657
 10
-53.5142037613
 20
46.6010400919
 10
-53.2608781856
 20
46.7176953773
 10
-52.9753592092
 20
46.7972428146
 10
-52.6718968509
 20
46.8357130046
 10
-52.3552411171
 20
46.8317828143
 10
-52.0206420015
 20
46.7867753766
 10
-51.668099504
 20
46.7006906917
  0
LWPOLYLINE
  5
228
100
AcDbEntity
  8
SUPERFICI
100
AcDbPolyline
 62
7
  6
CONTINUOUS
 90
4
 70
0
 10
-56.0947991537
 20
42.8900534513
 10
-56.1064082377
 20
42.8425398256
 10
-56.1625079673
 20
42.4558879708
 10
-56.1655794505
 20
42.0692857951
  0
LINE
  5
229
100
AcDbEntity
  8
SUPERFICI
100
AcDbLine
 62
7
  6
CONTINUOUS
 10
-56.0947991537
 20
42.8900534513
 11
-56.094350534
 21
42.891820433
  0
LWPOLYLINE
  5
22A
100
AcDbEntity
  8
SUPERFICI
100
AcDbPolyline
 62
250
  6
CONTINUOUS
 90
10
 70
0
 10
-55.6923807129
 20
42.1463054936
 10
-55.6886335048
 20
42.1584613147
 10
-55.68476137
 20
42.1705365672
 10
-55.6807648973
 20
42.1825303734
 10
-55.6766444585
 20
42.1944424614
 10
-55.6724008475
 20
42.2062713494
 10
-55.6680353433
 20
42.2180143865
 10
-55.6635488276
 20
42.2296701557
 10
-55.6589417225
 20
42.2412384332
 10
-55.6542146731
 20
42.2527184006
  0
LWPOLYLINE
  5
22B
100
AcDbEntity
  8
SUPERFICI
100
AcDbPolyline
 62
250
  6
CONTINUOUS
 90
3
 70
0
 10
-53.3837237763
 20
39.6155944796
 10
-53.4173532199
 20
39.5095102697
 10
-53.4485215033
 20
39.4012297599
  0
LWPOLYLINE
  5
22C
100
AcDbEntity
  8
SUPERFICI
100
AcDbPolyline
 62
250
  6
CONTINUOUS
 90
9
 70
0
 10
-53.3837237763
 20
39.6155944797
 10
-53.3438012477
 20
39.7287067164
 10
-53.2995159971
 20
39.8370292465
 10
-53.2494199333
 20
39.9393140304
 10
-53.1924962529
 20
40.034111679
 10
-53.1277454452
 20
40.1203968336
 10
-53.0539640407
 20
40.1972687982
 10
-52.9701880267
 20
40.263374677
 10
-52.8768275447
 20
40.3178329854
  0
LWPOLYLINE
  5
22D
100
AcDbEntity
  8
SUPERFICI
100
AcDbPolyline
 62
250
  6
CONTINUOUS
 90
4
 70
0
 10
-53.6113317232
 20
38.5937715072
 10
-53.7055069303
 20
37.7710031072
 10
-53.7724232068
 20
36.9192302549
 10
-53.8098624431
 20
36.0382835335
  0
LWPOLYLINE
  5
22E
100
AcDbEntity
  8
SUPERFICI
100
AcDbPolyline
 62
250
  6
CONTINUOUS
 90
10
 70
0
 10
-53.899205082
 20
42.8052977278
 10
-53.8819282006
 20
42.9332056869
 10
-53.8561395014
 20
43.0653549387
 10
-53.8221430521
 20
43.2001553471
 10
-53.7804674832
 20
43.3354516451
 10
-53.7320355658
 20
43.4678743974
 10
-53.6782567846
 20
43.5935678911
 10
-53.6204913714
 20
43.7096557111
 10
-53.5596339931
 20
43.8144060643
 10
-53.4963958707
 20
43.9066526698
  0
LWPOLYLINE
  5
22F
100
AcDbEntity
  8
SUPERFICI
100
AcDbPolyline
 62
250
  6
CONTINUOUS
 90
8
 70
0
 10
-53.4485215033
 20
39.4012297599
 10
-53.4773547659
 20
39.2909779215
 10
-53.5040072571
 20
39.178878576
 10
-53.5287409158
 20
39.0649888114
 10
-53.5517661585
 20
38.9494502363
 10
-53.5731497167
 20
38.8323917404
 10
-53.5929791384
 20
38.7138086086
 10
-53.6113317232
 20
38.5937715072
  0
LWPOLYLINE
  5
230
100
AcDbEntity
  8
SUPERFICI
100
AcDbPolyline
 62
250
  6
CONTINUOUS
 90
6
 70
0
 10
-50.2330100894
 20
34.9296394721
 10
-50.4538431025
 20
34.2649799052
 10
-50.6198373149
 20
33.548495989
 10
-50.7383301085
 20
32.7860240722
 10
-50.8307041849
 20
31.988684635
 10
-50.9107410237
 20
31.1628193505
  0
LWPOLYLINE
  5
231
100
AcDbEntity
  8
SUPERFICI
100
AcDbPolyline
 62
250
  6
CONTINUOUS
 90
10
 70
0
 10
-50.2330100894
 20
34.9296394721
 10
-50.1916533386
 20
35.0279702995
 10
-50.1474406648
 20
35.1234726716
 10
-50.1004448584
 20
35.2160991086
 10
-50.050711236
 20
35.3058546805
 10
-49.9983285551
 20
35.3926634592
 10
-49.9433306625
 20
35.4765411035
 10
-49.8857886066
 20
35.5574758227
 10
-49.825786285
 20
35.6354109445
 10
-49.7632450475
 20
35.7104949404
  0
LWPOLYLINE
  5
232
100
AcDbEntity
  8
SUPERFICI
100
AcDbPolyline
 62
250
  6
CONTINUOUS
 90
10
 70
0
 10
-49.7632450475
 20
35.7104949404
 10
-49.6931744334
 20
35.7880870147
 10
-49.6205432901
 20
35.8620726154
 10
-49.5454545768
 20
35.9324527545
 10
-49.4682451074
 20
35.9990666582
 10
-49.3885712843
 20
36.0621943731
 10
-49.3059248608
 20
36.1221942379
 10
-49.2204777116
 20
36.1789016279
 10
-49.1327214116
 20
36.2320085409
 10
-49.042873211
 20
36.2815355193
  0
LINE
  5
233
100
AcDbEntity
  8
SUPERFICI
100
AcDbLine
 62
250
  6
CONTINUOUS
 10
-52.8768275447
 20
40.3178329854
 11
-52.775632751
 21
40.3608961948
  0
LWPOLYLINE
  5
234
100
AcDbEntity
  8
SUPERFICI
100
AcDbPolyline
 62
250
  6
CONTINUOUS
 90
10
 70
0
 10
47.3032027459
 20
-46.8069137994
 10
47.1443905117
 20
-46.8514015766
 10
46.9701672484
 20
-46.8785929247
 10
46.7836726267
 20
-46.8910839706
 10
46.5881348308
 20
-46.8918264926
 10
46.3849908874
 20
-46.8825467546
 10
46.1750468141
 20
-46.8647828963
 10
45.9589044858
 20
-46.8405408117
 10
45.7368689187
 20
-46.8106723112
 10
45.5094612327
 20
-46.7755470067
  0
LINE
  5
235
100
AcDbEntity
  8
SUPERFICI
100
AcDbLine
 62
250
  6
CONTINUOUS
 10
-52.6276666976
 20
-11.4806838543
 11
-52.5454693939
 21
-12.3979312782
  0
LINE
  5
236
100
AcDbEntity
  8
SUPERFICI
100
AcDbLine
 62
250
  6
CONTINUOUS
 10
-52.69195717
 20
-10.5492831484
 11
-52.6276666976
 21
-11.4806838543
  0
LINE
  5
237
100
AcDbEntity
  8
SUPERFICI
100
AcDbLine
 62
250
  6
CONTINUOUS
 10
-52.8732983764
 20
-7.6507624763
 11
-52.69195717
 21
-10.5492831484
  0
LWPOLYLINE
  5
238
100
AcDbEntity
  8
SUPERFICI
100
AcDbPolyline
 62
7
  6
CONTINUOUS
 90
5
 70
0
 10
-56.1655794505
 20
42.0692857951
 10
-56.1192421025
 20
41.2991246179
 10
-56.1063711558
 20
40.9112031895
 10
-56.1001050297
 20
40.5175849911
 10
-56.0934256034
 20
39.7071150169
  0
LINE
  5
239
100
AcDbEntity
  8
SUPERFICI
100
AcDbLine
 62
250
  6
CONTINUOUS
 10
-53.1021271418
 20
-3.616828824
 11
-52.8732983764
 21
-7.6507624763
  0
LWPOLYLINE
  5
23A
100
AcDbEntity
  8
SUPERFICI
100
AcDbPolyline
 62
250
  6
CONTINUOUS
 90
4
 70
0
 10
-54.3223136246
 20
-15.4516730098
 10
-54.3161451379
 20
-15.5676320339
 10
-54.30276771
 20
-15.6852886409
 10
-54.2797823926
 20
-15.8042074442
  0
LINE
  5
23B
100
AcDbEntity
  8
SUPERFICI
100
AcDbLine
 62
250
  6
CONTINUOUS
 10
-53.205806058
 20
-1.6027481245
 11
-53.1021271418
 21
-3.616828824
  0
LINE
  5
23C
100
AcDbEntity
  8
SUPERFICI
100
AcDbLine
 62
250
  6
CONTINUOUS
 10
-53.3324879821
 20
1.0889887667
 11
-53.205806058
 21
-1.6027481245
  0
LINE
  5
23D
100
AcDbEntity
  8
SUPERFICI
100
AcDbLine
 62
250
  6
CONTINUOUS
 10
-54.3661330702
 20
-13.9503512853
 11
-54.3266185985
 21
-14.8564885233
  0
LINE
  5
23E
100
AcDbEntity
  8
SUPERFICI
100
AcDbLine
 62
250
  6
CONTINUOUS
 10
-53.473674039
 20
4.4269369518
 11
-53.3968779364
 21
2.5487174049
  0
LINE
  5
23F
100
AcDbEntity
  8
SUPERFICI
100
AcDbLine
 62
250
  6
CONTINUOUS
 10
-53.3968779364
 20
2.5487174049
 11
-53.3324879821
 21
1.0889887667
  0
LWPOLYLINE
  5
240
100
AcDbEntity
  8
SUPERFICI
100
AcDbPolyline
 62
7
  6
CONTINUOUS
 90
7
 70
0
 10
-54.793591842
 20
-12.5168460582
 10
-54.7542712683
 20
-13.485726176
 10
-54.7429934964
 20
-13.9472092581
 10
-54.744538919
 20
-14.3943071123
 10
-54.7502286695
 20
-14.8387108355
 10
-54.7153030481
 20
-15.2982763372
 10
-54.65434763
 20
-15.5993126812
  0
LINE
  5
241
100
AcDbEntity
  8
SUPERFICI
100
AcDbLine
 62
250
  6
CONTINUOUS
 10
-54.3364900192
 20
-15.1018409977
 11
-54.3223136246
 21
-15.4516730098
  0
LINE
  5
242
100
AcDbEntity
  8
SUPERFICI
100
AcDbLine
 62
250
  6
CONTINUOUS
 10
-53.5485716631
 20
6.4326010948
 11
-53.473674039
 21
4.4269369518
  0
LWPOLYLINE
  5
243
100
AcDbEntity
  8
SUPERFICI
100
AcDbPolyline
 62
250
  6
CONTINUOUS
 90
9
 70
0
 10
-55.7363968793
 20
41.1300381828
 10
-55.7449418126
 20
41.3721896052
 10
-55.7480381836
 20
41.4921196364
 10
-55.7492377606
 20
41.6094429847
 10
-55.7477097525
 20
41.723819493
 10
-55.7424717306
 20
41.8359032801
 10
-55.7323395995
 20
41.9449282346
 10
-55.7160829764
 20
42.0489033891
 10
-55.6923398318
 20
42.1462784711
  0
LWPOLYLINE
  5
244
100
AcDbEntity
  8
SUPERFICI
100
AcDbPolyline
 62
250
  6
CONTINUOUS
 90
3
 70
0
 10
-54.4331719969
 20
-12.0548057106
 10
-54.4014084823
 20
-13.0100783732
 10
-54.3661330702
 20
-13.9503512853
  0
LINE
  5
245
100
AcDbEntity
  8
SUPERFICI
100
AcDbLine
 62
250
  6
CONTINUOUS
 10
-54.3446693869
 20
-14.8627577579
 11
-54.3364900192
 21
-15.1018409977
  0
LINE
  5
246
100
AcDbEntity
  8
SUPERFICI
100
AcDbLine
 62
250
  6
CONTINUOUS
 10
-53.6284050741
 20
8.8374582034
 11
-53.5485716631
 21
6.4326010948
  0
LINE
  5
247
100
AcDbEntity
  8
SUPERFICI
100
AcDbLine
 62
250
  6
CONTINUOUS
 10
-54.6131145767
 20
-5.9308596823
 11
-54.5166396269
 21
-9.0896613928
  0
LINE
  5
248
100
AcDbEntity
  8
SUPERFICI
100
AcDbLine
 62
250
  6
CONTINUOUS
 10
-54.7093432753
 20
-1.9410765863
 11
-54.5909255298
 21
-5.9258138857
  0
LINE
  5
249
100
AcDbEntity
  8
SUPERFICI
100
AcDbLine
 62
250
  6
CONTINUOUS
 10
-54.5166396269
 20
-9.0896613928
 11
-54.4331719969
 21
-12.0548057106
  0
LINE
  5
24A
100
AcDbEntity
  8
SUPERFICI
100
AcDbLine
 62
250
  6
CONTINUOUS
 10
-53.7300815411
 20
12.4367135853
 11
-53.6799870034
 21
10.5579332848
  0
LINE
  5
24B
100
AcDbEntity
  8
SUPERFICI
100
AcDbLine
 62
250
  6
CONTINUOUS
 10
-53.6799870034
 20
10.5579332848
 11
-53.6284050741
 21
8.8374582034
  0
LWPOLYLINE
  5
24C
100
AcDbEntity
  8
SUPERFICI
100
AcDbPolyline
 62
7
  6
CONTINUOUS
 90
3
 70
0
 10
-54.8243220516
 20
-11.4933329446
 10
-54.810634525
 20
-12.0117330541
 10
-54.793591842
 20
-12.5168460582
  0
LWPOLYLINE
  5
24D
100
AcDbEntity
  8
SUPERFICI
100
AcDbPolyline
 62
250
  6
CONTINUOUS
 90
4
 70
0
 10
-55.1109262342
 20
13.1659758337
 10
-54.8765752437
 20
4.3029410258
 10
-54.8220863958
 20
2.1864734383
 10
-54.7093432753
 20
-1.9410765863
  0
LINE
  5
24E
100
AcDbEntity
  8
SUPERFICI
100
AcDbLine
 62
7
  6
CONTINUOUS
 10
-55.1809894465
 20
3.0271864484
 11
-54.9001889553
 21
-8.0398025554
  0
LINE
  5
24F
100
AcDbEntity
  8
SUPERFICI
100
AcDbLine
 62
7
  6
CONTINUOUS
 10
-56.0090732632
 20
36.5031971981
 11
-55.9566151006
 21
34.3840746619
  0
LINE
  5
250
100
AcDbEntity
  8
SUPERFICI
100
AcDbLine
 62
7
  6
CONTINUOUS
 10
-55.9566151006
 20
34.3840746619
 11
-55.1809894465
 21
3.0271864484
  0
LINE
  5
251
100
AcDbEntity
  8
SUPERFICI
100
AcDbLine
 62
250
  6
CONTINUOUS
 10
-55.2159928592
 20
17.6610530022
 11
-55.4156839174
 21
26.1939482339
  0
LINE
  5
252
100
AcDbEntity
  8
SUPERFICI
100
AcDbLine
 62
250
  6
CONTINUOUS
 10
-55.116500578
 20
13.1689815854
 11
-55.2159928592
 21
17.6610530022
  0
LINE
  5
253
100
AcDbEntity
  8
SUPERFICI
100
AcDbLine
 62
7
  6
CONTINUOUS
 10
-54.9001889553
 20
-8.0398025554
 11
-54.8577496871
 21
-9.8476745935
  0
LWPOLYLINE
  5
254
100
AcDbEntity
  8
SUPERFICI
100
AcDbPolyline
 62
250
  6
CONTINUOUS
 90
3
 70
0
 10
-55.4156839174
 20
26.1939482339
 10
-55.5014745729
 20
30.2425428164
 10
-55.5396569914
 20
32.2116979666
  0
LINE
  5
255
100
AcDbEntity
  8
SUPERFICI
100
AcDbLine
 62
250
  6
CONTINUOUS
 10
-55.6024906975
 20
34.3550911071
 11
-55.6867592184
 21
38.3374279726
  0
LINE
  5
256
100
AcDbEntity
  8
SUPERFICI
100
AcDbLine
 62
250
  6
CONTINUOUS
 10
-53.7300815411
 20
12.4367135853
 11
-53.7842285842
 21
14.8459543829
  0
LINE
  5
257
100
AcDbEntity
  8
SUPERFICI
100
AcDbLine
 62
7
  6
CONTINUOUS
 10
-54.8577496871
 20
-9.8476745935
 11
-54.8243220516
 21
-11.4933329446
  0
LINE
  5
258
100
AcDbEntity
  8
SUPERFICI
100
AcDbLine
 62
250
  6
CONTINUOUS
 10
-55.5626589878
 20
32.2393314581
 11
-55.6024906975
 21
34.3550911071
  0
LWPOLYLINE
  5
259
100
AcDbEntity
  8
SUPERFICI
100
AcDbPolyline
 62
250
  6
CONTINUOUS
 90
4
 70
0
 10
-55.6867592184
 20
38.3374279726
 10
-55.7023441046
 20
39.2854865176
 10
-55.7135913096
 20
40.2153496072
 10
-55.718812481
 20
41.1075148219
  0
LWPOLYLINE
  5
25A
100
AcDbEntity
  8
SUPERFICI
100
AcDbPolyline
 62
7
  6
CONTINUOUS
 90
4
 70
0
 10
-56.0934256034
 20
39.7071150169
 10
-56.0865562743
 20
39.2836422622
 10
-56.0767410956
 20
38.8484079069
 10
-56.0090732632
 20
36.5031971981
  0
LINE
  5
25B
100
AcDbEntity
  8
SUPERFICI
100
AcDbLine
 62
250
  6
CONTINUOUS
 10
-53.7842285842
 20
14.8459543829
 11
-53.8266725716
 21
17.1560516638
  0
LINE
  5
25C
100
AcDbEntity
  8
SUPERFICI
100
AcDbLine
 62
250
  6
CONTINUOUS
 10
-53.8266725716
 20
17.1560516638
 11
-53.8473107855
 21
18.4623748747
  0
LWPOLYLINE
  5
25D
100
AcDbEntity
  8
SUPERFICI
100
AcDbPolyline
 62
250
  6
CONTINUOUS
 90
3
 70
0
 10
-53.8473107855
 20
18.4623748747
 10
-53.8713060637
 20
20.4111186417
 10
-53.8886111441
 20
22.399013547
  0
LINE
  5
25E
100
AcDbEntity
  8
SUPERFICI
100
AcDbLine
 62
250
  6
CONTINUOUS
 10
-53.8886111441
 20
22.399013547
 11
-53.8999135979
 21
25.2028188443
  0
LINE
  5
25F
100
AcDbEntity
  8
SUPERFICI
100
AcDbLine
 62
250
  6
CONTINUOUS
 10
-53.8999135979
 20
25.2028188443
 11
-53.901619392
 21
26.3678529855
  0
LINE
  5
260
100
AcDbEntity
  8
SUPERFICI
100
AcDbLine
 62
250
  6
CONTINUOUS
 10
-53.901619392
 20
26.3678529855
 11
-53.8973225523
 21
28.3487753765
  0
LINE
  5
261
100
AcDbEntity
  8
SUPERFICI
100
AcDbLine
 62
250
  6
CONTINUOUS
 10
-53.8769510732
 20
31.3230713703
 11
-53.8973225523
 21
28.3487753765
  0
LWPOLYLINE
  5
262
100
AcDbEntity
  8
SUPERFICI
100
AcDbPolyline
 62
250
  6
CONTINUOUS
 90
3
 70
0
 10
-53.8098624431
 20
36.0382835335
 10
-53.8284904255
 20
35.1320299936
 10
-53.8769510732
 20
31.3230713703
  0
LWPOLYLINE
  5
263
100
AcDbEntity
  8
SUPERFICI
100
AcDbPolyline
 62
250
  6
CONTINUOUS
 90
5
 70
0
 10
-51.4009055872
 20
24.0451403134
 10
-51.476874338
 20
22.2493245929
 10
-51.5341351606
 20
20.4468724491
 10
-51.5726824938
 20
18.63793023
 10
-51.5925119936
 20
16.8227269945
  0
LWPOLYLINE
  5
264
100
AcDbEntity
  8
SUPERFICI
100
AcDbPolyline
 62
250
  6
CONTINUOUS
 90
3
 70
0
 10
-51.1928555917
 20
27.6165614095
 10
-51.3062314606
 20
25.8342545305
 10
-51.4009055872
 20
24.0451403134
  0
LWPOLYLINE
  5
265
100
AcDbEntity
  8
SUPERFICI
100
AcDbPolyline
 62
250
  6
CONTINUOUS
 90
5
 70
0
 10
-50.9107410237
 20
31.1628193505
 10
-50.9855245663
 20
30.3119863753
 10
-51.057038612
 20
29.4372491935
 10
-51.1264513487
 20
28.5388883828
 10
-51.1928555917
 20
27.6165614095
  0
LWPOLYLINE
  5
266
100
AcDbEntity
  8
SUPERFICI
100
AcDbPolyline
 62
250
  6
CONTINUOUS
 90
10
 70
0
 10
-43.8558119472
 20
28.7086661317
 10
-43.8080413631
 20
28.7839274063
 10
-43.759294097
 20
28.8578998721
 10
-43.7095612628
 20
28.9305601539
 10
-43.6588053032
 20
29.0019271334
 10
-43.6070416412
 20
29.0719451897
 10
-43.5542502972
 20
29.1406071324
 10
-43.5004107892
 20
29.2079159846
 10
-43.4455347114
 20
29.2738267641
 10
-43.389541194
 20
29.3384056864
  0
LWPOLYLINE
  5
267
100
AcDbEntity
  8
SUPERFICI
100
AcDbPolyline
 62
250
  6
CONTINUOUS
 90
10
 70
0
 10
-43.389541194
 20
29.3384056864
 10
-43.3295550211
 20
29.4047386004
 10
-43.2684567537
 20
29.4693228541
 10
-43.2062213718
 20
29.5320464686
 10
-43.1427674899
 20
29.5928756251
 10
-43.0779645778
 20
29.6518417375
 10
-43.0117801845
 20
29.7089292249
 10
-42.9443167562
 20
29.7640334326
 10
-42.8757200892
 20
29.8170251329
 10
-42.8061351275
 20
29.8677923531
  0
LWPOLYLINE
  5
268
100
AcDbEntity
  8
SUPERFICI
100
AcDbPolyline
 62
250
  6
CONTINUOUS
 90
10
 70
0
 10
-49.0428732111
 20
36.2815355193
 10
-48.9061497978
 20
36.3484778018
 10
-48.7621056664
 20
36.4091819558
 10
-48.6110012445
 20
36.4631954714
 10
-48.4532612203
 20
36.5100877433
 10
-48.2893147455
 20
36.5498412658
 10
-48.1191905549
 20
36.5827348358
 10
-47.9427626744
 20
36.6091595467
 10
-47.7602924511
 20
36.629283569
 10
-47.572038991
 20
36.6432433761
  0
LINE
  5
269
100
AcDbEntity
  8
SUPERFICI
100
AcDbLine
 62
250
  6
CONTINUOUS
 10
49.8019658202
 20
-48.823435992
 11
49.7014302372
 21
-48.8377663772
  0
LWPOLYLINE
  5
26A
100
AcDbEntity
  8
SUPERFICI
100
AcDbPolyline
 62
250
  6
CONTINUOUS
 90
8
 70
0
 10
49.7014302372
 20
-48.8377663772
 10
49.5986601782
 20
-48.8473860883
 10
49.4936990185
 20
-48.8519128606
 10
49.3867976015
 20
-48.8509435268
 10
49.277827469
 20
-48.8441200203
 10
49.1662170553
 20
-48.8309795169
 10
49.0520391625
 20
-48.8116379687
 10
48.9362007272
 20
-48.7872664779
  0
LWPOLYLINE
  5
26B
100
AcDbEntity
  8
SUPERFICI
100
AcDbPolyline
 62
250
  6
CONTINUOUS
 90
10
 70
0
 10
-54.2037260475
 20
-16.0546418855
 10
-54.1484983173
 20
-16.1896177721
 10
-54.0834651544
 20
-16.321680708
 10
-54.0093548116
 20
-16.4502408365
 10
-53.9272971217
 20
-16.5741492829
 10
-53.8376027227
 20
-16.6935453331
 10
-53.7394942009
 20
-16.8095859803
 10
-53.6329485544
 20
-16.9219980628
 10
-53.5187550659
 20
-17.0295666344
 10
-53.3968234539
 20
-17.1320875913
  0
LWPOLYLINE
  5
26C
100
AcDbEntity
  8
SUPERFICI
100
AcDbPolyline
 62
250
  6
CONTINUOUS
 90
7
 70
0
 10
-52.0157453293
 20
-15.3749864653
 10
-51.9695371221
 20
-15.5145486166
 10
-51.9191391607
 20
-15.6519474438
 10
-51.8631436305
 20
-15.7868119284
 10
-51.8005907398
 20
-15.9182996745
 10
-51.7305169967
 20
-16.0459881425
 10
-51.6517455604
 20
-16.1697076065
  0
LWPOLYLINE
  5
26D
100
AcDbEntity
  8
SUPERFICI
100
AcDbPolyline
 62
250
  6
CONTINUOUS
 90
10
 70
0
 10
-52.0157453293
 20
-15.3749864653
 10
-52.0552112025
 20
-15.2464553917
 10
-52.0922881367
 20
-15.1172174367
 10
-52.1270929342
 20
-14.9874229667
 10
-52.1597760114
 20
-14.857102243
 10
-52.190600478
 20
-14.7261511163
 10
-52.2197728903
 20
-14.5945831469
 10
-52.2473545453
 20
-14.4624879084
 10
-52.273434575
 20
-14.3298064289
 10
-52.2980879266
 20
-14.1965626211
  0
LWPOLYLINE
  5
26E
100
AcDbEntity
  8
SUPERFICI
100
AcDbPolyline
 62
250
  6
CONTINUOUS
 90
7
 70
0
 10
-54.6489661641
 20
-15.6241502897
 10
-54.6418168871
 20
-15.6476771634
 10
-54.6028001101
 20
-15.7228671616
 10
-54.5420199696
 20
-15.789453615
 10
-54.4614634363
 20
-15.8458665494
 10
-54.3628720663
 20
-15.8909224695
 10
-54.2477524067
 20
-15.9238631433
  0
LWPOLYLINE
  5
26F
100
AcDbEntity
  8
SUPERFICI
100
AcDbPolyline
 62
250
  6
CONTINUOUS
 90
10
 70
0
 10
-54.2477927904
 20
-15.9238558138
 10
-54.2433804286
 20
-15.938438126
 10
-54.2388453712
 20
-15.9530113207
 10
-54.2341882604
 20
-15.9675741259
 10
-54.2294094879
 20
-15.9821260146
 10
-54.2245099346
 20
-15.9966649761
 10
-54.2194910321
 20
-16.0111875211
 10
-54.2143537472
 20
-16.025691652
 10
-54.2090985201
 20
-16.0401768569
 10
-54.2037260475
 20
-16.0546418855
  0
LWPOLYLINE
  5
270
100
AcDbEntity
  8
SUPERFICI
100
AcDbPolyline
 62
7
  6
CONTINUOUS
 90
22
 70
0
 10
-54.6489661641
 20
-15.6241502897
 10
-54.623882117
 20
-15.7116096137
 10
-54.530134307
 20
-15.9698220992
 10
-54.3964302165
 20
-16.2448463535
 10
-54.2256429224
 20
-16.5183225817
 10
-54.048753661
 20
-16.7489854001
 10
-53.8900609762
 20
-16.9254332255
 10
-53.7430147191
 20
-17.0694180396
 10
-53.6003289819
 20
-17.1944797054
 10
-53.4622000254
 20
-17.3036373042
 10
-53.3315751656
 20
-17.3970150189
 10
-53.2067040368
 20
-17.4781679592
 10
-53.0869328048
 20
-17.5492992105
 10
-52.9737955836
 20
-17.6111074733
 10
-52.8651496528
 20
-17.6654995178
 10
-52.7609770204
 20
-17.7129819475
 10
-52.6620398759
 20
-17.7541065869
 10
-52.5672033968
 20
-17.7901040863
 10
-52.4765018827
 20
-17.8213353582
 10
-52.3897623551
 20
-17.8489587972
 10
-52.3080263911
 20
-17.8744808697
 10
48.9631699752
 20
-48.974017644
  0
LINE
  5
271
100
AcDbEntity
  8
SUPERFICI
100
AcDbLine
 62
250
  6
CONTINUOUS
 10
-54.2797823926
 20
-15.8042074442
 11
-54.2477927904
 21
-15.9238558138
  0
LWPOLYLINE
  5
272
100
AcDbEntity
  8
SUPERFICI
100
AcDbPolyline
 62
250
  6
CONTINUOUS
 90
7
 70
0
 10
-55.4440047338
 20
13.6204768702
 10
-55.4341602702
 20
13.5417702
 10
-55.4046947882
 20
13.4557441831
 10
-55.3565030608
 20
13.373732907
 10
-55.2907980075
 20
13.2974239471
 10
-55.2085836032
 20
13.2278048863
 10
-55.1109076176
 20
13.1659897969
  0
LWPOLYLINE
  5
273
100
AcDbEntity
  8
SUPERFICI
100
AcDbPolyline
 62
250
  6
CONTINUOUS
 90
3
 70
0
 10
-52.5454693939
 20
-12.3979312782
 10
-52.4348560491
 20
-13.3036252889
 10
-52.2980879266
 20
-14.1965626211
  0
LWPOLYLINE
  5
274
100
AcDbEntity
  8
SUPERFICI
100
AcDbPolyline
 62
250
  6
CONTINUOUS
 90
3
 70
0
 10
-50.3715080024
 20
-5.4003192245
 10
-50.5759875387
 20
-3.52040203
 10
-50.7618186885
 20
-1.6451473601
  0
LWPOLYLINE
  5
275
100
AcDbEntity
  8
SUPERFICI
100
AcDbPolyline
 62
250
  6
CONTINUOUS
 90
6
 70
0
 10
-50.7618186885
 20
-1.6451473601
 10
-50.928992456
 20
0.2253350722
 10
-51.0775029866
 20
2.0909776051
 10
-51.2073372964
 20
3.9516281954
 10
-51.3184794901
 20
5.8070515691
 10
-51.4109224903
 20
7.6570973049
  0
LWPOLYLINE
  5
276
100
AcDbEntity
  8
SUPERFICI
100
AcDbPolyline
 62
250
  6
CONTINUOUS
 90
3
 70
0
 10
-51.4109224903
 20
7.6570973049
 10
-51.4846638183
 20
9.5016986843
 10
-51.5396982772
 20
11.3407470646
  0
LWPOLYLINE
  5
277
100
AcDbEntity
  8
SUPERFICI
100
AcDbPolyline
 62
250
  6
CONTINUOUS
 90
4
 70
0
 10
-51.5925119936
 20
16.8227269945
 10
-51.5936240149
 20
15.0014110994
 10
-51.5760193861
 20
13.1740487565
 10
-51.5396982772
 20
11.3407470646
  0
LWPOLYLINE
  5
278
100
AcDbEntity
  8
SUPERFICI
100
AcDbPolyline
 62
250
  6
CONTINUOUS
 90
4
 70
0
 10
-46.5628576868
 20
13.80560337
 10
-46.6108532928
 20
12.2551164015
 10
-46.6239431436
 20
10.6927442125
 10
-46.6021157321
 20
9.1189282327
  0
LWPOLYLINE
  5
279
100
AcDbEntity
  8
SUPERFICI
100
AcDbPolyline
 62
250
  6
CONTINUOUS
 90
6
 70
0
 10
-45.8001021353
 20
21.3617850796
 10
-46.0221871632
 20
19.878846652
 10
-46.2095520187
 20
18.3813300231
 10
-46.3621650995
 20
16.8694938741
 10
-46.4799566135
 20
15.3439350208
 10
-46.5628576868
 20
13.80560337
  0
LINE
  5
27A
100
AcDbEntity
  8
SUPERFICI
100
AcDbLine
 62
250
  6
CONTINUOUS
 10
-45.5433436831
 20
22.8297165154
 11
-45.8001021353
 21
21.3617850796
  0
LWPOLYLINE
  5
27B
100
AcDbEntity
  8
SUPERFICI
100
AcDbPolyline
 62
250
  6
CONTINUOUS
 90
8
 70
0
 10
-45.543343683
 20
22.8297165154
 10
-45.4003131135
 20
23.5662955783
 10
-45.2512878594
 20
24.2854443921
 10
-45.0967057761
 20
24.987416567
 10
-44.9370314371
 20
25.6729070891
 10
-44.7736170565
 20
26.34222705
 10
-44.6005959554
 20
26.990866413
 10
-44.3958148992
 20
27.6057542265
  0
LWPOLYLINE
  5
27C
100
AcDbEntity
  8
SUPERFICI
100
AcDbPolyline
 62
250
  6
CONTINUOUS
 90
3
 70
0
 10
-44.3958148992
 20
27.6057542265
 10
-44.1482507509
 20
28.1795505058
 10
-43.8558119472
 20
28.7086661317
  0
LWPOLYLINE
  5
27D
100
AcDbEntity
  8
SUPERFICI
100
AcDbPolyline
 62
250
  6
CONTINUOUS
 90
10
 70
0
 10
-42.8061351275
 20
29.8677923531
 10
-42.6950028104
 20
29.9429343134
 10
-42.5801793914
 20
30.0133943857
 10
-42.4618897926
 20
30.0788640926
 10
-42.340868501
 20
30.1388262409
 10
-42.2166791024
 20
30.1934858515
 10
-42.0877121162
 20
30.2435789978
 10
-41.9534251422
 20
30.2893673752
 10
-41.8144425739
 20
30.3306370176
 10
-41.6708453973
 20
30.3673901451
  0
LWPOLYLINE
  5
27E
100
AcDbEntity
  8
SUPERFICI
100
AcDbPolyline
 62
250
  6
CONTINUOUS
 90
4
 70
0
 10
-51.6517455604
 20
-16.1697076065
 10
-51.5633654047
 20
-16.2886809773
 10
-51.4658371803
 20
-16.4017593581
 10
-51.3609253313
 20
-16.5081159207
  0
LWPOLYLINE
  5
27F
100
AcDbEntity
  8
SUPERFICI
100
AcDbPolyline
 62
250
  6
CONTINUOUS
 90
10
 70
0
 10
-48.5140876172
 20
-14.5036681092
 10
-48.4390480002
 20
-14.6258221297
 10
-48.3615892462
 20
-14.7458988838
 10
-48.2818158487
 20
-14.8638356768
 10
-48.200077868
 20
-14.9792608026
 10
-48.1160123758
 20
-15.0926712749
 10
-48.0290853346
 20
-15.2047455078
 10
-47.9394795188
 20
-15.3152099676
 10
-47.8477095141
 20
-15.4234476694
 10
-47.7539948855
 20
-15.5293450143
  0
LWPOLYLINE
  5
280
100
AcDbEntity
  8
SUPERFICI
100
AcDbPolyline
 62
250
  6
CONTINUOUS
 90
7
 70
0
 10
-48.8812661997
 20
-13.7929644969
 10
-48.8262668581
 20
-13.9148825473
 10
-48.7687254133
 20
-14.0354479601
 10
-48.7086754481
 20
-14.1546556869
 10
-48.6461896958
 20
-14.2724497832
 10
-48.5813561872
 20
-14.388720779
 10
-48.5140876172
 20
-14.5036681092
  0
LWPOLYLINE
  5
281
100
AcDbEntity
  8
SUPERFICI
100
AcDbPolyline
 62
250
  6
CONTINUOUS
 90
4
 70
0
 10
-49.0302344478
 20
-13.4200486563
 10
-48.9833110203
 20
-13.5454894712
 10
-48.9336295071
 20
-13.6698258385
 10
-48.8812661997
 20
-13.7929644969
  0
LINE
  5
282
100
AcDbEntity
  8
SUPERFICI
100
AcDbLine
 62
250
  6
CONTINUOUS
 10
-49.2878069721
 20
-12.6084219994
 11
-49.0302344478
 21
-13.4200486563
  0
LWPOLYLINE
  5
283
100
AcDbEntity
  8
SUPERFICI
100
AcDbPolyline
 62
250
  6
CONTINUOUS
 90
9
 70
0
 10
-50.3715080024
 20
-5.4003192245
 10
-50.2580813342
 20
-6.3778209989
 10
-50.1424828131
 20
-7.3329352911
 10
-50.0250125938
 20
-8.2655708924
 10
-49.9067641214
 20
-9.1757097582
 10
-49.7847351134
 20
-10.0637077402
 10
-49.6508024277
 20
-10.9305513295
 10
-49.4922841987
 20
-11.7781261012
 10
-49.2878069721
 20
-12.6084219994
  0
LWPOLYLINE
  5
284
100
AcDbEntity
  8
SUPERFICI
100
AcDbPolyline
 62
250
  6
CONTINUOUS
 90
4
 70
0
 10
-46.3272811752
 20
4.3357983001
 10
-46.4537512625
 20
5.9398619929
 10
-46.5453740534
 20
7.5343904197
 10
-46.6021157321
 20
9.1189282327
  0
LWPOLYLINE
  5
285
100
AcDbEntity
  8
SUPERFICI
100
AcDbPolyline
 62
7
  6
CONTINUOUS
 90
10
 70
0
 10
-37.2585658973
 20
23.6186490852
 10
-37.2857795796
 20
23.552698597
 10
-37.3104156427
 20
23.4853942789
 10
-37.332472986
 20
23.4167772498
 10
-37.3519544442
 20
23.3468716627
 10
-37.3688618215
 20
23.2756728702
 10
-37.3831667765
 20
23.2033252338
 10
-37.3948555299
 20
23.1299387858
 10
-37.4039416651
 20
23.0554717149
 10
-37.410423313
 20
22.9799575822
  0
LWPOLYLINE
  5
286
100
AcDbEntity
  8
SUPERFICI
100
AcDbPolyline
 62
7
  6
CONTINUOUS
 90
10
 70
0
 10
-36.9178487133
 20
24.1240190811
 10
-36.9643620405
 20
24.0748330104
 10
-37.008887543
 20
24.0237097972
 10
-37.0512996364
 20
23.9707659072
 10
-37.0915158334
 20
23.9161021167
 10
-37.1294825938
 20
23.85980185
 10
-37.1651772172
 20
23.8019025584
 10
-37.198598322
 20
23.7424095519
 10
-37.2297381241
 20
23.6813306637
 10
-37.2585840106
 20
23.618665461
  0
LINE
  5
287
100
AcDbEntity
  8
0
100
AcDbLine
 62
7
  6
CONTINUOUS
 10
28.7366185759
 20
-35.4915710729
 11
28.6485489854
 21
-35.515599658
  0
LWPOLYLINE
  5
288
100
AcDbEntity
  8
SUPERFICI
100
AcDbPolyline
 62
250
  6
CONTINUOUS
 90
10
 70
0
 10
34.7513772352
 20
-38.6267485668
 10
34.4808886296
 20
-38.6817419458
 10
34.1972168073
 20
-38.7222388838
 10
33.9010623633
 20
-38.7486796535
 10
33.5933891684
 20
-38.761634375
 10
33.2751697764
 20
-38.7619060255
 10
32.9472995974
 20
-38.7504394555
 10
32.610952355
 20
-38.7282238571
 10
32.2668938146
 20
-38.695912683
 10
31.9147866683
 20
-38.6539604132
  0
LWPOLYLINE
  5
289
100
AcDbEntity
  8
SUPERFICI
100
AcDbPolyline
 62
250
  6
CONTINUOUS
 90
7
 70
0
 10
41.5569696771
 20
-43.769263787
 10
41.2150145386
 20
-43.7795551233
 10
40.8600848636
 20
-43.7733444888
 10
40.4938542884
 20
-43.7524802249
 10
40.1178146752
 20
-43.7186009453
 10
39.7326280391
 20
-43.6724357464
 10
39.3386535362
 20
-43.6144048602
  0
LWPOLYLINE
  5
28A
100
AcDbEntity
  8
SUPERFICI
100
AcDbPolyline
 62
250
  6
CONTINUOUS
 90
5
 70
0
 10
-53.3968234539
 20
-17.1320875913
 10
-53.2939470176
 20
-17.208883837
 10
-53.1887929047
 20
-17.282355047
 10
-53.0814481034
 20
-17.3520789231
 10
-52.9722199186
 20
-17.4174808962
  0
LWPOLYLINE
  5
28B
100
AcDbEntity
  8
SUPERFICI
100
AcDbPolyline
 62
250
  6
CONTINUOUS
 90
4
 70
0
 10
-46.8009899068
 20
-16.4068569223
 10
-46.6205208479
 20
-16.5428812257
 10
-46.4342323088
 20
-16.6762474913
 10
-46.2423805425
 20
-16.8069339309
  0
LWPOLYLINE
  5
28C
100
AcDbEntity
  8
SUPERFICI
100
AcDbPolyline
 62
250
  6
CONTINUOUS
 90
10
 70
0
 10
-51.3609253313
 20
-16.5081159207
 10
-51.1974375216
 20
-16.651578919
 10
-51.0191685866
 20
-16.7870172062
 10
-50.8291763765
 20
-16.9151237108
 10
-50.6305907868
 20
-17.0368977062
 10
-50.4247844208
 20
-17.1532026464
 10
-50.2124985891
 20
-17.2651015014
 10
-49.9942438658
 20
-17.3742585429
 10
-49.7702872564
 20
-17.4813499191
 10
-49.5411393733
 20
-17.5864284068
  0
LWPOLYLINE
  5
28D
100
AcDbEntity
  8
SUPERFICI
100
AcDbPolyline
 62
250
  6
CONTINUOUS
 90
7
 70
0
 10
-47.7539948855
 20
-15.5293450143
 10
-47.6118102003
 20
-15.6819372718
 10
-47.4625048407
 20
-15.8327262125
 10
-47.3063659311
 20
-15.9810911787
 10
-47.1438462873
 20
-16.1263320921
 10
-46.9753825461
 20
-16.2681655715
 10
-46.8009899068
 20
-16.4068569223
  0
LWPOLYLINE
  5
28E
100
AcDbEntity
  8
SUPERFICI
100
AcDbPolyline
 62
250
  6
CONTINUOUS
 90
10
 70
0
 10
-41.7074217162
 20
-14.2987578688
 10
-41.5908110357
 20
-14.4438374974
 10
-41.4706871559
 20
-14.5864476089
 10
-41.3472939276
 20
-14.7261357707
 10
-41.2214030767
 20
-14.8619222459
 10
-41.0925611906
 20
-14.9942853126
 10
-40.9590971047
 20
-15.1249684987
 10
-40.8204469474
 20
-15.2545732249
 10
-40.6772554529
 20
-15.3824957883
 10
-40.5296047431
 20
-15.5086883202
  0
LWPOLYLINE
  5
28F
100
AcDbEntity
  8
SUPERFICI
100
AcDbPolyline
 62
250
  6
CONTINUOUS
 90
10
 70
0
 10
-42.3263515373
 20
-13.4001454993
 10
-42.2621161165
 20
-13.5046256613
 10
-42.1968391503
 20
-13.6080185249
 10
-42.1305008476
 20
-13.7102258723
 10
-42.0630202653
 20
-13.8112637343
 10
-41.9942632887
 20
-13.9112447946
 10
-41.9241977482
 20
-14.0101733167
 10
-41.8529329144
 20
-14.1078796297
 10
-41.7806233072
 20
-14.2041422817
 10
-41.7074217162
 20
-14.2987578688
  0
LWPOLYLINE
  5
290
100
AcDbEntity
  8
SUPERFICI
100
AcDbPolyline
 62
250
  6
CONTINUOUS
 90
10
 70
0
 10
-42.8313739023
 20
-12.4721312377
 10
-42.7790945117
 20
-12.5781168903
 10
-42.7258880177
 20
-12.6833983681
 10
-42.6717465694
 20
-12.7879574359
 10
-42.6166310846
 20
-12.8918365102
 10
-42.5605600123
 20
-12.9949695687
 10
-42.5035134258
 20
-13.0973616757
 10
-42.4454703764
 20
-13.1990285774
 10
-42.3864448917
 20
-13.2999174233
 10
-42.3263515373
 20
-13.4001454993
  0
LINE
  5
291
100
AcDbEntity
  8
SUPERFICI
100
AcDbLine
 62
250
  6
CONTINUOUS
 10
-43.1548430404
 20
-11.7538762498
 11
-42.8313739023
 21
-12.4721312377
  0
LINE
  5
292
100
AcDbEntity
  8
SUPERFICI
100
AcDbLine
 62
250
  6
CONTINUOUS
 10
-43.4349867358
 20
-11.0180260041
 11
-43.1548430404
 21
-11.7538762498
  0
LINE
  5
293
100
AcDbEntity
  8
SUPERFICI
100
AcDbLine
 62
250
  6
CONTINUOUS
 10
-43.6737488093
 20
-10.2669303925
 11
-43.4349867358
 21
-11.0180260041
  0
LWPOLYLINE
  5
294
100
AcDbEntity
  8
SUPERFICI
100
AcDbPolyline
 62
250
  6
CONTINUOUS
 90
7
 70
0
 10
-44.8396356456
 20
-5.4582392487
 10
-44.6574736534
 20
-6.2946817969
 10
-44.470098567
 20
-7.1171358962
 10
-44.277942268
 20
-7.9255880692
 10
-44.0814416385
 20
-8.7204564735
 10
-43.881954115
 20
-9.5012200934
 10
-43.6737488093
 20
-10.2669303925
  0
LINE
  5
295
100
AcDbEntity
  8
SUPERFICI
100
AcDbLine
 62
250
  6
CONTINUOUS
 10
-44.8396356456
 20
-5.4582392487
 11
-45.1739437424
 21
-3.808797002
  0
LWPOLYLINE
  5
296
100
AcDbEntity
  8
SUPERFICI
100
AcDbPolyline
 62
250
  6
CONTINUOUS
 90
6
 70
0
 10
-45.1739437424
 20
-3.808797002
 10
-45.4737969646
 20
-2.1655763942
 10
-45.7391263464
 20
-0.5290417508
 10
-45.9698868296
 20
1.1005247057
 10
-46.1659776255
 20
2.7224737755
 10
-46.3272811752
 20
4.3357983001
  0
LWPOLYLINE
  5
297
100
AcDbEntity
  8
SUPERFICI
100
AcDbPolyline
 62
7
  6
CONTINUOUS
 90
8
 70
0
 10
-36.547450862
 20
-11.710928979
 10
-36.5504035774
 20
-11.6828364919
 10
-36.5529695706
 20
-11.6547387245
 10
-36.5551891947
 20
-11.626633907
 10
-36.5571029883
 20
-11.5985219682
 10
-36.5587520371
 20
-11.5703993973
 10
-36.5601778244
 20
-11.542259257
 10
-36.5614218681
 20
-11.5140980261
  0
LINE
  5
298
100
AcDbEntity
  8
SUPERFICI
100
AcDbLine
 62
7
  6
CONTINUOUS
 10
-36.5614218681
 20
-11.5140980261
 11
-36.5635319793
 21
-11.4577100912
  0
LINE
  5
299
100
AcDbEntity
  8
SUPERFICI
100
AcDbLine
 62
7
  6
CONTINUOUS
 10
-37.4140916579
 20
22.7334505643
 11
-36.5635319793
 21
-11.4577100912
  0
LWPOLYLINE
  5
29A
100
AcDbEntity
  8
SUPERFICI
100
AcDbPolyline
 62
7
  6
CONTINUOUS
 90
9
 70
0
 10
-37.4104424251
 20
22.9799738736
 10
-37.4120327823
 20
22.9533017038
 10
-37.413230709
 20
22.9264053494
 10
-37.4140769953
 20
22.8993041511
 10
-37.4146127043
 20
22.8720192556
 10
-37.4148792814
 20
22.8445686373
 10
-37.4149184036
 20
22.8169670233
 10
-37.4147719534
 20
22.7892325899
 10
-37.4140916579
 20
22.7334505643
  0
LWPOLYLINE
  5
29B
100
AcDbEntity
  8
SUPERFICI
100
AcDbPolyline
 62
250
  6
CONTINUOUS
 90
9
 70
0
 10
-36.0709626656
 20
21.9633993977
 10
-36.0354744547
 20
22.2070387587
 10
-35.9539464756
 20
22.4304826438
 10
-35.829074464
 20
22.6275128451
 10
-35.6638293962
 20
22.7917338511
 10
-35.460791885
 20
22.9175849326
 10
-35.2240004995
 20
23.0024468707
 10
-34.9604734727
 20
23.0456719852
 10
-34.6783254697
 20
23.046428198
  0
LWPOLYLINE
  5
29C
100
AcDbEntity
  8
SUPERFICI
100
AcDbPolyline
 62
7
  6
CONTINUOUS
 90
10
 70
0
 10
-34.3855106341
 20
23.0060650963
 10
-34.3391897243
 20
23.1837853734
 10
-34.2973166943
 20
23.3627797213
 10
-34.2601194993
 20
23.5421622207
 10
-34.2278114295
 20
23.7218325789
 10
-34.2007000605
 20
23.8999836879
 10
-34.1789538171
 20
24.0732420333
 10
-34.1625549285
 20
24.2399975487
 10
-34.1515330912
 20
24.4002617265
 10
-34.1459104763
 20
24.553274239
  0
LINE
  5
29D
100
AcDbEntity
  8
SUPERFICI
100
AcDbLine
 62
7
  6
CONTINUOUS
 10
-34.402287796
 20
21.9396947963
 11
-34.3037890522
 21
22.0371222487
  0
LINE
  5
29E
100
AcDbEntity
  8
0
100
AcDbLine
 62
7
  6
CONTINUOUS
 10
28.6485489854
 20
-35.515599658
 11
28.5539643094
 21
-35.5259589473
  0
LINE
  5
29F
100
AcDbEntity
  8
0
100
AcDbLine
 62
7
  6
CONTINUOUS
 10
28.628375608
 20
-35.5406112931
 11
28.5340475945
 21
-35.5509173715
  0
LWPOLYLINE
  5
2A0
100
AcDbEntity
  8
SUPERFICI
100
AcDbPolyline
 62
250
  6
CONTINUOUS
 90
4
 70
0
 10
39.3386535362
 20
-43.6144048602
 10
38.9363001321
 20
-43.5450501721
 10
38.5260884479
 20
-43.4651706962
 10
38.1082279807
 20
-43.3755956387
  0
LWPOLYLINE
  5
2A1
100
AcDbEntity
  8
SUPERFICI
100
AcDbPolyline
 62
250
  6
CONTINUOUS
 90
3
 70
0
 10
44.6943326952
 20
-46.6205121063
 10
45.1052141947
 20
-46.7036321251
 10
45.5094612327
 20
-46.7755470067
  0
LWPOLYLINE
  5
2A2
100
AcDbEntity
  8
SUPERFICI
100
AcDbPolyline
 62
250
  6
CONTINUOUS
 90
6
 70
0
 10
50.742464066
 20
-48.1676864404
 10
50.8918307008
 20
-48.1986623203
 10
51.0418007669
 20
-48.213106164
 10
51.1899280625
 20
-48.2106672568
 10
51.3324752494
 20
-48.1911988912
 10
51.4649410758
 20
-48.155311046
  0
LWPOLYLINE
  5
2A3
100
AcDbEntity
  8
SUPERFICI
100
AcDbPolyline
 62
250
  6
CONTINUOUS
 90
6
 70
0
 10
-52.9722199186
 20
-17.4174808962
 10
-52.8610159208
 20
-17.478270732
 10
-52.7472898178
 20
-17.5343288898
 10
-52.6311123139
 20
-17.5857272523
 10
-52.5133247714
 20
-17.6331000359
 10
-52.3946025026
 20
-17.6773584983
  0
LWPOLYLINE
  5
2A4
100
AcDbEntity
  8
SUPERFICI
100
AcDbPolyline
 62
250
  6
CONTINUOUS
 90
9
 70
0
 10
-46.2423805425
 20
-16.8069339309
 10
-45.8946445775
 20
-17.0290227234
 10
-45.5345616617
 20
-17.2423855285
 10
-45.1637385305
 20
-17.4478633174
 10
-44.7836078615
 20
-17.6461966056
 10
-44.3948053081
 20
-17.8377159884
 10
-43.9976744874
 20
-18.0226258829
 10
-43.5926034935
 20
-18.2012234052
 10
-43.1800809035
 20
-18.3739976542
  0
LWPOLYLINE
  5
2A5
100
AcDbEntity
  8
SUPERFICI
100
AcDbPolyline
 62
250
  6
CONTINUOUS
 90
10
 70
0
 10
-40.5296047431
 20
-15.5086883202
 10
-40.2521944436
 20
-15.731936145
 10
-39.9621247506
 20
-15.948623544
 10
-39.660084972
 20
-16.1587639641
 10
-39.3470252351
 20
-16.3623397553
 10
-39.0238928092
 20
-16.5595643357
 10
-38.6915495192
 20
-16.7508429259
 10
-38.3511375656
 20
-16.9364535202
 10
-38.0034017419
 20
-17.1165856932
 10
-37.6479767613
 20
-17.2919096851
  0
LWPOLYLINE
  5
2A6
100
AcDbEntity
  8
SUPERFICI
100
AcDbPolyline
 62
7
  6
CONTINUOUS
 90
10
 70
0
 10
-35.98984413
 20
-13.1803048784
 10
-36.0395454317
 20
-13.1013393915
 10
-36.0873252892
 20
-13.0216426543
 10
-36.1330503201
 20
-12.9414116707
 10
-36.1766316937
 20
-12.8608006534
 10
-36.2180108458
 20
-12.7799281468
 10
-36.2571628355
 20
-12.6988467539
 10
-36.2940859837
 20
-12.6175631256
 10
-36.328771983
 20
-12.5360904696
 10
-36.3612080364
 20
-12.4544366106
  0
LWPOLYLINE
  5
2A7
100
AcDbEntity
  8
SUPERFICI
100
AcDbPolyline
 62
7
  6
CONTINUOUS
 90
10
 70
0
 10
-36.3611903994
 20
-12.4544338364
 10
-36.3921337204
 20
-12.3704587206
 10
-36.4205272903
 20
-12.2867171752
 10
-36.4463679193
 20
-12.2032520733
 10
-36.4696572648
 20
-12.1200865842
 10
-36.4903973821
 20
-12.0372152599
 10
-36.5085522412
 20
-11.9548028057
 10
-36.5241023226
 20
-11.8729699483
 10
-36.5370635081
 20
-11.791666096
 10
-36.5474322082
 20
-11.7109268478
  0
LWPOLYLINE
  5
2A8
100
AcDbEntity
  8
SUPERFICI
100
AcDbPolyline
 62
250
  6
CONTINUOUS
 90
10
 70
0
 10
-35.2169155914
 20
-12.3679490774
 10
-35.1686850302
 20
-12.6365321437
 10
-35.074723584
 20
-12.9128940678
 10
-34.9380773146
 20
-13.1891705081
 10
-34.7620806478
 20
-13.457146862
 10
-34.549631787
 20
-13.7096172265
 10
-34.3049653323
 20
-13.941320676
 10
-34.0352405885
 20
-14.1472340288
 10
-33.7487356437
 20
-14.3216200222
 10
-33.4535157304
 20
-14.4590382004
  0
LINE
  5
2A9
100
AcDbEntity
  8
SUPERFICI
100
AcDbLine
 62
7
  6
CONTINUOUS
 10
-33.1535506372
 20
-15.338029738
 11
-33.1662681375
 21
-15.205832443
  0
LINE
  5
2AA
100
AcDbEntity
  8
SUPERFICI
100
AcDbLine
 62
250
  6
CONTINUOUS
 10
-36.0703396721
 20
21.9636054117
 11
-35.2162925995
 21
-12.3677429954
  0
LINE
  5
2AB
100
AcDbEntity
  8
SUPERFICI
100
AcDbLine
 62
250
  6
CONTINUOUS
 10
-34.3045059787
 20
22.0377813547
 11
-33.4463255007
 21
-12.4170700017
  0
LINE
  5
2AC
100
AcDbEntity
  8
DRAFT
100
AcDbLine
 62
7
  6
CONTINUOUS
 10
-33.5850360891
 20
21.8173001606
 11
-33.2305614059
 21
7.5857660116
  0
LINE
  5
2AD
100
AcDbEntity
  8
DRAFT
100
AcDbLine
 62
7
  6
CONTINUOUS
 10
-33.133999551
 20
3.7089776235
 11
-32.7530365175
 21
-11.5860171339
  0
LINE
  5
2AE
100
AcDbEntity
  8
0
100
AcDbLine
 62
7
  6
CONTINUOUS
 10
-32.7499330085
 20
-11.5867379151
 11
-33.5819267615
 21
21.8163457751
  0
LINE
  5
2AF
100
AcDbEntity
  8
DRAFT
100
AcDbLine
 62
7
  6
CONTINUOUS
 10
-33.4875210021
 20
21.7873686116
 11
-33.1366036952
 21
7.6986568557
  0
LINE
  5
2B0
100
AcDbEntity
  8
DRAFT
100
AcDbLine
 62
7
  6
CONTINUOUS
 10
-33.0400418403
 20
3.8218684677
 11
-32.6590846368
 21
-11.472892223
  0
LINE
  5
2B1
100
AcDbEntity
  8
DRAFT
100
AcDbLine
 62
7
  6
CONTINUOUS
 10
-33.0696905387
 20
21.6591185797
 11
-32.734781503
 21
8.2131107142
  0
LINE
  5
2B2
100
AcDbEntity
  8
DRAFT
100
AcDbLine
 62
7
  6
CONTINUOUS
 10
-32.6382196481
 20
4.3363223262
 11
-32.2572493677
 21
-10.9589633784
  0
LINE
  5
2B3
100
AcDbEntity
  8
DRAFT
100
AcDbLine
 62
7
  6
CONTINUOUS
 10
-33.1366036952
 20
7.6986568557
 11
-32.734781503
 21
8.2131107142
  0
LWPOLYLINE
  5
2B4
100
AcDbEntity
  8
SUPERFICI
100
AcDbPolyline
 62
7
  6
CONTINUOUS
 90
10
 70
0
 10
-36.1057914214
 20
24.6016747818
 10
-36.2150769464
 20
24.5646003602
 10
-36.3194262786
 20
24.5231929033
 10
-36.4189966327
 20
24.4775683266
 10
-36.5141346866
 20
24.427760705
 10
-36.6048971789
 20
24.3740016294
 10
-36.6908364897
 20
24.3165922045
 10
-36.7716836493
 20
24.2556508966
 10
-36.8474127001
 20
24.191353945
 10
-36.9178487133
 20
24.1240190811
  0
LWPOLYLINE
  5
2B5
100
AcDbEntity
  8
SUPERFICI
100
AcDbPolyline
 62
7
  6
CONTINUOUS
 90
6
 70
0
 10
27.9259768831
 20
-31.7585581657
 10
27.7458661907
 20
-31.7757990772
 10
27.5679776091
 20
-31.7722607263
 10
27.3967412746
 20
-31.7483549262
 10
27.2361607116
 20
-31.7048815862
 10
27.0919003542
 20
-31.643039722
  0
LINE
  5
2B6
100
AcDbEntity
  8
SUPERFICI
100
AcDbLine
 62
7
  6
CONTINUOUS
 10
26.617268295
 20
-31.1094863812
 11
26.5727887223
 21
-31.1130876493
  0
LWPOLYLINE
  5
2B7
100
AcDbEntity
  8
SUPERFICI
100
AcDbPolyline
 62
7
  6
CONTINUOUS
 90
6
 70
0
 10
27.4730205183
 20
-33.8339061046
 10
27.6963049983
 20
-33.8389932608
 10
27.9120800247
 20
-33.8295955826
 10
28.1189990662
 20
-33.8060101477
 10
28.3167726494
 20
-33.7684595503
 10
28.5046390573
 20
-33.7172322052
  0
LWPOLYLINE
  5
2B8
100
AcDbEntity
  8
SUPERFICI
100
AcDbPolyline
 62
250
  6
CONTINUOUS
 90
7
 70
0
 10
31.9147866683
 20
-38.6539604132
 10
31.2836546739
 20
-38.5598443066
 10
30.6385575438
 20
-38.4436658646
 10
29.980814882
 20
-38.3099821714
 10
29.3111194462
 20
-38.1622916203
 10
28.6300135254
 20
-37.9981849531
 10
27.9390331015
 20
-37.8188253751
  0
LWPOLYLINE
  5
2B9
100
AcDbEntity
  8
SUPERFICI
100
AcDbPolyline
 62
250
  6
CONTINUOUS
 90
5
 70
0
 10
38.1082279807
 20
-43.3755956387
 10
37.3453593074
 20
-43.1991004935
 10
36.574437752
 20
-43.008586663
 10
35.7956686141
 20
-42.804238403
 10
35.0088671742
 20
-42.5869900729
  0
LINE
  5
2BA
100
AcDbEntity
  8
SUPERFICI
100
AcDbLine
 62
250
  6
CONTINUOUS
 10
48.9362007272
 20
-48.7872664779
 11
48.8194662652
 21
-48.7592184593
  0
LINE
  5
2BB
100
AcDbEntity
  8
SUPERFICI
100
AcDbLine
 62
250
  6
CONTINUOUS
 10
48.8194662652
 20
-48.7592184593
 11
48.7232379705
 21
-48.7329131081
  0
LWPOLYLINE
  5
2BC
100
AcDbEntity
  8
SUPERFICI
100
AcDbPolyline
 62
250
  6
CONTINUOUS
 90
8
 70
0
 10
41.6769655375
 20
-45.8590309262
 10
42.121817419
 20
-45.9825609537
 10
42.5621106054
 20
-46.1019312789
 10
42.9980061349
 20
-46.216666571
 10
43.4292927686
 20
-46.3262125209
 10
43.8558762656
 20
-46.4302762162
 10
44.277638984
 20
-46.5286242294
 10
44.6943326952
 20
-46.6205121063
  0
LWPOLYLINE
  5
2BD
100
AcDbEntity
  8
SUPERFICI
100
AcDbPolyline
 62
250
  6
CONTINUOUS
 90
4
 70
0
 10
41.6769655375
 20
-45.8590309262
 10
40.8382193084
 20
-45.6202784091
 10
39.9947033653
 20
-45.3740497379
 10
39.1464724536
 20
-45.1214282627
  0
LINE
  5
2BE
100
AcDbEntity
  8
SUPERFICI
100
AcDbLine
 62
250
  6
CONTINUOUS
 10
35.0088671742
 20
-42.5869900729
 11
33.4155050926
 21
-42.1341531945
  0
LINE
  5
2BF
100
AcDbEntity
  8
SUPERFICI
100
AcDbLine
 62
250
  6
CONTINUOUS
 10
48.7232379705
 20
-48.7329131081
 11
48.0354457502
 21
-48.5377244135
  0
LINE
  5
2C0
100
AcDbEntity
  8
SUPERFICI
100
AcDbLine
 62
250
  6
CONTINUOUS
 10
33.4155050926
 20
-42.1341531945
 11
30.9853371605
 21
-41.4311231027
  0
LINE
  5
2C1
100
AcDbEntity
  8
SUPERFICI
100
AcDbLine
 62
250
  6
CONTINUOUS
 10
48.0354457502
 20
-48.5377244135
 11
47.4918824364
 21
-48.3791615086
  0
LWPOLYLINE
  5
2C2
100
AcDbEntity
  8
SUPERFICI
100
AcDbPolyline
 62
7
  6
CONTINUOUS
 90
17
 70
0
 10
49.1129579713
 20
-49.0193641871
 10
49.2051083871
 20
-49.0463525787
 10
49.3040032058
 20
-49.0723313897
 10
49.4077894574
 20
-49.0959019079
 10
49.5173973611
 20
-49.1166545612
 10
49.6341438933
 20
-49.1338686705
 10
49.7569697643
 20
-49.1463478036
 10
49.8861849701
 20
-49.1535213883
 10
50.0249230789
 20
-49.1542405843
 10
50.1711615459
 20
-49.1464335469
 10
50.3253652713
 20
-49.1279076497
 10
50.4943442659
 20
-49.0947021612
 10
50.6729593892
 20
-49.0438649246
 10
50.861263455
 20
-48.9704831324
 10
51.0684350406
 20
-48.8619929158
 10
51.2896354613
 20
-48.7052828715
 10
51.4646719813
 20
-48.5398513406
  0
LINE
  5
2C3
100
AcDbEntity
  8
SUPERFICI
100
AcDbLine
 62
250
  6
CONTINUOUS
 10
27.7653550183
 20
-40.488779983
 11
30.9853371605
 21
-41.4311231027
  0
LINE
  5
2C4
100
AcDbEntity
  8
SUPERFICI
100
AcDbLine
 62
250
  6
CONTINUOUS
 10
24.5779307773
 20
-39.5445327128
 11
27.7653550183
 21
-40.488779983
  0
LINE
  5
2C5
100
AcDbEntity
  8
SUPERFICI
100
AcDbLine
 62
250
  6
CONTINUOUS
 10
47.4918824364
 20
-48.3791615086
 11
45.7291387301
 21
-47.8554839364
  0
LINE
  5
2C6
100
AcDbEntity
  8
SUPERFICI
100
AcDbLine
 62
250
  6
CONTINUOUS
 10
21.4199381909
 20
-38.5977587429
 11
24.5779307773
 21
-39.5445327128
  0
LINE
  5
2C7
100
AcDbEntity
  8
SUPERFICI
100
AcDbLine
 62
250
  6
CONTINUOUS
 10
45.7291387301
 20
-47.8554839364
 11
43.9861918022
 21
-47.3300229143
  0
LINE
  5
2C8
100
AcDbEntity
  8
SUPERFICI
100
AcDbLine
 62
7
  6
CONTINUOUS
 10
48.9607490512
 20
-48.9733353278
 11
49.1129579713
 21
-49.0193641871
  0
LINE
  5
2C9
100
AcDbEntity
  8
SUPERFICI
100
AcDbLine
 62
250
  6
CONTINUOUS
 10
39.1464724536
 20
-45.1214282627
 11
34.8413352895
 21
-43.8143304259
  0
LINE
  5
2CA
100
AcDbEntity
  8
SUPERFICI
100
AcDbLine
 62
250
  6
CONTINUOUS
 10
28.8310850168
 20
-41.9798360464
 11
34.8413352895
 21
-43.8143304259
  0
LINE
  5
2CB
100
AcDbEntity
  8
SUPERFICI
100
AcDbLine
 62
250
  6
CONTINUOUS
 10
43.986191695
 20
-47.3300229244
 11
39.5296522778
 21
-45.9665838196
  0
LINE
  5
2CC
100
AcDbEntity
  8
SUPERFICI
100
AcDbLine
 62
250
  6
CONTINUOUS
 10
-22.5663311703
 20
-26.1909988312
 11
-29.4321515369
 21
-24.0885689351
  0
LINE
  5
2CD
100
AcDbEntity
  8
SUPERFICI
100
AcDbLine
 62
250
  6
CONTINUOUS
 10
35.9186596731
 20
-44.8553133214
 11
19.7646657468
 21
-39.8946534459
  0
LINE
  5
2CE
100
AcDbEntity
  8
SUPERFICI
100
AcDbLine
 62
250
  6
CONTINUOUS
 10
-23.3112650672
 20
-26.6639205939
 11
19.7608715726
 21
-39.8915043707
  0
LINE
  5
2CF
100
AcDbEntity
  8
SUPERFICI
100
AcDbLine
 62
250
  6
CONTINUOUS
 10
39.5296522778
 20
-45.9665838196
 11
35.921975685
 21
-44.8574871009
  0
LINE
  5
2D0
100
AcDbEntity
  8
SUPERFICI
100
AcDbLine
 62
250
  6
CONTINUOUS
 10
-29.4321515369
 20
-24.0885689351
 11
-34.5577362483
 21
-22.5117683971
  0
LWPOLYLINE
  5
2D1
100
AcDbEntity
  8
SUPERFICI
100
AcDbPolyline
 62
250
  6
CONTINUOUS
 90
3
 70
0
 10
-22.567486202
 20
-26.1898242866
 10
20.2730459738
 20
-39.3485950246
 10
28.8310850168
 20
-41.9798360464
  0
LINE
  5
2D2
100
AcDbEntity
  8
SUPERFICI
100
AcDbLine
 62
250
  6
CONTINUOUS
 10
-47.535598021
 20
-19.2245679618
 11
-23.312079545
 21
-26.6662022925
  0
LINE
  5
2D3
100
AcDbEntity
  8
SUPERFICI
100
AcDbLine
 62
250
  6
CONTINUOUS
 10
-50.1679359567
 20
-18.3988181973
 11
-47.5355980664
 21
-19.2245679048
  0
LINE
  5
2D4
100
AcDbEntity
  8
SUPERFICI
100
AcDbLine
 62
250
  6
CONTINUOUS
 10
-51.5028265537
 20
-17.972394002
 11
-50.1679359567
 21
-18.3988181973
  0
LWPOLYLINE
  5
2D5
100
AcDbEntity
  8
SUPERFICI
100
AcDbPolyline
 62
250
  6
CONTINUOUS
 90
5
 70
0
 10
-45.6955879
 20
-19.0277662271
 10
-44.8558981917
 20
-19.3044451257
 10
-44.011740159
 20
-19.5764847824
 10
-43.1631150755
 20
-19.8449513443
 10
-34.5577362483
 20
-22.5117683971
  0
LWPOLYLINE
  5
2D6
100
AcDbEntity
  8
SUPERFICI
100
AcDbPolyline
 62
250
  6
CONTINUOUS
 90
6
 70
0
 10
-52.2515089827
 20
-17.8920109458
 10
-52.2577923009
 20
-17.8899309166
 10
-52.3034035121
 20
-17.8631765964
 10
-52.3416298128
 20
-17.8186835614
 10
-52.3721554728
 20
-17.7569397819
 10
-52.3945683645
 20
-17.6783623292
  0
LWPOLYLINE
  5
2D7
100
AcDbEntity
  8
SUPERFICI
100
AcDbPolyline
 62
250
  6
CONTINUOUS
 90
10
 70
0
 10
-45.6955879
 20
-19.0277662271
 10
-46.1410955467
 20
-18.8778754692
 10
-46.5821828629
 20
-18.7265823809
 10
-47.0190371971
 20
-18.573304645
 10
-47.4514718494
 20
-18.4176101557
 10
-47.8794058133
 20
-18.2592598172
 10
-48.3027313387
 20
-18.0980894179
 10
-48.7212336995
 20
-17.9334966724
 10
-49.1342739489
 20
-17.7635983043
 10
-49.5411393733
 20
-17.5864284068
  0
LINE
  5
2D8
100
AcDbEntity
  8
SUPERFICI
100
AcDbLine
 62
250
  6
CONTINUOUS
 10
-51.8011043019
 20
-17.8836309233
 11
-51.5023599511
 21
-17.9841031761
  0
LINE
  5
2D9
100
AcDbEntity
  8
SUPERFICI
100
AcDbLine
 62
250
  6
CONTINUOUS
 10
-52.0985227879
 20
-17.7817565365
 11
-51.8011043019
 21
-17.8836309233
  0
LINE
  5
2DA
100
AcDbEntity
  8
SUPERFICI
100
AcDbLine
 62
250
  6
CONTINUOUS
 10
-52.3945683645
 20
-17.6783623292
 11
-52.0985227879
 21
-17.7817565365
  0
LWPOLYLINE
  5
2DB
100
AcDbEntity
  8
SUPERFICI
100
AcDbPolyline
 62
250
  6
CONTINUOUS
 90
7
 70
0
 10
-42.760277867
 20
-18.5416609435
 10
-41.9945126032
 20
-18.8345944711
 10
-41.221273316
 20
-19.1182774755
 10
-40.4407592278
 20
-19.392769988
 10
-39.6527359302
 20
-19.659135078
 10
-38.8578554281
 20
-19.9223316883
 10
-29.2135849662
 20
-23.0256807519
  0
LINE
  5
2DC
100
AcDbEntity
  8
SUPERFICI
100
AcDbLine
 62
250
  6
CONTINUOUS
 10
-43.1800809035
 20
-18.3739976542
 11
-42.760277867
 21
-18.5416609435
  0
LWPOLYLINE
  5
2DD
100
AcDbEntity
  8
SUPERFICI
100
AcDbPolyline
 62
250
  6
CONTINUOUS
 90
8
 70
0
 10
-37.6479767613
 20
-17.2919096851
 10
-37.0118462672
 20
-17.5869576115
 10
-36.3626417472
 20
-17.8682466671
 10
-35.7014746472
 20
-18.1395873842
 10
-35.028872995
 20
-18.4041032647
 10
-34.3455082197
 20
-18.6590123293
 10
-33.652881633
 20
-18.90454506
 10
-32.2424531644
 20
-19.3930932092
  0
LWPOLYLINE
  5
2DE
100
AcDbEntity
  8
SUPERFICI
100
AcDbPolyline
 62
7
  6
CONTINUOUS
 90
10
 70
0
 10
-35.1412487173
 20
-14.171424136
 10
-35.2540856481
 20
-14.0657376312
 10
-35.3621277238
 20
-13.9587026136
 10
-35.4655287142
 20
-13.8503416372
 10
-35.5646388848
 20
-13.7404764205
 10
-35.6595041317
 20
-13.6293112175
 10
-35.7496546959
 20
-13.5174348789
 10
-35.8348114251
 20
-13.4051382721
 10
-35.9149390987
 20
-13.2926175081
 10
-35.98984413
 20
-13.1803048784
  0
LWPOLYLINE
  5
2DF
100
AcDbEntity
  8
SUPERFICI
100
AcDbPolyline
 62
250
  6
CONTINUOUS
 90
10
 70
0
 10
-35.2162925995
 20
-12.3677429954
 10
-35.3180455398
 20
-12.2449431128
 10
-35.4339538701
 20
-12.1256773202
 10
-35.5634398434
 20
-12.0105960854
 10
-35.7066001252
 20
-11.8998142033
 10
-35.8621757561
 20
-11.7946590284
 10
-36.0270344302
 20
-11.6973407897
 10
-36.1991967876
 20
-11.6087276403
 10
-36.3783524225
 20
-11.5286764109
 10
-36.5634669784
 20
-11.4575489586
  0
LWPOLYLINE
  5
2E0
100
AcDbEntity
  8
SUPERFICI
100
AcDbPolyline
 62
7
  6
CONTINUOUS
 90
7
 70
0
 10
-33.4540400023
 20
-14.4590144545
 10
-33.5017689911
 20
-14.3934821854
 10
-33.5355497962
 20
-14.2999977792
 10
-33.5547391878
 20
-14.1813024899
 10
-33.5589163673
 20
-14.0402551411
 10
-33.5478201546
 20
-13.8813824933
 10
-33.5219314472
 20
-13.7113451499
  0
LWPOLYLINE
  5
2E1
100
AcDbEntity
  8
SUPERFICI
100
AcDbPolyline
 62
7
  6
CONTINUOUS
 90
10
 70
0
 10
-33.4470087484
 20
-12.4166657656
 10
-33.4263985052
 20
-12.4616145759
 10
-33.4015377242
 20
-12.5065711912
 10
-33.3727380779
 20
-12.5509243857
 10
-33.3404158391
 20
-12.5939396445
 10
-33.304787516
 20
-12.6351881625
 10
-33.2659191796
 20
-12.6745751132
 10
-33.2242214701
 20
-12.7117751337
 10
-33.1803983302
 20
-12.7462022778
 10
-33.1350533809
 20
-12.7773877864
  0
LINE
  5
2E2
100
AcDbEntity
  8
DRAFT
100
AcDbLine
 62
7
  6
CONTINUOUS
 10
-32.6507690179
 20
-11.5040658232
 11
-32.6590846368
 21
-11.472892223
  0
LWPOLYLINE
  5
2E3
100
AcDbEntity
  8
SUPERFICI
100
AcDbPolyline
 62
7
  6
CONTINUOUS
 90
9
 70
0
 10
-33.1662681375
 20
-15.205832443
 10
-33.1843951362
 20
-15.0804698005
 10
-33.2078741772
 20
-14.9626023263
 10
-33.2366696646
 20
-14.8524808382
 10
-33.2707289702
 20
-14.7513275677
 10
-33.3097560592
 20
-14.6609016033
 10
-33.353383122
 20
-14.5818196392
 10
-33.4013966654
 20
-14.513991376
 10
-33.4535398156
 20
-14.4576952752
  0
LWPOLYLINE
  5
2E4
100
AcDbEntity
  8
SUPERFICI
100
AcDbPolyline
 62
7
  6
CONTINUOUS
 90
5
 70
0
 10
-33.5219314472
 20
-13.7113451499
 10
-33.4821430102
 20
-13.5354865299
 10
-33.4296394336
 20
-13.3594127479
 10
-33.3666438415
 20
-13.1906953359
 10
-33.2953878367
 20
-13.0349037843
  0
LINE
  5
2E5
100
AcDbEntity
  8
DRAFT
100
AcDbLine
 62
7
  6
CONTINUOUS
 10
-32.6382196481
 20
4.3363223262
 11
-33.0400418403
 21
3.8218684677
  0
LINE
  5
2E6
100
AcDbEntity
  8
DRAFT
100
AcDbLine
 62
7
  6
CONTINUOUS
 10
-33.2305614059
 20
7.5857660116
 11
-33.1366036952
 21
7.6986568557
  0
LINE
  5
2E7
100
AcDbEntity
  8
DRAFT
100
AcDbLine
 62
7
  6
CONTINUOUS
 10
-33.0400418403
 20
3.8218684677
 11
-33.133999551
 21
3.7089776235
  0
LWPOLYLINE
  5
2E8
100
AcDbEntity
  8
SUPERFICI
100
AcDbPolyline
 62
250
  6
CONTINUOUS
 90
3
 70
0
 10
-33.8753593883
 20
4.8103078813
 10
-33.9745958836
 20
4.7132649472
 10
-34.0990089249
 20
4.6295605562
  0
LWPOLYLINE
  5
2E9
100
AcDbEntity
  8
0
100
AcDbPolyline
 62
7
  6
CONTINUOUS
 90
6
 70
0
 10
28.1160690332
 20
-35.1081823231
 10
28.1774833807
 20
-35.1216798067
 10
28.2376866078
 20
-35.1249703157
 10
28.2937310736
 20
-35.1166670876
 10
28.3426856723
 20
-35.0957595959
 10
28.3795340413
 20
-35.0632786462
  0
LWPOLYLINE
  5
2EA
100
AcDbEntity
  8
SUPERFICI
100
AcDbPolyline
 62
7
  6
CONTINUOUS
 90
5
 70
0
 10
26.5420467079
 20
-33.6697661798
 10
26.7784954046
 20
-33.7321587309
 10
27.0130770608
 20
-33.7803673111
 10
27.2447528613
 20
-33.814302806
 10
27.4730205183
 20
-33.8339061046
  0
LINE
  5
2EB
100
AcDbEntity
  8
SUPERFICI
100
AcDbLine
 62
250
  6
CONTINUOUS
 10
27.9390331015
 20
-37.8188253751
 11
26.5313831425
 21
-37.4419689406
  0
LWPOLYLINE
  5
2EC
100
AcDbEntity
  8
SUPERFICI
100
AcDbPolyline
 62
250
  6
CONTINUOUS
 90
7
 70
0
 10
26.5313831425
 20
-37.4419689406
 10
24.4325033441
 20
-36.8648518563
 10
23.0566115711
 20
-36.4775781025
 10
21.6869357145
 20
-36.0857377993
 10
20.3261093878
 20
-35.6907069697
 10
18.9715968431
 20
-35.2912373692
 10
17.6157209134
 20
-34.8842338133
  0
LINE
  5
2ED
100
AcDbEntity
  8
0
100
AcDbLine
 62
7
  6
CONTINUOUS
 10
29.1801437146
 20
-36.5515512504
 11
28.5924727292
 21
-36.3801257791
  0
LINE
  5
2EE
100
AcDbEntity
  8
0
100
AcDbLine
 62
7
  6
CONTINUOUS
 10
29.2001599709
 20
-36.526468087
 11
28.6124998168
 21
-36.3550290426
  0
LINE
  5
2EF
100
AcDbEntity
  8
0
100
AcDbLine
 62
7
  6
CONTINUOUS
 10
27.9849285614
 20
-35.4371814842
 11
27.5307335984
 21
-35.302862015
  0
LINE
  5
2F0
100
AcDbEntity
  8
0
100
AcDbLine
 62
7
  6
CONTINUOUS
 10
28.0049419789
 20
-35.4121018782
 11
27.5508211285
 21
-35.2776895355
  0
LINE
  5
2F1
100
AcDbEntity
  8
0
100
AcDbLine
 62
7
  6
CONTINUOUS
 10
27.6160639094
 20
-36.0923878253
 11
27.0960018388
 21
-35.9380612928
  0
LINE
  5
2F2
100
AcDbEntity
  8
0
100
AcDbLine
 62
7
  6
CONTINUOUS
 10
27.6358666032
 20
-36.0675722855
 11
27.115803074
 21
-35.9132475809
  0
LINE
  5
2F3
100
AcDbEntity
  8
0
100
AcDbLine
 62
7
  6
CONTINUOUS
 10
27.484250212
 20
-34.9209483007
 11
28.1160690332
 21
-35.1081823231
  0
LINE
  5
2F4
100
AcDbEntity
  8
0
100
AcDbLine
 62
7
  6
CONTINUOUS
 10
26.7495244527
 20
-35.8349054008
 11
26.2303038534
 21
-35.6795179912
  0
LINE
  5
2F5
100
AcDbEntity
  8
0
100
AcDbLine
 62
7
  6
CONTINUOUS
 10
26.7694136521
 20
-35.8099814574
 11
26.2502925399
 21
-35.6544693765
  0
LINE
  5
2F6
100
AcDbEntity
  8
0
100
AcDbLine
 62
7
  6
CONTINUOUS
 10
25.3205467737
 20
-34.6414529855
 11
25.8232091014
 21
-34.7927994293
  0
LINE
  5
2F7
100
AcDbEntity
  8
0
100
AcDbLine
 62
7
  6
CONTINUOUS
 10
25.084354227
 20
-35.3336555471
 11
24.5662198237
 21
-35.1769295021
  0
LINE
  5
2F8
100
AcDbEntity
  8
0
100
AcDbLine
 62
7
  6
CONTINUOUS
 10
26.0421910074
 20
-35.2048073825
 11
25.2233517213
 21
-34.9579460032
  0
LINE
  5
2F9
100
AcDbEntity
  8
SUPERFICI
100
AcDbLine
 62
250
  6
CONTINUOUS
 10
19.846930099
 20
-38.1216891417
 11
21.4199381909
 21
-38.5977587429
  0
LINE
  5
2FA
100
AcDbEntity
  8
0
100
AcDbLine
 62
7
  6
CONTINUOUS
 10
25.104295973
 20
-35.3086657555
 11
24.5862108635
 21
-35.1518779385
  0
LINE
  5
2FB
100
AcDbEntity
  8
0
100
AcDbLine
 62
7
  6
CONTINUOUS
 10
26.0222535168
 20
-35.2297918416
 11
25.2034208572
 21
-34.9829221583
  0
LINE
  5
2FC
100
AcDbEntity
  8
0
100
AcDbLine
 62
7
  6
CONTINUOUS
 10
24.2208510274
 20
-35.0723766064
 11
23.7029141881
 21
-34.91539659
  0
LINE
  5
2FD
100
AcDbEntity
  8
0
100
AcDbLine
 62
7
  6
CONTINUOUS
 10
24.2408441069
 20
-35.0473224868
 11
23.7228893736
 21
-34.8903648941
  0
LINE
  5
2FE
100
AcDbEntity
  8
0
100
AcDbLine
 62
7
  6
CONTINUOUS
 10
23.2133976199
 20
-34.7667641149
 11
22.6956839627
 21
-34.6095302713
  0
LINE
  5
2FF
100
AcDbEntity
  8
0
100
AcDbLine
 62
7
  6
CONTINUOUS
 10
23.2333677748
 20
-34.7417387229
 11
22.7156890621
 21
-34.5844610891
  0
LINE
  5
300
100
AcDbEntity
  8
0
100
AcDbLine
 62
7
  6
CONTINUOUS
 10
22.2062148413
 20
-34.4608544624
 11
21.6885402743
 21
-34.3035457822
  0
LINE
  5
301
100
AcDbEntity
  8
0
100
AcDbLine
 62
7
  6
CONTINUOUS
 10
22.2262734003
 20
-34.4357182878
 11
21.7086504835
 21
-34.2783448826
  0
LINE
  5
302
100
AcDbEntity
  8
0
100
AcDbLine
 62
7
  6
CONTINUOUS
 10
21.1709552471
 20
-34.1461457407
 11
20.6534459537
 21
-33.9886355463
  0
LINE
  5
303
100
AcDbEntity
  8
0
100
AcDbLine
 62
7
  6
CONTINUOUS
 10
21.1910849977
 20
-34.1209203532
 11
20.6735569227
 21
-33.9634336947
  0
LINE
  5
304
100
AcDbEntity
  8
0
100
AcDbLine
 62
7
  6
CONTINUOUS
 10
19.4979518146
 20
-33.6053302479
 11
18.9806158872
 21
-33.447573619
  0
LINE
  5
305
100
AcDbEntity
  8
SUPERFICI
100
AcDbLine
 62
250
  6
CONTINUOUS
 10
18.2786148475
 20
-37.6432562586
 11
19.846930099
 21
-38.1216891417
  0
LINE
  5
306
100
AcDbEntity
  8
0
100
AcDbLine
 62
7
  6
CONTINUOUS
 10
19.4779427205
 20
-33.6304044361
 11
18.9606418896
 21
-33.4726038263
  0
LINE
  5
307
100
AcDbEntity
  8
SUPERFICI
100
AcDbLine
 62
250
  6
CONTINUOUS
 10
-24.481155711
 20
-24.5089636966
 11
18.2786148475
 21
-37.6432562586
  0
LWPOLYLINE
  5
308
100
AcDbEntity
  8
SUPERFICI
100
AcDbPolyline
 62
250
  6
CONTINUOUS
 90
3
 70
0
 10
-29.2135849662
 20
-23.0256807519
 10
-27.6316086726
 20
-23.5244412233
 10
-24.481155711
 20
-24.5089636966
  0
LWPOLYLINE
  5
309
100
AcDbEntity
  8
SUPERFICI
100
AcDbPolyline
 62
250
  6
CONTINUOUS
 90
4
 70
0
 10
-26.0294425176
 20
-21.4553660702
 10
-24.6741033232
 20
-21.8880656859
 10
-23.3177574766
 20
-22.3139591616
 10
17.6157209134
 20
-34.8842338133
  0
LINE
  5
30A
100
AcDbEntity
  8
SUPERFICI
100
AcDbLine
 62
250
  6
CONTINUOUS
 10
50.5964094114
 20
-48.1204895368
 11
50.742464066
 21
-48.1676864404
  0
LWPOLYLINE
  5
30B
100
AcDbEntity
  8
SUPERFICI
100
AcDbPolyline
 62
250
  6
CONTINUOUS
 90
4
 70
0
 10
-30.1401927538
 20
-20.1061055826
 10
-28.7625337159
 20
-20.5644206065
 10
-27.3914152462
 20
-21.0142516883
 10
-26.0294425176
 20
-21.4553660702
  0
LINE
  5
30C
100
AcDbEntity
  8
SUPERFICI
100
AcDbLine
 62
250
  6
CONTINUOUS
 10
-32.2424531644
 20
-19.3930932092
 11
-30.1401927538
 21
-20.1061055826
  0
LWPOLYLINE
  5
30D
100
AcDbEntity
  8
0
100
AcDbPolyline
 62
7
  6
CONTINUOUS
 90
7
 70
0
 10
-32.4626986363
 20
-11.9140817138
 10
-32.533686035
 20
-11.8747413335
 10
-32.5954274324
 20
-11.8293141854
 10
-32.6479228284
 20
-11.7778002695
 10
-32.6911722231
 20
-11.7201995858
 10
-32.7251756164
 20
-11.6565121343
 10
-32.7499330085
 20
-11.5867379151
  0
LINE
  5
30E
100
AcDbEntity
  8
DRAFT
100
AcDbLine
 62
7
  6
CONTINUOUS
 10
-24.3562582123
 20
-14.4034910331
 11
-24.3756496583
 21
-13.6239854194
  0
LWPOLYLINE
  5
30F
100
AcDbEntity
  8
SUPERFICI
100
AcDbPolyline
 62
7
  6
CONTINUOUS
 90
3
 70
0
 10
-33.2953878367
 20
-13.0349037843
 10
-33.2175700442
 20
-12.89564291
 10
-33.1350919345
 20
-12.7766193663
  0
LWPOLYLINE
  5
310
100
AcDbEntity
  8
SUPERFICI
100
AcDbPolyline
 62
250
  6
CONTINUOUS
 90
10
 70
0
 10
29.8167867986
 20
-31.8422818044
 10
29.6242873237
 20
-31.7974472654
 10
29.4238905086
 20
-31.7609409744
 10
29.216687271
 20
-31.7330538927
 10
29.0027946611
 20
-31.7140606281
 10
28.7844132403
 20
-31.7043767912
 10
28.5659381385
 20
-31.7041038657
 10
28.3497217448
 20
-31.7130236161
 10
28.1359650601
 20
-31.731053413
 10
27.9258522617
 20
-31.7580839639
  0
LINE
  5
311
100
AcDbEntity
  8
0
100
AcDbLine
 62
7
  6
CONTINUOUS
 10
27.6846947777
 20
-34.1219391454
 11
28.1042930629
 21
-34.2407137131
  0
LINE
  5
312
100
AcDbEntity
  8
0
100
AcDbLine
 62
7
  6
CONTINUOUS
 10
27.2773909574
 20
-34.0040488488
 11
27.6846947777
 21
-34.1219391454
  0
LINE
  5
313
100
AcDbEntity
  8
0
100
AcDbLine
 62
7
  6
CONTINUOUS
 10
28.067587249
 20
-34.6063418754
 11
27.7494800967
 21
-34.5142015474
  0
LINE
  5
314
100
AcDbEntity
  8
0
100
AcDbLine
 62
7
  6
CONTINUOUS
 10
28.087467467
 20
-34.581429187
 11
27.7691895014
 21
-34.4892418412
  0
LINE
  5
315
100
AcDbEntity
  8
0
100
AcDbLine
 62
7
  6
CONTINUOUS
 10
27.7494800967
 20
-34.5142015474
 11
27.4329475912
 21
-34.420980669
  0
LINE
  5
316
100
AcDbEntity
  8
0
100
AcDbLine
 62
7
  6
CONTINUOUS
 10
27.7691895014
 20
-34.4892418412
 11
27.4528455065
 21
-34.3960458034
  0
LINE
  5
317
100
AcDbEntity
  8
0
100
AcDbLine
 62
7
  6
CONTINUOUS
 10
26.8823816022
 20
-33.8870428235
 11
27.2773909574
 21
-34.0040488488
  0
LINE
  5
318
100
AcDbEntity
  8
0
100
AcDbLine
 62
7
  6
CONTINUOUS
 10
25.1902443883
 20
-33.3701559921
 11
25.7072315315
 21
-33.5283650206
  0
LINE
  5
319
100
AcDbEntity
  8
0
100
AcDbLine
 62
7
  6
CONTINUOUS
 10
23.2347193035
 20
-32.7709261298
 11
24.0159357909
 21
-33.0104487574
  0
LINE
  5
31A
100
AcDbEntity
  8
0
100
AcDbLine
 62
7
  6
CONTINUOUS
 10
21.4886530309
 20
-32.2353171558
 11
22.2697880914
 21
-32.4749418227
  0
LINE
  5
31B
100
AcDbEntity
  8
0
100
AcDbLine
 62
7
  6
CONTINUOUS
 10
19.5941266437
 20
-31.6540156782
 11
20.1108316718
 21
-31.8125490535
  0
LINE
  5
31C
100
AcDbEntity
  8
0
100
AcDbLine
 62
7
  6
CONTINUOUS
 10
20.4552935856
 20
-31.9182370098
 11
20.9719834543
 21
-32.0767796545
  0
LINE
  5
31D
100
AcDbEntity
  8
0
100
AcDbLine
 62
7
  6
CONTINUOUS
 10
17.9351980164
 20
-31.1449603541
 11
18.4518812793
 21
-31.3035210043
  0
LINE
  5
31E
100
AcDbEntity
  8
SUPERFICI
100
AcDbLine
 62
7
  6
CONTINUOUS
 10
26.5422431806
 20
-33.6700296891
 11
20.9548302681
 21
-31.954338185
  0
LINE
  5
31F
100
AcDbEntity
  8
SUPERFICI
100
AcDbLine
 62
250
  6
CONTINUOUS
 10
20.9548302681
 20
-31.954338185
 11
-27.5662712155
 21
-17.0539779897
  0
LINE
  5
320
100
AcDbEntity
  8
SUPERFICI
100
AcDbLine
 62
250
  6
CONTINUOUS
 10
-3.6024432726
 20
-23.6240421415
 11
-33.4540400023
 21
-14.4590144545
  0
LINE
  5
321
100
AcDbEntity
  8
SUPERFICI
100
AcDbLine
 62
250
  6
CONTINUOUS
 10
-33.1350416867
 20
-12.7773723953
 11
26.5728006917
 21
-31.1130723427
  0
LINE
  5
322
100
AcDbEntity
  8
DRAFT
100
AcDbLine
 62
7
  6
CONTINUOUS
 10
-32.4628735568
 20
-11.9167140771
 11
-24.8753998594
 21
-14.2467537425
  0
LINE
  5
323
100
AcDbEntity
  8
DRAFT
100
AcDbLine
 62
7
  6
CONTINUOUS
 10
-20.4220519488
 20
-15.614333742
 11
-4.8353342617
 21
-20.4008637402
  0
LINE
  5
324
100
AcDbEntity
  8
DRAFT
100
AcDbLine
 62
7
  6
CONTINUOUS
 10
-0.3819863511
 20
-21.7684437397
 11
15.2047313359
 21
-26.554973738
  0
LINE
  5
325
100
AcDbEntity
  8
DRAFT
100
AcDbLine
 62
7
  6
CONTINUOUS
 10
19.6580792465
 20
-27.9225537375
 11
26.7435322116
 21
-30.0984276995
  0
LINE
  5
326
100
AcDbEntity
  8
0
100
AcDbLine
 62
7
  6
CONTINUOUS
 10
-32.4626986363
 20
-11.9140817138
 11
26.7434649138
 21
-30.0957209532
  0
LINE
  5
327
100
AcDbEntity
  8
DRAFT
100
AcDbLine
 62
7
  6
CONTINUOUS
 10
19.7139397466
 20
-27.8508352557
 11
15.9614110771
 21
-26.6984700556
  0
LINE
  5
328
100
AcDbEntity
  8
DRAFT
100
AcDbLine
 62
7
  6
CONTINUOUS
 10
-20.3661914487
 20
-15.5426152602
 11
-24.1187201182
 21
-14.3902500601
  0
LINE
  5
329
100
AcDbEntity
  8
DRAFT
100
AcDbLine
 62
7
  6
CONTINUOUS
 10
-32.3718502646
 20
-11.8002360217
 11
-24.7846188227
 21
-14.1302012928
  0
LINE
  5
32A
100
AcDbEntity
  8
DRAFT
100
AcDbLine
 62
7
  6
CONTINUOUS
 10
-20.3312709121
 20
-15.4977812923
 11
-4.744553225
 21
-20.2843112905
  0
LINE
  5
32B
100
AcDbEntity
  8
DRAFT
100
AcDbLine
 62
7
  6
CONTINUOUS
 10
-0.2912053144
 20
-21.65189129
 11
15.2955123727
 21
-26.4384212882
  0
LINE
  5
32C
100
AcDbEntity
  8
DRAFT
100
AcDbLine
 62
7
  6
CONTINUOUS
 10
19.7488602832
 20
-27.8060012877
 11
26.7399136115
 21
-29.9528860358
  0
LINE
  5
32D
100
AcDbEntity
  8
DRAFT
100
AcDbLine
 62
7
  6
CONTINUOUS
 10
19.8505246691
 20
-27.6801626418
 11
16.111687039
 21
-26.5320018273
  0
LINE
  5
32E
100
AcDbEntity
  8
DRAFT
100
AcDbLine
 62
7
  6
CONTINUOUS
 10
-20.2296065262
 20
-15.3719426463
 11
-23.9684441563
 21
-14.2237818318
  0
LINE
  5
32F
100
AcDbEntity
  8
DRAFT
100
AcDbLine
 62
7
  6
CONTINUOUS
 10
19.9422759911
 20
-27.5665942371
 11
16.2118710136
 21
-26.4210230085
  0
LINE
  5
330
100
AcDbEntity
  8
DRAFT
100
AcDbLine
 62
7
  6
CONTINUOUS
 10
-20.1378552043
 20
-15.2583742416
 11
-23.8682601817
 21
-14.112803013
  0
LINE
  5
331
100
AcDbEntity
  8
DRAFT
100
AcDbLine
 62
7
  6
CONTINUOUS
 10
20.079902974
 20
-27.3962416299
 11
16.3621469755
 21
-26.2545547802
  0
LINE
  5
332
100
AcDbEntity
  8
DRAFT
100
AcDbLine
 62
7
  6
CONTINUOUS
 10
-20.0002282213
 20
-15.0880216344
 11
-23.7179842198
 21
-13.9463347847
  0
LINE
  5
333
100
AcDbEntity
  8
SUPERFICI
100
AcDbLine
 62
250
  6
CONTINUOUS
 10
26.2477182823
 20
-32.7928460356
 11
-3.6024434538
 21
-23.6240419687
  0
LINE
  5
334
100
AcDbEntity
  8
SUPERFICI
100
AcDbLine
 62
7
  6
CONTINUOUS
 10
-27.5662712077
 20
-17.0539779987
 11
-33.1539294205
 21
-15.3347224854
  0
LINE
  5
335
100
AcDbEntity
  8
0
100
AcDbLine
 62
7
  6
CONTINUOUS
 10
28.1042930629
 20
-34.2407137131
 11
28.2110335528
 21
-34.2758319057
  0
LWPOLYLINE
  5
336
100
AcDbEntity
  8
SUPERFICI
100
AcDbPolyline
 62
7
  6
CONTINUOUS
 90
10
 70
0
 10
-33.1537765746
 20
-15.3377571803
 10
-33.3906853795
 20
-15.2547862286
 10
-33.6263451197
 20
-15.1585882316
 10
-33.8597106079
 20
-15.049714052
 10
-34.0902793022
 20
-14.9284131523
 10
-34.3164665966
 20
-14.7954718811
 10
-34.5357132433
 20
-14.6524832615
 10
-34.7466437912
 20
-14.5005802658
 10
-34.948957972
 20
-14.3401665922
 10
-35.1418738792
 20
-14.1720046871
  0
LINE
  5
337
100
AcDbEntity
  8
0
100
AcDbLine
 62
7
  6
CONTINUOUS
 10
28.1240433165
 20
-34.626302102
 11
28.0675871919
 21
-34.606343546
  0
LINE
  5
338
100
AcDbEntity
  8
0
100
AcDbLine
 62
7
  6
CONTINUOUS
 10
28.1439127326
 20
-34.6013872345
 11
28.0874674096
 21
-34.5814308579
  0
LINE
  5
339
100
AcDbEntity
  8
DRAFT
100
AcDbLine
 62
7
  6
CONTINUOUS
 10
-18.0851770432
 20
-15.5343709514
 11
-18.0211492557
 21
-15.5631390599
  0
LINE
  5
33A
100
AcDbEntity
  8
DRAFT
100
AcDbLine
 62
7
  6
CONTINUOUS
 10
-17.8813951216
 20
-15.2425895382
 11
-17.817367334
 21
-15.2713576466
  0
LINE
  5
33B
100
AcDbEntity
  8
DRAFT
100
AcDbLine
 62
7
  6
CONTINUOUS
 10
-17.6776132
 20
-14.9508081249
 11
-17.6135854124
 21
-14.9795762334
  0
LINE
  5
33C
100
AcDbEntity
  8
DRAFT
100
AcDbLine
 62
7
  6
CONTINUOUS
 10
-17.4738312783
 20
-14.6590267117
 11
-17.4098034908
 21
-14.6877948201
  0
LWPOLYLINE
  5
33D
100
AcDbEntity
  8
DRAFT
100
AcDbPolyline
 62
7
  6
CONTINUOUS
 90
13
 70
0
 10
-31.9634244815
 20
-11.2938532812
 10
-31.9982703661
 20
-11.2768681819
 10
-32.0319215811
 20
-11.2572704061
 10
-32.0643781267
 20
-11.235059954
 10
-32.0961169893
 20
-11.2098866541
 10
-32.1266611824
 20
-11.1821006778
 10
-32.1545797464
 20
-11.152752539
 10
-32.1796490885
 20
-11.1217107775
 10
-32.2020928016
 20
-11.0891068535
 10
-32.2211507042
 20
-11.0563856621
 10
-32.2365694025
 20
-11.024028835
 10
-32.2486022903
 20
-10.9915547404
 10
-32.2572493677
 20
-10.9589633784
  0
LWPOLYLINE
  5
33E
100
AcDbEntity
  8
DRAFT
100
AcDbPolyline
 62
7
  6
CONTINUOUS
 90
13
 70
0
 10
-32.4628735568
 20
-11.9167140771
 10
-32.4972590961
 20
-11.8999291725
 10
-32.5304701536
 20
-11.8805667264
 10
-32.5625067292
 20
-11.8586267389
 10
-32.5938405152
 20
-11.8337637012
 10
-32.6239998193
 20
-11.8063231221
 10
-32.6515695649
 20
-11.7773415274
 10
-32.6763277134
 20
-11.7466883723
 10
-32.6984963035
 20
-11.7144942017
 10
-32.717326375
 20
-11.6821871764
 10
-32.7325682745
 20
-11.6502433502
 10
-32.7444716553
 20
-11.6181866693
 10
-32.7530365175
 20
-11.5860171339
  0
LWPOLYLINE
  5
33F
100
AcDbEntity
  8
DRAFT
100
AcDbPolyline
 62
7
  6
CONTINUOUS
 90
12
 70
0
 10
-32.3718502646
 20
-11.8002360217
 10
-32.4051647448
 20
-11.7839485959
 10
-32.4381579642
 20
-11.7647111423
 10
-32.4704278948
 20
-11.7427133622
 10
-32.5016354349
 20
-11.7180875487
 10
-32.531245009
 20
-11.6911080108
 10
-32.558579924
 20
-11.6622458043
 10
-32.5832652125
 20
-11.6318106345
 10
-32.6050770211
 20
-11.6001937811
 10
-32.6236854667
 20
-11.5680612371
 10
-32.638935305
 20
-11.5359144892
 10
-32.6507690179
 20
-11.5040658232
  0
LWPOLYLINE
  5
340
100
AcDbEntity
  8
SUPERFICI
100
AcDbPolyline
 62
250
  6
CONTINUOUS
 90
10
 70
0
 10
-55.5396569914
 20
32.2116979666
 10
-55.359270071
 20
31.9962781727
 10
-55.1787887061
 20
31.7832847355
 10
-54.9977181324
 20
31.5721240987
 10
-54.8155817023
 20
31.3622235631
 10
-54.6318991498
 20
31.1530062422
 10
-54.4466387327
 20
30.9444161732
 10
-54.260227304
 20
30.7369288186
 10
-54.073137622
 20
30.5310715879
 10
-53.8858250598
 20
30.3273522184
  0
LINE
  5
341
100
AcDbEntity
  8
RACCORDO
100
AcDbLine
 62
250
  6
CONTINUOUS
 10
-17.1828820634
 20
-15.1485884167
 11
-17.2046434448
 21
-14.2738151288
  0
LINE
  5
342
100
AcDbEntity
  8
RACCORDO
100
AcDbLine
 62
7
  6
CONTINUOUS
 10
-17.1655883457
 20
-15.0949446283
 11
-17.1869059568
 21
-14.2380102045
  0
LINE
  5
343
100
AcDbEntity
  8
RACCORDO
100
AcDbLine
 62
250
  6
CONTINUOUS
 10
-17.1657684058
 20
-15.1026420858
 11
-17.1655883457
 21
-15.0949446283
  0
LWPOLYLINE
  5
344
100
AcDbEntity
  8
RACCORDO
100
AcDbPolyline
 62
250
  6
CONTINUOUS
 90
3
 70
0
 10
-17.1828820634
 20
-15.1485884167
 10
-17.1840033488
 20
-15.1685045402
 10
-17.188231748
 20
-15.1872466817
  0
LINE
  5
345
100
AcDbEntity
  8
DRAFT
100
AcDbLine
 62
7
  6
CONTINUOUS
 10
-24.0406889262
 20
-14.4233184784
 11
-23.9684441563
 21
-14.2237818318
  0
LINE
  5
346
100
AcDbEntity
  8
DRAFT
100
AcDbLine
 62
7
  6
CONTINUOUS
 10
-23.7902289897
 20
-14.1458714313
 11
-23.7179842198
 21
-13.9463347847
  0
LINE
  5
347
100
AcDbEntity
  8
DRAFT
100
AcDbLine
 62
7
  6
CONTINUOUS
 10
-23.5397690532
 20
-13.8684243842
 11
-23.4675242833
 21
-13.6688877377
  0
LINE
  5
348
100
AcDbEntity
  8
DRAFT
100
AcDbLine
 62
7
  6
CONTINUOUS
 10
-23.2893091167
 20
-13.5909773371
 11
-23.2170643468
 21
-13.3914406906
  0
LINE
  5
349
100
AcDbEntity
  8
DRAFT
100
AcDbLine
 62
7
  6
CONTINUOUS
 10
-23.0388491802
 20
-13.31353029
 11
-22.9666044103
 21
-13.1139936435
  0
LINE
  5
34A
100
AcDbEntity
  8
DRAFT
100
AcDbLine
 62
7
  6
CONTINUOUS
 10
-22.7883892436
 20
-13.0360832429
 11
-22.7161444738
 21
-12.8365465964
  0
LINE
  5
34B
100
AcDbEntity
  8
0
100
AcDbLine
 62
7
  6
CONTINUOUS
 10
-33.1350416867
 20
-12.7773723953
 11
-32.4626986363
 21
-11.9140817138
  0
LINE
  5
34C
100
AcDbEntity
  8
DRAFT
100
AcDbLine
 62
7
  6
CONTINUOUS
 10
-32.4628735568
 20
-11.9167140771
 11
-32.3718502646
 21
-11.8002360217
  0
LINE
  5
34D
100
AcDbEntity
  8
DRAFT
100
AcDbLine
 62
7
  6
CONTINUOUS
 10
-32.6590846368
 20
-11.472892223
 11
-32.2572493677
 21
-10.9589633784
  0
LINE
  5
34E
100
AcDbEntity
  8
DRAFT
100
AcDbLine
 62
7
  6
CONTINUOUS
 10
-32.3718502646
 20
-11.8002360217
 11
-31.9634244815
 21
-11.2938532812
  0
LINE
  5
34F
100
AcDbEntity
  8
DRAFT
100
AcDbLine
 62
7
  6
CONTINUOUS
 10
-32.7530365175
 20
-11.5860171339
 11
-32.6590846368
 21
-11.472892223
  0
LINE
  5
350
100
AcDbEntity
  8
0
100
AcDbLine
 62
7
  6
CONTINUOUS
 10
-33.4463255007
 20
-12.4170700017
 11
-32.7499330085
 21
-11.5867379151
  0
LWPOLYLINE
  5
351
100
AcDbEntity
  8
SUPERFICI
100
AcDbPolyline
 62
250
  6
CONTINUOUS
 90
11
 70
0
 10
-34.0990089249
 20
4.6295605562
 10
-34.2453727581
 20
4.5612612899
 10
-34.4107617074
 20
4.5100621052
 10
-34.5895476582
 20
4.4782111822
 10
-34.7729529849
 20
4.4672095688
 10
-34.9547193441
 20
4.4770167787
 10
-35.1295029785
 20
4.5072042631
 10
-35.2899805825
 20
4.5563138997
 10
-35.4311718279
 20
4.622310772
 10
-35.5501064041
 20
4.7034570761
 10
-35.6438787314
 20
4.797745145
  0
LWPOLYLINE
  5
352
100
AcDbEntity
  8
SUPERFICI
100
AcDbPolyline
 62
250
  6
CONTINUOUS
 90
10
 70
0
 10
27.499055893
 20
-14.5932743305
 10
27.7086542664
 20
-14.5731214942
 10
27.9221560053
 20
-14.5622101044
 10
28.1383897075
 20
-14.5606844256
 10
28.3573142818
 20
-14.5687559001
 10
28.5764128842
 20
-14.5865970361
 10
28.7908175367
 20
-14.613817624
 10
28.9981836475
 20
-14.6498614856
 10
29.1985622108
 20
-14.6945299967
 10
29.3908825863
 20
-14.7475081526
  0
LWPOLYLINE
  5
353
100
AcDbEntity
  8
SUPERFICI
100
AcDbPolyline
 62
250
  6
CONTINUOUS
 90
11
 70
0
 10
27.4989313755
 20
-14.592800114
 10
27.3184407067
 20
-14.6037238662
 10
27.139921786
 20
-14.5936583182
 10
26.9678729315
 20
-14.562929341
 10
26.8061482025
 20
-14.5119447351
 10
26.660887874
 20
-14.4421228108
 10
26.5391450793
 20
-14.3569309233
 10
26.4445508142
 20
-14.2595365831
 10
26.3797093785
 20
-14.1528907693
 10
26.3470942319
 20
-14.0415826151
 10
26.3431557664
 20
-13.995113681
  0
LINE
  5
354
100
AcDbEntity
  8
RACCORDO
100
AcDbLine
 62
7
  6
CONTINUOUS
 10
17.6304365818
 20
-24.92428203
 11
17.6492300662
 21
-24.9289850369
  0
LINE
  5
355
100
AcDbEntity
  8
RACCORDO
100
AcDbLine
 62
7
  6
CONTINUOUS
 10
-22.4496946135
 20
-12.6160620345
 11
-22.4309011291
 21
-12.6207650414
  0
LINE
  5
356
100
AcDbEntity
  8
RACCORDO
100
AcDbLine
 62
7
  6
CONTINUOUS
 10
-2.4047949906
 20
-18.9640026715
 11
-2.3860042337
 21
-18.9687072492
  0
LINE
  5
357
100
AcDbEntity
  8
DRAFT
100
AcDbLine
 62
7
  6
CONTINUOUS
 10
-31.9634244815
 20
-11.2938532812
 11
-24.3756496583
 21
-13.6239854194
  0
LINE
  5
358
100
AcDbEntity
  8
DRAFT
100
AcDbLine
 62
7
  6
CONTINUOUS
 10
-19.9223017477
 20
-14.9915654189
 11
-4.3355840606
 21
-19.7780954171
  0
LINE
  5
359
100
AcDbEntity
  8
DRAFT
100
AcDbLine
 62
7
  6
CONTINUOUS
 10
0.1177638499
 20
-21.1456754166
 11
15.704481537
 21
-25.9322054149
  0
LINE
  5
35A
100
AcDbEntity
  8
DRAFT
100
AcDbLine
 62
7
  6
CONTINUOUS
 10
20.1578294476
 20
-27.2997854144
 11
26.7240841595
 21
-29.3162186228
  0
LINE
  5
35B
100
AcDbEntity
  8
DRAFT
100
AcDbLine
 62
7
  6
CONTINUOUS
 10
21.9949541521
 20
-27.8425909469
 11
16.4623309501
 21
-26.1435759614
  0
LINE
  5
35C
100
AcDbEntity
  8
DRAFT
100
AcDbLine
 62
7
  6
CONTINUOUS
 10
-18.0851770432
 20
-15.5343709514
 11
-23.6178002452
 21
-13.8353559659
  0
LINE
  5
35D
100
AcDbEntity
  8
DRAFT
100
AcDbLine
 62
7
  6
CONTINUOUS
 10
22.117223305
 20
-27.667522099
 11
16.612606912
 21
-25.9771077331
  0
LINE
  5
35E
100
AcDbEntity
  8
DRAFT
100
AcDbLine
 62
7
  6
CONTINUOUS
 10
-17.9629078903
 20
-15.3593021035
 11
-23.4675242833
 21
-13.6688877377
  0
LINE
  5
35F
100
AcDbEntity
  8
DRAFT
100
AcDbLine
 62
7
  6
CONTINUOUS
 10
22.1987360737
 20
-27.5508095337
 11
16.7127908866
 21
-25.8661289143
  0
LINE
  5
360
100
AcDbEntity
  8
DRAFT
100
AcDbLine
 62
7
  6
CONTINUOUS
 10
-17.8813951216
 20
-15.2425895382
 11
-23.3673403087
 21
-13.5579089188
  0
LINE
  5
361
100
AcDbEntity
  8
DRAFT
100
AcDbLine
 62
7
  6
CONTINUOUS
 10
22.3210052267
 20
-27.3757406857
 11
16.8630668485
 21
-25.699660686
  0
LINE
  5
362
100
AcDbEntity
  8
DRAFT
100
AcDbLine
 62
7
  6
CONTINUOUS
 10
-17.7591259686
 20
-15.0675206902
 11
-23.2170643468
 21
-13.3914406906
  0
LINE
  5
363
100
AcDbEntity
  8
DRAFT
100
AcDbLine
 62
7
  6
CONTINUOUS
 10
22.4025179953
 20
-27.2590281204
 11
16.9632508231
 21
-25.5886818672
  0
LINE
  5
364
100
AcDbEntity
  8
DRAFT
100
AcDbLine
 62
7
  6
CONTINUOUS
 10
-17.6776132
 20
-14.9508081249
 11
-23.1168803722
 21
-13.2804618717
  0
LINE
  5
365
100
AcDbEntity
  8
DRAFT
100
AcDbLine
 62
7
  6
CONTINUOUS
 10
22.5247871483
 20
-27.0839592725
 11
17.113526785
 21
-25.422213639
  0
LINE
  5
366
100
AcDbEntity
  8
DRAFT
100
AcDbLine
 62
7
  6
CONTINUOUS
 10
-17.555344047
 20
-14.775739277
 11
-22.9666044103
 21
-13.1139936435
  0
LINE
  5
367
100
AcDbEntity
  8
DRAFT
100
AcDbLine
 62
7
  6
CONTINUOUS
 10
22.606299917
 20
-26.9672467072
 11
17.2137107596
 21
-25.3112348201
  0
LINE
  5
368
100
AcDbEntity
  8
DRAFT
100
AcDbLine
 62
7
  6
CONTINUOUS
 10
-17.4738312783
 20
-14.6590267117
 11
-22.8664204357
 21
-13.0030148246
  0
LINE
  5
369
100
AcDbEntity
  8
DRAFT
100
AcDbLine
 62
7
  6
CONTINUOUS
 10
22.72856907
 20
-26.7921778592
 11
17.3639867216
 21
-25.1447665919
  0
LINE
  5
36A
100
AcDbEntity
  8
DRAFT
100
AcDbLine
 62
7
  6
CONTINUOUS
 10
-17.3515621253
 20
-14.4839578637
 11
-22.7161444738
 21
-12.8365465964
  0
LINE
  5
36B
100
AcDbEntity
  8
RACCORDO
100
AcDbLine
 62
250
  6
CONTINUOUS
 10
-2.4959349021
 20
-18.9902812152
 11
2.8359728359
 21
-20.6276584262
  0
LINE
  5
36C
100
AcDbEntity
  8
RACCORDO
100
AcDbLine
 62
7
  6
CONTINUOUS
 10
-2.3860091151
 20
-18.9687057501
 11
2.8511863195
 21
-20.5769977304
  0
LINE
  5
36D
100
AcDbEntity
  8
RACCORDO
100
AcDbLine
 62
250
  6
CONTINUOUS
 10
-22.5408225182
 20
-12.6423336634
 11
-17.2089147802
 21
-14.2797108745
  0
LINE
  5
36E
100
AcDbEntity
  8
RACCORDO
100
AcDbLine
 62
250
  6
CONTINUOUS
 10
17.5393086771
 20
-24.9505536589
 11
22.8712164151
 21
-26.5879308699
  0
LINE
  5
36F
100
AcDbEntity
  8
RACCORDO
100
AcDbLine
 62
7
  6
CONTINUOUS
 10
-22.4308967312
 20
-12.6207581984
 11
-17.1937012966
 21
-14.2290501786
  0
LINE
  5
370
100
AcDbEntity
  8
RACCORDO
100
AcDbLine
 62
7
  6
CONTINUOUS
 10
17.6492344641
 20
-24.9289781938
 11
22.8864298988
 21
-26.5372701741
  0
LWPOLYLINE
  5
371
100
AcDbEntity
  8
0
100
AcDbPolyline
 62
7
  6
CONTINUOUS
 90
3
 70
0
 10
28.2110335528
 20
-34.2758319057
 10
28.3209117641
 20
-34.3235118633
 10
28.43162382
 20
-34.3840881585
  0
LINE
  5
372
100
AcDbEntity
  8
DRAFT
100
AcDbLine
 62
7
  6
CONTINUOUS
 10
21.9949541521
 20
-27.8425909469
 11
22.0589819396
 21
-27.8713590554
  0
LINE
  5
373
100
AcDbEntity
  8
DRAFT
100
AcDbLine
 62
7
  6
CONTINUOUS
 10
22.1987360737
 20
-27.5508095337
 11
22.2627638613
 21
-27.5795776421
  0
LINE
  5
374
100
AcDbEntity
  8
DRAFT
100
AcDbLine
 62
7
  6
CONTINUOUS
 10
22.4025179953
 20
-27.2590281204
 11
22.4665457829
 21
-27.2877962289
  0
LINE
  5
375
100
AcDbEntity
  8
DRAFT
100
AcDbLine
 62
7
  6
CONTINUOUS
 10
22.606299917
 20
-26.9672467072
 11
22.6703277045
 21
-26.9960148156
  0
LINE
  5
376
100
AcDbEntity
  8
SUPERFICI
100
AcDbLine
 62
250
  6
CONTINUOUS
 10
43.9861918022
 20
-47.3300229143
 11
43.4656906389
 21
-47.0087037368
  0
LINE
  5
377
100
AcDbEntity
  8
SUPERFICI
100
AcDbLine
 62
250
  6
CONTINUOUS
 10
43.4656906389
 20
-47.0087037368
 11
42.9519184094
 21
-46.685815575
  0
LINE
  5
378
100
AcDbEntity
  8
SUPERFICI
100
AcDbLine
 62
250
  6
CONTINUOUS
 10
42.9519184094
 20
-46.685815575
 11
42.4415910447
 21
-46.3592583398
  0
LWPOLYLINE
  5
379
100
AcDbEntity
  8
SUPERFICI
100
AcDbPolyline
 62
250
  6
CONTINUOUS
 90
3
 70
0
 10
42.4415910447
 20
-46.3592583398
 10
41.9323100804
 20
-46.0275258514
 10
41.6769655375
 20
-45.8590309262
  0
LINE
  5
37A
100
AcDbEntity
  8
SUPERFICI
100
AcDbLine
 62
250
  6
CONTINUOUS
 10
35.921975685
 20
-44.8574871009
 11
35.4845349377
 21
-44.5693808081
  0
LINE
  5
37B
100
AcDbEntity
  8
SUPERFICI
100
AcDbLine
 62
250
  6
CONTINUOUS
 10
35.4845349377
 20
-44.5693808081
 11
35.0504824154
 21
-44.280643309
  0
LINE
  5
37C
100
AcDbEntity
  8
SUPERFICI
100
AcDbLine
 62
250
  6
CONTINUOUS
 10
35.0504824154
 20
-44.280643309
 11
34.6182029358
 21
-43.9901922588
  0
LINE
  5
37D
100
AcDbEntity
  8
SUPERFICI
100
AcDbLine
 62
250
  6
CONTINUOUS
 10
34.6182029358
 20
-43.9901922588
 11
34.1860352801
 21
-43.6969137268
  0
LINE
  5
37E
100
AcDbEntity
  8
SUPERFICI
100
AcDbLine
 62
250
  6
CONTINUOUS
 10
34.1860352801
 20
-43.6969137268
 11
33.6307682693
 21
-43.3158629713
  0
LINE
  5
37F
100
AcDbEntity
  8
SUPERFICI
100
AcDbLine
 62
250
  6
CONTINUOUS
 10
33.6307682693
 20
-43.3158629713
 11
32.9587474337
 21
-42.8481842273
  0
LINE
  5
380
100
AcDbEntity
  8
SUPERFICI
100
AcDbLine
 62
250
  6
CONTINUOUS
 10
32.9587474337
 20
-42.8481842273
 11
32.2927847588
 21
-42.3774207298
  0
LINE
  5
381
100
AcDbEntity
  8
SUPERFICI
100
AcDbLine
 62
250
  6
CONTINUOUS
 10
32.2927847588
 20
-42.3774207298
 11
31.6350034586
 21
-41.9050591188
  0
LINE
  5
382
100
AcDbEntity
  8
SUPERFICI
100
AcDbLine
 62
250
  6
CONTINUOUS
 10
31.6350034586
 20
-41.9050591188
 11
30.9853371605
 21
-41.4311231027
  0
LINE
  5
383
100
AcDbEntity
  8
SUPERFICI
100
AcDbLine
 62
250
  6
CONTINUOUS
 10
19.3613759537
 20
-39.5357202457
 11
17.7200789987
 21
-38.0833137151
  0
LINE
  5
384
100
AcDbEntity
  8
SUPERFICI
100
AcDbLine
 62
250
  6
CONTINUOUS
 10
19.7608715726
 20
-39.8915043707
 11
19.3613759537
 21
-39.5357202457
  0
LWPOLYLINE
  5
385
100
AcDbEntity
  8
SUPERFICI
100
AcDbPolyline
 62
250
  6
CONTINUOUS
 90
6
 70
0
 10
17.7200789987
 20
-38.0833137151
 10
17.5149334629
 20
-37.8996595477
 10
17.3121835482
 20
-37.716362799
 10
17.1120751217
 20
-37.5333337058
 10
16.913180595
 20
-37.3490050228
 10
16.7150068264
 20
-37.1626891416
  0
LWPOLYLINE
  5
386
100
AcDbEntity
  8
SUPERFICI
100
AcDbPolyline
 62
250
  6
CONTINUOUS
 90
10
 70
0
 10
16.7150185843
 20
-37.1626684971
 10
16.3274432443
 20
-36.7899854661
 10
15.9494679079
 20
-36.4139137189
 10
15.5811533675
 20
-36.0343824606
 10
15.224261498
 20
-35.6530112806
 10
14.8771371117
 20
-35.2680699477
 10
14.5347927562
 20
-34.8743365048
 10
14.1956962459
 20
-34.4698819321
 10
13.8616858509
 20
-34.0562124034
 10
13.5329113563
 20
-33.6331302009
  0
LWPOLYLINE
  5
387
100
AcDbEntity
  8
SUPERFICI
100
AcDbPolyline
 62
250
  6
CONTINUOUS
 90
10
 70
0
 10
-53.8858250598
 20
30.3273522184
 10
-53.5948696645
 20
30.0152631382
 10
-53.3045421463
 20
29.7088572476
 10
-53.0134247304
 20
29.4066207883
 10
-52.7192730314
 20
29.1062013339
 10
-52.4214227845
 20
28.8068721129
 10
-52.1208944037
 20
28.5095071244
 10
-51.8172056202
 20
28.2133843099
 10
-51.5082658428
 20
27.9162092589
 10
-51.1928555917
 20
27.6165614095
  0
LWPOLYLINE
  5
388
100
AcDbEntity
  8
SUPERFICI
100
AcDbPolyline
 62
250
  6
CONTINUOUS
 90
10
 70
0
 10
-3.602945768
 20
-23.6253641298
 10
-3.5515791705
 20
-23.6813039146
 10
-3.5041073257
 20
-23.7488456772
 10
-3.460801524
 20
-23.8277515428
 10
-3.4217575268
 20
-23.9182438861
 10
-3.387500559
 20
-24.019658982
 10
-3.3587261645
 20
-24.1299477459
 10
-3.3355989538
 20
-24.2477514954
 10
-3.3180121197
 20
-24.3729001065
 10
-3.3060102968
 20
-24.5047154899
  0
LWPOLYLINE
  5
389
100
AcDbEntity
  8
SUPERFICI
100
AcDbPolyline
 62
250
  6
CONTINUOUS
 90
3
 70
0
 10
-55.6542146731
 20
42.2527184006
 10
-55.4077077322
 20
41.9580849961
 10
-54.9080433216
 20
41.3673307722
  0
LWPOLYLINE
  5
38A
100
AcDbEntity
  8
SUPERFICI
100
AcDbPolyline
 62
250
  6
CONTINUOUS
 90
3
 70
0
 10
-54.8892246394
 20
42.860091653
 10
-54.6567999316
 20
42.5766523978
 10
-54.1926134882
 20
42.0170265815
  0
LWPOLYLINE
  5
38B
100
AcDbEntity
  8
SUPERFICI
100
AcDbPolyline
 62
250
  6
CONTINUOUS
 90
10
 70
0
 10
-55.718812481
 20
41.1075148219
 10
-55.4880191349
 20
40.8218816624
 10
-55.2568137396
 20
40.5384280128
 10
-55.024747798
 20
40.2565804982
 10
-54.7912755229
 20
39.9756491971
 10
-54.5560771637
 20
39.6952174458
 10
-54.3196656511
 20
39.4158654829
 10
-54.0829229631
 20
39.1386165499
 10
-53.8465479533
 20
38.8642791828
 10
-53.6113317232
 20
38.5937715072
  0
LWPOLYLINE
  5
38C
100
AcDbEntity
  8
SUPERFICI
100
AcDbPolyline
 62
250
  6
CONTINUOUS
 90
13
 70
0
 10
-3.6024434538
 20
-23.6240419687
 10
-3.6495934116
 20
-23.5579183303
 10
-3.6827291057
 20
-23.463958797
 10
-3.701252282
 20
-23.3449885843
 10
-3.7047757709
 20
-23.2039149525
 10
-3.6930933297
 20
-23.0453118043
 10
-3.6667736289
 20
-22.8758910085
 10
-3.6267894509
 20
-22.7010882206
 10
-3.5743400416
 20
-22.5263142793
 10
-3.5115684316
 20
-22.3587209012
 10
-3.4406212849
 20
-22.2037013315
 10
-3.3631816737
 20
-22.0649133536
 10
-3.281115383
 20
-21.9460366641
  0
LWPOLYLINE
  5
38D
100
AcDbEntity
  8
RACCORDO
100
AcDbPolyline
 62
7
  6
CONTINUOUS
 90
4
 70
0
 10
-17.1869111154
 20
-14.2378036405
 10
-17.1872138554
 20
-14.2353592759
 10
-17.1895009803
 20
-14.2314165387
 10
-17.1936998503
 20
-14.2290588163
  0
LINE
  5
38E
100
AcDbEntity
  8
RACCORDO
100
AcDbLine
 62
250
  6
CONTINUOUS
 10
-17.1684719802
 20
-15.1184277589
 11
-17.1657684058
 21
-15.1026420858
  0
LINE
  5
38F
100
AcDbEntity
  8
DRAFT
100
AcDbLine
 62
7
  6
CONTINUOUS
 10
-18.0211492557
 20
-15.5631390599
 11
-17.9629078903
 21
-15.3593021035
  0
LINE
  5
390
100
AcDbEntity
  8
DRAFT
100
AcDbLine
 62
7
  6
CONTINUOUS
 10
-17.817367334
 20
-15.2713576466
 11
-17.7591259686
 21
-15.0675206902
  0
LINE
  5
391
100
AcDbEntity
  8
DRAFT
100
AcDbLine
 62
7
  6
CONTINUOUS
 10
-17.6135854124
 20
-14.9795762334
 11
-17.555344047
 21
-14.775739277
  0
LINE
  5
392
100
AcDbEntity
  8
DRAFT
100
AcDbLine
 62
7
  6
CONTINUOUS
 10
-17.4098034908
 20
-14.6877948201
 11
-17.3515621253
 21
-14.4839578637
  0
LWPOLYLINE
  5
393
100
AcDbEntity
  8
RACCORDO
100
AcDbPolyline
 62
250
  6
CONTINUOUS
 90
3
 70
0
 10
-17.188231748
 20
-15.1872466817
 10
-17.1954948838
 20
-15.2044940337
 10
-17.2019911348
 20
-15.2150539272
  0
LINE
  5
394
100
AcDbEntity
  8
DRAFT
100
AcDbLine
 62
7
  6
CONTINUOUS
 10
-24.8753998594
 20
-14.2467537425
 11
-24.7846188227
 21
-14.1302012928
  0
LINE
  5
395
100
AcDbEntity
  8
DRAFT
100
AcDbLine
 62
7
  6
CONTINUOUS
 10
-24.7846188227
 20
-14.1302012928
 11
-24.3756496583
 21
-13.6239854194
  0
LINE
  5
396
100
AcDbEntity
  8
SUPERFICI
100
AcDbLine
 62
7
  6
CONTINUOUS
 10
-33.446698213
 20
-12.4165807859
 11
-33.545651422
 21
-12.5124940818
  0
LWPOLYLINE
  5
397
100
AcDbEntity
  8
SUPERFICI
100
AcDbPolyline
 62
250
  6
CONTINUOUS
 90
3
 70
0
 10
-34.1746625842
 20
-20.603556777
 10
-34.6481041404
 20
-20.7340859528
 10
-35.1314133738
 20
-20.857801831
  0
LINE
  5
398
100
AcDbEntity
  8
SUPERFICI
100
AcDbLine
 62
250
  6
CONTINUOUS
 10
-35.1314133738
 20
-20.857801831
 11
-35.6252090527
 21
-20.9756696808
  0
LWPOLYLINE
  5
399
100
AcDbEntity
  8
SUPERFICI
100
AcDbPolyline
 62
250
  6
CONTINUOUS
 90
10
 70
0
 10
44.3564386884
 20
-1.7257011864
 10
43.6450417306
 20
-1.8917858109
 10
42.9448353584
 20
-2.044274389
 10
42.2492626485
 20
-2.1841379869
 10
41.5502335849
 20
-2.3126468523
 10
40.8438587676
 20
-2.4302965662
 10
40.1309372327
 20
-2.5370635225
 10
39.4093270377
 20
-2.6336866246
 10
38.6734126569
 20
-2.721415928
 10
37.9201674834
 20
-2.8011191729
  0
LWPOLYLINE
  5
39A
100
AcDbEntity
  8
SUPERFICI
100
AcDbPolyline
 62
250
  6
CONTINUOUS
 90
7
 70
0
 10
-35.6252090527
 20
-20.9756696808
 10
-35.8833237589
 20
-21.0342620169
 10
-36.1429948382
 20
-21.0912686764
 10
-36.4040626005
 20
-21.1467688808
 10
-36.6665413534
 20
-21.2008828042
 10
-36.9300778622
 20
-21.2536596401
 10
-37.1939561227
 20
-21.305088793
  0
LWPOLYLINE
  5
39B
100
AcDbEntity
  8
SUPERFICI
100
AcDbPolyline
 62
250
  6
CONTINUOUS
 90
10
 70
0
 10
-42.760277867
 20
-18.5416609435
 10
-43.0887271591
 20
-18.6044449629
 10
-43.4175665125
 20
-18.6654444684
 10
-43.746288872
 20
-18.7244681988
 10
-44.0741454213
 20
-18.7812860269
 10
-44.4008992901
 20
-18.835760513
 10
-44.7268231191
 20
-18.8878294976
 10
-45.0516884318
 20
-18.9373360274
 10
-45.3747679864
 20
-18.9840457278
 10
-45.6955879
 20
-19.0277662271
  0
LINE
  5
39C
100
AcDbEntity
  8
SUPERFICI
100
AcDbLine
 62
250
  6
CONTINUOUS
 10
-37.1939561227
 20
-21.305088793
 11
-37.7216633418
 21
-21.4042656185
  0
LINE
  5
39D
100
AcDbEntity
  8
SUPERFICI
100
AcDbLine
 62
250
  6
CONTINUOUS
 10
-37.7216633418
 20
-21.4042656185
 11
-38.1525709817
 21
-21.4822745538
  0
LINE
  5
39E
100
AcDbEntity
  8
SUPERFICI
100
AcDbLine
 62
250
  6
CONTINUOUS
 10
-38.1525709817
 20
-21.4822745538
 11
-38.6487936863
 21
-21.5692116794
  0
LWPOLYLINE
  5
39F
100
AcDbEntity
  8
SUPERFICI
100
AcDbPolyline
 62
250
  6
CONTINUOUS
 90
4
 70
0
 10
-38.6487936863
 20
-21.5692116794
 10
-39.1397049925
 20
-21.6520727686
 10
-39.3028641324
 20
-21.6789111409
 10
-39.4660373484
 20
-21.7054031898
  0
LWPOLYLINE
  5
3A0
100
AcDbEntity
  8
SUPERFICI
100
AcDbPolyline
 62
250
  6
CONTINUOUS
 90
10
 70
0
 10
-45.6955879
 20
-19.0277662271
 10
-45.9026306921
 20
-19.0545262862
 10
-46.1082959385
 20
-19.0799815537
 10
-46.312910145
 20
-19.1041676966
 10
-46.5168768935
 20
-19.1271289716
 10
-46.7204620394
 20
-19.1488938456
 10
-46.9237964432
 20
-19.1694793327
 10
-47.1271590013
 20
-19.1889212035
 10
-47.3309739695
 20
-19.2072696552
 10
-47.535598021
 20
-19.2245679618
  0
LWPOLYLINE
  5
3A1
100
AcDbEntity
  8
SUPERFICI
100
AcDbPolyline
 62
7
  6
CONTINUOUS
 90
8
 70
0
 10
-34.155933574
 20
-12.7325076844
 10
-34.3383702281
 20
-12.7382230611
 10
-34.5205609219
 20
-12.7226525555
 10
-34.6966411018
 20
-12.6859626815
 10
-34.8587019812
 20
-12.6301781376
 10
-35.0014741005
 20
-12.557542676
 10
-35.1219382339
 20
-12.4694828811
 10
-35.216975981
 20
-12.3679690674
  0
LWPOLYLINE
  5
3A2
100
AcDbEntity
  8
SUPERFICI
100
AcDbPolyline
 62
250
  6
CONTINUOUS
 90
6
 70
0
 10
-36.6951234248
 20
-6.1733134082
 10
-37.6087426983
 20
-6.06633928
 10
-38.5343983764
 20
-5.9651479237
 10
-39.4658417156
 20
-5.8702127055
 10
-40.3941274577
 20
-5.7822417014
 10
-41.3148863626
 20
-5.7014810248
  0
LINE
  5
3A3
100
AcDbEntity
  8
SUPERFICI
100
AcDbLine
 62
250
  6
CONTINUOUS
 10
49.2432941346
 20
-19.0185899356
 11
50.0369769556
 21
-19.1226326428
  0
LINE
  5
3A4
100
AcDbEntity
  8
SUPERFICI
100
AcDbLine
 62
250
  6
CONTINUOUS
 10
48.6526682788
 20
-18.9380820295
 11
49.2432941346
 21
-19.0185899356
  0
LINE
  5
3A5
100
AcDbEntity
  8
SUPERFICI
100
AcDbLine
 62
250
  6
CONTINUOUS
 10
47.9473626493
 20
-18.8384936386
 11
48.6526682788
 21
-18.9380820295
  0
LINE
  5
3A6
100
AcDbEntity
  8
SUPERFICI
100
AcDbLine
 62
250
  6
CONTINUOUS
 10
47.3450475819
 20
-18.7506584253
 11
47.9473626493
 21
-18.8384936386
  0
LINE
  5
3A7
100
AcDbEntity
  8
SUPERFICI
100
AcDbLine
 62
250
  6
CONTINUOUS
 10
46.7424222203
 20
-18.6597392418
 11
47.3450475819
 21
-18.7506584253
  0
LINE
  5
3A8
100
AcDbEntity
  8
SUPERFICI
100
AcDbLine
 62
250
  6
CONTINUOUS
 10
46.1392142255
 20
-18.5655860307
 11
46.7424222203
 21
-18.6597392418
  0
LINE
  5
3A9
100
AcDbEntity
  8
SUPERFICI
100
AcDbLine
 62
250
  6
CONTINUOUS
 10
-50.9786322586
 20
11.0701090708
 11
-51.791786113
 21
11.4631470604
  0
LINE
  5
3AA
100
AcDbEntity
  8
SUPERFICI
100
AcDbLine
 62
250
  6
CONTINUOUS
 10
29.6851338323
 20
-26.5580473228
 11
30.6503439674
 21
-27.0280435039
  0
LINE
  5
3AB
100
AcDbEntity
  8
SUPERFICI
100
AcDbLine
 62
250
  6
CONTINUOUS
 10
-51.791786113
 20
11.4631470604
 11
-52.2825902187
 21
11.7039317016
  0
LWPOLYLINE
  5
3AC
100
AcDbEntity
  8
SUPERFICI
100
AcDbPolyline
 62
250
  6
CONTINUOUS
 90
7
 70
0
 10
30.6503439674
 20
-27.0280435039
 10
31.6383049831
 20
-27.5145052952
 10
32.6420768747
 20
-28.0138559261
 10
33.6517586031
 20
-28.5210159573
 10
34.6623873893
 20
-29.0333657294
 10
35.6736225662
 20
-29.5507149191
 10
36.6789366146
 20
-30.0698211393
  0
LINE
  5
3AD
100
AcDbEntity
  8
SUPERFICI
100
AcDbLine
 62
250
  6
CONTINUOUS
 10
-52.2825902187
 20
11.7039317016
 11
-52.7678510095
 21
11.9457481028
  0
LINE
  5
3AE
100
AcDbEntity
  8
SUPERFICI
100
AcDbLine
 62
250
  6
CONTINUOUS
 10
-52.7678510095
 20
11.9457481028
 11
-53.2452088849
 21
12.1875273206
  0
LINE
  5
3AF
100
AcDbEntity
  8
SUPERFICI
100
AcDbLine
 62
250
  6
CONTINUOUS
 10
-53.2452088849
 20
12.1875273206
 11
-53.7300815411
 21
12.4367135853
  0
LINE
  5
3B0
100
AcDbEntity
  8
SUPERFICI
100
AcDbLine
 62
250
  6
CONTINUOUS
 10
-53.7300815411
 20
12.4367135853
 11
-54.1927700127
 21
12.6776542854
  0
LINE
  5
3B1
100
AcDbEntity
  8
SUPERFICI
100
AcDbLine
 62
250
  6
CONTINUOUS
 10
-54.1927700127
 20
12.6776542854
 11
-54.6521771655
 21
12.9203092303
  0
LINE
  5
3B2
100
AcDbEntity
  8
SUPERFICI
100
AcDbLine
 62
250
  6
CONTINUOUS
 10
-54.6521771655
 20
12.9203092303
 11
-55.1109262342
 21
13.1659758337
  0
LWPOLYLINE
  5
3B3
100
AcDbEntity
  8
SUPERFICI
100
AcDbPolyline
 62
7
  6
CONTINUOUS
 90
6
 70
0
 10
27.0919003542
 20
-31.643039722
 10
26.9702703721
 20
-31.5651792393
 10
26.8749225872
 20
-31.4739860308
 10
26.8090827119
 20
-31.3725187147
 10
26.7756197926
 20
-31.2650216717
 10
26.7733265393
 20
-31.2275096484
  0
LWPOLYLINE
  5
3B4
100
AcDbEntity
  8
0
100
AcDbPolyline
 62
7
  6
CONTINUOUS
 90
3
 70
0
 10
28.2384324786
 20
-34.6919476891
 10
28.1817321388
 20
-34.6548589768
 10
28.1240433165
 20
-34.626302102
  0
LWPOLYLINE
  5
3B5
100
AcDbEntity
  8
0
100
AcDbPolyline
 62
7
  6
CONTINUOUS
 90
3
 70
0
 10
28.2582841561
 20
-34.6670133446
 10
28.2015916001
 20
-34.629936912
 10
28.1439127326
 20
-34.6013872345
  0
LWPOLYLINE
  5
3B6
100
AcDbEntity
  8
SUPERFICI
100
AcDbPolyline
 62
250
  6
CONTINUOUS
 90
5
 70
0
 10
41.6769655375
 20
-45.8590309262
 10
41.2819429472
 20
-45.5954846663
 10
40.8861139794
 20
-45.3280066621
 10
40.4897569248
 20
-45.0570201829
 10
40.0934544615
 20
-44.7831611461
  0
LINE
  5
3B7
100
AcDbEntity
  8
0
100
AcDbLine
 62
7
  6
CONTINUOUS
 10
28.43162382
 20
-34.3840881585
 11
28.5407403399
 21
-34.4575289767
  0
LINE
  5
3B8
100
AcDbEntity
  8
SUPERFICI
100
AcDbLine
 62
250
  6
CONTINUOUS
 10
47.3910994834
 20
-48.1300656802
 11
47.9353172758
 21
-48.5088846195
  0
LINE
  5
3B9
100
AcDbEntity
  8
SUPERFICI
100
AcDbLine
 62
250
  6
CONTINUOUS
 10
40.0934544615
 20
-44.7831611461
 11
39.300322191
 21
-44.2272766346
  0
LINE
  5
3BA
100
AcDbEntity
  8
SUPERFICI
100
AcDbLine
 62
250
  6
CONTINUOUS
 10
46.8527035806
 20
-47.7497002286
 11
47.3910994834
 21
-48.1300656802
  0
LINE
  5
3BB
100
AcDbEntity
  8
SUPERFICI
100
AcDbLine
 62
250
  6
CONTINUOUS
 10
39.300322191
 20
-44.2272766346
 11
38.5053930588
 21
-43.6612075461
  0
LINE
  5
3BC
100
AcDbEntity
  8
SUPERFICI
100
AcDbLine
 62
250
  6
CONTINUOUS
 10
46.3161940937
 20
-47.3649201255
 11
46.8527035806
 21
-47.7497002286
  0
LWPOLYLINE
  5
3BD
100
AcDbEntity
  8
SUPERFICI
100
AcDbPolyline
 62
250
  6
CONTINUOUS
 90
3
 70
0
 10
45.5094612327
 20
-46.7755470067
 10
45.7794053551
 20
-46.974178657
 10
46.3161940937
 20
-47.3649201255
  0
LINE
  5
3BE
100
AcDbEntity
  8
SUPERFICI
100
AcDbLine
 62
250
  6
CONTINUOUS
 10
30.9853371605
 20
-41.4311231027
 11
30.3639937181
 21
-40.970791371
  0
LINE
  5
3BF
100
AcDbEntity
  8
SUPERFICI
100
AcDbLine
 62
250
  6
CONTINUOUS
 10
45.5094612327
 20
-46.7755470067
 11
45.0758146742
 21
-46.4534565563
  0
LWPOLYLINE
  5
3C0
100
AcDbEntity
  8
SUPERFICI
100
AcDbPolyline
 62
250
  6
CONTINUOUS
 90
9
 70
0
 10
30.3639937181
 20
-40.970791371
 10
29.7544984065
 20
-40.5114716895
 10
29.1565638793
 20
-40.0519204765
 10
28.5692292535
 20
-39.5904361717
 10
27.9929192537
 20
-39.1264666042
 10
27.4293894176
 20
-38.6607015623
 10
26.8790091049
 20
-38.192903833
 10
26.3408157587
 20
-37.7218104821
 10
25.8145356696
 20
-37.2468051306
  0
LINE
  5
3C1
100
AcDbEntity
  8
SUPERFICI
100
AcDbLine
 62
250
  6
CONTINUOUS
 10
35.4884531629
 20
-39.1873921698
 11
39.2647704347
 21
-42.0318139873
  0
LINE
  5
3C2
100
AcDbEntity
  8
SUPERFICI
100
AcDbLine
 62
250
  6
CONTINUOUS
 10
45.0758146742
 20
-46.4534565563
 11
44.1998728123
 21
-45.7934227977
  0
LINE
  5
3C3
100
AcDbEntity
  8
SUPERFICI
100
AcDbLine
 62
250
  6
CONTINUOUS
 10
39.2647704347
 20
-42.0318139873
 11
40.7955138282
 21
-43.1891251009
  0
LWPOLYLINE
  5
3C4
100
AcDbEntity
  8
SUPERFICI
100
AcDbPolyline
 62
250
  6
CONTINUOUS
 90
10
 70
0
 10
31.9147866683
 20
-38.6539604132
 10
32.5650718591
 20
-39.1802650592
 10
33.2276894834
 20
-39.7073418247
 10
33.9010151551
 20
-40.2343903463
 10
34.5821625603
 20
-40.759646566
 10
35.2707206019
 20
-41.2832699943
 10
35.9688625947
 20
-41.8072977927
 10
36.6762579618
 20
-42.3317894601
 10
37.389961915
 20
-42.8548722054
 10
38.5053930588
 20
-43.6612075461
  0
LWPOLYLINE
  5
3C5
100
AcDbEntity
  8
SUPERFICI
100
AcDbPolyline
 62
250
  6
CONTINUOUS
 90
10
 70
0
 10
-51.1928555917
 20
27.6165614095
 10
-50.5806060333
 20
27.0439977634
 10
-49.9760260114
 20
26.4908219243
 10
-49.3729130609
 20
25.9521445418
 10
-48.7637589484
 20
25.4219052966
 10
-48.1447384122
 20
24.89723951
 10
-47.5162365596
 20
24.378534427
 10
-46.8761821637
 20
23.8637573208
 10
-46.2194773963
 20
23.3483681686
 10
-45.5433436831
 20
22.8297165154
  0
LWPOLYLINE
  5
3C6
100
AcDbEntity
  8
SUPERFICI
100
AcDbPolyline
 62
250
  6
CONTINUOUS
 90
6
 70
0
 10
-48.4001458564
 20
34.3039965658
 10
-47.7034086287
 20
33.5953023034
 10
-47.0010972745
 20
32.8873668942
 10
-46.2932570927
 20
32.1800427132
 10
-45.5761195732
 20
31.4694708053
 10
-44.8502244828
 20
30.7561823883
  0
LINE
  5
3C7
100
AcDbEntity
  8
SUPERFICI
100
AcDbLine
 62
250
  6
CONTINUOUS
 10
-49.0873633118
 20
35.009628586
 11
-48.4001458564
 21
34.3039965658
  0
LWPOLYLINE
  5
3C8
100
AcDbEntity
  8
SUPERFICI
100
AcDbPolyline
 62
250
  6
CONTINUOUS
 90
9
 70
0
 10
-50.2330100894
 20
34.9296394721
 10
-49.5643932271
 20
34.2423472118
 10
-48.8821981707
 20
33.5512645553
 10
-48.1884053106
 20
32.8580306676
 10
-47.4869695003
 20
32.1661984603
 10
-46.7781898894
 20
31.4756716873
 10
-46.0586831739
 20
30.7828987187
 10
-45.3290196558
 20
30.0882902549
 10
-44.5937601017
 20
29.3960330426
  0
LINE
  5
3C9
100
AcDbEntity
  8
SUPERFICI
100
AcDbLine
 62
250
  6
CONTINUOUS
 10
-47.0176750796
 20
34.1584566629
 11
-45.6375854942
 21
32.7346680925
  0
LINE
  5
3CA
100
AcDbEntity
  8
SUPERFICI
100
AcDbLine
 62
250
  6
CONTINUOUS
 10
-50.1775839999
 20
36.1437290283
 11
-49.0873633118
 21
35.009628586
  0
LINE
  5
3CB
100
AcDbEntity
  8
SUPERFICI
100
AcDbLine
 62
250
  6
CONTINUOUS
 10
-48.3762128888
 20
35.5780064273
 11
-47.0176750796
 21
34.1584566629
  0
LINE
  5
3CC
100
AcDbEntity
  8
SUPERFICI
100
AcDbLine
 62
250
  6
CONTINUOUS
 10
-51.0009391446
 20
37.0135393762
 11
-50.1775839999
 21
36.1437290283
  0
LINE
  5
3CD
100
AcDbEntity
  8
SUPERFICI
100
AcDbLine
 62
250
  6
CONTINUOUS
 10
-48.3762128888
 20
35.5780064273
 11
-49.4657280434
 21
36.7304653056
  0
LINE
  5
3CE
100
AcDbEntity
  8
SUPERFICI
100
AcDbLine
 62
250
  6
CONTINUOUS
 10
-49.4657280434
 20
36.7304653056
 11
-50.3183507567
 21
37.6436380248
  0
LINE
  5
3CF
100
AcDbEntity
  8
SUPERFICI
100
AcDbLine
 62
250
  6
CONTINUOUS
 10
-49.4829947922
 20
38.7010513548
 11
-46.9122760676
 21
35.9356692582
  0
LWPOLYLINE
  5
3D0
100
AcDbEntity
  8
SUPERFICI
100
AcDbPolyline
 62
250
  6
CONTINUOUS
 90
6
 70
0
 10
-50.3183507567
 20
37.6436380248
 10
-51.154036192
 20
38.5510569087
 10
-51.5669729562
 20
39.0049315179
 10
-51.9777121385
 20
39.4606707608
 10
-52.3814429822
 20
39.913440583
 10
-52.775632751
 20
40.3608961948
  0
LINE
  5
3D1
100
AcDbEntity
  8
SUPERFICI
100
AcDbLine
 62
250
  6
CONTINUOUS
 10
-50.9818912377
 20
40.3295294022
 11
-49.4829947922
 21
38.7010513548
  0
LINE
  5
3D2
100
AcDbEntity
  8
SUPERFICI
100
AcDbLine
 62
250
  6
CONTINUOUS
 10
-50.9818912377
 20
40.3295294022
 11
-52.11231182
 21
41.5703780064
  0
LINE
  5
3D3
100
AcDbEntity
  8
SUPERFICI
100
AcDbLine
 62
250
  6
CONTINUOUS
 10
-52.11231182
 20
41.5703780064
 11
-53.0087381177
 21
42.562881198
  0
LWPOLYLINE
  5
3D4
100
AcDbEntity
  8
SUPERFICI
100
AcDbPolyline
 62
250
  6
CONTINUOUS
 90
6
 70
0
 10
-53.3837237763
 20
39.6155944796
 10
-52.9972032481
 20
39.1832432854
 10
-52.6055173246
 20
38.7496095778
 10
-52.2093317723
 20
38.3152398765
 10
-51.8099552034
 20
37.881363721
 10
-51.0009391446
 20
37.0135393762
  0
LINE
  5
3D5
100
AcDbEntity
  8
SUPERFICI
100
AcDbLine
 62
250
  6
CONTINUOUS
 10
-53.8929395384
 20
40.192464615
 11
-53.3837237763
 21
39.6155944796
  0
LWPOLYLINE
  5
3D6
100
AcDbEntity
  8
SUPERFICI
100
AcDbPolyline
 62
250
  6
CONTINUOUS
 90
10
 70
0
 10
-53.6113317232
 20
38.5937715072
 10
-53.2518645067
 20
38.1849448889
 10
-52.8889359036
 20
37.7774133677
 10
-52.5222148516
 20
37.3707097677
 10
-52.1509348599
 20
36.9638803159
 10
-51.7751434114
 20
36.556855659
 10
-51.3957169987
 20
36.1504154297
 10
-51.0126944309
 20
35.7443874455
 10
-50.6252612293
 20
35.3376820874
 10
-50.2330100894
 20
34.9296394721
  0
LINE
  5
3D7
100
AcDbEntity
  8
SUPERFICI
100
AcDbLine
 62
250
  6
CONTINUOUS
 10
-54.402121922
 20
40.7776291656
 11
-53.8929395384
 21
40.192464615
  0
LINE
  5
3D8
100
AcDbEntity
  8
SUPERFICI
100
AcDbLine
 62
250
  6
CONTINUOUS
 10
-53.2547205929
 20
40.9123784346
 11
-52.775632751
 21
40.3608961948
  0
LINE
  5
3D9
100
AcDbEntity
  8
SUPERFICI
100
AcDbLine
 62
250
  6
CONTINUOUS
 10
-54.9080433216
 20
41.3673307722
 11
-54.402121922
 21
40.7776291656
  0
LINE
  5
3DA
100
AcDbEntity
  8
SUPERFICI
100
AcDbLine
 62
250
  6
CONTINUOUS
 10
-53.7260337614
 20
41.4631975847
 11
-53.2547205929
 21
40.9123784346
  0
LINE
  5
3DB
100
AcDbEntity
  8
SUPERFICI
100
AcDbLine
 62
250
  6
CONTINUOUS
 10
-34.844921677
 20
25.7346778469
 11
-36.5205571196
 21
27.7136846482
  0
LINE
  5
3DC
100
AcDbEntity
  8
SUPERFICI
100
AcDbLine
 62
250
  6
CONTINUOUS
 10
-54.1926134882
 20
42.0170265815
 11
-53.7260337614
 21
41.4631975847
  0
LINE
  5
3DD
100
AcDbEntity
  8
SUPERFICI
100
AcDbLine
 62
250
  6
CONTINUOUS
 10
-33.7541324416
 20
24.4291050545
 11
-34.844921677
 21
25.7346778469
  0
LWPOLYLINE
  5
3DE
100
AcDbEntity
  8
SUPERFICI
100
AcDbPolyline
 62
250
  6
CONTINUOUS
 90
10
 70
0
 10
-28.558633213
 20
22.8374127475
 10
-28.976479704
 20
23.5082706264
 10
-29.4088657218
 20
24.187202182
 10
-29.8551081874
 20
24.8729083666
 10
-30.3159844483
 20
25.5662713459
 10
-30.7892067872
 20
26.2635227651
 10
-31.2691959172
 20
26.956377817
 10
-31.7532786415
 20
27.6411614946
 10
-32.241912366
 20
28.3186719176
 10
-32.7340038318
 20
28.987446709
  0
LWPOLYLINE
  5
3DF
100
AcDbEntity
  8
SUPERFICI
100
AcDbPolyline
 62
250
  6
CONTINUOUS
 90
5
 70
0
 10
-1.774347486
 20
-33.2779326134
 10
-1.7484563253
 20
-33.3412015933
 10
-1.716118718
 20
-33.3891882365
 10
-1.6777495779
 20
-33.4217038292
 10
-1.647972082
 20
-33.43502292
  0
LWPOLYLINE
  5
3E0
100
AcDbEntity
  8
SUPERFICI
100
AcDbPolyline
 62
250
  6
CONTINUOUS
 90
10
 70
0
 10
-18.1613832478
 20
19.644401198
 10
-18.3795988944
 20
20.2493505862
 10
-18.6100559247
 20
20.8702454738
 10
-18.8515407227
 20
21.5039581483
 10
-19.1027174074
 20
22.1470750903
 10
-19.3622042888
 20
22.796094333
 10
-19.6285762533
 20
23.4474166469
 10
-19.9002511325
 20
24.0970625718
 10
-20.1754817398
 20
24.7406687561
 10
-20.4524355879
 20
25.3736827066
  0
LWPOLYLINE
  5
3E1
100
AcDbEntity
  8
SUPERFICI
100
AcDbPolyline
 62
250
  6
CONTINUOUS
 90
7
 70
0
 10
-2.007852951
 20
-32.5020167739
 10
-2.0808386694
 20
-32.2411192511
 10
-2.1156931019
 20
-32.1130969637
 10
-2.1501665343
 20
-31.9838651998
 10
-2.1843713354
 20
-31.8528595694
 10
-2.2179446233
 20
-31.7214746662
 10
-2.250961493
 20
-31.5895730604
  0
LINE
  5
3E2
100
AcDbEntity
  8
SUPERFICI
100
AcDbLine
 62
250
  6
CONTINUOUS
 10
-3.2716694998
 20
-24.9681105213
 11
-3.3060103053
 21
-24.5047154872
  0
LINE
  5
3E3
100
AcDbEntity
  8
DRAFT
100
AcDbLine
 62
7
  6
CONTINUOUS
 10
-4.3161926147
 20
-20.5576010308
 11
-4.3355840606
 21
-19.7780954171
  0
LWPOLYLINE
  5
3E4
100
AcDbEntity
  8
SUPERFICI
100
AcDbPolyline
 62
250
  6
CONTINUOUS
 90
10
 70
0
 10
-4.0685174361
 20
20.3424534797
 10
-4.1081974111
 20
19.7913589477
 10
-4.1448017632
 20
19.2293624077
 10
-4.1780656869
 20
18.6626939453
 10
-4.207653911
 20
18.0992473354
 10
-4.2335175428
 20
17.5419068426
 10
-4.2557586171
 20
16.9884825776
 10
-4.2741913991
 20
16.4410201456
 10
-4.288475596
 20
15.9058945173
 10
-4.2983816742
 20
15.3870519677
  0
LINE
  5
3E5
100
AcDbEntity
  8
SUPERFICI
100
AcDbLine
 62
250
  6
CONTINUOUS
 10
-3.6243055324
 20
24.8120207679
 11
-3.697981177
 21
24.1918534899
  0
LINE
  5
3E6
100
AcDbEntity
  8
SUPERFICI
100
AcDbLine
 62
250
  6
CONTINUOUS
 10
-3.5732856025
 20
25.223281795
 11
-3.6243055324
 21
24.8120207679
  0
LWPOLYLINE
  5
3E7
100
AcDbEntity
  8
SUPERFICI
100
AcDbPolyline
 62
250
  6
CONTINUOUS
 90
3
 70
0
 10
-3.4645770426
 20
26.05599914
 10
-3.4931312815
 20
25.8419154475
 10
-3.5732856025
 20
25.223281795
  0
LWPOLYLINE
  5
3E8
100
AcDbEntity
  8
SUPERFICI
100
AcDbPolyline
 62
250
  6
CONTINUOUS
 90
10
 70
0
 10
-3.282627203
 20
27.3525386097
 10
-3.2613541642
 20
27.4749109054
 10
-3.2332870813
 20
27.5985930477
 10
-3.1988066855
 20
27.7223992684
 10
-3.1583720497
 20
27.844909201
 10
-3.1124888132
 20
27.964409185
 10
-3.0621525327
 20
28.0779757599
 10
-3.0081054802
 20
28.1840020661
 10
-2.9512590746
 20
28.2807929682
 10
-2.8925220744
 20
28.3666932751
  0
LWPOLYLINE
  5
3E9
100
AcDbEntity
  8
SUPERFICI
100
AcDbPolyline
 62
250
  6
CONTINUOUS
 90
4
 70
0
 10
-4.5343997855
 20
13.83914317
 10
-4.5755096042
 20
13.6624178522
 10
-4.6021081847
 20
13.4936031035
 10
-4.6137704447
 20
13.3368065246
  0
LWPOLYLINE
  5
3EA
100
AcDbEntity
  8
SUPERFICI
100
AcDbPolyline
 62
250
  6
CONTINUOUS
 90
10
 70
0
 10
-4.5349360899
 20
13.8391622805
 10
-4.4893762815
 20
14.016564433
 10
-4.4480350344
 20
14.195401468
 10
-4.4111557474
 20
14.3747905325
 10
-4.3788391115
 20
14.5547078198
 10
-4.3515465533
 20
14.7332531895
 10
-4.3298326979
 20
14.9068109134
 10
-4.3137866668
 20
15.0737043434
 10
-4.3032999124
 20
15.2340332249
 10
-4.2983816657
 20
15.3870519651
  0
LINE
  5
3EB
100
AcDbEntity
  8
SUPERFICI
100
AcDbLine
 62
250
  6
CONTINUOUS
 10
-17.1690172339
 20
-20.2471509897
 11
-17.3621368967
 21
-20.6510206636
  0
LINE
  5
3EC
100
AcDbEntity
  8
SUPERFICI
100
AcDbLine
 62
250
  6
CONTINUOUS
 10
-17.3621368967
 20
-20.6510206636
 11
-17.5671957494
 21
-21.0510925493
  0
LWPOLYLINE
  5
3ED
100
AcDbEntity
  8
SUPERFICI
100
AcDbPolyline
 62
250
  6
CONTINUOUS
 90
8
 70
0
 10
-17.5671957494
 20
-21.0510925493
 10
-17.7831058154
 20
-21.4454438571
 10
-18.0086676877
 20
-21.8320020667
 10
-18.2426390905
 20
-22.2086649114
 10
-18.4837379422
 20
-22.5732819659
 10
-18.7305398231
 20
-22.9234914327
 10
-18.9814697955
 20
-23.2567325296
 10
-19.2348745695
 20
-23.5703543049
  0
LWPOLYLINE
  5
3EE
100
AcDbEntity
  8
RACCORDO
100
AcDbPolyline
 62
250
  6
CONTINUOUS
 90
3
 70
0
 10
-17.1828820634
 20
-15.1485884167
 10
-17.1742265536
 20
-15.1338201154
 10
-17.1684719802
 20
-15.1184277589
  0
LINE
  5
3EF
100
AcDbEntity
  8
RACCORDO
100
AcDbLine
 62
7
  6
CONTINUOUS
 10
-17.2089147802
 20
-14.2797108745
 11
-17.3515621253
 21
-14.4839578637
  0
LINE
  5
3F0
100
AcDbEntity
  8
DRAFT
100
AcDbLine
 62
7
  6
CONTINUOUS
 10
-17.4738312783
 20
-14.6590267117
 11
-17.555344047
 21
-14.775739277
  0
LINE
  5
3F1
100
AcDbEntity
  8
DRAFT
100
AcDbLine
 62
7
  6
CONTINUOUS
 10
-17.6776132
 20
-14.9508081249
 11
-17.7591259686
 21
-15.0675206902
  0
LINE
  5
3F2
100
AcDbEntity
  8
DRAFT
100
AcDbLine
 62
7
  6
CONTINUOUS
 10
-17.8813951216
 20
-15.2425895382
 11
-17.9629078903
 21
-15.3593021035
  0
LINE
  5
3F3
100
AcDbEntity
  8
DRAFT
100
AcDbLine
 62
7
  6
CONTINUOUS
 10
-18.0851770432
 20
-15.5343709514
 11
-18.0974591733
 21
-15.5519568945
  0
LINE
  5
3F4
100
AcDbEntity
  8
RACCORDO
100
AcDbLine
 62
250
  6
CONTINUOUS
 10
-17.5789693986
 20
-15.7111800812
 11
-17.1828820634
 21
-15.1485884167
  0
LINE
  5
3F5
100
AcDbEntity
  8
RACCORDO
100
AcDbLine
 62
7
  6
CONTINUOUS
 10
-17.5562056669
 20
-15.7181706027
 11
-17.2019911348
 21
-15.2150539272
  0
LWPOLYLINE
  5
3F6
100
AcDbEntity
  8
RACCORDO
100
AcDbPolyline
 62
7
  6
CONTINUOUS
 90
5
 70
0
 10
-17.2046434448
 20
-14.2738151288
 10
-17.1955930837
 20
-14.2613226547
 10
-17.1898854149
 20
-14.250513408
 10
-17.1872134217
 20
-14.2416747806
 10
-17.1869111154
 20
-14.2378036405
  0
LINE
  5
3F7
100
AcDbEntity
  8
DRAFT
100
AcDbLine
 62
7
  6
CONTINUOUS
 10
-20.3312709121
 20
-15.4977812923
 11
-20.4220519488
 21
-15.614333742
  0
LINE
  5
3F8
100
AcDbEntity
  8
DRAFT
100
AcDbLine
 62
7
  6
CONTINUOUS
 10
-19.9223017477
 20
-14.9915654189
 11
-20.3312709121
 21
-15.4977812923
  0
LINE
  5
3F9
100
AcDbEntity
  8
RACCORDO
100
AcDbLine
 62
7
  6
CONTINUOUS
 10
-22.5408225182
 20
-12.6423336634
 11
-22.7161444738
 21
-12.8365465964
  0
LINE
  5
3FA
100
AcDbEntity
  8
DRAFT
100
AcDbLine
 62
7
  6
CONTINUOUS
 10
-22.8664204357
 20
-13.0030148246
 11
-22.9666044103
 21
-13.1139936435
  0
LINE
  5
3FB
100
AcDbEntity
  8
DRAFT
100
AcDbLine
 62
7
  6
CONTINUOUS
 10
-23.1168803722
 20
-13.2804618717
 11
-23.2170643468
 21
-13.3914406906
  0
LINE
  5
3FC
100
AcDbEntity
  8
DRAFT
100
AcDbLine
 62
7
  6
CONTINUOUS
 10
-23.3673403087
 20
-13.5579089188
 11
-23.4675242833
 21
-13.6688877377
  0
LINE
  5
3FD
100
AcDbEntity
  8
DRAFT
100
AcDbLine
 62
7
  6
CONTINUOUS
 10
-23.6178002452
 20
-13.8353559659
 11
-23.7179842198
 21
-13.9463347847
  0
LINE
  5
3FE
100
AcDbEntity
  8
DRAFT
100
AcDbLine
 62
7
  6
CONTINUOUS
 10
-23.8682601817
 20
-14.112803013
 11
-23.9684441563
 21
-14.2237818318
  0
LINE
  5
3FF
100
AcDbEntity
  8
DRAFT
100
AcDbLine
 62
7
  6
CONTINUOUS
 10
-24.1187201182
 20
-14.3902500601
 11
-24.1796362562
 21
-14.4577299247
  0
LINE
  5
400
100
AcDbEntity
  8
SUPERFICI
100
AcDbLine
 62
250
  6
CONTINUOUS
 10
-27.9588973568
 20
-17.3912824395
 11
-27.5662712077
 21
-17.0539779987
  0
LWPOLYLINE
  5
401
100
AcDbEntity
  8
SUPERFICI
100
AcDbPolyline
 62
250
  6
CONTINUOUS
 90
3
 70
0
 10
17.0939011652
 20
19.7449812267
 10
16.8916910393
 20
19.5823755323
 10
16.6921140163
 20
19.4242696109
  0
LWPOLYLINE
  5
402
100
AcDbEntity
  8
SUPERFICI
100
AcDbPolyline
 62
250
  6
CONTINUOUS
 90
4
 70
0
 10
15.9060287544
 20
18.8088472141
 10
15.7142610036
 20
18.6565942676
 10
15.5237697517
 20
18.5031245273
 10
15.3341015871
 20
18.3475285146
  0
LINE
  5
403
100
AcDbEntity
  8
SUPERFICI
100
AcDbLine
 62
250
  6
CONTINUOUS
 10
16.6921140163
 20
19.4242696109
 11
15.9060287544
 21
18.8088472141
  0
LWPOLYLINE
  5
404
100
AcDbEntity
  8
SUPERFICI
100
AcDbPolyline
 62
7
  6
CONTINUOUS
 90
5
 70
0
 10
-33.545651422
 20
-12.5124940818
 10
-33.669513274
 20
-12.5939702577
 10
-33.8150121831
 20
-12.6590275232
 10
-33.9789202398
 20
-12.7058160009
 10
-34.155933574
 20
-12.7325076844
  0
LINE
  5
405
100
AcDbEntity
  8
SUPERFICI
100
AcDbLine
 62
250
  6
CONTINUOUS
 10
34.6524295318
 20
4.9247564919
 11
33.1710747101
 21
4.5091345637
  0
LINE
  5
406
100
AcDbEntity
  8
SUPERFICI
100
AcDbLine
 62
250
  6
CONTINUOUS
 10
36.7247126103
 20
4.4239178827
 11
35.9119057402
 21
4.2127728161
  0
LINE
  5
407
100
AcDbEntity
  8
SUPERFICI
100
AcDbLine
 62
250
  6
CONTINUOUS
 10
-36.3488077324
 20
-14.4871910855
 11
-35.1412487173
 21
-14.171424136
  0
LWPOLYLINE
  5
408
100
AcDbEntity
  8
SUPERFICI
100
AcDbPolyline
 62
250
  6
CONTINUOUS
 90
3
 70
0
 10
35.9119057402
 20
4.2127728161
 10
35.1259420876
 20
4.0132628974
 10
34.3480188749
 20
3.8200290334
  0
LINE
  5
409
100
AcDbEntity
  8
SUPERFICI
100
AcDbLine
 62
250
  6
CONTINUOUS
 10
-37.5376699072
 20
-14.7892782345
 11
-36.3488077324
 21
-14.4871910855
  0
LINE
  5
40A
100
AcDbEntity
  8
SUPERFICI
100
AcDbLine
 62
250
  6
CONTINUOUS
 10
-38.7269656351
 20
-15.0821480719
 11
-37.5376699072
 21
-14.7892782345
  0
LINE
  5
40B
100
AcDbEntity
  8
SUPERFICI
100
AcDbLine
 62
250
  6
CONTINUOUS
 10
-46.2423805425
 20
-16.8069339309
 11
-48.0917627555
 21
-17.2526623125
  0
LINE
  5
40C
100
AcDbEntity
  8
SUPERFICI
100
AcDbLine
 62
250
  6
CONTINUOUS
 10
-39.9224616057
 20
-15.3672502728
 11
-38.7269656351
 21
-15.0821480719
  0
LWPOLYLINE
  5
40D
100
AcDbEntity
  8
SUPERFICI
100
AcDbPolyline
 62
250
  6
CONTINUOUS
 90
4
 70
0
 10
-48.0917627555
 20
-17.2526623125
 10
-48.8224844922
 20
-17.4247142427
 10
-49.1840992143
 20
-17.507262761
 10
-49.5411393733
 20
-17.5864284068
  0
LINE
  5
40E
100
AcDbEntity
  8
SUPERFICI
100
AcDbLine
 62
250
  6
CONTINUOUS
 10
-44.9633176565
 20
-16.5087877025
 11
-46.2423805425
 21
-16.8069339309
  0
LINE
  5
40F
100
AcDbEntity
  8
SUPERFICI
100
AcDbLine
 62
250
  6
CONTINUOUS
 10
-39.9224616057
 20
-15.3672502728
 11
-41.1529776026
 21
-15.6515512806
  0
LINE
  5
410
100
AcDbEntity
  8
SUPERFICI
100
AcDbLine
 62
250
  6
CONTINUOUS
 10
-41.1529776026
 20
-15.6515512806
 11
-43.0230170929
 21
-16.0714569315
  0
LINE
  5
411
100
AcDbEntity
  8
SUPERFICI
100
AcDbLine
 62
250
  6
CONTINUOUS
 10
-43.0230170929
 20
-16.0714569315
 11
-44.9633176565
 21
-16.5087877025
  0
LWPOLYLINE
  5
412
100
AcDbEntity
  8
SUPERFICI
100
AcDbPolyline
 62
250
  6
CONTINUOUS
 90
10
 70
0
 10
-49.5411393733
 20
-17.5864284068
 10
-49.7625179168
 20
-17.6341796263
 10
-49.9821521464
 20
-17.6805409134
 10
-50.2004566232
 20
-17.7255917395
 10
-50.4180031872
 20
-17.7694430452
 10
-50.6350767478
 20
-17.8121473472
 10
-50.8516824283
 20
-17.8537072989
 10
-51.068129195
 20
-17.8941904219
 10
-51.285022823
 20
-17.93372057
 10
-51.5028265537
 20
-17.972394002
  0
LWPOLYLINE
  5
413
100
AcDbEntity
  8
SUPERFICI
100
AcDbPolyline
 62
250
  6
CONTINUOUS
 90
3
 70
0
 10
-41.5788487028
 20
-18.3004043355
 10
-42.1671971012
 20
-18.4236394179
 10
-42.760277867
 20
-18.5416609435
  0
LINE
  5
414
100
AcDbEntity
  8
SUPERFICI
100
AcDbLine
 62
250
  6
CONTINUOUS
 10
-35.98984413
 20
-13.1803048784
 11
-37.9244911594
 21
-13.5673879893
  0
LWPOLYLINE
  5
415
100
AcDbEntity
  8
SUPERFICI
100
AcDbPolyline
 62
250
  6
CONTINUOUS
 90
6
 70
0
 10
-44.4552601537
 20
-14.820233424
 10
-45.126546957
 20
-14.9535092468
 10
-45.792999487
 20
-15.0903505176
 10
-46.4547068539
 20
-15.2317233026
 10
-47.1087881823
 20
-15.3778872213
 10
-47.7539948855
 20
-15.5293450143
  0
LINE
  5
416
100
AcDbEntity
  8
SUPERFICI
100
AcDbLine
 62
250
  6
CONTINUOUS
 10
-37.9244911594
 20
-13.5673879893
 11
-39.8157871112
 21
-13.9373178672
  0
LINE
  5
417
100
AcDbEntity
  8
SUPERFICI
100
AcDbLine
 62
250
  6
CONTINUOUS
 10
-39.8157871112
 20
-13.9373178672
 11
-41.7074217162
 21
-14.2987578688
  0
LINE
  5
418
100
AcDbEntity
  8
SUPERFICI
100
AcDbLine
 62
250
  6
CONTINUOUS
 10
-41.7074217162
 20
-14.2987578688
 11
-44.4552601537
 21
-14.820233424
  0
LWPOLYLINE
  5
419
100
AcDbEntity
  8
SUPERFICI
100
AcDbPolyline
 62
250
  6
CONTINUOUS
 90
6
 70
0
 10
-45.1481781958
 20
-13.8627501957
 10
-45.8354149746
 20
-13.9827490264
 10
-46.516996171
 20
-14.1063491562
 10
-47.1928601378
 20
-14.2343114777
 10
-47.8591508316
 20
-14.3666434954
 10
-48.5140876172
 20
-14.5036681092
  0
LINE
  5
41A
100
AcDbEntity
  8
SUPERFICI
100
AcDbLine
 62
250
  6
CONTINUOUS
 10
-43.7463092639
 20
-13.6287374567
 11
-45.1481781958
 21
-13.8627501957
  0
LINE
  5
41B
100
AcDbEntity
  8
SUPERFICI
100
AcDbLine
 62
250
  6
CONTINUOUS
 10
-36.3612080364
 20
-12.4544366106
 11
-43.7463092639
 21
-13.6287374567
  0
LWPOLYLINE
  5
41C
100
AcDbEntity
  8
SUPERFICI
100
AcDbPolyline
 62
250
  6
CONTINUOUS
 90
7
 70
0
 10
-44.9757601356
 20
-12.7573157549
 10
-45.6755522777
 20
-12.8570877502
 10
-46.3645639932
 20
-12.9599884414
 10
-47.0460828474
 20
-13.0672257934
 10
-47.719797035
 20
-13.1795270996
 10
-48.3818303165
 20
-13.2970094602
 10
-49.0302344478
 20
-13.4200486563
  0
LINE
  5
41D
100
AcDbEntity
  8
SUPERFICI
100
AcDbLine
 62
250
  6
CONTINUOUS
 10
-43.5500077313
 20
-12.5651534751
 11
-44.9757601356
 21
-12.7573157549
  0
LINE
  5
41E
100
AcDbEntity
  8
SUPERFICI
100
AcDbLine
 62
250
  6
CONTINUOUS
 10
-41.4484038444
 20
-12.2968391371
 11
-43.5500077313
 21
-12.5651534751
  0
LINE
  5
41F
100
AcDbEntity
  8
SUPERFICI
100
AcDbLine
 62
250
  6
CONTINUOUS
 10
-39.3775304162
 20
-12.0426251078
 11
-41.4484038444
 21
-12.2968391371
  0
LWPOLYLINE
  5
420
100
AcDbEntity
  8
SUPERFICI
100
AcDbPolyline
 62
250
  6
CONTINUOUS
 90
3
 70
0
 10
-36.5474322082
 20
-11.7109268478
 10
-37.2685043258
 20
-11.7938219827
 10
-39.3775304162
 20
-12.0426251078
  0
LINE
  5
421
100
AcDbEntity
  8
SUPERFICI
100
AcDbLine
 62
250
  6
CONTINUOUS
 10
37.9201674834
 20
-2.8011191729
 11
36.9770481944
 21
-2.884834156
  0
LWPOLYLINE
  5
422
100
AcDbEntity
  8
SUPERFICI
100
AcDbPolyline
 62
250
  6
CONTINUOUS
 90
8
 70
0
 10
36.9770481944
 20
-2.884834156
 10
36.0047559627
 20
-2.9516354801
 10
35.0137399799
 20
-3.0013683211
 10
34.0161862951
 20
-3.033881595
 10
33.018541827
 20
-3.0492922428
 10
32.0212552602
 20
-3.0475533315
 10
31.0292880214
 20
-3.0282709698
 10
30.0524085563
 20
-2.9911327541
  0
LWPOLYLINE
  5
423
100
AcDbEntity
  8
SUPERFICI
100
AcDbPolyline
 62
250
  6
CONTINUOUS
 90
10
 70
0
 10
-44.8396356456
 20
-5.4582392487
 10
-45.5030517956
 20
-5.4261709518
 10
-46.1472225673
 20
-5.399416913
 10
-46.774814563
 20
-5.3784418207
 10
-47.3908106977
 20
-5.3636958938
 10
-47.9971566554
 20
-5.3557553546
 10
-48.5933469493
 20
-5.3551174236
 10
-49.1830947313
 20
-5.3620995222
 10
-49.7737888429
 20
-5.3770450271
 10
-50.3715080024
 20
-5.4003192245
  0
LWPOLYLINE
  5
424
100
AcDbEntity
  8
SUPERFICI
100
AcDbPolyline
 62
250
  6
CONTINUOUS
 90
5
 70
0
 10
-41.3148863626
 20
-5.7014810248
 10
-42.2278239058
 20
-5.6279354134
 10
-43.1268833685
 20
-5.5622269778
 10
-44.0007211757
 20
-5.5053738665
 10
-44.8396356456
 20
-5.4582392487
  0
LWPOLYLINE
  5
425
100
AcDbEntity
  8
SUPERFICI
100
AcDbPolyline
 62
250
  6
CONTINUOUS
 90
8
 70
0
 10
41.0081951081
 20
-17.6519677508
 10
41.6578350518
 20
-17.7814991339
 10
42.3046164271
 20
-17.9066019913
 10
42.9453687965
 20
-18.0261846149
 10
43.5716798321
 20
-18.1386331922
 10
44.1939408182
 20
-18.2462533333
 10
44.8375045292
 20
-18.3540982741
 10
46.1392142255
 20
-18.5655860307
  0
LINE
  5
426
100
AcDbEntity
  8
SUPERFICI
100
AcDbLine
 62
250
  6
CONTINUOUS
 10
39.68264757
 20
-17.3782866543
 11
41.0081951081
 21
-17.6519677508
  0
LWPOLYLINE
  5
427
100
AcDbEntity
  8
SUPERFICI
100
AcDbPolyline
 62
250
  6
CONTINUOUS
 90
4
 70
0
 10
36.2794026014
 20
-16.6035151294
 10
37.4567723486
 20
-16.8831230199
 10
38.601092845
 20
-17.1438658557
 10
39.68264757
 20
-17.3782866543
  0
LWPOLYLINE
  5
428
100
AcDbEntity
  8
SUPERFICI
100
AcDbPolyline
 62
250
  6
CONTINUOUS
 90
7
 70
0
 10
29.3908825863
 20
-14.7475081526
 10
30.4845046747
 20
-15.0717634946
 10
31.6214131358
 20
-15.3946687032
 10
32.7856532104
 20
-15.7127961161
 10
33.9486666486
 20
-16.0194628545
 10
35.1067571843
 20
-16.314650036
 10
36.2794026014
 20
-16.6035151294
  0
LINE
  5
429
100
AcDbEntity
  8
DRAFT
100
AcDbLine
 62
7
  6
CONTINUOUS
 10
-32.6382196481
 20
4.3363223262
 11
-33.1504577681
 21
4.4936256903
  0
LWPOLYLINE
  5
42A
100
AcDbEntity
  8
SUPERFICI
100
AcDbPolyline
 62
250
  6
CONTINUOUS
 90
7
 70
0
 10
-36.9893824471
 20
5.63722815
 10
-38.0681536458
 20
5.9800937404
 10
-39.1714409569
 20
6.3451309505
 10
-40.2851763819
 20
6.7265477446
 10
-41.3834770247
 20
7.114308653
 10
-42.4640774416
 20
7.5066017747
 10
-43.5453992008
 20
7.9099081648
  0
LWPOLYLINE
  5
42B
100
AcDbEntity
  8
SUPERFICI
100
AcDbPolyline
 62
250
  6
CONTINUOUS
 90
10
 70
0
 10
-36.9893824471
 20
5.63722815
 10
-36.8052049925
 20
5.5746091127
 10
-36.6266818734
 20
5.5029719136
 10
-36.4548728569
 20
5.4226401322
 10
-36.2900116532
 20
5.333456633
 10
-36.134243867
 20
5.2362290883
 10
-35.9910344743
 20
5.1331102554
 10
-35.8617058497
 20
5.0254374055
 10
-35.7460325461
 20
4.9133534538
 10
-35.6445620944
 20
4.7975190208
  0
LWPOLYLINE
  5
42C
100
AcDbEntity
  8
SUPERFICI
100
AcDbPolyline
 62
250
  6
CONTINUOUS
 90
4
 70
0
 10
-43.5453992008
 20
7.9099081648
 10
-44.617719111
 20
8.3211581732
 10
-45.6458171249
 20
8.7275440156
 10
-46.6021157321
 20
9.1189282327
  0
LWPOLYLINE
  5
42D
100
AcDbEntity
  8
SUPERFICI
100
AcDbPolyline
 62
250
  6
CONTINUOUS
 90
9
 70
0
 10
-46.6021157321
 20
9.1189282327
 10
-47.1840222131
 20
9.3632852252
 10
-47.7566862756
 20
9.6068673717
 10
-48.316638476
 20
9.8487900176
 10
-48.8691806159
 20
10.0919877928
 10
-49.4109908731
 20
10.3355586952
 10
-49.9348997262
 20
10.5763315024
 10
-50.4501634312
 20
10.8180341736
 10
-50.9786322586
 20
11.0701090708
  0
LINE
  5
42E
100
AcDbEntity
  8
SUPERFICI
100
AcDbLine
 62
250
  6
CONTINUOUS
 10
36.6789366146
 20
-30.0698211393
 11
37.6659016193
 21
-30.5844025441
  0
LWPOLYLINE
  5
42F
100
AcDbEntity
  8
SUPERFICI
100
AcDbPolyline
 62
250
  6
CONTINUOUS
 90
10
 70
0
 10
45.1777862777
 20
-34.7425818205
 10
44.451567136
 20
-34.3128379725
 10
43.7372278537
 20
-33.8972058089
 10
43.0280808438
 20
-33.4914039051
 10
42.3158768317
 20
-33.0903005701
 10
41.5966472915
 20
-32.6912106544
 10
40.8711886575
 20
-32.2940059538
 10
40.1372942605
 20
-31.896823469
 10
39.3892245428
 20
-31.495927354
 10
37.6659016193
 20
-30.5844025441
  0
LWPOLYLINE
  5
430
100
AcDbEntity
  8
SUPERFICI
100
AcDbPolyline
 62
250
  6
CONTINUOUS
 90
5
 70
0
 10
47.0016977989
 20
-35.8594201307
 10
46.6439166765
 20
-35.635192663
 10
46.283924121
 20
-35.4123445867
 10
45.9210954649
 20
-35.1903322883
 10
45.1777862777
 20
-34.7425818205
  0
LINE
  5
431
100
AcDbEntity
  8
SUPERFICI
100
AcDbLine
 62
250
  6
CONTINUOUS
 10
47.3560683957
 20
-36.0843768996
 11
47.0016977989
 21
-35.8594201307
  0
LINE
  5
432
100
AcDbEntity
  8
SUPERFICI
100
AcDbLine
 62
250
  6
CONTINUOUS
 10
39.430287866
 20
-38.6775022202
 11
29.8125614546
 21
-32.0894380089
  0
LINE
  5
433
100
AcDbEntity
  8
SUPERFICI
100
AcDbLine
 62
250
  6
CONTINUOUS
 10
39.7717565636
 20
-39.9406921344
 11
35.696589212
 21
-37.0488195832
  0
LINE
  5
434
100
AcDbEntity
  8
SUPERFICI
100
AcDbLine
 62
250
  6
CONTINUOUS
 10
35.696589212
 20
-37.0488195832
 11
33.2478385119
 21
-35.3042034157
  0
LINE
  5
435
100
AcDbEntity
  8
SUPERFICI
100
AcDbLine
 62
250
  6
CONTINUOUS
 10
33.2478385119
 20
-35.3042034157
 11
31.1759407083
 21
-33.819795371
  0
LINE
  5
436
100
AcDbEntity
  8
SUPERFICI
100
AcDbLine
 62
250
  6
CONTINUOUS
 10
31.1759407083
 20
-33.819795371
 11
29.6600704853
 21
-32.7289234429
  0
LWPOLYLINE
  5
437
100
AcDbEntity
  8
SUPERFICI
100
AcDbPolyline
 62
250
  6
CONTINUOUS
 90
6
 70
0
 10
44.2179407755
 20
-42.0556598831
 10
43.4469145857
 20
-41.4967008063
 10
42.6616713871
 20
-40.9347518575
 10
41.8647098326
 20
-40.3708027462
 10
41.0607979191
 20
-39.807387402
 10
39.430287866
 20
-38.6775022202
  0
LINE
  5
438
100
AcDbEntity
  8
SUPERFICI
100
AcDbLine
 62
250
  6
CONTINUOUS
 10
35.8866669654
 20
-38.1271507747
 11
34.399607257
 21
-37.0357767789
  0
LINE
  5
439
100
AcDbEntity
  8
SUPERFICI
100
AcDbLine
 62
250
  6
CONTINUOUS
 10
34.399607257
 20
-37.0357767789
 11
32.9432341124
 21
-35.958157097
  0
LWPOLYLINE
  5
43A
100
AcDbEntity
  8
SUPERFICI
100
AcDbPolyline
 62
250
  6
CONTINUOUS
 90
5
 70
0
 10
43.7481757335
 20
-42.8365153514
 10
42.972879869
 20
-42.2602287785
 10
42.1846443909
 20
-41.6811864429
 10
41.3858763577
 20
-41.1003510233
 10
39.7717565636
 20
-39.9406921344
  0
LINE
  5
43B
100
AcDbEntity
  8
SUPERFICI
100
AcDbLine
 62
250
  6
CONTINUOUS
 10
32.9432341124
 20
-35.958157097
 11
31.4811921655
 21
-34.866936921
  0
LWPOLYLINE
  5
43C
100
AcDbEntity
  8
SUPERFICI
100
AcDbPolyline
 62
250
  6
CONTINUOUS
 90
3
 70
0
 10
31.4811921655
 20
-34.866936921
 10
30.0513907747
 20
-33.7908229434
 10
29.3181783091
 20
-33.2357658681
  0
LINE
  5
43D
100
AcDbEntity
  8
SUPERFICI
100
AcDbLine
 62
250
  6
CONTINUOUS
 10
44.6968327069
 20
-43.5521867219
 11
43.7481757335
 21
-42.8365153514
  0
LINE
  5
43E
100
AcDbEntity
  8
SUPERFICI
100
AcDbLine
 62
250
  6
CONTINUOUS
 10
35.4884531629
 20
-39.1873921698
 11
34.036289487
 21
-38.0792662242
  0
LWPOLYLINE
  5
43F
100
AcDbEntity
  8
SUPERFICI
100
AcDbPolyline
 62
250
  6
CONTINUOUS
 90
7
 70
0
 10
43.0278038971
 20
-43.4075559302
 10
42.2655734658
 20
-42.8237895266
 10
41.4916433717
 20
-42.2390175586
 10
40.7079549396
 20
-41.6537156922
 10
39.9183969073
 20
-41.0696899253
 10
39.1234385049
 20
-40.4861025017
 10
35.8866669654
 20
-38.1271507747
  0
LWPOLYLINE
  5
440
100
AcDbEntity
  8
SUPERFICI
100
AcDbPolyline
 62
250
  6
CONTINUOUS
 90
3
 70
0
 10
44.1998728123
 20
-45.7934227977
 10
42.8825207423
 20
-44.7862669829
 10
40.7955138282
 20
-43.1891251009
  0
LINE
  5
441
100
AcDbEntity
  8
SUPERFICI
100
AcDbLine
 62
250
  6
CONTINUOUS
 10
45.6343441702
 20
-44.270785703
 11
44.6968327069
 21
-43.5521867219
  0
LINE
  5
442
100
AcDbEntity
  8
SUPERFICI
100
AcDbLine
 62
250
  6
CONTINUOUS
 10
34.036289487
 20
-38.0792662242
 11
32.6362053486
 21
-36.9970865176
  0
LINE
  5
443
100
AcDbEntity
  8
SUPERFICI
100
AcDbLine
 62
250
  6
CONTINUOUS
 10
43.0278038971
 20
-43.4075559302
 11
43.5102488442
 21
-43.781810984
  0
LWPOLYLINE
  5
444
100
AcDbEntity
  8
SUPERFICI
100
AcDbPolyline
 62
250
  6
CONTINUOUS
 90
7
 70
0
 10
47.2956458635
 20
-44.3748854681
 10
46.8687782478
 20
-44.0435539089
 10
46.4373459323
 20
-43.7121037163
 10
46.0013614613
 20
-43.3805093195
 10
45.561790807
 20
-43.0494382209
 10
45.1186208455
 20
-42.7187833175
 10
44.2179407755
 20
-42.0556598831
  0
LINE
  5
445
100
AcDbEntity
  8
SUPERFICI
100
AcDbLine
 62
250
  6
CONTINUOUS
 10
46.556027244
 20
-44.9879185087
 11
45.6343441702
 21
-44.270785703
  0
LINE
  5
446
100
AcDbEntity
  8
SUPERFICI
100
AcDbLine
 62
250
  6
CONTINUOUS
 10
32.6362053486
 20
-36.9970865176
 11
31.2545287217
 21
-35.9146959776
  0
LINE
  5
447
100
AcDbEntity
  8
SUPERFICI
100
AcDbLine
 62
250
  6
CONTINUOUS
 10
43.5102488442
 20
-43.781810984
 11
44.481983113
 21
-44.5457202961
  0
LINE
  5
448
100
AcDbEntity
  8
SUPERFICI
100
AcDbLine
 62
250
  6
CONTINUOUS
 10
47.464355271
 20
-45.7049730432
 11
46.556027244
 21
-44.9879185087
  0
LWPOLYLINE
  5
449
100
AcDbEntity
  8
SUPERFICI
100
AcDbPolyline
 62
250
  6
CONTINUOUS
 90
3
 70
0
 10
48.1389017181
 20
-45.0397891117
 10
47.7188796227
 20
-44.7068462103
 10
47.2956458635
 20
-44.3748854681
  0
LINE
  5
44A
100
AcDbEntity
  8
SUPERFICI
100
AcDbLine
 62
250
  6
CONTINUOUS
 10
31.2545287217
 20
-35.9146959776
 11
29.8845957901
 21
-34.8268276409
  0
LINE
  5
44B
100
AcDbEntity
  8
SUPERFICI
100
AcDbLine
 62
250
  6
CONTINUOUS
 10
44.481983113
 20
-44.5457202961
 11
45.4358491639
 21
-45.3050423708
  0
LINE
  5
44C
100
AcDbEntity
  8
SUPERFICI
100
AcDbLine
 62
250
  6
CONTINUOUS
 10
48.2060388686
 20
-46.29820972
 11
47.464355271
 21
-45.7049730432
  0
LINE
  5
44D
100
AcDbEntity
  8
SUPERFICI
100
AcDbLine
 62
250
  6
CONTINUOUS
 10
45.4358491639
 20
-45.3050423708
 11
46.8461624134
 21
-46.4382187179
  0
LINE
  5
44E
100
AcDbEntity
  8
SUPERFICI
100
AcDbLine
 62
250
  6
CONTINUOUS
 10
29.8845957901
 20
-34.8268276409
 11
28.5038821166
 21
-33.7162272238
  0
LINE
  5
44F
100
AcDbEntity
  8
SUPERFICI
100
AcDbLine
 62
250
  6
CONTINUOUS
 10
49.8019658201
 20
-48.823435992
 11
46.8461624134
 21
-46.4382187179
  0
LINE
  5
450
100
AcDbEntity
  8
SUPERFICI
100
AcDbLine
 62
250
  6
CONTINUOUS
 10
48.7979143705
 20
-46.7766439187
 11
48.2060388686
 21
-46.29820972
  0
LWPOLYLINE
  5
451
100
AcDbEntity
  8
SUPERFICI
100
AcDbPolyline
 62
250
  6
CONTINUOUS
 90
3
 70
0
 10
48.9692437469
 20
-45.7089899048
 10
48.6913165108
 20
-45.4833509599
 10
48.1389017181
 20
-45.0397891117
  0
LINE
  5
452
100
AcDbEntity
  8
SUPERFICI
100
AcDbLine
 62
250
  6
CONTINUOUS
 10
49.3897170041
 20
-47.2594002806
 11
48.7979143705
 21
-46.7766439187
  0
LWPOLYLINE
  5
453
100
AcDbEntity
  8
0
100
AcDbPolyline
 62
250
  6
CONTINUOUS
 90
7
 70
0
 10
31.9147866683
 20
-38.6539604132
 10
31.3874171401
 20
-38.2202337238
 10
30.8675873834
 20
-37.7866853845
 10
30.3546736319
 20
-37.3528066428
 10
29.8480519807
 20
-36.9180886332
 10
29.3470983864
 20
-36.4820223773
 10
28.8511886671
 20
-36.0440987838
  0
LWPOLYLINE
  5
454
100
AcDbEntity
  8
0
100
AcDbPolyline
 62
7
  6
CONTINUOUS
 90
3
 70
0
 10
28.5407403399
 20
-34.4575289767
 10
28.6449004972
 20
-34.5431993729
 10
28.7400738375
 20
-34.6396120666
  0
LINE
  5
455
100
AcDbEntity
  8
SUPERFICI
100
AcDbLine
 62
250
  6
CONTINUOUS
 10
49.9778965136
 20
-47.7435721519
 11
49.3897170041
 21
-47.2594002806
  0
LINE
  5
456
100
AcDbEntity
  8
SUPERFICI
100
AcDbLine
 62
250
  6
CONTINUOUS
 10
50.558854135
 20
-48.2262153242
 11
49.9778965136
 21
-47.7435721519
  0
LWPOLYLINE
  5
457
100
AcDbEntity
  8
SUPERFICI
100
AcDbPolyline
 62
250
  6
CONTINUOUS
 90
6
 70
0
 10
-37.410423313
 20
22.9799575822
 10
-38.1492948485
 20
23.6125710359
 10
-38.8774764095
 20
24.2417121415
 10
-39.5973133336
 20
24.8694707424
 10
-40.3114176073
 20
25.4981704279
 10
-41.0216882813
 20
26.1295075647
  0
LWPOLYLINE
  5
458
100
AcDbEntity
  8
SUPERFICI
100
AcDbPolyline
 62
250
  6
CONTINUOUS
 90
5
 70
0
 10
-41.0216882813
 20
26.1295075647
 10
-41.7293100467
 20
26.7645222398
 10
-42.4360441075
 20
27.4047453091
 10
-43.1442313908
 20
28.0522291101
 10
-43.8558119472
 20
28.7086661317
  0
LINE
  5
459
100
AcDbEntity
  8
0
100
AcDbLine
 62
250
  6
CONTINUOUS
 10
28.8736420796
 20
-36.0229806688
 11
28.4786502349
 21
-35.6693759485
  0
LINE
  5
45A
100
AcDbEntity
  8
0
100
AcDbLine
 62
250
  6
CONTINUOUS
 10
28.4786502349
 20
-35.6693759485
 11
28.0844465298
 21
-35.3123296383
  0
LWPOLYLINE
  5
45B
100
AcDbEntity
  8
SUPERFICI
100
AcDbPolyline
 62
250
  6
CONTINUOUS
 90
3
 70
0
 10
-37.2585840106
 20
23.618665461
 10
-38.6538484257
 20
24.8883263134
 10
-39.3365226989
 20
25.5160209084
  0
LINE
  5
45C
100
AcDbEntity
  8
0
100
AcDbLine
 62
250
  6
CONTINUOUS
 10
28.0844465298
 20
-35.3123296383
 11
27.6907345323
 21
-34.951551051
  0
LINE
  5
45D
100
AcDbEntity
  8
0
100
AcDbLine
 62
250
  6
CONTINUOUS
 10
27.6716351716
 20
-34.9767383722
 11
27.4708797575
 21
-34.7914033214
  0
LINE
  5
45E
100
AcDbEntity
  8
SUPERFICI
100
AcDbLine
 62
250
  6
CONTINUOUS
 10
-44.5937601017
 20
29.3960330426
 11
-43.8558119472
 21
28.7086661317
  0
LINE
  5
45F
100
AcDbEntity
  8
SUPERFICI
100
AcDbLine
 62
250
  6
CONTINUOUS
 10
-39.3365226989
 20
25.5160209084
 11
-40.5173653557
 21
26.6130907644
  0
LINE
  5
460
100
AcDbEntity
  8
0
100
AcDbLine
 62
250
  6
CONTINUOUS
 10
27.4908065715
 20
-34.7667484647
 11
27.1257621042
 21
-34.4265317292
  0
LWPOLYLINE
  5
461
100
AcDbEntity
  8
SUPERFICI
100
AcDbPolyline
 62
7
  6
CONTINUOUS
 90
12
 70
0
 10
-36.0710230553
 20
21.9633794071
 10
-35.9759119946
 20
21.874103914
 10
-35.8553497333
 20
21.798727681
 10
-35.7125503438
 20
21.7391864191
 10
-35.5506847958
 20
21.6973233447
 10
-35.375006584
 20
21.674852438
 10
-35.1931998765
 20
21.6724017928
 10
-35.0109786381
 20
21.6900731491
 10
-34.8341627879
 20
21.7276742219
 10
-34.6706082774
 20
21.7832001034
 10
-34.5256189702
 20
21.8543818822
 10
-34.402287796
 20
21.9396947963
  0
LINE
  5
462
100
AcDbEntity
  8
SUPERFICI
100
AcDbLine
 62
250
  6
CONTINUOUS
 10
-40.5173653557
 20
26.6130907644
 11
-41.3645335654
 21
27.4081224679
  0
LINE
  5
463
100
AcDbEntity
  8
0
100
AcDbLine
 62
250
  6
CONTINUOUS
 10
27.1257621042
 20
-34.4265317292
 11
26.9422123005
 21
-34.2541021216
  0
LINE
  5
464
100
AcDbEntity
  8
0
100
AcDbLine
 62
250
  6
CONTINUOUS
 10
26.9224018965
 20
-34.2795468765
 11
26.5379580489
 21
-33.9159571016
  0
LWPOLYLINE
  5
465
100
AcDbEntity
  8
SUPERFICI
100
AcDbPolyline
 62
250
  6
CONTINUOUS
 90
3
 70
0
 10
-41.3645335654
 20
27.4081224679
 10
-42.710382038
 20
28.6866494443
 10
-43.389541194
 20
29.3384056864
  0
LINE
  5
466
100
AcDbEntity
  8
SUPERFICI
100
AcDbLine
 62
250
  6
CONTINUOUS
 10
-36.9178487133
 20
24.1240190811
 11
-38.2553481935
 21
25.4032900522
  0
LINE
  5
467
100
AcDbEntity
  8
0
100
AcDbLine
 62
250
  6
CONTINUOUS
 10
26.5379580489
 20
-33.9159571016
 11
26.1514300044
 21
-33.5464033271
  0
LINE
  5
468
100
AcDbEntity
  8
SUPERFICI
100
AcDbLine
 62
250
  6
CONTINUOUS
 10
-38.2553481935
 20
25.4032900522
 11
-39.5607061507
 21
26.665666229
  0
LINE
  5
469
100
AcDbEntity
  8
SUPERFICI
100
AcDbLine
 62
250
  6
CONTINUOUS
 10
-44.8502244828
 20
30.7561823883
 11
-43.389541194
 21
29.3384056864
  0
LINE
  5
46A
100
AcDbEntity
  8
SUPERFICI
100
AcDbLine
 62
250
  6
CONTINUOUS
 10
-39.5607061507
 20
26.665666229
 11
-40.8574110091
 21
27.9343237506
  0
LINE
  5
46B
100
AcDbEntity
  8
SUPERFICI
100
AcDbLine
 62
250
  6
CONTINUOUS
 10
-40.8574110091
 20
27.9343237506
 11
-42.1517656658
 21
29.2151242193
  0
LINE
  5
46C
100
AcDbEntity
  8
SUPERFICI
100
AcDbLine
 62
250
  6
CONTINUOUS
 10
-43.5188073447
 20
30.582648226
 11
-42.1517656658
 21
29.2151242193
  0
LINE
  5
46D
100
AcDbEntity
  8
SUPERFICI
100
AcDbLine
 62
250
  6
CONTINUOUS
 10
-45.6375854942
 20
32.7346680925
 11
-43.5188073447
 21
30.582648226
  0
LINE
  5
46E
100
AcDbEntity
  8
SUPERFICI
100
AcDbLine
 62
250
  6
CONTINUOUS
 10
-37.9673374311
 20
26.5119338292
 11
-36.1057914214
 21
24.6016747818
  0
LINE
  5
46F
100
AcDbEntity
  8
SUPERFICI
100
AcDbLine
 62
250
  6
CONTINUOUS
 10
-39.8091530439
 20
28.4200828552
 11
-37.9673374311
 21
26.5119338292
  0
LWPOLYLINE
  5
470
100
AcDbEntity
  8
0
100
AcDbPolyline
 62
250
  6
CONTINUOUS
 90
6
 70
0
 10
23.6560777568
 20
-35.1192240871
 10
24.0779597609
 20
-35.5595655173
 10
24.5052992135
 20
-35.9929889039
 10
24.9375430614
 20
-36.4189993054
 10
25.3741390374
 20
-36.8371025265
 10
25.8145356696
 20
-37.2468051306
  0
LINE
  5
471
100
AcDbEntity
  8
SUPERFICI
100
AcDbLine
 62
250
  6
CONTINUOUS
 10
-41.6708453973
 20
30.3673901451
 11
-39.8091530439
 21
28.4200828552
  0
LINE
  5
472
100
AcDbEntity
  8
SUPERFICI
100
AcDbLine
 62
250
  6
CONTINUOUS
 10
-47.9936268485
 20
40.2966451464
 11
-45.1404924839
 21
37.3204291129
  0
LWPOLYLINE
  5
473
100
AcDbEntity
  8
SUPERFICI
100
AcDbPolyline
 62
250
  6
CONTINUOUS
 90
3
 70
0
 10
-45.1404924839
 20
37.3204291129
 10
-44.4622263856
 20
36.6081649568
 10
-44.1232972947
 20
36.2495752278
  0
LINE
  5
474
100
AcDbEntity
  8
SUPERFICI
100
AcDbLine
 62
250
  6
CONTINUOUS
 10
-41.6708453973
 20
30.3673901451
 11
-42.9651464906
 21
31.7317798799
  0
LINE
  5
475
100
AcDbEntity
  8
SUPERFICI
100
AcDbLine
 62
250
  6
CONTINUOUS
 10
-49.0438255333
 20
41.4038029465
 11
-47.9936268485
 21
40.2966451464
  0
LINE
  5
476
100
AcDbEntity
  8
SUPERFICI
100
AcDbLine
 62
250
  6
CONTINUOUS
 10
-42.9651464906
 20
31.7317798799
 11
-44.2749412462
 21
33.1204766977
  0
LINE
  5
477
100
AcDbEntity
  8
SUPERFICI
100
AcDbLine
 62
250
  6
CONTINUOUS
 10
-44.1232972947
 20
36.2495752278
 11
-43.5110277024
 21
35.5960353552
  0
LWPOLYLINE
  5
478
100
AcDbEntity
  8
SUPERFICI
100
AcDbPolyline
 62
250
  6
CONTINUOUS
 90
3
 70
0
 10
-44.2749412462
 20
33.1204766977
 10
-46.2503278628
 20
35.2269973765
 10
-46.9122760676
 20
35.9356692582
  0
LINE
  5
479
100
AcDbEntity
  8
0
100
AcDbLine
 62
250
  6
CONTINUOUS
 10
23.2402070306
 20
-34.6724602887
 11
23.6560777568
 21
-35.1192240871
  0
LWPOLYLINE
  5
47A
100
AcDbEntity
  8
SUPERFICI
100
AcDbPolyline
 62
250
  6
CONTINUOUS
 90
5
 70
0
 10
-43.5110277024
 20
35.5960353552
 10
-42.9033055996
 20
34.9401615352
 10
-42.3012068092
 20
34.2837445115
 10
-41.706848368
 20
33.6297074898
 10
-41.1201269582
 20
32.9785210949
  0
LWPOLYLINE
  5
47B
100
AcDbEntity
  8
0
100
AcDbPolyline
 62
250
  6
CONTINUOUS
 90
3
 70
0
 10
22.9235034582
 20
-34.2766769793
 10
23.090868731
 20
-34.4625445966
 10
23.2599785437
 20
-34.6481159145
  0
LINE
  5
47C
100
AcDbEntity
  8
0
100
AcDbLine
 62
250
  6
CONTINUOUS
 10
22.7579082674
 20
-34.0905572918
 11
22.9235034582
 21
-34.2766769793
  0
LINE
  5
47D
100
AcDbEntity
  8
SUPERFICI
100
AcDbLine
 62
250
  6
CONTINUOUS
 10
-41.1201269582
 20
32.9785210949
 11
-39.962831619
 21
31.6791174789
  0
LINE
  5
47E
100
AcDbEntity
  8
0
100
AcDbLine
 62
250
  6
CONTINUOUS
 10
22.5941079497
 20
-33.9042290067
 11
22.7579082674
 21
-34.0905572918
  0
LINE
  5
47F
100
AcDbEntity
  8
SUPERFICI
100
AcDbLine
 62
250
  6
CONTINUOUS
 10
-39.962831619
 20
31.6791174789
 11
-38.8342548304
 21
30.3946019916
  0
LINE
  5
480
100
AcDbEntity
  8
SUPERFICI
100
AcDbLine
 62
250
  6
CONTINUOUS
 10
-38.8962321761
 20
36.4734948552
 11
-37.5360730212
 21
34.9218963106
  0
LINE
  5
481
100
AcDbEntity
  8
0
100
AcDbLine
 62
250
  6
CONTINUOUS
 10
22.4321265526
 20
-33.7177348454
 11
22.5941079497
 21
-33.9042290067
  0
LINE
  5
482
100
AcDbEntity
  8
SUPERFICI
100
AcDbLine
 62
250
  6
CONTINUOUS
 10
-37.5360730212
 20
34.9218963106
 11
-37.0004064745
 21
34.3051026918
  0
LINE
  5
483
100
AcDbEntity
  8
SUPERFICI
100
AcDbLine
 62
250
  6
CONTINUOUS
 10
-37.6641782552
 20
29.0466073203
 11
-38.8342548304
 21
30.3946019916
  0
LINE
  5
484
100
AcDbEntity
  8
SUPERFICI
100
AcDbLine
 62
250
  6
CONTINUOUS
 10
-39.4419546731
 20
37.1028822219
 11
-38.8962321761
 21
36.4734948552
  0
LINE
  5
485
100
AcDbEntity
  8
0
100
AcDbLine
 62
250
  6
CONTINUOUS
 10
22.2719873865
 20
-33.5311167851
 11
22.4321265526
 21
-33.7177348454
  0
LINE
  5
486
100
AcDbEntity
  8
SUPERFICI
100
AcDbLine
 62
250
  6
CONTINUOUS
 10
-36.5205571196
 20
27.7136846482
 11
-37.6641782552
 21
29.0466073203
  0
LINE
  5
487
100
AcDbEntity
  8
SUPERFICI
100
AcDbLine
 62
250
  6
CONTINUOUS
 10
-39.787616947
 20
37.5069890789
 11
-39.4419546731
 21
37.1028822219
  0
LINE
  5
488
100
AcDbEntity
  8
0
100
AcDbLine
 62
250
  6
CONTINUOUS
 10
22.1456268377
 20
-33.4311457264
 11
22.252312739
 21
-33.5565366638
  0
LINE
  5
489
100
AcDbEntity
  8
SUPERFICI
100
AcDbLine
 62
250
  6
CONTINUOUS
 10
-40.1296416249
 20
37.911516581
 11
-39.787616947
 21
37.5069890789
  0
LINE
  5
48A
100
AcDbEntity
  8
0
100
AcDbLine
 62
250
  6
CONTINUOUS
 10
22.0926897908
 20
-33.3683980003
 11
22.1456268377
 21
-33.4311457264
  0
LINE
  5
48B
100
AcDbEntity
  8
SUPERFICI
100
AcDbLine
 62
250
  6
CONTINUOUS
 10
-40.4692576556
 20
38.3179297158
 11
-40.1296416249
 21
37.911516581
  0
LWPOLYLINE
  5
48C
100
AcDbEntity
  8
SUPERFICI
100
AcDbPolyline
 62
250
  6
CONTINUOUS
 90
3
 70
0
 10
-40.9770285043
 20
38.934501376
 10
-40.8077849001
 20
38.7278036875
 10
-40.4692576556
 20
38.3179297158
  0
LWPOLYLINE
  5
48D
100
AcDbEntity
  8
SUPERFICI
100
AcDbPolyline
 62
250
  6
CONTINUOUS
 90
10
 70
0
 10
-32.7340038318
 20
28.987446709
 10
-33.172526303
 20
29.5725644923
 10
-33.6191094308
 20
30.1585533717
 10
-34.0742305857
 20
30.7457754618
 10
-34.5389590217
 20
31.335349381
 10
-35.0133040717
 20
31.9270495731
 10
-35.4961804105
 20
32.5193803227
 10
-35.9876197313
 20
33.112332964
 10
-36.4888077427
 20
33.7073158294
 10
-37.0004064745
 20
34.3051026918
  0
LWPOLYLINE
  5
48E
100
AcDbEntity
  8
SUPERFICI
100
AcDbPolyline
 62
250
  6
CONTINUOUS
 90
10
 70
0
 10
13.5329674258
 20
-33.6330411282
 10
13.1557282662
 20
-33.1257932512
 10
12.7851607598
 20
-32.6017273016
 10
12.4236299205
 20
-32.0647258688
 10
12.0733829358
 20
-31.518519369
 10
11.7364495116
 20
-30.9665309748
 10
11.4146563855
 20
-30.411871844
 10
11.1097681828
 20
-29.8575698217
 10
10.8234804817
 20
-29.3065841052
 10
10.5573271898
 20
-28.7616427507
  0
LINE
  5
48F
100
AcDbEntity
  8
SUPERFICI
100
AcDbLine
 62
250
  6
CONTINUOUS
 10
-23.0136353381
 20
30.54955604
 11
-22.7300761404
 21
30.0366687306
  0
LINE
  5
490
100
AcDbEntity
  8
SUPERFICI
100
AcDbLine
 62
250
  6
CONTINUOUS
 10
-22.7300640975
 20
30.0366779119
 11
-22.4539490069
 21
29.5243196286
  0
LWPOLYLINE
  5
491
100
AcDbEntity
  8
SUPERFICI
100
AcDbPolyline
 62
250
  6
CONTINUOUS
 90
5
 70
0
 10
-24.0231701447
 20
32.3716354855
 10
-23.8786108205
 20
32.1025402525
 10
-23.7345063628
 20
31.838893078
 10
-23.5905359664
 20
31.5789497947
 10
-23.0136353381
 20
30.54955604
  0
LWPOLYLINE
  5
492
100
AcDbEntity
  8
SUPERFICI
100
AcDbPolyline
 62
250
  6
CONTINUOUS
 90
9
 70
0
 10
-22.4539490069
 20
29.5243196286
 10
-22.1847274258
 20
29.0119642439
 10
-21.922338831
 20
28.4996929886
 10
-21.6679936526
 20
27.9898164892
 10
-21.4203759052
 20
27.4801794465
 10
-21.1755566735
 20
26.964233409
 10
-20.9320948207
 20
26.4399352598
 10
-20.691123534
 20
25.9096747403
 10
-20.4524925623
 20
25.3736301195
  0
LWPOLYLINE
  5
493
100
AcDbEntity
  8
SUPERFICI
100
AcDbPolyline
 62
250
  6
CONTINUOUS
 90
10
 70
0
 10
-24.8195529281
 20
33.966878003
 10
-24.7353113083
 20
33.7877822736
 10
-24.650033226
 20
33.6091818575
 10
-24.5637210354
 20
33.4310764951
 10
-24.4763746196
 20
33.2534576285
 10
-24.3879987725
 20
33.0763332276
 10
-24.2986033029
 20
32.899727722
 10
-24.208193142
 20
32.7236489316
 10
-24.1167682393
 20
32.5480881349
 10
-24.0243310179
 20
32.3730448479
  0
LINE
  5
494
100
AcDbEntity
  8
SUPERFICI
100
AcDbLine
 62
250
  6
CONTINUOUS
 10
-2.250961493
 20
-31.5895730604
 11
-2.3170881338
 21
-31.3178739019
  0
LWPOLYLINE
  5
495
100
AcDbEntity
  8
SUPERFICI
100
AcDbPolyline
 62
250
  6
CONTINUOUS
 90
9
 70
0
 10
-2.8509507366
 20
-28.6018118981
 10
-2.9148213533
 20
-28.1804807024
 10
-2.9763283197
 20
-27.7414313339
 10
-3.0349222454
 20
-27.2898735756
 10
-3.0899072632
 20
-26.8324090412
 10
-3.1410982736
 20
-26.3716287696
 10
-3.1886968022
 20
-25.9057232744
 10
-3.2324296457
 20
-25.4361630464
 10
-3.2716694998
 20
-24.9681105213
  0
LWPOLYLINE
  5
496
100
AcDbEntity
  8
SUPERFICI
100
AcDbPolyline
 62
250
  6
CONTINUOUS
 90
6
 70
0
 10
-4.6137704447
 20
13.3368065246
 10
-4.6102737937
 20
13.1956995782
 10
-4.5916454681
 20
13.0750804044
 10
-4.5587430421
 20
12.9798733368
 10
-4.5127420936
 20
12.9128216679
 10
-4.4521427985
 20
12.875169753
  0
LWPOLYLINE
  5
497
100
AcDbEntity
  8
SUPERFICI
100
AcDbPolyline
 62
250
  6
CONTINUOUS
 90
10
 70
0
 10
12.3154064073
 20
15.3109958833
 10
11.9617140219
 20
14.871700493
 10
11.6154453615
 20
14.4189910689
 10
11.2787863516
 20
13.9561840994
 10
10.9538121391
 20
13.486464922
 10
10.6423946138
 20
13.0127543345
 10
10.346217117
 20
12.5377054758
 10
10.0669047257
 20
12.0639001244
 10
9.8060166628
 20
11.5938603536
 10
9.564961176
 20
11.129909437
  0
LWPOLYLINE
  5
498
100
AcDbEntity
  8
SUPERFICI
100
AcDbPolyline
 62
250
  6
CONTINUOUS
 90
8
 70
0
 10
14.6029290035
 20
17.7148313518
 10
14.2521149973
 20
17.3908686745
 10
13.9128596066
 20
17.0632811591
 10
13.583582174
 20
16.7308030372
 10
13.2595216691
 20
16.3895544555
 10
12.9392225911
 20
16.0383818265
 10
12.6244484218
 20
15.6787853525
 10
12.3153494302
 20
15.3109432971
  0
LINE
  5
499
100
AcDbEntity
  8
SUPERFICI
100
AcDbLine
 62
250
  6
CONTINUOUS
 10
14.963615392
 20
18.0337481014
 11
14.6029290035
 21
17.7148313518
  0
LINE
  5
49A
100
AcDbEntity
  8
SUPERFICI
100
AcDbLine
 62
250
  6
CONTINUOUS
 10
15.3341136301
 20
18.3475376959
 11
14.963615392
 21
18.0337481014
  0
LWPOLYLINE
  5
49B
100
AcDbEntity
  8
SUPERFICI
100
AcDbPolyline
 62
250
  6
CONTINUOUS
 90
10
 70
0
 10
17.0940434947
 20
19.7450787486
 10
17.2245404909
 20
19.8516572538
 10
17.3545929229
 20
19.9592004179
 10
17.4842032125
 20
20.067708724
 10
17.6133782617
 20
20.1771887499
 10
17.742116047
 20
20.287634818
 10
17.8704055154
 20
20.3990289266
 10
17.9982445065
 20
20.5113652479
 10
18.1256398556
 20
20.6246501963
 10
18.2525939159
 20
20.7388840306
  0
LWPOLYLINE
  5
49C
100
AcDbEntity
  8
RACCORDO
100
AcDbPolyline
 62
7
  6
CONTINUOUS
 90
6
 70
0
 10
-22.5355740074
 20
-12.6367379989
 10
-22.5211431963
 20
-12.6258978088
 10
-22.5047865235
 20
-12.6183587681
 10
-22.4870585459
 20
-12.6141436876
 10
-22.4685774084
 20
-12.6135036944
 10
-22.4496946135
 20
-12.6160620345
  0
LINE
  5
49D
100
AcDbEntity
  8
SUPERFICI
100
AcDbLine
 62
250
  6
CONTINUOUS
 10
27.2660055486
 20
12.801676948
 11
27.8351363152
 21
13.0709465073
  0
LINE
  5
49E
100
AcDbEntity
  8
SUPERFICI
100
AcDbLine
 62
250
  6
CONTINUOUS
 10
27.8351363152
 20
13.0709465073
 11
28.4150480106
 21
13.3348976308
  0
LINE
  5
49F
100
AcDbEntity
  8
SUPERFICI
100
AcDbLine
 62
250
  6
CONTINUOUS
 10
28.4150480106
 20
13.3348976308
 11
29.0066345048
 21
13.5943000323
  0
LINE
  5
4A0
100
AcDbEntity
  8
SUPERFICI
100
AcDbLine
 62
250
  6
CONTINUOUS
 10
29.0066345048
 20
13.5943000323
 11
29.6101397387
 21
13.8496492698
  0
LINE
  5
4A1
100
AcDbEntity
  8
SUPERFICI
100
AcDbLine
 62
250
  6
CONTINUOUS
 10
34.4134513999
 20
15.7828153771
 11
33.7760019292
 21
15.5179297822
  0
LINE
  5
4A2
100
AcDbEntity
  8
SUPERFICI
100
AcDbLine
 62
250
  6
CONTINUOUS
 10
33.7760019292
 20
15.5179297822
 11
33.1442646807
 21
15.2598062357
  0
LWPOLYLINE
  5
4A3
100
AcDbEntity
  8
SUPERFICI
100
AcDbPolyline
 62
250
  6
CONTINUOUS
 90
3
 70
0
 10
30.2415884118
 20
14.1080331116
 10
29.9249081894
 20
13.9794432475
 10
29.6101397387
 20
13.8496492698
  0
LINE
  5
4A4
100
AcDbEntity
  8
SUPERFICI
100
AcDbLine
 62
250
  6
CONTINUOUS
 10
33.1442646807
 20
15.2598062357
 11
32.5128718301
 21
15.006252098
  0
LINE
  5
4A5
100
AcDbEntity
  8
SUPERFICI
100
AcDbLine
 62
250
  6
CONTINUOUS
 10
30.8812700546
 20
14.3632492465
 11
30.2415884118
 21
14.1080331116
  0
LINE
  5
4A6
100
AcDbEntity
  8
SUPERFICI
100
AcDbLine
 62
250
  6
CONTINUOUS
 10
32.5128718301
 20
15.006252098
 11
30.8812700546
 21
14.3632492465
  0
LWPOLYLINE
  5
4A7
100
AcDbEntity
  8
SUPERFICI
100
AcDbPolyline
 62
250
  6
CONTINUOUS
 90
3
 70
0
 10
-53.9008161702
 20
-14.7044160274
 10
-54.1241053899
 20
-14.7830373852
 10
-54.3446693869
 20
-14.8627577579
  0
LWPOLYLINE
  5
4A8
100
AcDbEntity
  8
SUPERFICI
100
AcDbPolyline
 62
250
  6
CONTINUOUS
 90
3
 70
0
 10
-53.7269780625
 20
-15.8968156088
 10
-53.9665253336
 20
-15.9753985796
 10
-54.2037260475
 20
-16.0546418855
  0
LINE
  5
4A9
100
AcDbEntity
  8
SUPERFICI
100
AcDbLine
 62
250
  6
CONTINUOUS
 10
38.6789574389
 20
12.0770697335
 11
39.451730785
 21
12.3315084849
  0
LWPOLYLINE
  5
4AA
100
AcDbEntity
  8
SUPERFICI
100
AcDbPolyline
 62
250
  6
CONTINUOUS
 90
4
 70
0
 10
-53.2190352186
 20
-14.4765664083
 10
-53.4478362295
 20
-14.5510386011
 10
-53.6752364966
 20
-14.627032914
 10
-53.9008161702
 20
-14.7044160274
  0
LINE
  5
4AB
100
AcDbEntity
  8
SUPERFICI
100
AcDbLine
 62
250
  6
CONTINUOUS
 10
39.451730785
 20
12.3315084849
 11
40.7222088504
 21
12.7421636776
  0
LINE
  5
4AC
100
AcDbEntity
  8
SUPERFICI
100
AcDbLine
 62
250
  6
CONTINUOUS
 10
-52.9892025825
 20
-14.4037346428
 11
-53.2190352186
 21
-14.4765664083
  0
LINE
  5
4AD
100
AcDbEntity
  8
SUPERFICI
100
AcDbLine
 62
250
  6
CONTINUOUS
 10
40.7222088504
 20
12.7421636776
 11
41.9707845425
 21
13.1389653198
  0
LINE
  5
4AE
100
AcDbEntity
  8
SUPERFICI
100
AcDbLine
 62
250
  6
CONTINUOUS
 10
-53.3968234539
 20
-17.1320875913
 11
-52.9498932843
 21
-16.9911819708
  0
LINE
  5
4AF
100
AcDbEntity
  8
SUPERFICI
100
AcDbLine
 62
250
  6
CONTINUOUS
 10
41.9707845425
 20
13.1389653198
 11
42.4779642284
 21
13.2983479169
  0
LINE
  5
4B0
100
AcDbEntity
  8
SUPERFICI
100
AcDbLine
 62
250
  6
CONTINUOUS
 10
-52.9498932843
 20
-16.9911819708
 11
-52.5022567699
 21
-16.8523088282
  0
LWPOLYLINE
  5
4B1
100
AcDbEntity
  8
SUPERFICI
100
AcDbPolyline
 62
250
  6
CONTINUOUS
 90
4
 70
0
 10
-52.2980879266
 20
-14.1965626211
 10
-52.5282408439
 20
-14.2635753031
 10
-52.7587716632
 20
-14.3326839871
 10
-52.9892025825
 20
-14.4037346428
  0
LWPOLYLINE
  5
4B2
100
AcDbEntity
  8
SUPERFICI
100
AcDbPolyline
 62
250
  6
CONTINUOUS
 90
8
 70
0
 10
-52.0157453293
 20
-15.3749864653
 10
-52.2612470956
 20
-15.4456807718
 10
-52.5070603207
 20
-15.5178647527
 10
-52.752781715
 20
-15.5914126211
 10
-52.9980001253
 20
-15.6661960598
 10
-53.242338383
 20
-15.7420969458
 10
-53.4854530118
 20
-15.8190080521
 10
-53.7269780625
 20
-15.8968156088
  0
LWPOLYLINE
  5
4B3
100
AcDbEntity
  8
SUPERFICI
100
AcDbPolyline
 62
250
  6
CONTINUOUS
 90
5
 70
0
 10
-49.795488534
 20
-16.0604211609
 10
-50.1943694795
 20
-16.1715683438
 10
-50.5909721642
 20
-16.2840940566
 10
-50.9806419951
 20
-16.3965548259
 10
-51.3609253313
 20
-16.5081159207
  0
LINE
  5
4B4
100
AcDbEntity
  8
SUPERFICI
100
AcDbLine
 62
250
  6
CONTINUOUS
 10
-49.3946454427
 20
-15.9508755137
 11
-49.795488534
 21
-16.0604211609
  0
LINE
  5
4B5
100
AcDbEntity
  8
SUPERFICI
100
AcDbLine
 62
250
  6
CONTINUOUS
 10
33.1710747101
 20
4.5091345637
 11
31.7035267638
 21
4.1093563628
  0
LWPOLYLINE
  5
4B6
100
AcDbEntity
  8
SUPERFICI
100
AcDbPolyline
 62
250
  6
CONTINUOUS
 90
3
 70
0
 10
-51.6007958289
 20
-14.0047600015
 10
-51.9512292153
 20
-14.0991297655
 10
-52.2980879266
 20
-14.1965626211
  0
LINE
  5
4B7
100
AcDbEntity
  8
SUPERFICI
100
AcDbLine
 62
250
  6
CONTINUOUS
 10
31.7035267638
 20
4.1093563628
 11
30.2419961718
 21
3.7233053603
  0
LINE
  5
4B8
100
AcDbEntity
  8
SUPERFICI
100
AcDbLine
 62
250
  6
CONTINUOUS
 10
30.2419961718
 20
3.7233053603
 11
28.7626949874
 21
3.3441594787
  0
LWPOLYLINE
  5
4B9
100
AcDbEntity
  8
SUPERFICI
100
AcDbPolyline
 62
250
  6
CONTINUOUS
 90
5
 70
0
 10
-47.7539948855
 20
-15.5293450143
 10
-48.1631831902
 20
-15.6297881345
 10
-48.5755736849
 20
-15.734442394
 10
-48.9878088548
 20
-15.8420527141
 10
-49.3946454427
 20
-15.9508755137
  0
LINE
  5
4BA
100
AcDbEntity
  8
SUPERFICI
100
AcDbLine
 62
250
  6
CONTINUOUS
 10
34.3480188749
 20
3.8200290334
 11
33.5759745334
 21
3.6325702652
  0
LWPOLYLINE
  5
4BB
100
AcDbEntity
  8
SUPERFICI
100
AcDbPolyline
 62
250
  6
CONTINUOUS
 90
7
 70
0
 10
-49.7127042107
 20
-14.7749121332
 10
-50.1061128119
 20
-14.869868776
 10
-50.4953588136
 20
-14.9667676241
 10
-50.881464717
 20
-15.0658497116
 10
-51.264308118
 20
-15.1670996291
 10
-51.642617618
 20
-15.2701995824
 10
-52.0157453293
 20
-15.3749864653
  0
LWPOLYLINE
  5
4BC
100
AcDbEntity
  8
SUPERFICI
100
AcDbPolyline
 62
250
  6
CONTINUOUS
 90
7
 70
0
 10
33.5759745334
 20
3.6325702652
 10
32.8071798088
 20
3.4502749683
 10
32.0397661535
 20
3.2727133163
 10
31.2726033101
 20
3.099610038
 10
30.5036909507
 20
2.9304728568
 10
29.7301803776
 20
2.7646194612
 10
28.9495906461
 20
2.6014506106
  0
LWPOLYLINE
  5
4BD
100
AcDbEntity
  8
SUPERFICI
100
AcDbPolyline
 62
250
  6
CONTINUOUS
 90
4
 70
0
 10
-48.5140876172
 20
-14.5036681092
 10
-48.9155033083
 20
-14.5914943449
 10
-49.3153496734
 20
-14.6819923834
 10
-49.7127042107
 20
-14.7749121332
  0
LWPOLYLINE
  5
4BE
100
AcDbEntity
  8
SUPERFICI
100
AcDbPolyline
 62
250
  6
CONTINUOUS
 90
8
 70
0
 10
-49.0302344478
 20
-13.4200486563
 10
-49.4104438753
 20
-13.4962400477
 10
-49.7858159682
 20
-13.5745548176
 10
-50.1567361482
 20
-13.6552130834
 10
-50.5239859022
 20
-13.738521122
 10
-50.887517504
 20
-13.8245957839
 10
-51.2464714687
 20
-13.9133273143
 10
-51.6007958289
 20
-14.0047600015
  0
LWPOLYLINE
  5
4BF
100
AcDbEntity
  8
SUPERFICI
100
AcDbPolyline
 62
250
  6
CONTINUOUS
 90
6
 70
0
 10
-51.8583773893
 20
-5.5004487926
 10
-51.5686045516
 20
-5.4750788726
 10
-51.276032121
 20
-5.4526271814
 10
-50.9802010353
 20
-5.4328829087
 10
-50.6790856841
 20
-5.4155283403
 10
-50.3715080024
 20
-5.4003192245
  0
LINE
  5
4C0
100
AcDbEntity
  8
SUPERFICI
100
AcDbLine
 62
250
  6
CONTINUOUS
 10
30.0524085563
 20
-2.9911327541
 11
29.0974945834
 21
-2.9358742118
  0
LINE
  5
4C1
100
AcDbEntity
  8
RACCORDO
100
AcDbLine
 62
250
  6
CONTINUOUS
 10
52.1812535815
 20
-19.0166477181
 11
52.4958913264
 21
-19.1132699213
  0
LINE
  5
4C2
100
AcDbEntity
  8
RACCORDO
100
AcDbLine
 62
7
  6
CONTINUOUS
 10
52.1796154681
 20
-18.9507981355
 11
52.5861302307
 21
-19.0756348808
  0
LINE
  5
4C3
100
AcDbEntity
  8
0
100
AcDbLine
 62
7
  6
CONTINUOUS
 10
53.4210405905
 20
-19.1955311682
 11
52.7075270794
 21
-18.9764180815
  0
LWPOLYLINE
  5
4C4
100
AcDbEntity
  8
SUPERFICI
100
AcDbPolyline
 62
250
  6
CONTINUOUS
 90
10
 70
0
 10
-37.2827626544
 20
17.4488589232
 10
-38.2066993331
 20
17.9705765069
 10
-39.1435330622
 20
18.5211079257
 10
-40.0869193323
 20
19.0961301701
 10
-41.0277785333
 20
19.6895344357
 10
-41.9616662209
 20
20.2980515174
 10
-42.8882819985
 20
20.9214406273
 10
-43.8014917013
 20
21.5559664503
 10
-44.689791989
 20
22.1941885191
 10
-45.543343683
 20
22.8297165154
  0
LWPOLYLINE
  5
4C5
100
AcDbEntity
  8
SUPERFICI
100
AcDbPolyline
 62
250
  6
CONTINUOUS
 90
4
 70
0
 10
48.4133950547
 20
-36.7733698231
 10
48.0597033044
 20
-36.5398981536
 10
47.7078332288
 20
-36.3106136787
 10
47.3560683957
 20
-36.0843768996
  0
LINE
  5
4C6
100
AcDbEntity
  8
SUPERFICI
100
AcDbLine
 62
250
  6
CONTINUOUS
 10
48.8702033656
 20
-37.0796801178
 11
48.4133950547
 21
-36.773369823
  0
LWPOLYLINE
  5
4C7
100
AcDbEntity
  8
SUPERFICI
100
AcDbPolyline
 62
250
  6
CONTINUOUS
 90
5
 70
0
 10
49.9995730332
 20
-37.8618638494
 10
49.7759267236
 20
-37.7040565532
 10
49.5514896783
 20
-37.5471645936
 10
49.3256584999
 20
-37.3907653849
 10
48.8702033656
 20
-37.0796801178
  0
LINE
  5
4C8
100
AcDbEntity
  8
SUPERFICI
100
AcDbLine
 62
250
  6
CONTINUOUS
 10
50.4469126768
 20
-38.1819163969
 11
49.9995730332
 21
-37.8618638494
  0
LINE
  5
4C9
100
AcDbEntity
  8
SUPERFICI
100
AcDbLine
 62
250
  6
CONTINUOUS
 10
49.5241277673
 20
-46.1644194857
 11
48.9692437469
 21
-45.7089899048
  0
LINE
  5
4CA
100
AcDbEntity
  8
SUPERFICI
100
AcDbLine
 62
250
  6
CONTINUOUS
 10
50.0735426815
 20
-46.6220890903
 11
49.5241277673
 21
-46.1644194857
  0
LINE
  5
4CB
100
AcDbEntity
  8
SUPERFICI
100
AcDbLine
 62
250
  6
CONTINUOUS
 10
50.6204865534
 20
-47.0847277924
 11
50.0735426815
 21
-46.6220890903
  0
LWPOLYLINE
  5
4CC
100
AcDbEntity
  8
SUPERFICI
100
AcDbPolyline
 62
7
  6
CONTINUOUS
 90
10
 70
0
 10
26.2482185621
 20
-32.7915268849
 10
26.299102701
 20
-32.8474356663
 10
26.3461718252
 20
-32.9149730787
 10
26.3891690279
 20
-32.9938608026
 10
26.4281013436
 20
-33.0842570125
 10
26.4623803601
 20
-33.1854773986
 10
26.4910482916
 20
-33.295559745
 10
26.5138318752
 20
-33.4132141528
 10
26.5309160135
 20
-33.5382576196
 10
26.5422431806
 20
-33.6700296891
  0
LINE
  5
4CD
100
AcDbEntity
  8
0
100
AcDbLine
 62
250
  6
CONTINUOUS
 10
21.9211644456
 20
-33.1141648074
 11
22.1125032185
 21
-33.3429802732
  0
LINE
  5
4CE
100
AcDbEntity
  8
0
100
AcDbLine
 62
250
  6
CONTINUOUS
 10
21.732505613
 20
-32.8851259269
 11
21.9211644456
 21
-33.1141648074
  0
LINE
  5
4CF
100
AcDbEntity
  8
0
100
AcDbLine
 62
250
  6
CONTINUOUS
 10
21.546570333
 20
-32.65593228
 11
21.732505613
 21
-32.8851259269
  0
LINE
  5
4D0
100
AcDbEntity
  8
0
100
AcDbLine
 62
250
  6
CONTINUOUS
 10
21.3328872996
 20
-32.4393343575
 11
21.5269181396
 21
-32.6821246512
  0
LINE
  5
4D1
100
AcDbEntity
  8
0
100
AcDbLine
 62
250
  6
CONTINUOUS
 10
21.1421776111
 20
-32.1967125582
 11
21.3328872996
 21
-32.4393343575
  0
LINE
  5
4D2
100
AcDbEntity
  8
0
100
AcDbLine
 62
250
  6
CONTINUOUS
 10
20.9548302681
 20
-31.954338185
 11
21.1421776111
 21
-32.1967125582
  0
LWPOLYLINE
  5
4D3
100
AcDbEntity
  8
RACCORDO
100
AcDbPolyline
 62
7
  6
CONTINUOUS
 90
4
 70
0
 10
2.858190852
 20
-20.5859982651
 10
2.8578938824
 20
-20.5835605519
 10
2.8553740974
 20
-20.5793496381
 10
2.8511780758
 20
-20.5769951989
  0
LINE
  5
4D4
100
AcDbEntity
  8
RACCORDO
100
AcDbLine
 62
250
  6
CONTINUOUS
 10
2.8402441713
 20
-20.6217626806
 11
2.8571835343
 21
-21.3026984144
  0
LINE
  5
4D5
100
AcDbEntity
  8
RACCORDO
100
AcDbLine
 62
7
  6
CONTINUOUS
 10
2.8579816593
 20
-20.5859577563
 11
2.874477252
 21
-21.2490546261
  0
LWPOLYLINE
  5
4D6
100
AcDbEntity
  8
RACCORDO
100
AcDbPolyline
 62
250
  6
CONTINUOUS
 90
5
 70
0
 10
2.874477252
 20
-21.2490546261
 10
2.8742971918
 20
-21.2567520835
 10
2.8715936174
 20
-21.2725377567
 10
2.8658390441
 20
-21.2879301132
 10
2.8571835343
 20
-21.3026984144
  0
LWPOLYLINE
  5
4D7
100
AcDbEntity
  8
RACCORDO
100
AcDbPolyline
 62
250
  6
CONTINUOUS
 90
3
 70
0
 10
2.8571835343
 20
-21.3026984144
 10
2.8560622488
 20
-21.322614538
 10
2.8518338496
 20
-21.3413566794
  0
LWPOLYLINE
  5
4D8
100
AcDbEntity
  8
SUPERFICI
100
AcDbPolyline
 62
250
  6
CONTINUOUS
 90
7
 70
0
 10
-20.5933004607
 20
-24.9255581465
 10
-20.3565917611
 20
-24.7264759505
 10
-20.1268209675
 20
-24.5186935384
 10
-19.9002855864
 20
-24.2996575514
 10
-19.6756211659
 20
-24.0683284988
 10
-19.4538861049
 20
-23.8253230156
 10
-19.2349306362
 20
-23.5704433784
  0
LWPOLYLINE
  5
4D9
100
AcDbEntity
  8
SUPERFICI
100
AcDbPolyline
 62
250
  6
CONTINUOUS
 90
10
 70
0
 10
24.6048854728
 20
11.3792293003
 10
24.0386762985
 20
11.0345360747
 10
23.4811929163
 20
10.6775965505
 10
22.9336645531
 20
10.3092107447
 10
22.3957043257
 20
9.9290094352
 10
21.8702008656
 20
9.5388824057
 10
21.3629462958
 20
9.1432821892
 10
20.8762248097
 20
8.7444671916
 10
20.4091844447
 20
8.3421393642
 10
19.962468259
 20
7.9370525565
  0
LWPOLYLINE
  5
4DA
100
AcDbEntity
  8
SUPERFICI
100
AcDbPolyline
 62
250
  6
CONTINUOUS
 90
6
 70
0
 10
24.6048854728
 20
11.3792293003
 10
25.112081863
 20
11.6739259833
 10
25.631402333
 20
11.9632952255
 10
26.1631013971
 20
12.2474743866
 10
26.7080916785
 20
12.5269734698
 10
27.2660055486
 20
12.801676948
  0
LINE
  5
4DB
100
AcDbEntity
  8
SUPERFICI
100
AcDbLine
 62
250
  6
CONTINUOUS
 10
26.9285760339
 20
7.2501857803
 11
27.5373957949
 21
7.5514329764
  0
LWPOLYLINE
  5
4DC
100
AcDbEntity
  8
SUPERFICI
100
AcDbPolyline
 62
250
  6
CONTINUOUS
 90
6
 70
0
 10
27.5373957949
 20
7.5514329764
 10
28.1570518577
 20
7.8518175252
 10
28.7849979556
 20
8.1498328441
 10
29.421265833
 20
8.4453173618
 10
30.0686295568
 20
8.7393978433
 10
30.7285085991
 20
9.0325512635
  0
LWPOLYLINE
  5
4DD
100
AcDbEntity
  8
SUPERFICI
100
AcDbPolyline
 62
250
  6
CONTINUOUS
 90
9
 70
0
 10
-31.5243536349
 20
-19.6385877219
 10
-31.0537015851
 20
-19.4136409131
 10
-30.5874555575
 20
-19.1710345309
 10
-30.1266536164
 20
-18.911329039
 10
-29.6709604372
 20
-18.6342198253
 10
-29.2228062716
 20
-18.3410222597
 10
-28.7871628534
 20
-18.0351608131
 10
-28.366075988
 20
-17.7185951579
 10
-27.9588973568
 20
-17.3912824395
  0
LINE
  5
4DE
100
AcDbEntity
  8
SUPERFICI
100
AcDbLine
 62
250
  6
CONTINUOUS
 10
-33.3009739246
 20
-15.691578253
 11
-32.7637287622
 21
-15.4541288374
  0
LWPOLYLINE
  5
4DF
100
AcDbEntity
  8
SUPERFICI
100
AcDbPolyline
 62
250
  6
CONTINUOUS
 90
7
 70
0
 10
-31.5243536349
 20
-19.6385877219
 10
-31.943727096
 20
-19.8232300146
 10
-32.3713915639
 20
-19.9977414911
 10
-32.8078056225
 20
-20.1625152384
 10
-33.2539945006
 20
-20.3182023708
 10
-33.7099643637
 20
-20.4651557768
 10
-34.1746625842
 20
-20.603556777
  0
LWPOLYLINE
  5
4E0
100
AcDbEntity
  8
SUPERFICI
100
AcDbPolyline
 62
250
  6
CONTINUOUS
 90
9
 70
0
 10
30.7285085991
 20
9.0325512635
 10
31.3588884617
 20
9.3064094903
 10
32.0016009882
 20
9.5794863306
 10
32.655060912
 20
9.8510096169
 10
33.3164572753
 20
10.1197141997
 10
33.9853819299
 20
10.385322034
 10
34.6639415703
 20
10.6484739889
 10
35.3518142891
 20
10.9087620643
 10
36.0461364453
 20
11.1647970592
  0
LWPOLYLINE
  5
4E1
100
AcDbEntity
  8
SUPERFICI
100
AcDbPolyline
 62
250
  6
CONTINUOUS
 90
3
 70
0
 10
-34.371898843
 20
-16.1386888838
 10
-33.8366567726
 20
-15.9196221534
 10
-33.3009739246
 20
-15.691578253
  0
LINE
  5
4E2
100
AcDbEntity
  8
SUPERFICI
100
AcDbLine
 62
250
  6
CONTINUOUS
 10
-34.9073109202
 20
-16.3490119204
 11
-34.371898843
 21
-16.1386888838
  0
LINE
  5
4E3
100
AcDbEntity
  8
SUPERFICI
100
AcDbLine
 62
250
  6
CONTINUOUS
 10
39.4835193953
 20
9.4018595019
 11
44.853410039
 21
11.4366970648
  0
LINE
  5
4E4
100
AcDbEntity
  8
SUPERFICI
100
AcDbLine
 62
250
  6
CONTINUOUS
 10
44.853410039
 20
11.4366970648
 11
46.4294057118
 21
12.0263905805
  0
LINE
  5
4E5
100
AcDbEntity
  8
SUPERFICI
100
AcDbLine
 62
250
  6
CONTINUOUS
 10
39.4835193953
 20
9.4018595019
 11
32.9149320395
 21
6.9975386185
  0
LINE
  5
4E6
100
AcDbEntity
  8
SUPERFICI
100
AcDbLine
 62
250
  6
CONTINUOUS
 10
32.9149320395
 20
6.9975386185
 11
28.8804079174
 21
5.5399446721
  0
LINE
  5
4E7
100
AcDbEntity
  8
SUPERFICI
100
AcDbLine
 62
250
  6
CONTINUOUS
 10
28.8804079174
 20
5.5399446721
 11
27.5393394125
 21
5.056871694
  0
LINE
  5
4E8
100
AcDbEntity
  8
SUPERFICI
100
AcDbLine
 62
250
  6
CONTINUOUS
 10
36.0461364453
 20
11.1647970592
 11
36.7452085531
 21
11.4156405326
  0
LINE
  5
4E9
100
AcDbEntity
  8
SUPERFICI
100
AcDbLine
 62
250
  6
CONTINUOUS
 10
36.7452085531
 20
11.4156405326
 11
37.1318942809
 21
11.5514029357
  0
LWPOLYLINE
  5
4EA
100
AcDbEntity
  8
SUPERFICI
100
AcDbPolyline
 62
250
  6
CONTINUOUS
 90
4
 70
0
 10
40.2452880245
 20
7.8625061581
 10
39.4828146954
 20
7.5949942661
 10
38.7143657637
 20
7.3304674068
 10
37.9404377361
 20
7.0686668588
  0
LINE
  5
4EB
100
AcDbEntity
  8
SUPERFICI
100
AcDbLine
 62
250
  6
CONTINUOUS
 10
37.1318942809
 20
11.5514029357
 11
37.9061190476
 21
11.8176212641
  0
LINE
  5
4EC
100
AcDbEntity
  8
SUPERFICI
100
AcDbLine
 62
250
  6
CONTINUOUS
 10
37.9061190476
 20
11.8176212641
 11
38.6789574389
 21
12.0770697335
  0
LINE
  5
4ED
100
AcDbEntity
  8
SUPERFICI
100
AcDbLine
 62
250
  6
CONTINUOUS
 10
37.9404377361
 20
7.0686668588
 11
36.6026975353
 21
6.6259053758
  0
LINE
  5
4EE
100
AcDbEntity
  8
SUPERFICI
100
AcDbLine
 62
250
  6
CONTINUOUS
 10
36.6026975353
 20
6.6259053758
 11
35.5779618882
 21
6.2927966807
  0
LINE
  5
4EF
100
AcDbEntity
  8
SUPERFICI
100
AcDbLine
 62
250
  6
CONTINUOUS
 10
35.5779618882
 20
6.2927966807
 11
34.0582383877
 21
5.8072316588
  0
LINE
  5
4F0
100
AcDbEntity
  8
SUPERFICI
100
AcDbLine
 62
250
  6
CONTINUOUS
 10
34.0582383877
 20
5.8072316588
 11
32.6286916665
 21
5.3575855466
  0
LWPOLYLINE
  5
4F1
100
AcDbEntity
  8
SUPERFICI
100
AcDbPolyline
 62
250
  6
CONTINUOUS
 90
6
 70
0
 10
-37.6479767613
 20
-17.2919096851
 10
-37.0867869837
 20
-17.1162995782
 10
-36.5331034123
 20
-16.9345110994
 10
-35.9858528876
 20
-16.7462010771
 10
-35.4444491959
 20
-16.5512059641
 10
-34.9073109202
 20
-16.3490119204
  0
LINE
  5
4F2
100
AcDbEntity
  8
SUPERFICI
100
AcDbLine
 62
250
  6
CONTINUOUS
 10
32.6286916665
 20
5.3575855466
 11
31.2146338959
 21
4.9201494455
  0
LINE
  5
4F3
100
AcDbEntity
  8
SUPERFICI
100
AcDbLine
 62
250
  6
CONTINUOUS
 10
-52.5022567699
 20
-16.8523088282
 11
-52.0506997358
 21
-16.7144832475
  0
LINE
  5
4F4
100
AcDbEntity
  8
SUPERFICI
100
AcDbLine
 62
250
  6
CONTINUOUS
 10
31.2146338959
 20
4.9201494455
 11
29.8101694128
 21
4.4931390094
  0
LINE
  5
4F5
100
AcDbEntity
  8
SUPERFICI
100
AcDbLine
 62
250
  6
CONTINUOUS
 10
29.8101694128
 20
4.4931390094
 11
28.3901737257
 21
4.0685580914
  0
LWPOLYLINE
  5
4F6
100
AcDbEntity
  8
SUPERFICI
100
AcDbPolyline
 62
250
  6
CONTINUOUS
 90
8
 70
0
 10
-37.6479767613
 20
-17.2919096851
 10
-38.188092099
 20
-17.4526538613
 10
-38.736681114
 20
-17.607780802
 10
-39.2927722037
 20
-17.7572873467
 10
-39.8543560031
 20
-17.900912853
 10
-40.4214660536
 20
-18.0389327751
 10
-40.9962615696
 20
-18.1720537967
 10
-41.5788487028
 20
-18.3004043355
  0
LINE
  5
4F7
100
AcDbEntity
  8
SUPERFICI
100
AcDbLine
 62
250
  6
CONTINUOUS
 10
-52.0506997358
 20
-16.7144832475
 11
-51.3609253313
 21
-16.5081159207
  0
LWPOLYLINE
  5
4F8
100
AcDbEntity
  8
SUPERFICI
100
AcDbPolyline
 62
250
  6
CONTINUOUS
 90
9
 70
0
 10
36.2136219902
 20
5.3751598768
 10
37.0221497715
 20
5.6141280634
 10
37.8284739868
 20
5.8569315591
 10
38.6267229642
 20
6.1021575385
 10
39.4158020885
 20
6.3497790453
 10
40.1995001822
 20
6.6013459031
 10
40.9773861081
 20
6.8571559814
 10
41.7446826506
 20
7.116062428
 10
42.4990183032
 20
7.3776476982
  0
LINE
  5
4F9
100
AcDbEntity
  8
SUPERFICI
100
AcDbLine
 62
250
  6
CONTINUOUS
 10
36.2136219902
 20
5.3751598768
 11
34.6524295318
 21
4.9247564919
  0
LWPOLYLINE
  5
4FA
100
AcDbEntity
  8
SUPERFICI
100
AcDbPolyline
 62
250
  6
CONTINUOUS
 90
4
 70
0
 10
-54.0781753281
 20
-5.8171464714
 10
-54.2579101109
 20
-5.853629529
 10
-54.4364490322
 20
-5.891584139
 10
-54.6131145767
 20
-5.9308596823
  0
LWPOLYLINE
  5
4FB
100
AcDbEntity
  8
SUPERFICI
100
AcDbPolyline
 62
250
  6
CONTINUOUS
 90
7
 70
0
 10
-52.9912543059
 20
-5.6329844083
 10
-53.1741337795
 20
-5.6596810921
 10
-53.3564096117
 20
-5.6879791338
 10
-53.5380332203
 20
-5.7178820034
 10
-53.7185519599
 20
-5.7493204494
 10
-53.8983112571
 20
-5.7823580703
 10
-54.0781753281
 20
-5.8171464714
  0
LWPOLYLINE
  5
4FC
100
AcDbEntity
  8
SUPERFICI
100
AcDbPolyline
 62
250
  6
CONTINUOUS
 90
5
 70
0
 10
-52.9912543059
 20
-5.6329844083
 10
-52.7090124783
 20
-5.5948017797
 10
-52.427169953
 20
-5.5601243052
 10
-52.1443513399
 20
-5.5287619546
 10
-51.8583773893
 20
-5.5004487926
  0
LWPOLYLINE
  5
4FD
100
AcDbEntity
  8
SUPERFICI
100
AcDbPolyline
 62
250
  6
CONTINUOUS
 90
10
 70
0
 10
27.0718051891
 20
2.5732644432
 10
27.2822529248
 20
2.586674313
 10
27.4963608057
 20
2.590466266
 10
27.7129447245
 20
2.5845309158
 10
27.9318079152
 20
2.5686153466
 10
28.1505937991
 20
2.5426714429
 10
28.3648946259
 20
2.5073111236
 10
28.5725055671
 20
2.4631199983
 10
28.7733136653
 20
2.4102023282
 10
28.9662278646
 20
2.3488489179
  0
LWPOLYLINE
  5
4FE
100
AcDbEntity
  8
SUPERFICI
100
AcDbPolyline
 62
7
  6
CONTINUOUS
 90
9
 70
0
 10
-34.3090865094
 20
22.0415428171
 10
-34.3684241331
 20
22.0773184729
 10
-34.4141636967
 20
22.1451218135
 10
-34.4465879699
 20
22.241211777
 10
-34.4645541518
 20
22.3627136669
 10
-34.4672904757
 20
22.5044672396
 10
-34.4548785667
 20
22.6614980735
 10
-34.4276245363
 20
22.830086485
 10
-34.3860442238
 20
23.0060886642
  0
LWPOLYLINE
  5
4FF
100
AcDbEntity
  8
SUPERFICI
100
AcDbPolyline
 62
250
  6
CONTINUOUS
 90
9
 70
0
 10
-55.6923398318
 20
42.1462784711
 10
-55.8091797739
 20
42.2300854878
 10
-55.9090864316
 20
42.3230416237
 10
-55.9905318914
 20
42.4233563651
 10
-56.0520570812
 20
42.529441986
 10
-56.0918737161
 20
42.6387093433
 10
-56.1087191399
 20
42.7477100032
 10
-56.1024549647
 20
42.8537267358
 10
-56.0947991537
 20
42.8900534513
  0
LWPOLYLINE
  5
500
100
AcDbEntity
  8
0
100
AcDbPolyline
 62
7
  6
CONTINUOUS
 90
9
 70
0
 10
28.7400738375
 20
-34.6396120666
 10
28.8235275581
 20
-34.7455029136
 10
28.8911823488
 20
-34.8577204823
 10
28.9386407015
 20
-34.9707572789
 10
28.9647379334
 20
-35.0812787982
 10
28.9688758931
 20
-35.1859373533
 10
28.9514677152
 20
-35.2796905285
 10
28.9151145504
 20
-35.3599283481
 10
28.890529694
 20
-35.3949797416
  0
LINE
  5
501
100
AcDbEntity
  8
0
100
AcDbLine
 62
7
  6
CONTINUOUS
 10
28.7478008223
 20
-35.8837754956
 11
29.1801437146
 21
-36.5515512504
  0
LINE
  5
502
100
AcDbEntity
  8
0
100
AcDbLine
 62
7
  6
CONTINUOUS
 10
28.6124998168
 20
-36.3550290426
 11
28.2058809467
 21
-35.7256169891
  0
LINE
  5
503
100
AcDbEntity
  8
0
100
AcDbLine
 62
7
  6
CONTINUOUS
 10
28.5924727292
 20
-36.3801257791
 11
28.1857800001
 21
-35.7506771242
  0
LINE
  5
504
100
AcDbEntity
  8
0
100
AcDbLine
 62
7
  6
CONTINUOUS
 10
28.5340475945
 20
-35.5509173715
 11
28.7478008223
 21
-35.8837754956
  0
LINE
  5
505
100
AcDbEntity
  8
0
100
AcDbLine
 62
7
  6
CONTINUOUS
 10
28.2058809467
 20
-35.7256169891
 11
28.0049419789
 21
-35.4121018782
  0
LINE
  5
506
100
AcDbEntity
  8
0
100
AcDbLine
 62
7
  6
CONTINUOUS
 10
28.1857800001
 20
-35.7506771242
 11
27.9849285614
 21
-35.4371814842
  0
LINE
  5
507
100
AcDbEntity
  8
0
100
AcDbLine
 62
7
  6
CONTINUOUS
 10
18.9606418896
 20
-33.4726038263
 11
18.7323589511
 21
-32.9732731746
  0
LINE
  5
508
100
AcDbEntity
  8
0
100
AcDbLine
 62
7
  6
CONTINUOUS
 10
18.9806158872
 20
-33.447573619
 11
18.7523433739
 21
-32.9482299967
  0
LINE
  5
509
100
AcDbEntity
  8
0
100
AcDbLine
 62
7
  6
CONTINUOUS
 10
18.7323589511
 20
-32.9732731746
 11
18.5042759824
 21
-32.4636946508
  0
LINE
  5
50A
100
AcDbEntity
  8
0
100
AcDbLine
 62
7
  6
CONTINUOUS
 10
18.7523433739
 20
-32.9482299967
 11
18.5242363583
 21
-32.4386812823
  0
LINE
  5
50B
100
AcDbEntity
  8
0
100
AcDbLine
 62
7
  6
CONTINUOUS
 10
18.9179005659
 20
-32.3871862836
 11
19.1517311843
 21
-32.9140200423
  0
LINE
  5
50C
100
AcDbEntity
  8
0
100
AcDbLine
 62
7
  6
CONTINUOUS
 10
18.5242363583
 20
-32.4386812823
 11
18.2963100199
 21
-31.9189401407
  0
LINE
  5
50D
100
AcDbEntity
  8
0
100
AcDbLine
 62
7
  6
CONTINUOUS
 10
18.5042759824
 20
-32.4636946508
 11
18.2764148836
 21
-31.9438722509
  0
LINE
  5
50E
100
AcDbEntity
  8
0
100
AcDbLine
 62
7
  6
CONTINUOUS
 10
18.6846172643
 20
-31.8503532709
 11
18.9179005659
 21
-32.3871862836
  0
LINE
  5
50F
100
AcDbEntity
  8
0
100
AcDbLine
 62
7
  6
CONTINUOUS
 10
18.2963100199
 20
-31.9189401407
 11
18.0686250765
 21
-31.3890572317
  0
LWPOLYLINE
  5
510
100
AcDbEntity
  8
0
100
AcDbPolyline
 62
7
  6
CONTINUOUS
 90
3
 70
0
 10
18.2764148836
 20
-31.9438722509
 10
18.0488632546
 20
-31.4138219587
 10
17.9351980164
 20
-31.1449603541
  0
LINE
  5
511
100
AcDbEntity
  8
0
100
AcDbLine
 62
7
  6
CONTINUOUS
 10
18.4518812793
 20
-31.3035210043
 11
18.6846172643
 21
-31.8503532709
  0
LINE
  5
512
100
AcDbEntity
  8
0
100
AcDbLine
 62
7
  6
CONTINUOUS
 10
18.0686250765
 20
-31.3890572317
 11
17.954869333
 21
-31.1203094482
  0
LWPOLYLINE
  5
513
100
AcDbEntity
  8
RACCORDO
100
AcDbPolyline
 62
250
  6
CONTINUOUS
 90
3
 70
0
 10
2.8518338496
 20
-21.3413566794
 10
2.8445707138
 20
-21.3586040315
 10
2.8380744629
 20
-21.369163925
  0
LINE
  5
514
100
AcDbEntity
  8
DRAFT
100
AcDbLine
 62
7
  6
CONTINUOUS
 10
-4.8353342617
 20
-20.4008637402
 11
-4.744553225
 21
-20.2843112905
  0
LINE
  5
515
100
AcDbEntity
  8
DRAFT
100
AcDbLine
 62
7
  6
CONTINUOUS
 10
-4.744553225
 20
-20.2843112905
 11
-4.3355840606
 21
-19.7780954171
  0
LINE
  5
516
100
AcDbEntity
  8
RACCORDO
100
AcDbLine
 62
7
  6
CONTINUOUS
 10
-2.4959349021
 20
-18.9902812152
 11
-3.9987921447
 21
-20.6550716402
  0
LWPOLYLINE
  5
517
100
AcDbEntity
  8
SUPERFICI
100
AcDbPolyline
 62
250
  6
CONTINUOUS
 90
4
 70
0
 10
-21.3491591433
 20
-25.4735282811
 10
-21.0901211546
 20
-25.299413939
 10
-20.8381885213
 20
-25.1167808267
 10
-20.5933004607
 20
-24.9255581465
  0
LWPOLYLINE
  5
518
100
AcDbEntity
  8
SUPERFICI
100
AcDbPolyline
 62
250
  6
CONTINUOUS
 90
5
 70
0
 10
-22.9911282504
 20
-26.451169253
 10
-23.0727397964
 20
-26.5040758581
 10
-23.1533001768
 20
-26.5571719695
 10
-23.2328093415
 20
-26.6104553734
 10
-23.3112650672
 20
-26.6639205939
  0
LINE
  5
519
100
AcDbEntity
  8
SUPERFICI
100
AcDbLine
 62
250
  6
CONTINUOUS
 10
-21.3491709011
 20
-25.4735489256
 11
-21.4825713865
 21
-25.558395339
  0
LWPOLYLINE
  5
51A
100
AcDbEntity
  8
SUPERFICI
100
AcDbPolyline
 62
250
  6
CONTINUOUS
 90
4
 70
0
 10
-21.4825713865
 20
-25.558395339
 10
-21.6164744296
 20
-25.6407676939
 10
-21.7510098484
 20
-25.7211757387
 10
-21.8869059375
 20
-25.8005323641
  0
LWPOLYLINE
  5
51B
100
AcDbEntity
  8
SUPERFICI
100
AcDbPolyline
 62
250
  6
CONTINUOUS
 90
6
 70
0
 10
-22.567486202
 20
-26.1898242866
 10
-22.6542805009
 20
-26.2416434613
 10
-22.7400437212
 20
-26.2936923499
 10
-22.8247735642
 20
-26.3459655205
 10
-22.9084699094
 20
-26.3984607511
 10
-22.9911282504
 20
-26.451169253
  0
LWPOLYLINE
  5
51C
100
AcDbEntity
  8
SUPERFICI
100
AcDbPolyline
 62
250
  6
CONTINUOUS
 90
4
 70
0
 10
25.1577047998
 20
6.337850573
 10
25.7403210479
 20
6.6445719922
 10
26.3303904698
 20
6.9483321504
 10
26.9285760339
 20
7.2501857803
  0
LINE
  5
51D
100
AcDbEntity
  8
SUPERFICI
100
AcDbLine
 62
250
  6
CONTINUOUS
 10
48.3095646346
 20
11.1687432524
 11
47.7706683308
 21
10.9125912272
  0
LINE
  5
51E
100
AcDbEntity
  8
SUPERFICI
100
AcDbLine
 62
250
  6
CONTINUOUS
 10
47.7706683308
 20
10.9125912272
 11
47.2351751066
 21
10.6636213625
  0
LINE
  5
51F
100
AcDbEntity
  8
SUPERFICI
100
AcDbLine
 62
250
  6
CONTINUOUS
 10
47.2351751066
 20
10.6636213625
 11
46.6992630226
 21
10.4200871283
  0
LWPOLYLINE
  5
520
100
AcDbEntity
  8
SUPERFICI
100
AcDbPolyline
 62
250
  6
CONTINUOUS
 90
3
 70
0
 10
46.6992630226
 20
10.4200871283
 10
46.1603493475
 20
10.1807714482
 10
45.8884953262
 20
10.0620983162
  0
LWPOLYLINE
  5
521
100
AcDbEntity
  8
SUPERFICI
100
AcDbPolyline
 62
250
  6
CONTINUOUS
 90
4
 70
0
 10
45.8884953262
 20
10.0620983162
 10
45.4450640138
 20
9.8716502666
 10
44.993203882
 20
9.6814559201
 10
44.5353618347
 20
9.4923338039
  0
LINE
  5
522
100
AcDbEntity
  8
SUPERFICI
100
AcDbLine
 62
250
  6
CONTINUOUS
 10
46.5433153242
 20
8.9289688607
 11
46.1097392003
 21
8.7484614033
  0
LINE
  5
523
100
AcDbEntity
  8
SUPERFICI
100
AcDbLine
 62
250
  6
CONTINUOUS
 10
46.4182299368
 20
7.5772244849
 11
46.0074818316
 21
7.4072815855
  0
LWPOLYLINE
  5
524
100
AcDbEntity
  8
SUPERFICI
100
AcDbPolyline
 62
250
  6
CONTINUOUS
 90
9
 70
0
 10
46.1097392003
 20
8.7484614033
 10
45.6711182941
 20
8.5698068792
 10
45.228087931
 20
8.3931522552
 10
44.7819953618
 20
8.2189114811
 10
44.3328566395
 20
8.0469650388
 10
43.8793688505
 20
7.8767159872
 10
43.4216504269
 20
7.7081343318
 10
42.9612311808
 20
7.5417012112
 10
42.4990183032
 20
7.3776476982
  0
LINE
  5
525
100
AcDbEntity
  8
SUPERFICI
100
AcDbLine
 62
250
  6
CONTINUOUS
 10
44.5353618347
 20
9.4923338039
 11
44.0765005115
 21
9.3061133884
  0
LWPOLYLINE
  5
526
100
AcDbEntity
  8
SUPERFICI
100
AcDbPolyline
 62
250
  6
CONTINUOUS
 90
8
 70
0
 10
46.0074818316
 20
7.4072815855
 10
45.5930061741
 20
7.2404759268
 10
45.1739017101
 20
7.0763658841
 10
44.7501838258
 20
6.9148627977
 10
44.3227964
 20
6.7561872818
 10
43.8917335077
 20
6.6001570556
 10
43.4560268377
 20
6.4462299775
 10
43.0151651338
 20
6.2940282454
  0
LWPOLYLINE
  5
527
100
AcDbEntity
  8
SUPERFICI
100
AcDbPolyline
 62
250
  6
CONTINUOUS
 90
6
 70
0
 10
44.0765005115
 20
9.3061133884
 10
43.6165971795
 20
9.122583983
 10
43.1506850307
 20
8.9396759821
 10
42.6790840516
 20
8.7575295448
 10
42.2073724361
 20
8.5783175412
 10
41.7389255715
 20
8.4033246033
  0
LWPOLYLINE
  5
528
100
AcDbEntity
  8
SUPERFICI
100
AcDbPolyline
 62
250
  6
CONTINUOUS
 90
3
 70
0
 10
41.7389255715
 20
8.4033246033
 10
40.9979653475
 20
8.1320621442
 10
40.2452880245
 20
7.8625061581
  0
LWPOLYLINE
  5
529
100
AcDbEntity
  8
SUPERFICI
100
AcDbPolyline
 62
250
  6
CONTINUOUS
 90
9
 70
0
 10
43.0151651339
 20
6.2940282454
 10
42.2642974793
 20
6.0426459283
 10
41.4991688121
 20
5.7960223657
 10
40.7222463648
 20
5.5544309007
 10
39.9382126987
 20
5.3187719784
 10
39.1476694705
 20
5.088672724
 10
38.34715628
 20
4.8626831425
 10
37.5376808598
 20
4.6407293356
 10
36.7247126103
 20
4.4239178827
  0
LINE
  5
52A
100
AcDbEntity
  8
SUPERFICI
100
AcDbLine
 62
7
  6
CONTINUOUS
 10
25.3995034758
 20
3.7055376043
 11
25.405797435
 21
3.7037135452
  0
LWPOLYLINE
  5
52B
100
AcDbEntity
  8
SUPERFICI
100
AcDbPolyline
 62
250
  6
CONTINUOUS
 90
10
 70
0
 10
-37.4140259123
 20
22.7335817637
 10
-37.2293257953
 20
22.6789735406
 10
-37.0505807712
 20
22.6153345329
 10
-36.8788252726
 20
22.5430264857
 10
-36.7143740121
 20
22.4620763082
 10
-36.5592022804
 20
22.3731819068
 10
-36.4164299194
 20
22.278042879
 10
-36.2873118432
 20
22.1778162786
 10
-36.171755777
 20
22.072786992
 10
-36.0703396721
 20
21.9636054117
  0
LWPOLYLINE
  5
52C
100
AcDbEntity
  8
SUPERFICI
100
AcDbPolyline
 62
7
  6
CONTINUOUS
 90
14
 70
0
 10
25.405797435
 20
3.7037135452
 10
25.4380243022
 20
3.6941614306
 10
25.5101743054
 20
3.6660972374
 10
25.5840056318
 20
3.6283157081
 10
25.6537873247
 20
3.5839029475
 10
25.7174567315
 20
3.5349239766
 10
25.7750941115
 20
3.4817113172
 10
25.8241172536
 20
3.4268450291
 10
25.8619516951
 20
3.3746464565
 10
25.8889765374
 20
3.3276198753
 10
25.9043579079
 20
3.2925912596
 10
25.9117625095
 20
3.2694772563
 10
25.9153905833
 20
3.2499268227
 10
25.9157065055
 20
3.2390633244
  0
LINE
  5
52D
100
AcDbEntity
  8
SUPERFICI
100
AcDbLine
 62
7
  6
CONTINUOUS
 10
-34.3073411612
 20
22.0390064666
 11
-4.4521089326
 21
12.8751593531
  0
LINE
  5
52E
100
AcDbEntity
  8
SUPERFICI
100
AcDbLine
 62
7
  6
CONTINUOUS
 10
-4.4521423997
 20
12.8751696305
 11
25.3994686704
 21
3.7036236044
  0
LINE
  5
52F
100
AcDbEntity
  8
SUPERFICI
100
AcDbLine
 62
7
  6
CONTINUOUS
 10
-34.3058835014
 20
22.0404831858
 11
-34.3090865094
 21
22.0415428171
  0
LINE
  5
530
100
AcDbEntity
  8
0
100
AcDbLine
 62
7
  6
CONTINUOUS
 10
26.2303038534
 20
-35.6795179912
 11
26.0915941296
 21
-35.3805415255
  0
LWPOLYLINE
  5
531
100
AcDbEntity
  8
0
100
AcDbPolyline
 62
7
  6
CONTINUOUS
 90
3
 70
0
 10
26.2502925399
 20
-35.6544693765
 10
26.0768678282
 20
-35.280263909
 10
26.0421910074
 20
-35.2048073825
  0
LINE
  5
532
100
AcDbEntity
  8
0
100
AcDbLine
 62
7
  6
CONTINUOUS
 10
26.5093376534
 20
-35.314822439
 11
26.7495244527
 21
-35.8349054008
  0
LINE
  5
533
100
AcDbEntity
  8
0
100
AcDbLine
 62
7
  6
CONTINUOUS
 10
26.0915941296
 20
-35.3805415255
 11
26.0222535168
 21
-35.2297918416
  0
LINE
  5
534
100
AcDbEntity
  8
0
100
AcDbLine
 62
7
  6
CONTINUOUS
 10
26.2743595906
 20
-34.7987311586
 11
26.5093376534
 21
-35.314822439
  0
LINE
  5
535
100
AcDbEntity
  8
0
100
AcDbLine
 62
7
  6
CONTINUOUS
 10
25.8430947107
 20
-34.7678799847
 11
25.6335441137
 21
-34.3017676013
  0
LWPOLYLINE
  5
536
100
AcDbEntity
  8
0
100
AcDbPolyline
 62
7
  6
CONTINUOUS
 90
3
 70
0
 10
25.8232091014
 20
-34.7927994293
 10
25.5621447945
 20
-34.2112292083
 10
25.5101684926
 20
-34.0944339405
  0
LINE
  5
537
100
AcDbEntity
  8
0
100
AcDbLine
 62
7
  6
CONTINUOUS
 10
25.6335441137
 20
-34.3017676013
 11
25.5300563832
 21
-34.0695116372
  0
LINE
  5
538
100
AcDbEntity
  8
0
100
AcDbLine
 62
7
  6
CONTINUOUS
 10
25.7072315315
 20
-33.5283650206
 11
26.2743595906
 21
-34.7987311586
  0
LINE
  5
539
100
AcDbEntity
  8
0
100
AcDbLine
 62
7
  6
CONTINUOUS
 10
22.7156890621
 20
-34.5844610891
 11
22.5676337865
 21
-34.238022652
  0
LINE
  5
53A
100
AcDbEntity
  8
0
100
AcDbLine
 62
7
  6
CONTINUOUS
 10
22.6956839627
 20
-34.6095302713
 11
22.5478460305
 21
-34.2634701357
  0
LINE
  5
53B
100
AcDbEntity
  8
0
100
AcDbLine
 62
7
  6
CONTINUOUS
 10
22.5676337865
 20
-34.238022652
 11
22.4197327275
 21
-33.8869087603
  0
LINE
  5
53C
100
AcDbEntity
  8
0
100
AcDbLine
 62
7
  6
CONTINUOUS
 10
22.5478460305
 20
-34.2634701357
 11
22.3998387767
 21
-33.9119526731
  0
LINE
  5
53D
100
AcDbEntity
  8
0
100
AcDbLine
 62
7
  6
CONTINUOUS
 10
22.4197327275
 20
-33.8869087603
 11
22.2412437744
 21
-33.456460321
  0
LINE
  5
53E
100
AcDbEntity
  8
0
100
AcDbLine
 62
7
  6
CONTINUOUS
 10
22.3998387767
 20
-33.9119526731
 11
22.2211539633
 21
-33.4808563179
  0
LINE
  5
53F
100
AcDbEntity
  8
0
100
AcDbLine
 62
7
  6
CONTINUOUS
 10
22.6747486803
 20
-33.4831360431
 11
22.8779798511
 21
-33.9754117228
  0
LINE
  5
540
100
AcDbEntity
  8
0
100
AcDbLine
 62
7
  6
CONTINUOUS
 10
22.2412437744
 20
-33.456460321
 11
22.0877200649
 21
-33.0803076764
  0
LINE
  5
541
100
AcDbEntity
  8
0
100
AcDbLine
 62
7
  6
CONTINUOUS
 10
22.2211539633
 20
-33.4808563179
 11
22.0678882399
 21
-33.1051597217
  0
LINE
  5
542
100
AcDbEntity
  8
0
100
AcDbLine
 62
7
  6
CONTINUOUS
 10
22.4720180937
 20
-32.9829794097
 11
22.6747486803
 21
-33.4831360431
  0
LINE
  5
543
100
AcDbEntity
  8
0
100
AcDbLine
 62
7
  6
CONTINUOUS
 10
22.2697880914
 20
-32.4749418227
 11
22.4720180937
 21
-32.9829794097
  0
LINE
  5
544
100
AcDbEntity
  8
DRAFT
100
AcDbLine
 62
7
  6
CONTINUOUS
 10
15.723872983
 20
-26.7117110286
 11
15.704481537
 21
-25.9322054149
  0
LWPOLYLINE
  5
545
100
AcDbEntity
  8
RACCORDO
100
AcDbPolyline
 62
7
  6
CONTINUOUS
 90
5
 70
0
 10
2.8402441713
 20
-20.6217626806
 10
2.8485759787
 20
-20.6084419628
 10
2.8544303528
 20
-20.5978018165
 10
2.8576741944
 20
-20.5896223324
 10
2.858190852
 20
-20.5859982651
  0
LINE
  5
546
100
AcDbEntity
  8
RACCORDO
100
AcDbLine
 62
7
  6
CONTINUOUS
 10
2.8359728359
 20
-20.6276584262
 11
2.0580468366
 21
-21.7415175245
  0
LINE
  5
547
100
AcDbEntity
  8
RACCORDO
100
AcDbLine
 62
250
  6
CONTINUOUS
 10
2.4610961991
 20
-21.8652900789
 11
2.8571835343
 21
-21.3026984144
  0
LINE
  5
548
100
AcDbEntity
  8
RACCORDO
100
AcDbLine
 62
7
  6
CONTINUOUS
 10
2.4838599307
 20
-21.8722806004
 11
2.8380744629
 21
-21.369163925
  0
LINE
  5
549
100
AcDbEntity
  8
DRAFT
100
AcDbLine
 62
7
  6
CONTINUOUS
 10
-0.2912053144
 20
-21.65189129
 11
-0.3819863511
 21
-21.7684437397
  0
LINE
  5
54A
100
AcDbEntity
  8
DRAFT
100
AcDbLine
 62
7
  6
CONTINUOUS
 10
0.1177638499
 20
-21.1456754166
 11
-0.2912053144
 21
-21.65189129
  0
LWPOLYLINE
  5
54B
100
AcDbEntity
  8
RACCORDO
100
AcDbPolyline
 62
7
  6
CONTINUOUS
 90
6
 70
0
 10
-2.4906863913
 20
-18.9846855507
 10
-2.4755674883
 20
-18.9734490841
 10
-2.4593513015
 20
-18.9659909502
 10
-2.4421709298
 20
-18.9620912394
 10
-2.4239005823
 20
-18.9615726416
 10
-2.4047949906
 20
-18.9640026715
  0
LINE
  5
54C
100
AcDbEntity
  8
SUPERFICI
100
AcDbLine
 62
250
  6
CONTINUOUS
 10
-22.4307828031
 20
-26.111700946
 11
-22.5663311703
 21
-26.1909988312
  0
LINE
  5
54D
100
AcDbEntity
  8
SUPERFICI
100
AcDbLine
 62
250
  6
CONTINUOUS
 10
-21.8869059375
 20
-25.8005323641
 11
-22.4307828031
 21
-26.111700946
  0
LINE
  5
54E
100
AcDbEntity
  8
SUPERFICI
100
AcDbLine
 62
250
  6
CONTINUOUS
 10
49.228292671
 20
8.8792755528
 11
48.9639493773
 21
8.7456940585
  0
LWPOLYLINE
  5
54F
100
AcDbEntity
  8
SUPERFICI
100
AcDbPolyline
 62
250
  6
CONTINUOUS
 90
3
 70
0
 10
48.9639493773
 20
8.7456940585
 10
48.6994451849
 20
8.6144680209
 10
48.4342687346
 20
8.4853188276
  0
LINE
  5
550
100
AcDbEntity
  8
SUPERFICI
100
AcDbLine
 62
250
  6
CONTINUOUS
 10
48.4342687346
 20
8.4853188276
 11
48.1677976912
 21
8.3579152761
  0
LWPOLYLINE
  5
551
100
AcDbEntity
  8
SUPERFICI
100
AcDbPolyline
 62
250
  6
CONTINUOUS
 90
10
 70
0
 10
49.1083655094
 20
10.081144962
 10
48.8283165299
 20
9.9482117794
 10
48.5460091208
 20
9.8160478472
 10
48.2618758494
 20
9.6848481006
 10
47.9763726713
 20
9.5548178857
 10
47.689927984
 20
9.4261497029
 10
47.4029426468
 20
9.2990242739
 10
47.1158584944
 20
9.173641308
 10
46.8291584004
 20
9.0502184698
 10
46.5433153242
 20
8.9289688607
  0
LWPOLYLINE
  5
552
100
AcDbEntity
  8
SUPERFICI
100
AcDbPolyline
 62
250
  6
CONTINUOUS
 90
6
 70
0
 10
48.1677976912
 20
8.3579152761
 10
47.8996676955
 20
8.2320507864
 10
47.6304610141
 20
8.1079692725
 10
47.3611782047
 20
7.9861158673
 10
47.0926114155
 20
7.8668412349
 10
46.8256579215
 20
7.7505450165
  0
LINE
  5
553
100
AcDbEntity
  8
SUPERFICI
100
AcDbLine
 62
250
  6
CONTINUOUS
 10
46.8256579215
 20
7.7505450165
 11
46.4182299368
 21
7.5772244849
  0
LWPOLYLINE
  5
554
100
AcDbEntity
  8
SUPERFICI
100
AcDbPolyline
 62
250
  6
CONTINUOUS
 90
4
 70
0
 10
47.5188243008
 20
-0.8130331963
 10
47.1738461182
 20
-0.9298332357
 10
46.8304610356
 20
-1.0416321259
 10
46.4869950052
 20
-1.1489941567
  0
LINE
  5
555
100
AcDbEntity
  8
SUPERFICI
100
AcDbLine
 62
250
  6
CONTINUOUS
 10
46.4869950052
 20
-1.1489941567
 11
46.1408021567
 21
-1.2527700042
  0
LWPOLYLINE
  5
556
100
AcDbEntity
  8
SUPERFICI
100
AcDbPolyline
 62
250
  6
CONTINUOUS
 90
6
 70
0
 10
46.1408021567
 20
-1.2527700042
 10
45.7910984436
 20
-1.3532416775
 10
45.4390618383
 20
-1.4502102809
 10
45.08409088
 20
-1.5440650697
 10
44.7237031984
 20
-1.6356961425
 10
44.3564386884
 20
-1.7257011864
  0
LWPOLYLINE
  5
557
100
AcDbEntity
  8
SUPERFICI
100
AcDbPolyline
 62
7
  6
CONTINUOUS
 90
10
 70
0
 10
-34.1461023911
 20
24.5490696683
 10
-34.3861682775
 20
24.6125635282
 10
-34.622435719
 20
24.6619155458
 10
-34.8539839375
 20
24.6963908692
 10
-35.0799621475
 20
24.716053066
 10
-35.2996941496
 20
24.7212275556
 10
-35.512644103
 20
24.7122848127
 10
-35.7182924158
 20
24.6893866755
 10
-35.9161465587
 20
24.6525131949
 10
-36.1057893616
 20
24.6016726774
  0
LINE
  5
558
100
AcDbEntity
  8
SUPERFICI
100
AcDbLine
 62
250
  6
CONTINUOUS
 10
25.3162477437
 20
4.6722334866
 11
-34.3855106341
 21
23.0060650963
  0
LINE
  5
559
100
AcDbEntity
  8
SUPERFICI
100
AcDbLine
 62
250
  6
CONTINUOUS
 10
-28.558633213
 20
22.8374127475
 11
19.9624682706
 21
7.9370525523
  0
LINE
  5
55A
100
AcDbEntity
  8
SUPERFICI
100
AcDbLine
 62
7
  6
CONTINUOUS
 10
19.962468259
 20
7.9370525565
 11
25.5495746786
 21
6.2171055694
  0
LINE
  5
55B
100
AcDbEntity
  8
SUPERFICI
100
AcDbLine
 62
7
  6
CONTINUOUS
 10
-28.5586332054
 20
22.8374127458
 11
-34.1461023911
 21
24.5490696683
  0
LWPOLYLINE
  5
55C
100
AcDbEntity
  8
SUPERFICI
100
AcDbPolyline
 62
7
  6
CONTINUOUS
 90
10
 70
0
 10
25.5495746786
 20
6.2171055694
 10
25.790250123
 20
6.132968424
 10
26.0278342423
 20
6.0368052179
 10
26.2614262573
 20
5.9284404819
 10
26.4901490213
 20
5.8084684146
 10
26.713295621
 20
5.6776391763
 10
26.9303065809
 20
5.5366596023
 10
27.1406431367
 20
5.386016542
 10
27.3437966857
 20
5.2259974842
 10
27.539337206
 20
5.0568708997
  0
LINE
  5
55D
100
AcDbEntity
  8
SUPERFICI
100
AcDbLine
 62
250
  6
CONTINUOUS
 10
25.3120568734
 20
4.6695305906
 11
25.604399594
 21
4.5328901675
  0
LWPOLYLINE
  5
55E
100
AcDbEntity
  8
0
100
AcDbPolyline
 62
7
  6
CONTINUOUS
 90
6
 70
0
 10
20.6534459537
 20
-33.9886355463
 10
20.6172305877
 20
-33.6557282572
 10
20.5822912102
 20
-33.3179573147
 10
20.5486278212
 20
-32.9753227187
 10
20.5162404208
 20
-32.6278244692
 10
20.485129009
 20
-32.2754625662
  0
LWPOLYLINE
  5
55F
100
AcDbEntity
  8
0
100
AcDbPolyline
 62
7
  6
CONTINUOUS
 90
6
 70
0
 10
20.6735569227
 20
-33.9634336947
 10
20.6373492407
 20
-33.6305533094
 10
20.6023861682
 20
-33.2928339798
 10
20.5686677052
 20
-32.9502757058
 10
20.5361938517
 20
-32.6028784875
 10
20.5049646077
 20
-32.2506423249
  0
LINE
  5
560
100
AcDbEntity
  8
0
100
AcDbLine
 62
7
  6
CONTINUOUS
 10
21.1227995957
 20
-33.7010127416
 11
21.1709552471
 21
-34.1461457407
  0
LINE
  5
561
100
AcDbEntity
  8
0
100
AcDbLine
 62
7
  6
CONTINUOUS
 10
21.7086504835
 20
-34.2783448826
 11
21.651577052
 21
-33.7494402157
  0
LINE
  5
562
100
AcDbEntity
  8
0
100
AcDbLine
 62
7
  6
CONTINUOUS
 10
21.6885402743
 20
-34.3035457822
 11
21.6316192574
 21
-33.7751038466
  0
LINE
  5
563
100
AcDbEntity
  8
0
100
AcDbLine
 62
7
  6
CONTINUOUS
 10
22.1478591664
 20
-33.9207741927
 11
22.1864257199
 21
-34.2823627385
  0
LINE
  5
564
100
AcDbEntity
  8
0
100
AcDbLine
 62
7
  6
CONTINUOUS
 10
24.1460317968
 20
-34.3808392921
 11
24.1951460802
 21
-34.8414375539
  0
LINE
  5
565
100
AcDbEntity
  8
0
100
AcDbLine
 62
7
  6
CONTINUOUS
 10
23.6983262887
 20
-34.6698551224
 11
23.6507049225
 21
-34.2226893433
  0
LINE
  5
566
100
AcDbEntity
  8
0
100
AcDbLine
 62
7
  6
CONTINUOUS
 10
23.6783447772
 20
-34.6948557757
 11
23.6307503208
 21
-34.2476250989
  0
LINE
  5
567
100
AcDbEntity
  8
0
100
AcDbLine
 62
7
  6
CONTINUOUS
 10
22.1106415319
 20
-33.5530455165
 11
22.1478591664
 21
-33.9207741927
  0
LINE
  5
568
100
AcDbEntity
  8
0
100
AcDbLine
 62
7
  6
CONTINUOUS
 10
21.0769552235
 20
-33.2473743918
 11
21.1227995957
 21
-33.7010127416
  0
LWPOLYLINE
  5
569
100
AcDbEntity
  8
0
100
AcDbPolyline
 62
7
  6
CONTINUOUS
 90
3
 70
0
 10
23.6507049225
 20
-34.2226893433
 10
23.6050899611
 20
-33.7673285832
 10
23.5830348822
 20
-33.5365750853
  0
LINE
  5
56A
100
AcDbEntity
  8
0
100
AcDbLine
 62
7
  6
CONTINUOUS
 10
24.1000611465
 20
-33.9218611547
 11
24.1460317968
 21
-34.3808392921
  0
LWPOLYLINE
  5
56B
100
AcDbEntity
  8
0
100
AcDbPolyline
 62
7
  6
CONTINUOUS
 90
3
 70
0
 10
23.6307503208
 20
-34.2476250989
 10
23.5852150181
 20
-33.7921956912
 10
23.5632195495
 20
-33.5614064633
  0
LINE
  5
56C
100
AcDbEntity
  8
0
100
AcDbLine
 62
7
  6
CONTINUOUS
 10
21.651577052
 20
-33.7494402157
 11
21.5975499561
 21
-33.2086365439
  0
LINE
  5
56D
100
AcDbEntity
  8
0
100
AcDbLine
 62
7
  6
CONTINUOUS
 10
21.6316192574
 20
-33.7751038466
 11
21.5777242505
 21
-33.2344061468
  0
LINE
  5
56E
100
AcDbEntity
  8
0
100
AcDbLine
 62
7
  6
CONTINUOUS
 10
24.0567372203
 20
-33.465021143
 11
24.1000611465
 21
-33.9218611547
  0
LINE
  5
56F
100
AcDbEntity
  8
0
100
AcDbLine
 62
7
  6
CONTINUOUS
 10
21.0333814696
 20
-32.7852919426
 11
21.0769552235
 21
-33.2473743918
  0
LWPOLYLINE
  5
570
100
AcDbEntity
  8
0
100
AcDbPolyline
 62
7
  6
CONTINUOUS
 90
3
 70
0
 10
22.0678882399
 20
-33.1051597217
 10
22.0719823108
 20
-33.1493413036
 10
22.1106415319
 20
-33.5530455165
  0
LINE
  5
571
100
AcDbEntity
  8
0
100
AcDbLine
 62
7
  6
CONTINUOUS
 10
21.5975499561
 20
-33.2086365439
 11
21.5465691958
 21
-32.6559338673
  0
LINE
  5
572
100
AcDbEntity
  8
0
100
AcDbLine
 62
7
  6
CONTINUOUS
 10
21.5777242505
 20
-33.2344061468
 11
21.5268552538
 21
-32.6814526828
  0
LINE
  5
573
100
AcDbEntity
  8
0
100
AcDbLine
 62
7
  6
CONTINUOUS
 10
24.0159357909
 20
-33.0104487574
 11
24.0567372203
 21
-33.465021143
  0
LINE
  5
574
100
AcDbEntity
  8
0
100
AcDbLine
 62
7
  6
CONTINUOUS
 10
21.5465691958
 20
-32.6559338673
 11
21.5145830743
 21
-32.2852803131
  0
LWPOLYLINE
  5
575
100
AcDbEntity
  8
0
100
AcDbPolyline
 62
7
  6
CONTINUOUS
 90
3
 70
0
 10
21.5268552538
 20
-32.6814526828
 10
21.4948628266
 20
-32.3098535328
 10
21.4886530309
 20
-32.2353171558
  0
LINE
  5
576
100
AcDbEntity
  8
0
100
AcDbLine
 62
7
  6
CONTINUOUS
 10
20.5049646077
 20
-32.2506423249
 11
20.4749799732
 21
-31.893567218
  0
LWPOLYLINE
  5
577
100
AcDbEntity
  8
0
100
AcDbPolyline
 62
7
  6
CONTINUOUS
 90
3
 70
0
 10
20.9719834543
 20
-32.0767796545
 10
20.9919156892
 20
-32.3150103993
 10
21.0333814696
 20
-32.7852919426
  0
LINE
  5
578
100
AcDbEntity
  8
0
100
AcDbLine
 62
7
  6
CONTINUOUS
 10
20.485129009
 20
-32.2754625662
 11
20.4552935856
 21
-31.9182370098
  0
LINE
  5
579
100
AcDbEntity
  8
0
100
AcDbLine
 62
7
  6
CONTINUOUS
 10
21.5145830743
 20
-32.2852803131
 11
21.5083472424
 21
-32.2106375595
  0
LWPOLYLINE
  5
57A
100
AcDbEntity
  8
SUPERFICI
100
AcDbPolyline
 62
250
  6
CONTINUOUS
 90
10
 70
0
 10
47.5188243008
 20
-0.8130331963
 10
47.7429764868
 20
-0.7346160423
 10
47.9669231332
 20
-0.6540986531
 10
48.1906044028
 20
-0.5714916631
 10
48.4134609568
 20
-0.4869980251
 10
48.635917182
 20
-0.400455193
 10
48.8590437906
 20
-0.3114527928
 10
49.0825569075
 20
-0.220109371
 10
49.3051385512
 20
-0.1269630817
 10
49.5259527492
 20
-0.0323631124
  0
LINE
  5
57B
100
AcDbEntity
  8
SUPERFICI
100
AcDbLine
 62
250
  6
CONTINUOUS
 10
-34.6783254697
 20
23.046428198
 11
-34.3854695141
 21
23.0040374014
  0
LWPOLYLINE
  5
57C
100
AcDbEntity
  8
SUPERFICI
100
AcDbPolyline
 62
250
  6
CONTINUOUS
 90
6
 70
0
 10
-35.5489796843
 20
29.7387040107
 10
-36.2300802278
 20
29.9028027808
 10
-36.899840132
 20
30.0505388678
 10
-37.5577313595
 20
30.1843545405
 10
-38.2029644072
 20
30.3005367805
 10
-38.8342548304
 20
30.3946019916
  0
LINE
  5
57D
100
AcDbEntity
  8
SUPERFICI
100
AcDbLine
 62
250
  6
CONTINUOUS
 10
-34.8580456714
 20
29.5593471886
 11
-35.5489796843
 21
29.7387040107
  0
LINE
  5
57E
100
AcDbEntity
  8
SUPERFICI
100
AcDbLine
 62
250
  6
CONTINUOUS
 10
-33.4506472073
 20
29.1825538637
 11
-34.8580456714
 21
29.5593471886
  0
LWPOLYLINE
  5
57F
100
AcDbEntity
  8
SUPERFICI
100
AcDbPolyline
 62
250
  6
CONTINUOUS
 90
4
 70
0
 10
-33.4506472073
 20
29.1825538637
 10
-31.3519715062
 20
28.6054934347
 10
-29.9760797333
 20
28.2182196809
 10
-28.6064038767
 20
27.8263793776
  0
LINE
  5
580
100
AcDbEntity
  8
SUPERFICI
100
AcDbLine
 62
250
  6
CONTINUOUS
 10
-28.6064038767
 20
27.8263793776
 11
-26.5594247566
 21
27.2289900071
  0
LWPOLYLINE
  5
581
100
AcDbEntity
  8
SUPERFICI
100
AcDbPolyline
 62
250
  6
CONTINUOUS
 90
3
 70
0
 10
-26.5594247566
 20
27.2289900071
 10
-25.8910650053
 20
27.0318789475
 10
-24.5351890756
 20
26.6248753917
  0
LINE
  5
582
100
AcDbEntity
  8
SUPERFICI
100
AcDbLine
 62
250
  6
CONTINUOUS
 10
-24.5351890756
 20
26.6248753917
 11
-4.0684604447
 21
20.3425060788
  0
LWPOLYLINE
  5
583
100
AcDbEntity
  8
SUPERFICI
100
AcDbPolyline
 62
250
  6
CONTINUOUS
 90
4
 70
0
 10
19.1099743554
 20
13.1960076485
 10
17.754635161
 20
13.6287072641
 10
16.3982893144
 20
14.0546007399
 10
-4.0684604419
 20
20.3425060779
  0
LINE
  5
584
100
AcDbEntity
  8
SUPERFICI
100
AcDbLine
 62
250
  6
CONTINUOUS
 10
21.8430655537
 20
12.3050621849
 11
20.5568531751
 21
12.7270376147
  0
LINE
  5
585
100
AcDbEntity
  8
SUPERFICI
100
AcDbLine
 62
250
  6
CONTINUOUS
 10
20.5568531751
 20
12.7270376147
 11
19.1099743554
 21
13.1960076485
  0
LINE
  5
586
100
AcDbEntity
  8
SUPERFICI
100
AcDbLine
 62
250
  6
CONTINUOUS
 10
23.2207245916
 20
11.846747161
 11
21.8430655537
 21
12.3050621849
  0
LINE
  5
587
100
AcDbEntity
  8
SUPERFICI
100
AcDbLine
 62
250
  6
CONTINUOUS
 10
25.3229850022
 20
11.1337347875
 11
23.2207245916
 21
11.846747161
  0
LWPOLYLINE
  5
588
100
AcDbEntity
  8
SUPERFICI
100
AcDbPolyline
 62
250
  6
CONTINUOUS
 90
3
 70
0
 10
27.4260400575
 20
10.3996539077
 10
26.7334134708
 20
10.6451866383
 10
25.3229850022
 20
11.1337347875
  0
LWPOLYLINE
  5
589
100
AcDbEntity
  8
SUPERFICI
100
AcDbPolyline
 62
250
  6
CONTINUOUS
 90
4
 70
0
 10
29.443173585
 20
9.6088882455
 10
28.7820064851
 20
9.8802289626
 10
28.1094048328
 20
10.1447448431
 10
27.4260400575
 20
10.3996539077
  0
LWPOLYLINE
  5
58A
100
AcDbEntity
  8
SUPERFICI
100
AcDbPolyline
 62
250
  6
CONTINUOUS
 90
3
 70
0
 10
30.7285085991
 20
9.0325512635
 10
30.0923781051
 20
9.3275991898
 10
29.443173585
 20
9.6088882455
  0
LINE
  5
58B
100
AcDbEntity
  8
SUPERFICI
100
AcDbLine
 62
250
  6
CONTINUOUS
 10
25.604399594
 20
4.5328901675
 11
25.8888309405
 21
4.3593881482
  0
LINE
  5
58C
100
AcDbEntity
  8
SUPERFICI
100
AcDbLine
 62
250
  6
CONTINUOUS
 10
25.8888309405
 20
4.3593881482
 11
26.1573588766
 21
4.1541929795
  0
LINE
  5
58D
100
AcDbEntity
  8
SUPERFICI
100
AcDbLine
 62
250
  6
CONTINUOUS
 10
26.1573588766
 20
4.1541929795
 11
26.4016768652
 21
3.9228287466
  0
LWPOLYLINE
  5
58E
100
AcDbEntity
  8
RACCORDO
100
AcDbPolyline
 62
7
  6
CONTINUOUS
 90
4
 70
0
 10
22.8932200799
 20
-26.546023636
 10
22.8929173399
 20
-26.5435792714
 10
22.890630215
 20
-26.5396365342
 10
22.886431345
 20
-26.5372788118
  0
LINE
  5
58F
100
AcDbEntity
  8
0
100
AcDbLine
 62
7
  6
CONTINUOUS
 10
23.7029141881
 20
-34.91539659
 11
23.6783447772
 21
-34.6948557757
  0
LINE
  5
590
100
AcDbEntity
  8
0
100
AcDbLine
 62
7
  6
CONTINUOUS
 10
23.7228893736
 20
-34.8903648941
 11
23.6983262887
 21
-34.6698551224
  0
LINE
  5
591
100
AcDbEntity
  8
0
100
AcDbLine
 62
7
  6
CONTINUOUS
 10
24.1951460802
 20
-34.8414375539
 11
24.2208510274
 21
-35.0723766064
  0
LINE
  5
592
100
AcDbEntity
  8
0
100
AcDbLine
 62
7
  6
CONTINUOUS
 10
22.1864257199
 20
-34.2823627385
 11
22.2062148413
 21
-34.4608544624
  0
LINE
  5
593
100
AcDbEntity
  8
0
100
AcDbLine
 62
7
  6
CONTINUOUS
 10
27.5443773728
 20
-35.4335954348
 11
27.5866957618
 21
-35.8278458108
  0
LINE
  5
594
100
AcDbEntity
  8
0
100
AcDbLine
 62
7
  6
CONTINUOUS
 10
27.0960018388
 20
-35.9380612928
 11
27.0057326196
 21
-35.0998685065
  0
LINE
  5
595
100
AcDbEntity
  8
0
100
AcDbLine
 62
7
  6
CONTINUOUS
 10
27.115803074
 20
-35.9132475809
 11
27.0258547802
 21
-35.0750407671
  0
LINE
  5
596
100
AcDbEntity
  8
0
100
AcDbLine
 62
7
  6
CONTINUOUS
 10
27.5307335984
 20
-35.302862015
 11
27.5443773728
 21
-35.4335954348
  0
LINE
  5
597
100
AcDbEntity
  8
0
100
AcDbLine
 62
7
  6
CONTINUOUS
 10
27.4329475912
 20
-34.420980669
 11
27.484250212
 21
-34.9209483007
  0
LINE
  5
598
100
AcDbEntity
  8
0
100
AcDbLine
 62
7
  6
CONTINUOUS
 10
27.0258547802
 20
-35.0750407671
 11
26.9022665314
 21
-33.8621242313
  0
LINE
  5
599
100
AcDbEntity
  8
0
100
AcDbLine
 62
7
  6
CONTINUOUS
 10
27.0057326196
 20
-35.0998685065
 11
26.8823816022
 21
-33.8870428235
  0
LWPOLYLINE
  5
59A
100
AcDbEntity
  8
SUPERFICI
100
AcDbPolyline
 62
7
  6
CONTINUOUS
 90
11
 70
0
 10
25.915972794
 20
3.2270125894
 10
25.9189586889
 20
3.1758713494
 10
25.9528939165
 20
3.0597857281
 10
26.0191805569
 20
2.9477214069
 10
26.1149612703
 20
2.8448447927
 10
26.2371348263
 20
2.754064435
 10
26.3819922741
 20
2.678248119
 10
26.5429973411
 20
2.6211404948
 10
26.7143635386
 20
2.5843374048
 10
26.8921465485
 20
2.5681061639
 10
27.0719298089
 20
2.5727903087
  0
LINE
  5
59B
100
AcDbEntity
  8
SUPERFICI
100
AcDbLine
 62
7
  6
CONTINUOUS
 10
26.7733265393
 20
-31.2275096484
 11
26.7728507353
 21
-31.218141885
  0
LINE
  5
59C
100
AcDbEntity
  8
RACCORDO
100
AcDbLine
 62
250
  6
CONTINUOUS
 10
22.8972491319
 20
-27.4568084122
 11
22.8754877505
 21
-26.5820351243
  0
LINE
  5
59D
100
AcDbEntity
  8
RACCORDO
100
AcDbLine
 62
7
  6
CONTINUOUS
 10
22.9145428496
 20
-27.4031646238
 11
22.8932252385
 21
-26.5462302
  0
LINE
  5
59E
100
AcDbEntity
  8
SUPERFICI
100
AcDbLine
 62
7
  6
CONTINUOUS
 10
25.9157065055
 20
3.2390633244
 11
26.7713573093
 21
-31.2175651793
  0
LINE
  5
59F
100
AcDbEntity
  8
RACCORDO
100
AcDbLine
 62
250
  6
CONTINUOUS
 10
22.9143627895
 20
-27.4108620813
 11
22.9145428496
 21
-27.4031646238
  0
LWPOLYLINE
  5
5A0
100
AcDbEntity
  8
SUPERFICI
100
AcDbPolyline
 62
7
  6
CONTINUOUS
 90
10
 70
0
 10
25.5498833414
 20
6.2212742879
 10
25.5456513743
 20
6.0678369441
 10
25.5356729026
 20
5.9072542237
 10
25.5199700493
 20
5.7402863661
 10
25.4983519078
 20
5.5669895632
 10
25.471021227
 20
5.3889060697
 10
25.4388080436
 20
5.2092060988
 10
25.4022404154
 20
5.0296289918
 10
25.3613110165
 20
4.8503428054
 10
25.3162477437
 20
4.6722334866
  0
LWPOLYLINE
  5
5A1
100
AcDbEntity
  8
RACCORDO
100
AcDbPolyline
 62
250
  6
CONTINUOUS
 90
3
 70
0
 10
22.8972491319
 20
-27.4568084122
 10
22.8961278465
 20
-27.4767245357
 10
22.8918994473
 20
-27.4954666772
  0
LWPOLYLINE
  5
5A2
100
AcDbEntity
  8
SUPERFICI
100
AcDbPolyline
 62
7
  6
CONTINUOUS
 90
9
 70
0
 10
25.3157140608
 20
4.6722570831
 10
25.2746366134
 20
4.495437952
 10
25.2480232137
 20
4.3262711761
 10
25.2363466413
 20
4.1688965251
 10
25.2398862593
 20
4.0270502227
 10
25.2586483656
 20
3.9055942168
 10
25.2917961742
 20
3.8095378696
 10
25.3382284612
 20
3.7417258531
 10
25.3995034758
 20
3.7055376043
  0
LINE
  5
5A3
100
AcDbEntity
  8
DRAFT
100
AcDbLine
 62
7
  6
CONTINUOUS
 10
16.0394422691
 20
-26.7315384739
 11
16.111687039
 21
-26.5320018273
  0
LINE
  5
5A4
100
AcDbEntity
  8
DRAFT
100
AcDbLine
 62
7
  6
CONTINUOUS
 10
16.2899022056
 20
-26.4540914268
 11
16.3621469755
 21
-26.2545547802
  0
LINE
  5
5A5
100
AcDbEntity
  8
DRAFT
100
AcDbLine
 62
7
  6
CONTINUOUS
 10
16.5403621421
 20
-26.1766443797
 11
16.612606912
 21
-25.9771077331
  0
LINE
  5
5A6
100
AcDbEntity
  8
DRAFT
100
AcDbLine
 62
7
  6
CONTINUOUS
 10
16.7908220786
 20
-25.8991973326
 11
16.8630668485
 21
-25.699660686
  0
LINE
  5
5A7
100
AcDbEntity
  8
DRAFT
100
AcDbLine
 62
7
  6
CONTINUOUS
 10
17.0412820152
 20
-25.6217502855
 11
17.113526785
 21
-25.422213639
  0
LINE
  5
5A8
100
AcDbEntity
  8
DRAFT
100
AcDbLine
 62
7
  6
CONTINUOUS
 10
17.2917419517
 20
-25.3443032384
 11
17.3639867216
 21
-25.1447665919
  0
LWPOLYLINE
  5
5A9
100
AcDbEntity
  8
SUPERFICI
100
AcDbPolyline
 62
250
  6
CONTINUOUS
 90
10
 70
0
 10
-38.8342548304
 20
30.3946019916
 10
-39.1864131392
 20
30.4365599549
 10
-39.5305074446
 20
30.468871603
 10
-39.8668756285
 20
30.491087216
 10
-40.1947496106
 20
30.502557534
 10
-40.512957375
 20
30.5022844026
 10
-40.82061054
 20
30.4893126657
 10
-41.1167403591
 20
30.4628461408
 10
-41.4003861106
 20
30.4223590533
 10
-41.6708453973
 20
30.3673901451
  0
LINE
  5
5AA
100
AcDbEntity
  8
SUPERFICI
100
AcDbLine
 62
250
  6
CONTINUOUS
 10
-44.5411577618
 20
36.3391502852
 11
-44.1232972947
 21
36.2495752278
  0
LWPOLYLINE
  5
5AB
100
AcDbEntity
  8
SUPERFICI
100
AcDbPolyline
 62
250
  6
CONTINUOUS
 90
3
 70
0
 10
-42.5895064057
 20
35.8825660837
 10
-43.3604282356
 20
36.0730799902
 10
-44.1232972947
 20
36.2495752278
  0
LWPOLYLINE
  5
5AC
100
AcDbEntity
  8
SUPERFICI
100
AcDbPolyline
 62
250
  6
CONTINUOUS
 90
3
 70
0
 10
-41.0239356363
 20
35.4609694226
 10
-41.810737105
 20
35.6782177699
 10
-42.5895064057
 20
35.8825660837
  0
LWPOLYLINE
  5
5AD
100
AcDbEntity
  8
SUPERFICI
100
AcDbPolyline
 62
250
  6
CONTINUOUS
 90
10
 70
0
 10
-47.1493955426
 20
39.4130133216
 10
-47.5942474241
 20
39.5365433491
 10
-48.0345406105
 20
39.6559136743
 10
-48.47043614
 20
39.7706489665
 10
-48.9017227737
 20
39.8801949164
 10
-49.3283062707
 20
39.9842586116
 10
-49.7500689891
 20
40.0826066248
 10
-50.1667627003
 20
40.1744945017
 10
-50.5776441997
 20
40.2576145205
 10
-50.9818912377
 20
40.3295294022
  0
LWPOLYLINE
  5
5AE
100
AcDbEntity
  8
SUPERFICI
100
AcDbPolyline
 62
250
  6
CONTINUOUS
 90
3
 70
0
 10
-47.1493955426
 20
39.4130133216
 10
-46.3106493135
 20
39.1742608045
 10
-45.4671333703
 20
38.9280321334
  0
LINE
  5
5AF
100
AcDbEntity
  8
SUPERFICI
100
AcDbLine
 62
250
  6
CONTINUOUS
 10
-39.4305737726
 20
35.0081326018
 11
-41.0239356363
 21
35.4609694226
  0
LINE
  5
5B0
100
AcDbEntity
  8
SUPERFICI
100
AcDbLine
 62
250
  6
CONTINUOUS
 10
-53.0087381177
 20
42.562881198
 11
-51.6749218265
 21
42.1796424043
  0
LINE
  5
5B1
100
AcDbEntity
  8
SUPERFICI
100
AcDbLine
 62
250
  6
CONTINUOUS
 10
-37.0004064745
 20
34.3051026918
 11
-39.4305737726
 21
35.0081326018
  0
LINE
  5
5B2
100
AcDbEntity
  8
SUPERFICI
100
AcDbLine
 62
250
  6
CONTINUOUS
 10
-33.7804243323
 20
33.362759572
 11
-37.0004064745
 21
34.3051026918
  0
LINE
  5
5B3
100
AcDbEntity
  8
SUPERFICI
100
AcDbLine
 62
250
  6
CONTINUOUS
 10
-51.6749218265
 20
42.1796424043
 11
-50.3533028509
 21
41.7929128523
  0
LINE
  5
5B4
100
AcDbEntity
  8
SUPERFICI
100
AcDbLine
 62
250
  6
CONTINUOUS
 10
-30.5930000913
 20
32.4185123018
 11
-33.7804243323
 21
33.362759572
  0
LINE
  5
5B5
100
AcDbEntity
  8
SUPERFICI
100
AcDbLine
 62
250
  6
CONTINUOUS
 10
-50.3533028509
 20
41.7929128523
 11
-49.0438255333
 21
41.4038029465
  0
LINE
  5
5B6
100
AcDbEntity
  8
SUPERFICI
100
AcDbLine
 62
250
  6
CONTINUOUS
 10
-45.4671333703
 20
38.9280321334
 11
-44.0364693476
 21
38.4994368269
  0
LWPOLYLINE
  5
5B7
100
AcDbEntity
  8
SUPERFICI
100
AcDbPolyline
 62
250
  6
CONTINUOUS
 90
3
 70
0
 10
-25.8619994129
 20
30.9956687308
 10
-27.4350075048
 20
31.471738332
 10
-30.5930000913
 20
32.4185123018
  0
LINE
  5
5B8
100
AcDbEntity
  8
SUPERFICI
100
AcDbLine
 62
250
  6
CONTINUOUS
 10
-49.0438254876
 20
41.4038028795
 11
-46.3743769957
 21
40.5920594578
  0
LINE
  5
5B9
100
AcDbEntity
  8
SUPERFICI
100
AcDbLine
 62
250
  6
CONTINUOUS
 10
-24.2936841615
 20
30.5172358477
 11
-25.8619994129
 21
30.9956687308
  0
LINE
  5
5BA
100
AcDbEntity
  8
SUPERFICI
100
AcDbLine
 62
250
  6
CONTINUOUS
 10
-46.3743769957
 20
40.5920594578
 11
-43.6853898688
 21
39.7689743058
  0
LINE
  5
5BB
100
AcDbEntity
  8
SUPERFICI
100
AcDbLine
 62
250
  6
CONTINUOUS
 10
9.9642786293
 20
21.9317022033
 11
23.9597215318
 21
17.6425513305
  0
LINE
  5
5BC
100
AcDbEntity
  8
SUPERFICI
100
AcDbLine
 62
250
  6
CONTINUOUS
 10
-40.9744739219
 20
38.9313734189
 11
-24.8205183852
 21
33.9706654358
  0
LINE
  5
5BD
100
AcDbEntity
  8
SUPERFICI
100
AcDbLine
 62
250
  6
CONTINUOUS
 10
47.9133716941
 20
12.7646955041
 11
-53.698415843
 21
43.9686910461
  0
LINE
  5
5BE
100
AcDbEntity
  8
SUPERFICI
100
AcDbLine
 62
250
  6
CONTINUOUS
 10
-24.8195529281
 20
33.966878003
 11
10.2389434464
 21
23.1999352847
  0
LINE
  5
5BF
100
AcDbEntity
  8
SUPERFICI
100
AcDbLine
 62
250
  6
CONTINUOUS
 10
-25.7454759789
 20
32.90257742
 11
-44.0364693476
 21
38.4994368269
  0
LINE
  5
5C0
100
AcDbEntity
  8
SUPERFICI
100
AcDbLine
 62
250
  6
CONTINUOUS
 10
23.9597215318
 20
17.6425513305
 11
29.0853062432
 21
16.0657507926
  0
LINE
  5
5C1
100
AcDbEntity
  8
SUPERFICI
100
AcDbLine
 62
250
  6
CONTINUOUS
 10
9.9642786293
 20
21.9317022033
 11
-25.7454759789
 21
32.90257742
  0
LINE
  5
5C2
100
AcDbEntity
  8
SUPERFICI
100
AcDbLine
 62
250
  6
CONTINUOUS
 10
-43.6853898688
 20
39.7689743058
 11
-40.9770285043
 21
38.934501376
  0
LINE
  5
5C3
100
AcDbEntity
  8
SUPERFICI
100
AcDbLine
 62
250
  6
CONTINUOUS
 10
29.0853062432
 20
16.0657507926
 11
34.2535096616
 21
14.4669568499
  0
LINE
  5
5C4
100
AcDbEntity
  8
SUPERFICI
100
AcDbLine
 62
250
  6
CONTINUOUS
 10
42.4779642284
 20
13.2983479169
 11
10.2389434464
 21
23.1999352847
  0
LINE
  5
5C5
100
AcDbEntity
  8
SUPERFICI
100
AcDbLine
 62
250
  6
CONTINUOUS
 10
-24.2936841615
 20
30.5172358477
 11
18.8847706399
 21
17.2525104785
  0
LWPOLYLINE
  5
5C6
100
AcDbEntity
  8
SUPERFICI
100
AcDbPolyline
 62
250
  6
CONTINUOUS
 90
5
 70
0
 10
34.2535096616
 20
14.4669568499
 10
37.6911482025
 20
13.3987883837
 10
38.5396689554
 20
13.1303526887
 10
39.3836726132
 20
12.8583609465
 10
40.2231578949
 20
12.5817486225
  0
LINE
  5
5C7
100
AcDbEntity
  8
SUPERFICI
100
AcDbLine
 62
250
  6
CONTINUOUS
 10
18.8847706399
 20
17.2525104785
 11
21.6166729305
 21
16.3983788202
  0
LINE
  5
5C8
100
AcDbEntity
  8
SUPERFICI
100
AcDbLine
 62
250
  6
CONTINUOUS
 10
21.6166729305
 20
16.3983788202
 11
24.7887009505
 21
15.3954888448
  0
LINE
  5
5C9
100
AcDbEntity
  8
SUPERFICI
100
AcDbLine
 62
250
  6
CONTINUOUS
 10
44.2216247181
 20
12.7442071523
 11
42.4779643353
 21
13.298347937
  0
LINE
  5
5CA
100
AcDbEntity
  8
SUPERFICI
100
AcDbLine
 62
250
  6
CONTINUOUS
 10
24.7887009505
 20
15.3954888448
 11
27.9949758292
 21
14.3704251268
  0
LINE
  5
5CB
100
AcDbEntity
  8
SUPERFICI
100
AcDbLine
 62
250
  6
CONTINUOUS
 10
27.9949758292
 20
14.3704251268
 11
31.2371448536
 21
13.3223402758
  0
LINE
  5
5CC
100
AcDbEntity
  8
SUPERFICI
100
AcDbLine
 62
250
  6
CONTINUOUS
 10
45.5426138573
 20
12.3173145771
 11
44.2216247181
 21
12.7442071523
  0
LWPOLYLINE
  5
5CD
100
AcDbEntity
  8
SUPERFICI
100
AcDbPolyline
 62
250
  6
CONTINUOUS
 90
6
 70
0
 10
31.2371448536
 20
13.3223402758
 10
32.8427853456
 20
12.7963115309
 10
33.6376657631
 20
12.5331149513
 10
34.4256890892
 20
12.2667498609
 10
35.2062033398
 20
11.9922573023
 10
35.9794429021
 20
11.7085742051
  0
LINE
  5
5CE
100
AcDbEntity
  8
SUPERFICI
100
AcDbLine
 62
250
  6
CONTINUOUS
 10
46.4294057118
 20
12.0263905805
 11
45.5426138573
 21
12.3173145771
  0
LINE
  5
5CF
100
AcDbEntity
  8
SUPERFICI
100
AcDbLine
 62
250
  6
CONTINUOUS
 10
46.629433373
 20
11.9589664394
 11
46.4294037903
 21
12.0263900161
  0
LINE
  5
5D0
100
AcDbEntity
  8
SUPERFICI
100
AcDbLine
 62
250
  6
CONTINUOUS
 10
47.218440434
 20
11.7575799398
 11
46.629433373
 21
11.9589664394
  0
LINE
  5
5D1
100
AcDbEntity
  8
SUPERFICI
100
AcDbLine
 62
250
  6
CONTINUOUS
 10
47.3148636821
 20
11.7234377677
 11
47.218440434
 21
11.7575799398
  0
LINE
  5
5D2
100
AcDbEntity
  8
SUPERFICI
100
AcDbLine
 62
250
  6
CONTINUOUS
 10
35.9794429021
 20
11.7085742051
 11
36.7452085531
 21
11.4156405326
  0
LWPOLYLINE
  5
5D3
100
AcDbEntity
  8
SUPERFICI
100
AcDbPolyline
 62
250
  6
CONTINUOUS
 90
4
 70
0
 10
36.7452085531
 20
11.4156405326
 10
37.1648697766
 20
11.2480343881
 10
37.5772904954
 20
11.0753106632
 10
37.9822884139
 20
10.8967464482
  0
LWPOLYLINE
  5
5D4
100
AcDbEntity
  8
SUPERFICI
100
AcDbPolyline
 62
250
  6
CONTINUOUS
 90
7
 70
0
 10
37.9822884139
 20
10.8967464482
 10
38.3793659925
 20
10.7118424091
 10
38.768165637
 20
10.5203243847
 10
39.148375804
 20
10.3220141557
 10
39.5193415628
 20
10.1165643329
 10
39.8795008518
 20
9.9031281062
 10
40.2273112285
 20
9.68091352
  0
LWPOLYLINE
  5
5D5
100
AcDbEntity
  8
SUPERFICI
100
AcDbPolyline
 62
250
  6
CONTINUOUS
 90
10
 70
0
 10
30.7285085991
 20
9.0325512635
 10
31.0839852446
 20
8.8572013879
 10
31.4317573601
 20
8.6770475608
 10
31.7721905769
 20
8.4914240205
 10
32.1045375406
 20
8.3001468823
 10
32.427658234
 20
8.1029279947
 10
32.7406984857
 20
7.8993473227
 10
33.0427145515
 20
7.6891959914
 10
33.3327572785
 20
7.47253473
 10
33.6101365809
 20
7.2493298985
  0
LWPOLYLINE
  5
5D6
100
AcDbEntity
  8
SUPERFICI
100
AcDbPolyline
 62
7
  6
CONTINUOUS
 90
10
 70
0
 10
27.5393394125
 20
5.056871694
 10
27.6524329908
 20
4.9515068043
 10
27.7607341417
 20
4.8447964441
 10
27.8643952644
 20
4.7367614498
 10
27.9637655551
 20
4.6272221999
 10
28.0588882301
 20
4.5163795903
 10
28.149289667
 20
4.4048176301
 10
28.2346880996
 20
4.2928239115
 10
28.3150476123
 20
4.1805936742
 10
28.3901737257
 20
4.0685580914
  0
LINE
  5
5D7
100
AcDbEntity
  8
SUPERFICI
100
AcDbLine
 62
250
  6
CONTINUOUS
 10
26.4016768652
 20
3.9228287466
 11
26.6144828023
 21
3.6701199802
  0
LWPOLYLINE
  5
5D8
100
AcDbEntity
  8
SUPERFICI
100
AcDbPolyline
 62
250
  6
CONTINUOUS
 90
3
 70
0
 10
26.6144828023
 20
3.6701199802
 10
26.7912457523
 20
3.4011438257
 10
26.9287899756
 20
3.1230919882
  0
LWPOLYLINE
  5
5D9
100
AcDbEntity
  8
SUPERFICI
100
AcDbPolyline
 62
7
  6
CONTINUOUS
 90
10
 70
0
 10
28.3901737257
 20
4.0685580914
 10
28.4400242592
 20
3.9897796127
 10
28.4879498916
 20
3.9102655516
 10
28.5338165916
 20
3.8302120993
 10
28.5775349994
 20
3.7497728049
 10
28.6190461056
 20
3.6690656554
 10
28.6583246353
 20
3.5881428347
 10
28.6953686524
 20
3.507010672
 10
28.7301695719
 20
3.425682027
 10
28.7627143056
 20
3.3441643596
  0
LWPOLYLINE
  5
5DA
100
AcDbEntity
  8
SUPERFICI
100
AcDbPolyline
 62
250
  6
CONTINUOUS
 90
3
 70
0
 10
26.9287899756
 20
3.1230919882
 10
27.0234774607
 20
2.8442936053
 10
27.0719188162
 20
2.5728322201
  0
LINE
  5
5DB
100
AcDbEntity
  8
0
100
AcDbLine
 62
7
  6
CONTINUOUS
 10
27.5866957618
 20
-35.8278458108
 11
27.6160639094
 21
-36.0923878253
  0
LWPOLYLINE
  5
5DC
100
AcDbEntity
  8
SUPERFICI
100
AcDbPolyline
 62
7
  6
CONTINUOUS
 90
8
 70
0
 10
28.9495906461
 20
2.6014506106
 10
28.9525595025
 20
2.5733783505
 10
28.95515469
 20
2.5453171675
 10
28.9574141208
 20
2.5172622335
 10
28.9593758719
 20
2.4892103921
 10
28.9610785555
 20
2.4611550331
 10
28.9625611721
 20
2.4330861078
 10
28.9638627311
 20
2.4049969516
  0
LINE
  5
5DD
100
AcDbEntity
  8
SUPERFICI
100
AcDbLine
 62
7
  6
CONTINUOUS
 10
28.9638627311
 20
2.4049969516
 11
28.9660797668
 21
2.348743008
  0
LINE
  5
5DE
100
AcDbEntity
  8
SUPERFICI
100
AcDbLine
 62
250
  6
CONTINUOUS
 10
27.0719298089
 20
2.5727903087
 11
27.9259768831
 21
-31.7585581657
  0
LINE
  5
5DF
100
AcDbEntity
  8
SUPERFICI
100
AcDbLine
 62
7
  6
CONTINUOUS
 10
29.8166394454
 20
-31.8424176475
 11
28.9662278646
 21
2.3488489179
  0
LWPOLYLINE
  5
5E0
100
AcDbEntity
  8
SUPERFICI
100
AcDbPolyline
 62
7
  6
CONTINUOUS
 90
9
 70
0
 10
29.8125822092
 20
-32.089452242
 10
29.8141887074
 20
-32.0627598452
 10
29.8154158284
 20
-32.0358269064
 10
29.8163019215
 20
-32.0086758246
 10
29.816885588
 20
-31.9813308316
 10
29.8172057997
 20
-31.9538130016
 10
29.8173017512
 20
-31.9261401725
 10
29.8172128164
 20
-31.8983336644
 10
29.8166394454
 20
-31.8424176475
  0
LWPOLYLINE
  5
5E1
100
AcDbEntity
  8
SUPERFICI
100
AcDbPolyline
 62
250
  6
CONTINUOUS
 90
10
 70
0
 10
27.9259658905
 20
-31.758516255
 10
27.8909683243
 20
-32.0015407697
 10
27.8100640118
 20
-32.2242031133
 10
27.6858736251
 20
-32.4203791435
 10
27.5212929997
 20
-32.5837675105
 10
27.3188788304
 20
-32.7088374576
 10
27.0827344822
 20
-32.7928885676
 10
26.8198921072
 20
-32.8352557177
 10
26.5383837731
 20
-32.8352103361
 10
26.2460299406
 20
-32.7921903093
  0
LINE
  5
5E2
100
AcDbEntity
  8
RACCORDO
100
AcDbLine
 62
250
  6
CONTINUOUS
 10
22.9116592151
 20
-27.4266477544
 11
22.9143627895
 21
-27.4108620813
  0
LINE
  5
5E3
100
AcDbEntity
  8
DRAFT
100
AcDbLine
 62
7
  6
CONTINUOUS
 10
22.0589819396
 20
-27.8713590554
 11
22.117223305
 21
-27.667522099
  0
LINE
  5
5E4
100
AcDbEntity
  8
DRAFT
100
AcDbLine
 62
7
  6
CONTINUOUS
 10
22.2627638613
 20
-27.5795776421
 11
22.3210052267
 21
-27.3757406857
  0
LINE
  5
5E5
100
AcDbEntity
  8
DRAFT
100
AcDbLine
 62
7
  6
CONTINUOUS
 10
22.4665457829
 20
-27.2877962289
 11
22.5247871483
 21
-27.0839592725
  0
LINE
  5
5E6
100
AcDbEntity
  8
DRAFT
100
AcDbLine
 62
7
  6
CONTINUOUS
 10
22.6703277045
 20
-26.9960148156
 11
22.72856907
 21
-26.7921778592
  0
LINE
  5
5E7
100
AcDbEntity
  8
0
100
AcDbLine
 62
7
  6
CONTINUOUS
 10
23.3467892217
 20
-34.3012170481
 11
23.2133976199
 21
-34.7667641149
  0
LWPOLYLINE
  5
5E8
100
AcDbEntity
  8
0
100
AcDbPolyline
 62
7
  6
CONTINUOUS
 90
3
 70
0
 10
23.5632195495
 20
-33.5614064633
 10
23.5086578755
 20
-33.7461855543
 10
23.3467892217
 20
-34.3012170481
  0
LINE
  5
5E9
100
AcDbEntity
  8
0
100
AcDbLine
 62
7
  6
CONTINUOUS
 10
22.8779798511
 20
-33.9754117228
 11
23.1152140524
 21
-33.1701726376
  0
LINE
  5
5EA
100
AcDbEntity
  8
0
100
AcDbLine
 62
7
  6
CONTINUOUS
 10
22.8979037173
 20
-33.9504443371
 11
23.1350092048
 21
-33.1453858003
  0
LINE
  5
5EB
100
AcDbEntity
  8
0
100
AcDbLine
 62
7
  6
CONTINUOUS
 10
23.1350092048
 20
-33.1453858003
 11
23.254437277
 21
-32.7462167564
  0
LINE
  5
5EC
100
AcDbEntity
  8
0
100
AcDbLine
 62
7
  6
CONTINUOUS
 10
23.1152140524
 20
-33.1701726376
 11
23.2347193035
 21
-32.7709261298
  0
LINE
  5
5ED
100
AcDbEntity
  8
0
100
AcDbLine
 62
7
  6
CONTINUOUS
 10
19.6795092082
 20
-33.0412809324
 11
19.4779427205
 21
-33.6304044361
  0
LINE
  5
5EE
100
AcDbEntity
  8
0
100
AcDbLine
 62
7
  6
CONTINUOUS
 10
19.1717586875
 20
-32.888922785
 11
19.3881188567
 21
-32.2674965321
  0
LINE
  5
5EF
100
AcDbEntity
  8
0
100
AcDbLine
 62
7
  6
CONTINUOUS
 10
19.1517311843
 20
-32.9140200423
 11
19.3681347917
 21
-32.2925522591
  0
LINE
  5
5F0
100
AcDbEntity
  8
0
100
AcDbLine
 62
7
  6
CONTINUOUS
 10
19.8906561862
 20
-32.4350660973
 11
19.6795092082
 21
-33.0412809324
  0
LINE
  5
5F1
100
AcDbEntity
  8
0
100
AcDbLine
 62
7
  6
CONTINUOUS
 10
19.3881188567
 20
-32.2674965321
 11
19.6138225014
 21
-31.6293340189
  0
LINE
  5
5F2
100
AcDbEntity
  8
0
100
AcDbLine
 62
7
  6
CONTINUOUS
 10
20.1108316718
 20
-31.8125490535
 11
19.8906561862
 21
-32.4350660973
  0
LINE
  5
5F3
100
AcDbEntity
  8
0
100
AcDbLine
 62
7
  6
CONTINUOUS
 10
19.3681347917
 20
-32.2925522591
 11
19.5941266437
 21
-31.6540156782
  0
LWPOLYLINE
  5
5F4
100
AcDbEntity
  8
RACCORDO
100
AcDbPolyline
 62
250
  6
CONTINUOUS
 90
3
 70
0
 10
22.8918994473
 20
-27.4954666772
 10
22.8846363115
 20
-27.5127140292
 10
22.8781400605
 20
-27.5232739227
  0
LINE
  5
5F5
100
AcDbEntity
  8
0
100
AcDbLine
 62
250
  6
CONTINUOUS
 10
49.9437046831
 20
15.4966900366
 11
47.9133716941
 21
12.7646955041
  0
LINE
  5
5F6
100
AcDbEntity
  8
DRAFT
100
AcDbLine
 62
7
  6
CONTINUOUS
 10
15.2047313359
 20
-26.554973738
 11
15.2955123727
 21
-26.4384212882
  0
LINE
  5
5F7
100
AcDbEntity
  8
DRAFT
100
AcDbLine
 62
7
  6
CONTINUOUS
 10
15.2955123727
 20
-26.4384212882
 11
15.704481537
 21
-25.9322054149
  0
LINE
  5
5F8
100
AcDbEntity
  8
RACCORDO
100
AcDbLine
 62
7
  6
CONTINUOUS
 10
17.5393086771
 20
-24.9505536589
 11
17.3639867216
 21
-25.1447665919
  0
LINE
  5
5F9
100
AcDbEntity
  8
DRAFT
100
AcDbLine
 62
7
  6
CONTINUOUS
 10
17.2137107596
 20
-25.3112348201
 11
17.113526785
 21
-25.422213639
  0
LINE
  5
5FA
100
AcDbEntity
  8
DRAFT
100
AcDbLine
 62
7
  6
CONTINUOUS
 10
16.9632508231
 20
-25.5886818672
 11
16.8630668485
 21
-25.699660686
  0
LINE
  5
5FB
100
AcDbEntity
  8
DRAFT
100
AcDbLine
 62
7
  6
CONTINUOUS
 10
16.7127908866
 20
-25.8661289143
 11
16.612606912
 21
-25.9771077331
  0
LINE
  5
5FC
100
AcDbEntity
  8
DRAFT
100
AcDbLine
 62
7
  6
CONTINUOUS
 10
16.4623309501
 20
-26.1435759614
 11
16.3621469755
 21
-26.2545547802
  0
LINE
  5
5FD
100
AcDbEntity
  8
DRAFT
100
AcDbLine
 62
7
  6
CONTINUOUS
 10
16.2118710136
 20
-26.4210230085
 11
16.111687039
 21
-26.5320018273
  0
LINE
  5
5FE
100
AcDbEntity
  8
DRAFT
100
AcDbLine
 62
7
  6
CONTINUOUS
 10
15.9614110771
 20
-26.6984700556
 11
15.9004949391
 21
-26.7659499202
  0
LINE
  5
5FF
100
AcDbEntity
  8
0
100
AcDbLine
 62
250
  6
CONTINUOUS
 10
50.3922377822
 20
9.9097032429
 11
52.6351922258
 21
12.3943364973
  0
LWPOLYLINE
  5
600
100
AcDbEntity
  8
SUPERFICI
100
AcDbPolyline
 62
250
  6
CONTINUOUS
 90
10
 70
0
 10
50.3234589857
 20
10.392147489
 10
50.2370412013
 20
10.3084282297
 10
50.1333890289
 20
10.2300938435
 10
50.0142430974
 20
10.1583913179
 10
49.882164403
 20
10.0948692962
 10
49.740454373
 20
10.0413703124
 10
49.5930131863
 20
9.9993583771
 10
49.4437805055
 20
9.9697105115
 10
49.2959300382
 20
9.9530379061
 10
49.1518219862
 20
9.9496520774
  0
LWPOLYLINE
  5
601
100
AcDbEntity
  8
RACCORDO
100
AcDbPolyline
 62
7
  6
CONTINUOUS
 90
6
 70
0
 10
17.5445571879
 20
-24.9449579944
 10
17.558987999
 20
-24.9341178043
 10
17.5753446719
 20
-24.9265787636
 10
17.5930726494
 20
-24.9223636831
 10
17.6115537869
 20
-24.9217236899
 10
17.6304365818
 20
-24.92428203
  0
LWPOLYLINE
  5
602
100
AcDbEntity
  8
SUPERFICI
100
AcDbPolyline
 62
7
  6
CONTINUOUS
 90
8
 70
0
 10
-34.3879723904
 20
22.0701900106
 10
-34.3945543707
 20
22.0690377987
 10
-34.4111761241
 20
22.0669165565
 10
-34.4169746847
 20
22.0665163496
 10
-34.410642163
 20
22.0660372521
 10
-34.3882625399
 20
22.0629249525
 10
-34.3482299704
 20
22.0537712284
 10
-34.3090865094
 20
22.0415428171
  0
LWPOLYLINE
  5
603
100
AcDbEntity
  8
SUPERFICI
100
AcDbPolyline
 62
250
  6
CONTINUOUS
 90
5
 70
0
 10
-46.1328839892
 20
36.5925805343
 10
-45.7476973531
 20
36.5464153354
 10
-45.3537228502
 20
36.4883844492
 10
-44.9513694461
 20
36.4190297611
 10
-44.5411577618
 20
36.3391502852
  0
LINE
  5
604
100
AcDbEntity
  8
SUPERFICI
100
AcDbLine
 62
250
  6
CONTINUOUS
 10
-53.8992050856
 20
42.8052977287
 11
-53.8021524888
 21
42.7800253432
  0
LWPOLYLINE
  5
605
100
AcDbEntity
  8
SUPERFICI
100
AcDbPolyline
 62
250
  6
CONTINUOUS
 90
3
 70
0
 10
-53.8021524888
 20
42.7800253432
 10
-53.1094546602
 20
42.5909840605
 10
-53.0087371372
 20
42.5628797425
  0
LINE
  5
606
100
AcDbEntity
  8
0
100
AcDbLine
 62
7
  6
CONTINUOUS
 10
-51.668082854
 20
46.7006855786
 11
49.9437046831
 21
15.4966900366
  0
LWPOLYLINE
  5
607
100
AcDbEntity
  8
SUPERFICI
100
AcDbPolyline
 62
250
  6
CONTINUOUS
 90
10
 70
0
 10
47.9146271034
 20
12.7663875149
 10
48.2792265955
 20
12.6341459917
 10
48.636502407
 20
12.456790587
 10
48.9784372606
 20
12.2382990085
 10
49.2972382843
 20
11.9833805349
 10
49.5857849175
 20
11.6979312903
 10
49.8378449158
 20
11.3889218256
 10
50.0478445399
 20
11.0634796969
 10
50.2109451299
 20
10.7287184986
 10
50.3234589787
 20
10.3921475158
  0
LINE
  5
608
100
AcDbEntity
  8
0
100
AcDbLine
 62
7
  6
CONTINUOUS
 10
50.2973757362
 20
15.365903382
 11
49.9437213331
 21
15.4966849236
  0
LWPOLYLINE
  5
609
100
AcDbEntity
  8
SUPERFICI
100
AcDbPolyline
 62
250
  6
CONTINUOUS
 90
10
 70
0
 10
44.0687093683
 20
11.1404108023
 10
43.6618291475
 20
11.31758695
 10
43.2487779887
 20
11.4874893839
 10
42.830268685
 20
11.6520844264
 10
42.4069405059
 20
11.8132554607
 10
41.9790078253
 20
11.9716049656
 10
41.5465774485
 20
12.1272976081
 10
41.109730067
 20
12.2805726778
 10
40.6686526748
 20
12.4318622334
 10
40.2231578949
 20
12.5817486225
  0
LWPOLYLINE
  5
60A
100
AcDbEntity
  8
SUPERFICI
100
AcDbPolyline
 62
250
  6
CONTINUOUS
 90
10
 70
0
 10
40.2273112285
 20
9.68091352
 10
40.4189106042
 20
9.5504032783
 10
40.6049641843
 20
9.417218692
 10
40.7852165497
 20
9.2813812797
 10
40.9593426982
 20
9.1429387865
 10
41.1275606117
 20
9.0013661627
 10
41.2900540625
 20
8.8562155263
 10
41.4464339805
 20
8.7076868979
 10
41.5961610755
 20
8.5565204652
 10
41.7389255715
 20
8.4033246033
  0
LWPOLYLINE
  5
60B
100
AcDbEntity
  8
SUPERFICI
100
AcDbPolyline
 62
250
  6
CONTINUOUS
 90
10
 70
0
 10
33.6101365809
 20
7.2493298985
 10
33.7580948919
 20
7.1228686068
 10
33.9015017235
 20
6.9947369517
 10
34.0402792724
 20
6.8649879387
 10
34.1737822085
 20
6.7342357472
 10
34.3025855921
 20
6.6018787762
 10
34.4283822541
 20
6.4661623134
 10
34.5516349191
 20
6.3266068889
 10
34.6715713277
 20
6.1842013856
 10
34.787953554
 20
6.0393994472
  0
LWPOLYLINE
  5
60C
100
AcDbEntity
  8
SUPERFICI
100
AcDbPolyline
 62
7
  6
CONTINUOUS
 90
10
 70
0
 10
28.7626949874
 20
3.3441594787
 10
28.7937441744
 20
3.2603170277
 10
28.8222353842
 20
3.1766978388
 10
28.8481651473
 20
3.0933444343
 10
28.8715348672
 20
3.0102796655
 10
28.8923463528
 20
2.9274977756
 10
28.9105632049
 20
2.8451630073
 10
28.9261656036
 20
2.7633957109
 10
28.939169259
 20
2.6821450793
 10
28.9495703497
 20
2.6014464211
  0
LWPOLYLINE
  5
60D
100
AcDbEntity
  8
0
100
AcDbPolyline
 62
7
  6
CONTINUOUS
 90
7
 70
0
 10
28.4037791124
 20
-35.0172156796
 10
28.4107769513
 20
-34.9638946529
 10
28.4008604649
 20
-34.904971062
 10
28.3757998292
 20
-34.845247
 10
28.33858821
 20
-34.7885429432
 10
28.2917070661
 20
-34.7368862621
 10
28.2384324786
 20
-34.6919476891
  0
LINE
  5
60E
100
AcDbEntity
  8
0
100
AcDbLine
 62
7
  6
CONTINUOUS
 10
25.2034208572
 20
-34.9829221583
 11
25.084354227
 21
-35.3336555471
  0
LINE
  5
60F
100
AcDbEntity
  8
0
100
AcDbLine
 62
7
  6
CONTINUOUS
 10
24.5862108635
 20
-35.1518779385
 11
24.7952176773
 21
-34.5386172842
  0
LINE
  5
610
100
AcDbEntity
  8
0
100
AcDbLine
 62
7
  6
CONTINUOUS
 10
24.5662198237
 20
-35.1769295021
 11
24.7753035614
 21
-34.5635918185
  0
LINE
  5
611
100
AcDbEntity
  8
0
100
AcDbLine
 62
7
  6
CONTINUOUS
 10
25.5101684926
 20
-34.0944339405
 11
25.3205467737
 21
-34.6414529855
  0
LINE
  5
612
100
AcDbEntity
  8
0
100
AcDbLine
 62
7
  6
CONTINUOUS
 10
24.7952176773
 20
-34.5386172842
 11
25.1416884464
 21
-33.5406465502
  0
LWPOLYLINE
  5
613
100
AcDbEntity
  8
0
100
AcDbPolyline
 62
7
  6
CONTINUOUS
 90
3
 70
0
 10
24.7753035614
 20
-34.5635918185
 10
25.121880543
 20
-33.5654407186
 10
25.1902443883
 20
-33.3701559921
  0
LINE
  5
614
100
AcDbEntity
  8
0
100
AcDbLine
 62
7
  6
CONTINUOUS
 10
25.1416884464
 20
-33.5406465502
 11
25.2100568001
 21
-33.3453282743
  0
LWPOLYLINE
  5
615
100
AcDbEntity
  8
SUPERFICI
100
AcDbPolyline
 62
7
  6
CONTINUOUS
 90
10
 70
0
 10
26.3400965413
 20
-31.5274359926
 10
26.2767325393
 20
-31.6961290572
 10
26.2238159475
 20
-31.8719483732
 10
26.1835484522
 20
-32.0475305652
 10
26.1571000134
 20
-32.2173962555
 10
26.1454105357
 20
-32.3760608267
 10
26.1490204245
 20
-32.5167197008
 10
26.1676338606
 20
-32.6348714461
 10
26.2007615807
 20
-32.7277930949
 10
26.2477182823
 20
-32.7928460356
  0
LINE
  5
616
100
AcDbEntity
  8
SUPERFICI
100
AcDbLine
 62
7
  6
CONTINUOUS
 10
26.4117143266
 20
-31.3714057574
 11
26.3400965413
 21
-31.5274359926
  0
LWPOLYLINE
  5
617
100
AcDbEntity
  8
RACCORDO
100
AcDbPolyline
 62
250
  6
CONTINUOUS
 90
3
 70
0
 10
22.8972491319
 20
-27.4568084122
 10
22.9059046417
 20
-27.4420401109
 10
22.9116592151
 20
-27.4266477544
  0
LINE
  5
618
100
AcDbEntity
  8
RACCORDO
100
AcDbLine
 62
7
  6
CONTINUOUS
 10
22.8712164151
 20
-26.5879308699
 11
22.72856907
 21
-26.7921778592
  0
LINE
  5
619
100
AcDbEntity
  8
DRAFT
100
AcDbLine
 62
7
  6
CONTINUOUS
 10
22.606299917
 20
-26.9672467072
 11
22.5247871483
 21
-27.0839592725
  0
LINE
  5
61A
100
AcDbEntity
  8
DRAFT
100
AcDbLine
 62
7
  6
CONTINUOUS
 10
22.4025179953
 20
-27.2590281204
 11
22.3210052267
 21
-27.3757406857
  0
LINE
  5
61B
100
AcDbEntity
  8
DRAFT
100
AcDbLine
 62
7
  6
CONTINUOUS
 10
22.1987360737
 20
-27.5508095337
 11
22.117223305
 21
-27.667522099
  0
LINE
  5
61C
100
AcDbEntity
  8
DRAFT
100
AcDbLine
 62
7
  6
CONTINUOUS
 10
21.9949541521
 20
-27.8425909469
 11
21.982672022
 21
-27.86017689
  0
LINE
  5
61D
100
AcDbEntity
  8
RACCORDO
100
AcDbLine
 62
250
  6
CONTINUOUS
 10
22.5011617968
 20
-28.0194000767
 11
22.8972491319
 21
-27.4568084122
  0
LINE
  5
61E
100
AcDbEntity
  8
RACCORDO
100
AcDbLine
 62
7
  6
CONTINUOUS
 10
22.5239255284
 20
-28.0263905981
 11
22.8781400605
 21
-27.5232739227
  0
LWPOLYLINE
  5
61F
100
AcDbEntity
  8
RACCORDO
100
AcDbPolyline
 62
7
  6
CONTINUOUS
 90
5
 70
0
 10
22.8754877505
 20
-26.5820351243
 10
22.8845381117
 20
-26.5695426502
 10
22.8902457805
 20
-26.5587334035
 10
22.8929177736
 20
-26.5498947761
 10
22.8932200799
 20
-26.546023636
  0
LINE
  5
620
100
AcDbEntity
  8
DRAFT
100
AcDbLine
 62
7
  6
CONTINUOUS
 10
19.7488602832
 20
-27.8060012877
 11
19.6580792465
 21
-27.9225537375
  0
LINE
  5
621
100
AcDbEntity
  8
0
100
AcDbLine
 62
7
  6
CONTINUOUS
 10
19.1517311843
 20
-32.9140200423
 11
19.1717586875
 21
-32.888922785
  0
LINE
  5
622
100
AcDbEntity
  8
0
100
AcDbLine
 62
7
  6
CONTINUOUS
 10
18.9606418896
 20
-33.4726038263
 11
18.9806158872
 21
-33.447573619
  0
LINE
  5
623
100
AcDbEntity
  8
0
100
AcDbLine
 62
7
  6
CONTINUOUS
 10
20.6534459537
 20
-33.9886355463
 11
20.6735569227
 21
-33.9634336947
  0
LINE
  5
624
100
AcDbEntity
  8
DRAFT
100
AcDbLine
 62
7
  6
CONTINUOUS
 10
20.1578294476
 20
-27.2997854144
 11
19.7488602832
 21
-27.8060012877
  0
LWPOLYLINE
  5
625
100
AcDbEntity
  8
SUPERFICI
100
AcDbPolyline
 62
250
  6
CONTINUOUS
 90
10
 70
0
 10
35.4068833751
 20
5.1407870776
 10
35.3426479543
 20
5.2452672396
 10
35.2773709881
 20
5.3486601032
 10
35.2110326854
 20
5.4508674507
 10
35.1435521031
 20
5.5519053126
 10
35.0747951265
 20
5.6518863729
 10
35.004729586
 20
5.750814895
 10
34.9334647521
 20
5.848521208
 10
34.861155145
 20
5.94478386
 10
34.787953554
 20
6.0393994472
  0
LWPOLYLINE
  5
626
100
AcDbEntity
  8
SUPERFICI
100
AcDbPolyline
 62
250
  6
CONTINUOUS
 90
10
 70
0
 10
35.9119057402
 20
4.2127728161
 10
35.8596263496
 20
4.3187584687
 10
35.8064198556
 20
4.4240399465
 10
35.7522784072
 20
4.5285990142
 10
35.6971629224
 20
4.6324780885
 10
35.6410918501
 20
4.7356111471
 10
35.5840452637
 20
4.8380032541
 10
35.5260022142
 20
4.9396701557
 10
35.4669767295
 20
5.0405590017
 10
35.4068833751
 20
5.1407870776
  0
LINE
  5
627
100
AcDbEntity
  8
SUPERFICI
100
AcDbLine
 62
250
  6
CONTINUOUS
 10
35.9119057402
 20
4.2127728161
 11
36.2352133942
 21
3.4948379198
  0
LINE
  5
628
100
AcDbEntity
  8
SUPERFICI
100
AcDbLine
 62
250
  6
CONTINUOUS
 10
36.2352133942
 20
3.4948379198
 11
36.5153448711
 21
2.7591572736
  0
LWPOLYLINE
  5
629
100
AcDbEntity
  8
SUPERFICI
100
AcDbPolyline
 62
250
  6
CONTINUOUS
 90
8
 70
0
 10
36.5153448711
 20
2.7591572736
 10
36.7540771367
 20
2.0081783042
 10
36.9624727359
 20
1.2424649857
 10
37.1614247562
 20
0.461669057
 10
37.3585197882
 20
-0.3333413722
 10
37.5505048383
 20
-1.1418954011
 10
37.7379012534
 20
-1.9644950361
 10
37.9201674834
 20
-2.8011191729
  0
LWPOLYLINE
  5
62A
100
AcDbEntity
  8
SUPERFICI
100
AcDbPolyline
 62
250
  6
CONTINUOUS
 90
6
 70
0
 10
48.8194662616
 20
-48.7592184584
 10
48.8415377513
 20
-48.8378174154
 10
48.8716739854
 20
-48.8998849188
 10
48.9095393923
 20
-48.9446323894
 10
48.9545560393
 20
-48.9712912387
 10
48.9607490512
 20
-48.9733353278
  0
LWPOLYLINE
  5
62B
100
AcDbEntity
  8
SUPERFICI
100
AcDbPolyline
 62
250
  6
CONTINUOUS
 90
3
 70
0
 10
38.5541646404
 20
-6.0928294213
 10
38.2543701304
 20
-4.4500139115
 10
37.9201674834
 20
-2.8011191729
  0
LWPOLYLINE
  5
62C
100
AcDbEntity
  8
SUPERFICI
100
AcDbPolyline
 62
250
  6
CONTINUOUS
 90
6
 70
0
 10
39.5342210634
 20
-14.1983106538
 10
39.4077075487
 20
-12.5939776781
 10
39.2463632451
 20
-10.9805086543
 10
39.0502428834
 20
-9.3585441975
 10
38.8194733797
 20
-7.7291000449
 10
38.5541646404
 20
-6.0928294213
  0
LWPOLYLINE
  5
62D
100
AcDbEntity
  8
SUPERFICI
100
AcDbPolyline
 62
250
  6
CONTINUOUS
 90
3
 70
0
 10
39.68264757
 20
-17.3782866543
 10
39.6258818131
 20
-15.7932329616
 10
39.5342210634
 20
-14.1983106538
  0
LWPOLYLINE
  5
62E
100
AcDbEntity
  8
SUPERFICI
100
AcDbPolyline
 62
250
  6
CONTINUOUS
 90
3
 70
0
 10
39.68264757
 20
-17.3782866543
 10
39.7044763968
 20
-18.9526115542
 10
39.6913677506
 20
-20.5153601956
  0
LWPOLYLINE
  5
62F
100
AcDbEntity
  8
SUPERFICI
100
AcDbPolyline
 62
250
  6
CONTINUOUS
 90
6
 70
0
 10
39.6913677506
 20
-20.5153601956
 10
39.6433415493
 20
-22.0660937154
 10
39.5604063393
 20
-23.6045468672
 10
39.4425855757
 20
-25.1301030459
 10
39.2899572037
 20
-26.6418094252
 10
39.1026000715
 20
-28.1390707451
  0
LWPOLYLINE
  5
630
100
AcDbEntity
  8
SUPERFICI
100
AcDbPolyline
 62
7
  6
CONTINUOUS
 90
10
 70
0
 10
29.6600704853
 20
-32.7289234429
 10
29.6873900336
 20
-32.6628402898
 10
29.7121237366
 20
-32.5954136152
 10
29.734270214
 20
-32.5266848888
 10
29.7538320466
 20
-32.4566785814
 10
29.7708107922
 20
-32.3853903544
 10
29.7851777401
 20
-32.3129650322
 10
29.7969188109
 20
-32.2395130232
 10
29.806047416
 20
-32.1649927316
 10
29.8125614546
 20
-32.0894380089
  0
LWPOLYLINE
  5
631
100
AcDbEntity
  8
0
100
AcDbPolyline
 62
7
  6
CONTINUOUS
 90
8
 70
0
 10
28.3994463148
 20
-35.0383257876
 10
28.4237152613
 20
-34.9921871176
 10
28.4306834681
 20
-34.9388646755
 10
28.4207387501
 20
-34.8799559457
 10
28.3956586816
 20
-34.820252178
 10
28.3584369724
 20
-34.7635689736
 10
28.3115542954
 20
-34.7119340279
 10
28.2582841561
 20
-34.6670133446
  0
LINE
  5
632
100
AcDbEntity
  8
0
100
AcDbLine
 62
7
  6
CONTINUOUS
 10
28.3795340413
 20
-35.0632786462
 11
28.4037791124
 21
-35.0172156796
  0
LINE
  5
633
100
AcDbEntity
  8
SUPERFICI
100
AcDbLine
 62
7
  6
CONTINUOUS
 10
26.4898977344
 20
-31.2317710694
 11
26.4117143266
 21
-31.3714057574
  0
LINE
  5
634
100
AcDbEntity
  8
SUPERFICI
100
AcDbLine
 62
7
  6
CONTINUOUS
 10
26.5727497826
 20
-31.1123191106
 11
26.4898977344
 21
-31.2317710694
  0
LINE
  5
635
100
AcDbEntity
  8
0
100
AcDbLine
 62
7
  6
CONTINUOUS
 10
26.7507960234
 20
-30.8845677058
 11
26.5728006917
 21
-31.1130723427
  0
LINE
  5
636
100
AcDbEntity
  8
0
100
AcDbLine
 62
7
  6
CONTINUOUS
 10
22.0678882399
 20
-33.1051597217
 11
22.0877200649
 21
-33.0803076764
  0
LINE
  5
637
100
AcDbEntity
  8
0
100
AcDbLine
 62
7
  6
CONTINUOUS
 10
21.6885402743
 20
-34.3035457822
 11
21.7086504835
 21
-34.2783448826
  0
LINE
  5
638
100
AcDbEntity
  8
0
100
AcDbLine
 62
7
  6
CONTINUOUS
 10
22.8779798511
 20
-33.9754117228
 11
22.8979037173
 21
-33.9504443371
  0
LINE
  5
639
100
AcDbEntity
  8
0
100
AcDbLine
 62
7
  6
CONTINUOUS
 10
22.6956839627
 20
-34.6095302713
 11
22.7156890621
 21
-34.5844610891
  0
LINE
  5
63A
100
AcDbEntity
  8
0
100
AcDbLine
 62
7
  6
CONTINUOUS
 10
23.5632195495
 20
-33.5614064633
 11
23.5830348822
 21
-33.5365750853
  0
LINE
  5
63B
100
AcDbEntity
  8
0
100
AcDbLine
 62
7
  6
CONTINUOUS
 10
23.7029141881
 20
-34.91539659
 11
23.7228893736
 21
-34.8903648941
  0
LINE
  5
63C
100
AcDbEntity
  8
0
100
AcDbLine
 62
7
  6
CONTINUOUS
 10
24.5662198237
 20
-35.1769295021
 11
24.5862108635
 21
-35.1518779385
  0
LINE
  5
63D
100
AcDbEntity
  8
0
100
AcDbLine
 62
7
  6
CONTINUOUS
 10
25.5101684926
 20
-34.0944339405
 11
25.5300563832
 21
-34.0695116372
  0
LINE
  5
63E
100
AcDbEntity
  8
0
100
AcDbLine
 62
7
  6
CONTINUOUS
 10
25.2034208572
 20
-34.9829221583
 11
25.2233517213
 21
-34.9579460032
  0
LINE
  5
63F
100
AcDbEntity
  8
0
100
AcDbLine
 62
7
  6
CONTINUOUS
 10
25.8232091014
 20
-34.7927994293
 11
25.8430947107
 21
-34.7678799847
  0
LINE
  5
640
100
AcDbEntity
  8
0
100
AcDbLine
 62
7
  6
CONTINUOUS
 10
26.0222535168
 20
-35.2297918416
 11
26.0421910074
 21
-35.2048073825
  0
LWPOLYLINE
  5
641
100
AcDbEntity
  8
SUPERFICI
100
AcDbPolyline
 62
7
  6
CONTINUOUS
 90
5
 70
0
 10
26.767357285
 20
-31.0566824676
 10
26.7380067933
 20
-31.0737486028
 10
26.7005147388
 20
-31.0896860173
 10
26.6600401048
 20
-31.1016517072
 10
26.617268295
 20
-31.1094863812
  0
LWPOLYLINE
  5
642
100
AcDbEntity
  8
SUPERFICI
100
AcDbPolyline
 62
7
  6
CONTINUOUS
 90
10
 70
0
 10
28.5038821166
 20
-33.7162272238
 10
28.613424289
 20
-33.6788311872
 10
28.7180326965
 20
-33.6370990728
 10
28.8178631828
 20
-33.591148514
 10
28.9132613569
 20
-33.5410149256
 10
29.0042812773
 20
-33.4869332566
 10
29.0904714607
 20
-33.4292094533
 10
29.1715603238
 20
-33.3679652572
 10
29.2475212136
 20
-33.3033777789
 10
29.3181783091
 20
-33.2357658681
  0
LWPOLYLINE
  5
643
100
AcDbEntity
  8
SUPERFICI
100
AcDbPolyline
 62
250
  6
CONTINUOUS
 90
5
 70
0
 10
-47.572038991
 20
36.6432433761
 10
-47.2300838526
 20
36.6535347124
 10
-46.8751541776
 20
36.6473240778
 10
-46.5089236024
 20
36.6264598139
 10
-46.1328839892
 20
36.5925805343
  0
LWPOLYLINE
  5
644
100
AcDbEntity
  8
SUPERFICI
100
AcDbPolyline
 62
250
  6
CONTINUOUS
 90
10
 70
0
 10
48.3095646346
 20
11.1687432524
 10
48.2067598962
 20
11.2456293455
 10
48.1019132335
 20
11.3194858336
 10
47.9950887502
 20
11.3898617408
 10
47.8865625839
 20
11.4561434411
 10
47.7762230055
 20
11.518016515
 10
47.6635132629
 20
11.5753483142
 10
47.5485015631
 20
11.6282075921
 10
47.4320493078
 20
11.677253677
 10
47.3148636821
 20
11.7234377677
  0
LWPOLYLINE
  5
645
100
AcDbEntity
  8
SUPERFICI
100
AcDbPolyline
 62
250
  6
CONTINUOUS
 90
10
 70
0
 10
45.8884953262
 20
10.0620983162
 10
45.7250075166
 20
10.2055613144
 10
45.5467385816
 20
10.3409996016
 10
45.3567463715
 20
10.4691061062
 10
45.1581607817
 20
10.5908801016
 10
44.9523544157
 20
10.7071850419
 10
44.740068584
 20
10.8190838969
 10
44.5218138607
 20
10.9282409384
 10
44.2978572514
 20
11.0353323146
 10
44.0687093683
 20
11.1404108023
  0
LINE
  5
646
100
AcDbEntity
  8
SUPERFICI
100
AcDbLine
 62
250
  6
CONTINUOUS
 10
45.8884953262
 20
10.0620983162
 11
45.9933872044
 21
9.9557652092
  0
LINE
  5
647
100
AcDbEntity
  8
SUPERFICI
100
AcDbLine
 62
250
  6
CONTINUOUS
 10
45.9933872044
 20
9.9557652092
 11
46.0909162682
 21
9.8426886129
  0
LWPOLYLINE
  5
648
100
AcDbEntity
  8
SUPERFICI
100
AcDbPolyline
 62
250
  6
CONTINUOUS
 90
10
 70
0
 10
42.4990183032
 20
7.3776476982
 10
42.4239786862
 20
7.4998017187
 10
42.3465199322
 20
7.6198784728
 10
42.2667465347
 20
7.7378152658
 10
42.185008554
 20
7.8532403916
 10
42.1009430618
 20
7.9666508639
 10
42.0140160206
 20
8.0787250969
 10
41.9244102048
 20
8.1891895566
 10
41.8326402001
 20
8.2974272584
 10
41.7389255715
 20
8.4033246033
  0
LWPOLYLINE
  5
649
100
AcDbEntity
  8
SUPERFICI
100
AcDbPolyline
 62
250
  6
CONTINUOUS
 90
10
 70
0
 10
43.0151651339
 20
6.2940282454
 10
42.9682417063
 20
6.4194690603
 10
42.9185601932
 20
6.5438054275
 10
42.8661968857
 20
6.6669440859
 10
42.8111975441
 20
6.7888621363
 10
42.7536560993
 20
6.9094275491
 10
42.6936061341
 20
7.0286352759
 10
42.6311203818
 20
7.1464293723
 10
42.5662868732
 20
7.2627003681
 10
42.4990183032
 20
7.3776476982
  0
LWPOLYLINE
  5
64A
100
AcDbEntity
  8
SUPERFICI
100
AcDbPolyline
 62
250
  6
CONTINUOUS
 90
3
 70
0
 10
44.3564386884
 20
-1.7257011864
 10
44.5609182247
 20
-3.605618381
 10
44.7467493745
 20
-5.4808730509
  0
LWPOLYLINE
  5
64B
100
AcDbEntity
  8
SUPERFICI
100
AcDbPolyline
 62
250
  6
CONTINUOUS
 90
4
 70
0
 10
47.1552366926
 20
5.0346662497
 10
47.0730393888
 20
5.9519136736
 10
46.962426044
 20
6.8576076843
 10
46.8256579215
 20
7.7505450165
  0
LWPOLYLINE
  5
64C
100
AcDbEntity
  8
SUPERFICI
100
AcDbPolyline
 62
250
  6
CONTINUOUS
 90
5
 70
0
 10
44.7467493745
 20
-5.4808730509
 10
44.913923142
 20
-7.3513554833
 10
45.0624336726
 20
-9.2169980162
 10
45.1922679824
 20
-11.0776486065
 10
45.3034101761
 20
-12.9330719802
  0
LINE
  5
64D
100
AcDbEntity
  8
SUPERFICI
100
AcDbLine
 62
250
  6
CONTINUOUS
 10
47.2195271649
 20
4.1032655438
 11
47.1552366926
 21
5.0346662497
  0
LINE
  5
64E
100
AcDbEntity
  8
SUPERFICI
100
AcDbLine
 62
250
  6
CONTINUOUS
 10
47.5188243008
 20
-0.8130331963
 11
47.2195271649
 21
4.1032655438
  0
LWPOLYLINE
  5
64F
100
AcDbEntity
  8
SUPERFICI
100
AcDbPolyline
 62
250
  6
CONTINUOUS
 90
3
 70
0
 10
47.7333760529
 20
-4.8432694802
 10
47.6296971367
 20
-2.8291887806
 10
47.5188243008
 20
-0.8130331963
  0
LWPOLYLINE
  5
650
100
AcDbEntity
  8
SUPERFICI
100
AcDbPolyline
 62
250
  6
CONTINUOUS
 90
4
 70
0
 10
45.3034101761
 20
-12.9330719802
 10
45.3958531762
 20
-14.783117716
 10
45.4695945042
 20
-16.6277190955
 10
45.5246289631
 20
-18.4667674758
  0
LINE
  5
651
100
AcDbEntity
  8
SUPERFICI
100
AcDbLine
 62
250
  6
CONTINUOUS
 10
47.9191500529
 20
-8.8651636074
 11
47.8341249775
 21
-6.9512569192
  0
LINE
  5
652
100
AcDbEntity
  8
SUPERFICI
100
AcDbLine
 62
250
  6
CONTINUOUS
 10
47.8341249775
 20
-6.9512569192
 11
47.7333760529
 21
-4.8432694802
  0
LWPOLYLINE
  5
653
100
AcDbEntity
  8
SUPERFICI
100
AcDbPolyline
 62
250
  6
CONTINUOUS
 90
4
 70
0
 10
48.1438423831
 20
-14.8821425006
 10
48.076141658
 20
-12.8786186994
 10
48.0012440339
 20
-10.8729545564
 10
47.9191500529
 20
-8.8651636074
  0
LINE
  5
654
100
AcDbEntity
  8
SUPERFICI
100
AcDbLine
 62
250
  6
CONTINUOUS
 10
48.2043458318
 20
-16.8835170694
 11
48.1438423831
 21
-14.8821425006
  0
LINE
  5
655
100
AcDbEntity
  8
SUPERFICI
100
AcDbLine
 62
250
  6
CONTINUOUS
 10
48.257651536
 20
-18.8827311899
 11
48.2043458318
 21
-16.8835170694
  0
LINE
  5
656
100
AcDbEntity
  8
SUPERFICI
100
AcDbLine
 62
250
  6
CONTINUOUS
 10
48.257651536
 20
-18.8827311899
 11
48.3037581177
 21
-20.8797345296
  0
LWPOLYLINE
  5
657
100
AcDbEntity
  8
SUPERFICI
100
AcDbPolyline
 62
250
  6
CONTINUOUS
 90
5
 70
0
 10
48.3037581177
 20
-20.8797345296
 10
48.3426644526
 20
-22.874476834
 10
48.3743704539
 20
-24.8669470042
 10
48.3988760586
 20
-26.8571362463
 10
48.4161811391
 20
-28.8450311516
  0
LWPOLYLINE
  5
658
100
AcDbEntity
  8
SUPERFICI
100
AcDbPolyline
 62
250
  6
CONTINUOUS
 90
3
 70
0
 10
45.5785547008
 20
-22.1274315106
 10
45.5609500721
 20
-20.3000691677
 10
45.5246289631
 20
-18.4667674758
  0
LINE
  5
659
100
AcDbEntity
  8
SUPERFICI
100
AcDbLine
 62
250
  6
CONTINUOUS
 10
45.5774426795
 20
-23.9487474057
 11
45.5785547008
 21
-22.1274315106
  0
LWPOLYLINE
  5
65A
100
AcDbEntity
  8
SUPERFICI
100
AcDbPolyline
 62
250
  6
CONTINUOUS
 90
5
 70
0
 10
45.3858362732
 20
-31.1711607245
 10
45.461805024
 20
-29.3753450039
 10
45.5190658465
 20
-27.5728928602
 10
45.5576131797
 20
-25.7639506412
 10
45.5774426795
 20
-23.9487474057
  0
LWPOLYLINE
  5
65B
100
AcDbEntity
  8
SUPERFICI
100
AcDbPolyline
 62
250
  6
CONTINUOUS
 90
3
 70
0
 10
45.1777862777
 20
-34.7425818205
 10
45.2911621466
 20
-32.9602749415
 10
45.3858362732
 20
-31.1711607245
  0
LWPOLYLINE
  5
65C
100
AcDbEntity
  8
SUPERFICI
100
AcDbPolyline
 62
250
  6
CONTINUOUS
 90
4
 70
0
 10
44.9704552523
 20
-37.4380067862
 10
45.0419692981
 20
-36.5632696045
 10
45.1113820347
 20
-35.6649087937
 10
45.1777862777
 20
-34.7425818205
  0
LWPOLYLINE
  5
65D
100
AcDbEntity
  8
SUPERFICI
100
AcDbPolyline
 62
250
  6
CONTINUOUS
 90
10
 70
0
 10
47.3148636785
 20
11.723437769
 10
47.3317953419
 20
11.8514517412
 10
47.3570963991
 20
11.9837507432
 10
47.3904906656
 20
12.118736076
 10
47.431473125
 20
12.2542452212
 10
47.4791464927
 20
12.3869009169
 10
47.5321206905
 20
12.5128414903
 10
47.5890406412
 20
12.6291889436
 10
47.6490164683
 20
12.7342100127
 10
47.7113517219
 20
12.8267338804
  0
LWPOLYLINE
  5
65E
100
AcDbEntity
  8
SUPERFICI
100
AcDbPolyline
 62
250
  6
CONTINUOUS
 90
3
 70
0
 10
39.1026000715
 20
-28.1390707451
 10
38.8805543497
 20
-29.6216341753
 10
38.6238755209
 20
-31.0890749371
  0
LINE
  5
65F
100
AcDbEntity
  8
SUPERFICI
100
AcDbLine
 62
250
  6
CONTINUOUS
 10
38.6238755209
 20
-31.0890749371
 11
38.4808449513
 21
-31.8256539999
  0
LINE
  5
660
100
AcDbEntity
  8
SUPERFICI
100
AcDbLine
 62
250
  6
CONTINUOUS
 10
38.4808449513
 20
-31.8256539999
 11
38.3318196972
 21
-32.5448028137
  0
LWPOLYLINE
  5
661
100
AcDbEntity
  8
SUPERFICI
100
AcDbPolyline
 62
250
  6
CONTINUOUS
 90
5
 70
0
 10
38.3318196972
 20
-32.5448028137
 10
38.1772376139
 20
-33.2467749887
 10
38.0175632749
 20
-33.9322655107
 10
37.8541488943
 20
-34.6015854717
 10
37.6811277932
 20
-35.2502248346
  0
LINE
  5
662
100
AcDbEntity
  8
SUPERFICI
100
AcDbLine
 62
250
  6
CONTINUOUS
 10
37.6811277932
 20
-35.2502248346
 11
37.4763467371
 21
-35.8651126481
  0
LINE
  5
663
100
AcDbEntity
  8
0
100
AcDbLine
 62
7
  6
CONTINUOUS
 10
26.2303038534
 20
-35.6795179912
 11
26.2502925399
 21
-35.6544693765
  0
LINE
  5
664
100
AcDbEntity
  8
0
100
AcDbLine
 62
7
  6
CONTINUOUS
 10
27.4329475912
 20
-34.420980669
 11
27.4528455065
 21
-34.3960458034
  0
LINE
  5
665
100
AcDbEntity
  8
0
100
AcDbLine
 62
250
  6
CONTINUOUS
 10
28.067587249
 20
-34.6063418754
 11
28.087467467
 21
-34.581429187
  0
LINE
  5
666
100
AcDbEntity
  8
0
100
AcDbLine
 62
7
  6
CONTINUOUS
 10
27.5307335984
 20
-35.302862015
 11
27.5508211285
 21
-35.2776895355
  0
LINE
  5
667
100
AcDbEntity
  8
0
100
AcDbLine
 62
7
  6
CONTINUOUS
 10
27.0960018388
 20
-35.9380612928
 11
27.115803074
 21
-35.9132475809
  0
LINE
  5
668
100
AcDbEntity
  8
0
100
AcDbLine
 62
7
  6
CONTINUOUS
 10
27.9849285614
 20
-35.4371814842
 11
28.0049419789
 21
-35.4121018782
  0
LINE
  5
669
100
AcDbEntity
  8
ASSI
100
AcDbLine
 62
7
  6
CONTINUOUS
 10
28.3995772007
 20
-35.0381617705
 11
28.3796640522
 21
-35.0631157255
  0
LINE
  5
66A
100
AcDbEntity
  8
0
100
AcDbLine
 62
7
  6
CONTINUOUS
 10
28.5340475945
 20
-35.5509173715
 11
28.5539643094
 21
-35.5259589473
  0
LINE
  5
66B
100
AcDbEntity
  8
0
100
AcDbLine
 62
7
  6
CONTINUOUS
 10
28.5924727292
 20
-36.3801257791
 11
28.6124998168
 21
-36.3550290426
  0
LWPOLYLINE
  5
66C
100
AcDbEntity
  8
0
100
AcDbPolyline
 62
7
  6
CONTINUOUS
 90
5
 70
0
 10
28.9104523822
 20
-35.3700138321
 10
28.8622645079
 20
-35.4263150829
 10
28.7951526729
 20
-35.4786135007
 10
28.7162642614
 20
-35.5166990768
 10
28.628375608
 20
-35.5406112931
  0
LWPOLYLINE
  5
66D
100
AcDbEntity
  8
SUPERFICI
100
AcDbPolyline
 62
7
  6
CONTINUOUS
 90
10
 70
0
 10
29.3181783091
 20
-33.2357658681
 10
29.3648408681
 20
-33.1863927893
 10
29.4095121454
 20
-33.1350868999
 10
29.452065908
 20
-33.0819654786
 10
29.492419139
 20
-33.0271299652
 10
29.5305178536
 20
-32.9706643415
 10
29.566339017
 20
-32.9126064776
 10
29.5998809907
 20
-32.8529620055
 10
29.6311357131
 20
-32.7917391063
 10
29.6600902799
 20
-32.728937712
  0
LWPOLYLINE
  5
66E
100
AcDbEntity
  8
0
100
AcDbPolyline
 62
7
  6
CONTINUOUS
 90
3
 70
0
 10
28.8827317444
 20
-35.4008116411
 10
28.8156038058
 20
-35.4533187547
 10
28.7366185759
 20
-35.4915710729
  0
LWPOLYLINE
  5
66F
100
AcDbEntity
  8
SUPERFICI
100
AcDbPolyline
 62
250
  6
CONTINUOUS
 90
8
 70
0
 10
46.0909162682
 20
9.8426886129
 10
46.1793256273
 20
9.7236729296
 10
46.2581390113
 20
9.5998829864
 10
46.3282036216
 20
9.4721905969
 10
46.3906782325
 20
9.3408077261
 10
46.4466273971
 20
9.2060111527
 10
46.4970778893
 20
9.06853858
 10
46.5433153242
 20
8.9289688607
  0
LWPOLYLINE
  5
670
100
AcDbEntity
  8
SUPERFICI
100
AcDbPolyline
 62
250
  6
CONTINUOUS
 90
10
 70
0
 10
46.8256579215
 20
7.7505450165
 10
46.8010039987
 20
7.8837918206
 10
46.7749234144
 20
8.0164758614
 10
46.7473412331
 20
8.1485732213
 10
46.7181682445
 20
8.2801432676
 10
46.6873432415
 20
8.4110960312
 10
46.6546599723
 20
8.5414167672
 10
46.6198555449
 20
8.6712091607
 10
46.5827795561
 20
8.8004433181
 10
46.5433153242
 20
8.9289688607
  0
LWPOLYLINE
  5
671
100
AcDbEntity
  8
SUPERFICI
100
AcDbPolyline
 62
250
  6
CONTINUOUS
 90
7
 70
0
 10
44.0099432798
 20
1.1395504814
 10
43.8916948074
 20
2.0496893472
 10
43.7696657995
 20
2.9376873293
 10
43.6357331137
 20
3.8045309185
 10
43.4772148847
 20
4.6521056902
 10
43.2727376581
 20
5.4824015884
 10
43.0151651339
 20
6.2940282454
  0
LWPOLYLINE
  5
672
100
AcDbEntity
  8
SUPERFICI
100
AcDbPolyline
 62
250
  6
CONTINUOUS
 90
4
 70
0
 10
44.3564386884
 20
-1.7257011864
 10
44.2430120202
 20
-0.7481994121
 10
44.1274134991
 20
0.2069148801
 10
44.0099432798
 20
1.1395504814
  0
LWPOLYLINE
  5
673
100
AcDbEntity
  8
SUPERFICI
100
AcDbPolyline
 62
250
  6
CONTINUOUS
 90
5
 70
0
 10
49.226530627
 20
9.4776466856
 10
49.2200800736
 20
9.5932522406
 10
49.2065680037
 20
9.7107401224
 10
49.1836418271
 20
9.8297330374
 10
49.1518684084
 20
9.9496523151
  0
LINE
  5
674
100
AcDbEntity
  8
SUPERFICI
100
AcDbLine
 62
250
  6
CONTINUOUS
 10
49.2366307932
 20
9.2463812782
 11
49.226530627
 21
9.4776466856
  0
LINE
  5
675
100
AcDbEntity
  8
SUPERFICI
100
AcDbLine
 62
250
  6
CONTINUOUS
 10
49.2456720782
 20
9.0096714496
 11
49.2366307932
 21
9.2463812782
  0
LWPOLYLINE
  5
676
100
AcDbEntity
  8
SUPERFICI
100
AcDbPolyline
 62
250
  6
CONTINUOUS
 90
4
 70
0
 10
49.3454569918
 20
6.0018740985
 10
49.3141001407
 20
6.9747342936
 10
49.2765425238
 20
7.9388464936
 10
49.2456720782
 20
9.0096714496
  0
LWPOLYLINE
  5
677
100
AcDbEntity
  8
SUPERFICI
100
AcDbPolyline
 62
250
  6
CONTINUOUS
 90
9
 70
0
 10
50.6415787522
 20
-47.1028553897
 10
50.6495291644
 20
-47.3457518301
 10
50.6523245623
 20
-47.4660590224
 10
50.6532544932
 20
-47.5837202751
 10
50.651511459
 20
-47.6983662411
 10
50.646137274
 20
-47.8106206595
 10
50.6359797801
 20
-47.9196773972
 10
50.6198449032
 20
-48.0234999867
 10
50.5964094114
 20
-48.1204895368
  0
LWPOLYLINE
  5
678
100
AcDbEntity
  8
SUPERFICI
100
AcDbPolyline
 62
250
  6
CONTINUOUS
 90
3
 70
0
 10
49.6803670697
 20
-6.0800308582
 10
49.6213726178
 20
-4.0329716966
 10
49.4981812152
 20
-0.0444045446
  0
LWPOLYLINE
  5
679
100
AcDbEntity
  8
SUPERFICI
100
AcDbPolyline
 62
250
  6
CONTINUOUS
 90
3
 70
0
 10
49.5137879415
 20
-0.025830413
 10
49.3984270285
 20
4.0296887997
 10
49.3454569918
 20
6.0018740985
  0
LINE
  5
67A
100
AcDbEntity
  8
SUPERFICI
100
AcDbLine
 62
250
  6
CONTINUOUS
 10
50.0369769556
 20
-19.1226326428
 11
49.8482837229
 21
-12.4297720086
  0
LINE
  5
67B
100
AcDbEntity
  8
SUPERFICI
100
AcDbLine
 62
250
  6
CONTINUOUS
 10
49.8482837229
 20
-12.4297720086
 11
49.6803670697
 21
-6.0800308582
  0
LINE
  5
67C
100
AcDbEntity
  8
0
100
AcDbLine
 62
7
  6
CONTINUOUS
 10
52.0797664078
 20
-14.937023031
 11
52.2147829245
 21
-20.3644745443
  0
LINE
  5
67D
100
AcDbEntity
  8
0
100
AcDbLine
 62
7
  6
CONTINUOUS
 10
52.6351922258
 20
12.3943364973
 11
53.2779241323
 21
-13.4424747549
  0
LINE
  5
67E
100
AcDbEntity
  8
0
100
AcDbLine
 62
7
  6
CONTINUOUS
 10
53.4210405905
 20
-19.1955311682
 11
54.063772497
 21
-45.0323424205
  0
LINE
  5
67F
100
AcDbEntity
  8
SUPERFICI
100
AcDbLine
 62
250
  6
CONTINUOUS
 10
50.3922377822
 20
9.9097032429
 11
51.0440748986
 21
-16.3700141129
  0
LINE
  5
680
100
AcDbEntity
  8
SUPERFICI
100
AcDbLine
 62
250
  6
CONTINUOUS
 10
51.0440748986
 20
-16.3700141129
 11
51.8208180534
 21
-47.5169756748
  0
LINE
  5
681
100
AcDbEntity
  8
SUPERFICI
100
AcDbLine
 62
250
  6
CONTINUOUS
 10
50.282230938
 20
-30.0900441688
 11
50.3293159251
 21
-32.1685729548
  0
LINE
  5
682
100
AcDbEntity
  8
SUPERFICI
100
AcDbLine
 62
250
  6
CONTINUOUS
 10
50.0297439783
 20
-19.1217053903
 11
50.282230938
 21
-30.0900441688
  0
LINE
  5
683
100
AcDbEntity
  8
SUPERFICI
100
AcDbLine
 62
250
  6
CONTINUOUS
 10
50.5317626447
 20
-41.349008026
 11
50.5749544635
 21
-43.3396660252
  0
LWPOLYLINE
  5
684
100
AcDbEntity
  8
SUPERFICI
100
AcDbPolyline
 62
250
  6
CONTINUOUS
 90
5
 70
0
 10
50.5749544635
 20
-43.3396660252
 10
50.5940207325
 20
-44.3076390988
 10
50.6081662041
 20
-45.2575014311
 10
50.6174707513
 20
-46.1897989422
 10
50.6204865534
 20
-47.0847277924
  0
LWPOLYLINE
  5
685
100
AcDbEntity
  8
SUPERFICI
100
AcDbPolyline
 62
250
  6
CONTINUOUS
 90
3
 70
0
 10
50.3293159251
 20
-32.1685729548
 10
50.4113159649
 20
-36.2151110127
 10
50.4469126768
 20
-38.1819163969
  0
LINE
  5
686
100
AcDbEntity
  8
SUPERFICI
100
AcDbLine
 62
250
  6
CONTINUOUS
 10
50.4754971603
 20
-38.2025542527
 11
50.5317626447
 21
-41.349008026
  0
LWPOLYLINE
  5
687
100
AcDbEntity
  8
SUPERFICI
100
AcDbPolyline
 62
7
  6
CONTINUOUS
 90
10
 70
0
 10
51.8208210152
 20
-47.5169767112
 10
51.8215678923
 20
-47.5683392515
 10
51.820852984
 20
-47.6192239409
 10
51.8186768995
 20
-47.6696000438
 10
51.8150414734
 20
-47.7194324375
 10
51.8099490052
 20
-47.7686958347
 10
51.8034008557
 20
-47.817374239
 10
51.7953991179
 20
-47.8654422357
 10
51.7859480192
 20
-47.9128655727
 10
51.7750521802
 20
-47.9596149895
  0
LWPOLYLINE
  5
688
100
AcDbEntity
  8
SUPERFICI
100
AcDbPolyline
 62
250
  6
CONTINUOUS
 90
4
 70
0
 10
48.4161811391
 20
-28.8450311516
 10
48.4262855855
 20
-30.8306137232
 10
48.4291893869
 20
-32.8138705901
 10
48.4248925472
 20
-34.7947929811
  0
LINE
  5
689
100
AcDbEntity
  8
SUPERFICI
100
AcDbLine
 62
250
  6
CONTINUOUS
 10
48.4045210681
 20
-37.7690889749
 11
48.4248925472
 21
-34.7947929811
  0
LWPOLYLINE
  5
68A
100
AcDbEntity
  8
SUPERFICI
100
AcDbPolyline
 62
250
  6
CONTINUOUS
 90
6
 70
0
 10
48.1389017181
 20
-45.0397891117
 10
48.2330769252
 20
-44.2170207118
 10
48.2999932018
 20
-43.3652478595
 10
48.337432438
 20
-42.4843011381
 10
48.3560604204
 20
-41.5780475982
 10
48.4045210681
 20
-37.7690889749
  0
LWPOLYLINE
  5
68B
100
AcDbEntity
  8
SUPERFICI
100
AcDbPolyline
 62
250
  6
CONTINUOUS
 90
3
 70
0
 10
37.4763467371
 20
-35.8651126481
 10
37.2287825888
 20
-36.4389089274
 10
36.9363437851
 20
-36.9680245533
  0
LWPOLYLINE
  5
68C
100
AcDbEntity
  8
SUPERFICI
100
AcDbPolyline
 62
250
  6
CONTINUOUS
 90
10
 70
0
 10
36.9363437851
 20
-36.9680245533
 10
36.888573201
 20
-37.0432858279
 10
36.8398259349
 20
-37.1172582938
 10
36.7900931006
 20
-37.1899185756
 10
36.7393371411
 20
-37.2612855551
 10
36.687573479
 20
-37.3313036113
 10
36.634782135
 20
-37.399965554
 10
36.580942627
 20
-37.4672744063
 10
36.5260665492
 20
-37.5331851858
 10
36.4700730318
 20
-37.5977641081
  0
LINE
  5
68D
100
AcDbEntity
  8
0
100
AcDbLine
 62
7
  6
CONTINUOUS
 10
53.2779241323
 20
-13.4424747549
 11
52.0797664078
 21
-14.937023031
  0
LINE
  5
68E
100
AcDbEntity
  8
0
100
AcDbLine
 62
7
  6
CONTINUOUS
 10
52.1926646276
 20
-19.4753538142
 11
52.7075270794
 21
-18.9764180815
  0
LINE
  5
68F
100
AcDbEntity
  8
0
100
AcDbLine
 62
7
  6
CONTINUOUS
 10
52.2147829245
 20
-20.3644745443
 11
53.4210405905
 21
-19.1955311682
  0
LINE
  5
690
100
AcDbEntity
  8
RACCORDO
100
AcDbLine
 62
7
  6
CONTINUOUS
 10
52.1910053115
 20
-19.4086519163
 11
52.4958913264
 21
-19.1132699213
  0
LWPOLYLINE
  5
691
100
AcDbEntity
  8
SUPERFICI
100
AcDbPolyline
 62
250
  6
CONTINUOUS
 90
10
 70
0
 10
51.1043134852
 20
-18.806089254
 10
51.0253675923
 20
-18.8809519673
 10
50.9313885534
 20
-18.9478746937
 10
50.8239657588
 20
-19.0059481786
 10
50.7044827537
 20
-19.0543232591
 10
50.5753549598
 20
-19.0918704196
 10
50.4400678438
 20
-19.117581127
 10
50.3015302864
 20
-19.1310448551
 10
50.1616425561
 20
-19.132163013
 10
50.0225087355
 20
-19.1207774596
  0
LWPOLYLINE
  5
692
100
AcDbEntity
  8
SUPERFICI
100
AcDbPolyline
 62
250
  6
CONTINUOUS
 90
10
 70
0
 10
35.8866669654
 20
-38.1271507747
 10
35.9562449697
 20
-38.0763895446
 10
36.0248408572
 20
-38.0233986367
 10
36.0923163177
 20
-37.9682817245
 10
36.1585141829
 20
-37.9111814895
 10
36.2233024585
 20
-37.8522348677
 10
36.2867498144
 20
-37.7914133511
 10
36.3490166129
 20
-37.7286517066
 10
36.4101086504
 20
-37.6640728709
 10
36.4700730318
 20
-37.5977641081
  0
LWPOLYLINE
  5
693
100
AcDbEntity
  8
SUPERFICI
100
AcDbPolyline
 62
250
  6
CONTINUOUS
 90
10
 70
0
 10
35.8866669654
 20
-38.1271507747
 10
35.7755346483
 20
-38.2022927351
 10
35.6607112293
 20
-38.2727528073
 10
35.5424216304
 20
-38.3382225143
 10
35.4214003388
 20
-38.3981846626
 10
35.2972109403
 20
-38.4528442731
 10
35.168243954
 20
-38.5029374194
 10
35.0339569801
 20
-38.5487257968
 10
34.8949744117
 20
-38.5899954392
 10
34.7513772352
 20
-38.6267485668
  0
LWPOLYLINE
  5
694
100
AcDbEntity
  8
SUPERFICI
100
AcDbPolyline
 62
250
  6
CONTINUOUS
 90
10
 70
0
 10
-52.775632751
 20
40.3608961948
 10
-52.6168205168
 20
40.4053839721
 10
-52.4425972534
 20
40.4325753201
 10
-52.2561026318
 20
40.445066366
 10
-52.0605648359
 20
40.445808888
 10
-51.8574208925
 20
40.43652915
 10
-51.6474768191
 20
40.4187652918
 10
-51.4313344908
 20
40.3945232072
 10
-51.2092989237
 20
40.3646547067
 10
-50.9818912377
 20
40.3295294022
  0
LWPOLYLINE
  5
695
100
AcDbEntity
  8
SUPERFICI
100
AcDbPolyline
 62
250
  6
CONTINUOUS
 90
10
 70
0
 10
-54.8892246395
 20
42.860091653
 10
-54.7886173586
 20
42.8745118857
 10
-54.6855398493
 20
42.8845168749
 10
-54.5800583716
 20
42.8896956783
 10
-54.4724549362
 20
42.8896060717
 10
-54.3626203843
 20
42.8838658033
 10
-54.2499936103
 20
42.8719989412
 10
-54.1346499133
 20
42.8541183085
 10
-54.0174761907
 20
42.831420119
 10
-53.8992050856
 20
42.8052977287
  0
LWPOLYLINE
  5
696
100
AcDbEntity
  8
SUPERFICI
100
AcDbPolyline
 62
250
  6
CONTINUOUS
 90
10
 70
0
 10
49.1083655095
 20
10.081144962
 10
49.0540715932
 20
10.2172910477
 10
48.9900300837
 20
10.3505966637
 10
48.916939125
 20
10.4804342229
 10
48.8358973403
 20
10.6056157404
 10
48.7471945443
 20
10.7262544076
 10
48.6500332068
 20
10.8434820089
 10
48.5443516816
 20
10.956976956
 10
48.4308987637
 20
11.065473566
 10
48.3095646346
 20
11.1687432524
  0
LWPOLYLINE
  5
697
100
AcDbEntity
  8
SUPERFICI
100
AcDbPolyline
 62
250
  6
CONTINUOUS
 90
10
 70
0
 10
49.1518684084
 20
9.9496523151
 10
49.14750683
 20
9.964298266
 10
49.1430254987
 20
9.978938787
 10
49.1384250671
 20
9.9935726192
 10
49.1337059403
 20
10.0081992522
 10
49.1288690083
 20
10.0228166869
 10
49.1239157067
 20
10.037421439
 10
49.1188470106
 20
10.0520115212
 10
49.113663375
 20
10.0665864403
 10
49.1083655094
 20
10.081144962
  0
LWPOLYLINE
  5
698
100
AcDbEntity
  8
SUPERFICI
100
AcDbPolyline
 62
7
  6
CONTINUOUS
 90
10
 70
0
 10
50.3234589787
 20
10.3921475158
 10
50.336866038
 20
10.3374886145
 10
50.3488457454
 20
10.2830213721
 10
50.3593908724
 20
10.2287784436
 10
50.3684943195
 20
10.1747976363
 10
50.3761516039
 20
10.1211059577
 10
50.382359463
 20
10.067719894
 10
50.387113191
 20
10.0146665503
 10
50.3904080431
 20
9.961983333
 10
50.392240744
 20
9.9097022064
  0
LWPOLYLINE
  5
699
100
AcDbEntity
  8
0
100
AcDbPolyline
 62
7
  6
CONTINUOUS
 90
12
 70
0
 10
52.6351918652
 20
12.3943509915
 10
52.6018729168
 20
12.7096157822
 10
52.527751753
 20
13.0226799305
 10
52.4128283738
 20
13.3335434363
 10
52.2537782457
 20
13.6473908848
 10
52.0539259022
 20
13.9590376908
 10
51.823244944
 20
14.2529300992
 10
51.5601704285
 20
14.5281668497
 10
51.2662672983
 20
14.7856492026
 10
50.9562039809
 20
15.0125271838
 10
50.6348699521
 20
15.2045174687
 10
50.2973757362
 20
15.365903382
  0
LWPOLYLINE
  5
69A
100
AcDbEntity
  8
0
100
AcDbPolyline
 62
7
  6
CONTINUOUS
 90
6
 70
0
 10
54.0637728576
 20
-45.0323569147
 10
54.0457470978
 20
-45.3318542429
 10
53.986180586
 20
-45.6038642011
 10
53.8850733221
 20
-45.8483867893
 10
53.7393095223
 20
-46.0686288336
 10
53.6757876589
 20
-46.1444683726
  0
LWPOLYLINE
  5
69B
100
AcDbEntity
  8
SUPERFICI
100
AcDbPolyline
 62
250
  6
CONTINUOUS
 90
7
 70
0
 10
44.2179407755
 20
-42.0556598831
 10
44.4387737885
 20
-41.3910003162
 10
44.6047680009
 20
-40.6745164
 10
44.7232607945
 20
-39.9120444831
 10
44.8156348709
 20
-39.1147050459
 10
44.8956717098
 20
-38.2888397615
 10
44.9704552523
 20
-37.4380067862
  0
LWPOLYLINE
  5
69C
100
AcDbEntity
  8
SUPERFICI
100
AcDbPolyline
 62
250
  6
CONTINUOUS
 90
10
 70
0
 10
44.2179407755
 20
-42.0556598831
 10
44.1765840246
 20
-42.1539907104
 10
44.1323713509
 20
-42.2494930826
 10
44.0853755444
 20
-42.3421195196
 10
44.0356419219
 20
-42.4318750915
 10
43.983259241
 20
-42.5186838702
 10
43.9282613485
 20
-42.6025615145
 10
43.8707192926
 20
-42.6834962337
 10
43.8107169711
 20
-42.7614313555
 10
43.7481757335
 20
-42.8365153514
  0
LWPOLYLINE
  5
69D
100
AcDbEntity
  8
SUPERFICI
100
AcDbPolyline
 62
250
  6
CONTINUOUS
 90
10
 70
0
 10
43.0278038971
 20
-43.4075559302
 10
42.8910804838
 20
-43.4744982128
 10
42.7470363524
 20
-43.5352023668
 10
42.5959319305
 20
-43.5892158824
 10
42.4381919063
 20
-43.6361081544
 10
42.2742454314
 20
-43.6758616768
 10
42.1041212408
 20
-43.7087552469
 10
41.9276933604
 20
-43.7351799577
 10
41.7452231372
 20
-43.7553039799
 10
41.5569696771
 20
-43.769263787
  0
LINE
  5
69E
100
AcDbEntity
  8
SUPERFICI
100
AcDbLine
 62
250
  6
CONTINUOUS
 10
-55.0078701721
 20
42.8305173958
 11
-54.8892246394
 21
42.860091653
  0
LWPOLYLINE
  5
69F
100
AcDbEntity
  8
SUPERFICI
100
AcDbPolyline
 62
250
  6
CONTINUOUS
 90
10
 70
0
 10
50.5964563309
 20
-48.1205089923
 10
50.5927599062
 20
-48.1326011748
 10
50.5889414975
 20
-48.1446091009
 10
50.5850017041
 20
-48.1565318802
 10
50.5809409108
 20
-48.1683692239
 10
50.5767599212
 20
-48.1801196386
 10
50.5724600179
 20
-48.1917804686
 10
50.568042091
 20
-48.2033502865
 10
50.5635065774
 20
-48.2148288498
 10
50.558854135
 20
-48.2262153242
  0
LWPOLYLINE
  5
6A0
100
AcDbEntity
  8
SUPERFICI
100
AcDbPolyline
 62
250
  6
CONTINUOUS
 90
10
 70
0
 10
47.9112937712
 20
-46.0616120842
 10
47.9449232148
 20
-45.9555278743
 10
47.9760914983
 20
-45.8472473645
 10
48.0049247608
 20
-45.7369955261
 10
48.031577252
 20
-45.6248961806
 10
48.0563109107
 20
-45.511006416
 10
48.0793361535
 20
-45.3954678408
 10
48.1007197117
 20
-45.2784093449
 10
48.1205491333
 20
-45.1598262132
 10
48.1389017181
 20
-45.0397891117
  0
LWPOLYLINE
  5
6A1
100
AcDbEntity
  8
SUPERFICI
100
AcDbPolyline
 62
250
  6
CONTINUOUS
 90
10
 70
0
 10
47.9112937712
 20
-46.0616120842
 10
47.8713712426
 20
-46.174724321
 10
47.827085992
 20
-46.2830468511
 10
47.7769899283
 20
-46.3853316349
 10
47.7200662479
 20
-46.4801292836
 10
47.6553154401
 20
-46.5664144382
 10
47.5815340357
 20
-46.6432864027
 10
47.4977580216
 20
-46.7093922816
 10
47.4043975397
 20
-46.76385059
 10
47.3032027459
 20
-46.8069137994
  0
LWPOLYLINE
  5
6A2
100
AcDbEntity
  8
SUPERFICI
100
AcDbPolyline
 62
250
  6
CONTINUOUS
 90
10
 70
0
 10
43.7481757335
 20
-42.8365153514
 10
43.6781051194
 20
-42.9141074257
 10
43.6054739761
 20
-42.9880930264
 10
43.5303852628
 20
-43.0584731655
 10
43.4531757934
 20
-43.1250870692
 10
43.3735019703
 20
-43.1882147841
 10
43.2908555468
 20
-43.2482146489
 10
43.2054083976
 20
-43.3049220389
 10
43.1176520977
 20
-43.3580289519
 10
43.0278038971
 20
-43.4075559302
  0
LWPOLYLINE
  5
6A3
100
AcDbEntity
  8
SUPERFICI
100
AcDbPolyline
 62
250
  6
CONTINUOUS
 90
4
 70
0
 10
51.7750521802
 20
-47.9596149895
 10
51.6775014908
 20
-48.2289308941
 10
51.528463577
 20
-48.4655593077
 10
51.4655267668
 20
-48.5389266907
  0
LWPOLYLINE
  5
6A4
100
AcDbEntity
  8
SUPERFICI
100
AcDbPolyline
 62
250
  6
CONTINUOUS
 90
7
 70
0
 10
50.558854135
 20
-48.2262153242
 10
50.5105136151
 20
-48.3293864045
 10
50.4521307521
 20
-48.4235494745
 10
50.3843841517
 20
-48.50854671
 10
50.3083310116
 20
-48.5839008524
 10
50.2242720979
 20
-48.6499389435
 10
50.1314551313
 20
-48.707348223
  0
LWPOLYLINE
  5
6A5
100
AcDbEntity
  8
SUPERFICI
100
AcDbPolyline
 62
250
  6
CONTINUOUS
 90
4
 70
0
 10
50.1314551313
 20
-48.707348223
 10
50.0298029052
 20
-48.7558247557
 10
49.92001387
 20
-48.7946104642
 10
49.8019658201
 20
-48.823435992
  0
LWPOLYLINE
  5
6A6
100
AcDbEntity
  8
SUPERFICI
100
AcDbPolyline
 62
250
  6
CONTINUOUS
 90
3
 70
0
 10
51.4649410758
 20
-48.155311046
 10
51.5841433133
 20
-48.1041008485
 10
51.6882182893
 20
-48.0385360259
  0
LINE
  5
6A7
100
AcDbEntity
  8
0
100
AcDbLine
 62
250
  6
CONTINUOUS
 10
51.8208180534
 20
-47.5169756748
 11
54.063772497
 21
-45.0323424205
  0
LINE
  5
6A8
100
AcDbEntity
  8
SUPERFICI
100
AcDbLine
 62
7
  6
CONTINUOUS
 10
53.6760976604
 20
-46.1441326648
 11
51.4646719813
 21
-48.5398513406
  0
LINE
  5
6A9
100
AcDbEntity
  8
SUPERFICI
100
AcDbLine
 62
250
  6
CONTINUOUS
 10
51.6882182893
 20
-48.0385360259
 11
51.7750521774
 21
-47.9596150009
  0
ARC
  5
6AA
100
AcDbEntity
  8
RACCORDO
100
AcDbCircle
 62
7
  6
CONTINUOUS
 10
22.7146047054
 20
-27.4081384042
 40
0.2
100
AcDbArc
 50
324.8529017591
 51
1.4636415076
  0
ARC
  5
6AB
100
AcDbEntity
  8
RACCORDO
100
AcDbCircle
 62
7
  6
CONTINUOUS
 10
2.6745391078
 20
-21.2540284064
 40
0.2
100
AcDbArc
 50
324.8529017591
 51
1.4636415076
  0
ARC
  5
6AC
100
AcDbEntity
  8
RACCORDO
100
AcDbCircle
 62
7
  6
CONTINUOUS
 10
-17.3655264899
 20
-15.0999184087
 40
0.2
100
AcDbArc
 50
324.8529017591
 51
1.4636415076
  0
ELLIPSE
  5
6AD
100
AcDbEntity
  8
RACCORDO
100
AcDbEllipse
 62
7
  6
CONTINUOUS
 10
17.5431662919
 20
-25.1056237021
 30
0.0
 11
0.066225087
 21
0.1888552206
 31
0.0
 40
0.3985724632
 41
0.7076711624
 42
0.76003104
  0
ELLIPSE
  5
6AE
100
AcDbEntity
  8
RACCORDO
100
AcDbEllipse
 62
7
  6
CONTINUOUS
 10
-2.4920772873
 20
-19.1453512584
 30
0.0
 11
0.066225087
 21
0.1888552206
 31
0.0
 40
0.3985724632
 41
0.7076711624
 42
0.76003104
  0
ELLIPSE
  5
6AF
100
AcDbEntity
  8
RACCORDO
100
AcDbEllipse
 62
7
  6
CONTINUOUS
 10
-22.5369649034
 20
-12.7974037066
 30
0.0
 11
0.066225087
 21
0.1888552206
 31
0.0
 40
0.3985724632
 41
0.7076711624
 42
0.76003104
  0
ELLIPSE
  5
6B0
100
AcDbEntity
  8
RACCORDO
100
AcDbEllipse
 62
7
  6
CONTINUOUS
 10
52.48855586
 20
-19.3594977614
 30
0.0
 11
0.0993610375
 21
0.2832754686
 31
0.0
 40
0.3986425152
 41
0.0157122477
 42
0.6727999422
  0
ELLIPSE
  5
6B1
100
AcDbEntity
  8
RACCORDO
100
AcDbEllipse
 62
7
  6
CONTINUOUS
 10
22.8750740299
 20
-26.7430009132
 30
0.0
 11
0.0516258078
 21
0.1933488958
 31
0.0
 40
0.3268599536
 41
0.6798851829
 42
0.7322450604
  0
ELLIPSE
  5
6B2
100
AcDbEntity
  8
RACCORDO
100
AcDbEllipse
 62
7
  6
CONTINUOUS
 10
2.8398304507
 20
-20.7827284695
 30
0.0
 11
0.0516258078
 21
0.1933488958
 31
0.0
 40
0.3268599536
 41
0.6798851829
 42
0.7322450604
  0
ELLIPSE
  5
6B3
100
AcDbEntity
  8
RACCORDO
100
AcDbEllipse
 62
7
  6
CONTINUOUS
 10
-17.2050571654
 20
-14.4347809177
 30
0.0
 11
0.0516258078
 21
0.1933488958
 31
0.0
 40
0.3268599536
 41
0.6798851829
 42
0.7322450604
  0
ENDSEC
  0
SECTION
  2
OBJECTS
  0
DICTIONARY
  5
C
100
AcDbDictionary
280
0
281
1
  3
ACAD_GROUP
350
D
  3
ACAD_MLINESTYLE
350
17
  3
ACAD_LAYOUT
350
1A
  3
ACAD_PLOTSETTINGS
350
19
  3
ACAD_PLOTSTYLENAME
350
E
  0
DICTIONARY
  5
D
102
{ACAD_REACTORS
330
C
102
}
100
AcDbDictionary
280
0
281
1
  0
ACDBDICTIONARYWDFLT
  5
E
102
{ACAD_REACTORS
330
C
102
}
100
AcDbDictionary
281
1
  3
Normal
350
F
100
AcDbDictionaryWithDefault
340
F
  0
DICTIONARY
  5
17
102
{ACAD_REACTORS
330
C
102
}
100
AcDbDictionary
280
0
281
1
  3
Standard
350
18
  0
DICTIONARY
  5
19
102
{ACAD_REACTORS
330
C
102
}
100
AcDbDictionary
281
1
  0
DICTIONARY
  5
1A
102
{ACAD_REACTORS
330
C
102
}
100
AcDbDictionary
281
1
  3
Model
350
6B4
  3
Layout1
350
6B5
  0
ACDBPLACEHOLDER
  5
F
102
{ACAD_REACTORS
330
E
102
}
  0
MLINESTYLE
  5
18
102
{ACAD_REACTORS
330
17
102
}
100
AcDbMlineStyle
  2
STANDARD
 70
0
  3

 62
256
 51
90.0
 52
90.0
 71
2
 49
0.5
 62
256
  6
BYLAYER
 49
-0.5
 62
256
  6
BYLAYER
  0
LAYOUT
  5
6B4
102
{ACAD_REACTORS
330
1A
102
}
100
AcDbPlotSettings
  1

  2
none_device
  4
ISO_A4_(297.00_x_210.00_MM)
  6

 40
0.0
 41
0.0
 42
0.0
 43
0.0
 44
297.0
 45
210.0
 46
0.0
 47
0.0
 48
0.0
 49
0.0
140
0.0
141
0.0
142
1.0
143
1.0
 70
1024
 72
1
 73
0
 74
0
  7

 75
0
147
1.0
148
0.0
149
0.0
100
AcDbLayout
  1
Model
 70
0
 71
0
 10
0.0
 20
0.0
 11
297.0
 21
210.0
 12
0.0
 22
0.0
 32
0.0
 14
0.0
 24
0.0
 34
0.0
 15
0.0
 25
0.0
 35
0.0
146
0.0
 13
0.0
 23
0.0
 33
0.0
 16
1.0
 26
0.0
 36
0.0
 17
0.0
 27
1.0
 37
0.0
 76
0
330
21B
345
0
346
0
  0
LAYOUT
  5
6B5
102
{ACAD_REACTORS
330
1A
102
}
100
AcDbPlotSettings
  1

  2
none_device
  4
ISO_A4_(297.00_x_210.00_MM)
  6

 40
0.0
 41
0.0
 42
0.0
 43
0.0
 44
297.0
 45
210.0
 46
0.0
 47
0.0
 48
0.0
 49
0.0
140
0.0
141
0.0
142
1.0
143
1.0
 70
0
 72
1
 73
0
 74
0
  7

 75
0
147
1.0
148
0.0
149
0.0
100
AcDbLayout
  1
Layout1
 70
0
 71
1
 10
0.0
 20
0.0
 11
297.0
 21
210.0
 12
0.0
 22
0.0
 32
0.0
 14
0.0
 24
0.0
 34
0.0
 15
0.0
 25
0.0
 35
0.0
146
0.0
 13
0.0
 23
0.0
 33
0.0
 16
1.0
 26
0.0
 36
0.0
 17
0.0
 27
1.0
 37
0.0
 76
0
330
21C
345
0
346
0
  0
ENDSEC
  0
EOF
