  0
SECTION
  2
HEADER
  9
$ACADVER
  1
AC1032
  9
$ACADMAINTVER
 90
      155
  9
$DWGCODEPAGE
  3
ANSI_1252
  9
$REQUIREDVERSIONS
160
                 0
  9
$INSBASE
 10
0.0
 20
0.0
 30
0.0
  9
$EXTMIN
 10
1.000000000000000E+20
 20
1.000000000000000E+20
 30
1.000000000000000E+20
  9
$EXTMAX
 10
-1.000000000000000E+20
 20
-1.000000000000000E+20
 30
-1.000000000000000E+20
  9
$LIMMIN
 10
0.0
 20
0.0
  9
$LIMMAX
 10
12.0
 20
9.0
  9
$ORTHOMODE
 70
     0
  9
$REGENMODE
 70
     1
  9
$FILLMODE
 70
     1
  9
$QTEXTMODE
 70
     0
  9
$MIRRTEXT
 70
     0
  9
$LTSCALE
 40
1.0
  9
$ATTMODE
 70
     1
  9
$TEXTSIZE
 40
0.2
  9
$TRACEWID
 40
0.05
  9
$TEXTSTYLE
  7
Standard
  9
$CLAYER
  8
0
  9
$CELTYPE
  6
ByLayer
  9
$CECOLOR
 62
   256
  9
$CELTSCALE
 40
1.0
  9
$DISPSILH
 70
     0
  9
$DIMSCALE
 40
1.0
  9
$DIMASZ
 40
0.18
  9
$DIMEXO
 40
0.0625
  9
$DIMDLI
 40
0.38
  9
$DIMRND
 40
0.0
  9
$DIMDLE
 40
0.0
  9
$DIMEXE
 40
0.18
  9
$DIMTP
 40
0.0
  9
$DIMTM
 40
0.0
  9
$DIMTXT
 40
0.18
  9
$DIMCEN
 40
0.09
  9
$DIMTSZ
 40
0.0
  9
$DIMTOL
 70
     0
  9
$DIMLIM
 70
     0
  9
$DIMTIH
 70
     1
  9
$DIMTOH
 70
     1
  9
$DIMSE1
 70
     0
  9
$DIMSE2
 70
     0
  9
$DIMTAD
 70
     0
  9
$DIMZIN
 70
     0
  9
$DIMBLK
  1

  9
$DIMASO
 70
     1
  9
$DIMSHO
 70
     1
  9
$DIMPOST
  1

  9
$DIMAPOST
  1

  9
$DIMALT
 70
     0
  9
$DIMALTD
 70
     2
  9
$DIMALTF
 40
25.4
  9
$DIMLFAC
 40
1.0
  9
$DIMTOFL
 70
     0
  9
$DIMTVP
 40
0.0
  9
$DIMTIX
 70
     0
  9
$DIMSOXD
 70
     0
  9
$DIMSAH
 70
     0
  9
$DIMBLK1
  1

  9
$DIMBLK2
  1

  9
$DIMSTYLE
  2
Standard
  9
$DIMCLRD
 70
     0
  9
$DIMCLRE
 70
     0
  9
$DIMCLRT
 70
     0
  9
$DIMTFAC
 40
1.0
  9
$DIMGAP
 40
0.09
  9
$DIMJUST
 70
     0
  9
$DIMSD1
 70
     0
  9
$DIMSD2
 70
     0
  9
$DIMTOLJ
 70
     1
  9
$DIMTZIN
 70
     0
  9
$DIMALTZ
 70
     0
  9
$DIMALTTZ
 70
     0
  9
$DIMUPT
 70
     0
  9
$DIMDEC
 70
     4
  9
$DIMTDEC
 70
     4
  9
$DIMALTU
 70
     2
  9
$DIMALTTD
 70
     2
  9
$DIMTXSTY
  7
Standard
  9
$DIMAUNIT
 70
     0
  9
$DIMADEC
 70
     0
  9
$DIMALTRND
 40
0.0
  9
$DIMAZIN
 70
     0
  9
$DIMDSEP
 70
    46
  9
$DIMATFIT
 70
     3
  9
$DIMFRAC
 70
     0
  9
$DIMLDRBLK
  1

  9
$DIMLUNIT
 70
     2
  9
$DIMLWD
 70
    -2
  9
$DIMLWE
 70
    -2
  9
$DIMTMOVE
 70
     0
  9
$DIMFXL
 40
1.0
  9
$DIMFXLON
 70
     0
  9
$DIMJOGANG
 40
0.7853981633974483
  9
$DIMTFILL
 70
     0
  9
$DIMTFILLCLR
 70
     0
  9
$DIMARCSYM
 70
     0
  9
$DIMLTYPE
  6

  9
$DIMLTEX1
  6

  9
$DIMLTEX2
  6

  9
$DIMTXTDIRECTION
 70
     0
  9
$LUNITS
 70
     2
  9
$LUPREC
 70
     4
  9
$SKETCHINC
 40
0.1
  9
$FILLETRAD
 40
0.0
  9
$AUNITS
 70
     0
  9
$AUPREC
 70
     0
  9
$MENU
  1
.
  9
$ELEVATION
 40
0.0
  9
$PELEVATION
 40
0.0
  9
$THICKNESS
 40
0.0
  9
$LIMCHECK
 70
     0
  9
$CHAMFERA
 40
0.0
  9
$CHAMFERB
 40
0.0
  9
$CHAMFERC
 40
0.0
  9
$CHAMFERD
 40
0.0
  9
$SKPOLY
 70
     0
  9
$TDCREATE
 40
2459975.602222223
  9
$TDUCREATE
 40
2459975.560555555
  9
$TDUPDATE
 40
2459975.602222223
  9
$TDUUPDATE
 40
2459975.560555555
  9
$TDINDWG
 40
0.0000000000
  9
$TDUSRTIMER
 40
0.0000000000
  9
$USRTIMER
 70
     1
  9
$ANGBASE
 50
0.0
  9
$ANGDIR
 70
     0
  9
$PDMODE
 70
     0
  9
$PDSIZE
 40
0.0
  9
$PLINEWID
 40
0.0
  9
$SPLFRAME
 70
     0
  9
$SPLINETYPE
 70
     6
  9
$SPLINESEGS
 70
     8
  9
$HANDSEED
  5
1F8
  9
$SURFTAB1
 70
     6
  9
$SURFTAB2
 70
     6
  9
$SURFTYPE
 70
     6
  9
$SURFU
 70
     6
  9
$SURFV
 70
     6
  9
$UCSBASE
  2

  9
$UCSNAME
  2

  9
$UCSORG
 10
0.0
 20
0.0
 30
0.0
  9
$UCSXDIR
 10
1.0
 20
0.0
 30
0.0
  9
$UCSYDIR
 10
0.0
 20
1.0
 30
0.0
  9
$UCSORTHOREF
  2

  9
$UCSORTHOVIEW
 70
     0
  9
$UCSORGTOP
 10
0.0
 20
0.0
 30
0.0
  9
$UCSORGBOTTOM
 10
0.0
 20
0.0
 30
0.0
  9
$UCSORGLEFT
 10
0.0
 20
0.0
 30
0.0
  9
$UCSORGRIGHT
 10
0.0
 20
0.0
 30
0.0
  9
$UCSORGFRONT
 10
0.0
 20
0.0
 30
0.0
  9
$UCSORGBACK
 10
0.0
 20
0.0
 30
0.0
  9
$PUCSBASE
  2

  9
$PUCSNAME
  2

  9
$PUCSORG
 10
0.0
 20
0.0
 30
0.0
  9
$PUCSXDIR
 10
1.0
 20
0.0
 30
0.0
  9
$PUCSYDIR
 10
0.0
 20
1.0
 30
0.0
  9
$PUCSORTHOREF
  2

  9
$PUCSORTHOVIEW
 70
     0
  9
$PUCSORGTOP
 10
0.0
 20
0.0
 30
0.0
  9
$PUCSORGBOTTOM
 10
0.0
 20
0.0
 30
0.0
  9
$PUCSORGLEFT
 10
0.0
 20
0.0
 30
0.0
  9
$PUCSORGRIGHT
 10
0.0
 20
0.0
 30
0.0
  9
$PUCSORGFRONT
 10
0.0
 20
0.0
 30
0.0
  9
$PUCSORGBACK
 10
0.0
 20
0.0
 30
0.0
  9
$USERI1
 70
     0
  9
$USERI2
 70
     0
  9
$USERI3
 70
     0
  9
$USERI4
 70
     0
  9
$USERI5
 70
     0
  9
$USERR1
 40
0.0
  9
$USERR2
 40
0.0
  9
$USERR3
 40
0.0
  9
$USERR4
 40
0.0
  9
$USERR5
 40
0.0
  9
$WORLDVIEW
 70
     1
  9
$SHADEDGE
 70
     3
  9
$SHADEDIF
 70
    70
  9
$TILEMODE
 70
     1
  9
$MAXACTVP
 70
    64
  9
$PINSBASE
 10
0.0
 20
0.0
 30
0.0
  9
$PLIMCHECK
 70
     0
  9
$PEXTMIN
 10
1.000000000000000E+20
 20
1.000000000000000E+20
 30
1.000000000000000E+20
  9
$PEXTMAX
 10
-1.000000000000000E+20
 20
-1.000000000000000E+20
 30
-1.000000000000000E+20
  9
$PLIMMIN
 10
0.0
 20
0.0
  9
$PLIMMAX
 10
12.0
 20
9.0
  9
$UNITMODE
 70
     0
  9
$VISRETAIN
 70
     1
  9
$PLINEGEN
 70
     0
  9
$PSLTSCALE
 70
     1
  9
$TREEDEPTH
 70
  3020
  9
$CMLSTYLE
  2
Standard
  9
$CMLJUST
 70
     0
  9
$CMLSCALE
 40
1.0
  9
$PROXYGRAPHICS
 70
     1
  9
$MEASUREMENT
 70
     0
  9
$CELWEIGHT
370
    -1
  9
$ENDCAPS
280
     0
  9
$JOINSTYLE
280
     0
  9
$LWDISPLAY
290
     1
  9
$INSUNITS
 70
     4
  9
$HYPERLINKBASE
  1

  9
$STYLESHEET
  1

  9
$XEDIT
290
     1
  9
$CEPSNTYPE
380
     0
  9
$PSTYLEMODE
290
     1
  9
$FINGERPRINTGUID
  2
{0CD49506-3E25-C341-97F2-0BCDD761D112}
  9
$VERSIONGUID
  2
{1837A7D0-5CF8-E149-A23E-7E9888696579}
  9
$EXTNAMES
290
     1
  9
$PSVPSCALE
 40
0.0
  9
$OLESTARTUP
290
     0
  9
$SORTENTS
280
   127
  9
$INDEXCTL
280
     0
  9
$HIDETEXT
280
     1
  9
$XCLIPFRAME
280
     2
  9
$HALOGAP
280
     0
  9
$OBSCOLOR
 70
   257
  9
$OBSLTYPE
280
     0
  9
$INTERSECTIONDISPLAY
280
     0
  9
$INTERSECTIONCOLOR
 70
   257
  9
$DIMASSOC
280
     2
  9
$PROJECTNAME
  1

  9
$CAMERADISPLAY
290
     0
  9
$LENSLENGTH
 40
50.0
  9
$CAMERAHEIGHT
 40
0.0
  9
$STEPSPERSEC
 40
2.0
  9
$STEPSIZE
 40
6.0
  9
$3DDWFPREC
 40
2.0
  9
$PSOLWIDTH
 40
0.25
  9
$PSOLHEIGHT
 40
4.0
  9
$LOFTANG1
 40
1.570796326794896
  9
$LOFTANG2
 40
1.570796326794896
  9
$LOFTMAG1
 40
0.0
  9
$LOFTMAG2
 40
0.0
  9
$LOFTPARAM
 70
     7
  9
$LOFTNORMALS
280
     1
  9
$LATITUDE
 40
37.795
  9
$LONGITUDE
 40
-122.394
  9
$NORTHDIRECTION
 40
0.0
  9
$TIMEZONE
 70
 -8000
  9
$LIGHTGLYPHDISPLAY
280
     1
  9
$TILEMODELIGHTSYNCH
280
     1
  9
$CMATERIAL
347
11
  9
$SOLIDHIST
280
     0
  9
$SHOWHIST
280
     1
  9
$DWFFRAME
280
     2
  9
$DGNFRAME
280
     0
  9
$REALWORLDSCALE
290
     1
  9
$INTERFERECOLOR
 62
     1
  9
$INTERFEREOBJVS
345
33
  9
$INTERFEREVPVS
346
30
  9
$CSHADOW
280
     0
  9
$SHADOWPLANELOCATION
 40
0.0
  0
ENDSEC
  0
SECTION
  2
CLASSES
  0
CLASS
  1
ACDBDICTIONARYWDFLT
  2
AcDbDictionaryWithDefault
  3
ObjectDBX Classes
 90
        0
 91
        1
280
     0
281
     0
  0
CLASS
  1
MATERIAL
  2
AcDbMaterial
  3
ObjectDBX Classes
 90
     1153
 91
        3
280
     0
281
     0
  0
CLASS
  1
VISUALSTYLE
  2
AcDbVisualStyle
  3
ObjectDBX Classes
 90
     4095
 91
       24
280
     0
281
     0
  0
CLASS
  1
SCALE
  2
AcDbScale
  3
ObjectDBX Classes
 90
     1153
 91
       17
280
     0
281
     0
  0
CLASS
  1
TABLESTYLE
  2
AcDbTableStyle
  3
ObjectDBX Classes
 90
     4095
 91
        1
280
     0
281
     0
  0
CLASS
  1
MLEADERSTYLE
  2
AcDbMLeaderStyle
  3
ACDB_MLEADERSTYLE_CLASS
 90
     4095
 91
        1
280
     0
281
     0
  0
CLASS
  1
ACDBSECTIONVIEWSTYLE
  2
AcDbSectionViewStyle
  3
ObjectDBX Classes
 90
     1025
 91
        1
280
     0
281
     0
  0
CLASS
  1
ACDBDETAILVIEWSTYLE
  2
AcDbDetailViewStyle
  3
ObjectDBX Classes
 90
     1025
 91
        1
280
     0
281
     0
  0
CLASS
  1
DICTIONARYVAR
  2
AcDbDictionaryVar
  3
ObjectDBX Classes
 90
        0
 91
        5
280
     0
281
     0
  0
CLASS
  1
CELLSTYLEMAP
  2
AcDbCellStyleMap
  3
ObjectDBX Classes
 90
     1152
 91
        1
280
     0
281
     0
  0
ENDSEC
  0
SECTION
  2
TABLES
  0
TABLE
  2
VPORT
  5
8
330
0
100
AcDbSymbolTable
 70
     1
  0
VPORT
  5
57
330
8
100
AcDbSymbolTableRecord
100
AcDbViewportTableRecord
  2
*Active
 70
     0
 10
0.0
 20
0.0
 11
1.0
 21
1.0
 12
0.0
 22
0.0
 13
0.0
 23
0.0
 14
1.0
 24
1.0
 15
0.0
 25
0.0
 16
0.0
 26
0.0
 36
1.0
 17
72.36184610873613
 27
174.9269670617519
 37
0.0
 40
356.8510128059739
 41
0.7868320717880671
 42
50.0
 43
0.0
 44
0.0
 50
0.0
 51
0.0
 71
     0
 72
   100
 73
     1
 74
     0
 75
     1
 76
     0
 77
     0
 78
     0
281
     0
 65
     1
110
0.0
120
0.0
130
0.0
111
1.0
121
0.0
131
0.0
112
0.0
122
1.0
132
0.0
 79
     0
146
0.0
 60
     3
 61
     5
292
     1
282
     1
141
0.0
142
0.0
 63
   250
421
  3355443
  0
ENDTAB
  0
TABLE
  2
LTYPE
  5
5
330
0
100
AcDbSymbolTable
 70
     1
  0
LTYPE
  5
5B
330
5
100
AcDbSymbolTableRecord
100
AcDbLinetypeTableRecord
  2
ByBlock
 70
     0
  3

 72
    65
 73
     0
 40
0.0
  0
LTYPE
  5
5C
330
5
100
AcDbSymbolTableRecord
100
AcDbLinetypeTableRecord
  2
ByLayer
 70
     0
  3

 72
    65
 73
     0
 40
0.0
  0
LTYPE
  5
5D
330
5
100
AcDbSymbolTableRecord
100
AcDbLinetypeTableRecord
  2
Continuous
 70
     0
  3
Solid line
 72
    65
 73
     0
 40
0.0
  0
ENDTAB
  0
TABLE
  2
LAYER
  5
2
330
0
100
AcDbSymbolTable
 70
     4
  0
LAYER
  5
54
330
2
100
AcDbSymbolTableRecord
100
AcDbLayerTableRecord
  2
0
 70
     0
 62
     7
  6
Continuous
370
     0
390
F
347
21
348
0
  0
LAYER
  5
17D
330
2
100
AcDbSymbolTableRecord
100
AcDbLayerTableRecord
  2
RACCORDO
 70
     0
 62
     7
  6
Continuous
370
     0
390
F
347
21
348
0
  0
LAYER
  5
1CA
330
2
100
AcDbSymbolTableRecord
100
AcDbLayerTableRecord
  2
DRAFT
 70
     0
 62
     7
  6
Continuous
370
     0
390
F
347
21
348
0
  0
LAYER
  5
1ED
330
2
100
AcDbSymbolTableRecord
100
AcDbLayerTableRecord
  2
ASSI
 70
     0
 62
     7
  6
Continuous
370
     0
390
F
347
21
348
0
  0
ENDTAB
  0
TABLE
  2
STYLE
  5
3
330
0
100
AcDbSymbolTable
 70
     2
  0
STYLE
  5
55
330
3
100
AcDbSymbolTableRecord
100
AcDbTextStyleTableRecord
  2
Standard
 70
     0
 40
0.0
 41
1.0
 50
0.0
 71
     0
 42
0.2
  3
txt
  4

  0
STYLE
  5
5A
330
3
100
AcDbSymbolTableRecord
100
AcDbTextStyleTableRecord
  2
Annotative
 70
     0
 40
0.0
 41
1.0
 50
0.0
 71
     0
 42
0.2
  3
txt
  4

1001
AcadAnnotative
1000
AnnotativeData
1002
{
1070
     1
1070
     1
1002
}
  0
ENDTAB
  0
TABLE
  2
VIEW
  5
6
330
0
100
AcDbSymbolTable
 70
     0
  0
ENDTAB
  0
TABLE
  2
UCS
  5
7
330
0
100
AcDbSymbolTable
 70
     0
  0
ENDTAB
  0
TABLE
  2
APPID
  5
9
330
0
100
AcDbSymbolTable
 70
     2
  0
APPID
  5
56
330
9
100
AcDbSymbolTableRecord
100
AcDbRegAppTableRecord
  2
ACAD
 70
     0
  0
APPID
  5
5E
330
9
100
AcDbSymbolTableRecord
100
AcDbRegAppTableRecord
  2
AcadAnnotative
 70
     0
  0
ENDTAB
  0
TABLE
  2
DIMSTYLE
  5
A
330
0
100
AcDbSymbolTable
 70
     2
100
AcDbDimStyleTable
 71
     0
  0
DIMSTYLE
105
58
330
A
100
AcDbSymbolTableRecord
100
AcDbDimStyleTableRecord
  2
Standard
 70
     0
340
55
  0
DIMSTYLE
105
59
330
A
100
AcDbSymbolTableRecord
100
AcDbDimStyleTableRecord
  2
Annotative
 70
     0
340
55
1001
AcadAnnotative
1000
AnnotativeData
1002
{
1070
     1
1070
     1
1002
}
  0
ENDTAB
  0
TABLE
  2
BLOCK_RECORD
  5
1
330
0
100
AcDbSymbolTable
 70
     1
  0
BLOCK_RECORD
  5
70
330
1
100
AcDbSymbolTableRecord
100
AcDbBlockTableRecord
  2
*Model_Space
340
73
 70
     0
280
     1
281
     0
  0
BLOCK_RECORD
  5
6C
330
1
100
AcDbSymbolTableRecord
100
AcDbBlockTableRecord
  2
*Paper_Space
340
6F
 70
     0
280
     1
281
     0
  0
BLOCK_RECORD
  5
74
330
1
100
AcDbSymbolTableRecord
100
AcDbBlockTableRecord
  2
*Paper_Space0
340
77
 70
     0
280
     1
281
     0
  0
ENDTAB
  0
ENDSEC
  0
SECTION
  2
BLOCKS
  0
BLOCK
  5
71
330
70
100
AcDbEntity
  8
0
100
AcDbBlockBegin
  2
*Model_Space
 70
     0
 10
0.0
 20
0.0
 30
0.0
  3
*Model_Space
  1

  0
ENDBLK
  5
72
330
70
100
AcDbEntity
  8
0
100
AcDbBlockEnd
  0
BLOCK
  5
6D
330
6C
100
AcDbEntity
 67
     1
  8
0
100
AcDbBlockBegin
  2
*Paper_Space
 70
     0
 10
0.0
 20
0.0
 30
0.0
  3
*Paper_Space
  1

  0
ENDBLK
  5
6E
330
6C
100
AcDbEntity
 67
     1
  8
0
100
AcDbBlockEnd
  0
BLOCK
  5
75
330
74
100
AcDbEntity
 67
     1
  8
0
100
AcDbBlockBegin
  2
*Paper_Space0
 70
     0
 10
0.0
 20
0.0
 30
0.0
  3
*Paper_Space0
  1

  0
ENDBLK
  5
76
330
74
100
AcDbEntity
 67
     1
  8
0
100
AcDbBlockEnd
  0
ENDSEC
  0
SECTION
  2
ENTITIES
  0
LWPOLYLINE
  5
78
330
70
100
AcDbEntity
  8
0
 62
    18
420
        0
370
    25
100
AcDbPolyline
 90
       14
 70
     0
 43
0.0
 10
-63.2065922911627
 20
346.7237102311904
 10
-63.26105211846254
 20
346.6501940198904
 10
-63.31895056066262
 20
346.5634377201904
 10
-63.37268573046266
 20
346.4730392458902
 10
-63.42202690506255
 20
346.3792237369903
 10
-63.46680126206255
 20
346.2821830631901
 10
-63.50684776976269
 20
346.1821161674901
 10
-63.54200316686267
 20
346.0792691387903
 10
-63.57214719546266
 20
345.9738525869903
 10
-63.59718205486275
 20
345.8660674113901
 10
-63.61701505186258
 20
345.7561270266901
 10
-63.63157125096272
 20
345.6442326962901
 10
-63.6407988087626
 20
345.5306086433904
 10
-63.64273275246254
 20
345.4911669496902
  0
LINE
  5
79
330
70
100
AcDbEntity
  8
0
 62
    18
420
        0
370
    25
100
AcDbLine
 10
-61.39898652326251
 20
349.0511409521901
 30
0.0
 11
-63.20694179906258
 21
346.7232644794904
 31
0.0
  0
LINE
  5
7A
330
70
100
AcDbEntity
  8
0
 62
   250
420
  3355443
370
    25
100
AcDbLine
 10
-59.03667351986263
 20
349.5959558259902
 30
0.0
 11
-61.0375957246627
 21
347.2113251578901
 31
0.0
  0
LWPOLYLINE
  5
7B
330
70
100
AcDbEntity
  8
0
 62
    18
420
        0
370
    25
100
AcDbPolyline
 90
       31
 70
     0
 43
0.0
 10
-65.15129209826255
 20
284.6295856680901
 10
-65.15125936426248
 20
284.5883486093903
 10
-65.1468254162625
 20
284.4643031193903
 10
-65.13591105656242
 20
284.3394697074899
 10
-65.1185334940626
 20
284.2140598566899
 10
-65.09474239646246
 20
284.0883706160901
 10
-65.06462563156272
 20
283.9628140956899
 10
-65.02824788536242
 20
283.8376118948905
 10
-64.98568523386265
 20
283.7129901405901
 10
-64.9370823223627
 20
283.5893693475904
 10
-64.8825262272626
 20
283.46695212909
 10
-64.82212338206252
 20
283.3459712077899
 10
-64.75610260206247
 20
283.2268924654905
 10
-64.68459586046266
 20
283.1099275452905
 10
-64.60773708936264
 20
282.9952958222905
 10
-64.52583612806261
 20
282.8834623260901
 10
-64.43906128146264
 20
282.7746249873899
 10
-64.34757215476259
 20
282.6689905114904
 10
-64.25175207516251
 20
282.5669964242903
 10
-64.15180016646248
 20
282.4688266153903
 10
-64.04791096136266
 20
282.3746793533903
 10
-63.94053791486252
 20
282.2849469134904
 10
-63.82989990576258
 20
282.1997872567901
 10
-63.71620676376244
 20
282.1193631443902
 10
-63.59994811976269
 20
282.0439962074901
 10
-63.48136364726271
 20
281.9738219773901
 10
-63.36067326446273
 20
281.9089633866905
 10
-63.23834017436262
 20
281.84965112669
 10
-63.11466200016259
 20
281.7960137462902
 10
-62.98982066526264
 20
281.7481105417903
 10
-62.9334083354626
 20
281.72847757939
  0
LINE
  5
7C
330
70
100
AcDbEntity
  8
0
 62
    18
420
        0
370
    25
100
AcDbLine
 10
-65.15129380326268
 20
284.6293663210902
 30
0.0
 11
-65.15129209826255
 21
284.6295856680901
 31
0.0
  0
LINE
  5
7D
330
70
100
AcDbEntity
  8
0
 62
    18
420
        0
370
    25
100
AcDbLine
 10
-65.13535980096247
 20
285.5604461504902
 30
0.0
 11
-65.1512974390627
 21
284.6293663497903
 31
0.0
  0
LINE
  5
7E
330
70
100
AcDbEntity
  8
0
 62
    18
420
        0
370
    25
100
AcDbLine
 10
-64.85267205866259
 20
298.1612647277902
 30
0.0
 11
-65.13535980096247
 21
285.5604461504902
 31
0.0
  0
LINE
  5
7F
330
70
100
AcDbEntity
  8
0
 62
    18
420
        0
370
    25
100
AcDbLine
 10
-64.69167173126265
 20
304.8356195260903
 30
0.0
 11
-64.85267205866259
 21
298.1612647277902
 31
0.0
  0
LINE
  5
80
330
70
100
AcDbEntity
  8
0
 62
    18
420
        0
370
    25
100
AcDbLine
 10
-64.47412592886266
 20
313.5524334746903
 30
0.0
 11
-64.69167173126265
 21
304.8356195260903
 31
0.0
  0
LINE
  5
81
330
70
100
AcDbEntity
  8
0
 62
    18
420
        0
370
    25
100
AcDbLine
 10
-64.03206825156248
 20
331.2979998374901
 30
0.0
 11
-64.47412592886266
 21
313.5524334746903
 31
0.0
  0
LINE
  5
82
330
70
100
AcDbEntity
  8
0
 62
    18
420
        0
370
    25
100
AcDbLine
 10
-63.88486717766247
 20
336.8182988377901
 30
0.0
 11
-64.03206825156248
 21
331.2979998374901
 31
0.0
  0
LWPOLYLINE
  5
83
330
70
100
AcDbEntity
  8
0
 62
    18
420
        0
370
    25
100
AcDbPolyline
 90
        3
 70
     0
 43
0.0
 10
-63.64273303746259
 20
345.49124946719
 10
-63.67014064056267
 20
344.6602603249901
 10
-63.88486717766247
 20
336.8182988377901
  0
LINE
  5
84
330
70
100
AcDbEntity
  8
0
 62
    18
420
        0
370
    25
100
AcDbLine
 10
-63.64273642906243
 20
345.4911671000903
 30
0.0
 11
-63.64273303746259
 21
345.49124946719
 31
0.0
  0
LINE
  5
85
330
70
100
AcDbEntity
  8
0
 62
   250
420
  3355443
370
    25
100
AcDbLine
 10
-42.31163634676248
 20
324.6235363775904
 30
0.0
 11
-42.33343005646259
 21
324.5995694237902
 31
0.0
  0
LINE
  5
86
330
70
100
AcDbEntity
  8
0
 62
    18
420
        0
370
    25
100
AcDbLine
 10
-42.04858730096268
 20
289.4103805219899
 30
0.0
 11
-41.18434320386269
 21
324.2773544403901
 31
0.0
  0
LWPOLYLINE
  5
87
330
70
100
AcDbEntity
  8
0
 62
    18
420
        0
370
    25
100
AcDbPolyline
 90
       21
 70
     0
 43
0.0
 10
58.69402205933758
 20
244.37785237049
 10
58.75557206533768
 20
244.3613971183901
 10
58.89448071213716
 20
244.3292694671905
 10
59.03295126113759
 20
244.3041636389902
 10
59.1706999210376
 20
244.2861025939899
 10
59.30745297793733
 20
244.2750847092905
 10
59.44288755493762
 20
244.2711135388902
 10
59.57673126523765
 20
244.2741677283904
 10
59.7086935474373
 20
244.2842159690905
 10
59.83838932113741
 20
244.3012114937904
 10
59.96549772313722
 20
244.3250712358902
 10
60.08973967323753
 20
244.3557048769903
 10
60.21076427153764
 20
244.39299397409
 10
60.3282509209372
 20
244.4367840300901
 10
60.44190302723734
 20
244.48690732569
 10
60.55138490853721
 20
244.5431587248901
 10
60.65641007903735
 20
244.6053072442901
 10
60.75668372813749
 20
244.6730844677902
 10
60.85186620303769
 20
244.7461541848904
 10
60.94169694323742
 20
244.82416827359
 10
60.95650194213746
 20
244.8379733641904
  0
LWPOLYLINE
  5
88
330
70
100
AcDbEntity
  8
0
 62
    18
420
        0
370
    25
100
AcDbPolyline
 90
        3
 70
     0
 43
0.0
 10
55.7341503190377
 20
245.2511137597899
 10
57.76348966683721
 20
244.6471313674902
 10
58.69406112013756
 20
244.37783944979
  0
LWPOLYLINE
  5
89
330
70
100
AcDbEntity
  8
0
 62
    18
420
        0
370
    25
100
AcDbPolyline
 90
        4
 70
     0
 43
0.0
 10
47.97862138213768
 20
247.5659393669904
 10
50.30449507783725
 20
246.8645910929901
 10
51.43245940423762
 20
246.5273754662899
 10
55.7341503190377
 20
245.2511137597899
  0
LINE
  5
8A
330
70
100
AcDbEntity
  8
0
 62
    18
420
        0
370
    25
100
AcDbLine
 10
-36.37736407306249
 20
273.4775653971905
 30
0.0
 11
-32.69610367086255
 21
272.3488648802902
 31
0.0
  0
LWPOLYLINE
  5
8B
330
70
100
AcDbEntity
  8
0
 62
    18
420
        0
370
    25
100
AcDbPolyline
 90
        3
 70
     0
 43
0.0
 10
45.55803921323757
 20
248.3077821058902
 10
46.78088573073726
 20
247.93194784429
 10
47.97862138213768
 20
247.5659393669904
  0
LINE
  5
8C
330
70
100
AcDbEntity
  8
0
 62
    18
420
        0
370
    25
100
AcDbLine
 10
-52.04072902386267
 20
278.2798426183905
 30
0.0
 11
-36.37736407306249
 21
273.4775653971905
 31
0.0
  0
LINE
  5
8D
330
70
100
AcDbEntity
  8
0
 62
    18
420
        0
370
    25
100
AcDbLine
 10
-32.69614368136267
 20
272.34887713139
 30
0.0
 11
31.53382582773712
 21
252.62296436819
 31
0.0
  0
LINE
  5
8E
330
70
100
AcDbEntity
  8
0
 62
    18
420
        0
370
    25
100
AcDbLine
 10
31.53382582773712
 20
252.62296436819
 30
0.0
 11
45.55803921323757
 21
248.3077821058902
 31
0.0
  0
LWPOLYLINE
  5
8F
330
70
100
AcDbEntity
  8
0
 62
    18
420
        0
370
    25
100
AcDbPolyline
 90
        3
 70
     0
 43
0.0
 10
-55.9564623154627
 20
279.5070350231899
 10
-54.68397164066271
 20
279.1055645273901
 10
-52.04072902386267
 20
278.2798426183905
  0
LINE
  5
90
330
70
100
AcDbEntity
  8
0
 62
    18
420
        0
370
    25
100
AcDbLine
 10
-61.89374912716265
 20
281.3915007362902
 30
0.0
 11
-59.59526537856254
 21
280.6632556896901
 31
0.0
  0
LINE
  5
91
330
70
100
AcDbEntity
  8
0
 62
    18
420
        0
370
    25
100
AcDbLine
 10
-59.59526537856254
 20
280.6632556896901
 30
0.0
 11
-55.9564623154627
 21
279.5070350231899
 31
0.0
  0
LINE
  5
92
330
70
100
AcDbEntity
  8
0
 62
    18
420
        0
370
    25
100
AcDbLine
 10
-62.93354723336263
 20
281.7285223682901
 30
0.0
 11
-61.89374912716265
 21
281.3915007362902
 31
0.0
  0
LINE
  5
93
330
70
100
AcDbEntity
  8
0
 62
    18
420
        0
370
    25
100
AcDbLine
 10
-62.93354723336263
 20
281.7285223682901
 30
0.0
 11
-62.93340895796264
 21
281.7284757316901
 31
0.0
  0
LINE
  5
94
330
70
100
AcDbEntity
  8
0
 62
   250
420
  3355443
370
    25
100
AcDbLine
 10
-32.83747964496252
 20
272.5593691503901
 30
0.0
 11
28.17338673013761
 21
253.8235231572905
 31
0.0
  0
LINE
  5
95
330
70
100
AcDbEntity
  8
0
 62
   250
420
  3355443
370
    25
100
AcDbLine
 10
-27.26052942816272
 20
284.9009480323901
 30
0.0
 11
-27.24217935996243
 21
285.6412612726899
 31
0.0
  0
LINE
  5
96
330
70
100
AcDbEntity
  8
0
 62
    18
420
        0
370
    25
100
AcDbLine
 10
-27.24282133356242
 20
284.96207176929
 30
0.0
 11
-27.22529813546253
 21
285.6690258494902
 31
0.0
  0
LINE
  5
97
330
70
100
AcDbEntity
  8
0
 62
   250
420
  3355443
370
    25
100
AcDbLine
 10
-42.04858730096268
 20
289.4103805219899
 30
0.0
 11
-43.23808491596257
 21
288.10226754619
 31
0.0
  0
LINE
  5
98
330
70
100
AcDbEntity
  8
0
 62
   250
420
  3355443
370
    25
100
AcDbLine
 10
-42.97699595506258
 20
287.7736100360902
 30
0.0
 11
-41.78749895926249
 21
289.0817223307902
 31
0.0
  0
LINE
  5
99
330
70
100
AcDbEntity
  8
0
 62
   250
420
  3355443
370
    25
100
AcDbLine
 10
-34.57925860426254
 20
285.1947453841901
 30
0.0
 11
27.3413683453373
 21
266.1795205990899
 31
0.0
  0
LINE
  5
9A
330
70
100
AcDbEntity
  8
0
 62
    18
420
        0
370
    25
100
AcDbLine
 10
36.85514889263774
 20
264.9313270620904
 30
0.0
 11
-41.78749895926249
 21
289.0817223307902
 31
0.0
  0
LINE
  5
9B
330
70
100
AcDbEntity
  8
0
 62
   250
420
  3355443
370
    25
100
AcDbLine
 10
-32.4750727132627
 20
287.2425116425905
 30
0.0
 11
-27.24596523206253
 21
285.6367033944899
 31
0.0
  0
LINE
  5
9C
330
70
100
AcDbEntity
  8
0
 62
   250
420
  3355443
370
    25
100
AcDbLine
 10
27.64512407973721
 20
268.7801816492903
 30
0.0
 11
32.87423156093739
 21
267.1743734011904
 31
0.0
  0
LINE
  5
9D
330
70
100
AcDbEntity
  8
0
 62
    18
420
        0
370
    25
100
AcDbLine
 10
-32.38368209356274
 20
287.2572701627902
 30
0.0
 11
-27.2291386688626
 21
285.67435981399
 31
0.0
  0
LINE
  5
9E
330
70
100
AcDbEntity
  8
0
 62
    18
420
        0
370
    25
100
AcDbLine
 10
27.73651469943719
 20
268.79494016949
 30
0.0
 11
32.89105812413764
 21
267.2120298207901
 31
0.0
  0
LINE
  5
9F
330
70
100
AcDbEntity
  8
0
 62
    18
420
        0
370
    25
100
AcDbLine
 10
-27.26480056476273
 20
284.89534446719
 30
0.0
 11
-27.43916984676243
 21
284.6754894663905
 31
0.0
  0
LINE
  5
A0
330
70
100
AcDbEntity
  8
0
 62
    18
420
        0
370
    25
100
AcDbLine
 10
-27.24596523206253
 20
285.6367033944899
 30
0.0
 11
-27.38773244946267
 21
285.4595671391903
 31
0.0
  0
LINE
  5
A1
330
70
100
AcDbEntity
  8
0
 62
    18
420
        0
370
    25
100
AcDbLine
 10
-32.4750727132627
 20
287.2425116425905
 30
0.0
 11
-32.64932617176253
 21
287.0753515971903
 31
0.0
  0
LINE
  5
A2
330
70
100
AcDbEntity
  8
0
 62
   250
420
  3355443
370
    25
100
AcDbLine
 10
63.5514667298377
 20
274.9012882075904
 30
0.0
 11
63.34444511853751
 21
274.96486253879
 31
0.0
  0
LINE
  5
A3
330
70
100
AcDbEntity
  8
0
 62
   250
420
  3355443
370
    25
100
AcDbLine
 10
63.34518196043771
 20
275.5805108189902
 30
0.0
 11
64.09405509483725
 21
275.3505391344902
 31
0.0
  0
LINE
  5
A4
330
70
100
AcDbEntity
  8
0
 62
    18
420
        0
370
    25
100
AcDbLine
 10
63.34721492633736
 20
275.6625285820902
 30
0.0
 11
64.21089353303725
 21
275.3973012491904
 31
0.0
  0
LINE
  5
A5
330
70
100
AcDbEntity
  8
0
 62
    18
420
        0
370
    25
100
AcDbLine
 10
-7.211491145762444
 20
279.2755418168903
 30
0.0
 11
-7.729222643562448
 21
278.6227556293899
 31
0.0
  0
LINE
  5
A6
330
70
100
AcDbEntity
  8
0
 62
    18
420
        0
370
    25
100
AcDbLine
 10
-7.229828744462507
 20
278.5357316434905
 30
0.0
 11
-7.272135635862409
 21
278.4823886375904
 31
0.0
  0
LINE
  5
A7
330
70
100
AcDbEntity
  8
0
 62
    18
420
        0
370
    25
100
AcDbLine
 10
-12.44070725106259
 20
280.8813834223903
 30
0.0
 11
-13.07704344596254
 21
280.2650195883905
 31
0.0
  0
LINE
  5
A8
330
70
100
AcDbEntity
  8
0
 62
    18
420
        0
370
    25
100
AcDbLine
 10
37.29250178123719
 20
300.1778767733901
 30
0.0
 11
-42.33324547526261
 21
324.6301723643903
 31
0.0
  0
LINE
  5
A9
330
70
100
AcDbEntity
  8
0
 62
    18
420
        0
370
    25
100
AcDbLine
 10
7.599358346537518
 20
274.7272734246899
 30
0.0
 11
6.963022151637574
 21
274.1109095906901
 31
0.0
  0
LINE
  5
AA
330
70
100
AcDbEntity
  8
0
 62
    18
420
        0
370
    25
100
AcDbLine
 10
12.82857445183735
 20
273.1214318191899
 30
0.0
 11
12.31084295413713
 21
272.4686456316902
 31
0.0
  0
LINE
  5
AB
330
70
100
AcDbEntity
  8
0
 62
    18
420
        0
370
    25
100
AcDbLine
 10
12.81023685313728
 20
272.3816216457901
 30
0.0
 11
12.76792996173738
 21
272.3282786398899
 31
0.0
  0
LINE
  5
AC
330
70
100
AcDbEntity
  8
0
 62
   250
420
  3355443
370
    25
100
AcDbLine
 10
32.85966736483751
 20
266.43861803919
 30
0.0
 11
32.8780174329377
 21
267.1789312794905
 31
0.0
  0
LINE
  5
AD
330
70
100
AcDbEntity
  8
0
 62
    18
420
        0
370
    25
100
AcDbLine
 10
32.87737545943718
 20
266.4997417760901
 30
0.0
 11
32.89489865753739
 21
267.2066958561901
 31
0.0
  0
LINE
  5
AE
330
70
100
AcDbEntity
  8
0
 62
   250
420
  3355443
370
    25
100
AcDbLine
 10
49.47624723013713
 20
313.1552309955902
 30
0.0
 11
49.41834608133746
 21
313.1728629174902
 31
0.0
  0
LINE
  5
AF
330
70
100
AcDbEntity
  8
0
 62
   250
420
  3355443
370
    25
100
AcDbLine
 10
-39.47555914666259
 20
340.4767058279903
 30
0.0
 11
-40.08344330436244
 21
340.6628941186901
 31
0.0
  0
LINE
  5
B0
330
70
100
AcDbEntity
  8
0
 62
   250
420
  3355443
370
    25
100
AcDbLine
 10
-48.43252182476271
 20
343.2215656361904
 30
0.0
 11
-48.51612976356245
 21
343.2472139239902
 31
0.0
  0
LINE
  5
B1
330
70
100
AcDbEntity
  8
0
 62
   250
420
  3355443
370
    25
100
AcDbLine
 10
29.76659558143729
 20
318.0997752562904
 30
0.0
 11
-31.24427079366251
 21
336.8356212493903
 31
0.0
  0
LINE
  5
B2
330
70
100
AcDbEntity
  8
0
 62
   250
420
  3355443
370
    25
100
AcDbLine
 10
30.18469870243758
 20
319.0905468937903
 30
0.0
 11
-30.82666196766246
 21
337.8265446801903
 31
0.0
  0
LINE
  5
B3
330
70
100
AcDbEntity
  8
0
 62
    18
420
        0
370
    25
100
AcDbLine
 10
62.53972443913767
 20
312.2610218396901
 30
0.0
 11
-59.03667351966274
 21
349.5959558258904
 31
0.0
  0
LINE
  5
B4
330
70
100
AcDbEntity
  8
0
 62
   250
420
  3355443
370
    25
100
AcDbLine
 10
41.07317523163755
 20
315.7391911599903
 30
0.0
 11
40.55053544993721
 21
315.9000947196903
 31
0.0
  0
LINE
  5
B5
330
70
100
AcDbEntity
  8
0
 62
    18
420
        0
370
    25
100
AcDbLine
 10
37.71780646753764
 20
299.7342907482902
 30
0.0
 11
36.81315673703733
 21
263.2371963876903
 31
0.0
  0
LINE
  5
B6
330
70
100
AcDbEntity
  8
0
 62
   250
420
  3355443
370
    25
100
AcDbLine
 10
60.5388022344377
 20
309.8763911715904
 30
0.0
 11
62.53972443933723
 21
312.2610218396901
 31
0.0
  0
LINE
  5
B7
330
70
100
AcDbEntity
  8
0
 62
   250
420
  3355443
370
    25
100
AcDbLine
 10
65.15060785663763
 20
308.9744399285903
 30
0.0
 11
62.95425404463757
 21
306.8470219578902
 31
0.0
  0
LINE
  5
B8
330
70
100
AcDbEntity
  8
0
 62
    18
420
        0
370
    25
100
AcDbLine
 10
27.64512407973721
 20
268.7801816492903
 30
0.0
 11
27.47087062123739
 21
268.6130216039902
 31
0.0
  0
LINE
  5
B9
330
70
100
AcDbEntity
  8
0
 62
    18
420
        0
370
    25
100
AcDbLine
 10
32.85539622823751
 20
266.4330144739901
 30
0.0
 11
32.68102694613738
 21
266.2131594731905
 31
0.0
  0
LINE
  5
BA
330
70
100
AcDbEntity
  8
0
 62
    18
420
        0
370
    25
100
AcDbLine
 10
32.87423156093739
 20
267.1743734011904
 30
0.0
 11
32.73246434353725
 21
266.9972371458901
 31
0.0
  0
LINE
  5
BB
330
70
100
AcDbEntity
  8
0
 62
    18
420
        0
370
    25
100
AcDbLine
 10
27.3709742507377
 20
263.2429358057901
 30
0.0
 11
27.27991153303714
 21
263.1427924165903
 31
0.0
  0
LINE
  5
BC
330
70
100
AcDbEntity
  8
0
 62
    18
420
        0
370
    25
100
AcDbLine
 10
27.88705020053756
 20
263.08369668429
 30
0.0
 11
27.79598996603775
 21
262.9835560257905
 31
0.0
  0
LINE
  5
BD
330
70
100
AcDbEntity
  8
0
 62
    18
420
        0
370
    25
100
AcDbLine
 10
29.02774739423723
 20
262.73147213999
 30
0.0
 11
28.93669598923771
 21
262.6313411915905
 31
0.0
  0
LINE
  5
BE
330
70
100
AcDbEntity
  8
0
 62
    18
420
        0
370
    25
100
AcDbLine
 10
29.54371481643743
 20
262.5721136685905
 30
0.0
 11
29.4526679711376
 21
262.4719877344901
 31
0.0
  0
LINE
  5
BF
330
70
100
AcDbEntity
  8
0
 62
    18
420
        0
370
    25
100
AcDbLine
 10
29.8876926513371
 20
262.4658829675904
 30
0.0
 11
29.79664878903749
 21
262.3657603139903
 31
0.0
  0
LINE
  5
C0
330
70
100
AcDbEntity
  8
0
 62
    18
420
        0
370
    25
100
AcDbLine
 10
28.78795756243742
 20
260.5887547803903
 30
0.0
 11
28.69636509773751
 21
260.4880288183904
 31
0.0
  0
LINE
  5
C1
330
70
100
AcDbEntity
  8
0
 62
    18
420
        0
370
    25
100
AcDbLine
 10
30.40368379283729
 20
262.3065606047902
 30
0.0
 11
30.31264410353733
 21
262.2064425402905
 31
0.0
  0
LINE
  5
C2
330
70
100
AcDbEntity
  8
0
 62
    18
420
        0
370
    25
100
AcDbLine
 10
30.91969757473732
 20
262.1472894530905
 30
0.0
 11
30.82866146783711
 21
262.0471753281904
 31
0.0
  0
LINE
  5
C3
330
70
100
AcDbEntity
  8
0
 62
    18
420
        0
370
    25
100
AcDbLine
 10
31.69991355303728
 20
261.9066290440904
 30
0.0
 11
31.60888121053743
 21
261.8065190590899
 31
0.0
  0
LINE
  5
C4
330
70
100
AcDbEntity
  8
0
 62
    18
420
        0
370
    25
100
AcDbLine
 10
30.47522419233715
 20
260.0662861626901
 30
0.0
 11
30.38363984783741
 21
259.9655691306902
 31
0.0
  0
LINE
  5
C5
330
70
100
AcDbEntity
  8
0
 62
    18
420
        0
370
    25
100
AcDbLine
 10
32.66395203993776
 20
261.60962862689
 30
0.0
 11
32.57292048763765
 21
261.5095195107904
 31
0.0
  0
LINE
  5
C6
330
70
100
AcDbEntity
  8
0
 62
    18
420
        0
370
    25
100
AcDbLine
 10
31.50722875123754
 20
259.7476822231899
 30
0.0
 11
31.41564678483723
 21
259.6469678064904
 31
0.0
  0
LINE
  5
C7
330
70
100
AcDbEntity
  8
0
 62
    18
420
        0
370
    25
100
AcDbLine
 10
33.44465048293766
 20
261.3695000463903
 30
0.0
 11
33.35361522203744
 21
261.2693868519904
 31
0.0
  0
LINE
  5
C8
330
70
100
AcDbEntity
  8
0
 62
    18
420
        0
370
    25
100
AcDbLine
 10
32.51218620743768
 20
259.43899297739
 30
0.0
 11
32.42060238363758
 21
259.3382765179904
 31
0.0
  0
LINE
  5
C9
330
70
100
AcDbEntity
  8
0
 62
   250
420
  3355443
370
    25
100
AcDbLine
 10
36.81990315583729
 20
263.5093738777903
 30
0.0
 11
36.64886469673766
 21
263.3212796564903
 31
0.0
  0
LINE
  5
CA
330
70
100
AcDbEntity
  8
0
 62
    18
420
        0
370
    25
100
AcDbLine
 10
34.61861220143774
 20
261.0093222576903
 30
0.0
 11
34.52756030573738
 21
260.9091907696905
 31
0.0
  0
LINE
  5
CB
330
70
100
AcDbEntity
  8
0
 62
    18
420
        0
370
    25
100
AcDbLine
 10
33.51867737853738
 20
259.1319512800901
 30
0.0
 11
33.42708667943772
 21
259.03122725969
 31
0.0
  0
LINE
  5
CC
330
70
100
AcDbEntity
  8
0
 62
    18
420
        0
370
    25
100
AcDbLine
 10
35.13568015443718
 20
260.85114649479
 30
0.0
 11
35.04461465793723
 21
260.7510000496904
 31
0.0
  0
LINE
  5
CD
330
70
100
AcDbEntity
  8
0
 62
    18
420
        0
370
    25
100
AcDbLine
 10
34.66590284863716
 20
259.6278165252901
 30
0.0
 11
34.57449058313749
 21
259.5272887317904
 31
0.0
  0
LINE
  5
CE
330
70
100
AcDbEntity
  8
0
 62
    18
420
        0
370
    25
100
AcDbLine
 10
34.38245394733732
 20
258.8705906411905
 30
0.0
 11
34.29085339133742
 21
258.7698557809901
 31
0.0
  0
LINE
  5
CF
330
70
100
AcDbEntity
  8
0
 62
    18
420
        0
370
    25
100
AcDbLine
 10
36.31155317253732
 20
260.4930474590905
 30
0.0
 11
36.22043172473751
 21
260.3928394832905
 31
0.0
  0
LINE
  5
D0
330
70
100
AcDbEntity
  8
0
 62
    18
420
        0
370
    25
100
AcDbLine
 10
37.52653167563757
 20
260.1273371884903
 30
0.0
 11
37.43530416153764
 21
260.0270125695903
 31
0.0
  0
LINE
  5
D1
330
70
100
AcDbEntity
  8
0
 62
    18
420
        0
370
    25
100
AcDbLine
 10
36.85562614693721
 20
259.3813080725903
 30
0.0
 11
36.76417607553713
 21
259.2807387031904
 31
0.0
  0
LINE
  5
D2
330
70
100
AcDbEntity
  8
0
 62
    18
420
        0
370
    25
100
AcDbLine
 10
36.05145625083719
 20
258.3725604455902
 30
0.0
 11
35.95983015263719
 21
258.27179749629
 31
0.0
  0
LINE
  5
D3
330
70
100
AcDbEntity
  8
0
 62
    18
420
        0
370
    25
100
AcDbLine
 10
37.49102490723771
 20
259.19585453679
 30
0.0
 11
37.39952837433739
 21
259.0952340727901
 31
0.0
  0
LINE
  5
D4
330
70
100
AcDbEntity
  8
0
 62
    18
420
        0
370
    25
100
AcDbLine
 10
36.92092531373727
 20
258.1174511789906
 30
0.0
 11
36.82928666103759
 21
258.0166744231903
 31
0.0
  0
LINE
  5
D5
330
70
100
AcDbEntity
  8
0
 62
    18
420
        0
370
    25
100
AcDbLine
 10
38.4928641111377
 20
257.6648524828903
 30
0.0
 11
38.40121607353758
 21
257.5640654062901
 31
0.0
  0
LINE
  5
D6
330
70
100
AcDbEntity
  8
0
 62
   250
420
  3355443
370
    25
100
AcDbLine
 10
60.61178797593713
 20
258.1757203760903
 30
0.0
 11
60.61377318453762
 21
258.2464402608902
 31
0.0
  0
LINE
  5
D7
330
70
100
AcDbEntity
  8
0
 62
    18
420
        0
370
    25
100
AcDbLine
 10
64.24218399883753
 20
281.32663622289
 30
0.0
 11
63.69571972553766
 21
280.72101605359
 31
0.0
  0
LINE
  5
D8
330
70
100
AcDbEntity
  8
0
 62
    18
420
        0
370
    25
100
AcDbLine
 10
63.5514667298377
 20
274.9012882075904
 30
0.0
 11
64.09405509483725
 21
275.3505391344902
 31
0.0
  0
LINE
  5
D9
330
70
100
AcDbEntity
  8
0
 62
   250
420
  3355443
370
    25
100
AcDbLine
 10
61.6006398196373
 20
253.44122386909
 30
0.0
 11
61.60172702573759
 21
253.4915296813901
 31
0.0
  0
LINE
  5
DA
330
70
100
AcDbEntity
  8
0
 62
   250
420
  3355443
370
    25
100
AcDbLine
 10
62.31369570113725
 20
283.0339865313905
 30
0.0
 11
62.31502273023771
 21
283.0881904826903
 31
0.0
  0
LINE
  5
DB
330
70
100
AcDbEntity
  8
0
 62
   250
420
  3355443
370
    25
100
AcDbLine
 10
62.12247777403733
 20
275.2682541136899
 30
0.0
 11
62.14997546593742
 21
276.3837988448904
 31
0.0
  0
LINE
  5
DC
330
70
100
AcDbEntity
  8
0
 62
    18
420
        0
370
    25
100
AcDbLine
 10
63.4569616849377
 20
280.0901403922903
 30
0.0
 11
63.33300626553719
 21
275.0892958488905
 31
0.0
  0
LINE
  5
DD
330
70
100
AcDbEntity
  8
0
 62
    18
420
        0
370
    25
100
AcDbLine
 10
63.6428497418375
 20
248.1456034487903
 30
0.0
 11
64.3125155591371
 21
275.1625314931902
 31
0.0
  0
LINE
  5
DE
330
70
100
AcDbEntity
  8
0
 62
    18
420
        0
370
    25
100
AcDbLine
 10
64.48094203933738
 20
281.9575118841903
 30
0.0
 11
65.15060785663763
 21
308.9744399285903
 31
0.0
  0
LINE
  5
DF
330
70
100
AcDbEntity
  8
0
 62
   250
420
  3355443
370
    25
100
AcDbLine
 10
62.07158852113738
 20
273.2239961611905
 30
0.0
 11
62.07486010963751
 21
273.3548411574902
 31
0.0
  0
LINE
  5
E0
330
70
100
AcDbEntity
  8
0
 62
   250
420
  3355443
370
    25
100
AcDbLine
 10
62.67498702883732
 20
297.0618438172904
 30
0.0
 11
62.67539405003744
 21
297.0766185052902
 31
0.0
  0
LINE
  5
E1
330
70
100
AcDbEntity
  8
0
 62
   250
420
  3355443
370
    25
100
AcDbLine
 10
62.83516889493732
 20
302.8020041296903
 30
0.0
 11
62.83822490123772
 21
302.9112054355902
 31
0.0
  0
LINE
  5
E2
330
70
100
AcDbEntity
  8
0
 62
   250
420
  3355443
370
    25
100
AcDbLine
 10
61.44649592983744
 20
246.0181854780902
 30
0.0
 11
63.6428497418375
 21
248.1456034487903
 31
0.0
  0
LINE
  5
E3
330
70
100
AcDbEntity
  8
0
 62
    18
420
        0
370
    25
100
AcDbLine
 10
63.10149512223762
 20
246.8573934501902
 30
0.0
 11
60.95598345393769
 21
244.8374808387904
 31
0.0
  0
SPLINE
  5
E4
330
70
100
AcDbEntity
  8
0
 62
   250
420
  3355443
370
    25
100
AcDbSpline
210
0.0
220
0.0
230
1.0
 70
     8
 71
     3
 72
     8
 73
     4
 74
     0
 42
0.0000000001
 43
0.0000000001
 40
0.0
 40
0.0
 40
0.0
 40
0.0
 40
1.0
 40
1.0
 40
1.0
 40
1.0
 10
-42.33187528704954
 20
324.620747699814
 30
0.0
 10
-42.33273931620936
 20
324.6137178349753
 30
0.0
 10
-42.33325827184966
 20
324.6066498459708
 30
0.0
 10
-42.33343028620721
 20
324.5995691710666
 30
0.0
  0
SPLINE
  5
E5
330
70
100
AcDbEntity
  8
0
 62
   250
420
  3355443
370
    25
100
AcDbSpline
210
0.0
220
0.0
230
1.0
 70
     8
 71
     3
 72
     8
 73
     4
 74
     0
 42
0.0000000001
 43
0.0000000001
 40
0.0
 40
0.0
 40
0.0
 40
0.0
 40
1.0
 40
1.0
 40
1.0
 40
1.0
 10
-42.33062250224175
 20
324.6293944965622
 30
0.0
 10
-42.33110097246046
 20
324.6265213795423
 30
0.0
 10
-42.33151866069944
 20
324.6236384701255
 30
0.0
 10
-42.33187528710922
 20
324.6207476998541
 30
0.0
  0
SPLINE
  5
E6
330
70
100
AcDbEntity
  8
0
 62
    18
420
        0
370
    25
100
AcDbSpline
210
0.0
220
0.0
230
1.0
 70
     8
 71
     3
 72
     8
 73
     4
 74
     0
 42
0.0000000001
 43
0.0000000001
 40
0.0
 40
0.0
 40
0.0
 40
0.0
 40
1.0
 40
1.0
 40
1.0
 40
1.0
 10
34.8276093575312
 20
260.0541214886439
 30
0.0
 10
34.77347118362671
 20
259.9121094676689
 30
0.0
 10
34.71956893960876
 20
259.7700076171146
 30
0.0
 10
34.66590284856401
 20
259.6278165251047
 30
0.0
  0
SPLINE
  5
E7
330
70
100
AcDbEntity
  8
0
 62
    18
420
        0
370
    25
100
AcDbSpline
210
0.0
220
0.0
230
1.0
 70
     8
 71
     3
 72
     8
 73
     4
 74
     0
 42
0.0000000001
 43
0.0000000001
 40
0.0
 40
0.0
 40
0.0
 40
0.0
 40
1.0
 40
1.0
 40
1.0
 40
1.0
 10
34.4340360499779
 20
259.1539122552203
 30
0.0
 10
34.38609818991248
 20
259.0259719348908
 30
0.0
 10
34.33837057258199
 20
258.8979529373327
 30
0.0
 10
34.29085339125593
 20
258.7698557809535
 30
0.0
  0
SPLINE
  5
E8
330
70
100
AcDbEntity
  8
0
 62
    18
420
        0
370
    25
100
AcDbSpline
210
0.0
220
0.0
230
1.0
 70
     8
 71
     3
 72
     8
 73
     4
 74
     0
 42
0.0000000001
 43
0.0000000001
 40
0.0
 40
0.0
 40
0.0
 40
0.0
 40
1.0
 40
1.0
 40
1.0
 40
1.0
 10
34.80190678747076
 20
260.1252610962108
 30
0.0
 10
34.72558237472655
 20
259.9261347479387
 30
0.0
 10
34.64977671615161
 20
259.7268099503667
 30
0.0
 10
34.57449058307267
 20
259.5272887316377
 30
0.0
  0
SPLINE
  5
E9
330
70
100
AcDbEntity
  8
0
 62
    18
420
        0
370
    25
100
AcDbSpline
210
0.0
220
0.0
230
1.0
 70
     8
 71
     3
 72
     8
 73
     4
 74
     0
 42
0.0000000001
 43
0.0000000001
 40
0.0
 40
0.0
 40
0.0
 40
0.0
 40
1.0
 40
1.0
 40
1.0
 40
1.0
 10
34.46262039028342
 20
259.0862039196638
 30
0.0
 10
34.4358262718595
 20
259.0143596065405
 30
0.0
 10
34.40910411079181
 20
258.9424884776601
 30
0.0
 10
34.38245394728085
 20
258.8705906411488
 30
0.0
  0
SPLINE
  5
EA
330
70
100
AcDbEntity
  8
0
 62
    18
420
        0
370
    25
100
AcDbSpline
210
0.0
220
0.0
230
1.0
 70
     8
 71
     3
 72
     8
 73
     4
 74
     0
 42
0.0000000001
 43
0.0000000001
 40
0.0
 40
0.0
 40
0.0
 40
0.0
 40
1.0
 40
1.0
 40
1.0
 40
1.0
 10
36.78896080809152
 20
258.8688878801518
 30
0.0
 10
36.80134228299893
 20
258.584767539043
 30
0.0
 10
36.81478432763458
 20
258.3006944074244
 30
0.0
 10
36.82928666102668
 20
258.0166744231294
 30
0.0
  0
SPLINE
  5
EB
330
70
100
AcDbEntity
  8
0
 62
    18
420
        0
370
    25
100
AcDbSpline
210
0.0
220
0.0
230
1.0
 70
     8
 71
     3
 72
     8
 73
     4
 74
     0
 42
0.0000000001
 43
0.0000000001
 40
0.0
 40
0.0
 40
0.0
 40
0.0
 40
1.0
 40
1.0
 40
1.0
 40
1.0
 10
29.54371481636814
 20
262.5721136685744
 30
0.0
 10
29.28509681292427
 20
261.9135661276944
 30
0.0
 10
29.03316477081263
 20
261.2524124936069
 30
0.0
 10
28.78795756242651
 20
260.5887547804294
 30
0.0
  0
SPLINE
  5
EC
330
70
100
AcDbEntity
  8
0
 62
    18
420
        0
370
    25
100
AcDbSpline
210
0.0
220
0.0
230
1.0
 70
     8
 71
     3
 72
     8
 73
     4
 74
     0
 42
0.0000000001
 43
0.0000000001
 40
0.0
 40
0.0
 40
0.0
 40
0.0
 40
1.0
 40
1.0
 40
1.0
 40
1.0
 10
28.93669598921333
 20
262.6313411915655
 30
0.0
 10
28.75715135909095
 20
262.1742303767692
 30
0.0
 10
28.5808338637472
 20
261.7158585689089
 30
0.0
 10
28.40775666650399
 20
261.2562599886191
 30
0.0
  0
SPLINE
  5
ED
330
70
100
AcDbEntity
  8
0
 62
    18
420
        0
370
    25
100
AcDbSpline
210
0.0
220
0.0
230
1.0
 70
     8
 71
     3
 72
     8
 73
     4
 74
     0
 42
0.0000000001
 43
0.0000000001
 40
0.0
 40
0.0
 40
0.0
 40
0.0
 40
1.0
 40
1.0
 40
1.0
 40
1.0
 10
32.85694045915398
 20
260.4958954631488
 30
0.0
 10
32.74014396023681
 20
260.1442101331459
 30
0.0
 10
32.62522424138404
 20
259.7919042924694
 30
0.0
 10
32.51218620730421
 20
259.4389929773348
 30
0.0
  0
SPLINE
  5
EE
330
70
100
AcDbEntity
  8
0
 62
    18
420
        0
370
    25
100
AcDbSpline
210
0.0
220
0.0
230
1.0
 70
     8
 71
     3
 72
     8
 73
     4
 74
     0
 42
0.0000000001
 43
0.0000000001
 40
0.0
 40
0.0
 40
0.0
 40
0.0
 40
1.0
 40
1.0
 40
1.0
 40
1.0
 10
32.85234057872818
 20
260.6551427683817
 30
0.0
 10
32.70547097866916
 20
260.2171622897276
 30
0.0
 10
32.56155497828294
 20
259.7781969029451
 30
0.0
 10
32.42060238360805
 20
259.338276517923
 30
0.0
  0
SPLINE
  5
EF
330
70
100
AcDbEntity
  8
0
 62
    18
420
        0
370
    25
100
AcDbSpline
210
0.0
220
0.0
230
1.0
 70
     8
 71
     3
 72
     8
 73
     4
 74
     0
 42
0.0000000001
 43
0.0000000001
 40
0.0
 40
0.0
 40
0.0
 40
0.0
 40
1.0
 40
1.0
 40
1.0
 40
1.0
 10
29.45266797101952
 20
262.4719877345235
 30
0.0
 10
29.19372717984058
 20
261.8132957971678
 30
0.0
 10
28.94161271161229
 20
261.1519407173891
 30
0.0
 10
28.69636509771248
 20
260.4880288184521
 30
0.0
  0
SPLINE
  5
F0
330
70
100
AcDbEntity
  8
0
 62
    18
420
        0
370
    25
100
AcDbSpline
210
0.0
220
0.0
230
1.0
 70
     8
 71
     3
 72
     8
 73
     4
 74
     0
 42
0.0000000001
 43
0.0000000001
 40
0.0
 40
0.0
 40
0.0
 40
0.0
 40
1.0
 40
1.0
 40
1.0
 40
1.0
 10
36.88617924064886
 20
258.8404977320648
 30
0.0
 10
36.8968612030047
 20
258.5994398039841
 30
0.0
 10
36.90844330812213
 20
258.3584226058269
 30
0.0
 10
36.92092531373471
 20
258.1174511790014
 30
0.0
  0
SPLINE
  5
F1
330
70
100
AcDbEntity
  8
0
 62
    18
420
        0
370
    25
100
AcDbSpline
210
0.0
220
0.0
230
1.0
 70
     8
 71
     3
 72
     8
 73
     4
 74
     0
 42
0.0000000001
 43
0.0000000001
 40
0.0
 40
0.0
 40
0.0
 40
0.0
 40
1.0
 40
1.0
 40
1.0
 40
1.0
 10
32.57292048757412
 20
261.5095195108469
 30
0.0
 10
32.42129694923139
 20
261.0705431252049
 30
0.0
 10
32.27312206716252
 20
260.6303831362786
 30
0.0
 10
32.12840954013144
 20
260.1890802368419
 30
0.0
  0
SPLINE
  5
F2
330
70
100
AcDbEntity
  8
0
 62
    18
420
        0
370
    25
100
AcDbSpline
210
0.0
220
0.0
230
1.0
 70
     8
 71
     3
 72
     8
 73
     4
 74
     0
 42
0.0000000001
 43
0.0000000001
 40
0.0
 40
0.0
 40
0.0
 40
0.0
 40
1.0
 40
1.0
 40
1.0
 40
1.0
 10
36.8393926466582
 20
259.7937608935863
 30
0.0
 10
36.84446903985658
 20
259.6562636478584
 30
0.0
 10
36.84988022265594
 20
259.5187789666351
 30
0.0
 10
36.85562614693464
 20
259.381308072607
 30
0.0
  0
SPLINE
  5
F3
330
70
100
AcDbEntity
  8
0
 62
    18
420
        0
370
    25
100
AcDbSpline
210
0.0
220
0.0
230
1.0
 70
     8
 71
     3
 72
     8
 73
     4
 74
     0
 42
0.0000000001
 43
0.0000000001
 40
0.0
 40
0.0
 40
0.0
 40
0.0
 40
1.0
 40
1.0
 40
1.0
 40
1.0
 10
36.74348821810907
 20
259.8223006685294
 30
0.0
 10
36.74967576920363
 20
259.6417536482092
 30
0.0
 10
36.75657177474902
 20
259.4612316032733
 30
0.0
 10
36.76417607546718
 20
259.280738703286
 30
0.0
  0
SPLINE
  5
F4
330
70
100
AcDbEntity
  8
0
 62
    18
420
        0
370
    25
100
AcDbSpline
210
0.0
220
0.0
230
1.0
 70
     8
 71
     3
 72
     8
 73
     4
 74
     0
 42
0.0000000001
 43
0.0000000001
 40
0.0
 40
0.0
 40
0.0
 40
0.0
 40
1.0
 40
1.0
 40
1.0
 40
1.0
 10
32.85234057870444
 20
260.6551427684189
 30
0.0
 10
32.86614243680944
 20
260.1661769474036
 30
0.0
 10
32.88520364879619
 20
259.6773737365635
 30
0.0
 10
32.90952090647581
 20
259.1888179706706
 30
0.0
  0
SPLINE
  5
F5
330
70
100
AcDbEntity
  8
0
 62
    18
420
        0
370
    25
100
AcDbSpline
210
0.0
220
0.0
230
1.0
 70
     8
 71
     3
 72
     8
 73
     4
 74
     0
 42
0.0000000001
 43
0.0000000001
 40
0.0
 40
0.0
 40
0.0
 40
0.0
 40
1.0
 40
1.0
 40
1.0
 40
1.0
 10
31.46344849604805
 20
260.7951866893689
 30
0.0
 10
31.47522051436726
 20
260.4459063225489
 30
0.0
 10
31.48981440911236
 20
260.0967267701356
 30
0.0
 10
31.50722875127283
 20
259.7476822231964
 30
0.0
  0
SPLINE
  5
F6
330
70
100
AcDbEntity
  8
0
 62
    18
420
        0
370
    25
100
AcDbSpline
210
0.0
220
0.0
230
1.0
 70
     8
 71
     3
 72
     8
 73
     4
 74
     0
 42
0.0000000001
 43
0.0000000001
 40
0.0
 40
0.0
 40
0.0
 40
0.0
 40
1.0
 40
1.0
 40
1.0
 40
1.0
 10
31.35954131482896
 20
261.1144646215082
 30
0.0
 10
31.37260449464061
 20
260.625099708793
 30
0.0
 10
31.39130756019781
 20
260.1359016124391
 30
0.0
 10
31.41564678486482
 20
259.6469678064833
 30
0.0
  0
SPLINE
  5
F7
330
70
100
AcDbEntity
  8
0
 62
    18
420
        0
370
    25
100
AcDbSpline
210
0.0
220
0.0
230
1.0
 70
     8
 71
     3
 72
     8
 73
     4
 74
     0
 42
0.0000000001
 43
0.0000000001
 40
0.0
 40
0.0
 40
0.0
 40
0.0
 40
1.0
 40
1.0
 40
1.0
 40
1.0
 10
29.79664878894253
 20
262.3657603139666
 30
0.0
 10
29.8069460061555
 20
261.6185305677454
 30
0.0
 10
29.83070314017004
 20
260.8715469438562
 30
0.0
 10
29.86790862866037
 20
260.1251729907023
 30
0.0
  0
SPLINE
  5
F8
330
70
100
AcDbEntity
  8
0
 62
    18
420
        0
370
    25
100
AcDbSpline
210
0.0
220
0.0
230
1.0
 70
     8
 71
     3
 72
     8
 73
     4
 74
     0
 42
0.0000000001
 43
0.0000000001
 40
0.0
 40
0.0
 40
0.0
 40
0.0
 40
1.0
 40
1.0
 40
1.0
 40
1.0
 10
30.40368379289376
 20
262.3065606048069
 30
0.0
 10
30.41400620977303
 20
261.5594318519944
 30
0.0
 10
30.43785691934659
 20
260.8125512713515
 30
0.0
 10
30.47522419234934
 20
260.0662861626419
 30
0.0
  0
SPLINE
  5
F9
330
70
100
AcDbEntity
  8
0
 62
    18
420
        0
370
    25
100
AcDbSpline
210
0.0
220
0.0
230
1.0
 70
     8
 71
     3
 72
     8
 73
     4
 74
     0
 42
0.0000000001
 43
0.0000000001
 40
0.0
 40
0.0
 40
0.0
 40
0.0
 40
1.0
 40
1.0
 40
1.0
 40
1.0
 10
30.31264410358354
 20
262.2064425403169
 30
0.0
 10
30.32213937302169
 20
261.459103050597
 30
0.0
 10
30.34580887805539
 20
260.7120108836913
 30
0.0
 10
30.38363984788618
 20
259.9655691306003
 30
0.0
  0
SPLINE
  5
FA
330
70
100
AcDbEntity
  8
0
 62
    18
420
        0
370
    25
100
AcDbSpline
210
0.0
220
0.0
230
1.0
 70
     8
 71
     3
 72
     8
 73
     4
 74
     0
 42
0.0000000001
 43
0.0000000001
 40
0.0
 40
0.0
 40
0.0
 40
0.0
 40
1.0
 40
1.0
 40
1.0
 40
1.0
 10
37.79964370819493
 20
258.6285204054195
 30
0.0
 10
37.99887891616132
 20
258.2729751908765
 30
0.0
 10
38.19940435958876
 20
257.9181545191994
 30
0.0
 10
38.40121607343235
 20
257.5640654063569
 30
0.0
  0
SPLINE
  5
FB
330
70
100
AcDbEntity
  8
0
 62
    18
420
        0
370
    25
100
AcDbSpline
210
0.0
220
0.0
230
1.0
 70
     8
 71
     3
 72
     8
 73
     4
 74
     0
 42
0.0000000001
 43
0.0000000001
 40
0.0
 40
0.0
 40
0.0
 40
0.0
 40
1.0
 40
1.0
 40
1.0
 40
1.0
 10
37.9344224593709
 20
258.6520841810675
 30
0.0
 10
38.11939433925136
 20
258.3223434858903
 30
0.0
 10
38.30554274261043
 20
257.9932641563464
 30
0.0
 10
38.49286411117877
 20
257.6648524828626
 30
0.0
  0
SPLINE
  5
FC
330
70
100
AcDbEntity
  8
0
 62
    18
420
        0
370
    25
100
AcDbSpline
210
0.0
220
0.0
230
1.0
 70
     8
 71
     3
 72
     8
 73
     4
 74
     0
 42
0.0000000001
 43
0.0000000001
 40
0.0
 40
0.0
 40
0.0
 40
0.0
 40
1.0
 40
1.0
 40
1.0
 40
1.0
 10
37.24498534502446
 20
258.7360725418661
 30
0.0
 10
37.43200201852749
 20
258.400858343599
 30
0.0
 10
37.6204521008632
 20
258.0664458587011
 30
0.0
 10
37.81033041718317
 20
257.7328442701565
 30
0.0
  0
SPLINE
  5
FD
330
70
100
AcDbEntity
  8
0
 62
    18
420
        0
370
    25
100
AcDbSpline
210
0.0
220
0.0
230
1.0
 70
     8
 71
     3
 72
     8
 73
     4
 74
     0
 42
0.0000000001
 43
0.0000000001
 40
0.0
 40
0.0
 40
0.0
 40
0.0
 40
1.0
 40
1.0
 40
1.0
 40
1.0
 10
35.25413624301793
 20
258.9079855616584
 30
0.0
 10
35.31531463282318
 20
258.7471456933893
 30
0.0
 10
35.37701075198635
 20
258.586503230168
 30
0.0
 10
35.43922364104034
 20
258.4260606702301
 30
0.0
  0
SPLINE
  5
FE
330
70
100
AcDbEntity
  8
0
 62
    18
420
        0
370
    25
100
AcDbSpline
210
0.0
220
0.0
230
1.0
 70
     8
 71
     3
 72
     8
 73
     4
 74
     0
 42
0.0000000001
 43
0.0000000001
 40
0.0
 40
0.0
 40
0.0
 40
0.0
 40
1.0
 40
1.0
 40
1.0
 40
1.0
 10
31.35954131478019
 20
261.1144646215384
 30
0.0
 10
31.53438341734423
 20
260.5730327238237
 30
0.0
 10
31.71584208538
 20
260.0337598504378
 30
0.0
 10
31.90387659283745
 20
259.4967670341945
 30
0.0
  0
SPLINE
  5
FF
330
70
100
AcDbEntity
  8
0
 62
    18
420
        0
370
    25
100
AcDbSpline
210
0.0
220
0.0
230
1.0
 70
     8
 71
     3
 72
     8
 73
     4
 74
     0
 42
0.0000000001
 43
0.0000000001
 40
0.0
 40
0.0
 40
0.0
 40
0.0
 40
1.0
 40
1.0
 40
1.0
 40
1.0
 10
27.27991153301469
 20
263.1427924165955
 30
0.0
 10
27.56424818549098
 20
262.3054077393742
 30
0.0
 10
27.86451812918793
 20
261.4735180752385
 30
0.0
 10
28.18055779859851
 20
260.6475765779487
 30
0.0
  0
SPLINE
  5
100
330
70
100
AcDbEntity
  8
0
 62
    18
420
        0
370
    25
100
AcDbSpline
210
0.0
220
0.0
230
1.0
 70
     8
 71
     3
 72
     8
 73
     4
 74
     0
 42
0.0000000001
 43
0.0000000001
 40
0.0
 40
0.0
 40
0.0
 40
0.0
 40
1.0
 40
1.0
 40
1.0
 40
1.0
 10
27.88705020055296
 20
263.0836966843228
 30
0.0
 10
28.07515283939268
 20
262.5294187898197
 30
0.0
 10
28.27040265418462
 20
261.9775921491164
 30
0.0
 10
28.47275084587746
 20
261.4283546809919
 30
0.0
  0
SPLINE
  5
101
330
70
100
AcDbEntity
  8
0
 62
    18
420
        0
370
    25
100
AcDbSpline
210
0.0
220
0.0
230
1.0
 70
     8
 71
     3
 72
     8
 73
     4
 74
     0
 42
0.0000000001
 43
0.0000000001
 40
0.0
 40
0.0
 40
0.0
 40
0.0
 40
1.0
 40
1.0
 40
1.0
 40
1.0
 10
27.79598996595048
 20
262.9835560257963
 30
0.0
 10
27.99214558858868
 20
262.4050693399329
 30
0.0
 10
28.19608633057609
 20
261.8292517362936
 30
0.0
 10
28.40775666643406
 20
261.2562599885941
 30
0.0
  0
SPLINE
  5
102
330
70
100
AcDbEntity
  8
0
 62
    18
420
        0
370
    25
100
AcDbSpline
210
0.0
220
0.0
230
1.0
 70
     8
 71
     3
 72
     8
 73
     4
 74
     0
 42
0.0000000001
 43
0.0000000001
 40
0.0
 40
0.0
 40
0.0
 40
0.0
 40
1.0
 40
1.0
 40
1.0
 40
1.0
 10
34.80190678741429
 20
260.1252610961819
 30
0.0
 10
34.89230632686528
 20
259.8749827039236
 30
0.0
 10
34.98417584762425
 20
259.6252377055971
 30
0.0
 10
35.07751059093708
 20
259.3760390377539
 30
0.0
  0
SPLINE
  5
103
330
70
100
AcDbEntity
  8
0
 62
    18
420
        0
370
    25
100
AcDbSpline
210
0.0
220
0.0
230
1.0
 70
     8
 71
     3
 72
     8
 73
     4
 74
     0
 42
0.0000000001
 43
0.0000000001
 40
0.0
 40
0.0
 40
0.0
 40
0.0
 40
1.0
 40
1.0
 40
1.0
 40
1.0
 10
31.69991355300519
 20
261.9066290440847
 30
0.0
 10
31.85640662428272
 20
261.3946024004583
 30
0.0
 10
32.01989869177112
 20
260.8847411003024
 30
0.0
 10
32.19034384176488
 20
260.377188328677
 30
0.0
  0
SPLINE
  5
104
330
70
100
AcDbEntity
  8
0
 62
    18
420
        0
370
    25
100
AcDbSpline
210
0.0
220
0.0
230
1.0
 70
     8
 71
     3
 72
     8
 73
     4
 74
     0
 42
0.0000000001
 43
0.0000000001
 40
0.0
 40
0.0
 40
0.0
 40
0.0
 40
1.0
 40
1.0
 40
1.0
 40
1.0
 10
31.60888121057337
 20
261.8065190589712
 30
0.0
 10
31.77393596556451
 20
261.2647978284142
 30
0.0
 10
31.9471316753163
 20
260.725590534439
 30
0.0
 10
32.12840954024374
 20
260.1890802368028
 30
0.0
  0
SPLINE
  5
105
330
70
100
AcDbEntity
  8
0
 62
    18
420
        0
370
    25
100
AcDbSpline
210
0.0
220
0.0
230
1.0
 70
     8
 71
     3
 72
     8
 73
     4
 74
     0
 42
0.0000000001
 43
0.0000000001
 40
0.0
 40
0.0
 40
0.0
 40
0.0
 40
1.0
 40
1.0
 40
1.0
 40
1.0
 10
34.43403604985149
 20
259.1539122552325
 30
0.0
 10
34.70729631042715
 20
259.071582058017
 30
0.0
 10
34.98066327158008
 20
258.989606424483
 30
0.0
 10
35.25413624305771
 20
258.9079855616193
 30
0.0
  0
SPLINE
  5
106
330
70
100
AcDbEntity
  8
0
 62
    18
420
        0
370
    25
100
AcDbSpline
210
0.0
220
0.0
230
1.0
 70
     8
 71
     3
 72
     8
 73
     4
 74
     0
 42
0.0000000001
 43
0.0000000001
 40
0.0
 40
0.0
 40
0.0
 40
0.0
 40
1.0
 40
1.0
 40
1.0
 40
1.0
 10
36.30733123779984
 20
258.1694477765877
 30
0.0
 10
36.48126306050932
 20
258.1183413378821
 30
0.0
 10
36.65524829682226
 20
258.0674168588595
 30
0.0
 10
36.82928666110882
 20
258.0166744231223
 30
0.0
  0
SPLINE
  5
107
330
70
100
AcDbEntity
  8
0
 62
    18
420
        0
370
    25
100
AcDbSpline
210
0.0
220
0.0
230
1.0
 70
     8
 71
     3
 72
     8
 73
     4
 74
     0
 42
0.0000000001
 43
0.0000000001
 40
0.0
 40
0.0
 40
0.0
 40
0.0
 40
1.0
 40
1.0
 40
1.0
 40
1.0
 10
37.81033041750787
 20
257.7328442699762
 30
0.0
 10
38.00721948136928
 20
257.6763300162824
 30
0.0
 10
38.20418153137035
 20
257.6200703480067
 30
0.0
 10
38.40121607360817
 20
257.5640654062266
 30
0.0
  0
SPLINE
  5
108
330
70
100
AcDbEntity
  8
0
 62
    18
420
        0
370
    25
100
AcDbSpline
210
0.0
220
0.0
230
1.0
 70
     8
 71
     3
 72
     8
 73
     4
 74
     0
 42
0.0000000001
 43
0.0000000001
 40
0.0
 40
0.0
 40
0.0
 40
0.0
 40
1.0
 40
1.0
 40
1.0
 40
1.0
 10
36.7889608080697
 20
258.8688878802429
 30
0.0
 10
36.94092020010764
 20
258.8244487612616
 30
0.0
 10
37.09292847123477
 20
258.7801769550061
 30
0.0
 10
37.24498534505399
 20
258.7360725419765
 30
0.0
  0
SPLINE
  5
109
330
70
100
AcDbEntity
  8
0
 62
    18
420
        0
370
    25
100
AcDbSpline
210
0.0
220
0.0
230
1.0
 70
     8
 71
     3
 72
     8
 73
     4
 74
     0
 42
0.0000000001
 43
0.0000000001
 40
0.0
 40
0.0
 40
0.0
 40
0.0
 40
1.0
 40
1.0
 40
1.0
 40
1.0
 10
36.85562614701357
 20
259.3813080726224
 30
0.0
 10
37.06731869290308
 20
259.3191240738506
 30
0.0
 10
37.27911859620145
 20
259.2573061361832
 30
0.0
 10
37.49102490716071
 20
259.1958545368221
 30
0.0
  0
SPLINE
  5
10A
330
70
100
AcDbEntity
  8
0
 62
    18
420
        0
370
    25
100
AcDbSpline
210
0.0
220
0.0
230
1.0
 70
     8
 71
     3
 72
     8
 73
     4
 74
     0
 42
0.0000000001
 43
0.0000000001
 40
0.0
 40
0.0
 40
0.0
 40
0.0
 40
1.0
 40
1.0
 40
1.0
 40
1.0
 10
36.76417607560451
 20
259.2807387032456
 30
0.0
 10
36.97585301114523
 20
259.2185373797406
 30
0.0
 10
37.18763742778485
 20
259.1567024103509
 30
0.0
 10
37.39952837419172
 20
259.0952340728382
 30
0.0
  0
SPLINE
  5
10B
330
70
100
AcDbEntity
  8
0
 62
    18
420
        0
370
    25
100
AcDbSpline
210
0.0
220
0.0
230
1.0
 70
     8
 71
     3
 72
     8
 73
     4
 74
     0
 42
0.0000000001
 43
0.0000000001
 40
0.0
 40
0.0
 40
0.0
 40
0.0
 40
1.0
 40
1.0
 40
1.0
 40
1.0
 10
36.7434882180988
 20
259.8223006685576
 30
0.0
 10
36.95457075126908
 20
259.7594434475371
 30
0.0
 10
37.16576259263638
 20
259.6969538824376
 30
0.0
 10
37.37706278138667
 20
259.6348322575549
 30
0.0
  0
SPLINE
  5
10C
330
70
100
AcDbEntity
  8
0
 62
   250
420
  3355443
370
    25
100
AcDbSpline
210
0.0
220
0.0
230
1.0
 70
     8
 71
     3
 72
     8
 73
     4
 74
     0
 42
0.0000000001
 43
0.0000000001
 40
0.0
 40
0.0
 40
0.0
 40
0.0
 40
1.0
 40
1.0
 40
1.0
 40
1.0
 10
62.67498702876224
 20
297.0618438194237
 30
0.0
 10
62.5471670407497
 20
292.4041644188118
 30
0.0
 10
62.42717877156731
 20
287.7462733879643
 30
0.0
 10
62.31502273007857
 20
283.0881904807402
 30
0.0
  0
SPLINE
  5
10D
330
70
100
AcDbEntity
  8
0
 62
    18
420
        0
370
    25
100
AcDbSpline
210
0.0
220
0.0
230
1.0
 70
     8
 71
     3
 72
    26
 73
    22
 74
     0
 42
0.0000000001
 43
0.0000000001
 40
0.0
 40
0.0
 40
0.0
 40
0.0
 40
1.0
 40
1.0
 40
1.0
 40
2.0
 40
2.0
 40
2.0
 40
3.0
 40
3.0
 40
3.0
 40
4.0
 40
4.0
 40
4.0
 40
5.0
 40
5.0
 40
5.0
 40
6.0
 40
6.0
 40
6.0
 40
7.0
 40
7.0
 40
7.0
 40
7.0
 10
62.53972443913767
 20
312.2610218396901
 30
0.0
 10
62.71815737833719
 20
312.2062268126903
 30
0.0
 10
62.89219195020039
 20
312.1361776407012
 30
0.0
 10
63.05984311188339
 20
312.0535517332565
 30
0.0
 10
63.23296182819154
 20
311.9682311730706
 30
0.0
 10
63.39927398470769
 20
311.8695001787348
 30
0.0
 10
63.55760502905315
 20
311.7592960605118
 30
0.0
 10
63.71842053317759
 20
311.6473626686627
 30
0.0
 10
63.87100248791432
 20
311.5235932657244
 30
0.0
 10
64.01391010333752
 20
311.3895469868674
 30
0.0
 10
64.15654946207546
 20
311.2557523307836
 30
0.0
 10
64.28955076746615
 20
311.1117193447074
 30
0.0
 10
64.41121674884207
 20
310.9585221748209
 30
0.0
 10
64.53056734656991
 20
310.8082404478385
 30
0.0
 10
64.63900995235755
 20
310.6491400189815
 30
0.0
 10
64.73425086720958
 20
310.4827815186969
 30
0.0
 10
64.82617342934037
 20
310.3222192267226
 30
0.0
 10
64.9057982124191
 20
310.1548958191316
 30
0.0
 10
64.97060495240024
 20
309.9806107475509
 30
0.0
 10
65.08995705988934
 20
309.6596365617927
 30
0.0
 10
65.15905053263773
 20
309.3150503696903
 30
0.0
 10
65.15060785663763
 20
308.9744399285903
 30
0.0
  0
SPLINE
  5
10E
330
70
100
AcDbEntity
  8
0
 62
    18
420
        0
370
    25
100
AcDbSpline
210
0.0
220
0.0
230
1.0
 70
     8
 71
     3
 72
    20
 73
    16
 74
     0
 42
0.0000000001
 43
0.0000000001
 40
0.0
 40
0.0
 40
0.0
 40
0.0
 40
1.0
 40
1.0
 40
1.0
 40
2.0
 40
2.0
 40
2.0
 40
3.0
 40
3.0
 40
3.0
 40
4.0
 40
4.0
 40
4.0
 40
5.0
 40
5.0
 40
5.0
 40
5.0
 10
-59.03667351966274
 20
349.5959558258904
 30
0.0
 10
-59.26410505356265
 20
349.6657978465903
 30
0.0
 10
-59.50033650136992
 20
349.7113297713746
 30
0.0
 10
-59.73869210245694
 20
349.7247851834739
 30
0.0
 10
-59.95888347762248
 20
349.7372152068507
 30
0.0
 10
-60.18088759369947
 20
349.7222713079273
 30
0.0
 10
-60.39595950724341
 20
349.6724221892847
 30
0.0
 10
-60.59541789032238
 20
349.6261919566218
 30
0.0
 10
-60.78891404742144
 20
349.5499405572609
 30
0.0
 10
-60.96257937050651
 20
349.4425229050971
 30
0.0
 10
-61.04649831117261
 20
349.3906163101692
 30
0.0
 10
-61.12578667869921
 20
349.3314322798607
 30
0.0
 10
-61.19920560507766
 20
349.2655545387489
 30
0.0
 10
-61.27202327060505
 20
349.200216300305
 30
0.0
 10
-61.33906723636257
 20
349.1282935377903
 30
0.0
 10
-61.39898636076249
 20
349.0511408168901
 30
0.0
  0
SPLINE
  5
10F
330
70
100
AcDbEntity
  8
0
 62
    18
420
        0
370
    25
100
AcDbSpline
210
0.0
220
0.0
230
1.0
 70
     8
 71
     3
 72
     8
 73
     4
 74
     0
 42
0.0000000001
 43
0.0000000001
 40
0.0
 40
0.0
 40
0.0
 40
0.0
 40
1.0
 40
1.0
 40
1.0
 40
1.0
 10
32.89489787133735
 20
267.2066952567905
 30
0.0
 10
32.89495175503735
 20
267.2088855385902
 30
0.0
 10
32.89315375463721
 20
267.2113884124903
 30
0.0
 10
32.8910590252371
 20
267.2120305544901
 30
0.0
  0
SPLINE
  5
110
330
70
100
AcDbEntity
  8
0
 62
    18
420
        0
370
    25
100
AcDbSpline
210
0.0
220
0.0
230
1.0
 70
     8
 71
     3
 72
     8
 73
     4
 74
     0
 42
0.0000000001
 43
0.0000000001
 40
0.0
 40
0.0
 40
0.0
 40
0.0
 40
1.0
 40
1.0
 40
1.0
 40
1.0
 10
-27.22529892166257
 20
285.66902525009
 30
0.0
 10
-27.22524503796257
 20
285.6712155318903
 30
0.0
 10
-27.2270430382626
 20
285.6737184056903
 30
0.0
 10
-27.2291377677625
 20
285.6743605476901
 30
0.0
  0
SPLINE
  5
111
330
70
100
AcDbEntity
  8
0
 62
    18
420
        0
370
    25
100
AcDbSpline
210
0.0
220
0.0
230
1.0
 70
     8
 71
     3
 72
    17
 73
    13
 74
     0
 42
0.0000000001
 43
0.0000000001
 40
0.0
 40
0.0
 40
0.0
 40
0.0
 40
1.0
 40
1.0
 40
1.0
 40
2.0
 40
2.0
 40
2.0
 40
3.0
 40
3.0
 40
3.0
 40
4.0
 40
4.0
 40
4.0
 40
4.0
 10
-42.33330187206266
 20
324.6301884475901
 30
0.0
 10
-42.34496901006255
 20
324.6337713126904
 30
0.0
 10
-42.35578151490989
 20
324.6369446991007
 30
0.0
 10
-42.3687744180781
 20
324.6392620215709
 30
0.0
 10
-42.37766064173897
 20
324.6408469056802
 30
0.0
 10
-42.38756676615971
 20
324.6420313582472
 30
0.0
 10
-42.39353117526459
 20
324.6430296737691
 30
0.0
 10
-42.39680288887163
 20
324.6435772892022
 30
0.0
 10
-42.39888855802675
 20
324.6440688968339
 30
0.0
 10
-42.40724955634418
 20
324.643733420322
 30
0.0
 10
-42.40933594605288
 20
324.6436497060675
 30
0.0
 10
-42.41181309666258
 20
324.6435144897903
 30
0.0
 10
-42.41067547156258
 20
324.6436208671903
 30
0.0
  0
SPLINE
  5
112
330
70
100
AcDbEntity
  8
0
 62
    18
420
        0
370
    25
100
AcDbSpline
210
0.0
220
0.0
230
1.0
 70
     8
 71
     3
 72
    11
 73
     7
 74
     0
 42
0.0000000001
 43
0.0000000001
 40
0.0
 40
0.0
 40
0.0
 40
0.0
 40
1.0
 40
1.0
 40
1.0
 40
2.0
 40
2.0
 40
2.0
 40
2.0
 10
38.15371976223751
 20
258.7839212304904
 30
0.0
 10
38.11184625183749
 20
258.73787723239
 30
0.0
 10
38.05874020697972
 20
258.701450608553
 30
0.0
 10
38.00131544313516
 20
258.6760607221616
 30
0.0
 10
37.93758926133248
 20
258.6478847157177
 30
0.0
 10
37.86854454103718
 20
258.6333005435903
 30
0.0
 10
37.79964370823729
 20
258.6285204054901
 30
0.0
  0
SPLINE
  5
113
330
70
100
AcDbEntity
  8
0
 62
    18
420
        0
370
    25
100
AcDbSpline
210
0.0
220
0.0
230
1.0
 70
     8
 71
     3
 72
    23
 73
    19
 74
     0
 42
0.0000000001
 43
0.0000000001
 40
0.0
 40
0.0
 40
0.0
 40
0.0
 40
1.0
 40
1.0
 40
1.0
 40
2.0
 40
2.0
 40
2.0
 40
3.0
 40
3.0
 40
3.0
 40
4.0
 40
4.0
 40
4.0
 40
5.0
 40
5.0
 40
5.0
 40
6.0
 40
6.0
 40
6.0
 40
6.0
 10
37.66238671563737
 20
259.1419609739905
 30
0.0
 10
37.67671069343763
 20
259.1577171618905
 30
0.0
 10
37.68793623908378
 20
259.1765938679287
 30
0.0
 10
37.6952487183064
 20
259.1967422934055
 30
0.0
 10
37.70297374280174
 20
259.218027424702
 30
0.0
 10
37.7063317223657
 20
259.2407318153012
 30
0.0
 10
37.70625452334863
 20
259.263324774696
 30
0.0
 10
37.70616917800846
 20
259.2883018259503
 30
0.0
 10
37.7018854172748
 20
259.3131426879274
 30
0.0
 10
37.6947317092627
 20
259.337036900691
 30
0.0
 10
37.68680296607747
 20
259.3635198206409
 30
0.0
 10
37.67534872709586
 20
259.3888398593598
 30
0.0
 10
37.66153260406999
 20
259.4127700258443
 30
0.0
 10
37.63106749106662
 20
259.4655370158879
 30
0.0
 10
37.58911841530493
 20
259.5115461631735
 30
0.0
 10
37.54072788767915
 20
259.5493440015753
 30
0.0
 10
37.49172399676933
 20
259.5876209380044
 30
0.0
 10
37.43611432473756
 20
259.6174770850902
 30
0.0
 10
37.3770627109371
 20
259.6348313805904
 30
0.0
  0
SPLINE
  5
114
330
70
100
AcDbEntity
  8
0
 62
    18
420
        0
370
    25
100
AcDbSpline
210
0.0
220
0.0
230
1.0
 70
     8
 71
     3
 72
    44
 73
    40
 74
     0
 42
0.0000000001
 43
0.0000000001
 40
0.0
 40
0.0
 40
0.0
 40
0.0
 40
1.0
 40
1.0
 40
1.0
 40
2.0
 40
2.0
 40
2.0
 40
3.0
 40
3.0
 40
3.0
 40
4.0
 40
4.0
 40
4.0
 40
5.0
 40
5.0
 40
5.0
 40
6.0
 40
6.0
 40
6.0
 40
7.0
 40
7.0
 40
7.0
 40
8.0
 40
8.0
 40
8.0
 40
9.0
 40
9.0
 40
9.0
 40
10.0
 40
10.0
 40
10.0
 40
11.0
 40
11.0
 40
11.0
 40
12.0
 40
12.0
 40
12.0
 40
13.0
 40
13.0
 40
13.0
 40
13.0
 10
37.71780873933769
 20
299.7343924655902
 30
0.0
 10
37.71779598413765
 20
299.7338778696901
 30
0.0
 10
37.71777737120974
 20
299.734975067485
 30
0.0
 10
37.71775089824185
 20
299.7359356439673
 30
0.0
 10
37.71760747221275
 20
299.7411398836799
 30
0.0
 10
37.71723333139485
 20
299.7423338947115
 30
0.0
 10
37.71680101625706
 20
299.7442480955988
 30
0.0
 10
37.71596286257049
 20
299.7479592645786
 30
0.0
 10
37.71490604465056
 20
299.7543774658233
 30
0.0
 10
37.71366410466625
 20
299.7601625801655
 30
0.0
 10
37.71179777385062
 20
299.7688561863835
 30
0.0
 10
37.70951338726739
 20
299.7761201108824
 30
0.0
 10
37.7069607067919
 20
299.7835984595105
 30
0.0
 10
37.7035590600267
 20
299.7935639450732
 30
0.0
 10
37.69968098633284
 20
299.803910197519
 30
0.0
 10
37.69543507713337
 20
299.8139674705322
 30
0.0
 10
37.69020994980865
 20
299.8263442147271
 30
0.0
 10
37.6844277573227
 20
299.8382833166292
 30
0.0
 10
37.67821127528855
 20
299.850040355442
 30
0.0
 10
37.67098404326722
 20
299.8637089942196
 30
0.0
 10
37.66316981677942
 20
299.8771315528733
 30
0.0
 10
37.65486418655079
 20
299.890223484613
 30
0.0
 10
37.64563142682471
 20
299.9047768245486
 30
0.0
 10
37.63579143273473
 20
299.9189216042576
 30
0.0
 10
37.62543826404672
 20
299.9326849154862
 30
0.0
 10
37.61434004227118
 20
299.9474386865277
 30
0.0
 10
37.60265212831677
 20
299.9617541097239
 30
0.0
 10
37.59044593427522
 20
299.9756073864664
 30
0.0
 10
37.57775398305745
 20
299.9900119676187
 30
0.0
 10
37.56450168003841
 20
300.0039168872867
 30
0.0
 10
37.55073776473774
 20
300.0173088551664
 30
0.0
 10
37.52311449598435
 20
300.0441856500162
 30
0.0
 10
37.49343056355245
 20
300.0689963859435
 30
0.0
 10
37.46200364762754
 20
300.0913452356769
 30
0.0
 10
37.4331683245114
 20
300.1118511072962
 30
0.0
 10
37.40286563222142
 20
300.1302843856148
 30
0.0
 10
37.37117001218853
 20
300.1460495438097
 30
0.0
 10
37.34582093567684
 20
300.1586579799561
 30
0.0
 10
37.31958090703733
 20
300.16955981839
 30
0.0
 10
37.29255877233719
 20
300.1778580545902
 30
0.0
  0
SPLINE
  5
115
330
70
100
AcDbEntity
  8
0
 62
    18
420
        0
370
    25
100
AcDbSpline
210
0.0
220
0.0
230
1.0
 70
     8
 71
     3
 72
    17
 73
    13
 74
     0
 42
0.0000000001
 43
0.0000000001
 40
0.0
 40
0.0
 40
0.0
 40
0.0
 40
1.0
 40
1.0
 40
1.0
 40
2.0
 40
2.0
 40
2.0
 40
3.0
 40
3.0
 40
3.0
 40
4.0
 40
4.0
 40
4.0
 40
4.0
 10
63.10149429313742
 20
246.8573942692901
 30
0.0
 10
63.1853881604374
 20
246.9363809707903
 30
0.0
 10
63.26112281553596
 20
247.0245787447016
 30
0.0
 10
63.32673075261056
 20
247.1196198539207
 30
0.0
 10
63.39317532095746
 20
247.2158729257107
 30
0.0
 10
63.44923325308014
 20
247.3191449778098
 30
0.0
 10
63.4945134552723
 20
247.4268814355721
 30
0.0
 10
63.54117697289776
 20
247.5379092546271
 30
0.0
 10
63.57639417983271
 20
247.6536784222393
 30
0.0
 10
63.60075016781293
 20
247.7716673851277
 30
0.0
 10
63.62615366264269
 20
247.8947308392218
 30
0.0
 10
63.63974160583736
 20
248.0202091332904
 30
0.0
 10
63.6428497418375
 20
248.1456034487903
 30
0.0
  0
SPLINE
  5
116
330
70
100
AcDbEntity
  8
0
 62
    18
420
        0
370
    25
100
AcDbSpline
210
0.0
220
0.0
230
1.0
 70
     8
 71
     3
 72
    14
 73
    10
 74
     0
 42
0.0000000001
 43
0.0000000001
 40
0.0
 40
0.0
 40
0.0
 40
0.0
 40
1.0
 40
1.0
 40
1.0
 40
2.0
 40
2.0
 40
2.0
 40
3.0
 40
3.0
 40
3.0
 40
3.0
 10
-41.78749895926249
 20
289.0817223307902
 30
0.0
 10
-41.82362151436258
 20
289.0928152175903
 30
0.0
 10
-41.85801095300554
 20
289.110339632518
 30
0.0
 10
-41.88915284668701
 20
289.1318970984612
 30
0.0
 10
-41.92133433687814
 20
289.1541742080651
 30
0.0
 10
-41.95004784024874
 20
289.1807581303331
 30
0.0
 10
-41.9746730050272
 20
289.2119573508146
 30
0.0
 10
-42.01918306452365
 20
289.268350035792
 30
0.0
 10
-42.05033624736253
 20
289.3398212098904
 30
0.0
 10
-42.04858730096268
 20
289.4103805219899
 30
0.0
  0
LINE
  5
117
330
70
100
AcDbEntity
  8
0
 62
    18
420
        0
370
    25
100
AcDbLine
 10
28.69636509773751
 20
260.4880288183904
 30
0.0
 11
28.18055779863766
 21
260.6475765778903
 31
0.0
  0
LINE
  5
118
330
70
100
AcDbEntity
  8
0
 62
    18
420
        0
370
    25
100
AcDbLine
 10
30.38363984783741
 20
259.9655691306902
 30
0.0
 11
29.86790862873738
 21
260.1251729907902
 31
0.0
  0
LINE
  5
119
330
70
100
AcDbEntity
  8
0
 62
    18
420
        0
370
    25
100
AcDbLine
 10
32.42060238363758
 20
259.3382765179904
 30
0.0
 11
31.90387659283745
 21
259.4967670342901
 31
0.0
  0
LINE
  5
11A
330
70
100
AcDbEntity
  8
0
 62
    18
420
        0
370
    25
100
AcDbLine
 10
31.41564678483723
 20
259.6469678064904
 30
0.0
 11
30.89952206503766
 21
259.8061445236905
 31
0.0
  0
SPLINE
  5
11B
330
70
100
AcDbEntity
  8
0
 62
    18
420
        0
370
    25
100
AcDbSpline
210
0.0
220
0.0
230
1.0
 70
     8
 71
     3
 72
    11
 73
     7
 74
     0
 42
0.0000000001
 43
0.0000000001
 40
0.0
 40
0.0
 40
0.0
 40
0.0
 40
1.0
 40
1.0
 40
1.0
 40
2.0
 40
2.0
 40
2.0
 40
2.0
 10
30.89952206503766
 20
259.8061445236905
 30
0.0
 10
30.89038068213759
 20
259.9897739771902
 30
0.0
 10
30.88210744311373
 20
260.1734443679064
 30
0.0
 10
30.87457985624388
 20
260.3571508356549
 30
0.0
 10
30.85150664989176
 20
260.9202392877647
 30
0.0
 10
30.83543896753731
 20
261.4836666894904
 30
0.0
 10
30.82866146783711
 20
262.0471753281904
 30
0.0
  0
LINE
  5
11C
330
70
100
AcDbEntity
  8
0
 62
    18
420
        0
370
    25
100
AcDbLine
 10
33.42708667943772
 20
259.03122725969
 30
0.0
 11
32.90952090653742
 21
259.1888179705904
 31
0.0
  0
LINE
  5
11D
330
70
100
AcDbEntity
  8
0
 62
    18
420
        0
370
    25
100
AcDbLine
 10
34.29085339133742
 20
258.7698557809901
 30
0.0
 11
33.77240785693734
 21
258.9264738578901
 31
0.0
  0
SPLINE
  5
11E
330
70
100
AcDbEntity
  8
0
 62
    18
420
        0
370
    25
100
AcDbSpline
210
0.0
220
0.0
230
1.0
 70
     8
 71
     3
 72
    11
 73
     7
 74
     0
 42
0.0000000001
 43
0.0000000001
 40
0.0
 40
0.0
 40
0.0
 40
0.0
 40
1.0
 40
1.0
 40
1.0
 40
2.0
 40
2.0
 40
2.0
 40
2.0
 10
33.77240785693734
 20
258.9264738578901
 30
0.0
 10
33.8937252901375
 20
259.2537219065901
 30
0.0
 10
34.01646445963914
 20
259.5804424915554
 30
0.0
 10
34.1404875250183
 20
259.9066780217574
 30
0.0
 10
34.26778074881353
 20
260.2415155153237
 30
0.0
 10
34.39642646693754
 20
260.5758420376901
 30
0.0
 10
34.52756030573738
 20
260.9091907696905
 30
0.0
  0
SPLINE
  5
11F
330
70
100
AcDbEntity
  8
0
 62
    18
420
        0
370
    25
100
AcDbSpline
210
0.0
220
0.0
230
1.0
 70
     8
 71
     3
 72
     8
 73
     4
 74
     0
 42
0.0000000001
 43
0.0000000001
 40
0.0
 40
0.0
 40
0.0
 40
0.0
 40
1.0
 40
1.0
 40
1.0
 40
1.0
 10
35.95983015263719
 20
258.27179749629
 30
0.0
 10
35.78624567563711
 20
258.3230529901903
 30
0.0
 10
35.61271116413746
 20
258.3744779634902
 30
0.0
 10
35.43922364093767
 20
258.4260606702904
 30
0.0
  0
SPLINE
  5
120
330
70
100
AcDbEntity
  8
0
 62
    18
420
        0
370
    25
100
AcDbSpline
210
0.0
220
0.0
230
1.0
 70
     8
 71
     3
 72
    11
 73
     7
 74
     0
 42
0.0000000001
 43
0.0000000001
 40
0.0
 40
0.0
 40
0.0
 40
0.0
 40
1.0
 40
1.0
 40
1.0
 40
2.0
 40
2.0
 40
2.0
 40
2.0
 10
36.30733123763749
 20
258.1694477766903
 30
0.0
 10
36.28835949453737
 20
258.5368577884903
 30
0.0
 10
36.2718377157584
 20
258.9043838598704
 30
0.0
 10
36.25678942940977
 20
259.2719884425272
 30
0.0
 10
36.24149924044786
 20
259.6455023033003
 30
0.0
 10
36.22773029773747
 20
260.0190972197902
 30
0.0
 10
36.22043172473751
 20
260.3928394832905
 30
0.0
  0
SPLINE
  5
121
330
70
100
AcDbEntity
  8
0
 62
    18
420
        0
370
    25
100
AcDbSpline
210
0.0
220
0.0
230
1.0
 70
     8
 71
     3
 72
    11
 73
     7
 74
     0
 42
0.0000000001
 43
0.0000000001
 40
0.0
 40
0.0
 40
0.0
 40
0.0
 40
1.0
 40
1.0
 40
1.0
 40
2.0
 40
2.0
 40
2.0
 40
2.0
 10
27.64977850313753
 20
268.7844728038902
 30
0.0
 10
27.65748721673738
 20
268.7912910813903
 30
0.0
 10
27.66714301439909
 20
268.7961644855818
 30
0.0
 10
27.6771556798659
 20
268.7987454614042
 30
0.0
 10
27.68062640669545
 20
268.7996401144876
 30
0.0
 10
27.68414001293737
 20
268.8002593210902
 30
0.0
 10
27.68768429563715
 20
268.8006643471902
 30
0.0
  0
SPLINE
  5
122
330
70
100
AcDbEntity
  8
0
 62
    18
420
        0
370
    25
100
AcDbSpline
210
0.0
220
0.0
230
1.0
 70
     8
 71
     3
 72
    11
 73
     7
 74
     0
 42
0.0000000001
 43
0.0000000001
 40
0.0
 40
0.0
 40
0.0
 40
0.0
 40
1.0
 40
1.0
 40
1.0
 40
2.0
 40
2.0
 40
2.0
 40
2.0
 10
27.68768429563715
 20
268.8006643471902
 30
0.0
 10
27.69157055053752
 20
268.8011084524903
 30
0.0
 10
27.69548829035826
 20
268.8012836206476
 30
0.0
 10
27.69940504196377
 20
268.8012352831202
 30
0.0
 10
27.71196824138618
 20
268.801080237803
 30
0.0
 10
27.72452127363726
 20
268.7986256733905
 30
0.0
 10
27.73651458953724
 20
268.7949412136903
 30
0.0
  0
SPLINE
  5
123
330
70
100
AcDbEntity
  8
0
 62
    18
420
        0
370
    25
100
AcDbSpline
210
0.0
220
0.0
230
1.0
 70
     8
 71
     3
 72
    11
 73
     7
 74
     0
 42
0.0000000001
 43
0.0000000001
 40
0.0
 40
0.0
 40
0.0
 40
0.0
 40
1.0
 40
1.0
 40
1.0
 40
2.0
 40
2.0
 40
2.0
 40
2.0
 10
32.85966736483751
 20
266.43861803919
 30
0.0
 10
32.8618275478374
 20
266.4415623687899
 30
0.0
 10
32.86375257894665
 20
266.4446802986505
 30
0.0
 10
32.8654611037852
 20
266.4479159851469
 30
0.0
 10
32.8710263156103
 20
266.458455650914
 30
0.0
 10
32.87429436723729
 20
266.4702447301902
 30
0.0
 10
32.87595436543728
 20
266.4820233331905
 30
0.0
  0
SPLINE
  5
124
330
70
100
AcDbEntity
  8
0
 62
    18
420
        0
370
    25
100
AcDbSpline
210
0.0
220
0.0
230
1.0
 70
     8
 71
     3
 72
     8
 73
     4
 74
     0
 42
0.0000000001
 43
0.0000000001
 40
0.0
 40
0.0
 40
0.0
 40
0.0
 40
1.0
 40
1.0
 40
1.0
 40
1.0
 10
32.87595436543728
 20
266.4820233331905
 30
0.0
 10
32.87678125413764
 20
266.4878905649903
 30
0.0
 10
32.87722811723756
 20
266.49381873809
 30
0.0
 10
32.87737469713722
 20
266.4997421381905
 30
0.0
  0
SPLINE
  5
125
330
70
100
AcDbEntity
  8
0
 62
    18
420
        0
370
    25
100
AcDbSpline
210
0.0
220
0.0
230
1.0
 70
     8
 71
     3
 72
    11
 73
     7
 74
     0
 42
0.0000000001
 43
0.0000000001
 40
0.0
 40
0.0
 40
0.0
 40
0.0
 40
1.0
 40
1.0
 40
1.0
 40
2.0
 40
2.0
 40
2.0
 40
2.0
 10
-32.47041828986271
 20
287.2468027971903
 30
0.0
 10
-32.46270957626254
 20
287.2536210745903
 30
0.0
 10
-32.45305377860083
 20
287.2584944788562
 30
0.0
 10
-32.44304111313403
 20
287.2610754546421
 30
0.0
 10
-32.43957038630447
 20
287.2619701077133
 30
0.0
 10
-32.43605678006255
 20
287.2625893142902
 30
0.0
 10
-32.43251249736245
 20
287.2629943403903
 30
0.0
  0
SPLINE
  5
126
330
70
100
AcDbEntity
  8
0
 62
    18
420
        0
370
    25
100
AcDbSpline
210
0.0
220
0.0
230
1.0
 70
     8
 71
     3
 72
    11
 73
     7
 74
     0
 42
0.0000000001
 43
0.0000000001
 40
0.0
 40
0.0
 40
0.0
 40
0.0
 40
1.0
 40
1.0
 40
1.0
 40
2.0
 40
2.0
 40
2.0
 40
2.0
 10
-32.43251249736245
 20
287.2629943403903
 30
0.0
 10
-32.42862624236261
 20
287.2634384456904
 30
0.0
 10
-32.4247085025653
 20
287.2636136138476
 30
0.0
 10
-32.42079175097808
 20
287.2635652763261
 30
0.0
 10
-32.40822855161373
 20
287.2634102310268
 30
0.0
 10
-32.39567551936266
 20
287.2609556666899
 30
0.0
 10
-32.38368220346268
 20
287.2572712068903
 30
0.0
  0
SPLINE
  5
127
330
70
100
AcDbEntity
  8
0
 62
    18
420
        0
370
    25
100
AcDbSpline
210
0.0
220
0.0
230
1.0
 70
     8
 71
     3
 72
    11
 73
     7
 74
     0
 42
0.0000000001
 43
0.0000000001
 40
0.0
 40
0.0
 40
0.0
 40
0.0
 40
1.0
 40
1.0
 40
1.0
 40
2.0
 40
2.0
 40
2.0
 40
2.0
 10
-27.26052942816272
 20
284.9009480323901
 30
0.0
 10
-27.25836924516253
 20
284.9038923620901
 30
0.0
 10
-27.25644421403016
 20
284.9070102919269
 30
0.0
 10
-27.25473568917879
 20
284.9102459784111
 30
0.0
 10
-27.24917047731294
 20
284.9207856441371
 30
0.0
 10
-27.24590242576262
 20
284.9325747234903
 30
0.0
 10
-27.24424242756264
 20
284.9443533263905
 30
0.0
  0
SPLINE
  5
128
330
70
100
AcDbEntity
  8
0
 62
    18
420
        0
370
    25
100
AcDbSpline
210
0.0
220
0.0
230
1.0
 70
     8
 71
     3
 72
     8
 73
     4
 74
     0
 42
0.0000000001
 43
0.0000000001
 40
0.0
 40
0.0
 40
0.0
 40
0.0
 40
1.0
 40
1.0
 40
1.0
 40
1.0
 10
-27.24424242756264
 20
284.9443533263905
 30
0.0
 10
-27.24341553886259
 20
284.9502205582905
 30
0.0
 10
-27.24296867576267
 20
284.9561487312901
 30
0.0
 10
-27.2428220958627
 20
284.9620721313899
 30
0.0
  0
LINE
  5
129
330
70
100
AcDbEntity
  8
0
 62
    18
420
        0
370
    25
100
AcDbLine
 10
30.40368379283729
 20
262.3065606047902
 30
0.0
 11
29.8876926513371
 21
262.4658829675904
 31
0.0
  0
SPLINE
  5
12A
330
70
100
AcDbEntity
  8
0
 62
    18
420
        0
370
    25
100
AcDbSpline
210
0.0
220
0.0
230
1.0
 70
     8
 71
     3
 72
    11
 73
     7
 74
     0
 42
0.0000000001
 43
0.0000000001
 40
0.0
 40
0.0
 40
0.0
 40
0.0
 40
1.0
 40
1.0
 40
1.0
 40
2.0
 40
2.0
 40
2.0
 40
2.0
 10
33.51867737853738
 20
259.1319512800901
 30
0.0
 10
33.50006271393717
 20
259.5005323302903
 30
0.0
 10
33.48436900122485
 20
259.8692631187583
 30
0.0
 10
33.47176939198374
 20
260.2381095451042
 30
0.0
 10
33.45889025041
 20
260.6151391222315
 30
0.0
 10
33.44924402553755
 20
260.99228952519
 30
0.0
 10
33.44465048293766
 20
261.3695000463903
 30
0.0
  0
LINE
  5
12B
330
70
100
AcDbEntity
  8
0
 62
    18
420
        0
370
    25
100
AcDbLine
 10
33.44465048293766
 20
261.3695000463903
 30
0.0
 11
32.66395203993776
 21
261.60962862689
 31
0.0
  0
LINE
  5
12C
330
70
100
AcDbEntity
  8
0
 62
    18
420
        0
370
    25
100
AcDbLine
 10
31.69991355303728
 20
261.9066290440904
 30
0.0
 11
30.91969757473732
 21
262.1472894530905
 31
0.0
  0
LINE
  5
12D
330
70
100
AcDbEntity
  8
0
 62
    18
420
        0
370
    25
100
AcDbLine
 10
35.02371808903753
 20
259.5201563017901
 30
0.0
 11
34.66590284863716
 21
259.6278165252901
 31
0.0
  0
LINE
  5
12E
330
70
100
AcDbEntity
  8
0
 62
    18
420
        0
370
    25
100
AcDbLine
 10
34.46262039033733
 20
259.0862039196901
 30
0.0
 11
34.48244716153714
 21
259.1393319918903
 31
0.0
  0
SPLINE
  5
12F
330
70
100
AcDbEntity
  8
0
 62
    18
420
        0
370
    25
100
AcDbSpline
210
0.0
220
0.0
230
1.0
 70
     8
 71
     3
 72
    11
 73
     7
 74
     0
 42
0.0000000001
 43
0.0000000001
 40
0.0
 40
0.0
 40
0.0
 40
0.0
 40
1.0
 40
1.0
 40
1.0
 40
2.0
 40
2.0
 40
2.0
 40
2.0
 10
36.05145625083719
 20
258.3725604455902
 30
0.0
 10
35.89276541393729
 20
258.7803244702899
 30
0.0
 10
35.73700479890574
 20
259.1892212721763
 30
0.0
 10
35.58448304559112
 20
259.5993548700514
 30
0.0
 10
35.42996862406265
 20
260.014846786764
 30
0.0
 10
35.27877824733766
 20
260.43160802759
 30
0.0
 10
35.13568015443718
 20
260.85114649479
 30
0.0
  0
LINE
  5
130
330
70
100
AcDbEntity
  8
0
 62
    18
420
        0
370
    25
100
AcDbLine
 10
35.13568015443718
 20
260.85114649479
 30
0.0
 11
34.61861220143774
 21
261.0093222576903
 31
0.0
  0
SPLINE
  5
131
330
70
100
AcDbEntity
  8
0
 62
    18
420
        0
370
    25
100
AcDbSpline
210
0.0
220
0.0
230
1.0
 70
     8
 71
     3
 72
    11
 73
     7
 74
     0
 42
0.0000000001
 43
0.0000000001
 40
0.0
 40
0.0
 40
0.0
 40
0.0
 40
1.0
 40
1.0
 40
1.0
 40
2.0
 40
2.0
 40
2.0
 40
2.0
 10
37.52653167563757
 20
260.1273371884903
 30
0.0
 10
37.32362029013734
 20
260.1873334830905
 30
0.0
 10
37.12102686231958
 20
260.2484001817108
 30
0.0
 10
36.91845349201811
 20
260.3095299272817
 30
0.0
 10
36.71611819707834
 20
260.3705878298137
 30
0.0
 10
36.51380291253748
 20
260.4317086311902
 30
0.0
 10
36.31155317253732
 20
260.4930474590905
 30
0.0
  0
SPLINE
  5
132
330
70
100
AcDbEntity
  8
0
 62
   250
420
  3355443
370
    25
100
AcDbSpline
210
0.0
220
0.0
230
1.0
 70
     8
 71
     3
 72
    17
 73
    13
 74
     0
 42
0.0000000001
 43
0.0000000001
 40
0.0
 40
0.0
 40
0.0
 40
0.0
 40
1.0
 40
1.0
 40
1.0
 40
2.0
 40
2.0
 40
2.0
 40
3.0
 40
3.0
 40
3.0
 40
4.0
 40
4.0
 40
4.0
 40
4.0
 10
-61.0375957246627
 20
347.2113251578901
 30
0.0
 10
-61.24451315556267
 20
347.2793567449902
 30
0.0
 10
-61.4602713061624
 20
347.3243882308175
 30
0.0
 10
-61.6784237510154
 20
347.3391043471558
 30
0.0
 10
-61.88021538493136
 20
347.3527167967566
 30
0.0
 10
-62.08405564950542
 20
347.3403904983225
 30
0.0
 10
-62.28130869714293
 20
347.295818413343
 30
0.0
 10
-62.46486148564301
 20
347.2543420935335
 30
0.0
 10
-62.64271031382342
 20
347.18494371063
 30
0.0
 10
-62.80301172628842
 20
347.085622779568
 30
0.0
 10
-62.95752014667026
 20
346.989891120481
 30
0.0
 10
-63.09572649636248
 20
346.8663605248903
 30
0.0
 10
-63.20661904556247
 20
346.7236759678903
 30
0.0
  0
SPLINE
  5
133
330
70
100
AcDbEntity
  8
0
 62
   250
420
  3355443
370
    25
100
AcDbSpline
210
0.0
220
0.0
230
1.0
 70
     8
 71
     3
 72
    11
 73
     7
 74
     0
 42
0.0000000001
 43
0.0000000001
 40
0.0
 40
0.0
 40
0.0
 40
0.0
 40
1.0
 40
1.0
 40
1.0
 40
2.0
 40
2.0
 40
2.0
 40
2.0
 10
36.64886382713728
 20
263.3212787001899
 30
0.0
 10
36.67715688713761
 20
263.3125901755902
 30
0.0
 10
36.70683245455729
 20
263.307592243473
 30
0.0
 10
36.73665723820024
 20
263.3080044271701
 30
0.0
 10
36.76361663078002
 20
263.3083770106647
 30
0.0
 10
36.79069794523719
 20
263.31317010199
 30
0.0
 10
36.81543569123713
 20
263.3233582145901
 30
0.0
  0
LINE
  5
134
330
70
100
AcDbEntity
  8
0
 62
   250
420
  3355443
370
    25
100
AcDbLine
 10
27.3413683453373
 20
266.1795205990899
 30
0.0
 11
36.64886469673766
 21
263.3212796564903
 31
0.0
  0
SPLINE
  5
135
330
70
100
AcDbEntity
  8
0
 62
   250
420
  3355443
370
    25
100
AcDbSpline
210
0.0
220
0.0
230
1.0
 70
     8
 71
     3
 72
    17
 73
    13
 74
     0
 42
0.0000000001
 43
0.0000000001
 40
0.0
 40
0.0
 40
0.0
 40
0.0
 40
1.0
 40
1.0
 40
1.0
 40
2.0
 40
2.0
 40
2.0
 40
3.0
 40
3.0
 40
3.0
 40
4.0
 40
4.0
 40
4.0
 40
4.0
 10
-61.52039942906242
 20
346.0335729713904
 30
0.0
 10
-61.51016475226263
 20
346.1421873123901
 30
0.0
 10
-61.49000087655757
 20
346.2499242457262
 30
0.0
 10
-61.46290412281221
 20
346.3557696548475
 30
0.0
 10
-61.43416439679634
 20
346.4680328464762
 30
0.0
 10
-61.39762557455819
 20
346.5781681801983
 30
0.0
 10
-61.35372378952962
 20
346.6852837964494
 30
0.0
 10
-61.3117597288803
 20
346.7876715743933
 30
0.0
 10
-61.26306833004907
 20
346.8873003188862
 30
0.0
 10
-61.20602234947916
 20
346.9824062770722
 30
0.0
 10
-61.15716133503584
 20
347.0638664176491
 30
0.0
 10
-61.10217118016263
 20
347.1420085234901
 30
0.0
 10
-61.03759571526245
 20
347.2113230142903
 30
0.0
  0
LINE
  5
136
330
70
100
AcDbEntity
  8
0
 62
   250
420
  3355443
370
    25
100
AcDbLine
 10
-42.97699595506258
 20
287.7736100360902
 30
0.0
 11
-34.57925860426254
 21
285.1947453841901
 31
0.0
  0
SPLINE
  5
137
330
70
100
AcDbEntity
  8
0
 62
   250
420
  3355443
370
    25
100
AcDbSpline
210
0.0
220
0.0
230
1.0
 70
     8
 71
     3
 72
    14
 73
    10
 74
     0
 42
0.0000000001
 43
0.0000000001
 40
0.0
 40
0.0
 40
0.0
 40
0.0
 40
1.0
 40
1.0
 40
1.0
 40
2.0
 40
2.0
 40
2.0
 40
3.0
 40
3.0
 40
3.0
 40
3.0
 10
-43.23808515516263
 20
288.1022672831903
 30
0.0
 10
-43.23983405746266
 20
288.0317097512903
 30
0.0
 10
-43.20861944917743
 20
287.9602956804198
 30
0.0
 10
-43.16414604435149
 20
287.9038590585961
 30
0.0
 10
-43.13956426631587
 20
287.8726648535155
 30
0.0
 10
-43.11093178965572
 20
287.8460464130652
 30
0.0
 10
-43.07879192447725
 20
287.8237868397582
 30
0.0
 10
-43.04762514550456
 20
287.8022012109006
 30
0.0
 10
-43.01316014656261
 20
287.7847145013902
 30
0.0
 10
-42.97699681336264
 20
287.77360909209
 30
0.0
  0
LINE
  5
138
330
70
100
AcDbEntity
  8
0
 62
   250
420
  3355443
370
    25
100
AcDbLine
 10
-42.78575653716248
 20
306.3509604157903
 30
0.0
 11
-43.23808491596257
 21
288.10226754619
 31
0.0
  0
LINE
  5
139
330
70
100
AcDbEntity
  8
0
 62
   250
420
  3355443
370
    25
100
AcDbLine
 10
-42.33343005646259
 20
324.5995694237902
 30
0.0
 11
-42.78575653716248
 21
306.3509604157903
 31
0.0
  0
SPLINE
  5
13A
330
70
100
AcDbEntity
  8
0
 62
   250
420
  3355443
370
    25
100
AcDbSpline
210
0.0
220
0.0
230
1.0
 70
     8
 71
     3
 72
    56
 73
    52
 74
     0
 42
0.0000000001
 43
0.0000000001
 40
0.0
 40
0.0
 40
0.0
 40
0.0
 40
1.0
 40
1.0
 40
1.0
 40
2.0
 40
2.0
 40
2.0
 40
3.0
 40
3.0
 40
3.0
 40
4.0
 40
4.0
 40
4.0
 40
5.0
 40
5.0
 40
5.0
 40
6.0
 40
6.0
 40
6.0
 40
7.0
 40
7.0
 40
7.0
 40
8.0
 40
8.0
 40
8.0
 40
9.0
 40
9.0
 40
9.0
 40
10.0
 40
10.0
 40
10.0
 40
11.0
 40
11.0
 40
11.0
 40
12.0
 40
12.0
 40
12.0
 40
13.0
 40
13.0
 40
13.0
 40
14.0
 40
14.0
 40
14.0
 40
15.0
 40
15.0
 40
15.0
 40
16.0
 40
16.0
 40
16.0
 40
17.0
 40
17.0
 40
17.0
 40
17.0
 10
60.23485195643711
 20
245.7618047432904
 30
0.0
 10
60.23724587013751
 20
245.8250857901901
 30
0.0
 10
60.23988316348578
 20
245.8883585777108
 30
0.0
 10
60.24288345233237
 20
245.9516138329922
 30
0.0
 10
60.24589621494327
 20
246.0151320733423
 30
0.0
 10
60.24927499764892
 20
246.0786326353689
 30
0.0
 10
60.25299648566743
 20
246.1421143643256
 30
0.0
 10
60.25486365633106
 20
246.1739648556894
 30
0.0
 10
60.25681709616396
 20
246.2058106062062
 30
0.0
 10
60.25901144215161
 20
246.2376390053806
 30
0.0
 10
60.26121131572647
 20
246.2695475807149
 30
0.0
 10
60.26365331067751
 20
246.3014387171796
 30
0.0
 10
60.26579748268315
 20
246.3333536782785
 30
0.0
 10
60.26795538366071
 20
246.3654729884706
 30
0.0
 10
60.26981163560857
 20
246.3976164293681
 30
0.0
 10
60.27099790556125
 20
246.4297828748155
 30
0.0
 10
60.27219105774639
 20
246.4621359362508
 30
0.0
 10
60.27270643148682
 20
246.4945122699361
 30
0.0
 10
60.27343707944416
 20
246.5268818211437
 30
0.0
 10
60.27489690387941
 20
246.5915557333034
 30
0.0
 10
60.27721609186013
 20
246.6562025701657
 30
0.0
 10
60.27926411426006
 20
246.7208578621649
 30
0.0
 10
60.28131262853192
 20
246.7855286823574
 30
0.0
 10
60.28308984695681
 20
246.8502079617482
 30
0.0
 10
60.2849236694114
 20
246.9148854895297
 30
0.0
 10
60.2885912365518
 20
247.0442378022265
 30
0.0
 10
60.29248521021056
 20
247.1735831087807
 30
0.0
 10
60.29631315180545
 20
247.3029304498044
 30
0.0
 10
60.3001413273343
 20
247.432285695508
 30
0.0
 10
60.30390346272928
 20
247.5616429759301
 30
0.0
 10
60.30768210780206
 20
247.6909997465422
 30
0.0
 10
60.31146093719456
 20
247.8203628270688
 30
0.0
 10
60.31525627787616
 20
247.9497253977361
 30
0.0
 10
60.31904576079076
 20
248.0790881447076
 30
0.0
 10
60.3266252849546
 20
248.3378326986965
 30
0.0
 10
60.33418137459741
 20
248.5965779580062
 30
0.0
 10
60.34173284426061
 20
248.8553233467974
 30
0.0
 10
60.34928491885158
 20
249.1140894629732
 30
0.0
 10
60.35683237272369
 20
249.3728557086522
 30
0.0
 10
60.36436993726153
 20
249.6316222436348
 30
0.0
 10
60.37190786636401
 20
249.890401294191
 30
0.0
 10
60.37943590517607
 20
250.149180634079
 30
0.0
 10
60.38696636774317
 20
250.4079599036875
 30
0.0
 10
60.40202744286232
 20
250.9255235970375
 30
0.0
 10
60.41709821319471
 20
251.4430870092618
 30
0.0
 10
60.4322085600728
 20
251.960649262613
 30
0.0
 10
60.46243628803247
 20
252.9960147060546
 30
0.0
 10
60.49282239588111
 20
254.031375511843
 30
0.0
 10
60.52287052332649
 20
255.0667462269604
 30
0.0
 10
60.55294597375163
 20
256.1030584121466
 30
0.0
 10
60.58268282883718
 20
257.1393805246903
 30
0.0
 10
60.61178797593713
 20
258.1757203760903
 30
0.0
  0
LINE
  5
13B
330
70
100
AcDbEntity
  8
0
 62
   250
420
  3355443
370
    25
100
AcDbLine
 10
60.61377318453762
 20
258.2464402608902
 30
0.0
 11
60.65312144283713
 21
259.6626196031904
 31
0.0
  0
SPLINE
  5
13C
330
70
100
AcDbEntity
  8
0
 62
   250
420
  3355443
370
    25
100
AcDbSpline
210
0.0
220
0.0
230
1.0
 70
     8
 71
     3
 72
    11
 73
     7
 74
     0
 42
0.0000000001
 43
0.0000000001
 40
0.0
 40
0.0
 40
0.0
 40
0.0
 40
1.0
 40
1.0
 40
1.0
 40
2.0
 40
2.0
 40
2.0
 40
2.0
 10
60.65312144283713
 20
259.6626196031904
 30
0.0
 10
60.72856594663773
 20
262.4057636138906
 30
0.0
 10
60.79868520457687
 20
265.1490535679967
 30
0.0
 10
60.86625650733836
 20
267.8924040392699
 30
0.0
 10
60.93389739204987
 20
270.6385794919471
 30
0.0
 10
60.99898507133756
 20
273.3848155864901
 30
0.0
 10
61.06793552863772
 20
276.1309572381902
 30
0.0
  0
SPLINE
  5
13D
330
70
100
AcDbEntity
  8
0
 62
   250
420
  3355443
370
    25
100
AcDbSpline
210
0.0
220
0.0
230
1.0
 70
     8
 71
     3
 72
    26
 73
    22
 74
     0
 42
0.0000000001
 43
0.0000000001
 40
0.0
 40
0.0
 40
0.0
 40
0.0
 40
1.0
 40
1.0
 40
1.0
 40
2.0
 40
2.0
 40
2.0
 40
3.0
 40
3.0
 40
3.0
 40
4.0
 40
4.0
 40
4.0
 40
5.0
 40
5.0
 40
5.0
 40
6.0
 40
6.0
 40
6.0
 40
7.0
 40
7.0
 40
7.0
 40
7.0
 10
58.54779809033718
 20
244.7336547653903
 30
0.0
 10
58.75380421733713
 20
244.6821075021903
 30
0.0
 10
58.97100611734114
 20
244.6604768937177
 30
0.0
 10
59.18284484606235
 20
244.6828963153516
 30
0.0
 10
59.28010916407633
 20
244.6931900410018
 30
0.0
 10
59.37624285851753
 20
244.7127700638474
 30
0.0
 10
59.46910687090216
 20
244.7430177385642
 30
0.0
 10
59.55710771634144
 20
244.771681382093
 30
0.0
 10
59.64217237063731
 20
244.8099246313444
 30
0.0
 10
59.72126210059909
 20
244.8581330463383
 30
0.0
 10
59.79751221153963
 20
244.9046105977636
 30
0.0
 10
59.8682087405383
 20
244.9603505869064
 30
0.0
 10
59.93058374555317
 20
245.02426565301
 30
0.0
 10
59.99231418370375
 20
245.0875202376646
 30
0.0
 10
60.04589419411941
 20
245.1587818140838
 30
0.0
 10
60.08964041148836
 20
245.2355669009404
 30
0.0
 10
60.13418374691896
 20
245.3137511208704
 30
0.0
 10
60.16853165300333
 20
245.3976619775259
 30
0.0
 10
60.19253185321826
 20
245.4844300985838
 30
0.0
 10
60.21753824805344
 20
245.5748359233196
 30
0.0
 10
60.23131110603726
 20
245.66834361289
 30
0.0
 10
60.23485195643711
 20
245.7618047432904
 30
0.0
  0
SPLINE
  5
13E
330
70
100
AcDbEntity
  8
0
 62
   250
420
  3355443
370
    25
100
AcDbSpline
210
0.0
220
0.0
230
1.0
 70
     8
 71
     3
 72
    95
 73
    91
 74
     0
 42
0.0000000001
 43
0.0000000001
 40
0.0
 40
0.0
 40
0.0
 40
0.0
 40
1.0
 40
1.0
 40
1.0
 40
2.0
 40
2.0
 40
2.0
 40
3.0
 40
3.0
 40
3.0
 40
4.0
 40
4.0
 40
4.0
 40
5.0
 40
5.0
 40
5.0
 40
6.0
 40
6.0
 40
6.0
 40
7.0
 40
7.0
 40
7.0
 40
8.0
 40
8.0
 40
8.0
 40
9.0
 40
9.0
 40
9.0
 40
10.0
 40
10.0
 40
10.0
 40
11.0
 40
11.0
 40
11.0
 40
12.0
 40
12.0
 40
12.0
 40
13.0
 40
13.0
 40
13.0
 40
14.0
 40
14.0
 40
14.0
 40
15.0
 40
15.0
 40
15.0
 40
16.0
 40
16.0
 40
16.0
 40
17.0
 40
17.0
 40
17.0
 40
18.0
 40
18.0
 40
18.0
 40
19.0
 40
19.0
 40
19.0
 40
20.0
 40
20.0
 40
20.0
 40
21.0
 40
21.0
 40
21.0
 40
22.0
 40
22.0
 40
22.0
 40
23.0
 40
23.0
 40
23.0
 40
24.0
 40
24.0
 40
24.0
 40
25.0
 40
25.0
 40
25.0
 40
26.0
 40
26.0
 40
26.0
 40
27.0
 40
27.0
 40
27.0
 40
28.0
 40
28.0
 40
28.0
 40
29.0
 40
29.0
 40
29.0
 40
30.0
 40
30.0
 40
30.0
 40
30.0
 10
28.1733867236372
 20
253.8235231869902
 30
0.0
 10
29.43672974003752
 20
253.4346190034904
 30
0.0
 10
30.69990706320823
 20
253.0451766465421
 30
0.0
 10
31.96302271592164
 20
252.655534569283
 30
0.0
 10
33.22616766656232
 20
252.2658834542886
 30
0.0
 10
34.489250943885
 20
251.8760326097192
 30
0.0
 10
35.75235236272934
 20
251.486240464035
 30
0.0
 10
37.01535490788368
 20
251.0964788306966
 30
0.0
 10
38.27837559172016
 20
250.7067758870549
 30
0.0
 10
39.54149132629448
 20
250.3173812647826
 30
0.0
 10
40.17297525841689
 20
250.122706746455
 30
0.0
 10
40.80448294766039
 20
249.928109290424
 30
0.0
 10
41.43602388525687
 20
249.7336197229381
 30
0.0
 10
42.06749614367121
 20
249.5391513059173
 30
0.0
 10
42.69900164320723
 20
249.3447907539779
 30
0.0
 10
43.3305514893735
 20
249.1505746241155
 30
0.0
 10
43.64629640001129
 20
249.0534757887024
 30
0.0
 10
43.96205239519914
 20
248.9564130519461
 30
0.0
 10
44.27781897786606
 20
248.8593844807734
 30
0.0
 10
44.59356288232296
 20
248.7623628781487
 30
0.0
 10
44.90931737273746
 20
248.6653754362003
 30
0.0
 10
45.22509147424723
 20
248.5684529635423
 30
0.0
 10
45.54084288123305
 20
248.4715374566531
 30
0.0
 10
45.85661389649512
 20
248.3746869097155
 30
0.0
 10
46.17237319268357
 20
248.2777941695516
 30
0.0
 10
46.48794393905097
 20
248.180959287094
 30
0.0
 10
46.80350298033634
 20
248.0840822617853
 30
0.0
 10
47.11951839087686
 20
247.9887112151045
 30
0.0
 10
47.43511374371305
 20
247.8934669386427
 30
0.0
 10
47.75116425337053
 20
247.7997246398814
 30
0.0
 10
48.06753222978632
 20
247.7070776836939
 30
0.0
 10
48.22574077627623
 20
247.6607470138162
 30
0.0
 10
48.38402871410178
 20
247.6146902646151
 30
0.0
 10
48.54229221261533
 20
247.5685467939212
 30
0.0
 10
48.62156402816525
 20
247.5454342206993
 30
0.0
 10
48.70082971223914
 20
247.5222998902863
 30
0.0
 10
48.78001029919552
 20
247.4988780759989
 30
0.0
 10
48.85933512146423
 20
247.4754135965477
 30
0.0
 10
48.93857453630775
 20
247.4516605849066
 30
0.0
 10
49.0178273971955
 20
247.4279526914541
 30
0.0
 10
49.17611227854692
 20
247.3806029672895
 30
0.0
 10
49.33445079431044
 20
247.3334332133342
 30
0.0
 10
49.49291728061806
 20
247.286697072208
 30
0.0
 10
49.65109690913456
 20
247.2400455333627
 30
0.0
 10
49.80940404530683
 20
247.1938260389062
 30
0.0
 10
49.96776017886999
 20
247.1477756259698
 30
0.0
 10
50.28452380507325
 20
247.0556598647325
 30
0.0
 10
50.6014834844081
 20
246.9642206489448
 30
0.0
 10
50.91859954710406
 20
246.8733273536546
 30
0.0
 10
51.23584649123663
 20
246.7823965445121
 30
0.0
 10
51.55324994784273
 20
246.6920121065888
 30
0.0
 10
51.87073828995068
 20
246.6019276510513
 30
0.0
 10
52.18833860838636
 20
246.51181142324
 30
0.0
 10
52.50602387221238
 20
246.4219953894558
 30
0.0
 10
52.82371930026243
 20
246.3322153229138
 30
0.0
 10
53.45934482804469
 20
246.1525888721019
 30
0.0
 10
54.09501104276291
 20
245.9731063965513
 30
0.0
 10
54.73053855743776
 20
245.7931333897729
 30
0.0
 10
55.04836320810094
 20
245.7031296421976
 30
0.0
 10
55.36615317046225
 20
245.6130032148104
 30
0.0
 10
55.68391261099719
 20
245.522769878888
 30
0.0
 10
55.84280504893717
 20
245.4776495995219
 30
0.0
 10
56.00168985519861
 20
245.432502588743
 30
0.0
 10
56.16056586228517
 20
245.3873239070967
 30
0.0
 10
56.31945069056074
 20
245.3421427170193
 30
0.0
 10
56.47832671868412
 20
245.2969298525573
 30
0.0
 10
56.63719017802296
 20
245.2516756031025
 30
0.0
 10
56.7960652089762
 20
245.2064180573277
 30
0.0
 10
56.95492766931478
 20
245.1611191205312
 30
0.0
 10
57.11378401703877
 20
245.1157885554877
 30
0.0
 10
57.19320709384969
 20
245.0931247274387
 30
0.0
 10
57.27262864270267
 20
245.0704529933425
 30
0.0
 10
57.35205828590563
 20
245.0478235872454
 30
0.0
 10
57.43151242238553
 20
245.025187203044
 30
0.0
 10
57.51097465820783
 20
245.0025931729506
 30
0.0
 10
57.59034706163316
 20
244.9796312669412
 30
0.0
 10
57.66955429510237
 20
244.9567171434966
 30
0.0
 10
57.74867206965822
 20
244.9334366736057
 30
0.0
 10
57.82849188368301
 20
244.9128228093619
 30
0.0
 10
57.86803075320913
 20
244.9026116995177
 30
0.0
 10
57.90774188438404
 20
244.893054903153
 30
0.0
 10
57.94742330926531
 20
244.883389068787
 30
0.0
 10
57.98724008609634
 20
244.8736902645981
 30
0.0
 10
58.02702695363353
 20
244.8638816772901
 30
0.0
 10
58.06679966573526
 20
244.8540140203932
 30
0.0
 10
58.14681430557226
 20
244.8341622936461
 30
0.0
 10
58.22677165370921
 20
244.8140714928443
 30
0.0
 10
58.30673810459408
 20
244.7940199563061
 30
0.0
 10
58.3870854618293
 20
244.7738729077428
 30
0.0
 10
58.46744200873764
 20
244.7537654983903
 30
0.0
 10
58.54779809033718
 20
244.7336547653903
 30
0.0
  0
SPLINE
  5
13F
330
70
100
AcDbEntity
  8
0
 62
   250
420
  3355443
370
    25
100
AcDbSpline
210
0.0
220
0.0
230
1.0
 70
     8
 71
     3
 72
    71
 73
    67
 74
     0
 42
0.0000000001
 43
0.0000000001
 40
0.0
 40
0.0
 40
0.0
 40
0.0
 40
1.0
 40
1.0
 40
1.0
 40
2.0
 40
2.0
 40
2.0
 40
3.0
 40
3.0
 40
3.0
 40
4.0
 40
4.0
 40
4.0
 40
5.0
 40
5.0
 40
5.0
 40
6.0
 40
6.0
 40
6.0
 40
7.0
 40
7.0
 40
7.0
 40
8.0
 40
8.0
 40
8.0
 40
9.0
 40
9.0
 40
9.0
 40
10.0
 40
10.0
 40
10.0
 40
11.0
 40
11.0
 40
11.0
 40
12.0
 40
12.0
 40
12.0
 40
13.0
 40
13.0
 40
13.0
 40
14.0
 40
14.0
 40
14.0
 40
15.0
 40
15.0
 40
15.0
 40
16.0
 40
16.0
 40
16.0
 40
17.0
 40
17.0
 40
17.0
 40
18.0
 40
18.0
 40
18.0
 40
19.0
 40
19.0
 40
19.0
 40
20.0
 40
20.0
 40
20.0
 40
21.0
 40
21.0
 40
21.0
 40
22.0
 40
22.0
 40
22.0
 40
22.0
 10
-63.19908782806244
 20
345.0146226926903
 30
0.0
 10
-63.20466286596248
 20
344.9349344212901
 30
0.0
 10
-63.21029751993126
 20
344.8552508242835
 30
0.0
 10
-63.21591362279697
 20
344.7755649440725
 30
0.0
 10
-63.22147962093152
 20
344.696589990945
 30
0.0
 10
-63.22702739749822
 20
344.617612795171
 30
0.0
 10
-63.23310685008059
 20
344.5386769729754
 30
0.0
 10
-63.23612057019277
 20
344.4995467269992
 30
0.0
 10
-63.23926494467858
 20
344.4604266481901
 30
0.0
 10
-63.24197873770171
 20
344.421272165398
 30
0.0
 10
-63.24333833649873
 20
344.4016559355488
 30
0.0
 10
-63.2445898607478
 20
344.3820310704114
 30
0.0
 10
-63.24551438470652
 20
344.3623912128781
 30
0.0
 10
-63.24644662278029
 20
344.3425874827663
 30
0.0
 10
-63.24704638089702
 20
344.3227685090251
 30
0.0
 10
-63.2476551389002
 20
344.3029505593788
 30
0.0
 10
-63.24887484988946
 20
344.2632432030261
 30
0.0
 10
-63.25013069034391
 20
344.2235399578366
 30
0.0
 10
-63.25148119135302
 20
344.1838391494585
 30
0.0
 10
-63.25283000914478
 20
344.1441878227867
 30
0.0
 10
-63.25427325167516
 20
344.104538926856
 30
0.0
 10
-63.25567478673133
 20
344.064888738196
 30
0.0
 10
-63.258478844577
 20
343.9855604173604
 30
0.0
 10
-63.26111595493228
 20
343.9062269219619
 30
0.0
 10
-63.26380510653262
 20
343.8268950666357
 30
0.0
 10
-63.26649412635814
 20
343.7475670987558
 30
0.0
 10
-63.26923518232879
 20
343.6682407707871
 30
0.0
 10
-63.27196264254297
 20
343.5889140024807
 30
0.0
 10
-63.27741750833548
 20
343.4302620549172
 30
0.0
 10
-63.28281799219071
 20
343.2716083460381
 30
0.0
 10
-63.2882186473443
 20
343.1129546257049
 30
0.0
 10
-63.2990196047016
 20
342.7956575535504
 30
0.0
 10
-63.30982124720835
 20
342.4783604355834
 30
0.0
 10
-63.32058119918207
 20
342.161061921415
 30
0.0
 10
-63.33134085126577
 20
341.8437722506587
 30
0.0
 10
-63.34205881514068
 20
341.5264811837782
 30
0.0
 10
-63.35275594639199
 20
341.2091894113978
 30
0.0
 10
-63.3634529887635
 20
340.8919002753153
 30
0.0
 10
-63.3741291988576
 20
340.5746104337444
 30
0.0
 10
-63.38480725300001
 20
340.2573206548515
 30
0.0
 10
-63.39548521213693
 20
339.9400336989751
 30
0.0
 10
-63.40616501528909
 20
339.6227468057755
 30
0.0
 10
-63.4168525446873
 20
339.3054601744558
 30
0.0
 10
-63.43822590012091
 20
338.6709374804886
 30
0.0
 10
-63.4596301556121
 20
338.0364158338737
 30
0.0
 10
-63.48089240960852
 20
337.4018893842576
 30
0.0
 10
-63.5021511637386
 20
336.7674673806638
 30
0.0
 10
-63.52326796311847
 20
336.1330405756499
 30
0.0
 10
-63.54402697488795
 20
335.4986020398338
 30
0.0
 10
-63.5647822010672
 20
334.8642791995104
 30
0.0
 10
-63.58517977011594
 20
334.229944632663
 30
0.0
 10
-63.60512892745406
 20
333.5955958085383
 30
0.0
 10
-63.64501844785482
 20
332.3271778030961
 30
0.0
 10
-63.68311511202712
 20
331.0587027936824
 30
0.0
 10
-63.71925066536628
 20
329.7901721535049
 30
0.0
 10
-63.75537972745506
 20
328.5218693872423
 30
0.0
 10
-63.7895483832202
 20
327.2535110102011
 30
0.0
 10
-63.82225281895884
 20
325.9851154397109
 30
0.0
 10
-63.85495571883733
 20
324.7167794353975
 30
0.0
 10
-63.8861945362109
 20
323.4484062411285
 30
0.0
 10
-63.9168430392957
 20
322.1800191342055
 30
0.0
 10
-63.94749245978843
 20
320.9115940603967
 30
0.0
 10
-63.97755153065148
 20
319.643155073101
 30
0.0
 10
-64.00798057162814
 20
318.3747245990406
 30
0.0
 10
-64.03841136799531
 20
317.1062209517567
 30
0.0
 10
-64.06921217716254
 20
315.8377258186903
 30
0.0
 10
-64.10146444106264
 20
314.5692673330901
 30
0.0
  0
SPLINE
  5
140
330
70
100
AcDbEntity
  8
0
 62
   250
420
  3355443
370
    25
100
AcDbSpline
210
0.0
220
0.0
230
1.0
 70
     8
 71
     3
 72
    26
 73
    22
 74
     0
 42
0.0000000001
 43
0.0000000001
 40
0.0
 40
0.0
 40
0.0
 40
0.0
 40
1.0
 40
1.0
 40
1.0
 40
2.0
 40
2.0
 40
2.0
 40
3.0
 40
3.0
 40
3.0
 40
4.0
 40
4.0
 40
4.0
 40
5.0
 40
5.0
 40
5.0
 40
6.0
 40
6.0
 40
6.0
 40
7.0
 40
7.0
 40
7.0
 40
7.0
 10
-61.5203995483626
 20
346.0335728774903
 30
0.0
 10
-61.71838267826253
 20
346.0940906017902
 30
0.0
 10
-61.93042318301933
 20
346.1220006461514
 30
0.0
 10
-62.13745830910898
 20
346.1041130649483
 30
0.0
 10
-62.23321657113262
 20
346.095839668447
 30
0.0
 10
-62.32790405037617
 20
346.0777689494901
 30
0.0
 10
-62.41934522197301
 20
346.0488030348291
 30
0.0
 10
-62.50671852919573
 20
346.0211257017804
 30
0.0
 10
-62.59112793564177
 20
345.9835009815686
 30
0.0
 10
-62.66951803485364
 20
345.9358678283921
 30
0.0
 10
-62.74593737349505
 20
345.8894321930281
 30
0.0
 10
-62.81663625636195
 20
345.833485031517
 30
0.0
 10
-62.87907499842138
 20
345.7694764373693
 30
0.0
 10
-62.94165296609175
 20
345.705325117162
 30
0.0
 10
-62.99593391503964
 20
345.6330763735486
 30
0.0
 10
-63.04063378983673
 20
345.5554235547875
 30
0.0
 10
-63.086700270631
 20
345.4753966620882
 30
0.0
 10
-63.12259087885125
 20
345.3896302062445
 30
0.0
 10
-63.1485822648898
 20
345.3009990421892
 30
0.0
 10
-63.17592956371882
 20
345.2077441874688
 30
0.0
 10
-63.1923178590627
 20
345.1113179373901
 30
0.0
 10
-63.19908782806244
 20
345.0146226926903
 30
0.0
  0
SPLINE
  5
141
330
70
100
AcDbEntity
  8
0
 62
   250
420
  3355443
370
    25
100
AcDbSpline
210
0.0
220
0.0
230
1.0
 70
     8
 71
     3
 72
   104
 73
   100
 74
     0
 42
0.0000000001
 43
0.0000000001
 40
0.0
 40
0.0
 40
0.0
 40
0.0
 40
1.0
 40
1.0
 40
1.0
 40
2.0
 40
2.0
 40
2.0
 40
3.0
 40
3.0
 40
3.0
 40
4.0
 40
4.0
 40
4.0
 40
5.0
 40
5.0
 40
5.0
 40
6.0
 40
6.0
 40
6.0
 40
7.0
 40
7.0
 40
7.0
 40
8.0
 40
8.0
 40
8.0
 40
9.0
 40
9.0
 40
9.0
 40
10.0
 40
10.0
 40
10.0
 40
11.0
 40
11.0
 40
11.0
 40
12.0
 40
12.0
 40
12.0
 40
13.0
 40
13.0
 40
13.0
 40
14.0
 40
14.0
 40
14.0
 40
15.0
 40
15.0
 40
15.0
 40
16.0
 40
16.0
 40
16.0
 40
17.0
 40
17.0
 40
17.0
 40
18.0
 40
18.0
 40
18.0
 40
19.0
 40
19.0
 40
19.0
 40
20.0
 40
20.0
 40
20.0
 40
21.0
 40
21.0
 40
21.0
 40
22.0
 40
22.0
 40
22.0
 40
23.0
 40
23.0
 40
23.0
 40
24.0
 40
24.0
 40
24.0
 40
25.0
 40
25.0
 40
25.0
 40
26.0
 40
26.0
 40
26.0
 40
27.0
 40
27.0
 40
27.0
 40
28.0
 40
28.0
 40
28.0
 40
29.0
 40
29.0
 40
29.0
 40
30.0
 40
30.0
 40
30.0
 40
31.0
 40
31.0
 40
31.0
 40
32.0
 40
32.0
 40
32.0
 40
33.0
 40
33.0
 40
33.0
 40
33.0
 10
-31.24427080206267
 20
336.8356212032903
 30
0.0
 10
-33.77203003156248
 20
337.6126337005903
 30
0.0
 10
-36.29933959079538
 20
338.3911081650668
 30
0.0
 10
-38.82684990888617
 20
339.1689300945107
 30
0.0
 10
-40.09066091551842
 20
339.5578582458997
 30
0.0
 10
-41.35452211630162
 20
339.9466232491118
 30
0.0
 10
-42.61849116856854
 20
340.3350374535983
 30
0.0
 10
-43.25042431718777
 20
340.5292287676733
 30
0.0
 10
-43.88238442429433
 20
340.7233323963251
 30
0.0
 10
-44.51438597264956
 20
340.9173009028736
 30
0.0
 10
-45.14632855519983
 20
341.1112513121417
 30
0.0
 10
-45.7783125712663
 20
341.3050666245188
 30
0.0
 10
-46.41032304069258
 20
341.4987959751688
 30
0.0
 10
-47.04225535927732
 20
341.692501370342
 30
0.0
 10
-47.67421412468038
 20
341.8861208250461
 30
0.0
 10
-48.30629378285109
 20
342.0793442491013
 30
0.0
 10
-48.62229891468111
 20
342.1759453543602
 30
0.0
 10
-48.93833426306747
 20
342.2724474736957
 30
0.0
 10
-49.25428650154028
 20
342.3692223750484
 30
0.0
 10
-49.41225422588729
 20
342.4176072544036
 30
0.0
 10
-49.57020117496384
 20
342.4660603220155
 30
0.0
 10
-49.72826749885804
 20
342.5141215968824
 30
0.0
 10
-49.88623349650524
 20
342.5621523667865
 30
0.0
 10
-50.04431871748131
 20
342.609791841137
 30
0.0
 10
-50.2024895422197
 20
342.6571442706817
 30
0.0
 10
-50.36044363966825
 20
342.7044318174406
 30
0.0
 10
-50.51848310644979
 20
342.7514331054782
 30
0.0
 10
-50.67651852543356
 20
342.7984477538207
 30
0.0
 10
-50.83436034380753
 20
342.8454048070705
 30
0.0
 10
-50.99219812429509
 20
342.8923751879113
 30
0.0
 10
-51.15006141911121
 20
342.9392603305644
 30
0.0
 10
-51.22892286399641
 20
342.9626820518557
 30
0.0
 10
-51.30779067612267
 20
342.9860825014891
 30
0.0
 10
-51.38665182669517
 20
343.0095045562105
 30
0.0
 10
-51.46546880801264
 20
343.0329134924991
 30
0.0
 10
-51.54427913523641
 20
343.0563440096809
 30
0.0
 10
-51.62312182130439
 20
343.0796686788653
 30
0.0
 10
-51.66253159500427
 20
343.0913275908081
 30
0.0
 10
-51.70194945366733
 20
343.1029600562807
 30
0.0
 10
-51.74129078457898
 20
343.1148458775111
 30
0.0
 10
-51.78067346598669
 20
343.1267441915726
 30
0.0
 10
-51.81997945868656
 20
343.1388963942605
 30
0.0
 10
-51.85928443730366
 20
343.1510509767753
 30
0.0
 10
-51.93794948189266
 20
343.1753771768932
 30
0.0
 10
-52.01661046446384
 20
343.1997129096641
 30
0.0
 10
-52.09530400092782
 20
343.2239443265403
 30
0.0
 10
-52.252702168502
 20
343.2724105765711
 30
0.0
 10
-52.41023057000703
 20
343.3204595041946
 30
0.0
 10
-52.56794316984199
 20
343.3678933721574
 30
0.0
 10
-52.72548304499578
 20
343.415275291197
 30
0.0
 10
-52.88320671523776
 20
343.4620434970483
 30
0.0
 10
-53.04091107718718
 20
343.5088759016446
 30
0.0
 10
-53.35589220637879
 20
343.6024137309102
 30
0.0
 10
-53.67079631166625
 20
343.6962076593624
 30
0.0
 10
-53.98571142873127
 20
343.7899653247184
 30
0.0
 10
-54.30020829457998
 20
343.8835984668127
 30
0.0
 10
-54.61471614297523
 20
343.9771954420714
 30
0.0
 10
-54.92919782246591
 20
344.070880096701
 30
0.0
 10
-55.24343186805455
 20
344.1644909807486
 30
0.0
 10
-55.55763978593472
 20
344.2581894061373
 30
0.0
 10
-55.87181814739842
 20
344.351986898466
 30
0.0
 10
-56.18591394617668
 20
344.445759741825
 30
0.0
 10
-56.49998020407046
 20
344.539631600064
 30
0.0
 10
-56.81401730969817
 20
344.6336008029788
 30
0.0
 10
-57.12808870644075
 20
344.7275802668108
 30
0.0
 10
-57.44213094454999
 20
344.8216570965791
 30
0.0
 10
-57.75615588114728
 20
344.9157918168909
 30
0.0
 10
-58.07024101003112
 20
345.009944580942
 30
0.0
 10
-58.38430883076945
 20
345.1041552577318
 30
0.0
 10
-58.69835183722698
 20
345.1984479313038
 30
0.0
 10
-58.85540073631503
 20
345.2456024938066
 30
0.0
 10
-59.01244342966803
 20
345.2927775626586
 30
0.0
 10
-59.16948181271351
 20
345.3399678585321
 30
0.0
 10
-59.32654152691504
 20
345.3871645644535
 30
0.0
 10
-59.48359692963761
 20
345.4343765015331
 30
0.0
 10
-59.64063935868697
 20
345.4816282151176
 30
0.0
 10
-59.79770659508869
 20
345.5288873928623
 30
0.0
 10
-59.95476085371739
 20
345.5761863596795
 30
0.0
 10
-60.11182514427005
 20
345.6234644753879
 30
0.0
 10
-60.1903618315671
 20
345.6471049004417
 30
0.0
 10
-60.26890102713544
 20
345.6707401121152
 30
0.0
 10
-60.34744177150376
 20
345.6943531170267
 30
0.0
 10
-60.42600081519204
 20
345.717971623566
 30
0.0
 10
-60.50456140840253
 20
345.7415679129942
 30
0.0
 10
-60.58303849850866
 20
345.7655064068648
 30
0.0
 10
-60.66140608078583
 20
345.789411496687
 30
0.0
 10
-60.73969039283861
 20
345.813657836586
 30
0.0
 10
-60.81878477520954
 20
345.8349569882944
 30
0.0
 10
-60.85797856128199
 20
345.8455113964653
 30
0.0
 10
-60.89737126159519
 20
345.855342117212
 30
0.0
 10
-60.9366659452283
 20
345.8655393978223
 30
0.0
 10
-60.97589997291585
 20
345.875720937736
 30
0.0
 10
-61.01503628629029
 20
345.8862679067302
 30
0.0
 10
-61.05411114528642
 20
345.8970374419218
 30
0.0
 10
-61.13223282270261
 20
345.9185687839601
 30
0.0
 10
-61.21010885897621
 20
345.940989752038
 30
0.0
 10
-61.28785622524445
 20
345.9638417161267
 30
0.0
 10
-61.36549778952552
 20
345.986662582272
 30
0.0
 10
-61.44301103376273
 20
346.0099132721902
 30
0.0
 10
-61.5203995483626
 20
346.0335728774903
 30
0.0
  0
SPLINE
  5
142
330
70
100
AcDbEntity
  8
0
 62
   250
420
  3355443
370
    25
100
AcDbSpline
210
0.0
220
0.0
230
1.0
 70
     8
 71
     3
 72
    95
 73
    91
 74
     0
 42
0.0000000001
 43
0.0000000001
 40
0.0
 40
0.0
 40
0.0
 40
0.0
 40
1.0
 40
1.0
 40
1.0
 40
2.0
 40
2.0
 40
2.0
 40
3.0
 40
3.0
 40
3.0
 40
4.0
 40
4.0
 40
4.0
 40
5.0
 40
5.0
 40
5.0
 40
6.0
 40
6.0
 40
6.0
 40
7.0
 40
7.0
 40
7.0
 40
8.0
 40
8.0
 40
8.0
 40
9.0
 40
9.0
 40
9.0
 40
10.0
 40
10.0
 40
10.0
 40
11.0
 40
11.0
 40
11.0
 40
12.0
 40
12.0
 40
12.0
 40
13.0
 40
13.0
 40
13.0
 40
14.0
 40
14.0
 40
14.0
 40
15.0
 40
15.0
 40
15.0
 40
16.0
 40
16.0
 40
16.0
 40
17.0
 40
17.0
 40
17.0
 40
18.0
 40
18.0
 40
18.0
 40
19.0
 40
19.0
 40
19.0
 40
20.0
 40
20.0
 40
20.0
 40
21.0
 40
21.0
 40
21.0
 40
22.0
 40
22.0
 40
22.0
 40
23.0
 40
23.0
 40
23.0
 40
24.0
 40
24.0
 40
24.0
 40
25.0
 40
25.0
 40
25.0
 40
26.0
 40
26.0
 40
26.0
 40
27.0
 40
27.0
 40
27.0
 40
28.0
 40
28.0
 40
28.0
 40
29.0
 40
29.0
 40
29.0
 40
30.0
 40
30.0
 40
30.0
 40
30.0
 10
-63.10530913556267
 20
282.0921454242903
 30
0.0
 10
-63.02793042496264
 20
282.0637990209904
 30
0.0
 10
-62.95054680110183
 20
282.0354669125492
 30
0.0
 10
-62.87314323353326
 20
282.0071875205838
 30
0.0
 10
-62.7953704073429
 20
281.9787732199883
 30
0.0
 10
-62.71757744670554
 20
281.9504121400425
 30
0.0
 10
-62.63985732898639
 20
281.9218583228878
 30
0.0
 10
-62.60078274506546
 20
281.9075025993326
 30
0.0
 10
-62.56172657349207
 20
281.8930981580081
 30
0.0
 10
-62.52270369772563
 20
281.8785956549045
 30
0.0
 10
-62.48356630970936
 20
281.8640505943464
 30
0.0
 10
-62.44446241319899
 20
281.8494068956422
 30
0.0
 10
-62.40513525180489
 20
281.8353988622745
 30
0.0
 10
-62.32717285464303
 20
281.8076292541431
 30
0.0
 10
-62.24833304140326
 20
281.7823577683178
 30
0.0
 10
-62.16961690848364
 20
281.7567535177896
 30
0.0
 10
-62.09105828827566
 20
281.7312005019294
 30
0.0
 10
-62.01262285390899
 20
281.7053160517741
 30
0.0
 10
-61.93417219994492
 20
281.679466558172
 30
0.0
 10
-61.85569722128209
 20
281.6536090495807
 30
0.0
 10
-61.77720701358248
 20
281.6277865192244
 30
0.0
 10
-61.69871979746711
 20
281.6019569628899
 30
0.0
 10
-61.54175483195471
 20
281.5503009656474
 30
0.0
 10
-61.38480183133609
 20
281.4986168678834
 30
0.0
 10
-61.2278617840395
 20
281.4468912597797
 30
0.0
 10
-61.07090988236674
 20
281.3951617446118
 30
0.0
 10
-60.91397093597287
 20
281.3433907128342
 30
0.0
 10
-60.75704238047264
 20
281.291588788914
 30
0.0
 10
-60.60010477905493
 20
281.2397838789475
 30
0.0
 10
-60.4431775697289
 20
281.1879480732782
 30
0.0
 10
-60.28625899131817
 20
281.1360860367226
 30
0.0
 10
-59.9723958983094
 20
281.0323533916289
 30
0.0
 10
-59.65856733466875
 20
280.9285158056513
 30
0.0
 10
-59.3447786735309
 20
280.8245579323655
 30
0.0
 10
-58.71707921136248
 20
280.6166017209692
 30
0.0
 10
-58.08953942133913
 20
280.4081641730409
 30
0.0
 10
-57.46194996307955
 20
280.1998762770507
 30
0.0
 10
-57.14804107875075
 20
280.0956944425903
 30
0.0
 10
-56.83411976832656
 20
279.9915500483407
 30
0.0
 10
-56.52009956874903
 20
279.8877039686023
 30
0.0
 10
-56.20597385270286
 20
279.7838229947025
 30
0.0
 10
-55.89174918103486
 20
279.6802405358256
 30
0.0
 10
-55.5773465824364
 20
279.5772007084633
 30
0.0
 10
-55.26282241703636
 20
279.4741210397575
 30
0.0
 10
-54.94812018708484
 20
279.3715844222748
 30
0.0
 10
-54.63320063129324
 20
279.2697175232979
 30
0.0
 10
-54.47571813187064
 20
279.2187767240867
 30
0.0
 10
-54.31818128530722
 20
279.1680034028261
 30
0.0
 10
-54.16050743162635
 20
279.1176594655773
 30
0.0
 10
-54.00311693918497
 20
279.0674060031933
 30
0.0
 10
-53.84558993162416
 20
279.0175803828851
 30
0.0
 10
-53.68801142925711
 20
278.9679175778608
 30
0.0
 10
-53.6093307142608
 20
278.9431203818645
 30
0.0
 10
-53.53063716100645
 20
278.9183637776227
 30
0.0
 10
-53.45203209240235
 20
278.8933291712658
 30
0.0
 10
-53.37328676279824
 20
278.8682498937572
 30
0.0
 10
-53.29463023390619
 20
278.8428916211271
 30
0.0
 10
-53.21598038663994
 20
278.8175132757809
 30
0.0
 10
-53.05840432582705
 20
278.7666674085778
 30
0.0
 10
-52.9008550855147
 20
278.7157409681289
 30
0.0
 10
-52.74321885548946
 20
278.6650826473914
 30
0.0
 10
-52.42790012477778
 20
278.5637511362763
 30
0.0
 10
-52.11223333307113
 20
278.4634924188333
 30
0.0
 10
-51.79609886948459
 20
278.3647366801873
 30
0.0
 10
-51.48037890207863
 20
278.2661104240278
 30
0.0
 10
-51.16419248835418
 20
278.1689832080218
 30
0.0
 10
-50.84801973616389
 20
278.0718155412508
 30
0.0
 10
-50.53203190451624
 20
277.9747047051128
 30
0.0
 10
-50.216057718427
 20
277.8775534655132
 30
0.0
 10
-49.90006348107932
 20
277.7804664123323
 30
0.0
 10
-49.58409165407822
 20
277.6833862445757
 30
0.0
 10
-49.26809977866267
 20
277.5863702541347
 30
0.0
 10
-48.95209744814639
 20
277.4893886203346
 30
0.0
 10
-48.63611768689183
 20
277.3924139130776
 30
0.0
 10
-48.32012747203009
 20
277.2954735575552
 30
0.0
 10
-48.00412617351923
 20
277.1985692911065
 30
0.0
 10
-47.37218341435316
 20
277.004779107954
 30
0.0
 10
-46.74019632898629
 20
276.8111332537606
 30
0.0
 10
-46.10817618255754
 20
276.6175954392954
 30
0.0
 10
-45.47622457815736
 20
276.4240786138355
 30
0.0
 10
-44.84423991986566
 20
276.2306698046709
 30
0.0
 10
-44.21223164873344
 20
276.0373381879689
 30
0.0
 10
-42.94836291957177
 20
275.6507201706602
 30
0.0
 10
-41.68439976113694
 20
275.2644108509921
 30
0.0
 10
-40.42041861804376
 20
274.8781604738276
 30
0.0
 10
-39.15653647361983
 20
274.4919403489136
 30
0.0
 10
-37.89263634735462
 20
274.1057791572698
 30
0.0
 10
-36.62879729609268
 20
273.7194179809276
 30
0.0
 10
-35.36492904781481
 20
273.3330478789284
 30
0.0
 10
-34.10112187736273
 20
272.9464777829904
 30
0.0
 10
-32.83747965146261
 20
272.5593691800905
 30
0.0
  0
SPLINE
  5
143
330
70
100
AcDbEntity
  8
0
 62
   250
420
  3355443
370
    25
100
AcDbSpline
210
0.0
220
0.0
230
1.0
 70
     8
 71
     3
 72
    17
 73
    13
 74
     0
 42
0.0000000001
 43
0.0000000001
 40
0.0
 40
0.0
 40
0.0
 40
0.0
 40
1.0
 40
1.0
 40
1.0
 40
2.0
 40
2.0
 40
2.0
 40
3.0
 40
3.0
 40
3.0
 40
4.0
 40
4.0
 40
4.0
 40
4.0
 10
-64.7082135966625
 20
284.1306097314903
 30
0.0
 10
-64.70377585296266
 20
283.9225271556899
 30
0.0
 10
-64.65506577181276
 20
283.7148680694671
 30
0.0
 10
-64.5783023151308
 20
283.5198843215361
 30
0.0
 10
-64.49340674476215
 20
283.3042445209228
 30
0.0
 10
-64.37419916591981
 20
283.104107892624
 30
0.0
 10
-64.2314164672553
 20
282.9227997812355
 30
0.0
 10
-64.08307981590536
 20
282.7344391580126
 30
0.0
 10
-63.90929832726659
 20
282.5664003211819
 30
0.0
 10
-63.71589299859595
 20
282.4239080682488
 30
0.0
 10
-63.52855385236919
 20
282.2858851027401
 30
0.0
 10
-63.32280256916266
 20
282.1718313094902
 30
0.0
 10
-63.10530913556267
 20
282.0921454242903
 30
0.0
  0
SPLINE
  5
144
330
70
100
AcDbEntity
  8
0
 62
   250
420
  3355443
370
    25
100
AcDbSpline
210
0.0
220
0.0
230
1.0
 70
     8
 71
     3
 72
    71
 73
    67
 74
     0
 42
0.0000000001
 43
0.0000000001
 40
0.0
 40
0.0
 40
0.0
 40
0.0
 40
1.0
 40
1.0
 40
1.0
 40
2.0
 40
2.0
 40
2.0
 40
3.0
 40
3.0
 40
3.0
 40
4.0
 40
4.0
 40
4.0
 40
5.0
 40
5.0
 40
5.0
 40
6.0
 40
6.0
 40
6.0
 40
7.0
 40
7.0
 40
7.0
 40
8.0
 40
8.0
 40
8.0
 40
9.0
 40
9.0
 40
9.0
 40
10.0
 40
10.0
 40
10.0
 40
11.0
 40
11.0
 40
11.0
 40
12.0
 40
12.0
 40
12.0
 40
13.0
 40
13.0
 40
13.0
 40
14.0
 40
14.0
 40
14.0
 40
15.0
 40
15.0
 40
15.0
 40
16.0
 40
16.0
 40
16.0
 40
17.0
 40
17.0
 40
17.0
 40
18.0
 40
18.0
 40
18.0
 40
19.0
 40
19.0
 40
19.0
 40
20.0
 40
20.0
 40
20.0
 40
21.0
 40
21.0
 40
21.0
 40
22.0
 40
22.0
 40
22.0
 40
22.0
 10
-64.10146444106264
 20
314.5692673330901
 30
0.0
 10
-64.13209408186268
 20
313.3008230246902
 30
0.0
 10
-64.16417536251164
 20
312.0324140269154
 30
0.0
 10
-64.19662645342024
 20
310.7640148527036
 30
0.0
 10
-64.22907942536723
 20
309.4955421553107
 30
0.0
 10
-64.2619022504477
 20
308.2270792826195
 30
0.0
 10
-64.29413476245672
 20
306.9586010583821
 30
0.0
 10
-64.32636822784025
 20
305.6900853150528
 30
0.0
 10
-64.35801134523107
 20
304.421554219269
 30
0.0
 10
-64.38819042088602
 20
303.1529877339272
 30
0.0
 10
-64.41836812310897
 20
301.8844789803011
 30
0.0
 10
-64.44708191684775
 20
300.6159348403377
 30
0.0
 10
-64.47383379183342
 20
299.3473490907932
 30
0.0
 10
-64.5005810454178
 20
298.0789824901525
 30
0.0
 10
-64.52536705803535
 20
296.8105742943059
 30
0.0
 10
-64.54835617213344
 20
295.5421341521645
 30
0.0
 10
-64.55984829468798
 20
294.9080484059848
 30
0.0
 10
-64.5708913828798
 20
294.2739546766139
 30
0.0
 10
-64.58157549871858
 20
293.6398549229553
 30
0.0
 10
-64.59225771922834
 20
293.005867656613
 30
0.0
 10
-64.60258109473443
 20
292.3718743681198
 30
0.0
 10
-64.61276151302424
 20
291.7378788289166
 30
0.0
 10
-64.62294027617777
 20
291.1039863649426
 30
0.0
 10
-64.63297612859489
 20
290.4700916509889
 30
0.0
 10
-64.64304198395412
 20
289.8361974071317
 30
0.0
 10
-64.64807450979538
 20
289.5192755908618
 30
0.0
 10
-64.65311453517459
 20
289.2023538920966
 30
0.0
 10
-64.6581566440245
 20
288.8854322256261
 30
0.0
 10
-64.66319870686426
 20
288.5685134511129
 30
0.0
 10
-64.66824285313684
 20
288.2515947088932
 30
0.0
 10
-64.67326585061591
 20
287.9346756349356
 30
0.0
 10
-64.67828881060563
 20
287.6177589262974
 30
0.0
 10
-64.68329062211755
 20
287.3008418859258
 30
0.0
 10
-64.68825124418318
 20
286.9839241824366
 30
0.0
 10
-64.69321173298877
 20
286.6670149924993
 30
0.0
 10
-64.6981310345613
 20
286.3501051394798
 30
0.0
 10
-64.70304879272091
 20
286.0331953349155
 30
0.0
 10
-64.70550759384036
 20
285.8747454565523
 30
0.0
 10
-64.70796600913122
 20
285.7162955903024
 30
0.0
 10
-64.71037260295895
 20
285.5578448255583
 30
0.0
 10
-64.71157588772048
 20
285.4786202433039
 30
0.0
 10
-64.71276621737764
 20
285.3993954364309
 30
0.0
 10
-64.7140054124712
 20
285.3201715252903
 30
0.0
 10
-64.71524454710806
 20
285.2409514792378
 30
0.0
 10
-64.71653254241314
 20
285.1617323288303
 30
0.0
 10
-64.71766469771513
 20
285.0825102289494
 30
0.0
 10
-64.71823098395137
 20
285.0428845833291
 30
0.0
 10
-64.71875828147031
 20
285.0032581997973
 30
0.0
 10
-64.7193637356478
 20
284.9636338461301
 30
0.0
 10
-64.71996844838859
 20
284.9240580163013
 30
0.0
 10
-64.72065112648428
 20
284.8844842113685
 30
0.0
 10
-64.72141480701013
 20
284.8449086284115
 30
0.0
 10
-64.72179723471244
 20
284.8250903945528
 30
0.0
 10
-64.7221999753789
 20
284.8052717148192
 30
0.0
 10
-64.72225523855858
 20
284.7854517613867
 30
0.0
 10
-64.7223109979747
 20
284.7654538343229
 30
0.0
 10
-64.72201301152535
 20
284.7454546105829
 30
0.0
 10
-64.72162494625154
 20
284.7254583182448
 30
0.0
 10
-64.72084730808656
 20
284.6853880488457
 30
0.0
 10
-64.71970795345363
 20
284.6453295506531
 30
0.0
 10
-64.71866939310665
 20
284.6052680597373
 30
0.0
 10
-64.71660938169758
 20
284.5258050525306
 30
0.0
 10
-64.71494593282935
 20
284.4463302708272
 30
0.0
 10
-64.71325804182952
 20
284.3668568977065
 30
0.0
 10
-64.71158552090326
 20
284.2881072156254
 30
0.0
 10
-64.70988900096265
 20
284.2093589165904
 30
0.0
 10
-64.7082135966625
 20
284.1306097314903
 30
0.0
  0
SPLINE
  5
145
330
70
100
AcDbEntity
  8
0
 62
   250
420
  3355443
370
    25
100
AcDbSpline
210
0.0
220
0.0
230
1.0
 70
     8
 71
     3
 72
    20
 73
    16
 74
     0
 42
0.0000000001
 43
0.0000000001
 40
0.0
 40
0.0
 40
0.0
 40
0.0
 40
1.0
 40
1.0
 40
1.0
 40
2.0
 40
2.0
 40
2.0
 40
3.0
 40
3.0
 40
3.0
 40
4.0
 40
4.0
 40
4.0
 40
5.0
 40
5.0
 40
5.0
 40
5.0
 10
62.95425404463757
 20
306.8470219578902
 30
0.0
 10
62.96613680113712
 20
307.1635793345901
 30
0.0
 10
62.90513085495367
 20
307.4849497202517
 30
0.0
 10
62.79589619513459
 20
307.7840762494326
 30
0.0
 10
62.73688520553822
 20
307.9456710448109
 30
0.0
 10
62.66379914628465
 20
308.1007741922517
 30
0.0
 10
62.5790831313397
 20
308.2494436625278
 30
0.0
 10
62.49142925580456
 20
308.4032688306737
 30
0.0
 10
62.39132480927249
 20
308.5502063582786
 30
0.0
 10
62.28084175805606
 20
308.6890170669664
 30
0.0
 10
62.05601047592952
 20
308.9714946892216
 30
0.0
 10
61.78819971693671
 20
309.2203178428595
 30
0.0
 10
61.48872601798751
 20
309.4245952877368
 30
0.0
 10
61.19731171502023
 20
309.6233752454415
 30
0.0
 10
60.87591575783759
 20
309.7799748484903
 30
0.0
 10
60.5388022344377
 20
309.8763911715904
 30
0.0
  0
LINE
  5
146
330
70
100
AcDbEntity
  8
0
 62
    18
420
        0
370
    25
100
AcDbLine
 10
29.54371481643743
 20
262.5721136685905
 30
0.0
 11
29.02774739423723
 21
262.73147213999
 31
0.0
  0
SPLINE
  5
147
330
70
100
AcDbEntity
  8
0
 62
   250
420
  3355443
370
    25
100
AcDbSpline
210
0.0
220
0.0
230
1.0
 70
     8
 71
     3
 72
    17
 73
    13
 74
     0
 42
0.0000000001
 43
0.0000000001
 40
0.0
 40
0.0
 40
0.0
 40
0.0
 40
1.0
 40
1.0
 40
1.0
 40
2.0
 40
2.0
 40
2.0
 40
3.0
 40
3.0
 40
3.0
 40
4.0
 40
4.0
 40
4.0
 40
4.0
 10
61.74397786183715
 20
306.6458179030902
 30
0.0
 10
61.8561152485374
 20
306.6198427296902
 30
0.0
 10
61.97114610493576
 20
306.6054019830643
 30
0.0
 10
62.08646216673354
 20
306.6016587691852
 30
0.0
 10
62.20114462467415
 20
306.5979361223865
 30
0.0
 10
62.3161091625035
 20
306.6047937761455
 30
0.0
 10
62.42918760616603
 20
306.6235222729771
 30
0.0
 10
62.5323338097306
 20
306.6406057531178
 30
0.0
 10
62.63391069794613
 20
306.6675663096887
 30
0.0
 10
62.73062840276395
 20
306.7087501602247
 30
0.0
 10
62.81180403975033
 20
306.7433159649768
 30
0.0
 10
62.88955670953761
 20
306.7879011216902
 30
0.0
 10
62.95425034073724
 20
306.8470232381902
 30
0.0
  0
SPLINE
  5
148
330
70
100
AcDbEntity
  8
0
 62
   250
420
  3355443
370
    25
100
AcDbSpline
210
0.0
220
0.0
230
1.0
 70
     8
 71
     3
 72
    17
 73
    13
 74
     0
 42
0.0000000001
 43
0.0000000001
 40
0.0
 40
0.0
 40
0.0
 40
0.0
 40
1.0
 40
1.0
 40
1.0
 40
2.0
 40
2.0
 40
2.0
 40
3.0
 40
3.0
 40
3.0
 40
4.0
 40
4.0
 40
4.0
 40
4.0
 10
60.13270767723724
 20
308.6750822181902
 30
0.0
 10
60.14126477403737
 20
308.7842807604903
 30
0.0
 10
60.15816100917436
 20
308.8928643253573
 30
0.0
 10
60.18094454676436
 20
309.0001223915555
 30
0.0
 10
60.20501827500234
 20
309.1134542886201
 30
0.0
 10
60.23566495945818
 20
309.2253063152701
 30
0.0
 10
60.27273515854066
 20
309.3349773461053
 30
0.0
 10
60.30783090330819
 20
309.4388070152667
 30
0.0
 10
60.3486841197049
 20
309.5406818322544
 30
0.0
 10
60.39701226531192
 20
309.6392939427457
 30
0.0
 10
60.437628407031
 20
309.7221699439781
 30
0.0
 10
60.48352418683731
 20
309.8027414538902
 30
0.0
 10
60.5388022344377
 20
309.8763911715904
 30
0.0
  0
SPLINE
  5
149
330
70
100
AcDbEntity
  8
0
 62
   250
420
  3355443
370
    25
100
AcDbSpline
210
0.0
220
0.0
230
1.0
 70
     8
 71
     3
 72
    17
 73
    13
 74
     0
 42
0.0000000001
 43
0.0000000001
 40
0.0
 40
0.0
 40
0.0
 40
0.0
 40
1.0
 40
1.0
 40
1.0
 40
2.0
 40
2.0
 40
2.0
 40
3.0
 40
3.0
 40
3.0
 40
4.0
 40
4.0
 40
4.0
 40
4.0
 10
-63.19908782826265
 20
345.0146226925902
 30
0.0
 10
-63.26464169716258
 20
345.0403380173903
 30
0.0
 10
-63.32840233273191
 20
345.0713289793883
 30
0.0
 10
-63.38798810871599
 20
345.1091952729105
 30
0.0
 10
-63.43974797704284
 20
345.1420882634668
 30
0.0
 10
-63.48835761002483
 20
345.1801691919492
 30
0.0
 10
-63.53023749851351
 20
345.2251247684939
 30
0.0
 10
-63.56591130305222
 20
345.263418481979
 30
0.0
 10
-63.59670211124432
 20
345.3067003315524
 30
0.0
 10
-63.61697315481926
 20
345.3551656780908
 30
0.0
 10
-63.63492382874619
 20
345.3980833319968
 30
0.0
 10
-63.64462523636262
 20
345.4450657200902
 30
0.0
 10
-63.6427365947626
 20
345.4911671067903
 30
0.0
  0
SPLINE
  5
14A
330
70
100
AcDbEntity
  8
0
 62
   250
420
  3355443
370
    25
100
AcDbSpline
210
0.0
220
0.0
230
1.0
 70
     8
 71
     3
 72
    17
 73
    13
 74
     0
 42
0.0000000001
 43
0.0000000001
 40
0.0
 40
0.0
 40
0.0
 40
0.0
 40
1.0
 40
1.0
 40
1.0
 40
2.0
 40
2.0
 40
2.0
 40
3.0
 40
3.0
 40
3.0
 40
4.0
 40
4.0
 40
4.0
 40
4.0
 10
-64.70821337556253
 20
284.1306099263904
 30
0.0
 10
-64.77287531386264
 20
284.1567246206901
 30
0.0
 10
-64.83556525993022
 20
284.1884540194915
 30
0.0
 10
-64.89381819136624
 20
284.2271456403477
 30
0.0
 10
-64.94538840549257
 20
284.2613985976371
 30
0.0
 10
-64.99348123154679
 20
284.3011080048009
 30
0.0
 10
-65.03463894642016
 20
284.3474440555214
 30
0.0
 10
-65.07074162236389
 20
284.3880890580154
 30
0.0
 10
-65.10150812770644
 20
284.4338328829527
 30
0.0
 10
-65.12223233340046
 20
284.4842686541694
 30
0.0
 10
-65.14110918056942
 20
284.5302085738537
 30
0.0
 10
-65.15165427626259
 20
284.5800412403902
 30
0.0
 10
-65.15129279896261
 20
284.6293663132904
 30
0.0
  0
SPLINE
  5
14B
330
70
100
AcDbEntity
  8
0
 62
   250
420
  3355443
370
    25
100
AcDbSpline
210
0.0
220
0.0
230
1.0
 70
     8
 71
     3
 72
    20
 73
    16
 74
     0
 42
0.0000000001
 43
0.0000000001
 40
0.0
 40
0.0
 40
0.0
 40
0.0
 40
1.0
 40
1.0
 40
1.0
 40
2.0
 40
2.0
 40
2.0
 40
3.0
 40
3.0
 40
3.0
 40
4.0
 40
4.0
 40
4.0
 40
5.0
 40
5.0
 40
5.0
 40
5.0
 10
-63.10530914086246
 20
282.0921454180902
 30
0.0
 10
-63.10278376736245
 20
282.0466068572902
 30
0.0
 10
-63.09752077809839
 20
282.0010658948
 30
0.0
 10
-63.08784404864557
 20
281.9564390703792
 30
0.0
 10
-63.08163968417308
 20
281.9278259852153
 30
0.0
 10
-63.07362087318199
 20
281.8995886934978
 30
0.0
 10
-63.06287775632855
 20
281.8723390794772
 30
0.0
 10
-63.0536571699095
 20
281.8489513211204
 30
0.0
 10
-63.04242974532877
 20
281.8262911276522
 30
0.0
 10
-63.02831577386121
 20
281.805445448784
 30
0.0
 10
-63.01614280576482
 20
281.7874665415431
 30
0.0
 10
-63.00182263462722
 20
281.7708373893623
 30
0.0
 10
-62.98489682696903
 20
281.7571548292677
 30
0.0
 10
-62.96957317368136
 20
281.744767425889
 30
0.0
 10
-62.95211382326264
 20
281.7347951821901
 30
0.0
 10
-62.93354722586244
 20
281.7285223905904
 30
0.0
  0
SPLINE
  5
14C
330
70
100
AcDbEntity
  8
0
 62
   250
420
  3355443
370
    25
100
AcDbSpline
210
0.0
220
0.0
230
1.0
 70
     8
 71
     3
 72
    17
 73
    13
 74
     0
 42
0.0000000001
 43
0.0000000001
 40
0.0
 40
0.0
 40
0.0
 40
0.0
 40
1.0
 40
1.0
 40
1.0
 40
2.0
 40
2.0
 40
2.0
 40
3.0
 40
3.0
 40
3.0
 40
4.0
 40
4.0
 40
4.0
 40
4.0
 10
-32.83747964496252
 20
272.5593691503901
 30
0.0
 10
-32.83161966536253
 20
272.5324986141901
 30
0.0
 10
-32.82411689623447
 20
272.5059143883728
 30
0.0
 10
-32.8141025274026
 20
272.4802439580802
 30
0.0
 10
-32.80561430292062
 20
272.4584855848332
 30
0.0
 10
-32.79532166118479
 20
272.437383712863
 30
0.0
 10
-32.78228599191897
 20
272.4179680410192
 30
0.0
 10
-32.77124299925561
 20
272.401520314604
 30
0.0
 10
-32.75823149912272
 20
272.3862826735807
 30
0.0
 10
-32.74270040824799
 20
272.373892415134
 30
0.0
 10
-32.72884479109176
 20
272.3628388015216
 30
0.0
 10
-32.71298388096269
 20
272.3540513639906
 30
0.0
 10
-32.69614356386244
 20
272.3488775141905
 30
0.0
  0
SPLINE
  5
14D
330
70
100
AcDbEntity
  8
0
 62
   250
420
  3355443
370
    25
100
AcDbSpline
210
0.0
220
0.0
230
1.0
 70
     8
 71
     3
 72
    17
 73
    13
 74
     0
 42
0.0000000001
 43
0.0000000001
 40
0.0
 40
0.0
 40
0.0
 40
0.0
 40
1.0
 40
1.0
 40
1.0
 40
2.0
 40
2.0
 40
2.0
 40
3.0
 40
3.0
 40
3.0
 40
4.0
 40
4.0
 40
4.0
 40
4.0
 10
28.17338673013761
 20
253.8235231572905
 30
0.0
 10
28.1792539595375
 20
253.7966535420903
 30
0.0
 10
28.18676503059491
 20
253.7700708742143
 30
0.0
 10
28.19678806359075
 20
253.7444031030211
 30
0.0
 10
28.20528551423478
 20
253.7226421631
 30
0.0
 10
28.21558844219252
 20
253.7015388068703
 30
0.0
 10
28.22863358249468
 20
253.6821227533073
 30
0.0
 10
28.23968809008891
 20
253.6656695066119
 30
0.0
 10
28.25271176390583
 20
253.6504279018322
 30
0.0
 10
28.26825280823051
 20
253.6380326657056
 30
0.0
 10
28.28212130208543
 20
253.6269714234582
 30
0.0
 10
28.29799447723766
 20
253.6181768566899
 30
0.0
 10
28.31484745503749
 20
253.6129932567902
 30
0.0
  0
SPLINE
  5
14E
330
70
100
AcDbEntity
  8
0
 62
   250
420
  3355443
370
    25
100
AcDbSpline
210
0.0
220
0.0
230
1.0
 70
     8
 71
     3
 72
    17
 73
    13
 74
     0
 42
0.0000000001
 43
0.0000000001
 40
0.0
 40
0.0
 40
0.0
 40
0.0
 40
1.0
 40
1.0
 40
1.0
 40
2.0
 40
2.0
 40
2.0
 40
3.0
 40
3.0
 40
3.0
 40
4.0
 40
4.0
 40
4.0
 40
4.0
 10
58.54779819203749
 20
244.7336549143903
 30
0.0
 10
58.54953663223714
 20
244.6876179005904
 30
0.0
 10
58.55360034040359
 20
244.6415540944664
 30
0.0
 10
58.56171836465996
 20
244.5961482304812
 30
0.0
 10
58.56828800484027
 20
244.5594028132405
 30
0.0
 10
58.57751286240908
 20
244.5230882897357
 30
0.0
 10
58.59162295031759
 20
244.488371892081
 30
0.0
 10
58.60250166281466
 20
244.4616059561458
 30
0.0
 10
58.61628426828133
 20
244.4357899828724
 30
0.0
 10
58.63631868152732
 20
244.4146254586249
 30
0.0
 10
58.65221558581741
 20
244.3978318339659
 30
0.0
 10
58.6720486930374
 20
244.3839668097899
 30
0.0
 10
58.6940220799374
 20
244.37785244439
 30
0.0
  0
SPLINE
  5
14F
330
70
100
AcDbEntity
  8
0
 62
   250
420
  3355443
370
    25
100
AcDbSpline
210
0.0
220
0.0
230
1.0
 70
     8
 71
     3
 72
    17
 73
    13
 74
     0
 42
0.0000000001
 43
0.0000000001
 40
0.0
 40
0.0
 40
0.0
 40
0.0
 40
1.0
 40
1.0
 40
1.0
 40
2.0
 40
2.0
 40
2.0
 40
3.0
 40
3.0
 40
3.0
 40
4.0
 40
4.0
 40
4.0
 40
4.0
 10
60.23485195403717
 20
245.7618047393902
 30
0.0
 10
60.34703479753718
 20
245.7369647165905
 30
0.0
 10
60.46229009092747
 20
245.7247860374481
 30
0.0
 10
60.57750085134001
 20
245.724256275664
 30
0.0
 10
60.69272927284635
 20
245.7237264326709
 30
0.0
 10
60.80791314772088
 20
245.7348490787228
 30
0.0
 10
60.92053714899839
 20
245.7586173493048
 30
0.0
 10
61.02463669020102
 20
245.7805866101609
 30
0.0
 10
61.1265492038915
 20
245.8133596578858
 30
0.0
 10
61.22239725620573
 20
245.8607146915619
 30
0.0
 10
61.30478034491203
 20
245.9014171768585
 30
0.0
 10
61.38268318833755
 20
245.9528924034903
 30
0.0
 10
61.44649592983744
 20
246.0181854780902
 30
0.0
  0
LINE
  5
150
330
70
100
AcDbEntity
  8
0
 62
    18
420
        0
370
    25
100
AcDbLine
 10
27.27991153303714
 20
263.1427924165903
 30
0.0
 11
27.79598996603775
 21
262.9835560257905
 31
0.0
  0
LINE
  5
151
330
70
100
AcDbEntity
  8
0
 62
    18
420
        0
370
    25
100
AcDbLine
 10
28.93669598923771
 20
262.6313411915905
 30
0.0
 11
29.4526679711376
 21
262.4719877344901
 31
0.0
  0
LINE
  5
152
330
70
100
AcDbEntity
  8
0
 62
    18
420
        0
370
    25
100
AcDbLine
 10
29.79664878903749
 20
262.3657603139903
 30
0.0
 11
30.31264410353733
 21
262.2064425402905
 31
0.0
  0
LINE
  5
153
330
70
100
AcDbEntity
  8
0
 62
    18
420
        0
370
    25
100
AcDbLine
 10
30.82866146783711
 20
262.0471753281904
 30
0.0
 11
31.60888121053743
 21
261.8065190590899
 31
0.0
  0
LINE
  5
154
330
70
100
AcDbEntity
  8
0
 62
    18
420
        0
370
    25
100
AcDbLine
 10
32.57292048763765
 20
261.5095195107904
 30
0.0
 11
33.35361522203744
 21
261.2693868519904
 31
0.0
  0
SPLINE
  5
155
330
70
100
AcDbEntity
  8
0
 62
    18
420
        0
370
    25
100
AcDbSpline
210
0.0
220
0.0
230
1.0
 70
     8
 71
     3
 72
    11
 73
     7
 74
     0
 42
0.0000000001
 43
0.0000000001
 40
0.0
 40
0.0
 40
0.0
 40
0.0
 40
1.0
 40
1.0
 40
1.0
 40
2.0
 40
2.0
 40
2.0
 40
2.0
 10
33.35361522203744
 20
261.2693868519904
 30
0.0
 10
33.35812561863718
 20
260.8920743506902
 30
0.0
 10
33.36765929935333
 20
260.5148200572682
 30
0.0
 10
33.38044728519975
 20
260.1376865178865
 30
0.0
 10
33.39295763861113
 20
259.7687407028294
 30
0.0
 10
33.40858252643713
 20
259.39991045549
 30
0.0
 10
33.42708667943772
 20
259.03122725969
 30
0.0
  0
LINE
  5
156
330
70
100
AcDbEntity
  8
0
 62
    18
420
        0
370
    25
100
AcDbLine
 10
34.57449058313749
 20
259.5272887317904
 30
0.0
 11
35.07751059103718
 21
259.3760390377904
 31
0.0
  0
LINE
  5
157
330
70
100
AcDbEntity
  8
0
 62
    18
420
        0
370
    25
100
AcDbLine
 10
34.52756030573738
 20
260.9091907696905
 30
0.0
 11
35.04461465793723
 21
260.7510000496904
 31
0.0
  0
SPLINE
  5
158
330
70
100
AcDbEntity
  8
0
 62
    18
420
        0
370
    25
100
AcDbSpline
210
0.0
220
0.0
230
1.0
 70
     8
 71
     3
 72
    11
 73
     7
 74
     0
 42
0.0000000001
 43
0.0000000001
 40
0.0
 40
0.0
 40
0.0
 40
0.0
 40
1.0
 40
1.0
 40
1.0
 40
2.0
 40
2.0
 40
2.0
 40
2.0
 10
35.04461465793723
 20
260.7510000496904
 30
0.0
 10
35.18760193473713
 20
260.3313406798903
 30
0.0
 10
35.33865439152906
 20
259.9144453563856
 30
0.0
 10
35.49308441873588
 20
259.4988383168228
 30
0.0
 10
35.6455131592115
 20
259.0886172042638
 30
0.0
 10
35.80123249623748
 20
258.6796512017905
 30
0.0
 10
35.95983015263719
 20
258.27179749629
 30
0.0
  0
SPLINE
  5
159
330
70
100
AcDbEntity
  8
0
 62
    18
420
        0
370
    25
100
AcDbSpline
210
0.0
220
0.0
230
1.0
 70
     8
 71
     3
 72
    17
 73
    13
 74
     0
 42
0.0000000001
 43
0.0000000001
 40
0.0
 40
0.0
 40
0.0
 40
0.0
 40
1.0
 40
1.0
 40
1.0
 40
2.0
 40
2.0
 40
2.0
 40
3.0
 40
3.0
 40
3.0
 40
4.0
 40
4.0
 40
4.0
 40
4.0
 10
37.3995282263372
 20
259.0952323108905
 30
0.0
 10
37.42512950013719
 20
259.0878066369905
 30
0.0
 10
37.45151909134356
 20
259.0827219522024
 30
0.0
 10
37.4781779805895
 20
259.0807648020984
 30
0.0
 10
37.50253395332936
 20
259.0789767195516
 30
0.0
 10
37.52711470730189
 20
259.0797991688317
 30
0.0
 10
37.55116347129947
 20
259.0840902016897
 30
0.0
 10
37.57291712762915
 20
259.0879717173513
 30
0.0
 10
37.59423549018694
 20
259.0946913557242
 30
0.0
 10
37.61387360825599
 20
259.104950157284
 30
0.0
 10
37.63200532063502
 20
259.114422024118
 30
0.0
 10
37.6487046789376
 20
259.1269109130905
 30
0.0
 10
37.66238671563737
 20
259.1419609739905
 30
0.0
  0
SPLINE
  5
15A
330
70
100
AcDbEntity
  8
0
 62
    18
420
        0
370
    25
100
AcDbSpline
210
0.0
220
0.0
230
1.0
 70
     8
 71
     3
 72
    11
 73
     7
 74
     0
 42
0.0000000001
 43
0.0000000001
 40
0.0
 40
0.0
 40
0.0
 40
0.0
 40
1.0
 40
1.0
 40
1.0
 40
2.0
 40
2.0
 40
2.0
 40
2.0
 10
36.22043172473751
 20
260.3928394832905
 30
0.0
 10
36.42266561123755
 20
260.3314859923901
 30
0.0
 10
36.62496438889072
 20
260.2703483943661
 30
0.0
 10
36.82728090917902
 20
260.2092659863949
 30
0.0
 10
37.02983471116989
 20
260.1481119394999
 30
0.0
 10
37.23240629743767
 20
260.0870132121904
 30
0.0
 10
37.43530416153764
 20
260.0270125695903
 30
0.0
  0
SPLINE
  5
15B
330
70
100
AcDbEntity
  8
0
 62
    18
420
        0
370
    25
100
AcDbSpline
210
0.0
220
0.0
230
1.0
 70
     8
 71
     3
 72
    23
 73
    19
 74
     0
 42
0.0000000001
 43
0.0000000001
 40
0.0
 40
0.0
 40
0.0
 40
0.0
 40
1.0
 40
1.0
 40
1.0
 40
2.0
 40
2.0
 40
2.0
 40
3.0
 40
3.0
 40
3.0
 40
4.0
 40
4.0
 40
4.0
 40
5.0
 40
5.0
 40
5.0
 40
6.0
 40
6.0
 40
6.0
 40
6.0
 10
37.43530427773714
 20
260.0270142062905
 30
0.0
 10
37.58402618483757
 20
259.9830343937902
 30
0.0
 10
37.72401059897326
 20
259.9075300887176
 30
0.0
 10
37.84732107746887
 20
259.8108799360858
 30
0.0
 10
37.96914596606534
 20
259.7153941815839
 30
0.0
 10
38.07469625925311
 20
259.5992690219047
 30
0.0
 10
38.15145677413097
 20
259.4662223528075
 30
0.0
 10
38.18624721442443
 20
259.4059211392885
 30
0.0
 10
38.21512363984381
 20
259.3421438983646
 30
0.0
 10
38.23513723925932
 20
259.2754335474544
 30
0.0
 10
38.25318763369825
 20
259.2152670515586
 30
0.0
 10
38.2640286930687
 20
259.1527146606131
 30
0.0
 10
38.26428122544198
 20
259.0898103105303
 30
0.0
 10
38.26450970334687
 20
259.0328977889354
 30
0.0
 10
38.25607076118428
 20
258.9756971651629
 30
0.0
 10
38.2366184699724
 20
258.9220766607965
 30
0.0
 10
38.21818240304949
 20
258.8712573924569
 30
0.0
 10
38.18985364543748
 20
258.82365395009
 30
0.0
 10
38.15371976223751
 20
258.7839212304904
 30
0.0
  0
SPLINE
  5
15C
330
70
100
AcDbEntity
  8
0
 62
   250
420
  3355443
370
    25
100
AcDbSpline
210
0.0
220
0.0
230
1.0
 70
     8
 71
     3
 72
    68
 73
    64
 74
     0
 42
0.0000000001
 43
0.0000000001
 40
0.0
 40
0.0
 40
0.0
 40
0.0
 40
1.0
 40
1.0
 40
1.0
 40
2.0
 40
2.0
 40
2.0
 40
3.0
 40
3.0
 40
3.0
 40
4.0
 40
4.0
 40
4.0
 40
5.0
 40
5.0
 40
5.0
 40
6.0
 40
6.0
 40
6.0
 40
7.0
 40
7.0
 40
7.0
 40
8.0
 40
8.0
 40
8.0
 40
9.0
 40
9.0
 40
9.0
 40
10.0
 40
10.0
 40
10.0
 40
11.0
 40
11.0
 40
11.0
 40
12.0
 40
12.0
 40
12.0
 40
13.0
 40
13.0
 40
13.0
 40
14.0
 40
14.0
 40
14.0
 40
15.0
 40
15.0
 40
15.0
 40
16.0
 40
16.0
 40
16.0
 40
17.0
 40
17.0
 40
17.0
 40
18.0
 40
18.0
 40
18.0
 40
19.0
 40
19.0
 40
19.0
 40
20.0
 40
20.0
 40
20.0
 40
21.0
 40
21.0
 40
21.0
 40
21.0
 10
61.06793552863772
 20
276.1309572381902
 30
0.0
 10
61.12998850393733
 20
278.6672640026903
 30
0.0
 10
61.19535642527297
 20
281.20348764909
 30
0.0
 10
61.25890968446659
 20
283.7397581984269
 30
0.0
 10
61.32251041774358
 20
286.277923333801
 30
0.0
 10
61.38429377677287
 20
288.8161354422109
 30
0.0
 10
61.44173348412155
 20
291.3544465376508
 30
0.0
 10
61.47050878329797
 20
292.6260522707957
 30
0.0
 10
61.49819397265965
 20
293.8976828463411
 30
0.0
 10
61.52504835971338
 20
295.169330691957
 30
0.0
 10
61.55193957268849
 20
296.4427223719595
 30
0.0
 10
61.57799770320325
 20
297.7161313694312
 30
0.0
 10
61.60396302808813
 20
298.9895421925236
 30
0.0
 10
61.6169534846488
 20
299.6266298490414
 30
0.0
 10
61.62992071193591
 20
300.263717962512
 30
0.0
 10
61.64295580789626
 20
300.9008046949427
 30
0.0
 10
61.6494737397331
 20
301.2193668220598
 30
0.0
 10
61.65600864073763
 20
301.5379286038764
 30
0.0
 10
61.66254498593653
 20
301.856490355159
 30
0.0
 10
61.66908138304184
 20
302.1750546362384
 30
0.0
 10
61.67561922436527
 20
302.4936188867832
 30
0.0
 10
61.68214283784648
 20
302.8121834303949
 30
0.0
 10
61.68866685958494
 20
303.1307679102872
 30
0.0
 10
61.69517665170048
 20
303.449352683283
 30
0.0
 10
61.70167733860204
 20
303.7679376362041
 30
0.0
 10
61.70492792339423
 20
303.9272419402808
 30
0.0
 10
61.70817623154411
 20
304.0865462893449
 30
0.0
 10
61.7114169075502
 20
304.2458508015082
 30
0.0
 10
61.71465777674363
 20
304.405164810362
 30
0.0
 10
61.71789101288336
 20
304.564478982334
 30
0.0
 10
61.721136413475
 20
304.723792876648
 30
0.0
 10
61.72438200630169
 20
304.8831162076299
 30
0.0
 10
61.7276397650222
 20
305.0424392609214
 30
0.0
 10
61.73084287706061
 20
305.2017635386336
 30
0.0
 10
61.73244453066974
 20
305.2814305316504
 30
0.0
 10
61.73403252094313
 20
305.3610978308095
 30
0.0
 10
61.7356817555138
 20
305.4407637294208
 30
0.0
 10
61.73733095354933
 20
305.5204278631841
 30
0.0
 10
61.7390413931684
 20
305.6000905964615
 30
0.0
 10
61.74055404223008
 20
305.6797579450953
 30
0.0
 10
61.7413105687129
 20
305.7196022557187
 30
0.0
 10
61.7420176211463
 20
305.7594477207971
 30
0.0
 10
61.74285577632482
 20
305.7992896378106
 30
0.0
 10
61.74369338509213
 20
305.8391055810514
 30
0.0
 10
61.74466192572396
 20
305.8789179808514
 30
0.0
 10
61.74560121388133
 20
305.9187340021523
 30
0.0
 10
61.74607119719358
 20
305.9386563927496
 30
0.0
 10
61.74653385681907
 20
305.9585796900307
 30
0.0
 10
61.74665787669555
 20
305.978505768836
 30
0.0
 10
61.74678258264006
 20
305.9985420770068
 30
0.0
 10
61.74656489182051
 20
306.0185811975616
 30
0.0
 10
61.7461907287196
 20
306.0386157635191
 30
0.0
 10
61.74581475941365
 20
306.0587470427643
 30
0.0
 10
61.74528080349617
 20
306.0788737233332
 30
0.0
 10
61.74485080179572
 20
306.0990028881913
 30
0.0
 10
61.74442022466577
 20
306.1191589899624
 30
0.0
 10
61.74409388016232
 20
306.1393175826761
 30
0.0
 10
61.74380841145197
 20
306.1594767240944
 30
0.0
 10
61.74266313655087
 20
306.2403533942638
 30
0.0
 10
61.74217577493775
 20
306.3212388960717
 30
0.0
 10
61.74225036925285
 20
306.4021233764677
 30
0.0
 10
61.74232528598065
 20
306.4833574579594
 30
0.0
 10
61.74296702693714
 20
306.5645905091901
 30
0.0
 10
61.74397772503718
 20
306.6458177043903
 30
0.0
  0
SPLINE
  5
15D
330
70
100
AcDbEntity
  8
0
 62
   250
420
  3355443
370
    25
100
AcDbSpline
210
0.0
220
0.0
230
1.0
 70
     8
 71
     3
 72
    38
 73
    34
 74
     0
 42
0.0000000001
 43
0.0000000001
 40
0.0
 40
0.0
 40
0.0
 40
0.0
 40
1.0
 40
1.0
 40
1.0
 40
2.0
 40
2.0
 40
2.0
 40
3.0
 40
3.0
 40
3.0
 40
4.0
 40
4.0
 40
4.0
 40
5.0
 40
5.0
 40
5.0
 40
6.0
 40
6.0
 40
6.0
 40
7.0
 40
7.0
 40
7.0
 40
8.0
 40
8.0
 40
8.0
 40
9.0
 40
9.0
 40
9.0
 40
10.0
 40
10.0
 40
10.0
 40
11.0
 40
11.0
 40
11.0
 40
11.0
 10
60.5388022344377
 20
309.8763911715904
 30
0.0
 10
60.30588041223769
 20
309.9402894160903
 30
0.0
 10
60.07346798382583
 20
310.0060852298162
 30
0.0
 10
59.84173210078712
 20
310.0741619400813
 30
0.0
 10
59.72643155907868
 20
310.108033611004
 30
0.0
 10
59.61129850126487
 20
310.1424699350145
 30
0.0
 10
59.49611812004568
 20
310.1767467185667
 30
0.0
 10
59.38092997982652
 20
310.2110258111373
 30
0.0
 10
59.2656945098267
 20
310.2451453417547
 30
0.0
 10
59.15046420763715
 20
310.2792822967492
 30
0.0
 10
58.91997862508767
 20
310.3475636065165
 30
0.0
 10
58.68951371825963
 20
310.4159146289022
 30
0.0
 10
58.45902783661935
 20
310.484194837295
 30
0.0
 10
58.22850783277897
 20
310.552485154207
 30
0.0
 10
57.99796684791535
 20
310.6207046361578
 30
0.0
 10
57.76741588531122
 20
310.6888904957774
 30
0.0
 10
57.30621856112342
 20
310.8252904294362
 30
0.0
 10
56.84498130945626
 20
310.9615558181157
 30
0.0
 10
56.38370120125138
 20
311.0976745837719
 30
0.0
 10
55.92231401944576
 20
311.233824945688
 30
0.0
 10
55.46088396120396
 20
311.3698286165038
 30
0.0
 10
54.99943591557853
 20
311.5057762157076
 30
0.0
 10
54.0770354819678
 20
311.7775253879989
 30
0.0
 10
53.15456317608757
 20
312.0490505146916
 30
0.0
 10
52.23345128971818
 20
312.3251248467964
 30
0.0
 10
51.77368947385216
 20
312.4629239981491
 30
0.0
 10
51.31426659100253
 20
312.6018565321841
 30
0.0
 10
50.85455301789191
 20
312.7398196655943
 30
0.0
 10
50.624631737314
 20
312.8088205873888
 30
0.0
 10
50.39463774338397
 20
312.8775790230091
 30
0.0
 10
50.16477132729106
 20
312.9467621471598
 30
0.0
 10
49.93514865350289
 20
313.015871911946
 30
0.0
 10
49.70565328713731
 20
313.0854054650904
 30
0.0
 10
49.47624723013713
 20
313.1552309955902
 30
0.0
  0
SPLINE
  5
15E
330
70
100
AcDbEntity
  8
0
 62
   250
420
  3355443
370
    25
100
AcDbSpline
210
0.0
220
0.0
230
1.0
 70
     8
 71
     3
 72
    17
 73
    13
 74
     0
 42
0.0000000001
 43
0.0000000001
 40
0.0
 40
0.0
 40
0.0
 40
0.0
 40
1.0
 40
1.0
 40
1.0
 40
2.0
 40
2.0
 40
2.0
 40
3.0
 40
3.0
 40
3.0
 40
4.0
 40
4.0
 40
4.0
 40
4.0
 10
49.41834608133746
 20
313.1728629174902
 30
0.0
 10
49.07022641183743
 20
313.2789208305902
 30
0.0
 10
48.72239578652552
 20
313.3859250004887
 30
0.0
 10
48.37455016943124
 20
313.4928791059471
 30
0.0
 10
48.02681363246195
 20
313.5997996719081
 30
0.0
 10
47.67906211311055
 20
313.7066702048232
 30
0.0
 10
47.33131957044852
 20
313.8135701681757
 30
0.0
 10
46.63587592658422
 20
314.0273573553106
 30
0.0
 10
45.94046818519853
 20
314.2412622501673
 30
0.0
 10
45.24507299621287
 20
314.4552077500451
 30
0.0
 10
43.85439756547542
 20
314.8830633850983
 30
0.0
 10
42.46377233603711
 20
315.3110814133902
 30
0.0
 10
41.07317523163755
 20
315.7391911599903
 30
0.0
  0
SPLINE
  5
15F
330
70
100
AcDbEntity
  8
0
 62
   250
420
  3355443
370
    25
100
AcDbSpline
210
0.0
220
0.0
230
1.0
 70
     8
 71
     3
 72
     8
 73
     4
 74
     0
 42
0.0000000001
 43
0.0000000001
 40
0.0
 40
0.0
 40
0.0
 40
0.0
 40
1.0
 40
1.0
 40
1.0
 40
1.0
 10
40.55053544993721
 20
315.9000947196903
 30
0.0
 10
37.0953419139372
 20
316.9638561387903
 30
0.0
 10
33.64026564593724
 20
318.0279990940903
 30
0.0
 10
30.18469870243758
 20
319.0905468937903
 30
0.0
  0
SPLINE
  5
160
330
70
100
AcDbEntity
  8
0
 62
   250
420
  3355443
370
    25
100
AcDbSpline
210
0.0
220
0.0
230
1.0
 70
     8
 71
     3
 72
     8
 73
     4
 74
     0
 42
0.0000000001
 43
0.0000000001
 40
0.0
 40
0.0
 40
0.0
 40
0.0
 40
1.0
 40
1.0
 40
1.0
 40
1.0
 10
-30.82666196766246
 20
337.8265446801903
 30
0.0
 10
-33.70940472306268
 20
338.7106590755902
 30
0.0
 10
-36.59248975726248
 20
339.5936571579902
 30
0.0
 10
-39.47555914666259
 20
340.4767058279903
 30
0.0
  0
SPLINE
  5
161
330
70
100
AcDbEntity
  8
0
 62
   250
420
  3355443
370
    25
100
AcDbSpline
210
0.0
220
0.0
230
1.0
 70
     8
 71
     3
 72
     8
 73
     4
 74
     0
 42
0.0000000001
 43
0.0000000001
 40
0.0
 40
0.0
 40
0.0
 40
0.0
 40
1.0
 40
1.0
 40
1.0
 40
1.0
 10
-40.08344330436244
 20
340.6628941186901
 30
0.0
 10
-42.86660227796251
 20
341.5153511702901
 30
0.0
 10
-45.64973286196255
 20
342.3679014835903
 30
0.0
 10
-48.43252182476271
 20
343.2215656361904
 30
0.0
  0
SPLINE
  5
162
330
70
100
AcDbEntity
  8
0
 62
   250
420
  3355443
370
    25
100
AcDbSpline
210
0.0
220
0.0
230
1.0
 70
     8
 71
     3
 72
    38
 73
    34
 74
     0
 42
0.0000000001
 43
0.0000000001
 40
0.0
 40
0.0
 40
0.0
 40
0.0
 40
1.0
 40
1.0
 40
1.0
 40
2.0
 40
2.0
 40
2.0
 40
3.0
 40
3.0
 40
3.0
 40
4.0
 40
4.0
 40
4.0
 40
5.0
 40
5.0
 40
5.0
 40
6.0
 40
6.0
 40
6.0
 40
7.0
 40
7.0
 40
7.0
 40
8.0
 40
8.0
 40
8.0
 40
9.0
 40
9.0
 40
9.0
 40
10.0
 40
10.0
 40
10.0
 40
11.0
 40
11.0
 40
11.0
 40
11.0
 10
-48.51612976356245
 20
343.2472139239902
 30
0.0
 10
-49.04120867776254
 20
343.4082932007902
 30
0.0
 10
-49.56643582375861
 20
343.5688942683313
 30
0.0
 10
-50.09110859627706
 20
343.7312916785087
 30
0.0
 10
-50.35302721735631
 20
343.8123610763669
 30
0.0
 10
-50.61480768612917
 20
343.8938781307039
 30
0.0
 10
-50.87643204932472
 20
343.9758923567065
 30
0.0
 10
-51.13777522276083
 20
344.057818435106
 30
0.0
 10
-51.39896262599913
 20
344.1402406170409
 30
0.0
 10
-51.66029394250123
 20
344.2222039770156
 30
0.0
 10
-51.92175675354134
 20
344.3042085786379
 30
0.0
 10
-52.18336362270751
 20
344.3857538964513
 30
0.0
 10
-52.44483922721987
 20
344.4677180106153
 30
0.0
 10
-52.70610524363746
 20
344.5496164257151
 30
0.0
 10
-52.96724020574955
 20
344.6319329660552
 30
0.0
 10
-53.22829525333048
 20
344.7145016520582
 30
0.0
 10
-53.74979933299599
 20
344.8794473483856
 30
0.0
 10
-54.27098449616359
 20
345.0453992873908
 30
0.0
 10
-54.7920523989282
 20
345.2117181011873
 30
0.0
 10
-55.31278782844314
 20
345.3779307933895
 30
0.0
 10
-55.83340614714541
 20
345.5445098923553
 30
0.0
 10
-56.35407521112698
 20
345.7109278767897
 30
0.0
 10
-56.87482485537678
 20
345.8773716165581
 30
0.0
 10
-57.39562526061404
 20
346.0436541919219
 30
0.0
 10
-57.91651836790453
 20
346.2096557241769
 30
0.0
 10
-58.177028288857
 20
346.2926766846011
 30
0.0
 10
-58.43756139660191
 20
346.375627350055
 30
0.0
 10
-58.69807031376286
 20
346.4586403696872
 30
0.0
 10
-58.95862494659521
 20
346.5416679569428
 30
0.0
 10
-59.21915538035264
 20
346.6247579202634
 30
0.0
 10
-59.4798605743302
 20
346.707350938252
 30
0.0
 10
-60.00013838577242
 20
346.8721781669847
 30
0.0
 10
-60.52111220456246
 20
347.0350262404902
 30
0.0
 10
-61.0375957246627
 20
347.2113251578901
 30
0.0
  0
SPLINE
  5
163
330
70
100
AcDbEntity
  8
0
 62
   250
420
  3355443
370
    25
100
AcDbSpline
210
0.0
220
0.0
230
1.0
 70
     8
 71
     3
 72
    26
 73
    22
 74
     0
 42
0.0000000001
 43
0.0000000001
 40
0.0
 40
0.0
 40
0.0
 40
0.0
 40
1.0
 40
1.0
 40
1.0
 40
2.0
 40
2.0
 40
2.0
 40
3.0
 40
3.0
 40
3.0
 40
4.0
 40
4.0
 40
4.0
 40
5.0
 40
5.0
 40
5.0
 40
6.0
 40
6.0
 40
6.0
 40
7.0
 40
7.0
 40
7.0
 40
7.0
 10
61.44649592983744
 20
246.0181854780902
 30
0.0
 10
61.4471282886374
 20
246.1711659428903
 30
0.0
 10
61.44858362034709
 20
246.3241465159618
 30
0.0
 10
61.45108278733351
 20
246.4771078710627
 30
0.0
 10
61.45360944916017
 20
246.6317520460922
 30
0.0
 10
61.45720304032473
 20
246.7863765779679
 30
0.0
 10
61.46066706529316
 20
246.9410033224558
 30
0.0
 10
61.46760068710854
 20
247.2505055282611
 30
0.0
 10
61.4740152101783
 20
247.5600165987568
 30
0.0
 10
61.48058009458201
 20
247.8695250511506
 30
0.0
 10
61.4871453665501
 20
248.1790517757263
 30
0.0
 10
61.49386101760601
 20
248.4885758818908
 30
0.0
 10
61.50054801973943
 20
248.7981004426381
 30
0.0
 10
61.5072353410809
 20
249.1076397787425
 30
0.0
 10
61.5138940107656
 20
249.4171795694728
 30
0.0
 10
61.52056033947679
 20
249.7267192250919
 30
0.0
 10
61.5338930891081
 20
250.3458028178844
 30
0.0
 10
61.54725647526948
 20
250.9648858702244
 30
0.0
 10
61.56059784484912
 20
251.5839693633115
 30
0.0
 10
61.57393924478434
 20
252.2030542650262
 30
0.0
 10
61.5872586280377
 20
252.82213960749
 30
0.0
 10
61.6006395831372
 20
253.4412236379905
 30
0.0
  0
SPLINE
  5
164
330
70
100
AcDbEntity
  8
0
 62
   250
420
  3355443
370
    25
100
AcDbSpline
210
0.0
220
0.0
230
1.0
 70
     8
 71
     3
 72
    11
 73
     7
 74
     0
 42
0.0000000001
 43
0.0000000001
 40
0.0
 40
0.0
 40
0.0
 40
0.0
 40
1.0
 40
1.0
 40
1.0
 40
2.0
 40
2.0
 40
2.0
 40
2.0
 10
61.60172702573759
 20
253.4915296813901
 30
0.0
 10
61.61283560323748
 20
254.0053640428904
 30
0.0
 10
61.62398093167235
 20
254.5191976001653
 30
0.0
 10
61.63521372010433
 20
255.0330292774468
 30
0.0
 10
61.6689367273268
 20
256.5756515273667
 30
0.0
 10
61.70344802613753
 20
258.1182568325901
 30
0.0
 10
61.73906470693768
 20
259.6608364735905
 30
0.0
  0
SPLINE
  5
165
330
70
100
AcDbEntity
  8
0
 62
   250
420
  3355443
370
    25
100
AcDbSpline
210
0.0
220
0.0
230
1.0
 70
     8
 71
     3
 72
    11
 73
     7
 74
     0
 42
0.0000000001
 43
0.0000000001
 40
0.0
 40
0.0
 40
0.0
 40
0.0
 40
1.0
 40
1.0
 40
1.0
 40
2.0
 40
2.0
 40
2.0
 40
2.0
 10
61.73906470693768
 20
259.6608364735905
 30
0.0
 10
61.76513740283735
 20
260.79006044979
 30
0.0
 10
61.79178185027808
 20
261.9192713510603
 30
0.0
 10
61.81894184898143
 20
263.0484696901928
 30
0.0
 10
61.90052554577707
 20
266.440376145245
 30
0.0
 10
61.9867610221377
 20
269.8321692530905
 30
0.0
 10
62.07158852113738
 20
273.2239961611905
 30
0.0
  0
LINE
  5
166
330
70
100
AcDbEntity
  8
0
 62
   250
420
  3355443
370
    25
100
AcDbLine
 10
62.07486010963751
 20
273.3548411574902
 30
0.0
 11
62.12247777403733
 21
275.2682541136899
 31
0.0
  0
SPLINE
  5
167
330
70
100
AcDbEntity
  8
0
 62
   250
420
  3355443
370
    25
100
AcDbSpline
210
0.0
220
0.0
230
1.0
 70
     8
 71
     3
 72
    11
 73
     7
 74
     0
 42
0.0000000001
 43
0.0000000001
 40
0.0
 40
0.0
 40
0.0
 40
0.0
 40
1.0
 40
1.0
 40
1.0
 40
2.0
 40
2.0
 40
2.0
 40
2.0
 10
62.14997546593742
 20
276.3837988448904
 30
0.0
 10
62.16385240353717
 20
276.9381207004904
 30
0.0
 10
62.17763145956496
 20
277.492445009001
 30
0.0
 10
62.19134437273314
 20
278.0467709475035
 30
0.0
 10
62.2324687392566
 20
279.7091677546591
 30
0.0
 10
62.27299823593764
 20
281.3715792214903
 30
0.0
 10
62.31369570113725
 20
283.0339865313905
 30
0.0
  0
SPLINE
  5
168
330
70
100
AcDbEntity
  8
0
 62
   250
420
  3355443
370
    25
100
AcDbSpline
210
0.0
220
0.0
230
1.0
 70
     8
 71
     3
 72
    11
 73
     7
 74
     0
 42
0.0000000001
 43
0.0000000001
 40
0.0
 40
0.0
 40
0.0
 40
0.0
 40
1.0
 40
1.0
 40
1.0
 40
2.0
 40
2.0
 40
2.0
 40
2.0
 10
62.67539405003744
 20
297.0766185052902
 30
0.0
 10
62.68853609843743
 20
297.5536394233901
 30
0.0
 10
62.70176316145361
 20
298.0306579994618
 30
0.0
 10
62.7150361883767
 20
298.5076752923362
 30
0.0
 10
62.75486631693762
 20
299.939124215905
 30
0.0
 10
62.79511035023761
 20
301.3705615842901
 30
0.0
 10
62.83516889493732
 20
302.8020041296903
 30
0.0
  0
SPLINE
  5
169
330
70
100
AcDbEntity
  8
0
 62
   250
420
  3355443
370
    25
100
AcDbSpline
210
0.0
220
0.0
230
1.0
 70
     8
 71
     3
 72
    20
 73
    16
 74
     0
 42
0.0000000001
 43
0.0000000001
 40
0.0
 40
0.0
 40
0.0
 40
0.0
 40
1.0
 40
1.0
 40
1.0
 40
2.0
 40
2.0
 40
2.0
 40
3.0
 40
3.0
 40
3.0
 40
4.0
 40
4.0
 40
4.0
 40
5.0
 40
5.0
 40
5.0
 40
5.0
 10
62.83822490123772
 20
302.9112054355902
 30
0.0
 10
62.84739050983714
 20
303.2387182807902
 30
0.0
 10
62.85658108680181
 20
303.5662303520249
 30
0.0
 10
62.86573309957929
 20
303.8937436529859
 30
0.0
 10
62.87488552648238
 20
304.2212717738335
 30
0.0
 10
62.88399938570811
 20
304.5488011245188
 30
0.0
 10
62.89328633907225
 20
304.8763251029161
 30
0.0
 10
62.90257386552177
 20
305.2038692923674
 30
0.0
 10
62.91203450747315
 20
305.5314081088675
 30
0.0
 10
62.92090101066341
 20
305.8589655097585
 30
0.0
 10
62.92533661892779
 20
306.0228312732166
 30
0.0
 10
62.92962353454075
 20
306.1867016877136
 30
0.0
 10
62.93497379705595
 20
306.3505395723912
 30
0.0
 10
62.94037933982064
 20
306.5160702710427
 30
0.0
 10
62.94687031653747
 20
306.6815677641903
 30
0.0
 10
62.95425404463757
 20
306.8470219578902
 30
0.0
  0
SPLINE
  5
16A
330
70
100
AcDbEntity
  8
0
 62
   250
420
  3355443
370
    25
100
AcDbSpline
210
0.0
220
0.0
230
1.0
 70
     8
 71
     3
 72
   101
 73
    97
 74
     0
 42
0.0000000001
 43
0.0000000001
 40
0.0
 40
0.0
 40
0.0
 40
0.0
 40
1.0
 40
1.0
 40
1.0
 40
2.0
 40
2.0
 40
2.0
 40
3.0
 40
3.0
 40
3.0
 40
4.0
 40
4.0
 40
4.0
 40
5.0
 40
5.0
 40
5.0
 40
6.0
 40
6.0
 40
6.0
 40
7.0
 40
7.0
 40
7.0
 40
8.0
 40
8.0
 40
8.0
 40
9.0
 40
9.0
 40
9.0
 40
10.0
 40
10.0
 40
10.0
 40
11.0
 40
11.0
 40
11.0
 40
12.0
 40
12.0
 40
12.0
 40
13.0
 40
13.0
 40
13.0
 40
14.0
 40
14.0
 40
14.0
 40
15.0
 40
15.0
 40
15.0
 40
16.0
 40
16.0
 40
16.0
 40
17.0
 40
17.0
 40
17.0
 40
18.0
 40
18.0
 40
18.0
 40
19.0
 40
19.0
 40
19.0
 40
20.0
 40
20.0
 40
20.0
 40
21.0
 40
21.0
 40
21.0
 40
22.0
 40
22.0
 40
22.0
 40
23.0
 40
23.0
 40
23.0
 40
24.0
 40
24.0
 40
24.0
 40
25.0
 40
25.0
 40
25.0
 40
26.0
 40
26.0
 40
26.0
 40
27.0
 40
27.0
 40
27.0
 40
28.0
 40
28.0
 40
28.0
 40
29.0
 40
29.0
 40
29.0
 40
30.0
 40
30.0
 40
30.0
 40
31.0
 40
31.0
 40
31.0
 40
32.0
 40
32.0
 40
32.0
 40
32.0
 10
60.13270767753756
 20
308.6750822184902
 30
0.0
 10
60.05235097763726
 20
308.6998644802902
 30
0.0
 10
59.97212000249292
 20
308.72505361898
 30
0.0
 10
59.89202511211606
 20
308.7506741509272
 30
0.0
 10
59.81201011897817
 20
308.7762691255669
 30
0.0
 10
59.73213093924544
 20
308.802294633236
 30
0.0
 10
59.65254579348837
 20
308.8291915789653
 30
0.0
 10
59.61276002911397
 20
308.842637750798
 30
0.0
 10
59.57304774808111
 20
308.8563017076004
 30
0.0
 10
59.5334606680084
 20
308.8703271141822
 30
0.0
 10
59.49391823512046
 20
308.8843367026
 30
0.0
 10
59.45450072094261
 20
308.8987069259544
 30
0.0
 10
59.41484171852542
 20
308.91236471201
 30
0.0
 10
59.33613222946504
 20
308.9394707231708
 30
0.0
 10
59.25647155188467
 20
308.9637705430993
 30
0.0
 10
59.17692518476481
 20
308.988377083576
 30
0.0
 10
59.09747344689368
 20
309.0129543518368
 30
0.0
 10
59.01813574767473
 20
309.0378376113234
 30
0.0
 10
58.93878885755765
 20
309.0627068532622
 30
0.0
 10
58.85942534159728
 20
309.087581306144
 30
0.0
 10
58.78005263088731
 20
309.1124417356033
 30
0.0
 10
58.70067868392359
 20
309.1372954118729
 30
0.0
 10
58.54192262264073
 20
309.1870053217857
 30
0.0
 10
58.38316161583729
 20
309.2366882161601
 30
0.0
 10
58.22441259044045
 20
309.2864123656002
 30
0.0
 10
58.06564095435251
 20
309.3361435972718
 30
0.0
 10
57.90688130308502
 20
309.3859160957619
 30
0.0
 10
57.7481264414335
 20
309.4357030744061
 30
0.0
 10
57.58935222478688
 20
309.4854961229544
 30
0.0
 10
57.43058279892476
 20
309.535303655188
 30
0.0
 10
57.27181978050135
 20
309.5851317472725
 30
0.0
 10
56.95424406269694
 20
309.6848035239092
 30
0.0
 10
56.63669398266793
 20
309.7845575656851
 30
0.0
 10
56.31916143403251
 20
309.8843672267889
 30
0.0
 10
56.0015746016927
 20
309.9841939508308
 30
0.0
 10
55.68400530674125
 20
310.0840763132188
 30
0.0
 10
55.36646705975933
 20
310.1840573572884
 30
0.0
 10
55.04889736400071
 20
310.2840483034138
 30
0.0
 10
54.73135872236168
 20
310.3841379507682
 30
0.0
 10
54.41385097351652
 20
310.484325433807
 30
0.0
 10
54.09641723298499
 20
310.5844895640089
 30
0.0
 10
53.77901437084759
 20
310.6847514842911
 30
0.0
 10
53.46164003215998
 20
310.7851037943121
 30
0.0
 10
53.14448972926443
 20
310.8853852652432
 30
0.0
 10
52.82736790956296
 20
310.985756998345
 30
0.0
 10
52.51023470702406
 20
311.086091976501
 30
0.0
 10
52.19348512463014
 20
311.1863055844609
 30
0.0
 10
51.87672418692062
 20
311.2864825263427
 30
0.0
 10
51.5600499093804
 20
311.3869361716145
 30
0.0
 10
51.40191224069523
 20
311.4370997194644
 30
0.0
 10
51.24379618250092
 20
311.4873322689791
 30
0.0
 10
51.08548186349997
 20
311.5369343443116
 30
0.0
 10
50.92733313200037
 20
311.5864845387798
 30
0.0
 10
50.76898655421631
 20
311.6354055772546
 30
0.0
 10
50.61053632943827
 20
311.6839823072675
 30
0.0
 10
50.53130464986662
 20
311.7082726856015
 30
0.0
 10
50.45204705425128
 20
311.7324769725493
 30
0.0
 10
50.37276728253036
 20
311.7566129965338
 30
0.0
 10
50.33310440873389
 20
311.7686880069996
 30
0.0
 10
50.29343598447879
 20
311.7807459319255
 30
0.0
 10
50.2538578140642
 20
311.7930931250189
 30
0.0
 10
50.21423517836085
 20
311.8054541899385
 30
0.0
 10
50.17470299940902
 20
311.8181051733651
 30
0.0
 10
50.13515687836996
 20
311.8307113378076
 30
0.0
 10
50.05609194515167
 20
311.8559149614148
 30
0.0
 10
49.97697128208898
 20
311.8809394328644
 30
0.0
 10
49.89786523136368
 20
311.9060108836988
 30
0.0
 10
49.81879964087487
 20
311.9310695112806
 30
0.0
 10
49.73974864777956
 20
311.9561750702029
 30
0.0
 10
49.66068971132862
 20
311.9812554040494
 30
0.0
 10
49.50270509836449
 20
312.0313737969054
 30
0.0
 10
49.34468876551289
 20
312.0813914594634
 30
0.0
 10
49.18667819624483
 20
312.1314275620649
 30
0.0
 10
49.02885402855439
 20
312.1814046381818
 30
0.0
 10
48.87103561085759
 20
312.2314001108609
 30
0.0
 10
48.71312771292634
 20
312.2811124072403
 30
0.0
 10
48.55543305370479
 20
312.3307575721708
 30
0.0
 10
48.39764915575286
 20
312.3801203250871
 30
0.0
 10
48.23974414085924
 20
312.4290917611554
 30
0.0
 10
48.08193863452829
 20
312.4780323364106
 30
0.0
 10
47.92401216385811
 20
312.5265820878623
 30
0.0
 10
47.76610659282319
 20
312.5751993599874
 30
0.0
 10
47.45031236763412
 20
312.6724286957288
 30
0.0
 10
47.13460173203119
 20
312.7699280852302
 30
0.0
 10
46.81886120652144
 20
312.8673307181148
 30
0.0
 10
46.18744965979545
 20
313.0621145425407
 30
0.0
 10
45.55591857976209
 20
313.2565114256913
 30
0.0
 10
44.92435464449726
 20
313.4508013050885
 30
0.0
 10
43.6614427310447
 20
313.8393146283694
 30
0.0
 10
42.39839944160194
 20
314.2274000829789
 30
0.0
 10
41.13523182176133
 20
314.6150805258074
 30
0.0
 10
39.87222666808949
 20
315.0027111059295
 30
0.0
 10
38.60909721599952
 20
315.3899367784475
 30
0.0
 10
37.34592108182718
 20
315.7770100818924
 30
0.0
 10
34.81945647554966
 20
316.5511911123389
 30
0.0
 10
32.29280512433743
 20
317.3247626122901
 30
0.0
 10
29.76659557303745
 20
318.0997752101904
 30
0.0
  0
SPLINE
  5
16B
330
70
100
AcDbEntity
  8
0
 62
    18
420
        0
370
    25
100
AcDbSpline
210
0.0
220
0.0
230
1.0
 70
     8
 71
     3
 72
    23
 73
    19
 74
     0
 42
0.0000000001
 43
0.0000000001
 40
0.0
 40
0.0
 40
0.0
 40
0.0
 40
1.0
 40
1.0
 40
1.0
 40
2.0
 40
2.0
 40
2.0
 40
3.0
 40
3.0
 40
3.0
 40
4.0
 40
4.0
 40
4.0
 40
5.0
 40
5.0
 40
5.0
 40
6.0
 40
6.0
 40
6.0
 40
6.0
 10
38.24525640753751
 20
258.8845915698904
 30
0.0
 10
38.28140033523715
 20
258.9243268349902
 30
0.0
 10
38.30973577004531
 20
258.9719380167801
 30
0.0
 10
38.32817286717688
 20
259.0227665820002
 30
0.0
 10
38.34762344850081
 20
259.0763891850792
 30
0.0
 10
38.35605756252882
 20
259.1335926115756
 30
0.0
 10
38.35581789995726
 20
259.1905061012941
 30
0.0
 10
38.35555302942094
 20
259.2534058123728
 30
0.0
 10
38.34469378971887
 20
259.3159513873702
 30
0.0
 10
38.3266229086595
 20
259.3761073142776
 30
0.0
 10
38.30658823300416
 20
259.4428004921246
 30
0.0
 10
38.27768934609449
 20
259.5065564266395
 30
0.0
 10
38.24287620075834
 20
259.5668316884768
 30
0.0
 10
38.16606029290884
 20
259.6998302703107
 30
0.0
 10
38.06044944980953
 20
259.8158823920573
 30
0.0
 10
37.93859531807406
 20
259.9113080718605
 30
0.0
 10
37.81524633344515
 20
260.0079043919325
 30
0.0
 10
37.67525308463772
 20
260.0833650936902
 30
0.0
 10
37.52653163533758
 20
260.12733865309
 30
0.0
  0
SPLINE
  5
16C
330
70
100
AcDbEntity
  8
0
 62
    18
420
        0
370
    25
100
AcDbSpline
210
0.0
220
0.0
230
1.0
 70
     8
 71
     3
 72
    11
 73
     7
 74
     0
 42
0.0000000001
 43
0.0000000001
 40
0.0
 40
0.0
 40
0.0
 40
0.0
 40
1.0
 40
1.0
 40
1.0
 40
2.0
 40
2.0
 40
2.0
 40
2.0
 10
37.69679804153725
 20
259.2013787345905
 30
0.0
 10
37.68718149173721
 20
259.1969562808901
 30
0.0
 10
37.67720838138464
 20
259.1933056033653
 30
0.0
 10
37.66701482366209
 20
259.1903657842994
 30
0.0
 10
37.63349580246135
 20
259.1806989083871
 30
0.0
 10
37.5975931668375
 20
259.1787182773904
 30
0.0
 10
37.56293857373721
 20
259.1819530325902
 30
0.0
  0
SPLINE
  5
16D
330
70
100
AcDbEntity
  8
0
 62
    18
420
        0
370
    25
100
AcDbSpline
210
0.0
220
0.0
230
1.0
 70
     8
 71
     3
 72
    11
 73
     7
 74
     0
 42
0.0000000001
 43
0.0000000001
 40
0.0
 40
0.0
 40
0.0
 40
0.0
 40
1.0
 40
1.0
 40
1.0
 40
2.0
 40
2.0
 40
2.0
 40
2.0
 10
37.56293857373721
 20
259.1819530325902
 30
0.0
 10
37.55701262543762
 20
259.1825061768902
 30
0.0
 10
37.55110150643834
 20
259.1832125996198
 30
0.0
 10
37.54520835732485
 20
259.1840613296218
 30
0.0
 10
37.52690634615237
 20
259.1866971811301
 30
0.0
 10
37.50877765473776
 20
259.1907055879904
 30
0.0
 10
37.49102497383772
 20
259.19585301079
 30
0.0
  0
SPLINE
  5
16E
330
70
100
AcDbEntity
  8
0
 62
   250
420
  3355443
370
    25
100
AcDbSpline
210
0.0
220
0.0
230
1.0
 70
     8
 71
     3
 72
    17
 73
    13
 74
     0
 42
0.0000000001
 43
0.0000000001
 40
0.0
 40
0.0
 40
0.0
 40
0.0
 40
1.0
 40
1.0
 40
1.0
 40
2.0
 40
2.0
 40
2.0
 40
3.0
 40
3.0
 40
3.0
 40
4.0
 40
4.0
 40
4.0
 40
4.0
 10
60.95649512763761
 20
244.8379667430903
 30
0.0
 10
61.0336243071373
 20
244.9106459707902
 30
0.0
 10
61.10325139135003
 20
244.9918006584879
 30
0.0
 10
61.16346057482743
 20
245.0793086746789
 30
0.0
 10
61.22422252525363
 20
245.1676200822519
 30
0.0
 10
61.27539285389048
 20
245.2624020107736
 30
0.0
 10
61.31648876101727
 20
245.3613149071626
 30
0.0
 10
61.35871193047932
 20
245.4629409881561
 30
0.0
 10
61.39030041481486
 20
245.5689277704053
 30
0.0
 10
61.41168893534058
 20
245.6769208368577
 30
0.0
 10
61.43394580713194
 20
245.7892983073575
 30
0.0
 10
61.4451576873376
 20
245.9038482749904
 30
0.0
 10
61.44649592983744
 20
246.0181854780902
 30
0.0
  0
SPLINE
  5
16F
330
70
100
AcDbEntity
  8
0
 62
    18
420
        0
370
    25
100
AcDbSpline
210
0.0
220
0.0
230
1.0
 70
     8
 71
     3
 72
    11
 73
     7
 74
     0
 42
0.0000000001
 43
0.0000000001
 40
0.0
 40
0.0
 40
0.0
 40
0.0
 40
1.0
 40
1.0
 40
1.0
 40
2.0
 40
2.0
 40
2.0
 40
2.0
 10
32.8780174329377
 20
267.1789312794905
 30
0.0
 10
32.88262009913752
 20
267.1842619967905
 30
0.0
 10
32.8868956482244
 20
267.1896738911481
 30
0.0
 10
32.89072015942392
 20
267.1958147175232
 30
0.0
 10
32.89282986574401
 20
267.1992021674576
 30
0.0
 10
32.89480232433773
 20
267.2028114263902
 30
0.0
 10
32.89489787133735
 20
267.2066952567905
 30
0.0
  0
SPLINE
  5
170
330
70
100
AcDbEntity
  8
0
 62
    18
420
        0
370
    25
100
AcDbSpline
210
0.0
220
0.0
230
1.0
 70
     8
 71
     3
 72
    11
 73
     7
 74
     0
 42
0.0000000001
 43
0.0000000001
 40
0.0
 40
0.0
 40
0.0
 40
0.0
 40
1.0
 40
1.0
 40
1.0
 40
2.0
 40
2.0
 40
2.0
 40
2.0
 10
-27.24217935996243
 20
285.6412612726899
 30
0.0
 10
-27.23757669386272
 20
285.6465919899905
 30
0.0
 10
-27.2333011447752
 20
285.6520038844129
 30
0.0
 10
-27.22947663357567
 20
285.6581447107695
 30
0.0
 10
-27.22736692725623
 20
285.6615321606936
 30
0.0
 10
-27.22539446866251
 20
285.6651414195902
 30
0.0
 10
-27.22529892166257
 20
285.66902525009
 30
0.0
  0
SPLINE
  5
171
330
70
100
AcDbEntity
  8
0
 62
   250
420
  3355443
370
    25
100
AcDbSpline
210
0.0
220
0.0
230
1.0
 70
     8
 71
     3
 72
    20
 73
    16
 74
     0
 42
0.0000000001
 43
0.0000000001
 40
0.0
 40
0.0
 40
0.0
 40
0.0
 40
1.0
 40
1.0
 40
1.0
 40
2.0
 40
2.0
 40
2.0
 40
3.0
 40
3.0
 40
3.0
 40
4.0
 40
4.0
 40
4.0
 40
5.0
 40
5.0
 40
5.0
 40
5.0
 10
61.74397772503718
 20
306.6458177043903
 30
0.0
 10
61.74660441763733
 20
306.8578279586901
 30
0.0
 10
61.70254389226975
 20
307.0711533309149
 30
0.0
 10
61.62730893701985
 20
307.271106134399
 30
0.0
 10
61.54548642246933
 20
307.4885667697931
 30
0.0
 10
61.42679121726366
 20
307.6902105131927
 30
0.0
 10
61.28316053315475
 20
307.8712010934747
 30
0.0
 10
61.20865009333506
 20
307.9650925054914
 30
0.0
 10
61.12742911289799
 20
308.05342581732
 30
0.0
 10
61.04041001021343
 20
308.1355082789982
 30
0.0
 10
60.95307852180386
 20
308.2178854045897
 30
0.0
 10
60.85990720762161
 20
308.2939667202187
 30
0.0
 10
60.76127953555317
 20
308.3631013119443
 30
0.0
 10
60.56911097950126
 20
308.4978048326356
 30
0.0
 10
60.35622813893745
 20
308.6061361067903
 30
0.0
 10
60.13270767753756
 20
308.6750822184902
 30
0.0
  0
LINE
  5
172
330
70
100
AcDbEntity
  8
0
 62
    18
420
        0
370
    25
100
AcDbLine
 10
27.88705020053756
 20
263.08369668429
 30
0.0
 11
27.3709742507377
 21
263.2429358057901
 31
0.0
  0
SPLINE
  5
173
330
70
100
AcDbEntity
  8
0
 62
    18
420
        0
370
    25
100
AcDbSpline
210
0.0
220
0.0
230
1.0
 70
     8
 71
     3
 72
     8
 73
     4
 74
     0
 42
0.0000000001
 43
0.0000000001
 40
0.0
 40
0.0
 40
0.0
 40
0.0
 40
1.0
 40
1.0
 40
1.0
 40
1.0
 10
64.24218399878812
 20
281.3266362229009
 30
0.0
 10
64.37200267267368
 20
281.4705080386839
 30
0.0
 10
64.47565974150517
 20
281.7444034086184
 30
0.0
 10
64.48094203936946
 20
281.957511884225
 30
0.0
  0
SPLINE
  5
174
330
70
100
AcDbEntity
  8
0
 62
    18
420
        0
370
    25
100
AcDbSpline
210
0.0
220
0.0
230
1.0
 70
     8
 71
     3
 72
     8
 73
     4
 74
     0
 42
0.0000000001
 43
0.0000000001
 40
0.0
 40
0.0
 40
0.0
 40
0.0
 40
1.0
 40
1.0
 40
1.0
 40
1.0
 10
-32.47041828988967
 20
287.2468027971775
 30
0.0
 10
-32.47196703195005
 20
287.245432950844
 30
0.0
 10
-32.47351892654179
 20
287.2440021786455
 30
0.0
 10
-32.47507271326816
 20
287.2425116426078
 30
0.0
  0
SPLINE
  5
175
330
70
100
AcDbEntity
  8
0
 62
    18
420
        0
370
    25
100
AcDbSpline
210
0.0
220
0.0
230
1.0
 70
     8
 71
     3
 72
     8
 73
     4
 74
     0
 42
0.0000000001
 43
0.0000000001
 40
0.0
 40
0.0
 40
0.0
 40
0.0
 40
1.0
 40
1.0
 40
1.0
 40
1.0
 10
-27.26480056471492
 20
284.8953444671766
 30
0.0
 10
-27.26337798293869
 20
284.8971381415774
 30
0.0
 10
-27.26195378279073
 20
284.899006636817
 30
0.0
 10
-27.26052942813417
 20
284.9009480323657
 30
0.0
  0
SPLINE
  5
176
330
70
100
AcDbEntity
  8
0
 62
    18
420
        0
370
    25
100
AcDbSpline
210
0.0
220
0.0
230
1.0
 70
     8
 71
     3
 72
     8
 73
     4
 74
     0
 42
0.0000000001
 43
0.0000000001
 40
0.0
 40
0.0
 40
0.0
 40
0.0
 40
1.0
 40
1.0
 40
1.0
 40
1.0
 10
27.64977850311058
 20
268.7844728038773
 30
0.0
 10
27.64822976104986
 20
268.7831029575439
 30
0.0
 10
27.64667786645845
 20
268.781672185346
 30
0.0
 10
27.64512407973207
 20
268.7801816493077
 30
0.0
  0
SPLINE
  5
177
330
70
100
AcDbEntity
  8
0
 62
    18
420
        0
370
    25
100
AcDbSpline
210
0.0
220
0.0
230
1.0
 70
     8
 71
     3
 72
     8
 73
     4
 74
     0
 42
0.0000000001
 43
0.0000000001
 40
0.0
 40
0.0
 40
0.0
 40
0.0
 40
1.0
 40
1.0
 40
1.0
 40
1.0
 10
32.85539622818489
 20
266.4330144739765
 30
0.0
 10
32.85681880996145
 20
266.4348081483774
 30
0.0
 10
32.8582430101094
 20
266.4366766436176
 30
0.0
 10
32.85966736476564
 20
266.4386180391657
 30
0.0
  0
SPLINE
  5
178
330
70
100
AcDbEntity
  8
0
 62
    18
420
        0
370
    25
100
AcDbSpline
210
0.0
220
0.0
230
1.0
 70
     8
 71
     3
 72
     8
 73
     4
 74
     0
 42
0.0000000001
 43
0.0000000001
 40
0.0
 40
0.0
 40
0.0
 40
0.0
 40
1.0
 40
1.0
 40
1.0
 40
1.0
 10
63.69571972548439
 20
280.7210160535765
 30
0.0
 10
63.56590105159884
 20
280.5771442377916
 30
0.0
 10
63.46224398276799
 20
280.3032488678564
 30
0.0
 10
63.45696168490498
 20
280.0901403922518
 30
0.0
  0
SPLINE
  5
179
330
70
100
AcDbEntity
  8
0
 62
    18
420
        0
370
    25
100
AcDbSpline
210
0.0
220
0.0
230
1.0
 70
     8
 71
     3
 72
     8
 73
     4
 74
     0
 42
0.0000000001
 43
0.0000000001
 40
0.0
 40
0.0
 40
0.0
 40
0.0
 40
1.0
 40
1.0
 40
1.0
 40
1.0
 10
-27.24217935997431
 20
285.6412612727336
 30
0.0
 10
-27.2434388201648
 20
285.6398025907369
 30
0.0
 10
-27.2447011192402
 20
285.6382828865575
 30
0.0
 10
-27.24596523200445
 20
285.6367033944482
 30
0.0
  0
SPLINE
  5
17A
330
70
100
AcDbEntity
  8
0
 62
    18
420
        0
370
    25
100
AcDbSpline
210
0.0
220
0.0
230
1.0
 70
     8
 71
     3
 72
     8
 73
     4
 74
     0
 42
0.0000000001
 43
0.0000000001
 40
0.0
 40
0.0
 40
0.0
 40
0.0
 40
1.0
 40
1.0
 40
1.0
 40
1.0
 10
32.87801743302561
 20
267.1789312794334
 30
0.0
 10
32.87675797283511
 20
267.1774725974368
 30
0.0
 10
32.87549567375972
 20
267.175952893258
 30
0.0
 10
32.87423156099579
 20
267.1743734011487
 30
0.0
  0
SPLINE
  5
17B
330
70
100
AcDbEntity
  8
0
 62
    18
420
        0
370
    25
100
AcDbSpline
210
0.0
220
0.0
230
1.0
 70
     8
 71
     3
 72
     8
 73
     4
 74
     0
 42
0.0000000001
 43
0.0000000001
 40
0.0
 40
0.0
 40
0.0
 40
0.0
 40
1.0
 40
1.0
 40
1.0
 40
1.0
 10
64.31251555916983
 20
275.1625314932332
 30
0.0
 10
64.31779785703156
 20
275.3756399688366
 30
0.0
 10
64.22295300347319
 20
275.4572636953939
 30
0.0
 10
64.09405509477434
 20
275.3505391345589
 30
0.0
  0
SPLINE
  5
17C
330
70
100
AcDbEntity
  8
0
 62
    18
420
        0
370
    25
100
AcDbSpline
210
0.0
220
0.0
230
1.0
 70
     8
 71
     3
 72
     8
 73
     4
 74
     0
 42
0.0000000001
 43
0.0000000001
 40
0.0
 40
0.0
 40
0.0
 40
0.0
 40
1.0
 40
1.0
 40
1.0
 40
1.0
 10
63.33300626550511
 20
275.0892958488513
 30
0.0
 10
63.3277239676421
 20
274.8761873732467
 30
0.0
 10
63.42256882119918
 20
274.7945636466868
 30
0.0
 10
63.55146672989802
 20
274.9012882075192
 30
0.0
  0
LINE
  5
17E
330
70
100
AcDbEntity
  8
RACCORDO
 62
   250
420
  3355443
370
    25
100
AcDbLine
 10
-34.27957828866245
 20
282.3170170087902
 30
0.0
 11
27.19105393493713
 21
263.4405634419901
 31
0.0
  0
LINE
  5
17F
330
70
100
AcDbEntity
  8
RACCORDO
 62
   250
420
  3355443
370
    25
100
AcDbLine
 10
-34.06265344576251
 20
283.1967295664905
 30
0.0
 11
26.94821293073716
 21
264.4608835714902
 31
0.0
  0
LINE
  5
180
330
70
100
AcDbEntity
  8
RACCORDO
 62
   250
420
  3355443
370
    25
100
AcDbLine
 10
-12.44070725106259
 20
280.8813834223903
 30
0.0
 11
-7.211491145762444
 21
279.2755418168903
 31
0.0
  0
LINE
  5
181
330
70
100
AcDbEntity
  8
RACCORDO
 62
   250
420
  3355443
370
    25
100
AcDbLine
 10
7.599358346537518
 20
274.7272734246899
 30
0.0
 11
12.82857445183735
 21
273.1214318191899
 31
0.0
  0
LINE
  5
182
330
70
100
AcDbEntity
  8
RACCORDO
 62
    18
420
        0
370
    25
100
AcDbLine
 10
-12.34873391216242
 20
280.8967036569904
 30
0.0
 11
-7.194190487462607
 21
279.3137933081903
 31
0.0
  0
LINE
  5
183
330
70
100
AcDbEntity
  8
RACCORDO
 62
    18
420
        0
370
    25
100
AcDbLine
 10
7.691331685537479
 20
274.7425936591899
 30
0.0
 11
12.84587511023729
 21
273.1596833104899
 31
0.0
  0
LINE
  5
184
330
70
100
AcDbEntity
  8
RACCORDO
 62
   250
420
  3355443
370
    25
100
AcDbLine
 10
-7.207231178562443
 20
279.2806947668902
 30
0.0
 11
-7.225557607862501
 21
278.5413352086899
 31
0.0
  0
LINE
  5
185
330
70
100
AcDbEntity
  8
RACCORDO
 62
    18
420
        0
370
    25
100
AcDbLine
 10
-7.190349954062535
 20
279.3084593436905
 30
0.0
 11
-7.207849513262516
 21
278.6024589455905
 31
0.0
  0
LINE
  5
186
330
70
100
AcDbEntity
  8
RACCORDO
 62
   250
420
  3355443
370
    25
100
AcDbLine
 10
12.83283441913745
 20
273.1265847691904
 30
0.0
 11
12.81450798973729
 21
272.3872252109901
 31
0.0
  0
LINE
  5
187
330
70
100
AcDbEntity
  8
RACCORDO
 62
    18
420
        0
370
    25
100
AcDbLine
 10
12.84971564363768
 20
273.15434934589
 30
0.0
 11
12.8322160843376
 21
272.4483489478901
 31
0.0
  0
LINE
  5
188
330
70
100
AcDbEntity
  8
RACCORDO
 62
    18
420
        0
370
    25
100
AcDbLine
 10
-42.33324581796262
 20
324.6301712475901
 30
0.0
 11
-42.33330187206266
 21
324.6301884475901
 31
0.0
  0
LINE
  5
189
330
70
100
AcDbEntity
  8
RACCORDO
 62
   250
420
  3355443
370
    25
100
AcDbLine
 10
27.93064545333763
 20
304.0960390850901
 30
0.0
 11
-33.08022092016273
 21
322.8318850835902
 31
0.0
  0
LINE
  5
18A
330
70
100
AcDbEntity
  8
RACCORDO
 62
   250
420
  3355443
370
    25
100
AcDbLine
 10
28.23909501873767
 20
305.7226238615901
 30
0.0
 11
-32.77177135636244
 21
324.4584698547902
 31
0.0
  0
LINE
  5
18B
330
70
100
AcDbEntity
  8
RACCORDO
 62
    18
420
        0
370
    25
100
AcDbLine
 10
37.29255877233719
 20
300.1778580545902
 30
0.0
 11
37.29250148793709
 21
300.1778756602903
 31
0.0
  0
LINE
  5
18C
330
70
100
AcDbEntity
  8
RACCORDO
 62
    18
420
        0
370
    25
100
AcDbLine
 10
37.71780873933769
 20
299.7343924655902
 30
0.0
 11
37.71780623423768
 21
299.7342907539901
 31
0.0
  0
LINE
  5
18D
330
70
100
AcDbEntity
  8
RACCORDO
 62
    18
420
        0
370
    25
100
AcDbLine
 10
36.81315650993747
 20
263.2371963685901
 30
0.0
 11
36.81315387033735
 21
263.2370905702904
 31
0.0
  0
SPLINE
  5
18E
330
70
100
AcDbEntity
  8
RACCORDO
 62
   250
420
  3355443
370
    25
100
AcDbSpline
210
0.0
220
0.0
230
1.0
 70
     8
 71
     3
 72
     8
 73
     4
 74
     0
 42
0.0000000001
 43
0.0000000001
 40
0.0
 40
0.0
 40
0.0
 40
0.0
 40
1.0
 40
1.0
 40
1.0
 40
1.0
 10
-42.36579617041985
 20
324.5668112173293
 30
0.0
 10
-42.36010626076869
 20
324.5721378766282
 30
0.0
 10
-42.35452225751907
 20
324.5775765492174
 30
0.0
 10
-42.34904743642043
 20
324.5831240446034
 30
0.0
  0
SPLINE
  5
18F
330
70
100
AcDbEntity
  8
RACCORDO
 62
   250
420
  3355443
370
    25
100
AcDbSpline
210
0.0
220
0.0
230
1.0
 70
     8
 71
     3
 72
     8
 73
     4
 74
     0
 42
0.0000000001
 43
0.0000000001
 40
0.0
 40
0.0
 40
0.0
 40
0.0
 40
1.0
 40
1.0
 40
1.0
 40
1.0
 10
-42.34904743645091
 20
324.5831240445566
 30
0.0
 10
-42.34372939485409
 20
324.5885125966233
 30
0.0
 10
-42.33852223834339
 20
324.5940094679345
 30
0.0
 10
-42.33342924051981
 20
324.5996112027522
 30
0.0
  0
SPLINE
  5
190
330
70
100
AcDbEntity
  8
RACCORDO
 62
    18
420
        0
370
    25
100
AcDbSpline
210
0.0
220
0.0
230
1.0
 70
     8
 71
     3
 72
     8
 73
     4
 74
     0
 42
0.0000000001
 43
0.0000000001
 40
0.0
 40
0.0
 40
0.0
 40
0.0
 40
1.0
 40
1.0
 40
1.0
 40
1.0
 10
-7.190342460562645
 20
279.30846510539
 30
0.0
 10
-7.190291853962534
 20
279.3106553295901
 30
0.0
 10
-7.192096814262541
 20
279.31314963849
 30
0.0
 10
-7.194191069762454
 20
279.3137928624899
 30
0.0
  0
SPLINE
  5
191
330
70
100
AcDbEntity
  8
RACCORDO
 62
    18
420
        0
370
    25
100
AcDbSpline
210
0.0
220
0.0
230
1.0
 70
     8
 71
     3
 72
     8
 73
     4
 74
     0
 42
0.0000000001
 43
0.0000000001
 40
0.0
 40
0.0
 40
0.0
 40
0.0
 40
1.0
 40
1.0
 40
1.0
 40
1.0
 10
12.84972313713725
 20
273.1543551075901
 30
0.0
 10
12.84977374373736
 20
273.1565453318903
 30
0.0
 10
12.84796878333725
 20
273.1590396406901
 30
0.0
 10
12.84587452783766
 20
273.1596828646901
 30
0.0
  0
SPLINE
  5
192
330
70
100
AcDbEntity
  8
RACCORDO
 62
    18
420
        0
370
    25
100
AcDbSpline
210
0.0
220
0.0
230
1.0
 70
     8
 71
     3
 72
    11
 73
     7
 74
     0
 42
0.0000000001
 43
0.0000000001
 40
0.0
 40
0.0
 40
0.0
 40
0.0
 40
1.0
 40
1.0
 40
1.0
 40
2.0
 40
2.0
 40
2.0
 40
2.0
 10
-7.225557607862501
 20
278.5413352086899
 30
0.0
 10
-7.223657025662471
 20
278.5439257024902
 30
0.0
 10
-7.221941486527878
 20
278.5466522528509
 30
0.0
 10
-7.220394533696062
 20
278.5494745269197
 30
0.0
 10
-7.215394186026394
 20
278.5585972042729
 30
0.0
 10
-7.21215528116259
 20
278.5687200330905
 30
0.0
 10
-7.210226018562488
 20
278.5789246668902
 30
0.0
  0
SPLINE
  5
193
330
70
100
AcDbEntity
  8
RACCORDO
 62
    18
420
        0
370
    25
100
AcDbSpline
210
0.0
220
0.0
230
1.0
 70
     8
 71
     3
 72
     8
 73
     4
 74
     0
 42
0.0000000001
 43
0.0000000001
 40
0.0
 40
0.0
 40
0.0
 40
0.0
 40
1.0
 40
1.0
 40
1.0
 40
1.0
 10
-7.210226018562488
 20
278.5789246668902
 30
0.0
 10
-7.208761465362632
 20
278.58667126849
 30
0.0
 10
-7.208034677462444
 20
278.59457423869
 30
0.0
 10
-7.207842242662563
 20
278.6024557183905
 30
0.0
  0
SPLINE
  5
194
330
70
100
AcDbEntity
  8
RACCORDO
 62
    18
420
        0
370
    25
100
AcDbSpline
210
0.0
220
0.0
230
1.0
 70
     8
 71
     3
 72
     8
 73
     4
 74
     0
 42
0.0000000001
 43
0.0000000001
 40
0.0
 40
0.0
 40
0.0
 40
0.0
 40
1.0
 40
1.0
 40
1.0
 40
1.0
 10
-12.43547010846272
 20
280.8862362912904
 30
0.0
 10
-12.42639145396253
 20
280.8942662672901
 30
0.0
 10
-12.41449024156268
 20
280.8995574440905
 30
0.0
 10
-12.40256052636259
 20
280.9016985597902
 30
0.0
  0
SPLINE
  5
195
330
70
100
AcDbEntity
  8
RACCORDO
 62
    18
420
        0
370
    25
100
AcDbSpline
210
0.0
220
0.0
230
1.0
 70
     8
 71
     3
 72
    11
 73
     7
 74
     0
 42
0.0000000001
 43
0.0000000001
 40
0.0
 40
0.0
 40
0.0
 40
0.0
 40
1.0
 40
1.0
 40
1.0
 40
2.0
 40
2.0
 40
2.0
 40
2.0
 10
-12.40256052636259
 20
280.9016985597902
 30
0.0
 10
-12.39833947886258
 20
280.9024561428902
 30
0.0
 10
-12.39405380774051
 20
280.9028627539406
 30
0.0
 10
-12.38975924191383
 20
280.9029821815358
 30
0.0
 10
-12.37590523025138
 20
280.9033674477922
 30
0.0
 10
-12.36195865416248
 20
280.9007640851906
 30
0.0
 10
-12.34873372986246
 20
280.8967029763903
 30
0.0
  0
SPLINE
  5
196
330
70
100
AcDbEntity
  8
RACCORDO
 62
    18
420
        0
370
    25
100
AcDbSpline
210
0.0
220
0.0
230
1.0
 70
     8
 71
     3
 72
    11
 73
     7
 74
     0
 42
0.0000000001
 43
0.0000000001
 40
0.0
 40
0.0
 40
0.0
 40
0.0
 40
1.0
 40
1.0
 40
1.0
 40
2.0
 40
2.0
 40
2.0
 40
2.0
 10
12.81450798973729
 20
272.3872252109901
 30
0.0
 10
12.81640857193732
 20
272.3898157046904
 30
0.0
 10
12.81812411109566
 20
272.3925422550741
 30
0.0
 10
12.81967106394544
 20
272.3953645291558
 30
0.0
 10
12.82467141167318
 20
272.4044872065487
 30
0.0
 10
12.82791031653731
 20
272.41461003529
 30
0.0
 10
12.82983957913773
 20
272.4248146690903
 30
0.0
  0
SPLINE
  5
197
330
70
100
AcDbEntity
  8
RACCORDO
 62
    18
420
        0
370
    25
100
AcDbSpline
210
0.0
220
0.0
230
1.0
 70
     8
 71
     3
 72
     8
 73
     4
 74
     0
 42
0.0000000001
 43
0.0000000001
 40
0.0
 40
0.0
 40
0.0
 40
0.0
 40
1.0
 40
1.0
 40
1.0
 40
1.0
 10
12.82983957913773
 20
272.4248146690903
 30
0.0
 10
12.83130413233727
 20
272.4325612706901
 30
0.0
 10
12.83203092023745
 20
272.4404642409902
 30
0.0
 10
12.83222335503733
 20
272.44834572059
 30
0.0
  0
SPLINE
  5
198
330
70
100
AcDbEntity
  8
RACCORDO
 62
    18
420
        0
370
    25
100
AcDbSpline
210
0.0
220
0.0
230
1.0
 70
     8
 71
     3
 72
     8
 73
     4
 74
     0
 42
0.0000000001
 43
0.0000000001
 40
0.0
 40
0.0
 40
0.0
 40
0.0
 40
1.0
 40
1.0
 40
1.0
 40
1.0
 10
7.604595489237179
 20
274.73212629359
 30
0.0
 10
7.613674143737684
 20
274.7401562695903
 30
0.0
 10
7.625575356037434
 20
274.74544744629
 30
0.0
 10
7.637505071237205
 20
274.7475885620904
 30
0.0
  0
SPLINE
  5
199
330
70
100
AcDbEntity
  8
RACCORDO
 62
    18
420
        0
370
    25
100
AcDbSpline
210
0.0
220
0.0
230
1.0
 70
     8
 71
     3
 72
    11
 73
     7
 74
     0
 42
0.0000000001
 43
0.0000000001
 40
0.0
 40
0.0
 40
0.0
 40
0.0
 40
1.0
 40
1.0
 40
1.0
 40
2.0
 40
2.0
 40
2.0
 40
2.0
 10
7.637505071237205
 20
274.7475885620904
 30
0.0
 10
7.641726118737215
 20
274.7483461451904
 30
0.0
 10
7.646011789883351
 20
274.7487527562171
 30
0.0
 10
7.650306355722543
 20
274.7488721838001
 30
0.0
 10
7.664160367424779
 20
274.7492574500161
 30
0.0
 10
7.678106943437637
 20
274.7466540874901
 30
0.0
 10
7.691331867837117
 20
274.7425929785904
 30
0.0
  0
SPLINE
  5
19A
330
70
100
AcDbEntity
  8
RACCORDO
 62
   250
420
  3355443
370
    25
100
AcDbSpline
210
0.0
220
0.0
230
1.0
 70
     8
 71
     3
 72
    23
 73
    19
 74
     0
 42
0.0000000001
 43
0.0000000001
 40
0.0
 40
0.0
 40
0.0
 40
0.0
 40
1.0
 40
1.0
 40
1.0
 40
2.0
 40
2.0
 40
2.0
 40
3.0
 40
3.0
 40
3.0
 40
4.0
 40
4.0
 40
4.0
 40
5.0
 40
5.0
 40
5.0
 40
6.0
 40
6.0
 40
6.0
 40
6.0
 10
36.81315831633759
 20
263.2370897463899
 30
0.0
 10
36.81212459163756
 20
263.1951620166903
 30
0.0
 10
36.81963378936436
 20
263.1526913516978
 30
0.0
 10
36.83393473708534
 20
263.1129955551316
 30
0.0
 10
36.84951792202016
 20
263.0697405939159
 30
0.0
 10
36.87316536660107
 20
263.0297804034874
 30
0.0
 10
36.90139894317634
 20
262.9936400882916
 30
0.0
 10
36.93341484055799
 20
262.9526582233277
 30
0.0
 10
36.97132794143278
 20
262.9165882496039
 30
0.0
 10
37.01232971834479
 20
262.8847126393786
 30
0.0
 10
37.05871819735587
 20
262.8486492980488
 30
0.0
 10
37.10906022666269
 20
262.8179548030636
 30
0.0
 10
37.16143835035861
 20
262.7914087002949
 30
0.0
 10
37.28116664040694
 20
262.7307284149455
 30
0.0
 10
37.41153370469726
 20
262.6917238478267
 30
0.0
 10
37.54426417109218
 20
262.6685125439308
 30
0.0
 10
37.68751162529253
 20
262.6434620767538
 30
0.0
 10
37.83351185123755
 20
262.6368068071904
 30
0.0
 10
37.97771123023757
 20
262.6481165865904
 30
0.0
  0
SPLINE
  5
19B
330
70
100
AcDbEntity
  8
RACCORDO
 62
   250
420
  3355443
370
    25
100
AcDbSpline
210
0.0
220
0.0
230
1.0
 70
     8
 71
     3
 72
    23
 73
    19
 74
     0
 42
0.0000000001
 43
0.0000000001
 40
0.0
 40
0.0
 40
0.0
 40
0.0
 40
1.0
 40
1.0
 40
1.0
 40
2.0
 40
2.0
 40
2.0
 40
3.0
 40
3.0
 40
3.0
 40
4.0
 40
4.0
 40
4.0
 40
5.0
 40
5.0
 40
5.0
 40
6.0
 40
6.0
 40
6.0
 40
6.0
 10
37.71781071133723
 20
299.7342906436904
 30
0.0
 10
37.71679018523715
 20
299.6923650450903
 30
0.0
 10
37.72431134741815
 20
299.6498994855447
 30
0.0
 10
37.73862137594929
 20
299.610209654578
 30
0.0
 10
37.75421494590843
 20
299.56695983474
 30
0.0
 10
37.77786985822791
 20
299.5270060141477
 30
0.0
 10
37.80610885047227
 20
299.4908716085861
 30
0.0
 10
37.83813083951317
 20
299.4498965083111
 30
0.0
 10
37.87604737510646
 20
299.4138326923224
 30
0.0
 10
37.91705143072127
 20
299.381962536689
 30
0.0
 10
37.96344152561845
 20
299.3459061144142
 30
0.0
 10
38.0137835271596
 20
299.3152174157828
 30
0.0
 10
38.06616092581196
 20
299.2886763486453
 30
0.0
 10
38.18588402539548
 20
299.2280093643021
 30
0.0
 10
38.31624162820628
 20
299.1890128442991
 30
0.0
 10
38.44896200766406
 20
299.1658068876875
 30
0.0
 10
38.5921955807219
 20
299.1407627151552
 30
0.0
 10
38.73818108193724
 20
299.1341098264903
 30
0.0
 10
38.88236607363732
 20
299.1454184562903
 30
0.0
  0
SPLINE
  5
19C
330
70
100
AcDbEntity
  8
RACCORDO
 62
   250
420
  3355443
370
    25
100
AcDbSpline
210
0.0
220
0.0
230
1.0
 70
     8
 71
     3
 72
    29
 73
    25
 74
     0
 42
0.0000000001
 43
0.0000000001
 40
0.0
 40
0.0
 40
0.0
 40
0.0
 40
1.0
 40
1.0
 40
1.0
 40
2.0
 40
2.0
 40
2.0
 40
3.0
 40
3.0
 40
3.0
 40
4.0
 40
4.0
 40
4.0
 40
5.0
 40
5.0
 40
5.0
 40
6.0
 40
6.0
 40
6.0
 40
7.0
 40
7.0
 40
7.0
 40
8.0
 40
8.0
 40
8.0
 40
8.0
 10
36.64886382743759
 20
263.3212787000905
 30
0.0
 10
36.6017845816371
 20
263.2695047652902
 30
0.0
 10
36.5607610579579
 20
263.2122676330062
 30
0.0
 10
36.52355878837563
 20
263.1528399617259
 30
0.0
 10
36.47961613476088
 20
263.0826450622336
 30
0.0
 10
36.44100486074176
 20
263.0093939422918
 30
0.0
 10
36.40630820177836
 20
262.9343393846984
 30
0.0
 10
36.36838081858494
 20
262.8522962413157
 30
0.0
 10
36.33513099689089
 20
262.768098175825
 30
0.0
 10
36.30607375507423
 20
262.6824911975617
 30
0.0
 10
36.27644351784132
 20
262.5951960891427
 30
0.0
 10
36.25117284229905
 20
262.5064359538598
 30
0.0
 10
36.23054715666081
 20
262.4166030206325
 30
0.0
 10
36.21088962533808
 20
262.3309867783558
 30
0.0
 10
36.19545125346612
 20
262.2443960871182
 30
0.0
 10
36.18551105456104
 20
262.1570486326526
 30
0.0
 10
36.17669678421401
 20
262.0795950439368
 30
0.0
 10
36.17220567061328
 20
262.0015464200929
 30
0.0
 10
36.17442142303728
 20
261.9237184923345
 30
0.0
 10
36.17623030353704
 20
261.8601818718611
 30
0.0
 10
36.18250907489011
 20
261.7967923375841
 30
0.0
 10
36.19812033378636
 20
261.7344973464152
 30
0.0
 10
36.20977779954358
 20
261.6879795267324
 30
0.0
 10
36.22663917633744
 20
261.6420720378899
 30
0.0
 10
36.25480309413721
 20
261.60386291519
 30
0.0
  0
SPLINE
  5
19D
330
70
100
AcDbEntity
  8
RACCORDO
 62
   250
420
  3355443
370
    25
100
AcDbSpline
210
0.0
220
0.0
230
1.0
 70
     8
 71
     3
 72
    29
 73
    25
 74
     0
 42
0.0000000001
 43
0.0000000001
 40
0.0
 40
0.0
 40
0.0
 40
0.0
 40
1.0
 40
1.0
 40
1.0
 40
2.0
 40
2.0
 40
2.0
 40
3.0
 40
3.0
 40
3.0
 40
4.0
 40
4.0
 40
4.0
 40
5.0
 40
5.0
 40
5.0
 40
6.0
 40
6.0
 40
6.0
 40
7.0
 40
7.0
 40
7.0
 40
8.0
 40
8.0
 40
8.0
 40
8.0
 10
-42.97704477656249
 20
287.7736238250905
 30
0.0
 10
-43.02409451196242
 20
287.7218310920903
 30
0.0
 10
-43.06510351487983
 20
287.664593713813
 30
0.0
 10
-43.10229892198018
 20
287.6051694331593
 30
0.0
 10
-43.14623732310159
 20
287.534972382414
 30
0.0
 10
-43.18485409602972
 20
287.4617236497646
 30
0.0
 10
-43.21955285564113
 20
287.3866698486907
 30
0.0
 10
-43.25748242743158
 20
287.3046277651151
 30
0.0
 10
-43.29073040372368
 20
287.2204288230693
 30
0.0
 10
-43.31978694828588
 20
287.1348215155764
 30
0.0
 10
-43.34941647737953
 20
287.0475260629951
 30
0.0
 10
-43.3746876378159
 20
286.9587661523915
 30
0.0
 10
-43.3953134976119
 20
286.8689332919238
 30
0.0
 10
-43.41497119398026
 20
286.7833171230742
 30
0.0
 10
-43.43040944905113
 20
286.6967263673633
 30
0.0
 10
-43.44034960406463
 20
286.6093788869692
 30
0.0
 10
-43.44916383507519
 20
286.5319252789189
 30
0.0
 10
-43.45365496707535
 20
286.4538766661039
 30
0.0
 10
-43.45143921492344
 20
286.3760487411568
 30
0.0
 10
-43.44963033479908
 20
286.3125121283492
 30
0.0
 10
-43.44335155249573
 20
286.249122596236
 30
0.0
 10
-43.42774027673018
 20
286.1868276112318
 30
0.0
 10
-43.41608279885255
 20
286.1403097980508
 30
0.0
 10
-43.3992214070625
 20
286.0944023178905
 30
0.0
 10
-43.37105746676251
 20
286.0561932180902
 30
0.0
  0
SPLINE
  5
19E
330
70
100
AcDbEntity
  8
RACCORDO
 62
   250
420
  3355443
370
    25
100
AcDbSpline
210
0.0
220
0.0
230
1.0
 70
     8
 71
     3
 72
    29
 73
    25
 74
     0
 42
0.0000000001
 43
0.0000000001
 40
0.0
 40
0.0
 40
0.0
 40
0.0
 40
1.0
 40
1.0
 40
1.0
 40
2.0
 40
2.0
 40
2.0
 40
3.0
 40
3.0
 40
3.0
 40
4.0
 40
4.0
 40
4.0
 40
5.0
 40
5.0
 40
5.0
 40
6.0
 40
6.0
 40
6.0
 40
7.0
 40
7.0
 40
7.0
 40
8.0
 40
8.0
 40
8.0
 40
8.0
 10
-43.23808515516263
 20
288.1022672831903
 30
0.0
 10
-43.28328373966262
 20
288.0525615467901
 30
0.0
 10
-43.33764471093361
 20
288.0111378177723
 30
0.0
 10
-43.395578036291
 20
287.9764970845223
 30
0.0
 10
-43.46267168120037
 20
287.9363790170408
 30
0.0
 10
-43.53455670323847
 20
287.9053585613864
 30
0.0
 10
-43.60855115943573
 20
287.8809647780245
 30
0.0
 10
-43.69064166964951
 20
287.8539019651451
 30
0.0
 10
-43.77532847176547
 20
287.8349952615878
 30
0.0
 10
-43.86090973499029
 20
287.8228783615327
 30
0.0
 10
-43.95117039922273
 20
287.8100989352173
 30
0.0
 10
-44.04242601315932
 20
287.8048721156296
 30
0.0
 10
-44.13354356424108
 20
287.8066476852845
 30
0.0
 10
-44.22481966135795
 20
287.8084263444598
 30
0.0
 10
-44.31595721473875
 20
287.8172317826229
 30
0.0
 10
-44.40581493009907
 20
287.833494542156
 30
0.0
 10
-44.49131036795755
 20
287.8489678016467
 30
0.0
 10
-44.57564721483207
 20
287.8711919039523
 30
0.0
 10
-44.65711343799265
 20
287.9013935183508
 30
0.0
 10
-44.73078847488773
 20
287.9287067405531
 30
0.0
 10
-44.80211570784304
 20
287.9625445498102
 30
0.0
 10
-44.86840935202468
 20
288.0051916965308
 30
0.0
 10
-44.92578621535439
 20
288.042102618219
 30
0.0
 10
-44.97939250396271
 20
288.0856124629901
 30
0.0
 10
-45.02373444196273
 20
288.1370564127904
 30
0.0
  0
SPLINE
  5
19F
330
70
100
AcDbEntity
  8
RACCORDO
 62
   250
420
  3355443
370
    25
100
AcDbSpline
210
0.0
220
0.0
230
1.0
 70
     8
 71
     3
 72
    29
 73
    25
 74
     0
 42
0.0000000001
 43
0.0000000001
 40
0.0
 40
0.0
 40
0.0
 40
0.0
 40
1.0
 40
1.0
 40
1.0
 40
2.0
 40
2.0
 40
2.0
 40
3.0
 40
3.0
 40
3.0
 40
4.0
 40
4.0
 40
4.0
 40
5.0
 40
5.0
 40
5.0
 40
6.0
 40
6.0
 40
6.0
 40
7.0
 40
7.0
 40
7.0
 40
8.0
 40
8.0
 40
8.0
 40
8.0
 10
-42.36579617046253
 20
324.5668112172903
 30
0.0
 10
-42.41511915506263
 20
324.5206180212904
 30
0.0
 10
-42.47204208617506
 20
324.4824625082461
 30
0.0
 10
-42.53198488508245
 20
324.4507059865418
 30
0.0
 10
-42.60056770527078
 20
324.4143721506595
 30
0.0
 10
-42.67310368712168
 20
324.3864149222847
 30
0.0
 10
-42.74741538597893
 20
324.3647377106241
 30
0.0
 10
-42.82888675059393
 20
324.3409719773383
 30
0.0
 10
-42.91249248347686
 20
324.3247546700381
 30
0.0
 10
-42.99679369144072
 20
324.3149606430594
 30
0.0
 10
-43.08489196838126
 20
324.3047254765422
 30
0.0
 10
-43.17374978209826
 20
324.3015052524194
 30
0.0
 10
-43.26235559918623
 20
324.3049201450319
 30
0.0
 10
-43.35057473126037
 20
324.3083201346976
 30
0.0
 10
-43.43854406138521
 20
324.3182974547861
 30
0.0
 10
-43.5251939342099
 20
324.3353318651029
 30
0.0
 10
-43.60738816735345
 20
324.3514903457493
 30
0.0
 10
-43.6883951505008
 20
324.3739988085784
 30
0.0
 10
-43.76659348452703
 20
324.404036705387
 30
0.0
 10
-43.83732359028003
 20
324.4312058726631
 30
0.0
 10
-43.90575590198321
 20
324.464534972294
 30
0.0
 10
-43.96935963549711
 20
324.5061259625221
 30
0.0
 10
-44.02458963088212
 20
324.5422412983912
 30
0.0
 10
-44.07617876556271
 20
324.5845862926904
 30
0.0
 10
-44.11907958486271
 20
324.6343582976902
 30
0.0
  0
SPLINE
  5
1A0
330
70
100
AcDbEntity
  8
RACCORDO
 62
   250
420
  3355443
370
    25
100
AcDbSpline
210
0.0
220
0.0
230
1.0
 70
     8
 71
     3
 72
    26
 73
    22
 74
     0
 42
0.0000000001
 43
0.0000000001
 40
0.0
 40
0.0
 40
0.0
 40
0.0
 40
1.0
 40
1.0
 40
1.0
 40
2.0
 40
2.0
 40
2.0
 40
3.0
 40
3.0
 40
3.0
 40
4.0
 40
4.0
 40
4.0
 40
5.0
 40
5.0
 40
5.0
 40
6.0
 40
6.0
 40
6.0
 40
7.0
 40
7.0
 40
7.0
 40
7.0
 10
-42.33330131886258
 20
324.6301902488903
 30
0.0
 10
-42.35659439226253
 20
324.6373474430903
 30
0.0
 10
-42.37782975614787
 20
324.6516396010735
 30
0.0
 10
-42.39516988764039
 20
324.6691314154705
 30
0.0
 10
-42.41611362689285
 20
324.6902583602075
 30
0.0
 10
-42.43137489754221
 20
324.7160530488117
 30
0.0
 10
-42.44348809064248
 20
324.7430334886961
 30
0.0
 10
-42.45872153676107
 20
324.7769638548549
 30
0.0
 10
-42.4689761853808
 20
324.8127695291715
 30
0.0
 10
-42.47641276150624
 20
324.8490800857021
 30
0.0
 10
-42.48546274593129
 20
324.8932684279584
 30
0.0
 10
-42.49033921737651
 20
324.9382044913888
 30
0.0
 10
-42.49268898371536
 20
324.9832272401724
 30
0.0
 10
-42.49542142822994
 20
325.0355823024279
 30
0.0
 10
-42.49473716442052
 20
325.0880545839692
 30
0.0
 10
-42.49169560686691
 20
325.1403622059987
 30
0.0
 10
-42.4883067989132
 20
325.1986417165605
 30
0.0
 10
-42.48199171323364
 20
325.2567168234655
 30
0.0
 10
-42.47347185770134
 20
325.3144895210182
 30
0.0
 10
-42.45489141512909
 20
325.4404825364009
 30
0.0
 10
-42.42582494706247
 20
325.5650372736901
 30
0.0
 10
-42.38873810766252
 20
325.6867865545901
 30
0.0
  0
SPLINE
  5
1A1
330
70
100
AcDbEntity
  8
RACCORDO
 62
   250
420
  3355443
370
    25
100
AcDbSpline
210
0.0
220
0.0
230
1.0
 70
     8
 71
     3
 72
    17
 73
    13
 74
     0
 42
0.0000000001
 43
0.0000000001
 40
0.0
 40
0.0
 40
0.0
 40
0.0
 40
1.0
 40
1.0
 40
1.0
 40
2.0
 40
2.0
 40
2.0
 40
3.0
 40
3.0
 40
3.0
 40
4.0
 40
4.0
 40
4.0
 40
4.0
 10
38.41546093473731
 20
280.8956872246902
 30
0.0
 10
38.45397583753739
 20
282.4164459479904
 30
0.0
 10
38.49247063455513
 20
283.9372051191002
 30
0.0
 10
38.53095844426798
 20
285.4579645894561
 30
0.0
 10
38.56944630963666
 20
286.9787262588934
 30
0.0
 10
38.6079271876799
 20
288.4994882275781
 30
0.0
 10
38.64648826316688
 20
290.0202477376462
 30
0.0
 10
38.68504965512571
 20
291.5410197286214
 30
0.0
 10
38.72369124584376
 20
293.0617892609401
 30
0.0
 10
38.76236013495937
 20
294.5825596783088
 30
0.0
 10
38.80103263539996
 20
296.1034721218915
 30
0.0
 10
38.83973243933768
 20
297.6243854506903
 30
0.0
 10
38.88235826083729
 20
299.1451913186903
 30
0.0
  0
SPLINE
  5
1A2
330
70
100
AcDbEntity
  8
RACCORDO
 62
   250
420
  3355443
370
    25
100
AcDbSpline
210
0.0
220
0.0
230
1.0
 70
     8
 71
     3
 72
    17
 73
    13
 74
     0
 42
0.0000000001
 43
0.0000000001
 40
0.0
 40
0.0
 40
0.0
 40
0.0
 40
1.0
 40
1.0
 40
1.0
 40
2.0
 40
2.0
 40
2.0
 40
3.0
 40
3.0
 40
3.0
 40
4.0
 40
4.0
 40
4.0
 40
4.0
 10
40.19307212283755
 20
280.7056871484904
 30
0.0
 10
40.23110226453744
 20
282.2261824550902
 30
0.0
 10
40.26918986109452
 20
283.7466761552118
 30
0.0
 10
40.30722895158527
 20
285.2671714073665
 30
0.0
 10
40.34526884523745
 20
286.7876987634105
 30
0.0
 10
40.38326023077436
 20
288.3082276715531
 30
0.0
 10
40.42118635588408
 20
289.828757024542
 30
0.0
 10
40.45911828473297
 20
291.3495190602938
 30
0.0
 10
40.49698493317921
 20
292.8702815410287
 30
0.0
 10
40.53437849579975
 20
294.3910601758227
 30
0.0
 10
40.57183832940346
 20
295.9145340203725
 30
0.0
 10
40.60882339883751
 20
297.4380240762902
 30
0.0
 10
40.63936694713734
 20
298.9616496797903
 30
0.0
  0
SPLINE
  5
1A3
330
70
100
AcDbEntity
  8
RACCORDO
 62
   250
420
  3355443
370
    25
100
AcDbSpline
210
0.0
220
0.0
230
1.0
 70
     8
 71
     3
 72
    29
 73
    25
 74
     0
 42
0.0000000001
 43
0.0000000001
 40
0.0
 40
0.0
 40
0.0
 40
0.0
 40
1.0
 40
1.0
 40
1.0
 40
2.0
 40
2.0
 40
2.0
 40
3.0
 40
3.0
 40
3.0
 40
4.0
 40
4.0
 40
4.0
 40
5.0
 40
5.0
 40
5.0
 40
6.0
 40
6.0
 40
6.0
 40
7.0
 40
7.0
 40
7.0
 40
8.0
 40
8.0
 40
8.0
 40
8.0
 10
38.88236607363732
 20
299.1454184562903
 30
0.0
 10
38.88563831193728
 20
299.2506510053902
 30
0.0
 10
38.87700073288365
 20
299.3565023550997
 30
0.0
 10
38.85848891727078
 20
299.460364886497
 30
0.0
 10
38.83886997149867
 20
299.5704390906623
 30
0.0
 10
38.80816038008411
 20
299.6782794736087
 30
0.0
 10
38.76912492966799
 20
299.7829560715991
 30
0.0
 10
38.7281217316493
 20
299.8929093379127
 30
0.0
 10
38.67793211731482
 20
299.9993718117769
 30
0.0
 10
38.62008090266664
 20
300.1014186552468
 30
0.0
 10
38.56015801555723
 20
300.2071198322793
 30
0.0
 10
38.49201497380502
 20
300.3080834658225
 30
0.0
 10
38.41730642805854
 20
300.4039550094808
 30
0.0
 10
38.34116703115697
 20
300.5016627274031
 30
0.0
 10
38.25820823104837
 20
300.5940814356591
 30
0.0
 10
38.1684733155615
 20
300.6793773243429
 30
0.0
 10
38.0785843146859
 20
300.7648196760845
 30
0.0
 10
37.98189590768177
 20
300.8431147258173
 30
0.0
 10
37.88030992701115
 20
300.9143470885498
 30
0.0
 10
37.7802720147071
 20
300.9844939415822
 30
0.0
 10
37.675484659601
 20
301.0477917239873
 30
0.0
 10
37.56616983129099
 20
301.1024520705083
 30
0.0
 10
37.46032242848203
 20
301.1553786112652
 30
0.0
 10
37.35023021673719
 20
301.2002069781903
 30
0.0
 10
37.2371225841374
 20
301.2344563963901
 30
0.0
  0
SPLINE
  5
1A4
330
70
100
AcDbEntity
  8
RACCORDO
 62
   250
420
  3355443
370
    25
100
AcDbSpline
210
0.0
220
0.0
230
1.0
 70
     8
 71
     3
 72
    26
 73
    22
 74
     0
 42
0.0000000001
 43
0.0000000001
 40
0.0
 40
0.0
 40
0.0
 40
0.0
 40
1.0
 40
1.0
 40
1.0
 40
2.0
 40
2.0
 40
2.0
 40
3.0
 40
3.0
 40
3.0
 40
4.0
 40
4.0
 40
4.0
 40
5.0
 40
5.0
 40
5.0
 40
6.0
 40
6.0
 40
6.0
 40
7.0
 40
7.0
 40
7.0
 40
7.0
 10
37.29250184693754
 20
300.1778775311901
 30
0.0
 10
37.26921238043774
 20
300.1850451969902
 30
0.0
 10
37.24798401882879
 20
300.1993457746328
 30
0.0
 10
37.23064986538046
 20
300.2168429583499
 30
0.0
 10
37.20971191570517
 20
300.2379778325288
 30
0.0
 10
37.19445571696706
 20
300.2637766380675
 30
0.0
 10
37.18234666178731
 20
300.290760444597
 30
0.0
 10
37.16711890507573
 20
300.3246939625228
 30
0.0
 10
37.15686815129772
 20
300.360501482476
 30
0.0
 10
37.14943482052796
 20
300.396813498332
 30
0.0
 10
37.14038918146806
 20
300.4410016824889
 30
0.0
 10
37.13551572828411
 20
300.4859369503015
 30
0.0
 10
37.13316841168974
 20
300.5309587824122
 30
0.0
 10
37.13043891106897
 20
300.5833109529748
 30
0.0
 10
37.13112511175774
 20
300.6357801709638
 30
0.0
 10
37.13416810556374
 20
300.688084694981
 30
0.0
 10
37.13755843131663
 20
300.7463593370151
 30
0.0
 10
37.14387427107503
 20
300.8044295425561
 30
0.0
 10
37.15239443354513
 20
300.8621973636405
 30
0.0
 10
37.17097519929564
 20
300.9881773969132
 30
0.0
 10
37.20003947323731
 20
301.1127193240903
 30
0.0
 10
37.2371225841374
 20
301.2344563963901
 30
0.0
  0
SPLINE
  5
1A5
330
70
100
AcDbEntity
  8
RACCORDO
 62
   250
420
  3355443
370
    25
100
AcDbSpline
210
0.0
220
0.0
230
1.0
 70
     8
 71
     3
 72
    11
 73
     7
 74
     0
 42
0.0000000001
 43
0.0000000001
 40
0.0
 40
0.0
 40
0.0
 40
0.0
 40
1.0
 40
1.0
 40
1.0
 40
2.0
 40
2.0
 40
2.0
 40
2.0
 10
40.63936498213745
 20
298.9616473657902
 30
0.0
 10
40.35919757323728
 20
299.0440151872901
 30
0.0
 10
40.07054252508018
 20
299.0988575103811
 30
0.0
 10
39.77947390934985
 20
299.1292524312158
 30
0.0
 10
39.48136729299026
 20
299.1603822972165
 30
0.0
 10
39.18072897843744
 20
299.1658681974903
 30
0.0
 10
38.88235904563714
 20
299.1451918732902
 30
0.0
  0
SPLINE
  5
1A6
330
70
100
AcDbEntity
  8
RACCORDO
 62
   250
420
  3355443
370
    25
100
AcDbSpline
210
0.0
220
0.0
230
1.0
 70
     8
 71
     3
 72
    53
 73
    49
 74
     0
 42
0.0000000001
 43
0.0000000001
 40
0.0
 40
0.0
 40
0.0
 40
0.0
 40
1.0
 40
1.0
 40
1.0
 40
2.0
 40
2.0
 40
2.0
 40
3.0
 40
3.0
 40
3.0
 40
4.0
 40
4.0
 40
4.0
 40
5.0
 40
5.0
 40
5.0
 40
6.0
 40
6.0
 40
6.0
 40
7.0
 40
7.0
 40
7.0
 40
8.0
 40
8.0
 40
8.0
 40
9.0
 40
9.0
 40
9.0
 40
10.0
 40
10.0
 40
10.0
 40
11.0
 40
11.0
 40
11.0
 40
12.0
 40
12.0
 40
12.0
 40
13.0
 40
13.0
 40
13.0
 40
14.0
 40
14.0
 40
14.0
 40
15.0
 40
15.0
 40
15.0
 40
16.0
 40
16.0
 40
16.0
 40
16.0
 10
40.63936498213745
 20
298.9616473657902
 30
0.0
 10
40.64125968203768
 20
299.0590505206902
 30
0.0
 10
40.63810835031376
 20
299.1566595381789
 30
0.0
 10
40.62951332858
 20
299.2537460222241
 30
0.0
 10
40.62066053719685
 20
299.3537441858127
 30
0.0
 10
40.60603264076656
 20
299.4531880038151
 30
0.0
 10
40.58717145072624
 20
299.5517832426571
 30
0.0
 10
40.56780454834632
 20
299.653022048992
 30
0.0
 10
40.54397430015775
 20
299.7533661613632
 30
0.0
 10
40.51642838541805
 20
299.8526802303289
 30
0.0
 10
40.48821056088001
 20
299.9544168035636
 30
0.0
 10
40.45609359128454
 20
300.0550724701564
 30
0.0
 10
40.41956913865662
 20
300.1541429613948
 30
0.0
 10
40.34375728876592
 20
300.359778273355
 30
0.0
 10
40.24895664392388
 20
300.558584161458
 30
0.0
 10
40.13916666066233
 20
300.7485601973501
 30
0.0
 10
40.02523788035087
 20
300.9456978360898
 30
0.0
 10
39.89516834215148
 20
301.1333273496047
 30
0.0
 10
39.75167606070721
 20
301.3097995669369
 30
0.0
 10
39.67873083002557
 20
301.3995103616413
 30
0.0
 10
39.60231680936677
 20
301.4863378174882
 30
0.0
 10
39.52280444695706
 20
301.5702258216058
 30
0.0
 10
39.44299899845166
 20
301.654423040629
 30
0.0
 10
39.36007232484761
 20
301.7356590980857
 30
0.0
 10
39.27509988612781
 20
301.814631812434
 30
0.0
 10
39.23259926533615
 20
301.8541315541851
 30
0.0
 10
39.18958685648353
 20
301.8930650764947
 30
0.0
 10
39.14599261983891
 20
301.9313571301355
 30
0.0
 10
39.10243424168442
 20
301.9696176866032
 30
0.0
 10
39.05829499251119
 20
302.0072378292498
 30
0.0
 10
39.01303803640832
 20
302.0434586438852
 30
0.0
 10
38.96788978682046
 20
302.0795924566792
 30
0.0
 10
38.92162919328407
 20
302.1143336557175
 30
0.0
 10
38.87491796692643
 20
302.148441508504
 30
0.0
 10
38.82837026571874
 20
302.182429957623
 30
0.0
 10
38.7813750812873
 20
302.2157894871244
 30
0.0
 10
38.73370394163983
 20
302.2481750899534
 30
0.0
 10
38.63910890075967
 20
302.3124386558388
 30
0.0
 10
38.54185225494175
 20
302.3728673403951
 30
0.0
 10
38.44249789280142
 20
302.4295177516789
 30
0.0
 10
38.34443600755955
 20
302.4854312114463
 30
0.0
 10
38.24433062837248
 20
302.5376640598411
 30
0.0
 10
38.14312738642062
 20
302.5876994157854
 30
0.0
 10
38.04309817067285
 20
302.6371543276863
 30
0.0
 10
37.94199641631813
 20
302.6844624362118
 30
0.0
 10
37.83898103114261
 20
302.7273227033488
 30
0.0
 10
37.73768855396469
 20
302.7694661426366
 30
0.0
 10
37.63454592073722
 20
302.8073092745902
 30
0.0
 10
37.53006161393756
 20
302.8406957764901
 30
0.0
  0
SPLINE
  5
1A7
330
70
100
AcDbEntity
  8
RACCORDO
 62
   250
420
  3355443
370
    25
100
AcDbSpline
210
0.0
220
0.0
230
1.0
 70
     8
 71
     3
 72
    11
 73
     7
 74
     0
 42
0.0000000001
 43
0.0000000001
 40
0.0
 40
0.0
 40
0.0
 40
0.0
 40
1.0
 40
1.0
 40
1.0
 40
2.0
 40
2.0
 40
2.0
 40
2.0
 10
37.2372540353373
 20
301.2344164500904
 30
0.0
 10
35.68502570403751
 20
301.7076644674902
 30
0.0
 10
34.13394708571086
 20
302.1846771729282
 30
0.0
 10
32.58307568901229
 20
302.6623563033443
 30
0.0
 10
31.03219888968907
 20
303.1400370978066
 30
0.0
 10
29.48152931343709
 20
303.6183843218901
 30
0.0
 10
27.93064490513736
 20
304.0960373103902
 30
0.0
  0
SPLINE
  5
1A8
330
70
100
AcDbEntity
  8
RACCORDO
 62
   250
420
  3355443
370
    25
100
AcDbSpline
210
0.0
220
0.0
230
1.0
 70
     8
 71
     3
 72
    11
 73
     7
 74
     0
 42
0.0000000001
 43
0.0000000001
 40
0.0
 40
0.0
 40
0.0
 40
0.0
 40
1.0
 40
1.0
 40
1.0
 40
2.0
 40
2.0
 40
2.0
 40
2.0
 10
37.53006242333758
 20
302.8406965720904
 30
0.0
 10
37.51574146123725
 20
302.5787417271902
 30
0.0
 10
37.48215594321954
 20
302.3177588392239
 30
0.0
 10
37.43501477238304
 20
302.0594188874065
 30
0.0
 10
37.38419976918849
 20
301.7809458405149
 30
0.0
 10
37.31763392953729
 20
301.5055437231901
 30
0.0
 10
37.2372540353373
 20
301.2344164500904
 30
0.0
  0
SPLINE
  5
1A9
330
70
100
AcDbEntity
  8
RACCORDO
 62
   250
420
  3355443
370
    25
100
AcDbSpline
210
0.0
220
0.0
230
1.0
 70
     8
 71
     3
 72
    14
 73
    10
 74
     0
 42
0.0000000001
 43
0.0000000001
 40
0.0
 40
0.0
 40
0.0
 40
0.0
 40
1.0
 40
1.0
 40
1.0
 40
2.0
 40
2.0
 40
2.0
 40
3.0
 40
3.0
 40
3.0
 40
3.0
 10
37.53006242333758
 20
302.8406965720904
 30
0.0
 10
36.75609777423715
 20
303.0877824172903
 30
0.0
 10
35.98092342294041
 20
303.3310739333657
 30
0.0
 10
35.20524992816283
 20
303.5727492327793
 30
0.0
 10
34.43137835370856
 20
303.8138631108777
 30
0.0
 10
33.65700995214014
 20
304.0533682726632
 30
0.0
 10
32.8824605053452
 20
304.292287167724
 30
0.0
 10
31.33485640998626
 20
304.7696638697336
 30
0.0
 10
29.78652953063716
 20
305.2447000283902
 30
0.0
 10
28.23909531323775
 20
305.7226288656901
 30
0.0
  0
SPLINE
  5
1AA
330
70
100
AcDbEntity
  8
RACCORDO
 62
   250
420
  3355443
370
    25
100
AcDbSpline
210
0.0
220
0.0
230
1.0
 70
     8
 71
     3
 72
    11
 73
     7
 74
     0
 42
0.0000000001
 43
0.0000000001
 40
0.0
 40
0.0
 40
0.0
 40
0.0
 40
1.0
 40
1.0
 40
1.0
 40
2.0
 40
2.0
 40
2.0
 40
2.0
 10
-33.0802215016627
 20
322.8318832654903
 30
0.0
 10
-34.63181514696267
 20
323.3069716588903
 30
0.0
 10
-36.18361585259837
 20
323.7813803241364
 30
0.0
 10
-37.73522406461799
 20
324.2564244307518
 30
0.0
 10
-39.28683638095749
 20
324.7314697939556
 30
0.0
 10
-40.83825620266252
 20
325.2071506018903
 30
0.0
 10
-42.38847870146272
 20
325.6867086854904
 30
0.0
  0
SPLINE
  5
1AB
330
70
100
AcDbEntity
  8
RACCORDO
 62
   250
420
  3355443
370
    25
100
AcDbSpline
210
0.0
220
0.0
230
1.0
 70
     8
 71
     3
 72
    14
 73
    10
 74
     0
 42
0.0000000001
 43
0.0000000001
 40
0.0
 40
0.0
 40
0.0
 40
0.0
 40
1.0
 40
1.0
 40
1.0
 40
2.0
 40
2.0
 40
2.0
 40
3.0
 40
3.0
 40
3.0
 40
3.0
 10
-32.77177105926253
 20
324.4584749129902
 30
0.0
 10
-34.32299502266256
 20
324.9321132828904
 30
0.0
 10
-35.87334325227218
 20
325.4086167238002
 30
0.0
 10
-37.42438872308949
 20
325.8828381688823
 30
0.0
 10
-38.19916739020304
 20
326.1197213976789
 30
0.0
 10
-38.97412003329836
 20
326.3560352217138
 30
0.0
 10
-39.74958546021305
 20
326.5906681872139
 30
0.0
 10
-40.52320874646389
 20
326.8247437752838
 30
0.0
 10
-41.29734238316258
 20
327.0571464811903
 30
0.0
 10
-42.07255690336253
 20
327.2858897607901
 30
0.0
  0
SPLINE
  5
1AC
330
70
100
AcDbEntity
  8
RACCORDO
 62
   250
420
  3355443
370
    25
100
AcDbSpline
210
0.0
220
0.0
230
1.0
 70
     8
 71
     3
 72
    29
 73
    25
 74
     0
 42
0.0000000001
 43
0.0000000001
 40
0.0
 40
0.0
 40
0.0
 40
0.0
 40
1.0
 40
1.0
 40
1.0
 40
2.0
 40
2.0
 40
2.0
 40
3.0
 40
3.0
 40
3.0
 40
4.0
 40
4.0
 40
4.0
 40
5.0
 40
5.0
 40
5.0
 40
6.0
 40
6.0
 40
6.0
 40
7.0
 40
7.0
 40
7.0
 40
8.0
 40
8.0
 40
8.0
 40
8.0
 10
-42.38873810766252
 20
325.6867865545901
 30
0.0
 10
-42.49647128726261
 20
325.7203342966902
 30
0.0
 10
-42.60751517297563
 20
325.7443847480181
 30
0.0
 10
-42.71978238236972
 20
325.7574738165085
 30
0.0
 10
-42.82589801283635
 20
325.7698456814777
 30
0.0
 10
-42.93310657807904
 20
325.7724244911138
 30
0.0
 10
-43.03967335652323
 20
325.7640632769548
 30
0.0
 10
-43.14003698400814
 20
325.7561887611305
 30
0.0
 10
-43.23983136573251
 20
325.7386107702885
 30
0.0
 10
-43.33584139462162
 20
325.7085036250879
 30
0.0
 10
-43.42717093028801
 20
325.6798642045684
 30
0.0
 10
-43.51507609409312
 20
325.6398874469931
 30
0.0
 10
-43.59665437247769
 20
325.5895854606519
 30
0.0
 10
-43.67557863081965
 20
325.5409199697427
 30
0.0
 10
-43.74858097760619
 20
325.4825901515256
 30
0.0
 10
-43.81262159749306
 20
325.4156203778079
 30
0.0
 10
-43.87634856735863
 20
325.3489786001491
 30
0.0
 10
-43.931201378575
 20
325.2737812910965
 30
0.0
 10
-43.9756533619065
 20
325.1929662447547
 30
0.0
 10
-44.02123301486573
 20
325.1101010610193
 30
0.0
 10
-44.05587744461375
 20
325.021329500227
 30
0.0
 10
-44.07947012868224
 20
324.9297380022367
 30
0.0
 10
-44.10431868626231
 20
324.8332709531693
 30
0.0
 10
-44.11690758046259
 20
324.7336757574902
 30
0.0
 10
-44.11907958486271
 20
324.6343582976902
 30
0.0
  0
SPLINE
  5
1AD
330
70
100
AcDbEntity
  8
RACCORDO
 62
   250
420
  3355443
370
    25
100
AcDbSpline
210
0.0
220
0.0
230
1.0
 70
     8
 71
     3
 72
    11
 73
     7
 74
     0
 42
0.0000000001
 43
0.0000000001
 40
0.0
 40
0.0
 40
0.0
 40
0.0
 40
1.0
 40
1.0
 40
1.0
 40
2.0
 40
2.0
 40
2.0
 40
2.0
 10
-42.07254653036268
 20
327.2858997365901
 30
0.0
 10
-42.09055387536244
 20
327.0248242008904
 30
0.0
 10
-42.12788047557775
 20
326.7650020461265
 30
0.0
 10
-42.17869928380216
 20
326.5080219240708
 30
0.0
 10
-42.23356988831451
 20
326.230552712621
 30
0.0
 10
-42.30416994386248
 20
325.9563967923903
 30
0.0
 10
-42.38847899796264
 20
325.6867068982902
 30
0.0
  0
SPLINE
  5
1AE
330
70
100
AcDbEntity
  8
RACCORDO
 62
   250
420
  3355443
370
    25
100
AcDbSpline
210
0.0
220
0.0
230
1.0
 70
     8
 71
     3
 72
    53
 73
    49
 74
     0
 42
0.0000000001
 43
0.0000000001
 40
0.0
 40
0.0
 40
0.0
 40
0.0
 40
1.0
 40
1.0
 40
1.0
 40
2.0
 40
2.0
 40
2.0
 40
3.0
 40
3.0
 40
3.0
 40
4.0
 40
4.0
 40
4.0
 40
5.0
 40
5.0
 40
5.0
 40
6.0
 40
6.0
 40
6.0
 40
7.0
 40
7.0
 40
7.0
 40
8.0
 40
8.0
 40
8.0
 40
9.0
 40
9.0
 40
9.0
 40
10.0
 40
10.0
 40
10.0
 40
11.0
 40
11.0
 40
11.0
 40
12.0
 40
12.0
 40
12.0
 40
13.0
 40
13.0
 40
13.0
 40
14.0
 40
14.0
 40
14.0
 40
15.0
 40
15.0
 40
15.0
 40
16.0
 40
16.0
 40
16.0
 40
16.0
 10
-42.07254653036268
 20
327.2858997365901
 30
0.0
 10
-42.17464501136254
 20
327.3159639813904
 30
0.0
 10
-42.27810121793147
 20
327.3417130307178
 30
0.0
 10
-42.38250409081677
 20
327.3625674509101
 30
0.0
 10
-42.48457612160339
 20
327.3829562865914
 30
0.0
 10
-42.58755302102854
 20
327.3986666032147
 30
0.0
 10
-42.69087387493062
 20
327.4111296319402
 30
0.0
 10
-42.7418074083793
 20
327.417273465121
 30
0.0
 10
-42.79282452764737
 20
327.4226281612556
 30
0.0
 10
-42.84391350829175
 20
327.4272744303372
 30
0.0
 10
-42.89445287770473
 20
327.4318707152219
 30
0.0
 10
-42.94506257065235
 20
327.4357737334707
 30
0.0
 10
-42.99574688123633
 20
327.4383024851581
 30
0.0
 10
-43.09465534346347
 20
327.4432372457941
 30
0.0
 10
-43.19384796461429
 20
327.4429385237421
 30
0.0
 10
-43.2928234673748
 20
327.4375840625419
 30
0.0
 10
-43.38854047455757
 20
327.4324058822154
 30
0.0
 10
-43.48405442407008
 20
327.4224993755043
 30
0.0
 10
-43.57837063684185
 20
327.405923686691
 30
0.0
 10
-43.66997301896481
 20
327.3898249425198
 30
0.0
 10
-43.76044559944929
 20
327.3674352893307
 30
0.0
 10
-43.84985391668277
 20
327.3414660553943
 30
0.0
 10
-43.93773221408788
 20
327.3159412257831
 30
0.0
 10
-44.0245823614629
 20
327.2869582799136
 30
0.0
 10
-44.10935870199102
 20
327.2527344329893
 30
0.0
 10
-44.1921976526576
 20
327.2192927020853
 30
0.0
 10
-44.27305649864321
 20
327.1808468731742
 30
0.0
 10
-44.35098586170449
 20
327.1368300975185
 30
0.0
 10
-44.50223434711349
 20
327.0514005445361
 30
0.0
 10
-44.64244787193478
 20
326.9449859988621
 30
0.0
 10
-44.76464823292729
 20
326.8215363974724
 30
0.0
 10
-44.82523696300825
 20
326.7603282756924
 30
0.0
 10
-44.88139747786129
 20
326.6949323891283
 30
0.0
 10
-44.93252376857357
 20
326.6257764292557
 30
0.0
 10
-44.98386403109146
 20
326.5563310404929
 30
0.0
 10
-45.03012784320477
 20
326.48309403953
 30
0.0
 10
-45.07143004920186
 20
326.4072197271175
 30
0.0
 10
-45.11322702275147
 20
326.3304365008358
 30
0.0
 10
-45.14994280600389
 20
326.2509523988627
 30
0.0
 10
-45.18218476727512
 20
326.1697082513609
 30
0.0
 10
-45.21500665848007
 20
326.0870027810608
 30
0.0
 10
-45.24319234076434
 20
326.002473380615
 30
0.0
 10
-45.26656538666044
 20
325.916625170268
 30
0.0
 10
-45.29054389664442
 20
325.8285531158995
 30
0.0
 10
-45.30945720413348
 20
325.7390930407747
 30
0.0
 10
-45.32301421896426
 20
325.6488198121486
 30
0.0
 10
-45.33699520323382
 20
325.5557234627584
 30
0.0
 10
-45.34527964096248
 20
325.4617623049903
 30
0.0
 10
-45.34869167636252
 20
325.3677411766901
 30
0.0
  0
SPLINE
  5
1AF
330
70
100
AcDbEntity
  8
RACCORDO
 62
   250
420
  3355443
370
    25
100
AcDbSpline
210
0.0
220
0.0
230
1.0
 70
     8
 71
     3
 72
    17
 73
    13
 74
     0
 42
0.0000000001
 43
0.0000000001
 40
0.0
 40
0.0
 40
0.0
 40
0.0
 40
1.0
 40
1.0
 40
1.0
 40
2.0
 40
2.0
 40
2.0
 40
3.0
 40
3.0
 40
3.0
 40
4.0
 40
4.0
 40
4.0
 40
4.0
 10
-44.11907605796254
 20
324.6344739760904
 30
0.0
 10
-44.1365469850625
 20
323.8732713401903
 30
0.0
 10
-44.15499601421007
 20
323.1120914681241
 30
0.0
 10
-44.17347710588063
 20
322.3509125684023
 30
0.0
 10
-44.19194778609305
 20
321.5901624843649
 30
0.0
 10
-44.2104504927133
 20
320.8294133715768
 30
0.0
 10
-44.22901163747581
 20
320.0686656514534
 30
0.0
 10
-44.26612720143466
 20
318.5474458654918
 30
0.0
 10
-44.30347643327073
 20
317.0262316481713
 30
0.0
 10
-44.34081314131274
 20
315.5050171558029
 30
0.0
 10
-44.41548351613603
 20
312.4627120815479
 30
0.0
 10
-44.49010379986267
 20
309.4204059071901
 30
0.0
 10
-44.56472938216245
 20
306.3780997983902
 30
0.0
  0
SPLINE
  5
1B0
330
70
100
AcDbEntity
  8
RACCORDO
 62
   250
420
  3355443
370
    25
100
AcDbSpline
210
0.0
220
0.0
230
1.0
 70
     8
 71
     3
 72
    11
 73
     7
 74
     0
 42
0.0000000001
 43
0.0000000001
 40
0.0
 40
0.0
 40
0.0
 40
0.0
 40
1.0
 40
1.0
 40
1.0
 40
2.0
 40
2.0
 40
2.0
 40
2.0
 10
-45.34868706306268
 20
325.3677458364904
 30
0.0
 10
-45.10135061896267
 20
325.2885018950903
 30
0.0
 10
-44.86041114179142
 20
325.1864628391414
 30
0.0
 10
-44.63609031047798
 20
325.0526265926091
 30
0.0
 10
-44.44465194389072
 20
324.9384089683418
 30
0.0
 10
-44.26531717226256
 20
324.8010330001903
 30
0.0
 10
-44.11907605796254
 20
324.6344739760904
 30
0.0
  0
SPLINE
  5
1B1
330
70
100
AcDbEntity
  8
RACCORDO
 62
   250
420
  3355443
370
    25
100
AcDbSpline
210
0.0
220
0.0
230
1.0
 70
     8
 71
     3
 72
    20
 73
    16
 74
     0
 42
0.0000000001
 43
0.0000000001
 40
0.0
 40
0.0
 40
0.0
 40
0.0
 40
1.0
 40
1.0
 40
1.0
 40
2.0
 40
2.0
 40
2.0
 40
3.0
 40
3.0
 40
3.0
 40
4.0
 40
4.0
 40
4.0
 40
5.0
 40
5.0
 40
5.0
 40
5.0
 10
-45.34868706306268
 20
325.3677458364904
 30
0.0
 10
-45.3760312036627
 20
324.6075637096902
 30
0.0
 10
-45.39937443505064
 20
323.8472400463302
 30
0.0
 10
-45.42126883399248
 20
323.086879115644
 30
0.0
 10
-45.44315671122346
 20
322.326744674579
 30
0.0
 10
-45.46359661901044
 20
321.5665729883868
 30
0.0
 10
-45.48375323158909
 20
320.8063934495323
 30
0.0
 10
-45.5240620432543
 20
319.2862008207303
 30
0.0
 10
-45.56323792219304
 20
317.7659767881559
 30
0.0
 10
-45.60235404387385
 20
316.2457517774108
 30
0.0
 10
-45.64146953445006
 20
314.7255512941901
 30
0.0
 10
-45.68052526969633
 20
313.2053498328298
 30
0.0
 10
-45.71950085647816
 20
311.685146156635
 30
0.0
 10
-45.75847671721605
 20
310.1649317950456
 30
0.0
 10
-45.79737242836265
 20
308.6447152185902
 30
0.0
 10
-45.83639117466264
 20
307.1245018770901
 30
0.0
  0
SPLINE
  5
1B2
330
70
100
AcDbEntity
  8
RACCORDO
 62
   250
420
  3355443
370
    25
100
AcDbSpline
210
0.0
220
0.0
230
1.0
 70
     8
 71
     3
 72
    17
 73
    13
 74
     0
 42
0.0000000001
 43
0.0000000001
 40
0.0
 40
0.0
 40
0.0
 40
0.0
 40
1.0
 40
1.0
 40
1.0
 40
2.0
 40
2.0
 40
2.0
 40
3.0
 40
3.0
 40
3.0
 40
4.0
 40
4.0
 40
4.0
 40
4.0
 10
-44.56472939386255
 20
306.3780997660903
 30
0.0
 10
-44.64087918696266
 20
303.3375394105903
 30
0.0
 10
-44.71703570683369
 20
300.2969792903142
 30
0.0
 10
-44.79313927415495
 20
297.2564177101178
 30
0.0
 10
-44.83118950578882
 20
295.7361989280636
 30
0.0
 10
-44.86922650036474
 20
294.2159797810591
 30
0.0
 10
-44.90750078148066
 20
292.6957667459697
 30
0.0
 10
-44.92663444640075
 20
291.9357982770033
 30
0.0
 10
-44.94582741141024
 20
291.1758313354603
 30
0.0
 10
-44.965047667671
 20
290.4158648831724
 30
0.0
 10
-44.98425704733068
 20
289.6563284902807
 30
0.0
 10
-45.00349368736244
 20
288.8967925860904
 30
0.0
 10
-45.02372721206254
 20
288.1372829097903
 30
0.0
  0
SPLINE
  5
1B3
330
70
100
AcDbEntity
  8
RACCORDO
 62
   250
420
  3355443
370
    25
100
AcDbSpline
210
0.0
220
0.0
230
1.0
 70
     8
 71
     3
 72
    20
 73
    16
 74
     0
 42
0.0000000001
 43
0.0000000001
 40
0.0
 40
0.0
 40
0.0
 40
0.0
 40
1.0
 40
1.0
 40
1.0
 40
2.0
 40
2.0
 40
2.0
 40
3.0
 40
3.0
 40
3.0
 40
4.0
 40
4.0
 40
4.0
 40
5.0
 40
5.0
 40
5.0
 40
5.0
 10
-45.83639122906267
 20
307.1245018940904
 30
0.0
 10
-45.87269609546246
 20
305.6058666359902
 30
0.0
 10
-45.90912380689943
 20
304.0872342397802
 30
0.0
 10
-45.94547180134493
 20
302.5686000904993
 30
0.0
 10
-45.98182005345152
 20
301.0499551760264
 30
0.0
 10
-46.0180885874366
 20
299.5313085084573
 30
0.0
 10
-46.05429574539772
 20
298.012659835604
 30
0.0
 10
-46.09050232188485
 20
296.4940355516843
 30
0.0
 10
-46.12664752431963
 20
294.9754092625445
 30
0.0
 10
-46.16166673406561
 20
293.4567583146497
 30
0.0
 10
-46.17917444147432
 20
292.6975151265533
 30
0.0
 10
-46.19640071171813
 20
291.9382657751039
 30
0.0
 10
-46.21216746192593
 20
291.1789817088362
 30
0.0
 10
-46.2279296658786
 20
290.419916577914
 30
0.0
 10
-46.2422331913627
 20
289.6608167521902
 30
0.0
 10
-46.25256811696252
 20
288.9016606243901
 30
0.0
  0
SPLINE
  5
1B4
330
70
100
AcDbEntity
  8
RACCORDO
 62
   250
420
  3355443
370
    25
100
AcDbSpline
210
0.0
220
0.0
230
1.0
 70
     8
 71
     3
 72
    17
 73
    13
 74
     0
 42
0.0000000001
 43
0.0000000001
 40
0.0
 40
0.0
 40
0.0
 40
0.0
 40
1.0
 40
1.0
 40
1.0
 40
2.0
 40
2.0
 40
2.0
 40
3.0
 40
3.0
 40
3.0
 40
4.0
 40
4.0
 40
4.0
 40
4.0
 10
-45.02373444196273
 20
288.1370564127904
 30
0.0
 10
-45.02972324596246
 20
287.9214844839902
 30
0.0
 10
-44.98568911650048
 20
287.7039271811165
 30
0.0
 10
-44.90988561084603
 20
287.5001870824847
 30
0.0
 10
-44.82636839853504
 20
287.2757145475181
 30
0.0
 10
-44.70428718523339
 20
287.0680143493716
 30
0.0
 10
-44.55604182056231
 20
286.8814153932266
 30
0.0
 10
-44.40197992106132
 20
286.6874950659875
 30
0.0
 10
-44.21966044558987
 20
286.5163643160026
 30
0.0
 10
-44.01595321275349
 20
286.3744237625852
 30
0.0
 10
-43.81819359912127
 20
286.2366274329619
 30
0.0
 10
-43.60027690826253
 20
286.1263416569903
 30
0.0
 10
-43.37105746676251
 20
286.0561932180902
 30
0.0
  0
SPLINE
  5
1B5
330
70
100
AcDbEntity
  8
RACCORDO
 62
   250
420
  3355443
370
    25
100
AcDbSpline
210
0.0
220
0.0
230
1.0
 70
     8
 71
     3
 72
    11
 73
     7
 74
     0
 42
0.0000000001
 43
0.0000000001
 40
0.0
 40
0.0
 40
0.0
 40
0.0
 40
1.0
 40
1.0
 40
1.0
 40
2.0
 40
2.0
 40
2.0
 40
2.0
 10
-46.25257033286256
 20
288.9016583404901
 30
0.0
 10
-46.00468605826267
 20
288.8178958860903
 30
0.0
 10
-45.76374351702503
 20
288.7107120007379
 30
0.0
 10
-45.54034118547159
 20
288.5716666696315
 30
0.0
 10
-45.34824396095634
 20
288.4521055979017
 30
0.0
 10
-45.16911558916245
 20
288.30898686039
 30
0.0
 10
-45.02372685306273
 20
288.13728361269
 30
0.0
  0
SPLINE
  5
1B6
330
70
100
AcDbEntity
  8
RACCORDO
 62
   250
420
  3355443
370
    25
100
AcDbSpline
210
0.0
220
0.0
230
1.0
 70
     8
 71
     3
 72
    56
 73
    52
 74
     0
 42
0.0000000001
 43
0.0000000001
 40
0.0
 40
0.0
 40
0.0
 40
0.0
 40
1.0
 40
1.0
 40
1.0
 40
2.0
 40
2.0
 40
2.0
 40
3.0
 40
3.0
 40
3.0
 40
4.0
 40
4.0
 40
4.0
 40
5.0
 40
5.0
 40
5.0
 40
6.0
 40
6.0
 40
6.0
 40
7.0
 40
7.0
 40
7.0
 40
8.0
 40
8.0
 40
8.0
 40
9.0
 40
9.0
 40
9.0
 40
10.0
 40
10.0
 40
10.0
 40
11.0
 40
11.0
 40
11.0
 40
12.0
 40
12.0
 40
12.0
 40
13.0
 40
13.0
 40
13.0
 40
14.0
 40
14.0
 40
14.0
 40
15.0
 40
15.0
 40
15.0
 40
16.0
 40
16.0
 40
16.0
 40
17.0
 40
17.0
 40
17.0
 40
17.0
 10
-46.25257033286256
 20
288.9016583404901
 30
0.0
 10
-46.25383589436251
 20
288.8048010745901
 30
0.0
 10
-46.25008794020764
 20
288.7077817802544
 30
0.0
 10
-46.24114863793779
 20
288.6112862872762
 30
0.0
 10
-46.23190450533182
 20
288.5115002966031
 30
0.0
 10
-46.21710893796384
 20
288.4122744396378
 30
0.0
 10
-46.19825340741804
 20
288.3138575991139
 30
0.0
 10
-46.17884867942601
 20
288.2125742109041
 30
0.0
 10
-46.15514403812611
 20
288.1121476532643
 30
0.0
 10
-46.12769727813482
 20
288.0127550347284
 30
0.0
 10
-46.09958908664881
 20
287.910967182356
 30
0.0
 10
-46.06755624278194
 20
287.8102637027409
 30
0.0
 10
-46.03093305749468
 20
287.711187801643
 30
0.0
 10
-45.95505565741633
 20
287.5059183329506
 30
0.0
 10
-45.85947411013858
 20
287.3076352828579
 30
0.0
 10
-45.74865690473637
 20
287.1188310819887
 30
0.0
 10
-45.69154876099338
 20
287.0215333979033
 30
0.0
 10
-45.63039445849224
 20
286.9267530273782
 30
0.0
 10
-45.56545406755054
 20
286.8346077143203
 30
0.0
 10
-45.49959783831066
 20
286.741162898665
 30
0.0
 10
-45.42984797908326
 20
286.650427987687
 30
0.0
 10
-45.35656225518899
 20
286.5626548736237
 30
0.0
 10
-45.28258256757673
 20
286.4740506105539
 30
0.0
 10
-45.2049997339949
 20
286.3884645021991
 30
0.0
 10
-45.12422375974437
 20
286.3060412134621
 30
0.0
 10
-45.04306715625673
 20
286.2232295330793
 30
0.0
 10
-44.95868724802474
 20
286.1436105499614
 30
0.0
 10
-44.87272538283727
 20
286.0658073551025
 30
0.0
 10
-44.8297035516398
 20
286.0268687407702
 30
0.0
 10
-44.78628547818792
 20
285.9883849378223
 30
0.0
 10
-44.74240854299219
 20
285.9504122278925
 30
0.0
 10
-44.69856323063241
 20
285.9124668855259
 30
0.0
 10
-44.65425971770915
 20
285.8750318997358
 30
0.0
 10
-44.60890966617068
 20
285.838909284112
 30
0.0
 10
-44.56366993946372
 20
285.8028745453779
 30
0.0
 10
-44.51738875985831
 20
285.7681457992679
 30
0.0
 10
-44.47058699851225
 20
285.7341492205001
 30
0.0
 10
-44.42393341265051
 20
285.7002602757044
 30
0.0
 10
-44.37676253617812
 20
285.6670988694716
 30
0.0
 10
-44.32891572435351
 20
285.6349184846193
 30
0.0
 10
-44.23391581194223
 20
285.5710242850746
 30
0.0
 10
-44.13625121646878
 20
285.5109974835714
 30
0.0
 10
-44.03634257079264
 20
285.4550792542648
 30
0.0
 10
-43.93758397804771
 20
285.3998047022205
 30
0.0
 10
-43.83663270048044
 20
285.3485446788555
 30
0.0
 10
-43.73463821304017
 20
285.2994641709305
 30
0.0
 10
-43.63380852260961
 20
285.2509441720126
 30
0.0
 10
-43.53195931357149
 20
285.2045541918037
 30
0.0
 10
-43.42844821368537
 20
285.1620883170174
 30
0.0
 10
-43.32694305734264
 20
285.1204453892131
 30
0.0
 10
-43.22383979766259
 20
285.0825759498899
 30
0.0
 10
-43.11948274366248
 20
285.0487658888902
 30
0.0
  0
SPLINE
  5
1B7
330
70
100
AcDbEntity
  8
RACCORDO
 62
   250
420
  3355443
370
    25
100
AcDbSpline
210
0.0
220
0.0
230
1.0
 70
     8
 71
     3
 72
    14
 73
    10
 74
     0
 42
0.0000000001
 43
0.0000000001
 40
0.0
 40
0.0
 40
0.0
 40
0.0
 40
1.0
 40
1.0
 40
1.0
 40
2.0
 40
2.0
 40
2.0
 40
3.0
 40
3.0
 40
3.0
 40
3.0
 10
-43.37118675686251
 20
286.0562355407902
 30
0.0
 10
-42.59557306226257
 20
285.8188469447906
 30
0.0
 10
-41.82022656282303
 20
285.5805863151815
 30
0.0
 10
-41.04485860603924
 20
285.3423960119096
 30
0.0
 10
-40.26914136496811
 20
285.1040984097356
 30
0.0
 10
-39.49340264721644
 20
284.865871197274
 30
0.0
 10
-38.71769599269842
 20
284.6275395405838
 30
0.0
 10
-37.16596174137802
 20
284.1507776194295
 30
0.0
 10
-35.61435579606273
 20
283.6735977484901
 30
0.0
 10
-34.06265393416254
 20
283.1967302013901
 30
0.0
  0
SPLINE
  5
1B8
330
70
100
AcDbEntity
  8
RACCORDO
 62
   250
420
  3355443
370
    25
100
AcDbSpline
210
0.0
220
0.0
230
1.0
 70
     8
 71
     3
 72
    17
 73
    13
 74
     0
 42
0.0000000001
 43
0.0000000001
 40
0.0
 40
0.0
 40
0.0
 40
0.0
 40
1.0
 40
1.0
 40
1.0
 40
2.0
 40
2.0
 40
2.0
 40
3.0
 40
3.0
 40
3.0
 40
4.0
 40
4.0
 40
4.0
 40
4.0
 10
-43.1194819152627
 20
285.0487668943903
 30
0.0
 10
-43.12199597216273
 20
285.1554038065905
 30
0.0
 10
-43.12881569661682
 20
285.2620298398223
 30
0.0
 10
-43.14163439709644
 20
285.3679988342327
 30
0.0
 10
-43.15295151841253
 20
285.4615546488304
 30
0.0
 10
-43.1689444950959
 20
285.554598339611
 30
0.0
 10
-43.1917620403206
 20
285.6460310656217
 30
0.0
 10
-43.21143119155904
 20
285.7248477875045
 30
0.0
 10
-43.23617151781478
 20
285.8024674396756
 30
0.0
 10
-43.26881651608909
 20
285.8770527528981
 30
0.0
 10
-43.29647909259618
 20
285.9402545308862
 30
0.0
 10
-43.32981758316265
 20
286.0012775154901
 30
0.0
 10
-43.37118675686251
 20
286.0562355407902
 30
0.0
  0
SPLINE
  5
1B9
330
70
100
AcDbEntity
  8
RACCORDO
 62
   250
420
  3355443
370
    25
100
AcDbSpline
210
0.0
220
0.0
230
1.0
 70
     8
 71
     3
 72
    17
 73
    13
 74
     0
 42
0.0000000001
 43
0.0000000001
 40
0.0
 40
0.0
 40
0.0
 40
0.0
 40
1.0
 40
1.0
 40
1.0
 40
2.0
 40
2.0
 40
2.0
 40
3.0
 40
3.0
 40
3.0
 40
4.0
 40
4.0
 40
4.0
 40
4.0
 10
-43.1194819152627
 20
285.0487668943903
 30
0.0
 10
-42.38521198966256
 20
284.8111078475901
 30
0.0
 10
-41.64913924570664
 20
284.5790299023288
 30
0.0
 10
-40.91232422457303
 20
284.3493655482116
 30
0.0
 10
-40.17627073562843
 20
284.1199385627606
 30
0.0
 10
-39.43947650306802
 20
283.8929201819171
 30
0.0
 10
-38.70237370799245
 20
283.666906260358
 30
0.0
 10
-37.96552513959475
 20
283.4409702909775
 30
0.0
 10
-37.22836822149143
 20
283.2160380881243
 30
0.0
 10
-36.49112405928646
 20
282.9913935534447
 30
0.0
 10
-35.75389899391562
 20
282.7667548377324
 30
0.0
 10
-35.0165866889626
 20
282.5424037752903
 30
0.0
 10
-34.27956495596248
 20
282.3170999891903
 30
0.0
  0
SPLINE
  5
1BA
330
70
100
AcDbEntity
  8
RACCORDO
 62
   250
420
  3355443
370
    25
100
AcDbSpline
210
0.0
220
0.0
230
1.0
 70
     8
 71
     3
 72
    14
 73
    10
 74
     0
 42
0.0000000001
 43
0.0000000001
 40
0.0
 40
0.0
 40
0.0
 40
0.0
 40
1.0
 40
1.0
 40
1.0
 40
2.0
 40
2.0
 40
2.0
 40
3.0
 40
3.0
 40
3.0
 40
3.0
 10
26.94821240923733
 20
264.4608841764905
 30
0.0
 10
28.49898809033756
 20
263.9850102217905
 30
0.0
 10
30.04986463880202
 20
263.5094647152733
 30
0.0
 10
31.60060353634713
 20
263.0334711662802
 30
0.0
 10
32.37613428150544
 20
262.7954248824562
 30
0.0
 10
33.15163059961489
 20
262.5572665414066
 30
0.0
 10
33.92715789974325
 20
262.3192085548999
 30
0.0
 10
34.70303367790581
 20
262.08104359862
 30
0.0
 10
35.47894046593767
 20
261.8429790870901
 30
0.0
 10
36.25454947543741
 20
261.6039471491902
 30
0.0
  0
SPLINE
  5
1BB
330
70
100
AcDbEntity
  8
RACCORDO
 62
   250
420
  3355443
370
    25
100
AcDbSpline
210
0.0
220
0.0
230
1.0
 70
     8
 71
     3
 72
    17
 73
    13
 74
     0
 42
0.0000000001
 43
0.0000000001
 40
0.0
 40
0.0
 40
0.0
 40
0.0
 40
1.0
 40
1.0
 40
1.0
 40
2.0
 40
2.0
 40
2.0
 40
3.0
 40
3.0
 40
3.0
 40
4.0
 40
4.0
 40
4.0
 40
4.0
 10
27.19105399093756
 20
263.4405587720901
 30
0.0
 10
27.96517462043715
 20
263.2022828531904
 30
0.0
 10
28.7388686101598
 20
262.9626241907242
 30
0.0
 10
29.51261074868411
 20
262.7231204948722
 30
0.0
 10
30.28637645172997
 20
262.483609504872
 30
0.0
 10
31.06019030651069
 20
262.2442534909254
 30
0.0
 10
31.8343135618312
 20
262.0059042443488
 30
0.0
 10
32.60818386579837
 20
261.7676328804143
 30
0.0
 10
33.38236336813996
 20
261.5303676260185
 30
0.0
 10
34.15733522187568
 20
261.2956822534657
 30
0.0
 10
34.93148748029162
 20
261.0612450796474
 30
0.0
 10
35.70643041503748
 20
260.8293823336904
 30
0.0
 10
36.48313747553736
 20
260.6035737743902
 30
0.0
  0
SPLINE
  5
1BC
330
70
100
AcDbEntity
  8
RACCORDO
 62
   250
420
  3355443
370
    25
100
AcDbSpline
210
0.0
220
0.0
230
1.0
 70
     8
 71
     3
 72
    26
 73
    22
 74
     0
 42
0.0000000001
 43
0.0000000001
 40
0.0
 40
0.0
 40
0.0
 40
0.0
 40
1.0
 40
1.0
 40
1.0
 40
2.0
 40
2.0
 40
2.0
 40
3.0
 40
3.0
 40
3.0
 40
4.0
 40
4.0
 40
4.0
 40
5.0
 40
5.0
 40
5.0
 40
6.0
 40
6.0
 40
6.0
 40
7.0
 40
7.0
 40
7.0
 40
7.0
 10
36.25480309413721
 20
261.60386291519
 30
0.0
 10
36.46314493983763
 20
261.5396552765899
 30
0.0
 10
36.68575326970777
 20
261.5084478719167
 30
0.0
 10
36.90402942553423
 20
261.524706863622
 30
0.0
 10
37.00426686454643
 20
261.5321733671584
 30
0.0
 10
37.103590709582
 20
261.5496498595258
 30
0.0
 10
37.19936433680294
 20
261.5793503102369
 30
0.0
 10
37.28978555005097
 20
261.6073909187552
 30
0.0
 10
37.37704227286184
 20
261.6463273655834
 30
0.0
 10
37.45791900500787
 20
261.695784968798
 30
0.0
 10
37.53641907378036
 20
261.7437891988229
 30
0.0
 10
37.60890861036151
 20
261.8017053162583
 30
0.0
 10
37.67246345657953
 20
261.8681854008662
 30
0.0
 10
37.73598312076474
 20
261.9346286841184
 30
0.0
 10
37.79057798379403
 20
262.0096264556635
 30
0.0
 10
37.83489748215393
 20
262.0901821892853
 30
0.0
 10
37.88049837599435
 20
262.1730670050689
 30
0.0
 10
37.91522113888067
 20
262.2618358202298
 30
0.0
 10
37.93876395737091
 20
262.3534650971398
 30
0.0
 10
37.96348662848782
 20
262.44968639191
 30
0.0
 10
37.97588070653763
 20
262.5490620376905
 30
0.0
 10
37.97771123023757
 20
262.6481165865904
 30
0.0
  0
SPLINE
  5
1BD
330
70
100
AcDbEntity
  8
RACCORDO
 62
   250
420
  3355443
370
    25
100
AcDbSpline
210
0.0
220
0.0
230
1.0
 70
     8
 71
     3
 72
    17
 73
    13
 74
     0
 42
0.0000000001
 43
0.0000000001
 40
0.0
 40
0.0
 40
0.0
 40
0.0
 40
1.0
 40
1.0
 40
1.0
 40
2.0
 40
2.0
 40
2.0
 40
3.0
 40
3.0
 40
3.0
 40
4.0
 40
4.0
 40
4.0
 40
4.0
 10
36.48314774703742
 20
260.6035865017899
 30
0.0
 10
36.48226223353739
 20
260.7095896111902
 30
0.0
 10
36.47723053274559
 20
260.8156429185612
 30
0.0
 10
36.46636365740441
 20
260.9211637120188
 30
0.0
 10
36.45680222275176
 20
261.0140082638752
 30
0.0
 10
36.44272336670898
 20
261.1064405590418
 30
0.0
 10
36.42195766760162
 20
261.1974342432191
 30
0.0
 10
36.40414933085473
 20
261.275468994724
 30
0.0
 10
36.38142315024933
 20
261.3524457186735
 30
0.0
 10
36.35085769044211
 20
261.4266254326927
 30
0.0
 10
36.3251550392215
 20
261.4890035329769
 30
0.0
 10
36.29390906593725
 20
261.5494038076904
 30
0.0
 10
36.25454927933739
 20
261.6039483945901
 30
0.0
  0
SPLINE
  5
1BE
330
70
100
AcDbEntity
  8
RACCORDO
 62
   250
420
  3355443
370
    25
100
AcDbSpline
210
0.0
220
0.0
230
1.0
 70
     8
 71
     3
 72
    53
 73
    49
 74
     0
 42
0.0000000001
 43
0.0000000001
 40
0.0
 40
0.0
 40
0.0
 40
0.0
 40
1.0
 40
1.0
 40
1.0
 40
2.0
 40
2.0
 40
2.0
 40
3.0
 40
3.0
 40
3.0
 40
4.0
 40
4.0
 40
4.0
 40
5.0
 40
5.0
 40
5.0
 40
6.0
 40
6.0
 40
6.0
 40
7.0
 40
7.0
 40
7.0
 40
8.0
 40
8.0
 40
8.0
 40
9.0
 40
9.0
 40
9.0
 40
10.0
 40
10.0
 40
10.0
 40
11.0
 40
11.0
 40
11.0
 40
12.0
 40
12.0
 40
12.0
 40
13.0
 40
13.0
 40
13.0
 40
14.0
 40
14.0
 40
14.0
 40
15.0
 40
15.0
 40
15.0
 40
16.0
 40
16.0
 40
16.0
 40
16.0
 10
36.48314774703742
 20
260.6035865017899
 30
0.0
 10
36.58534316143763
 20
260.57393711959
 30
0.0
 10
36.68873294877647
 20
260.548168743544
 30
0.0
 10
36.79300614211398
 20
260.5268097323405
 30
0.0
 10
36.8944377944409
 20
260.506032773958
 30
0.0
 10
36.99670536153308
 20
260.4894281363244
 30
0.0
 10
37.09935451811172
 20
260.4760245703458
 30
0.0
 10
37.14987071537164
 20
260.4694283429097
 30
0.0
 10
37.20047932858201
 20
260.4636073728832
 30
0.0
 10
37.25116934797958
 20
260.4585328322013
 30
0.0
 10
37.30134248993886
 20
260.4535100357409
 30
0.0
 10
37.35159538637961
 20
260.4492185238116
 30
0.0
 10
37.40193750302809
 20
260.4463333369331
 30
0.0
 10
37.50032552237119
 20
260.4406945628547
 30
0.0
 10
37.59905433004882
 20
260.4404274325631
 30
0.0
 10
37.69755867518976
 20
260.4454512134726
 30
0.0
 10
37.79306385765565
 20
260.4503220352805
 30
0.0
 10
37.88835803793066
 20
260.4601664882303
 30
0.0
 10
37.98249966555705
 20
260.4764449623959
 30
0.0
 10
38.0734158974368
 20
260.492165718125
 30
0.0
 10
38.16325719921919
 20
260.5138871741797
 30
0.0
 10
38.25216312799956
 20
260.5389013060591
 30
0.0
 10
38.33870242686176
 20
260.5632495746643
 30
0.0
 10
38.42435548821224
 20
260.5907175536125
 30
0.0
 10
38.50795428378535
 20
260.623548979656
 30
0.0
 10
38.58961840071933
 20
260.6556206069699
 30
0.0
 10
38.66932223304201
 20
260.6928103075726
 30
0.0
 10
38.74609841582457
 20
260.7356229638499
 30
0.0
 10
38.89585740670004
 20
260.8191329791757
 30
0.0
 10
39.03447725235429
 20
260.9240372628352
 30
0.0
 10
39.15515644957479
 20
261.045853187038
 30
0.0
 10
39.21531394797996
 20
261.1065773336576
 30
0.0
 10
39.27101331516595
 20
261.1715039099134
 30
0.0
 10
39.32171096060538
 20
261.2401603995479
 30
0.0
 10
39.37284614497148
 20
261.3094094193984
 30
0.0
 10
39.41889290172954
 20
261.382453011433
 30
0.0
 10
39.46004820393355
 20
261.4580913205859
 30
0.0
 10
39.50186581018831
 20
261.5349468619255
 30
0.0
 10
39.5386332607084
 20
261.614481304886
 30
0.0
 10
39.57095688799974
 20
261.6957721156227
 30
0.0
 10
39.60386852548692
 20
261.7785417153917
 30
0.0
 10
39.63217319094613
 20
261.8631321655403
 30
0.0
 10
39.65554057585639
 20
261.9490785148316
 30
0.0
 10
39.67941676926048
 20
262.036896285881
 30
0.0
 10
39.69813832957541
 20
262.1261296464461
 30
0.0
 10
39.71134985189666
 20
262.2161805418593
 30
0.0
 10
39.72492687534434
 20
262.3087227250211
 30
0.0
 10
39.73268476953759
 20
262.40212830349
 30
0.0
 10
39.73548178983718
 20
262.4955595414899
 30
0.0
  0
SPLINE
  5
1BF
330
70
100
AcDbEntity
  8
RACCORDO
 62
   250
420
  3355443
370
    25
100
AcDbSpline
210
0.0
220
0.0
230
1.0
 70
     8
 71
     3
 72
    17
 73
    13
 74
     0
 42
0.0000000001
 43
0.0000000001
 40
0.0
 40
0.0
 40
0.0
 40
0.0
 40
1.0
 40
1.0
 40
1.0
 40
2.0
 40
2.0
 40
2.0
 40
3.0
 40
3.0
 40
3.0
 40
4.0
 40
4.0
 40
4.0
 40
4.0
 10
37.97770732273768
 20
262.64800048989
 30
0.0
 10
38.01048036473736
 20
264.1686125839901
 30
0.0
 10
38.04715919294574
 20
265.6891379500091
 30
0.0
 10
38.0838711527185
 20
267.2096609506524
 30
0.0
 10
38.12058653015852
 20
268.730325503038
 30
0.0
 10
38.15733504533158
 20
270.2509876896063
 30
0.0
 10
38.19416222222462
 20
271.771648392535
 30
0.0
 10
38.23098970059365
 20
273.2923215439662
 30
0.0
 10
38.26789584196989
 20
274.8129932117328
 30
0.0
 10
38.30479544044477
 20
276.3336649169188
 30
0.0
 10
38.34169509220119
 20
277.8543388178949
 30
0.0
 10
38.37858820103765
 20
279.3750127562905
 30
0.0
 10
38.41546097413764
 20
280.8956872484902
 30
0.0
  0
SPLINE
  5
1C0
330
70
100
AcDbEntity
  8
RACCORDO
 62
   250
420
  3355443
370
    25
100
AcDbSpline
210
0.0
220
0.0
230
1.0
 70
     8
 71
     3
 72
    11
 73
     7
 74
     0
 42
0.0000000001
 43
0.0000000001
 40
0.0
 40
0.0
 40
0.0
 40
0.0
 40
1.0
 40
1.0
 40
1.0
 40
2.0
 40
2.0
 40
2.0
 40
2.0
 10
39.73548588523744
 20
262.4955644587899
 30
0.0
 10
39.45481852663731
 20
262.5733162156904
 30
0.0
 10
39.16600744883897
 20
262.6230898992763
 30
0.0
 10
38.87522484900283
 20
262.6482945039403
 30
0.0
 10
38.57652000682521
 20
262.6741857968251
 30
0.0
 10
38.27573475273764
 20
262.6741510267901
 30
0.0
 10
37.97770732273768
 20
262.64800048989
 30
0.0
  0
SPLINE
  5
1C1
330
70
100
AcDbEntity
  8
RACCORDO
 62
   250
420
  3355443
370
    25
100
AcDbSpline
210
0.0
220
0.0
230
1.0
 70
     8
 71
     3
 72
    17
 73
    13
 74
     0
 42
0.0000000001
 43
0.0000000001
 40
0.0
 40
0.0
 40
0.0
 40
0.0
 40
1.0
 40
1.0
 40
1.0
 40
2.0
 40
2.0
 40
2.0
 40
3.0
 40
3.0
 40
3.0
 40
4.0
 40
4.0
 40
4.0
 40
4.0
 10
39.73548588523744
 20
262.4955644587899
 30
0.0
 10
39.78036948493722
 20
264.0107231848901
 30
0.0
 10
39.81862957510381
 20
265.5260712047708
 30
0.0
 10
39.8564650077018
 20
267.0414250571068
 30
0.0
 10
39.89436838299236
 20
268.5595000946547
 30
0.0
 10
39.93184557419381
 20
270.0775809856239
 30
0.0
 10
39.96924463523438
 20
271.5956650622073
 30
0.0
 10
40.0066494522916
 20
273.1139827841793
 30
0.0
 10
40.04397611513705
 20
274.6323036927464
 30
0.0
 10
40.08125800551948
 20
276.1506253393453
 30
0.0
 10
40.11854068650914
 20
277.6689791837362
 30
0.0
 10
40.15577859313762
 20
279.1873337661901
 30
0.0
 10
40.19307206803708
 20
280.7056871649905
 30
0.0
  0
SPLINE
  5
1C2
330
70
100
AcDbEntity
  8
RACCORDO
 62
    18
420
        0
370
    25
100
AcDbSpline
210
0.0
220
0.0
230
1.0
 70
     8
 71
     3
 72
    11
 73
     7
 74
     0
 42
0.0000000001
 43
0.0000000001
 40
0.0
 40
0.0
 40
0.0
 40
0.0
 40
1.0
 40
1.0
 40
1.0
 40
2.0
 40
2.0
 40
2.0
 40
2.0
 10
-7.207231178562443
 20
279.2806947668902
 30
0.0
 10
-7.202632315762561
 20
279.2860210792901
 30
0.0
 10
-7.198376183227359
 20
279.2914350486694
 30
0.0
 10
-7.194543490980465
 20
279.2975676703981
 30
0.0
 10
-7.192423140318427
 20
279.3009604052445
 30
0.0
 10
-7.190432388062611
 20
279.3045730912901
 30
0.0
 10
-7.190342460562645
 20
279.30846510539
 30
0.0
  0
SPLINE
  5
1C3
330
70
100
AcDbEntity
  8
RACCORDO
 62
    18
420
        0
370
    25
100
AcDbSpline
210
0.0
220
0.0
230
1.0
 70
     8
 71
     3
 72
    11
 73
     7
 74
     0
 42
0.0000000001
 43
0.0000000001
 40
0.0
 40
0.0
 40
0.0
 40
0.0
 40
1.0
 40
1.0
 40
1.0
 40
2.0
 40
2.0
 40
2.0
 40
2.0
 10
12.83283441913745
 20
273.1265847691904
 30
0.0
 10
12.83743328193766
 20
273.1319110815903
 30
0.0
 10
12.84168941440837
 20
273.1373250509697
 30
0.0
 10
12.84552210663216
 20
273.1434576726566
 30
0.0
 10
12.84764245728136
 20
273.1468504074805
 30
0.0
 10
12.84963320953718
 20
273.1504630934903
 30
0.0
 10
12.84972313713725
 20
273.1543551075901
 30
0.0
  0
SPLINE
  5
1C4
330
70
100
AcDbEntity
  8
RACCORDO
 62
    18
420
        0
370
    25
100
AcDbSpline
210
0.0
220
0.0
230
1.0
 70
     8
 71
     3
 72
     8
 73
     4
 74
     0
 42
0.0000000001
 43
0.0000000001
 40
0.0
 40
0.0
 40
0.0
 40
0.0
 40
1.0
 40
1.0
 40
1.0
 40
1.0
 10
12.81023685318541
 20
272.3816216457767
 30
0.0
 10
12.81165943496133
 20
272.3834153201774
 30
0.0
 10
12.81308363510928
 20
272.385283815417
 30
0.0
 10
12.81450798976553
 20
272.3872252109658
 30
0.0
  0
SPLINE
  5
1C5
330
70
100
AcDbEntity
  8
RACCORDO
 62
    18
420
        0
370
    25
100
AcDbSpline
210
0.0
220
0.0
230
1.0
 70
     8
 71
     3
 72
     8
 73
     4
 74
     0
 42
0.0000000001
 43
0.0000000001
 40
0.0
 40
0.0
 40
0.0
 40
0.0
 40
1.0
 40
1.0
 40
1.0
 40
1.0
 10
-7.229828744514805
 20
278.5357316435765
 30
0.0
 10
-7.228406162738569
 20
278.5375253179773
 30
0.0
 10
-7.226981962590938
 20
278.5393938132175
 30
0.0
 10
-7.225557607934371
 20
278.5413352087656
 30
0.0
  0
SPLINE
  5
1C6
330
70
100
AcDbEntity
  8
RACCORDO
 62
    18
420
        0
370
    25
100
AcDbSpline
210
0.0
220
0.0
230
1.0
 70
     8
 71
     3
 72
     8
 73
     4
 74
     0
 42
0.0000000001
 43
0.0000000001
 40
0.0
 40
0.0
 40
0.0
 40
0.0
 40
1.0
 40
1.0
 40
1.0
 40
1.0
 10
-12.43547010838957
 20
280.8862362913771
 30
0.0
 10
-12.43721246409621
 20
280.8846951957765
 30
0.0
 10
-12.43895877662694
 20
280.8830770183895
 30
0.0
 10
-12.44070725103596
 20
280.881383422459
 30
0.0
  0
SPLINE
  5
1C7
330
70
100
AcDbEntity
  8
RACCORDO
 62
    18
420
        0
370
    25
100
AcDbSpline
210
0.0
220
0.0
230
1.0
 70
     8
 71
     3
 72
     8
 73
     4
 74
     0
 42
0.0000000001
 43
0.0000000001
 40
0.0
 40
0.0
 40
0.0
 40
0.0
 40
1.0
 40
1.0
 40
1.0
 40
1.0
 10
7.604595489210228
 20
274.7321262935772
 30
0.0
 10
7.602853133503579
 20
274.7305851979766
 30
0.0
 10
7.601106820972848
 20
274.7289670205896
 30
0.0
 10
7.599358346563828
 20
274.7272734246585
 30
0.0
  0
SPLINE
  5
1C8
330
70
100
AcDbEntity
  8
RACCORDO
 62
    18
420
        0
370
    25
100
AcDbSpline
210
0.0
220
0.0
230
1.0
 70
     8
 71
     3
 72
     8
 73
     4
 74
     0
 42
0.0000000001
 43
0.0000000001
 40
0.0
 40
0.0
 40
0.0
 40
0.0
 40
1.0
 40
1.0
 40
1.0
 40
1.0
 10
12.8328344191259
 20
273.1265847691333
 30
0.0
 10
12.8314175094279
 20
273.1249437322172
 30
0.0
 10
12.82999703367294
 20
273.1232254935138
 30
0.0
 10
12.82857445189703
 20
273.1214318191129
 30
0.0
  0
SPLINE
  5
1C9
330
70
100
AcDbEntity
  8
RACCORDO
 62
    18
420
        0
370
    25
100
AcDbSpline
210
0.0
220
0.0
230
1.0
 70
     8
 71
     3
 72
     8
 73
     4
 74
     0
 42
0.0000000001
 43
0.0000000001
 40
0.0
 40
0.0
 40
0.0
 40
0.0
 40
1.0
 40
1.0
 40
1.0
 40
1.0
 10
-7.207231178574314
 20
279.2806947668331
 30
0.0
 10
-7.208648088272314
 20
279.2790537299169
 30
0.0
 10
-7.210068564026955
 20
279.2773354912135
 30
0.0
 10
-7.211491145802871
 20
279.2755418168133
 30
0.0
  0
LINE
  5
1CB
330
70
100
AcDbEntity
  8
DRAFT
 62
    18
420
        0
370
    25
100
AcDbLine
 10
-27.84217490126267
 20
284.7992484143904
 30
0.0
 11
-27.79277383096245
 21
284.9534733123899
 31
0.0
  0
LINE
  5
1CC
330
70
100
AcDbEntity
  8
DRAFT
 62
    18
420
        0
370
    25
100
AcDbLine
 10
-27.65703561476257
 20
284.9980324286899
 30
0.0
 11
-27.59025314016267
 21
285.2065202257901
 31
0.0
  0
LINE
  5
1CD
330
70
100
AcDbEntity
  8
DRAFT
 62
    18
420
        0
370
    25
100
AcDbLine
 10
-27.45327742366248
 20
285.2549426867902
 30
0.0
 11
-27.38773244946267
 21
285.4595671391903
 31
0.0
  0
LINE
  5
1CE
330
70
100
AcDbEntity
  8
DRAFT
 62
    18
420
        0
370
    25
100
AcDbLine
 10
-33.20736283676254
 20
286.4468456515905
 30
0.0
 11
-33.14718359506242
 21
286.5977606776904
 31
0.0
  0
LINE
  5
1CF
330
70
100
AcDbEntity
  8
DRAFT
 62
    18
420
        0
370
    25
100
AcDbLine
 10
-32.9689887007625
 20
286.6591727805904
 30
0.0
 11
-32.89825488346269
 21
286.83655613739
 31
0.0
  0
LINE
  5
1D0
330
70
100
AcDbEntity
  8
DRAFT
 62
    18
420
        0
370
    25
100
AcDbLine
 10
-32.71874926916264
 20
286.9012552099901
 30
0.0
 11
-32.64932617176253
 21
287.0753515971903
 31
0.0
  0
LINE
  5
1D1
330
70
100
AcDbEntity
  8
DRAFT
 62
    18
420
        0
370
    25
100
AcDbLine
 10
-27.71816523376246
 20
285.0466957635904
 30
0.0
 11
-27.65703561476257
 21
284.9980324286899
 31
0.0
  0
LINE
  5
1D2
330
70
100
AcDbEntity
  8
DRAFT
 62
    18
420
        0
370
    25
100
AcDbLine
 10
-27.51327429146261
 20
285.30270427479
 30
0.0
 11
-27.45327742366248
 21
285.2549426867902
 31
0.0
  0
LINE
  5
1D3
330
70
100
AcDbEntity
  8
DRAFT
 62
    18
420
        0
370
    25
100
AcDbLine
 10
-33.14718359506242
 20
286.5977606776904
 30
0.0
 11
-27.79277383096245
 21
284.9534733123899
 31
0.0
  0
LINE
  5
1D4
330
70
100
AcDbEntity
  8
DRAFT
 62
    18
420
        0
370
    25
100
AcDbLine
 10
32.32742296203715
 20
266.4911433191905
 30
0.0
 11
26.97301319783772
 21
268.1354306844903
 31
0.0
  0
LINE
  5
1D5
330
70
100
AcDbEntity
  8
DRAFT
 62
    18
420
        0
370
    25
100
AcDbLine
 10
-33.05547828886244
 20
286.6857328951901
 30
0.0
 11
-27.71816523376246
 21
285.0466957635904
 31
0.0
  0
LINE
  5
1D6
330
70
100
AcDbEntity
  8
DRAFT
 62
    18
420
        0
370
    25
100
AcDbLine
 10
32.40203155913736
 20
266.5843657703904
 30
0.0
 11
27.06471850413748
 21
268.2234029018899
 31
0.0
  0
LINE
  5
1D7
330
70
100
AcDbEntity
  8
DRAFT
 62
    18
420
        0
370
    25
100
AcDbLine
 10
-32.89825488346269
 20
286.83655613739
 30
0.0
 11
-27.59025314016267
 21
285.2065202257901
 31
0.0
  0
LINE
  5
1D8
330
70
100
AcDbEntity
  8
DRAFT
 62
    18
420
        0
370
    25
100
AcDbLine
 10
32.52994365273746
 20
266.74419023259
 30
0.0
 11
27.22194190953723
 21
268.3742261441905
 31
0.0
  0
LINE
  5
1D9
330
70
100
AcDbEntity
  8
DRAFT
 62
    18
420
        0
370
    25
100
AcDbLine
 10
-32.80363617776246
 20
286.92732315729
 30
0.0
 11
-27.51327429146261
 21
285.30270427479
 31
0.0
  0
LINE
  5
1DA
330
70
100
AcDbEntity
  8
DRAFT
 62
    18
420
        0
370
    25
100
AcDbLine
 10
32.6069225014372
 20
266.8403742815899
 30
0.0
 11
27.31656061523713
 21
268.4649931640899
 31
0.0
  0
LINE
  5
1DB
330
70
100
AcDbEntity
  8
DRAFT
 62
    18
420
        0
370
    25
100
AcDbLine
 10
-32.64932617176253
 20
287.0753515971903
 30
0.0
 11
-27.38773244946267
 21
285.4595671391903
 31
0.0
  0
LINE
  5
1DC
330
70
100
AcDbEntity
  8
DRAFT
 62
    18
420
        0
370
    25
100
AcDbLine
 10
32.73246434353725
 20
266.9972371458901
 30
0.0
 11
27.47087062123739
 21
268.6130216039902
 31
0.0
  0
LINE
  5
1DD
330
70
100
AcDbEntity
  8
DRAFT
 62
    18
420
        0
370
    25
100
AcDbLine
 10
-27.71816523376246
 20
285.0466957635904
 30
0.0
 11
-27.79277383096245
 21
284.9534733123899
 31
0.0
  0
LINE
  5
1DE
330
70
100
AcDbEntity
  8
DRAFT
 62
    18
420
        0
370
    25
100
AcDbLine
 10
-27.51327429146261
 20
285.30270427479
 30
0.0
 11
-27.59025314016267
 21
285.2065202257901
 31
0.0
  0
LINE
  5
1DF
330
70
100
AcDbEntity
  8
DRAFT
 62
    18
420
        0
370
    25
100
AcDbLine
 10
-32.80363617776246
 20
286.92732315729
 30
0.0
 11
-32.89825488346269
 21
286.83655613739
 31
0.0
  0
LINE
  5
1E0
330
70
100
AcDbEntity
  8
DRAFT
 62
    18
420
        0
370
    25
100
AcDbLine
 10
-33.05547828886244
 20
286.6857328951901
 30
0.0
 11
-33.14718359506242
 21
286.5977606776904
 31
0.0
  0
LINE
  5
1E1
330
70
100
AcDbEntity
  8
DRAFT
 62
    18
420
        0
370
    25
100
AcDbLine
 10
32.40203155913736
 20
266.5843657703904
 30
0.0
 11
32.46316117823767
 21
266.5357024353904
 31
0.0
  0
LINE
  5
1E2
330
70
100
AcDbEntity
  8
DRAFT
 62
    18
420
        0
370
    25
100
AcDbLine
 10
32.6069225014372
 20
266.8403742815899
 30
0.0
 11
32.66691936933775
 21
266.7926126935901
 31
0.0
  0
LINE
  5
1E3
330
70
100
AcDbEntity
  8
DRAFT
 62
    18
420
        0
370
    25
100
AcDbLine
 10
26.9128339562377
 20
267.9845156583905
 30
0.0
 11
26.97301319783772
 21
268.1354306844903
 31
0.0
  0
LINE
  5
1E4
330
70
100
AcDbEntity
  8
DRAFT
 62
    18
420
        0
370
    25
100
AcDbLine
 10
27.15120809213763
 20
268.1968427873904
 30
0.0
 11
27.22194190953723
 21
268.3742261441905
 31
0.0
  0
LINE
  5
1E5
330
70
100
AcDbEntity
  8
DRAFT
 62
    18
420
        0
370
    25
100
AcDbLine
 10
27.4014475238376
 20
268.4389252167901
 30
0.0
 11
27.47087062123739
 21
268.6130216039902
 31
0.0
  0
LINE
  5
1E6
330
70
100
AcDbEntity
  8
DRAFT
 62
    18
420
        0
370
    25
100
AcDbLine
 10
27.31656061523713
 20
268.4649931640899
 30
0.0
 11
27.22194190953723
 21
268.3742261441905
 31
0.0
  0
LINE
  5
1E7
330
70
100
AcDbEntity
  8
DRAFT
 62
    18
420
        0
370
    25
100
AcDbLine
 10
27.06471850413748
 20
268.2234029018899
 30
0.0
 11
26.97301319783772
 21
268.1354306844903
 31
0.0
  0
LINE
  5
1E8
330
70
100
AcDbEntity
  8
DRAFT
 62
    18
420
        0
370
    25
100
AcDbLine
 10
32.27802189163714
 20
266.3369184210902
 30
0.0
 11
32.32742296203715
 21
266.4911433191905
 31
0.0
  0
LINE
  5
1E9
330
70
100
AcDbEntity
  8
DRAFT
 62
    18
420
        0
370
    25
100
AcDbLine
 10
32.46316117823767
 20
266.5357024353904
 30
0.0
 11
32.52994365273746
 21
266.74419023259
 31
0.0
  0
LINE
  5
1EA
330
70
100
AcDbEntity
  8
DRAFT
 62
    18
420
        0
370
    25
100
AcDbLine
 10
32.66691936933775
 20
266.7926126935901
 30
0.0
 11
32.73246434353725
 21
266.9972371458901
 31
0.0
  0
LINE
  5
1EB
330
70
100
AcDbEntity
  8
DRAFT
 62
    18
420
        0
370
    25
100
AcDbLine
 10
32.6069225014372
 20
266.8403742815899
 30
0.0
 11
32.52994365273746
 21
266.74419023259
 31
0.0
  0
LINE
  5
1EC
330
70
100
AcDbEntity
  8
DRAFT
 62
    18
420
        0
370
    25
100
AcDbLine
 10
32.40203155913736
 20
266.5843657703904
 30
0.0
 11
32.32742296203715
 21
266.4911433191905
 31
0.0
  0
LINE
  5
1EE
330
70
100
AcDbEntity
  8
ASSI
 62
    18
420
        0
370
    25
100
AcDbLine
 10
38.24525995933721
 20
258.8845895556901
 30
0.0
 11
38.15371985833771
 21
258.7839211790903
 31
0.0
  0
ENDSEC
  0
SECTION
  2
OBJECTS
  0
DICTIONARY
  5
C
330
0
100
AcDbDictionary
281
     1
  3
ACAD_COLOR
350
63
  3
ACAD_DETAILVIEWSTYLE
350
6A
  3
ACAD_GROUP
350
D
  3
ACAD_LAYOUT
350
62
  3
ACAD_MATERIAL
350
10
  3
ACAD_MLEADERSTYLE
350
66
  3
ACAD_MLINESTYLE
350
5F
  3
ACAD_PLOTSETTINGS
350
61
  3
ACAD_PLOTSTYLENAME
350
E
  3
ACAD_SCALELIST
350
42
  3
ACAD_SECTIONVIEWSTYLE
350
68
  3
ACAD_TABLESTYLE
350
64
  3
ACAD_VISUALSTYLE
350
29
  3
ACDB_RECOMPOSE_DATA
350
1F7
  3
AcDbVariableDictionary
350
1EF
  0
DICTIONARY
  5
63
102
{ACAD_REACTORS
330
C
102
}
330
C
100
AcDbDictionary
281
     1
  0
DICTIONARY
  5
6A
102
{ACAD_REACTORS
330
C
102
}
330
C
100
AcDbDictionary
281
     1
  3
Imperial24
350
6B
  0
DICTIONARY
  5
D
102
{ACAD_REACTORS
330
C
102
}
330
C
100
AcDbDictionary
281
     1
  0
DICTIONARY
  5
62
102
{ACAD_REACTORS
330
C
102
}
330
C
100
AcDbDictionary
281
     1
  3
Layout1
350
6F
  3
Layout2
350
77
  3
Model
350
73
  0
DICTIONARY
  5
10
102
{ACAD_REACTORS
330
C
102
}
330
C
100
AcDbDictionary
281
     1
  3
ByBlock
350
19
  3
ByLayer
350
11
  3
Global
350
21
  0
DICTIONARY
  5
66
102
{ACAD_REACTORS
330
C
102
}
330
C
100
AcDbDictionary
281
     1
  3
Standard
350
67
  0
DICTIONARY
  5
5F
102
{ACAD_REACTORS
330
C
102
}
330
C
100
AcDbDictionary
281
     1
  3
Standard
350
60
  0
DICTIONARY
  5
61
102
{ACAD_REACTORS
330
C
102
}
330
C
100
AcDbDictionary
281
     1
  0
ACDBDICTIONARYWDFLT
  5
E
102
{ACAD_REACTORS
330
C
102
}
330
C
100
AcDbDictionary
281
     1
  3
Normal
350
F
100
AcDbDictionaryWithDefault
340
F
  0
DICTIONARY
  5
42
102
{ACAD_REACTORS
330
C
102
}
330
C
100
AcDbDictionary
281
     1
  3
A0
350
43
  3
A1
350
44
  3
A2
350
45
  3
A3
350
46
  3
A4
350
47
  3
A5
350
48
  3
A6
350
49
  3
A7
350
4A
  3
A8
350
4B
  3
A9
350
4C
  3
B0
350
4D
  3
B1
350
4E
  3
B2
350
4F
  3
B3
350
50
  3
B4
350
51
  3
B5
350
52
  3
B6
350
53
  0
DICTIONARY
  5
68
102
{ACAD_REACTORS
330
C
102
}
330
C
100
AcDbDictionary
281
     1
  3
Imperial24
350
69
  0
DICTIONARY
  5
64
102
{ACAD_REACTORS
330
C
102
}
330
C
100
AcDbDictionary
281
     1
  3
Standard
350
65
  0
DICTIONARY
  5
29
102
{ACAD_REACTORS
330
C
102
}
330
C
100
AcDbDictionary
281
     1
  3
2dWireframe
350
2F
  3
Basic
350
2E
  3
Brighten
350
35
  3
ColorChange
350
39
  3
Conceptual
350
32
  3
Dim
350
34
  3
EdgeColorOff
350
41
  3
Facepattern
350
38
  3
Flat
350
2A
  3
FlatWithEdges
350
2B
  3
Gouraud
350
2C
  3
GouraudWithEdges
350
2D
  3
Hidden
350
31
  3
JitterOff
350
3F
  3
Linepattern
350
37
  3
OverhangOff
350
40
  3
Realistic
350
33
  3
Shaded
350
3E
  3
Shaded with edges
350
3D
  3
Shades of Gray
350
3A
  3
Sketchy
350
3B
  3
Thicken
350
36
  3
Wireframe
350
30
  3
X-Ray
350
3C
  0
XRECORD
  5
1F7
102
{ACAD_REACTORS
330
C
102
}
330
C
100
AcDbXrecord
280
     1
 90
        1
330
65
  0
DICTIONARY
  5
1EF
102
{ACAD_REACTORS
330
C
102
}
330
C
100
AcDbDictionary
281
     1
  3
CANNOSCALE
350
1F4
  3
CMLEADERSTYLE
350
1F1
  3
CTABLESTYLE
350
1F0
  3
CVIEWDETAILSTYLE
350
1F2
  3
CVIEWSECTIONSTYLE
350
1F3
  0
ACDBDETAILVIEWSTYLE
  5
6B
102
{ACAD_REACTORS
330
6A
102
}
330
6A
100
AcDbModelDocViewStyle
 70
     0
  3
Imperial24
290
     1
300
Imperial24
 90
        0
100
AcDbDetailViewStyle
 70
     0
 71
     0
 90
        3
 71
     1
340
55
 62
   256
 40
0.24
340
0
 62
   256
 40
0.24
300

 40
0.36
280
     3
 71
     2
340
5D
 90
       25
 62
   256
 71
     3
340
55
 62
   256
 40
0.24
 90
        1
 40
0.75
 90
        1
300
%<\AcVar ViewType \f "%tc1">% %<\AcVar ViewDetailId>%\PSCALE %<\AcVar ViewScale \f "%sn">%
 71
     4
340
5D
 90
       25
 62
   256
340
5D
 90
       25
 62
   256
280
     0
  0
LAYOUT
  5
6F
102
{ACAD_REACTORS
330
62
102
}
330
62
100
AcDbPlotSettings
  1

  2

  4

  6

 40
0.0
 41
0.0
 42
0.0
 43
0.0
 44
0.0
 45
0.0
 46
0.0
 47
0.0
 48
0.0
 49
0.0
140
0.0
141
0.0
142
1.0
143
1.0
 70
   688
 72
     0
 73
     0
 74
     5
  7

 75
    16
147
1.0
 76
     0
 77
     2
 78
   300
148
0.0
149
0.0
100
AcDbLayout
  1
Layout1
 70
     1
 71
     1
 10
0.0
 20
0.0
 11
12.0
 21
9.0
 12
0.0
 22
0.0
 32
0.0
 14
0.0
 24
0.0
 34
0.0
 15
0.0
 25
0.0
 35
0.0
146
0.0
 13
0.0
 23
0.0
 33
0.0
 16
1.0
 26
0.0
 36
0.0
 17
0.0
 27
1.0
 37
0.0
 76
     0
330
6C
  0
LAYOUT
  5
77
102
{ACAD_REACTORS
330
62
102
}
330
62
100
AcDbPlotSettings
  1

  2

  4

  6

 40
0.0
 41
0.0
 42
0.0
 43
0.0
 44
0.0
 45
0.0
 46
0.0
 47
0.0
 48
0.0
 49
0.0
140
0.0
141
0.0
142
1.0
143
1.0
 70
   688
 72
     0
 73
     0
 74
     5
  7

 75
    16
147
1.0
 76
     0
 77
     2
 78
   300
148
0.0
149
0.0
100
AcDbLayout
  1
Layout2
 70
     1
 71
     2
 10
0.0
 20
0.0
 11
12.0
 21
9.0
 12
0.0
 22
0.0
 32
0.0
 14
0.0
 24
0.0
 34
0.0
 15
0.0
 25
0.0
 35
0.0
146
0.0
 13
0.0
 23
0.0
 33
0.0
 16
1.0
 26
0.0
 36
0.0
 17
0.0
 27
1.0
 37
0.0
 76
     0
330
74
  0
LAYOUT
  5
73
102
{ACAD_REACTORS
330
62
102
}
330
62
100
AcDbPlotSettings
  1

  2

  4

  6

 40
0.0
 41
0.0
 42
0.0
 43
0.0
 44
0.0
 45
0.0
 46
0.0
 47
0.0
 48
0.0
 49
0.0
140
0.0
141
0.0
142
1.0
143
1.0
 70
  1712
 72
     0
 73
     0
 74
     0
  7

 75
     0
147
1.0
 76
     0
 77
     2
 78
   300
148
0.0
149
0.0
100
AcDbLayout
  1
Model
 70
     1
 71
     0
 10
0.0
 20
0.0
 11
12.0
 21
9.0
 12
0.0
 22
0.0
 32
0.0
 14
0.0
 24
0.0
 34
0.0
 15
0.0
 25
0.0
 35
0.0
146
0.0
 13
0.0
 23
0.0
 33
0.0
 16
1.0
 26
0.0
 36
0.0
 17
0.0
 27
1.0
 37
0.0
 76
     0
330
70
  0
MATERIAL
  5
19
102
{ACAD_XDICTIONARY
360
1A
102
}
102
{ACAD_REACTORS
330
10
102
}
330
10
100
AcDbMaterial
  1
ByBlock
 72
     0
 43
0.0208333333333333
 43
0.0
 43
0.0
 43
0.0
 43
0.0
 43
0.0208333333333333
 43
0.0
 43
0.0
 43
0.0
 43
0.0
 43
1.0
 43
0.0
 43
0.0
 43
0.0
 43
0.0
 43
1.0
 77
     0
 47
0.0208333333333333
 47
0.0
 47
0.0
 47
0.0
 47
0.0
 47
0.0208333333333333
 47
0.0
 47
0.0
 47
0.0
 47
0.0
 47
1.0
 47
0.0
 47
0.0
 47
0.0
 47
0.0
 47
1.0
171
     0
 49
0.0208333333333333
 49
0.0
 49
0.0
 49
0.0
 49
0.0
 49
0.0208333333333333
 49
0.0
 49
0.0
 49
0.0
 49
0.0
 49
1.0
 49
0.0
 49
0.0
 49
0.0
 49
0.0
 49
1.0
175
     0
142
0.0208333333333333
142
0.0
142
0.0
142
0.0
142
0.0
142
0.0208333333333333
142
0.0
142
0.0
142
0.0
142
0.0
142
1.0
142
0.0
142
0.0
142
0.0
142
0.0
142
1.0
179
     0
144
0.0208333333333333
144
0.0
144
0.0
144
0.0
144
0.0
144
0.0208333333333333
144
0.0
144
0.0
144
0.0
144
0.0
144
1.0
144
0.0
144
0.0
144
0.0
144
0.0
144
1.0
147
0.0208333333333333
147
0.0
147
0.0
147
0.0
147
0.0
147
0.0208333333333333
147
0.0
147
0.0
147
0.0
147
0.0
147
1.0
147
0.0
147
0.0
147
0.0
147
0.0
147
1.0
  0
MATERIAL
  5
11
102
{ACAD_XDICTIONARY
360
12
102
}
102
{ACAD_REACTORS
330
10
102
}
330
10
100
AcDbMaterial
  1
ByLayer
 72
     0
 43
0.0208333333333333
 43
0.0
 43
0.0
 43
0.0
 43
0.0
 43
0.0208333333333333
 43
0.0
 43
0.0
 43
0.0
 43
0.0
 43
1.0
 43
0.0
 43
0.0
 43
0.0
 43
0.0
 43
1.0
 77
     0
 47
0.0208333333333333
 47
0.0
 47
0.0
 47
0.0
 47
0.0
 47
0.0208333333333333
 47
0.0
 47
0.0
 47
0.0
 47
0.0
 47
1.0
 47
0.0
 47
0.0
 47
0.0
 47
0.0
 47
1.0
171
     0
 49
0.0208333333333333
 49
0.0
 49
0.0
 49
0.0
 49
0.0
 49
0.0208333333333333
 49
0.0
 49
0.0
 49
0.0
 49
0.0
 49
1.0
 49
0.0
 49
0.0
 49
0.0
 49
0.0
 49
1.0
175
     0
142
0.0208333333333333
142
0.0
142
0.0
142
0.0
142
0.0
142
0.0208333333333333
142
0.0
142
0.0
142
0.0
142
0.0
142
1.0
142
0.0
142
0.0
142
0.0
142
0.0
142
1.0
179
     0
144
0.0208333333333333
144
0.0
144
0.0
144
0.0
144
0.0
144
0.0208333333333333
144
0.0
144
0.0
144
0.0
144
0.0
144
1.0
144
0.0
144
0.0
144
0.0
144
0.0
144
1.0
147
0.0208333333333333
147
0.0
147
0.0
147
0.0
147
0.0
147
0.0208333333333333
147
0.0
147
0.0
147
0.0
147
0.0
147
1.0
147
0.0
147
0.0
147
0.0
147
0.0
147
1.0
  0
MATERIAL
  5
21
102
{ACAD_XDICTIONARY
360
22
102
}
102
{ACAD_REACTORS
330
10
102
}
330
10
100
AcDbMaterial
  1
Global
 72
     0
 43
0.0208333333333333
 43
0.0
 43
0.0
 43
0.0
 43
0.0
 43
0.0208333333333333
 43
0.0
 43
0.0
 43
0.0
 43
0.0
 43
1.0
 43
0.0
 43
0.0
 43
0.0
 43
0.0
 43
1.0
 77
     0
 47
0.0208333333333333
 47
0.0
 47
0.0
 47
0.0
 47
0.0
 47
0.0208333333333333
 47
0.0
 47
0.0
 47
0.0
 47
0.0
 47
1.0
 47
0.0
 47
0.0
 47
0.0
 47
0.0
 47
1.0
171
     0
 49
0.0208333333333333
 49
0.0
 49
0.0
 49
0.0
 49
0.0
 49
0.0208333333333333
 49
0.0
 49
0.0
 49
0.0
 49
0.0
 49
1.0
 49
0.0
 49
0.0
 49
0.0
 49
0.0
 49
1.0
175
     0
142
0.0208333333333333
142
0.0
142
0.0
142
0.0
142
0.0
142
0.0208333333333333
142
0.0
142
0.0
142
0.0
142
0.0
142
1.0
142
0.0
142
0.0
142
0.0
142
0.0
142
1.0
179
     0
144
0.0208333333333333
144
0.0
144
0.0
144
0.0
144
0.0
144
0.0208333333333333
144
0.0
144
0.0
144
0.0
144
0.0
144
1.0
144
0.0
144
0.0
144
0.0
144
0.0
144
1.0
147
0.0208333333333333
147
0.0
147
0.0
147
0.0
147
0.0
147
0.0208333333333333
147
0.0
147
0.0
147
0.0
147
0.0
147
1.0
147
0.0
147
0.0
147
0.0
147
0.0
147
1.0
  0
MLEADERSTYLE
  5
67
102
{ACAD_REACTORS
330
66
102
}
330
66
100
AcDbMLeaderStyle
179
     2
170
     2
171
     1
172
     0
 90
        2
 40
0.0
 41
0.0
173
     1
 91
-1056964608
340
5B
 92
       -2
290
     1
 42
0.09
291
     1
 43
0.36
  3
Standard
 44
0.18
300

342
55
174
     1
178
     6
175
     1
176
     0
 93
-1056964608
 45
0.18
292
     0
297
     0
 46
0.18
 94
-1056964608
 47
1.0
 49
1.0
140
1.0
293
     1
141
0.0
294
     1
177
     0
142
1.0
295
     1
296
     0
143
0.125
271
     0
272
     9
273
     9
298
     1
  0
MLINESTYLE
  5
60
102
{ACAD_REACTORS
330
5F
102
}
330
5F
100
AcDbMlineStyle
  2
STANDARD
 70
     0
  3

 62
   256
 51
90.0
 52
90.0
 71
     2
 49
0.5
 62
   256
  6
BYLAYER
 49
-0.5
 62
   256
  6
BYLAYER
  0
ACDBPLACEHOLDER
  5
F
102
{ACAD_REACTORS
330
E
102
}
330
E
  0
SCALE
  5
43
102
{ACAD_REACTORS
330
42
102
}
330
42
100
AcDbScale
 70
     0
300
1:1
140
1.0
141
1.0
290
     1
  0
SCALE
  5
44
102
{ACAD_REACTORS
330
42
102
}
330
42
100
AcDbScale
 70
     0
300
1/128" = 1'-0"
140
0.0078125
141
12.0
290
     0
  0
SCALE
  5
45
102
{ACAD_REACTORS
330
42
102
}
330
42
100
AcDbScale
 70
     0
300
1/64" = 1'-0"
140
0.015625
141
12.0
290
     0
  0
SCALE
  5
46
102
{ACAD_REACTORS
330
42
102
}
330
42
100
AcDbScale
 70
     0
300
1/32" = 1'-0"
140
0.03125
141
12.0
290
     0
  0
SCALE
  5
47
102
{ACAD_REACTORS
330
42
102
}
330
42
100
AcDbScale
 70
     0
300
1/16" = 1'-0"
140
0.0625
141
12.0
290
     0
  0
SCALE
  5
48
102
{ACAD_REACTORS
330
42
102
}
330
42
100
AcDbScale
 70
     0
300
3/32" = 1'-0"
140
0.09375
141
12.0
290
     0
  0
SCALE
  5
49
102
{ACAD_REACTORS
330
42
102
}
330
42
100
AcDbScale
 70
     0
300
1/8" = 1'-0"
140
0.125
141
12.0
290
     0
  0
SCALE
  5
4A
102
{ACAD_REACTORS
330
42
102
}
330
42
100
AcDbScale
 70
     0
300
3/16" = 1'-0"
140
0.1875
141
12.0
290
     0
  0
SCALE
  5
4B
102
{ACAD_REACTORS
330
42
102
}
330
42
100
AcDbScale
 70
     0
300
1/4" = 1'-0"
140
0.25
141
12.0
290
     0
  0
SCALE
  5
4C
102
{ACAD_REACTORS
330
42
102
}
330
42
100
AcDbScale
 70
     0
300
3/8" = 1'-0"
140
0.375
141
12.0
290
     0
  0
SCALE
  5
4D
102
{ACAD_REACTORS
330
42
102
}
330
42
100
AcDbScale
 70
     0
300
1/2" = 1'-0"
140
0.5
141
12.0
290
     0
  0
SCALE
  5
4E
102
{ACAD_REACTORS
330
42
102
}
330
42
100
AcDbScale
 70
     0
300
3/4" = 1'-0"
140
0.75
141
12.0
290
     0
  0
SCALE
  5
4F
102
{ACAD_REACTORS
330
42
102
}
330
42
100
AcDbScale
 70
     0
300
1" = 1'-0"
140
1.0
141
12.0
290
     0
  0
SCALE
  5
50
102
{ACAD_REACTORS
330
42
102
}
330
42
100
AcDbScale
 70
     0
300
1-1/2" = 1'-0"
140
1.5
141
12.0
290
     0
  0
SCALE
  5
51
102
{ACAD_REACTORS
330
42
102
}
330
42
100
AcDbScale
 70
     0
300
3" = 1'-0"
140
3.0
141
12.0
290
     0
  0
SCALE
  5
52
102
{ACAD_REACTORS
330
42
102
}
330
42
100
AcDbScale
 70
     0
300
6" = 1'-0"
140
6.0
141
12.0
290
     0
  0
SCALE
  5
53
102
{ACAD_REACTORS
330
42
102
}
330
42
100
AcDbScale
 70
     0
300
1'-0" = 1'-0"
140
12.0
141
12.0
290
     0
  0
ACDBSECTIONVIEWSTYLE
  5
69
102
{ACAD_REACTORS
330
68
102
}
330
68
100
AcDbModelDocViewStyle
 70
     0
  3
Imperial24
290
     1
300
Imperial24
 90
        0
100
AcDbSectionViewStyle
 70
     0
 71
     0
 90
       78
 71
     1
340
55
 62
   256
 40
0.24
340
0
340
0
 62
   256
 40
0.24
300
I, O, Q, S, X, Z
 40
0.48
 90
        3
 40
0.18
 90
        1
 71
     2
340
5D
 90
       25
 62
   256
340
5D
 90
       50
 62
   256
 40
0.24
 40
0.0
 40
0.24
 71
     3
340
55
 62
   256
 40
0.24
 90
        1
 40
0.75
 90
        1
300
%<\AcVar ViewType \f "%tc1">% %<\AcVar ViewSectionStartId>%-%<\AcVar ViewSectionEndId>%\PSCALE %<\AcVar ViewScale \f "%sn">%
 71
     4
 62
   256
 62
   257
300
ANSI31
 40
1.0
 90
        0
290
     0
290
     0
 90
        6
 40
0.0
 40
1.570796326794896
 40
0.2617993877991494
 40
1.308996938995747
 40
-0.2617993877991494
 40
1.832595714594046
  0
TABLESTYLE
  5
65
102
{ACAD_XDICTIONARY
360
1F5
102
}
102
{ACAD_REACTORS
330
64
102
}
330
64
100
AcDbTableStyle
280
     0
  3
Standard
 70
     0
 71
     0
 40
0.06
 41
0.06
280
     0
281
     0
  7
Standard
140
0.18
170
     2
 62
     0
 63
     7
283
     0
 90
      512
 91
        0
  1

274
    -2
284
     1
 64
     0
275
    -2
285
     1
 65
     0
276
    -2
286
     1
 66
     0
277
    -2
287
     1
 67
     0
278
    -2
288
     1
 68
     0
279
    -2
289
     1
 69
     0
  7
Standard
140
0.25
170
     5
 62
     0
 63
     7
283
     0
 90
      512
 91
        0
  1

274
    -2
284
     1
 64
     0
275
    -2
285
     1
 65
     0
276
    -2
286
     1
 66
     0
277
    -2
287
     1
 67
     0
278
    -2
288
     1
 68
     0
279
    -2
289
     1
 69
     0
  7
Standard
140
0.18
170
     5
 62
     0
 63
     7
283
     0
 90
      512
 91
        0
  1

274
    -2
284
     1
 64
     0
275
    -2
285
     1
 65
     0
276
    -2
286
     1
 66
     0
277
    -2
287
     1
 67
     0
278
    -2
288
     1
 68
     0
279
    -2
289
     1
 69
     0
  0
VISUALSTYLE
  5
2F
102
{ACAD_REACTORS
330
29
102
}
330
29
100
AcDbVisualStyle
  2
2dWireframe
 70
     4
177
     3
291
     0
 70
    58
 90
        0
176
     1
 90
        2
176
     1
 90
        0
176
     1
 90
        0
176
     1
 40
0.6
176
     1
 40
30.0
176
     1
 62
     7
420
 16777215
176
     1
 90
        1
176
     1
 90
        4
176
     1
 62
     7
176
     1
 62
   257
176
     1
 90
        1
176
     1
 90
        1
176
     1
 40
1.0
176
     1
 90
        0
176
     1
 62
   257
176
     1
 40
1.0
176
     1
 90
        1
176
     1
 90
        6
176
     1
 90
        2
176
     1
 62
     7
176
     1
 90
        5
176
     1
 90
        0
176
     1
 90
        0
176
     1
290
     0
176
     1
 90
        1
176
     1
 40
0.0
176
     1
 90
        0
176
     1
290
     1
176
     1
290
     1
176
     1
290
     0
176
     1
290
     0
176
     1
290
     0
176
     1
290
     0
176
     1
290
     0
176
     1
290
     0
176
     1
290
     0
176
     1
 90
       50
176
     1
 40
0.0
176
     1
 40
1.0
176
     1
 90
        0
176
     1
 62
    18
420
        0
176
     1
 90
       50
176
     1
 90
        3
176
     1
 62
     5
420
      255
176
     1
290
     0
176
     1
 90
       50
176
     1
 90
       50
176
     1
 90
       50
176
     1
290
     0
176
     1
 90
       50
176
     1
 62
   256
176
     0
 40
1.0
176
     0
 90
        2
176
     1
  1
strokes_ogs.tif
176
     1
290
     0
176
     1
 40
1.0
176
     1
 40
1.0
176
     1
  0
VISUALSTYLE
  5
2E
102
{ACAD_REACTORS
330
29
102
}
330
29
100
AcDbVisualStyle
  2
Basic
 70
     7
177
     3
291
     1
 70
    58
 90
        1
176
     1
 90
        0
176
     1
 90
        1
176
     1
 90
        0
176
     1
 40
0.6
176
     1
 40
30.0
176
     1
 62
     7
420
 16777215
176
     1
 90
        0
176
     1
 90
        4
176
     1
 62
     7
176
     1
 62
   257
176
     1
 90
        1
176
     1
 90
        1
176
     1
 40
1.0
176
     1
 90
        8
176
     1
 62
     7
176
     1
 40
1.0
176
     1
 90
        1
176
     1
 90
        6
176
     1
 90
        2
176
     1
 62
     7
176
     1
 90
        5
176
     1
 90
        0
176
     1
 90
        0
176
     1
290
     0
176
     1
 90
        1
176
     1
 40
0.0
176
     1
 90
        0
176
     1
290
     0
176
     1
290
     1
176
     1
290
     1
176
     1
290
     0
176
     1
290
     0
176
     1
290
     0
176
     1
290
     0
176
     1
290
     0
176
     1
290
     0
176
     1
 90
       50
176
     1
 40
0.0
176
     1
 40
1.0
176
     1
 90
        0
176
     1
 62
    18
420
        0
176
     1
 90
       50
176
     1
 90
        3
176
     1
 62
     5
420
      255
176
     1
290
     0
176
     1
 90
       50
176
     1
 90
       50
176
     1
 90
       50
176
     1
290
     0
176
     1
 90
       50
176
     1
 62
   256
176
     0
 40
1.0
176
     0
 90
        2
176
     1
  1
strokes_ogs.tif
176
     1
290
     0
176
     1
 40
1.0
176
     1
 40
1.0
176
     1
  0
VISUALSTYLE
  5
35
102
{ACAD_REACTORS
330
29
102
}
330
29
100
AcDbVisualStyle
  2
Brighten
 70
    12
177
     3
291
     1
 70
    58
 90
        2
176
     1
 90
        2
176
     1
 90
        0
176
     1
 90
        0
176
     1
 40
0.6
176
     1
 40
30.0
176
     1
 62
     7
420
 16777215
176
     1
 90
        1
176
     1
 90
        4
176
     1
 62
     7
176
     1
 62
   257
176
     1
 90
        1
176
     1
 90
        1
176
     1
 40
1.0
176
     1
 90
        8
176
     1
 62
     7
176
     1
 40
1.0
176
     1
 90
        1
176
     1
 90
        6
176
     1
 90
        2
176
     1
 62
     7
176
     1
 90
        5
176
     1
 90
        0
176
     1
 90
        0
176
     1
290
     0
176
     1
 90
        1
176
     1
 40
50.0
176
     1
 90
        0
176
     1
290
     0
176
     1
290
     1
176
     1
290
     1
176
     1
290
     0
176
     1
290
     0
176
     1
290
     0
176
     1
290
     0
176
     1
290
     0
176
     1
290
     0
176
     1
 90
       50
176
     1
 40
0.0
176
     1
 40
1.0
176
     1
 90
        0
176
     1
 62
    18
420
        0
176
     1
 90
       50
176
     1
 90
        3
176
     1
 62
     5
420
      255
176
     1
290
     0
176
     1
 90
       50
176
     1
 90
       50
176
     1
 90
       50
176
     1
290
     0
176
     1
 90
       50
176
     1
 62
   256
176
     0
 40
1.0
176
     0
 90
        2
176
     1
  1
strokes_ogs.tif
176
     1
290
     0
176
     1
 40
1.0
176
     1
 40
1.0
176
     1
  0
VISUALSTYLE
  5
39
102
{ACAD_REACTORS
330
29
102
}
330
29
100
AcDbVisualStyle
  2
ColorChange
 70
    16
177
     3
291
     1
 70
    58
 90
        2
176
     1
 90
        2
176
     1
 90
        3
176
     1
 90
        0
176
     1
 40
0.6
176
     1
 40
30.0
176
     1
 62
     8
420
  8421504
176
     1
 90
        1
176
     1
 90
        4
176
     1
 62
     7
176
     1
 62
   257
176
     1
 90
        1
176
     1
 90
        1
176
     1
 40
1.0
176
     1
 90
        8
176
     1
 62
     8
420
  8421504
176
     1
 40
1.0
176
     1
 90
        1
176
     1
 90
        6
176
     1
 90
        2
176
     1
 62
     7
176
     1
 90
        5
176
     1
 90
        0
176
     1
 90
        0
176
     1
290
     0
176
     1
 90
        1
176
     1
 40
0.0
176
     1
 90
        0
176
     1
290
     0
176
     1
290
     1
176
     1
290
     1
176
     1
290
     0
176
     1
290
     0
176
     1
290
     0
176
     1
290
     0
176
     1
290
     0
176
     1
290
     0
176
     1
 90
       50
176
     1
 40
0.0
176
     1
 40
1.0
176
     1
 90
        0
176
     1
 62
    18
420
        0
176
     1
 90
       50
176
     1
 90
        3
176
     1
 62
     5
420
      255
176
     1
290
     0
176
     1
 90
       50
176
     1
 90
       50
176
     1
 90
       50
176
     1
290
     0
176
     1
 90
       50
176
     1
 62
   256
176
     0
 40
1.0
176
     0
 90
        2
176
     1
  1
strokes_ogs.tif
176
     1
290
     0
176
     1
 40
1.0
176
     1
 40
1.0
176
     1
  0
VISUALSTYLE
  5
32
102
{ACAD_REACTORS
330
29
102
}
330
29
100
AcDbVisualStyle
  2
Conceptual
 70
     9
177
     3
291
     0
 70
    58
 90
        3
176
     1
 90
        2
176
     1
 90
        0
176
     1
 90
        0
176
     1
 40
0.6
176
     1
 40
30.0
176
     1
 62
     7
420
 16777215
176
     1
 90
        2
176
     1
 90
        2
176
     1
 62
     7
176
     1
 62
   257
176
     1
 90
        1
176
     1
 90
        1
176
     1
 40
179.0
176
     1
 90
        8
176
     1
 62
     7
176
     1
 40
1.0
176
     1
 90
        1
176
     1
 90
        6
176
     1
 90
        2
176
     1
 62
     7
176
     1
 90
        3
176
     1
 90
        0
176
     1
 90
        0
176
     1
290
     0
176
     1
 90
        1
176
     1
 40
0.0
176
     1
 90
        0
176
     1
290
     0
176
     1
290
     1
176
     1
290
     1
176
     1
290
     0
176
     1
290
     0
176
     1
290
     0
176
     1
290
     0
176
     1
290
     0
176
     1
290
     0
176
     1
 90
       50
176
     1
 40
0.0
176
     1
 40
1.0
176
     1
 90
        0
176
     1
 62
    18
420
        0
176
     1
 90
       50
176
     1
 90
        3
176
     1
 62
     5
420
      255
176
     1
290
     0
176
     1
 90
       50
176
     1
 90
       50
176
     1
 90
       50
176
     1
290
     0
176
     1
 90
       50
176
     1
 62
   256
176
     0
 40
1.0
176
     0
 90
        2
176
     1
  1
strokes_ogs.tif
176
     1
290
     0
176
     1
 40
1.0
176
     1
 40
1.0
176
     1
  0
VISUALSTYLE
  5
34
102
{ACAD_REACTORS
330
29
102
}
330
29
100
AcDbVisualStyle
  2
Dim
 70
    11
177
     3
291
     1
 70
    58
 90
        2
176
     1
 90
        2
176
     1
 90
        0
176
     1
 90
        0
176
     1
 40
0.6
176
     1
 40
30.0
176
     1
 62
     7
420
 16777215
176
     1
 90
        1
176
     1
 90
        4
176
     1
 62
     7
176
     1
 62
   257
176
     1
 90
        1
176
     1
 90
        1
176
     1
 40
1.0
176
     1
 90
        8
176
     1
 62
     7
176
     1
 40
1.0
176
     1
 90
        1
176
     1
 90
        6
176
     1
 90
        2
176
     1
 62
     7
176
     1
 90
        5
176
     1
 90
        0
176
     1
 90
        0
176
     1
290
     0
176
     1
 90
        1
176
     1
 40
-50.0
176
     1
 90
        0
176
     1
290
     0
176
     1
290
     1
176
     1
290
     1
176
     1
290
     0
176
     1
290
     0
176
     1
290
     0
176
     1
290
     0
176
     1
290
     0
176
     1
290
     0
176
     1
 90
       50
176
     1
 40
0.0
176
     1
 40
1.0
176
     1
 90
        0
176
     1
 62
    18
420
        0
176
     1
 90
       50
176
     1
 90
        3
176
     1
 62
     5
420
      255
176
     1
290
     0
176
     1
 90
       50
176
     1
 90
       50
176
     1
 90
       50
176
     1
290
     0
176
     1
 90
       50
176
     1
 62
   256
176
     0
 40
1.0
176
     0
 90
        2
176
     1
  1
strokes_ogs.tif
176
     1
290
     0
176
     1
 40
1.0
176
     1
 40
1.0
176
     1
  0
VISUALSTYLE
  5
41
102
{ACAD_REACTORS
330
29
102
}
330
29
100
AcDbVisualStyle
  2
EdgeColorOff
 70
    22
177
     3
291
     1
 70
    58
 90
        2
176
     0
 90
        2
176
     0
 90
        0
176
     0
 90
        0
176
     0
 40
0.6
176
     0
 40
30.0
176
     0
 62
     7
420
 16777215
176
     0
 90
        1
176
     0
 90
        4
176
     0
 62
     7
176
     0
 62
   257
176
     0
 90
        1
176
     0
 90
        1
176
     0
 40
1.0
176
     0
 90
        8
176
     2
 62
     7
176
     0
 40
1.0
176
     0
 90
        1
176
     0
 90
        6
176
     0
 90
        2
176
     0
 62
     7
176
     0
 90
        5
176
     0
 90
        0
176
     0
 90
        0
176
     0
290
     0
176
     0
 90
        1
176
     0
 40
0.0
176
     0
 90
        0
176
     0
290
     0
176
     0
290
     1
176
     0
290
     1
176
     0
290
     0
176
     0
290
     0
176
     0
290
     0
176
     0
290
     0
176
     0
290
     0
176
     0
290
     0
176
     0
 90
       50
176
     0
 40
0.0
176
     0
 40
1.0
176
     0
 90
        0
176
     0
 62
    18
420
        0
176
     0
 90
       50
176
     0
 90
        3
176
     0
 62
     5
420
      255
176
     0
290
     0
176
     0
 90
       50
176
     0
 90
       50
176
     0
 90
       50
176
     0
290
     0
176
     0
 90
       50
176
     0
 62
   256
176
     0
 40
1.0
176
     0
 90
        2
176
     0
  1
strokes_ogs.tif
176
     0
290
     0
176
     0
 40
1.0
176
     0
 40
1.0
176
     0
  0
VISUALSTYLE
  5
38
102
{ACAD_REACTORS
330
29
102
}
330
29
100
AcDbVisualStyle
  2
Facepattern
 70
    15
177
     3
291
     1
 70
    58
 90
        2
176
     1
 90
        2
176
     1
 90
        0
176
     1
 90
        0
176
     1
 40
0.6
176
     1
 40
30.0
176
     1
 62
     7
420
 16777215
176
     1
 90
        1
176
     1
 90
        4
176
     1
 62
     7
176
     1
 62
   257
176
     1
 90
        1
176
     1
 90
        1
176
     1
 40
1.0
176
     1
 90
        8
176
     1
 62
     7
176
     1
 40
1.0
176
     1
 90
        1
176
     1
 90
        6
176
     1
 90
        2
176
     1
 62
     7
176
     1
 90
        5
176
     1
 90
        0
176
     1
 90
        0
176
     1
290
     0
176
     1
 90
        1
176
     1
 40
0.0
176
     1
 90
        0
176
     1
290
     0
176
     1
290
     1
176
     1
290
     1
176
     1
290
     0
176
     1
290
     0
176
     1
290
     0
176
     1
290
     0
176
     1
290
     0
176
     1
290
     0
176
     1
 90
       50
176
     1
 40
0.0
176
     1
 40
1.0
176
     1
 90
        0
176
     1
 62
    18
420
        0
176
     1
 90
       50
176
     1
 90
        3
176
     1
 62
     5
420
      255
176
     1
290
     0
176
     1
 90
       50
176
     1
 90
       50
176
     1
 90
       50
176
     1
290
     0
176
     1
 90
       50
176
     1
 62
   256
176
     0
 40
1.0
176
     0
 90
        2
176
     1
  1
strokes_ogs.tif
176
     1
290
     0
176
     1
 40
1.0
176
     1
 40
1.0
176
     1
  0
VISUALSTYLE
  5
2A
102
{ACAD_REACTORS
330
29
102
}
330
29
100
AcDbVisualStyle
  2
Flat
 70
     0
177
     3
291
     1
 70
    58
 90
        2
176
     1
 90
        1
176
     1
 90
        1
176
     1
 90
        2
176
     1
 40
0.6
176
     1
 40
30.0
176
     1
 62
     7
420
 16777215
176
     1
 90
        0
176
     1
 90
        0
176
     1
 62
     7
176
     1
 62
   257
176
     1
 90
        1
176
     1
 90
        1
176
     1
 40
1.0
176
     1
 90
        8
176
     1
 62
     7
176
     1
 40
1.0
176
     1
 90
        1
176
     1
 90
        6
176
     1
 90
        2
176
     1
 62
     7
176
     1
 90
        5
176
     1
 90
        0
176
     1
 90
        0
176
     1
290
     0
176
     1
 90
       13
176
     1
 40
0.0
176
     1
 90
        0
176
     1
290
     0
176
     1
290
     1
176
     1
290
     1
176
     1
290
     0
176
     1
290
     0
176
     1
290
     0
176
     1
290
     0
176
     1
290
     0
176
     1
290
     0
176
     1
 90
       50
176
     1
 40
0.0
176
     1
 40
1.0
176
     1
 90
        0
176
     1
 62
    18
420
        0
176
     1
 90
       50
176
     1
 90
        3
176
     1
 62
     5
420
      255
176
     1
290
     0
176
     1
 90
       50
176
     1
 90
       50
176
     1
 90
       50
176
     1
290
     0
176
     1
 90
       50
176
     1
 62
   256
176
     0
 40
1.0
176
     0
 90
        2
176
     1
  1
strokes_ogs.tif
176
     1
290
     0
176
     1
 40
1.0
176
     1
 40
1.0
176
     1
  0
VISUALSTYLE
  5
2B
102
{ACAD_REACTORS
330
29
102
}
330
29
100
AcDbVisualStyle
  2
FlatWithEdges
 70
     1
177
     3
291
     1
 70
    58
 90
        2
176
     1
 90
        1
176
     1
 90
        1
176
     1
 90
        2
176
     1
 40
0.6
176
     1
 40
30.0
176
     1
 62
     7
420
 16777215
176
     1
 90
        1
176
     1
 90
        0
176
     1
 62
     7
176
     1
 62
   257
176
     1
 90
        1
176
     1
 90
        1
176
     1
 40
1.0
176
     1
 90
        0
176
     1
 62
   257
176
     1
 40
1.0
176
     1
 90
        1
176
     1
 90
        6
176
     1
 90
        2
176
     1
 62
     7
176
     1
 90
        5
176
     1
 90
        0
176
     1
 90
        0
176
     1
290
     0
176
     1
 90
       13
176
     1
 40
0.0
176
     1
 90
        0
176
     1
290
     0
176
     1
290
     1
176
     1
290
     1
176
     1
290
     0
176
     1
290
     0
176
     1
290
     0
176
     1
290
     0
176
     1
290
     0
176
     1
290
     0
176
     1
 90
       50
176
     1
 40
0.0
176
     1
 40
1.0
176
     1
 90
        0
176
     1
 62
    18
420
        0
176
     1
 90
       50
176
     1
 90
        3
176
     1
 62
     5
420
      255
176
     1
290
     0
176
     1
 90
       50
176
     1
 90
       50
176
     1
 90
       50
176
     1
290
     0
176
     1
 90
       50
176
     1
 62
   256
176
     0
 40
1.0
176
     0
 90
        2
176
     1
  1
strokes_ogs.tif
176
     1
290
     0
176
     1
 40
1.0
176
     1
 40
1.0
176
     1
  0
VISUALSTYLE
  5
2C
102
{ACAD_REACTORS
330
29
102
}
330
29
100
AcDbVisualStyle
  2
Gouraud
 70
     2
177
     3
291
     1
 70
    58
 90
        2
176
     1
 90
        2
176
     1
 90
        1
176
     1
 90
        2
176
     1
 40
0.6
176
     1
 40
30.0
176
     1
 62
     7
420
 16777215
176
     1
 90
        0
176
     1
 90
        0
176
     1
 62
     7
176
     1
 62
   257
176
     1
 90
        1
176
     1
 90
        1
176
     1
 40
1.0
176
     1
 90
        0
176
     1
 62
     7
176
     1
 40
1.0
176
     1
 90
        1
176
     1
 90
        6
176
     1
 90
        2
176
     1
 62
     7
176
     1
 90
        5
176
     1
 90
        0
176
     1
 90
        0
176
     1
290
     0
176
     1
 90
       13
176
     1
 40
0.0
176
     1
 90
        0
176
     1
290
     0
176
     1
290
     1
176
     1
290
     1
176
     1
290
     0
176
     1
290
     0
176
     1
290
     0
176
     1
290
     0
176
     1
290
     0
176
     1
290
     0
176
     1
 90
       50
176
     1
 40
0.0
176
     1
 40
1.0
176
     1
 90
        0
176
     1
 62
    18
420
        0
176
     1
 90
       50
176
     1
 90
        3
176
     1
 62
     5
420
      255
176
     1
290
     0
176
     1
 90
       50
176
     1
 90
       50
176
     1
 90
       50
176
     1
290
     0
176
     1
 90
       50
176
     1
 62
   256
176
     0
 40
1.0
176
     0
 90
        2
176
     1
  1
strokes_ogs.tif
176
     1
290
     0
176
     1
 40
1.0
176
     1
 40
1.0
176
     1
  0
VISUALSTYLE
  5
2D
102
{ACAD_REACTORS
330
29
102
}
330
29
100
AcDbVisualStyle
  2
GouraudWithEdges
 70
     3
177
     3
291
     1
 70
    58
 90
        2
176
     1
 90
        2
176
     1
 90
        1
176
     1
 90
        2
176
     1
 40
0.6
176
     1
 40
30.0
176
     1
 62
     7
420
 16777215
176
     1
 90
        1
176
     1
 90
        0
176
     1
 62
     7
176
     1
 62
   257
176
     1
 90
        1
176
     1
 90
        1
176
     1
 40
1.0
176
     1
 90
        0
176
     1
 62
   257
176
     1
 40
1.0
176
     1
 90
        1
176
     1
 90
        6
176
     1
 90
        2
176
     1
 62
     7
176
     1
 90
        5
176
     1
 90
        0
176
     1
 90
        0
176
     1
290
     0
176
     1
 90
       13
176
     1
 40
0.0
176
     1
 90
        0
176
     1
290
     0
176
     1
290
     1
176
     1
290
     1
176
     1
290
     0
176
     1
290
     0
176
     1
290
     0
176
     1
290
     0
176
     1
290
     0
176
     1
290
     0
176
     1
 90
       50
176
     1
 40
0.0
176
     1
 40
1.0
176
     1
 90
        0
176
     1
 62
    18
420
        0
176
     1
 90
       50
176
     1
 90
        3
176
     1
 62
     5
420
      255
176
     1
290
     0
176
     1
 90
       50
176
     1
 90
       50
176
     1
 90
       50
176
     1
290
     0
176
     1
 90
       50
176
     1
 62
   256
176
     0
 40
1.0
176
     0
 90
        2
176
     1
  1
strokes_ogs.tif
176
     1
290
     0
176
     1
 40
1.0
176
     1
 40
1.0
176
     1
  0
VISUALSTYLE
  5
31
102
{ACAD_REACTORS
330
29
102
}
330
29
100
AcDbVisualStyle
  2
Hidden
 70
     6
177
     3
291
     0
 70
    58
 90
        1
176
     1
 90
        2
176
     1
 90
        2
176
     1
 90
        0
176
     1
 40
0.6
176
     1
 40
30.0
176
     1
 62
     7
420
 16777215
176
     1
 90
        2
176
     1
 90
        2
176
     1
 62
     7
176
     1
 62
   257
176
     1
 90
        2
176
     1
 90
        1
176
     1
 40
40.0
176
     1
 90
        0
176
     1
 62
   257
176
     1
 40
1.0
176
     1
 90
        1
176
     1
 90
        6
176
     1
 90
        2
176
     1
 62
     7
176
     1
 90
        3
176
     1
 90
        0
176
     1
 90
        0
176
     1
290
     0
176
     1
 90
        1
176
     1
 40
0.0
176
     1
 90
        0
176
     1
290
     0
176
     1
290
     1
176
     1
290
     1
176
     1
290
     0
176
     1
290
     0
176
     1
290
     0
176
     1
290
     0
176
     1
290
     0
176
     1
290
     0
176
     1
 90
       50
176
     1
 40
0.0
176
     1
 40
1.0
176
     1
 90
        0
176
     1
 62
    18
420
        0
176
     1
 90
       50
176
     1
 90
        3
176
     1
 62
     5
420
      255
176
     1
290
     0
176
     1
 90
       50
176
     1
 90
       50
176
     1
 90
       50
176
     1
290
     0
176
     1
 90
       50
176
     1
 62
   256
176
     0
 40
1.0
176
     0
 90
        2
176
     1
  1
strokes_ogs.tif
176
     1
290
     0
176
     1
 40
1.0
176
     1
 40
1.0
176
     1
  0
VISUALSTYLE
  5
3F
102
{ACAD_REACTORS
330
29
102
}
330
29
100
AcDbVisualStyle
  2
JitterOff
 70
    20
177
     3
291
     1
 70
    58
 90
        2
176
     0
 90
        2
176
     0
 90
        0
176
     0
 90
        0
176
     0
 40
0.6
176
     0
 40
30.0
176
     0
 62
     7
420
 16777215
176
     0
 90
        1
176
     0
 90
        4
176
     0
 62
     7
176
     0
 62
   257
176
     0
 90
        1
176
     0
 90
        1
176
     0
 40
1.0
176
     0
 90
       10
176
     2
 62
     7
176
     0
 40
1.0
176
     0
 90
        1
176
     0
 90
        6
176
     0
 90
        2
176
     0
 62
     7
176
     0
 90
        5
176
     0
 90
        0
176
     0
 90
        0
176
     0
290
     0
176
     0
 90
        1
176
     0
 40
0.0
176
     0
 90
        0
176
     0
290
     0
176
     0
290
     1
176
     0
290
     1
176
     0
290
     0
176
     0
290
     0
176
     0
290
     0
176
     0
290
     0
176
     0
290
     0
176
     0
290
     0
176
     0
 90
       50
176
     0
 40
0.0
176
     0
 40
1.0
176
     0
 90
        0
176
     0
 62
    18
420
        0
176
     0
 90
       50
176
     0
 90
        3
176
     0
 62
     5
420
      255
176
     0
290
     0
176
     0
 90
       50
176
     0
 90
       50
176
     0
 90
       50
176
     0
290
     0
176
     0
 90
       50
176
     0
 62
   256
176
     0
 40
1.0
176
     0
 90
        2
176
     0
  1
strokes_ogs.tif
176
     0
290
     0
176
     0
 40
1.0
176
     0
 40
1.0
176
     0
  0
VISUALSTYLE
  5
37
102
{ACAD_REACTORS
330
29
102
}
330
29
100
AcDbVisualStyle
  2
Linepattern
 70
    14
177
     3
291
     1
 70
    58
 90
        2
176
     1
 90
        2
176
     1
 90
        0
176
     1
 90
        0
176
     1
 40
0.6
176
     1
 40
30.0
176
     1
 62
     7
420
 16777215
176
     1
 90
        1
176
     1
 90
        4
176
     1
 62
     7
176
     1
 62
   257
176
     1
 90
        7
176
     1
 90
        7
176
     1
 40
1.0
176
     1
 90
        8
176
     1
 62
     7
176
     1
 40
1.0
176
     1
 90
        1
176
     1
 90
        6
176
     1
 90
        2
176
     1
 62
     7
176
     1
 90
        5
176
     1
 90
        0
176
     1
 90
        0
176
     1
290
     0
176
     1
 90
        1
176
     1
 40
0.0
176
     1
 90
        0
176
     1
290
     0
176
     1
290
     1
176
     1
290
     1
176
     1
290
     0
176
     1
290
     0
176
     1
290
     0
176
     1
290
     0
176
     1
290
     0
176
     1
290
     0
176
     1
 90
       50
176
     1
 40
0.0
176
     1
 40
1.0
176
     1
 90
        0
176
     1
 62
    18
420
        0
176
     1
 90
       50
176
     1
 90
        3
176
     1
 62
     5
420
      255
176
     1
290
     0
176
     1
 90
       50
176
     1
 90
       50
176
     1
 90
       50
176
     1
290
     0
176
     1
 90
       50
176
     1
 62
   256
176
     0
 40
1.0
176
     0
 90
        2
176
     1
  1
strokes_ogs.tif
176
     1
290
     0
176
     1
 40
1.0
176
     1
 40
1.0
176
     1
  0
VISUALSTYLE
  5
40
102
{ACAD_REACTORS
330
29
102
}
330
29
100
AcDbVisualStyle
  2
OverhangOff
 70
    21
177
     3
291
     1
 70
    58
 90
        2
176
     0
 90
        2
176
     0
 90
        0
176
     0
 90
        0
176
     0
 40
0.6
176
     0
 40
30.0
176
     0
 62
     7
420
 16777215
176
     0
 90
        1
176
     0
 90
        4
176
     0
 62
     7
176
     0
 62
   257
176
     0
 90
        1
176
     0
 90
        1
176
     0
 40
1.0
176
     0
 90
        9
176
     2
 62
     7
176
     0
 40
1.0
176
     0
 90
        1
176
     0
 90
        6
176
     0
 90
        2
176
     0
 62
     7
176
     0
 90
        5
176
     0
 90
        0
176
     0
 90
        0
176
     0
290
     0
176
     0
 90
        1
176
     0
 40
0.0
176
     0
 90
        0
176
     0
290
     0
176
     0
290
     1
176
     0
290
     1
176
     0
290
     0
176
     0
290
     0
176
     0
290
     0
176
     0
290
     0
176
     0
290
     0
176
     0
290
     0
176
     0
 90
       50
176
     0
 40
0.0
176
     0
 40
1.0
176
     0
 90
        0
176
     0
 62
    18
420
        0
176
     0
 90
       50
176
     0
 90
        3
176
     0
 62
     5
420
      255
176
     0
290
     0
176
     0
 90
       50
176
     0
 90
       50
176
     0
 90
       50
176
     0
290
     0
176
     0
 90
       50
176
     0
 62
   256
176
     0
 40
1.0
176
     0
 90
        2
176
     0
  1
strokes_ogs.tif
176
     0
290
     0
176
     0
 40
1.0
176
     0
 40
1.0
176
     0
  0
VISUALSTYLE
  5
33
102
{ACAD_REACTORS
330
29
102
}
330
29
100
AcDbVisualStyle
  2
Realistic
 70
     8
177
     3
291
     0
 70
    58
 90
        2
176
     1
 90
        3
176
     1
 90
        0
176
     1
 90
        2
176
     1
 40
0.6
176
     1
 40
30.0
176
     1
 62
     7
420
 16777215
176
     1
 90
        0
176
     1
 90
        0
176
     1
 62
     7
176
     1
 62
   257
176
     1
 90
        1
176
     1
 90
        1
176
     1
 40
1.0
176
     1
 90
        8
176
     1
 62
   257
176
     1
 40
1.0
176
     1
 90
        1
176
     1
 90
        6
176
     1
 90
        2
176
     1
 62
     7
176
     1
 90
        3
176
     1
 90
        0
176
     1
 90
        0
176
     1
290
     0
176
     1
 90
       13
176
     1
 40
0.0
176
     1
 90
        0
176
     1
290
     0
176
     1
290
     1
176
     1
290
     1
176
     1
290
     0
176
     1
290
     0
176
     1
290
     0
176
     1
290
     0
176
     1
290
     0
176
     1
290
     0
176
     1
 90
       50
176
     1
 40
0.0
176
     1
 40
1.0
176
     1
 90
        0
176
     1
 62
    18
420
        0
176
     1
 90
       50
176
     1
 90
        3
176
     1
 62
     5
420
      255
176
     1
290
     0
176
     1
 90
       50
176
     1
 90
       50
176
     1
 90
       50
176
     1
290
     0
176
     1
 90
       50
176
     1
 62
   256
176
     0
 40
1.0
176
     0
 90
        2
176
     1
  1
strokes_ogs.tif
176
     1
290
     0
176
     1
 40
1.0
176
     1
 40
1.0
176
     1
  0
VISUALSTYLE
  5
3E
102
{ACAD_REACTORS
330
29
102
}
330
29
100
AcDbVisualStyle
  2
Shaded
 70
    27
177
     3
291
     0
 70
    58
 90
        2
176
     1
 90
        2
176
     1
 90
        1
176
     1
 90
        2
176
     1
 40
0.6
176
     1
 40
30.0
176
     1
 62
     7
420
 16777215
176
     1
 90
        0
176
     1
 90
        4
176
     1
 62
     7
176
     1
 62
   257
176
     1
 90
        1
176
     1
 90
        1
176
     1
 40
1.0
176
     1
 90
        8
176
     1
 62
   257
176
     1
 40
1.0
176
     1
 90
        1
176
     1
 90
        6
176
     1
 90
        2
176
     1
 62
     8
420
  7895160
176
     1
 90
        3
176
     1
 90
        0
176
     1
 90
        0
176
     1
290
     0
176
     1
 90
        5
176
     1
 40
0.0
176
     1
 90
        0
176
     1
290
     0
176
     1
290
     1
176
     1
290
     1
176
     1
290
     0
176
     1
290
     0
176
     1
290
     0
176
     1
290
     0
176
     1
290
     0
176
     1
290
     0
176
     1
 90
       50
176
     1
 40
0.0
176
     1
 40
1.0
176
     1
 90
        0
176
     1
 62
    18
420
        0
176
     1
 90
       50
176
     1
 90
        3
176
     1
 62
     5
420
      255
176
     1
290
     0
176
     1
 90
       50
176
     1
 90
       50
176
     1
 90
       50
176
     1
290
     0
176
     1
 90
       50
176
     1
 62
   256
176
     0
 40
1.0
176
     0
 90
        2
176
     1
  1
strokes_ogs.tif
176
     1
290
     0
176
     1
 40
1.0
176
     1
 40
1.0
176
     1
  0
VISUALSTYLE
  5
3D
102
{ACAD_REACTORS
330
29
102
}
330
29
100
AcDbVisualStyle
  2
Shaded with edges
 70
    26
177
     3
291
     0
 70
    58
 90
        2
176
     1
 90
        2
176
     1
 90
        1
176
     1
 90
        2
176
     1
 40
0.6
176
     1
 40
30.0
176
     1
 62
     7
420
 16777215
176
     1
 90
        1
176
     1
 90
        2
176
     1
 62
     7
176
     1
 62
   257
176
     1
 90
        2
176
     1
 90
        1
176
     1
 40
1.0
176
     1
 90
        8
176
     1
 62
   257
176
     1
 40
1.0
176
     1
 90
        1
176
     1
 90
        6
176
     1
 90
        2
176
     1
 62
     7
176
     1
 90
        3
176
     1
 90
        0
176
     1
 90
        0
176
     1
290
     0
176
     1
 90
        5
176
     1
 40
0.0
176
     1
 90
        0
176
     1
290
     0
176
     1
290
     1
176
     1
290
     1
176
     1
290
     0
176
     1
290
     0
176
     1
290
     0
176
     1
290
     0
176
     1
290
     0
176
     1
290
     0
176
     1
 90
       50
176
     1
 40
0.0
176
     1
 40
1.0
176
     1
 90
        0
176
     1
 62
    18
420
        0
176
     1
 90
       50
176
     1
 90
        3
176
     1
 62
     5
420
      255
176
     1
290
     0
176
     1
 90
       50
176
     1
 90
       50
176
     1
 90
       50
176
     1
290
     0
176
     1
 90
       50
176
     1
 62
   256
176
     0
 40
1.0
176
     0
 90
        2
176
     1
  1
strokes_ogs.tif
176
     1
290
     0
176
     1
 40
1.0
176
     1
 40
1.0
176
     1
  0
VISUALSTYLE
  5
3A
102
{ACAD_REACTORS
330
29
102
}
330
29
100
AcDbVisualStyle
  2
Shades of Gray
 70
    23
177
     3
291
     0
 70
    58
 90
        2
176
     1
 90
        2
176
     1
 90
        3
176
     1
 90
        0
176
     1
 40
0.6
176
     1
 40
30.0
176
     1
 62
     7
420
 16777215
176
     1
 90
        2
176
     1
 90
        2
176
     1
 62
     7
176
     1
 62
     7
176
     1
 90
        1
176
     1
 90
        1
176
     1
 40
40.0
176
     1
 90
        8
176
     1
 62
     7
176
     1
 40
1.0
176
     1
 90
        1
176
     1
 90
        6
176
     1
 90
        2
176
     1
 62
     7
176
     1
 90
        3
176
     1
 90
        0
176
     1
 90
        0
176
     1
290
     0
176
     1
 90
        1
176
     1
 40
0.0
176
     1
 90
        0
176
     1
290
     0
176
     1
290
     1
176
     1
290
     1
176
     1
290
     0
176
     1
290
     0
176
     1
290
     0
176
     1
290
     0
176
     1
290
     0
176
     1
290
     0
176
     1
 90
       50
176
     1
 40
0.0
176
     1
 40
1.0
176
     1
 90
        0
176
     1
 62
    18
420
        0
176
     1
 90
       50
176
     1
 90
        3
176
     1
 62
     5
420
      255
176
     1
290
     0
176
     1
 90
       50
176
     1
 90
       50
176
     1
 90
       50
176
     1
290
     0
176
     1
 90
       50
176
     1
 62
   256
176
     0
 40
1.0
176
     0
 90
        2
176
     1
  1
strokes_ogs.tif
176
     1
290
     0
176
     1
 40
1.0
176
     1
 40
1.0
176
     1
  0
VISUALSTYLE
  5
3B
102
{ACAD_REACTORS
330
29
102
}
330
29
100
AcDbVisualStyle
  2
Sketchy
 70
    24
177
     3
291
     0
 70
    58
 90
        1
176
     1
 90
        2
176
     1
 90
        2
176
     1
 90
        0
176
     1
 40
0.6
176
     1
 40
30.0
176
     1
 62
     7
420
 16777215
176
     1
 90
        2
176
     1
 90
        2
176
     1
 62
     7
176
     1
 62
     7
176
     1
 90
        1
176
     1
 90
        1
176
     1
 40
40.0
176
     1
 90
       11
176
     1
 62
     7
176
     1
 40
1.0
176
     1
 90
        1
176
     1
 90
        6
176
     1
 90
        2
176
     1
 62
     7
176
     1
 90
        6
176
     1
 90
        0
176
     1
 90
        0
176
     1
290
     0
176
     1
 90
        1
176
     1
 40
0.0
176
     1
 90
        0
176
     1
290
     0
176
     1
290
     1
176
     1
290
     1
176
     1
290
     0
176
     1
290
     0
176
     1
290
     0
176
     1
290
     0
176
     1
290
     0
176
     1
290
     0
176
     1
 90
       50
176
     1
 40
0.0
176
     1
 40
1.0
176
     1
 90
        0
176
     1
 62
    18
420
        0
176
     1
 90
       50
176
     1
 90
        3
176
     1
 62
     5
420
      255
176
     1
290
     0
176
     1
 90
       50
176
     1
 90
       50
176
     1
 90
       50
176
     1
290
     0
176
     1
 90
       50
176
     1
 62
   256
176
     0
 40
1.0
176
     0
 90
        2
176
     1
  1
strokes_ogs.tif
176
     1
290
     0
176
     1
 40
1.0
176
     1
 40
1.0
176
     1
  0
VISUALSTYLE
  5
36
102
{ACAD_REACTORS
330
29
102
}
330
29
100
AcDbVisualStyle
  2
Thicken
 70
    13
177
     3
291
     1
 70
    58
 90
        2
176
     1
 90
        2
176
     1
 90
        0
176
     1
 90
        0
176
     1
 40
0.6
176
     1
 40
30.0
176
     1
 62
     7
420
 16777215
176
     1
 90
        1
176
     1
 90
        4
176
     1
 62
     7
176
     1
 62
   257
176
     1
 90
        1
176
     1
 90
        1
176
     1
 40
1.0
176
     1
 90
       12
176
     1
 62
     7
176
     1
 40
1.0
176
     1
 90
        1
176
     1
 90
        6
176
     1
 90
        2
176
     1
 62
     7
176
     1
 90
        5
176
     1
 90
        0
176
     1
 90
        0
176
     1
290
     0
176
     1
 90
        1
176
     1
 40
0.0
176
     1
 90
        0
176
     1
290
     0
176
     1
290
     1
176
     1
290
     1
176
     1
290
     0
176
     1
290
     0
176
     1
290
     0
176
     1
290
     0
176
     1
290
     0
176
     1
290
     0
176
     1
 90
       50
176
     1
 40
0.0
176
     1
 40
1.0
176
     1
 90
        0
176
     1
 62
    18
420
        0
176
     1
 90
       50
176
     1
 90
        3
176
     1
 62
     5
420
      255
176
     1
290
     0
176
     1
 90
       50
176
     1
 90
       50
176
     1
 90
       50
176
     1
290
     0
176
     1
 90
       50
176
     1
 62
   256
176
     0
 40
1.0
176
     0
 90
        2
176
     1
  1
strokes_ogs.tif
176
     1
290
     0
176
     1
 40
1.0
176
     1
 40
1.0
176
     1
  0
VISUALSTYLE
  5
30
102
{ACAD_REACTORS
330
29
102
}
330
29
100
AcDbVisualStyle
  2
Wireframe
 70
     5
177
     3
291
     0
 70
    58
 90
        0
176
     1
 90
        2
176
     1
 90
        0
176
     1
 90
        0
176
     1
 40
0.6
176
     1
 40
30.0
176
     1
 62
     7
420
 16777215
176
     1
 90
        1
176
     1
 90
        4
176
     1
 62
     7
176
     1
 62
   257
176
     1
 90
        1
176
     1
 90
        1
176
     1
 40
1.0
176
     1
 90
        0
176
     1
 62
   257
176
     1
 40
1.0
176
     1
 90
        1
176
     1
 90
        6
176
     1
 90
        2
176
     1
 62
     7
176
     1
 90
        3
176
     1
 90
        0
176
     1
 90
        0
176
     1
290
     0
176
     1
 90
        1
176
     1
 40
0.0
176
     1
 90
        0
176
     1
290
     0
176
     1
290
     1
176
     1
290
     1
176
     1
290
     0
176
     1
290
     0
176
     1
290
     0
176
     1
290
     0
176
     1
290
     0
176
     1
290
     0
176
     1
 90
       50
176
     1
 40
0.0
176
     1
 40
1.0
176
     1
 90
        0
176
     1
 62
    18
420
        0
176
     1
 90
       50
176
     1
 90
        3
176
     1
 62
     5
420
      255
176
     1
290
     0
176
     1
 90
       50
176
     1
 90
       50
176
     1
 90
       50
176
     1
290
     0
176
     1
 90
       50
176
     1
 62
   256
176
     0
 40
1.0
176
     0
 90
        2
176
     1
  1
strokes_ogs.tif
176
     1
290
     0
176
     1
 40
1.0
176
     1
 40
1.0
176
     1
  0
VISUALSTYLE
  5
3C
102
{ACAD_REACTORS
330
29
102
}
330
29
100
AcDbVisualStyle
  2
X-Ray
 70
    25
177
     3
291
     0
 70
    58
 90
        2
176
     1
 90
        2
176
     1
 90
        1
176
     1
 90
        1
176
     1
 40
0.5
176
     1
 40
30.0
176
     1
 62
     7
420
 16777215
176
     1
 90
        1
176
     1
 90
        0
176
     1
 62
     7
176
     1
 62
   257
176
     1
 90
        1
176
     1
 90
        1
176
     1
 40
1.0
176
     1
 90
        8
176
     1
 62
     7
176
     1
 40
1.0
176
     1
 90
        1
176
     1
 90
        6
176
     1
 90
        2
176
     1
 62
     7
176
     1
 90
        3
176
     1
 90
        0
176
     1
 90
        0
176
     1
290
     0
176
     1
 90
       13
176
     1
 40
0.0
176
     1
 90
        0
176
     1
290
     0
176
     1
290
     1
176
     1
290
     1
176
     1
290
     0
176
     1
290
     0
176
     1
290
     0
176
     1
290
     0
176
     1
290
     0
176
     1
290
     0
176
     1
 90
       50
176
     1
 40
0.0
176
     1
 40
1.0
176
     1
 90
        0
176
     1
 62
    18
420
        0
176
     1
 90
       50
176
     1
 90
        3
176
     1
 62
     5
420
      255
176
     1
290
     0
176
     1
 90
       50
176
     1
 90
       50
176
     1
 90
       50
176
     1
290
     0
176
     1
 90
       50
176
     1
 62
   256
176
     0
 40
1.0
176
     0
 90
        2
176
     1
  1
strokes_ogs.tif
176
     1
290
     0
176
     1
 40
1.0
176
     1
 40
1.0
176
     1
  0
DICTIONARYVAR
  5
1F4
102
{ACAD_REACTORS
330
1EF
102
}
330
1EF
100
DictionaryVariables
280
     0
  1
1:1
  0
DICTIONARYVAR
  5
1F1
102
{ACAD_REACTORS
330
1EF
102
}
330
1EF
100
DictionaryVariables
280
     0
  1
STANDARD
  0
DICTIONARYVAR
  5
1F0
102
{ACAD_REACTORS
330
1EF
102
}
330
1EF
100
DictionaryVariables
280
     0
  1
STANDARD
  0
DICTIONARYVAR
  5
1F2
102
{ACAD_REACTORS
330
1EF
102
}
330
1EF
100
DictionaryVariables
280
     0
  1
Imperial24
  0
DICTIONARYVAR
  5
1F3
102
{ACAD_REACTORS
330
1EF
102
}
330
1EF
100
DictionaryVariables
280
     0
  1
Imperial24
  0
DICTIONARY
  5
1A
330
19
100
AcDbDictionary
280
     1
281
     1
  3
BUMPTILE
360
1C
  3
DIFFUSETILE
360
1B
  3
OPACITYTILE
360
1F
  3
REFLECTIONTILE
360
1E
  3
REFRACTIONTILE
360
20
  3
SPECULARTILE
360
1D
  0
DICTIONARY
  5
12
330
11
100
AcDbDictionary
280
     1
281
     1
  3
BUMPTILE
360
14
  3
DIFFUSETILE
360
13
  3
OPACITYTILE
360
17
  3
REFLECTIONTILE
360
16
  3
REFRACTIONTILE
360
18
  3
SPECULARTILE
360
15
  0
DICTIONARY
  5
22
330
21
100
AcDbDictionary
280
     1
281
     1
  3
BUMPTILE
360
24
  3
DIFFUSETILE
360
23
  3
OPACITYTILE
360
27
  3
REFLECTIONTILE
360
26
  3
REFRACTIONTILE
360
28
  3
SPECULARTILE
360
25
  0
DICTIONARY
  5
1F5
330
65
100
AcDbDictionary
280
     1
281
     1
  3
ACAD_ROUNDTRIP_2008_TABLESTYLE_CELLSTYLEMAP
360
1F6
  0
XRECORD
  5
1C
102
{ACAD_REACTORS
330
1A
102
}
330
1A
100
AcDbXrecord
280
     1
270
     1
271
     1
  0
XRECORD
  5
1B
102
{ACAD_REACTORS
330
1A
102
}
330
1A
100
AcDbXrecord
280
     1
270
     1
271
     1
  0
XRECORD
  5
1F
102
{ACAD_REACTORS
330
1A
102
}
330
1A
100
AcDbXrecord
280
     1
270
     1
271
     1
  0
XRECORD
  5
1E
102
{ACAD_REACTORS
330
1A
102
}
330
1A
100
AcDbXrecord
280
     1
270
     1
271
     1
  0
XRECORD
  5
20
102
{ACAD_REACTORS
330
1A
102
}
330
1A
100
AcDbXrecord
280
     1
270
     1
271
     1
  0
XRECORD
  5
1D
102
{ACAD_REACTORS
330
1A
102
}
330
1A
100
AcDbXrecord
280
     1
270
     1
271
     1
  0
XRECORD
  5
14
102
{ACAD_REACTORS
330
12
102
}
330
12
100
AcDbXrecord
280
     1
270
     1
271
     1
  0
XRECORD
  5
13
102
{ACAD_REACTORS
330
12
102
}
330
12
100
AcDbXrecord
280
     1
270
     1
271
     1
  0
XRECORD
  5
17
102
{ACAD_REACTORS
330
12
102
}
330
12
100
AcDbXrecord
280
     1
270
     1
271
     1
  0
XRECORD
  5
16
102
{ACAD_REACTORS
330
12
102
}
330
12
100
AcDbXrecord
280
     1
270
     1
271
     1
  0
XRECORD
  5
18
102
{ACAD_REACTORS
330
12
102
}
330
12
100
AcDbXrecord
280
     1
270
     1
271
     1
  0
XRECORD
  5
15
102
{ACAD_REACTORS
330
12
102
}
330
12
100
AcDbXrecord
280
     1
270
     1
271
     1
  0
XRECORD
  5
24
102
{ACAD_REACTORS
330
22
102
}
330
22
100
AcDbXrecord
280
     1
270
     1
271
     1
  0
XRECORD
  5
23
102
{ACAD_REACTORS
330
22
102
}
330
22
100
AcDbXrecord
280
     1
270
     1
271
     1
  0
XRECORD
  5
27
102
{ACAD_REACTORS
330
22
102
}
330
22
100
AcDbXrecord
280
     1
270
     1
271
     1
  0
XRECORD
  5
26
102
{ACAD_REACTORS
330
22
102
}
330
22
100
AcDbXrecord
280
     1
270
     1
271
     1
  0
XRECORD
  5
28
102
{ACAD_REACTORS
330
22
102
}
330
22
100
AcDbXrecord
280
     1
270
     1
271
     1
  0
XRECORD
  5
25
102
{ACAD_REACTORS
330
22
102
}
330
22
100
AcDbXrecord
280
     1
270
     1
271
     1
  0
CELLSTYLEMAP
  5
1F6
102
{ACAD_REACTORS
330
1F5
102
}
330
1F5
100
AcDbCellStyleMap
 90
        3
300
CELLSTYLE
  1
TABLEFORMAT_BEGIN
 90
        5
170
     1
 91
        0
 92
    32768
 62
   257
 93
        1
300
CONTENTFORMAT
  1
CONTENTFORMAT_BEGIN
 90
        0
 91
        0
 92
      512
 93
        0
300

 40
0.0
140
1.0
 94
        5
 62
     0
340
55
144
0.25
309
CONTENTFORMAT_END
171
     0
 94
        0
309
TABLEFORMAT_END
  1
CELLSTYLE_BEGIN
 90
        1
 91
        1
300
_TITLE
309
CELLSTYLE_END
300
CELLSTYLE
  1
TABLEFORMAT_BEGIN
 90
        5
170
     1
 91
        0
 92
        0
 62
   257
 93
        1
300
CONTENTFORMAT
  1
CONTENTFORMAT_BEGIN
 90
        0
 91
        0
 92
      512
 93
        0
300

 40
0.0
140
1.0
 94
        5
 62
     0
340
55
144
0.18
309
CONTENTFORMAT_END
171
     0
 94
        0
309
TABLEFORMAT_END
  1
CELLSTYLE_BEGIN
 90
        2
 91
        1
300
_HEADER
309
CELLSTYLE_END
300
CELLSTYLE
  1
TABLEFORMAT_BEGIN
 90
        5
170
     1
 91
        0
 92
        0
 62
   257
 93
        1
300
CONTENTFORMAT
  1
CONTENTFORMAT_BEGIN
 90
        0
 91
        0
 92
      512
 93
        0
300

 40
0.0
140
1.0
 94
        2
 62
     0
340
55
144
0.18
309
CONTENTFORMAT_END
171
     0
 94
        0
309
TABLEFORMAT_END
  1
CELLSTYLE_BEGIN
 90
        3
 91
        2
300
_DATA
309
CELLSTYLE_END
  0
ENDSEC
  0
EOF
