  0
SECTION
  2
HEADER
  9
$ACADVER
  1
AC1024
  9
$DWGCODEPAGE
  3
ANSI_1252
  9
$EXTMAX
 10
558.8
 20
431.8
 30
0.0
  9
$EXTMIN
 10
0.0
 20
0.0
 30
0.0
  9
$LIMMIN
 10
0.0
 20
0.0
  9
$LIMMAX
 10
558.8
 20
431.8
  9
$VIEWCTR
 10
279.4
 20
215.9
  9
$VIEWSIZE
 40
431.8
  9
$CLAYER
  8
0
  9
$LTSCALE
 40
30.734
  9
$CELTYPE
  6
BYLAYER
  9
$DIMSCALE
 40
1.0
  9
$DIMASZ
 40
3.0
  9
$DIMEXO
 40
0.5
  9
$DIMDLI
 40
21.2344
  9
$DIMEXE
 40
1.5
  9
$DIMCEN
 40
5.0292
  9
$DIMLFAC
 40
1.0
  9
$DIMBLK
  1
_FILLED
  9
$DIMALT
 70
0
  9
$DIMALTF
 40
0.0393700787
  9
$DIMTXT
 40
3.0
  9
$DIMTOL
 70
1
  9
$DIMLIM
 70
0
  9
$DIMTFAC
 40
1.0
  9
$DIMTP
 40
0.01
  9
$DIMTM
 40
0.01
  9
$DIMGAP
 40
0.625
  9
$DIMDSEP
 70
44
  9
$AUNITS
 70
0
  9
$PDMODE
 70
3
  9
$PDSIZE
 40
3.0
  9
$HANDSEED
  5
2FE
  9
$TILEMODE
 70
1
  9
$MEASUREMENT
 70
1
  9
$INSUNITS
 70
4
  0
ENDSEC
  0
SECTION
  2
CLASSES
  0
CLASS
  1
ACDBDICTIONARYWDFLT
  2
AcDbDictionaryWithDefault
  3
AutoCAD 2000
 90
0
 91
1
280
0
281
0
  0
CLASS
  1
ACDBPLACEHOLDER
  2
AcDbPlaceHolder
  3
AutoCAD 2000
 90
0
 91
1
280
0
281
0
  0
CLASS
  1
LAYOUT
  2
AcDbLayout
  3
AutoCAD 2000
 90
0
 91
0
280
0
281
0
  0
ENDSEC
  0
SECTION
  2
TABLES
  0
TABLE
  2
VPORT
  5
8
100
AcDbSymbolTable
 70
2
  0
VPORT
  5
1F4
100
AcDbSymbolTableRecord
100
AcDbViewportTableRecord
  2
*ACTIVE
 70
0
 10
0.0
 20
0.0
 11
1.0
 21
1.0
 12
279.4
 22
215.9
 13
0.0
 23
0.0
 14
1.0
 24
1.0
 15
0.0
 25
0.0
 16
0.0
 26
0.0
 36
1.0
 17
0.0
 27
0.0
 37
0.0
 40
431.8
 41
1.2941176471
 42
50.0
 43
0.0
 44
0.0
 50
0.0
 51
0.0
 71
0
 72
100
 73
1
 74
1
 75
0
 76
0
 77
0
 78
0
  0
ENDTAB
  0
TABLE
  2
LTYPE
  5
5
100
AcDbSymbolTable
 70
6
  0
LTYPE
  5
14
100
AcDbSymbolTableRecord
100
AcDbLinetypeTableRecord
  2
BYBLOCK
 70
0
  3

 72
65
 73
0
 40
0.0
  0
LTYPE
  5
15
100
AcDbSymbolTableRecord
100
AcDbLinetypeTableRecord
  2
BYLAYER
 70
0
  3

 72
65
 73
0
 40
0.0
  0
LTYPE
  5
16
100
AcDbSymbolTableRecord
100
AcDbLinetypeTableRecord
  2
CONTINUOUS
 70
64
  3
Solid line
 72
65
 73
0
 40
0.0
  0
LTYPE
  5
1F5
100
AcDbSymbolTableRecord
100
AcDbLinetypeTableRecord
  2
CENTER
 70
64
  3
____ _ ____ _ ____ _ ____ _ ____ _ ____ _ ____
 72
65
 73
4
 40
0.6
 49
0.375
 74
0
 49
-0.075
 74
0
 49
0.075
 74
0
 49
-0.075
 74
0
  0
LTYPE
  5
1F6
100
AcDbSymbolTableRecord
100
AcDbLinetypeTableRecord
  2
HIDDEN
 70
64
  3
- - - - - - - - - - - - - - - - - - - -
 72
65
 73
2
 40
0.2
 49
0.1
 74
0
 49
-0.1
 74
0
  0
LTYPE
  5
1F7
100
AcDbSymbolTableRecord
100
AcDbLinetypeTableRecord
  2
PHANTOM
 70
64
  3
_____ _ _ _____ _ _ _____ _ _ _____
 72
65
 73
6
 40
0.8
 49
0.45
 74
0
 49
-0.05
 74
0
 49
0.1
 74
0
 49
-0.05
 74
0
 49
0.1
 74
0
 49
-0.05
 74
0
  0
LTYPE
  5
1F8
100
AcDbSymbolTableRecord
100
AcDbLinetypeTableRecord
  2
DOT
 70
64
  3
. . . . . . . . . . . . . . . . . . . .
 72
65
 73
2
 40
0.2
 49
0.1
 74
0
 49
-0.1
 74
0
  0
LTYPE
  5
1F9
100
AcDbSymbolTableRecord
100
AcDbLinetypeTableRecord
  2
DASHED
 70
64
  3
- - - - - - - - - - - - - - - - - - - -
 72
65
 73
2
 40
0.2
 49
0.1
 74
0
 49
-0.1
 74
0
  0
ENDTAB
  0
TABLE
  2
LAYER
  5
2
100
AcDbSymbolTable
 70
36
  0
LAYER
  5
10
100
AcDbSymbolTableRecord
100
AcDbLayerTableRecord
  2
0
 70
0
 62
7
  6
CONTINUOUS
370
-3
390
F
  0
LAYER
  5
1FA
100
AcDbSymbolTableRecord
100
AcDbLayerTableRecord
  2
DEFAULT_1
 70
0
 62
7
  6
CENTER
370
-3
390
F
  0
LAYER
  5
1FB
100
AcDbSymbolTableRecord
100
AcDbLayerTableRecord
  2
DEFAULT_2
 70
0
 62
7
  6
HIDDEN
370
-3
390
F
  0
LAYER
  5
1FC
100
AcDbSymbolTableRecord
100
AcDbLayerTableRecord
  2
DEFAULT_3
 70
0
 62
7
  6
PHANTOM
370
-3
390
F
  0
LAYER
  5
1FD
100
AcDbSymbolTableRecord
100
AcDbLayerTableRecord
  2
ASSI
 70
0
 62
7
  6
CONTINUOUS
370
-3
390
F
  0
LAYER
  5
1FE
100
AcDbSymbolTableRecord
100
AcDbLayerTableRecord
  2
COORDINATE
 70
0
 62
7
  6
CONTINUOUS
370
-3
390
F
  0
LAYER
  5
1FF
100
AcDbSymbolTableRecord
100
AcDbLayerTableRecord
  2
COPY_PUBLISH
 70
0
 62
7
  6
CONTINUOUS
370
-3
390
F
  0
LAYER
  5
200
100
AcDbSymbolTableRecord
100
AcDbLayerTableRecord
  2
COSMETIC
 70
0
 62
7
  6
CONTINUOUS
370
-3
390
F
  0
LAYER
  5
201
100
AcDbSymbolTableRecord
100
AcDbLayerTableRecord
  2
COSMETICI
 70
0
 62
7
  6
CONTINUOUS
370
-3
390
F
  0
LAYER
  5
202
100
AcDbSymbolTableRecord
100
AcDbLayerTableRecord
  2
CURVE
 70
0
 62
7
  6
CONTINUOUS
370
-3
390
F
  0
LAYER
  5
203
100
AcDbSymbolTableRecord
100
AcDbLayerTableRecord
  2
DRAFT
 70
0
 62
7
  6
CONTINUOUS
370
-3
390
F
  0
LAYER
  5
204
100
AcDbSymbolTableRecord
100
AcDbLayerTableRecord
  2
IMPORT_IGES
 70
0
 62
7
  6
CONTINUOUS
370
-3
390
F
  0
LAYER
  5
205
100
AcDbSymbolTableRecord
100
AcDbLayerTableRecord
  2
INTFCLR_1
 70
0
 62
7
  6
CONTINUOUS
370
-3
390
F
  0
LAYER
  5
206
100
AcDbSymbolTableRecord
100
AcDbLayerTableRecord
  2
INTF_1
 70
0
 62
7
  6
CONTINUOUS
370
-3
390
F
  0
LAYER
  5
207
100
AcDbSymbolTableRecord
100
AcDbLayerTableRecord
  2
INTF_7
 70
0
 62
7
  6
CONTINUOUS
370
-3
390
F
  0
LAYER
  5
208
100
AcDbSymbolTableRecord
100
AcDbLayerTableRecord
  2
INTF_CYAN
 70
0
 62
7
  6
CONTINUOUS
370
-3
390
F
  0
LAYER
  5
209
100
AcDbSymbolTableRecord
100
AcDbLayerTableRecord
  2
NOTE
 70
0
 62
7
  6
CONTINUOUS
370
-3
390
F
  0
LAYER
  5
20A
100
AcDbSymbolTableRecord
100
AcDbLayerTableRecord
  2
PIANI
 70
0
 62
7
  6
CONTINUOUS
370
-3
390
F
  0
LAYER
  5
20B
100
AcDbSymbolTableRecord
100
AcDbLayerTableRecord
  2
PUNTI
 70
0
 62
7
  6
CONTINUOUS
370
-3
390
F
  0
LAYER
  5
20C
100
AcDbSymbolTableRecord
100
AcDbLayerTableRecord
  2
RACCORDO
 70
0
 62
7
  6
CONTINUOUS
370
-3
390
F
  0
LAYER
  5
20D
100
AcDbSymbolTableRecord
100
AcDbLayerTableRecord
  2
RGB__255__255__255__
 70
0
 62
7
  6
CONTINUOUS
370
-3
390
F
  0
LAYER
  5
20E
100
AcDbSymbolTableRecord
100
AcDbLayerTableRecord
  2
RGB____0____0____0__
 70
0
 62
7
  6
CONTINUOUS
370
-3
390
F
  0
LAYER
  5
20F
100
AcDbSymbolTableRecord
100
AcDbLayerTableRecord
  2
SIMBOLI
 70
0
 62
7
  6
CONTINUOUS
370
-3
390
F
  0
LAYER
  5
210
100
AcDbSymbolTableRecord
100
AcDbLayerTableRecord
  2
SNAPLINE
 70
0
 62
7
  6
CONTINUOUS
370
-3
390
F
  0
LAYER
  5
211
100
AcDbSymbolTableRecord
100
AcDbLayerTableRecord
  2
SUPERFICI
 70
0
 62
7
  6
CONTINUOUS
370
-3
390
F
  0
LAYER
  5
212
100
AcDbSymbolTableRecord
100
AcDbLayerTableRecord
  2
TRASH
 70
0
 62
7
  6
CONTINUOUS
370
-3
390
F
  0
ENDTAB
  0
TABLE
  2
STYLE
  5
3
100
AcDbSymbolTable
 70
1
  0
STYLE
  5
11
100
AcDbSymbolTableRecord
100
AcDbTextStyleTableRecord
  2
STANDARD
 70
0
 40
0.0
 41
0.8
 50
0.0
 71
0
 42
0.2
  3
txt
  4

  0
STYLE
  5
213
100
AcDbSymbolTableRecord
100
AcDbTextStyleTableRecord
  2
TEXTSTYLE_1
 70
0
 40
0.0
 41
0.8
 50
0.0
 71
0
 42
0.2
  3
gdt
  4

  0
ENDTAB
  0
TABLE
  2
VIEW
  5
6
100
AcDbSymbolTable
 70
0
  0
ENDTAB
  0
TABLE
  2
UCS
  5
7
100
AcDbSymbolTable
 70
0
  0
ENDTAB
  0
TABLE
  2
APPID
  5
9
100
AcDbSymbolTable
 70
1
  0
APPID
  5
214
100
AcDbSymbolTableRecord
100
AcDbRegAppTableRecord
  2
ACAD
 70
0
  0
ENDTAB
  0
TABLE
  2
BLOCK_RECORD
  5
1
100
AcDbSymbolTable
 70
0
  0
BLOCK_RECORD
  5
215
100
AcDbSymbolTableRecord
100
AcDbBlockTableRecord
  2
*Model_Space
  0
BLOCK_RECORD
  5
216
100
AcDbSymbolTableRecord
100
AcDbBlockTableRecord
  2
*Paper_Space
  0
BLOCK_RECORD
  5
217
100
AcDbSymbolTableRecord
100
AcDbBlockTableRecord
  2
_FILLED
  0
ENDTAB
  0
TABLE
  2
DIMSTYLE
  5
A
100
AcDbSymbolTable
 70
1
100
AcDbDimStyleTable
 71
0
  0
DIMSTYLE
105
218
100
AcDbSymbolTableRecord
100
AcDbDimStyleTableRecord
  2
STANDARD
 70
0
  3

  4

 40
1.0
 41
3.0
 42
0.5
 43
0.38
 44
1.5
 45
0.0
 46
0.0
 47
0.01
 48
0.01
140
3.0
141
0.09
142
0.0
143
25.4
144
1.0
145
0.0
146
1.0
147
0.625
 71
1.0
 72
0.0
 73
0
 74
0
 75
0
 76
0
 77
1
 78
8
 79
2
170
0
171
1
172
0
173
0
174
0
175
0
176
0
177
0
178
0
270
2
179
2
271
2
272
2
273
2
274
2
275
0
280
0
281
0
282
0
283
1
284
8
285
0
286
0
287
3
288
0
340
11
278
44
341
217
342
217
343
217
344
217
  0
ENDTAB
  0
ENDSEC
  0
SECTION
  2
BLOCKS
  0
BLOCK
  5
20
100
AcDbEntity
  8
0
100
AcDbBlockBegin
  2
*Model_Space
 70
0
 10
0.0
 20
0.0
 30
0.0
  3
*Model_Space
  1

  0
ENDBLK
  5
21
100
AcDbEntity
  8
0
100
AcDbBlockEnd
  0
BLOCK
  5
1C
100
AcDbEntity
  8
0
100
AcDbBlockBegin
  2
*Paper_Space
 70
0
 10
0.0
 20
0.0
 30
0.0
  3
*Paper_Space
  1

  0
ENDBLK
  5
1D
100
AcDbEntity
  8
0
100
AcDbBlockEnd
  0
BLOCK
  5
219
100
AcDbEntity
  8
0
100
AcDbBlockBegin
  2
_FILLED
 70
64
 10
0.0
 20
0.0
  3
_FILLED
  1

  0
SOLID
  5
21A
100
AcDbEntity
  8
0
  6
BYBLOCK
 62
0
100
AcDbTrace
 10
0.0
 20
0.0
 11
-1.0
 21
0.3166666667
 12
-1.0
 22
-0.3166666667
 13
-1.0
 23
-0.3166666667
  0
ENDBLK
  5
21B
100
AcDbEntity
  8
0
  6
BYBLOCK
 62
0
100
AcDbBlockEnd
  0
ENDSEC
  0
SECTION
  2
ENTITIES
  0
LWPOLYLINE
  5
21C
100
AcDbEntity
  8
RACCORDO
100
AcDbPolyline
 62
7
  6
CONTINUOUS
 90
16
 70
0
 10
-14.8509152511
 20
38.6372186243
 10
-14.8802914762
 20
38.6171979188
 10
-14.9726358004
 20
38.547777099
 10
-15.0613802838
 20
38.4706139701
 10
-15.1458692521
 20
38.3858680863
 10
-15.2255764125
 20
38.2936715396
 10
-15.300099557
 20
38.1940395418
 10
-15.3689424196
 20
38.0871225265
 10
-15.4315981801
 20
37.9732277065
 10
-15.4877202711
 20
37.8525012106
 10
-15.5369656939
 20
37.7251125719
 10
-15.5790245126
 20
37.5912837304
 10
-15.6137244387
 20
37.450994293
 10
-15.6408870096
 20
37.3041435807
 10
-15.6603173051
 20
37.1508255651
 10
-15.6680565703
 20
37.0579505956
  0
LINE
  5
21D
100
AcDbEntity
  8
SUPERFICI
100
AcDbLine
 62
7
  6
CONTINUOUS
 10
-14.8515289307
 20
38.6368213234
 11
-11.8198842699
 21
40.6568897382
  0
LINE
  5
21E
100
AcDbEntity
  8
RACCORDO
100
AcDbLine
 62
7
  6
CONTINUOUS
 10
-14.8508431504
 20
38.6372778598
 11
-14.8515214855
 21
38.6368262843
  0
LINE
  5
21F
100
AcDbEntity
  8
RACCORDO
100
AcDbLine
 62
250
  6
CONTINUOUS
 10
-10.2652605872
 20
40.5421426152
 11
-13.4239684304
 21
38.5272003283
  0
LWPOLYLINE
  5
220
100
AcDbEntity
  8
RACCORDO
100
AcDbPolyline
 62
7
  6
CONTINUOUS
 90
16
 70
0
 10
10.1829510107
 20
-40.334290246
 10
10.2622727616
 20
-40.3751866497
 10
10.4040040982
 20
-40.4404773212
 10
10.5440297586
 20
-40.4951446535
 10
10.681949742
 20
-40.5393638258
 10
10.817775962
 20
-40.573493941
 10
10.9517459901
 20
-40.5978592136
 10
11.0835789402
 20
-40.6126369455
 10
11.2129190183
 20
-40.6180409806
 10
11.3396565889
 20
-40.6142949282
 10
11.4632768477
 20
-40.6016347706
 10
11.5833767761
 20
-40.5803684601
 10
11.6998489738
 20
-40.5507594839
 10
11.8123123617
 20
-40.5131145772
 10
11.9201935599
 20
-40.4678630062
 10
11.9565719892
 20
-40.4504217429
  0
LINE
  5
221
100
AcDbEntity
  8
RACCORDO
100
AcDbLine
 62
7
  6
CONTINUOUS
 10
10.1829510107
 20
-40.334290246
 11
10.1831933124
 21
-40.3344196938
  0
LINE
  5
222
100
AcDbEntity
  8
RACCORDO
100
AcDbLine
 62
7
  6
CONTINUOUS
 10
9.7531626644
 20
-40.098416038
 11
10.1831910869
 21
-40.3344238596
  0
LINE
  5
223
100
AcDbEntity
  8
RACCORDO
100
AcDbLine
 62
7
  6
CONTINUOUS
 10
5.0337730644
 20
-37.4250560142
 11
8.7784529968
 21
-39.5453231904
  0
LINE
  5
224
100
AcDbEntity
  8
RACCORDO
100
AcDbLine
 62
7
  6
CONTINUOUS
 10
8.7784529968
 20
-39.5453231904
 11
9.7531626644
 21
-40.098416038
  0
LINE
  5
225
100
AcDbEntity
  8
RACCORDO
100
AcDbLine
 62
7
  6
CONTINUOUS
 10
3.8766777936
 20
-36.7655025515
 11
5.0337730644
 21
-37.4250560142
  0
LINE
  5
226
100
AcDbEntity
  8
RACCORDO
100
AcDbLine
 62
7
  6
CONTINUOUS
 10
1.9136655697
 20
-35.635855053
 11
3.8766777936
 21
-36.7655025515
  0
LINE
  5
227
100
AcDbEntity
  8
RACCORDO
100
AcDbLine
 62
250
  6
CONTINUOUS
 10
-6.1684213879
 20
-30.8547219897
 11
1.9633065957
 21
-35.549879813
  0
LWPOLYLINE
  5
228
100
AcDbEntity
  8
RACCORDO
100
AcDbPolyline
 62
7
  6
CONTINUOUS
 90
3
 70
0
 10
-8.1779717613
 20
-29.8026278191
 10
-7.4520808587
 20
-30.225735626
 10
1.9136655697
 20
-35.635855053
  0
LWPOLYLINE
  5
229
100
AcDbEntity
  8
RACCORDO
100
AcDbPolyline
 62
7
  6
CONTINUOUS
 90
3
 70
0
 10
-13.3947248785
 20
-26.73477778
 10
-9.5770902442
 20
-28.9814803749
 10
-8.1779717613
 20
-29.8026278191
  0
LINE
  5
22A
100
AcDbEntity
  8
RACCORDO
100
AcDbLine
 62
7
  6
CONTINUOUS
 10
-13.9160600885
 20
-26.4197521105
 11
-13.3947248785
 21
-26.73477778
  0
LINE
  5
22B
100
AcDbEntity
  8
RACCORDO
100
AcDbLine
 62
7
  6
CONTINUOUS
 10
-13.9160600885
 20
-26.4197521105
 11
-13.9152252601
 21
-26.4202728882
  0
LWPOLYLINE
  5
22C
100
AcDbEntity
  8
RACCORDO
100
AcDbPolyline
 62
7
  6
CONTINUOUS
 90
4
 70
0
 10
-14.221906696
 20
-26.2017025143
 10
-14.1038539281
 20
-26.2924952848
 10
-13.9831377477
 20
-26.3766515214
 10
-13.9152230505
 20
-26.4202693459
  0
LINE
  5
22D
100
AcDbEntity
  8
RACCORDO
100
AcDbLine
 62
7
  6
CONTINUOUS
 10
-1.1724385112
 20
34.9184749144
 11
-1.8665978811
 21
34.3477690612
  0
LINE
  5
22E
100
AcDbEntity
  8
RACCORDO
100
AcDbLine
 62
7
  6
CONTINUOUS
 10
-1.1724385112
 20
33.6121224715
 11
-1.2001179529
 21
33.5893657097
  0
LINE
  5
22F
100
AcDbEntity
  8
RACCORDO
100
AcDbLine
 62
7
  6
CONTINUOUS
 10
3.1640909679
 20
31.4431123691
 11
4.0687370716
 21
31.8922858202
  0
LINE
  5
230
100
AcDbEntity
  8
0
100
AcDbLine
 62
250
  6
CONTINUOUS
 10
-11.9373355396
 20
20.4639978949
 11
-12.1173150626
 21
20.3670928659
  0
LINE
  5
231
100
AcDbEntity
  8
RACCORDO
100
AcDbLine
 62
250
  6
CONTINUOUS
 10
-8.0764516156
 20
-21.1911476593
 11
0.055276368
 21
-25.8863054825
  0
LINE
  5
232
100
AcDbEntity
  8
RACCORDO
100
AcDbLine
 62
250
  6
CONTINUOUS
 10
-8.5236802812
 20
-20.103635958
 11
-0.3918884596
 21
-24.7988306404
  0
LINE
  5
233
100
AcDbEntity
  8
0
100
AcDbLine
 62
7
  6
CONTINUOUS
 10
-8.1578587394
 20
-18.60231289
 11
-0.0261307557
 21
-23.2974707133
  0
LINE
  5
234
100
AcDbEntity
  8
DRAFT
100
AcDbLine
 62
7
  6
CONTINUOUS
 10
-8.1579238169
 20
-18.5793240954
 11
-0.0261958332
 21
-23.2744819187
  0
LINE
  5
235
100
AcDbEntity
  8
RACCORDO
100
AcDbLine
 62
7
  6
CONTINUOUS
 10
-12.5793382059
 20
-17.7027873291
 11
-12.5774090706
 21
-17.7045246205
  0
LWPOLYLINE
  5
236
100
AcDbEntity
  8
RACCORDO
100
AcDbPolyline
 62
7
  6
CONTINUOUS
 90
3
 70
0
 10
-15.6676534695
 20
-23.5021610947
 10
-15.6614694264
 20
-23.5739396731
 10
-15.6443496175
 20
-23.7151332639
  0
LINE
  5
237
100
AcDbEntity
  8
RACCORDO
100
AcDbLine
 62
7
  6
CONTINUOUS
 10
-15.6675539061
 20
-23.5034897797
 11
-15.6676534695
 21
-23.5021610947
  0
LWPOLYLINE
  5
238
100
AcDbEntity
  8
RACCORDO
100
AcDbPolyline
 62
7
  6
CONTINUOUS
 90
6
 70
0
 10
-15.6680774171
 20
37.0576780362
 10
-15.7046960888
 20
36.3773243983
 10
-15.721339332
 20
35.6332988156
 10
-15.7311366868
 20
34.8933017702
 10
-15.7446909817
 20
34.1428616865
 10
-15.7616891203
 20
33.380351541
  0
LINE
  5
239
100
AcDbEntity
  8
RACCORDO
100
AcDbLine
 62
7
  6
CONTINUOUS
 10
-15.6680774171
 20
37.0576780362
 11
-15.6680588818
 21
37.0579507517
  0
LINE
  5
23A
100
AcDbEntity
  8
0
100
AcDbLine
 62
7
  6
CONTINUOUS
 10
-9.8056411794
 20
-15.2028172918
 11
3.8254755445
 21
-23.0732532501
  0
LWPOLYLINE
  5
23B
100
AcDbEntity
  8
RACCORDO
100
AcDbPolyline
 62
7
  6
CONTINUOUS
 90
20
 70
0
 10
-15.6443496175
 20
-23.7151332639
 10
-15.6205738873
 20
-23.857921565
 10
-15.5902412113
 20
-24.0017836854
 10
-15.5534366267
 20
-24.1463595974
 10
-15.5102198075
 20
-24.2912745157
 10
-15.4607366262
 20
-24.4360816733
 10
-15.4051788655
 20
-24.5802716332
 10
-15.3437692612
 20
-24.723290775
 10
-15.2766701908
 20
-24.8648254332
 10
-15.2040304184
 20
-25.0045283713
 10
-15.1260919209
 20
-25.1418647426
 10
-15.0430017231
 20
-25.2764801963
 10
-14.9548721497
 20
-25.4080186426
 10
-14.8620208887
 20
-25.5358868374
 10
-14.764755273
 20
-25.6595701778
 10
-14.6633496333
 20
-25.7786261253
 10
-14.5581141865
 20
-25.8926864148
 10
-14.449264467
 20
-26.0014713095
 10
-14.3370963219
 20
-26.1045984492
 10
-14.221906696
 20
-26.2017025143
  0
LWPOLYLINE
  5
23C
100
AcDbEntity
  8
RACCORDO
100
AcDbPolyline
 62
7
  6
CONTINUOUS
 90
8
 70
0
 10
-15.8152625014
 20
-17.9142034654
 10
-15.7629087038
 20
-19.8877065563
 10
-15.7480208418
 20
-20.5233933667
 10
-15.735435546
 20
-21.1490542318
 10
-15.7258957547
 20
-21.7595015574
 10
-15.7184709788
 20
-22.3680859401
 10
-15.6993488962
 20
-22.9819792062
 10
-15.6675557925
 20
-23.5034899212
  0
LWPOLYLINE
  5
23D
100
AcDbEntity
  8
RACCORDO
100
AcDbPolyline
 62
7
  6
CONTINUOUS
 90
3
 70
0
 10
-15.859299836
 20
19.3152252649
 10
-15.8525583561
 20
18.2985088014
 10
-15.847856725
 20
17.2607803005
  0
LINE
  5
23E
100
AcDbEntity
  8
RACCORDO
100
AcDbLine
 62
7
  6
CONTINUOUS
 10
-15.847856725
 20
17.2607803005
 11
-15.8461945952
 21
-2.9254989229
  0
LINE
  5
23F
100
AcDbEntity
  8
RACCORDO
100
AcDbLine
 62
250
  6
CONTINUOUS
 10
-15.8375213073
 20
16.1856720138
 11
-15.8375213073
 21
-3.0013794908
  0
LWPOLYLINE
  5
240
100
AcDbEntity
  8
RACCORDO
100
AcDbPolyline
 62
7
  6
CONTINUOUS
 90
3
 70
0
 10
-15.8461837408
 20
-2.9256995763
 10
-15.8476951551
 20
-3.8763871504
 10
-15.8519874347
 20
-4.8687555677
  0
LWPOLYLINE
  5
241
100
AcDbEntity
  8
RACCORDO
100
AcDbPolyline
 62
7
  6
CONTINUOUS
 90
10
 70
0
 10
-15.8929219554
 20
-10.344172802
 10
-15.8964587568
 20
-11.1825526528
 10
-15.8976900645
 20
-12.0009161918
 10
-15.8963279158
 20
-12.7994367601
 10
-15.8921622344
 20
-13.5807088559
 10
-15.885057368
 20
-14.3445617564
 10
-15.8750547653
 20
-15.0901439211
 10
-15.8625047894
 20
-15.8192854486
 10
-15.8480187725
 20
-16.5319337651
 10
-15.8152625014
 20
-17.9142034654
  0
LINE
  5
242
100
AcDbEntity
  8
RACCORDO
100
AcDbLine
 62
7
  6
CONTINUOUS
 10
-15.8519874347
 20
-4.8687555677
 11
-15.8654331572
 21
-6.7830643677
  0
LWPOLYLINE
  5
243
100
AcDbEntity
  8
RACCORDO
100
AcDbPolyline
 62
7
  6
CONTINUOUS
 90
3
 70
0
 10
-15.8654331572
 20
-6.7830643677
 10
-15.8807336187
 20
-8.6070166097
 10
-15.8929219554
 20
-10.344172802
  0
LWPOLYLINE
  5
244
100
AcDbEntity
  8
RACCORDO
100
AcDbPolyline
 62
7
  6
CONTINUOUS
 90
10
 70
0
 10
-15.841074127
 20
30.1877650065
 10
-15.8582756909
 20
29.3581863269
 10
-15.8730888282
 20
28.51654506
 10
-15.8847090602
 20
27.661521638
 10
-15.8926131224
 20
26.7936887021
 10
-15.8968154322
 20
25.9133095889
 10
-15.8975743827
 20
25.0185832028
 10
-15.8952457076
 20
24.1093577176
 10
-15.8903440837
 20
23.1854181131
 10
-15.859299836
 20
19.3152252649
  0
LWPOLYLINE
  5
245
100
AcDbEntity
  8
RACCORDO
100
AcDbPolyline
 62
7
  6
CONTINUOUS
 90
3
 70
0
 10
-15.7616891203
 20
33.380351541
 10
-15.8020949968
 20
31.8105984097
 10
-15.841074127
 20
30.1877650065
  0
LINE
  5
246
100
AcDbEntity
  8
RACCORDO
100
AcDbLine
 62
7
  6
CONTINUOUS
 10
-13.6261432327
 20
20.9610006632
 11
-13.6261510406
 21
20.9607787479
  0
LINE
  5
247
100
AcDbEntity
  8
RACCORDO
100
AcDbLine
 62
250
  6
CONTINUOUS
 10
13.7763699732
 20
26.6608064421
 11
10.6176752222
 21
24.6458725068
  0
LWPOLYLINE
  5
248
100
AcDbEntity
  8
SUPERFICI
100
AcDbPolyline
 62
7
  6
CONTINUOUS
 90
18
 70
0
 10
-13.6275427365
 20
-15.4540989374
 10
-13.6251766442
 20
-15.5561414288
 10
-13.6137593973
 20
-15.7076613009
 10
-13.5937904573
 20
-15.856064315
 10
-13.5656501159
 20
-16.0035994227
 10
-13.5291798385
 20
-16.1517723657
 10
-13.4851344065
 20
-16.2983710601
 10
-13.4341807146
 20
-16.4421735512
 10
-13.3755882079
 20
-16.5852168498
 10
-13.3096032841
 20
-16.7271396282
 10
-13.237462495
 20
-16.865228248
 10
-13.1598581952
 20
-16.9984751548
 10
-13.0761701397
 20
-17.1282456482
 10
-12.9866678474
 20
-17.254033709
 10
-12.8921638696
 20
-17.374589847
 10
-12.7923492524
 20
-17.49015054
 10
-12.6875046458
 20
-17.6001468448
 10
-12.5773634951
 20
-17.7045656556
  0
LINE
  5
249
100
AcDbEntity
  8
RACCORDO
100
AcDbLine
 62
7
  6
CONTINUOUS
 10
-13.6267565476
 20
-15.4036875904
 11
-13.6267561935
 21
-15.4039102684
  0
LINE
  5
24A
100
AcDbEntity
  8
RACCORDO
100
AcDbLine
 62
7
  6
CONTINUOUS
 10
-13.6275448584
 20
-15.4520828235
 11
-13.6275446796
 21
-15.4523341704
  0
LINE
  5
24B
100
AcDbEntity
  8
RACCORDO
100
AcDbLine
 62
250
  6
CONTINUOUS
 10
-14.0545463365
 20
13.2377201899
 11
-14.0545463365
 21
-5.9493313147
  0
LINE
  5
24C
100
AcDbEntity
  8
0
100
AcDbLine
 62
7
  6
CONTINUOUS
 10
-12.1375041091
 20
-7.3815415325
 11
-12.1375041091
 21
11.8055099722
  0
LINE
  5
24D
100
AcDbEntity
  8
DRAFT
100
AcDbLine
 62
7
  6
CONTINUOUS
 10
-12.1177617842
 20
-7.39313707
 11
-12.1177617842
 21
11.7939144346
  0
LINE
  5
24E
100
AcDbEntity
  8
RACCORDO
100
AcDbLine
 62
7
  6
CONTINUOUS
 10
-13.6274413311
 20
12.346930642
 11
-13.6274414181
 21
12.3465134565
  0
LINE
  5
24F
100
AcDbEntity
  8
SUPERFICI
100
AcDbLine
 62
7
  6
CONTINUOUS
 10
-13.6277511499
 20
-11.8846070591
 11
-13.6275451204
 21
-15.4519152747
  0
LINE
  5
250
100
AcDbEntity
  8
SUPERFICI
100
AcDbLine
 62
7
  6
CONTINUOUS
 10
-13.6275426577
 20
20.8823260027
 11
-13.6277511499
 21
-11.8846070591
  0
LINE
  5
251
100
AcDbEntity
  8
RACCORDO
100
AcDbLine
 62
7
  6
CONTINUOUS
 10
-13.6275425084
 20
20.8827414087
 11
-13.6275426933
 21
20.8824209832
  0
LINE
  5
252
100
AcDbEntity
  8
SUPERFICI
100
AcDbLine
 62
7
  6
CONTINUOUS
 10
-13.6272431684
 20
20.9182898797
 11
-13.6275428429
 21
20.882007426
  0
LINE
  5
253
100
AcDbEntity
  8
SUPERFICI
100
AcDbLine
 62
7
  6
CONTINUOUS
 10
-13.626152436
 20
20.9607390524
 11
-13.6272431684
 21
20.9182898797
  0
LINE
  5
254
100
AcDbEntity
  8
RACCORDO
100
AcDbLine
 62
250
  6
CONTINUOUS
 10
15.8976903167
 20
22.9865718317
 11
12.535945994
 21
21.2387619317
  0
LINE
  5
255
100
AcDbEntity
  8
0
100
AcDbLine
 62
7
  6
CONTINUOUS
 10
-10.0177732137
 20
19.3557206469
 11
-10.0177732137
 21
-14.8353938308
  0
LINE
  5
256
100
AcDbEntity
  8
RACCORDO
100
AcDbLine
 62
250
  6
CONTINUOUS
 10
-1.8665978811
 20
33.9784692668
 11
-1.8665978811
 21
34.3477690612
  0
LINE
  5
257
100
AcDbEntity
  8
RACCORDO
100
AcDbLine
 62
250
  6
CONTINUOUS
 10
-1.1724385112
 20
34.9184749144
 11
-1.1724385112
 21
33.6121224715
  0
LINE
  5
258
100
AcDbEntity
  8
RACCORDO
100
AcDbLine
 62
7
  6
CONTINUOUS
 10
-1.0691151813
 20
35.1065562911
 11
-1.0691151813
 21
33.8002038483
  0
LINE
  5
259
100
AcDbEntity
  8
RACCORDO
100
AcDbLine
 62
250
  6
CONTINUOUS
 10
4.8419546579
 20
-17.5330490656
 11
4.8419546225
 21
1.6540023884
  0
LINE
  5
25A
100
AcDbEntity
  8
RACCORDO
100
AcDbLine
 62
7
  6
CONTINUOUS
 10
3.8258073798
 20
10.8047413413
 11
3.8258074842
 21
10.8052601558
  0
LINE
  5
25B
100
AcDbEntity
  8
RACCORDO
100
AcDbLine
 62
7
  6
CONTINUOUS
 10
3.8258050953
 20
-25.5289559367
 11
3.8258051584
 21
-25.5282235417
  0
LINE
  5
25C
100
AcDbEntity
  8
SUPERFICI
100
AcDbLine
 62
7
  6
CONTINUOUS
 10
3.8256123859
 20
-21.9604760019
 11
3.8258050952
 21
-25.528955528
  0
LINE
  5
25D
100
AcDbEntity
  8
SUPERFICI
100
AcDbLine
 62
7
  6
CONTINUOUS
 10
3.8258074842
 20
10.8052601558
 11
3.8256123859
 21
-21.9604760019
  0
LWPOLYLINE
  5
25E
100
AcDbEntity
  8
SUPERFICI
100
AcDbPolyline
 62
7
  6
CONTINUOUS
 90
6
 70
0
 10
3.8258051583
 20
-25.5282231292
 10
3.8257303463
 20
-25.5354756396
 10
3.8253826801
 20
-25.5437624917
 10
3.8249318857
 20
-25.5491751439
 10
3.8246175699
 20
-25.5516254043
 10
3.8245988699
 20
-25.5517363731
  0
LINE
  5
25F
100
AcDbEntity
  8
RACCORDO
100
AcDbLine
 62
250
  6
CONTINUOUS
 10
6.4344421557
 20
-17.7794164827
 11
6.4344421557
 21
1.4076350219
  0
LINE
  5
260
100
AcDbEntity
  8
0
100
AcDbLine
 62
250
  6
CONTINUOUS
 10
-9.8056411794
 20
-15.2028172918
 11
-11.8349110065
 21
-16.456315932
  0
LINE
  5
261
100
AcDbEntity
  8
0
100
AcDbLine
 62
250
  6
CONTINUOUS
 10
-10.0177732137
 20
-14.8353938308
 11
-12.11731766
 21
-15.9658358499
  0
LINE
  5
262
100
AcDbEntity
  8
RACCORDO
100
AcDbLine
 62
250
  6
CONTINUOUS
 10
11.5401155415
 20
-18.808883885
 11
11.5401155415
 21
0.3781676197
  0
LINE
  5
263
100
AcDbEntity
  8
RACCORDO
100
AcDbLine
 62
7
  6
CONTINUOUS
 10
3.3413261782
 20
11.6422944818
 11
3.3414227364
 21
11.6422387515
  0
LINE
  5
264
100
AcDbEntity
  8
RACCORDO
100
AcDbLine
 62
7
  6
CONTINUOUS
 10
-12.1443974212
 20
20.5835562822
 11
-12.1441697489
 21
20.5834248786
  0
LINE
  5
265
100
AcDbEntity
  8
SUPERFICI
100
AcDbLine
 62
7
  6
CONTINUOUS
 10
-12.1443974212
 20
20.5835562822
 11
3.3414226383
 21
11.642238805
  0
LWPOLYLINE
  5
266
100
AcDbEntity
  8
SUPERFICI
100
AcDbPolyline
 62
7
  6
CONTINUOUS
 90
31
 70
0
 10
3.3413260861
 20
11.642294535
 10
3.3482531272
 20
11.6381840892
 10
3.3623702567
 20
11.6291739552
 10
3.3790753812
 20
11.6175503696
 10
3.3981512821
 20
11.6031397744
 10
3.4193383505
 20
11.5858268449
 10
3.4422903425
 20
11.5655967442
 10
3.4665942573
 20
11.5425371983
 10
3.4918464533
 20
11.5167955803
 10
3.5177460099
 20
11.4884812995
 10
3.5440521449
 20
11.4576723593
 10
3.5704511278
 20
11.4245557267
 10
3.5966061321
 20
11.3893956101
 10
3.622255531
 20
11.3524131157
 10
3.6470619869
 20
11.3139963742
 10
3.6707891653
 20
11.2744635356
 10
3.6933477457
 20
11.2339466488
 10
3.7145132163
 20
11.1928299928
 10
3.7340290916
 20
11.1516064012
 10
3.7517177067
 20
11.1107135039
 10
3.7674736242
 20
11.0706295874
 10
3.7811821482
 20
11.0320023079
 10
3.7927342697
 20
10.995496516
 10
3.8023547705
 20
10.9609392376
 10
3.8100942125
 20
10.9286733209
 10
3.8159487803
 20
10.8997146392
 10
3.8202060802
 20
10.8738600047
 10
3.8231135438
 20
10.850856911
 10
3.8248380215
 20
10.8313226346
 10
3.8256410104
 20
10.815367408
 10
3.8258073798
 20
10.8047413413
  0
LINE
  5
267
100
AcDbEntity
  8
RACCORDO
100
AcDbLine
 62
250
  6
CONTINUOUS
 10
12.3406726461
 20
-18.6655838883
 11
12.3406726461
 21
0.5214680733
  0
LINE
  5
268
100
AcDbEntity
  8
RACCORDO
100
AcDbLine
 62
250
  6
CONTINUOUS
 10
-0.3919522976
 20
14.813917805
 11
-8.5237439843
 21
19.5091124087
  0
LINE
  5
269
100
AcDbEntity
  8
RACCORDO
100
AcDbLine
 62
250
  6
CONTINUOUS
 10
0.055276368
 20
16.4178779591
 11
-8.0764516156
 21
21.1130357824
  0
LINE
  5
26A
100
AcDbEntity
  8
SUPERFICI
100
AcDbLine
 62
7
  6
CONTINUOUS
 10
15.8976903167
 20
-37.432228651
 11
15.8976903167
 21
22.9865718317
  0
LWPOLYLINE
  5
26B
100
AcDbEntity
  8
SUPERFICI
100
AcDbPolyline
 62
7
  6
CONTINUOUS
 90
8
 70
0
 10
-12.159017335
 20
20.5922503503
 10
-12.1624908516
 20
20.5932633261
 10
-12.164969065
 20
20.5940821081
 10
-12.1647161907
 20
20.593982259
 10
-12.161605386
 20
20.5926234192
 10
-12.1557344806
 20
20.5897562256
 10
-12.1472844662
 20
20.5852020508
 10
-12.1441697489
 20
20.5834248786
  0
LINE
  5
26C
100
AcDbEntity
  8
0
100
AcDbLine
 62
250
  6
CONTINUOUS
 10
3.8256803351
 20
-25.2894595511
 11
3.6507275014
 21
-25.3975295259
  0
LINE
  5
26D
100
AcDbEntity
  8
RACCORDO
100
AcDbLine
 62
250
  6
CONTINUOUS
 10
1.9633065957
 20
28.28479777
 11
-6.1684213879
 21
32.9799555933
  0
LINE
  5
26E
100
AcDbEntity
  8
RACCORDO
100
AcDbLine
 62
250
  6
CONTINUOUS
 10
2.593867918
 20
29.1950384559
 11
-5.53785993
 21
33.8901962009
  0
LINE
  5
26F
100
AcDbEntity
  8
RACCORDO
100
AcDbLine
 62
7
  6
CONTINUOUS
 10
-1.8234746016
 20
33.9492840261
 11
2.5061568628
 21
31.4494090816
  0
LINE
  5
270
100
AcDbEntity
  8
RACCORDO
100
AcDbLine
 62
7
  6
CONTINUOUS
 10
13.7763699732
 20
26.6608064421
 11
4.7266711767
 21
31.8859891078
  0
LINE
  5
271
100
AcDbEntity
  8
RACCORDO
100
AcDbLine
 62
7
  6
CONTINUOUS
 10
-1.2155617907
 20
35.3169599495
 11
-10.2652605872
 21
40.5421426152
  0
LINE
  5
272
100
AcDbEntity
  8
RACCORDO
100
AcDbLine
 62
250
  6
CONTINUOUS
 10
15.8976903167
 20
-37.432228651
 11
12.5359412591
 21
-39.1798629219
  0
LINE
  5
273
100
AcDbEntity
  8
RACCORDO
100
AcDbLine
 62
7
  6
CONTINUOUS
 10
11.9560882581
 20
-40.4506734079
 11
11.9566696596
 21
-40.450385466
  0
LINE
  5
274
100
AcDbEntity
  8
SUPERFICI
100
AcDbLine
 62
7
  6
CONTINUOUS
 10
11.9560920825
 20
-40.4506715156
 11
15.2198307117
 21
-38.8357469152
  0
ARC
  5
275
100
AcDbEntity
  8
RACCORDO
100
AcDbCircle
 62
250
  6
CONTINUOUS
 10
-14.702947538
 20
-15.4056939213
 40
1.0761893396
100
AcDbArc
 50
0.1068157782
 51
1.289940649
  0
ARC
  5
276
100
AcDbEntity
  8
RACCORDO
100
AcDbCircle
 62
250
  6
CONTINUOUS
 10
-14.6247903063
 20
12.3467902723
 40
0.9973467964
100
AcDbArc
 50
0.0080639814
 51
0.8091307667
  0
ARC
  5
277
100
AcDbEntity
  8
RACCORDO
100
AcDbCircle
 62
250
  6
CONTINUOUS
 10
-14.5524115502
 20
20.9277300891
 40
0.9256573349
100
AcDbArc
 50
0.1913910875
 51
4.5196310529
  0
ARC
  5
278
100
AcDbEntity
  8
RACCORDO
100
AcDbCircle
 62
250
  6
CONTINUOUS
 10
-15.5058120274
 20
-2.9250802671
 40
0.3403713198
100
AcDbArc
 50
180.103793305
 51
192.9537822101
  0
ARC
  5
279
100
AcDbEntity
  8
RACCORDO
100
AcDbCircle
 62
250
  6
CONTINUOUS
 10
-15.5058198956
 20
16.2619695626
 40
0.3403632252
100
AcDbArc
 50
180.0701734601
 51
192.9537668481
  0
ARC
  5
27A
100
AcDbEntity
  8
RACCORDO
100
AcDbCircle
 62
250
  6
CONTINUOUS
 10
4.160823189
 20
-25.5285968293
 40
0.3350110108
100
AcDbArc
 50
180.0618142852
 51
183.9459703096
  0
ARC
  5
27B
100
AcDbEntity
  8
RACCORDO
100
AcDbCircle
 62
250
  6
CONTINUOUS
 10
-11.9770057026
 20
20.873223154
 40
0.3345472548
100
AcDbArc
 50
237.0701678808
 51
239.9773858369
  0
ARC
  5
27C
100
AcDbEntity
  8
0
100
AcDbCircle
 62
7
  6
CONTINUOUS
 10
3.7886299086
 20
-25.3020449249
 40
0.159612995
100
AcDbArc
 50
278.3068738783
 51
283.4664461773
  0
ARC
  5
27D
100
AcDbEntity
  8
0
100
AcDbCircle
 62
7
  6
CONTINUOUS
 10
-11.9683810726
 20
20.4413197391
 40
0.1559938472
100
AcDbArc
 50
136.9927523659
 51
141.2254253691
  0
SPLINE
  5
27E
100
AcDbEntity
  8
SUPERFICI
100
AcDbSpline
 62
7
  6
CONTINUOUS
 70
0
 71
3
 72
15
 73
11
 74
0
 42
0.0000001
 43
0.0000001
 44
0.0000000001
 40
0.0
 40
0.0
 40
0.0
 40
0.0
 40
0.1139501995
 40
0.2373212799
 40
0.3670421032
 40
0.4999939481
 40
0.6329466348
 40
0.7626699163
 40
0.8860448829
 40
1.0
 40
1.0
 40
1.0
 40
1.0
 10
15.8976903167
 20
22.9865718317
 30
0.0
 10
15.8976903167
 20
23.1539546529
 30
0.0
 10
15.8665357692
 20
23.5028273395
 30
0.0
 10
15.7447701786
 20
24.0294799111
 30
0.0
 10
15.5482184598
 20
24.562880343
 30
0.0
 10
15.2859194347
 20
25.0828242388
 30
0.0
 10
14.9667821811
 20
25.5699566979
 30
0.0
 10
14.6031140924
 20
26.0068846392
 30
0.0
 10
14.2078935771
 20
26.3756776641
 30
0.0
 10
13.9213316693
 20
26.5771073755
 30
0.0
 10
13.7763699732
 20
26.6608064421
 30
0.0
  0
SPLINE
  5
27F
100
AcDbEntity
  8
SUPERFICI
100
AcDbSpline
 62
7
  6
CONTINUOUS
 70
0
 71
3
 72
11
 73
7
 74
0
 42
0.0000001
 43
0.0000001
 44
0.0000000001
 40
0.0
 40
0.0
 40
0.0
 40
0.0
 40
0.2903538295
 40
0.5498408715
 40
0.7820859695
 40
1.0
 40
1.0
 40
1.0
 40
1.0
 10
-10.2652605872
 20
40.5421426152
 30
0.0
 10
-10.4025103161
 20
40.6213888886
 30
0.0
 10
-10.676084021
 20
40.7498739134
 30
0.0
 10
-11.0965494519
 20
40.8455338998
 30
0.0
 10
-11.4893724611
 20
40.821980882
 30
0.0
 10
-11.7209186893
 20
40.7228716105
 30
0.0
 10
-11.8198766164
 20
40.6568776993
 30
0.0
  0
SPLINE
  5
280
100
AcDbEntity
  8
0
100
AcDbSpline
 62
7
  6
CONTINUOUS
 70
0
 71
3
 72
11
 73
7
 74
0
 42
0.0000001
 43
0.0000001
 44
0.0000000001
 40
0.0
 40
0.0
 40
0.0
 40
0.0
 40
0.2372422216
 40
0.4999938942
 40
0.7627488878
 40
1.0
 40
1.0
 40
1.0
 40
1.0
 10
-10.0177732137
 20
-14.8353938308
 30
0.0
 10
-10.0177732137
 20
-14.8701698383
 30
0.0
 10
-10.0047350236
 20
-14.9435106313
 30
0.0
 10
-9.9592538814
 20
-15.0465539519
 30
0.0
 10
-9.892755403
 20
-15.1374643892
 30
0.0
 10
-9.8357587288
 20
-15.1854277962
 30
0.0
 10
-9.8056411794
 20
-15.2028172918
 30
0.0
  0
SPLINE
  5
281
100
AcDbEntity
  8
SUPERFICI
100
AcDbSpline
 62
7
  6
CONTINUOUS
 70
0
 71
3
 72
11
 73
7
 74
0
 42
0.0000001
 43
0.0000001
 44
0.0000000001
 40
0.0
 40
0.0
 40
0.0
 40
0.0
 40
0.2179194976
 40
0.4501670488
 40
0.7096520007
 40
1.0
 40
1.0
 40
1.0
 40
1.0
 10
15.2198241414
 20
-38.835734326
 30
0.0
 10
15.3264398975
 20
-38.7830314366
 30
0.0
 10
15.5280126218
 20
-38.6320743959
 30
0.0
 10
15.744792919
 20
-38.303702307
 30
0.0
 10
15.8721706771
 20
-37.8918035189
 30
0.0
 10
15.8976903167
 20
-37.5906875974
 30
0.0
 10
15.8976903167
 20
-37.432228651
 30
0.0
  0
SPLINE
  5
282
100
AcDbEntity
  8
0
100
AcDbSpline
 62
7
  6
CONTINUOUS
 70
0
 71
3
 72
8
 73
4
 74
0
 42
0.0000001
 43
0.0000001
 44
0.0000000001
 40
0.0
 40
0.0
 40
0.0
 40
0.0
 40
1.0
 40
1.0
 40
1.0
 40
1.0
 10
3.6507814115
 20
-25.4205285372
 30
0.0
 10
2.4250158658
 20
-24.7130646313
 30
0.0
 10
1.199514635
 20
-24.0051428669
 30
0.0
 10
-0.0261306532
 20
-23.2974706413
 30
0.0
  0
SPLINE
  5
283
100
AcDbEntity
  8
RACCORDO
100
AcDbSpline
 62
250
  6
CONTINUOUS
 70
0
 71
3
 72
15
 73
11
 74
0
 42
0.0000001
 43
0.0000001
 44
0.0000000001
 40
0.0
 40
0.0
 40
0.0
 40
0.0
 40
0.1491935487
 40
0.2820716232
 40
0.4015706498
 40
0.5128001253
 40
0.6221799555
 40
0.7366467493
 40
0.8615178474
 40
1.0
 40
1.0
 40
1.0
 40
1.0
 10
9.9910551843
 20
-40.037573733
 30
0.0
 10
10.0769654396
 20
-40.0811246119
 30
0.0
 10
10.2457671464
 20
-40.1520924296
 30
0.0
 10
10.5014170287
 20
-40.2056381879
 30
0.0
 10
10.7387758574
 20
-40.1974452282
 30
0.0
 10
10.950242988
 20
-40.1260019861
 30
0.0
 10
11.1248062808
 20
-39.991759691
 30
0.0
 10
11.2541064923
 20
-39.8036744622
 30
0.0
 10
11.336183251
 20
-39.5714675299
 30
0.0
 10
11.3535654447
 20
-39.4005699704
 30
0.0
 10
11.3533124159
 20
-39.3111670561
 30
0.0
  0
LINE
  5
284
100
AcDbEntity
  8
RACCORDO
100
AcDbLine
 62
250
  6
CONTINUOUS
 10
1.9633052481
 20
-35.5498849837
 11
2.1804856127
 21
-35.6752059925
  0
SPLINE
  5
285
100
AcDbEntity
  8
RACCORDO
100
AcDbSpline
 62
250
  6
CONTINUOUS
 70
0
 71
3
 72
15
 73
11
 74
0
 42
0.0000001
 43
0.0000001
 44
0.0000000001
 40
0.0
 40
0.0
 40
0.0
 40
0.0
 40
0.2503376676
 40
0.500407963
 40
0.6254444534
 40
0.7504550873
 40
0.8129999288
 40
0.8754845937
 40
0.9376424986
 40
1.0
 40
1.0
 40
1.0
 40
1.0
 10
2.1804856127
 20
-35.6752059925
 30
0.0
 10
2.8272122648
 20
-36.0481488846
 30
0.0
 10
4.1222991839
 20
-36.7896541368
 30
0.0
 10
5.7516507669
 20
-37.697527262
 30
0.0
 10
7.0558108144
 20
-38.4211036356
 30
0.0
 10
7.8696222272
 20
-38.8757716719
 30
0.0
 10
8.5214652556
 20
-39.2378768397
 30
0.0
 10
9.00907897
 20
-39.509625726
 30
0.0
 10
9.4964617682
 20
-39.7806708645
 30
0.0
 10
9.8251948971
 20
-39.953478041
 30
0.0
 10
9.9910551843
 20
-40.037573733
 30
0.0
  0
SPLINE
  5
286
100
AcDbEntity
  8
RACCORDO
100
AcDbSpline
 62
250
  6
CONTINUOUS
 70
0
 71
3
 72
11
 73
7
 74
0
 42
0.0000001
 43
0.0000001
 44
0.0000000001
 40
0.0
 40
0.0
 40
0.0
 40
0.0
 40
0.251023713
 40
0.5017021279
 40
0.7511216851
 40
1.0
 40
1.0
 40
1.0
 40
1.0
 10
0.0552803594
 20
-25.8863082168
 30
0.0
 10
0.3597763105
 20
-26.0621205312
 30
0.0
 10
0.9684326196
 20
-26.4133627494
 30
0.0
 10
1.8810668309
 20
-26.936798696
 30
0.0
 10
2.7927148351
 20
-27.455964869
 30
0.0
 10
3.4046582893
 20
-27.7916765368
 30
0.0
 10
3.709096855
 20
-27.9615021868
 30
0.0
  0
SPLINE
  5
287
100
AcDbEntity
  8
RACCORDO
100
AcDbSpline
 62
250
  6
CONTINUOUS
 70
0
 71
3
 72
21
 73
17
 74
0
 42
0.0000001
 43
0.0000001
 44
0.0000000001
 40
0.0
 40
0.0
 40
0.0
 40
0.0
 40
0.0707811729
 40
0.1385093493
 40
0.2032080517
 40
0.2654032922
 40
0.3845497958
 40
0.4421020633
 40
0.4992104713
 40
0.5565231054
 40
0.6143552292
 40
0.6731151852
 40
0.7335805134
 40
0.7963938059
 40
0.861743799
 40
1.0
 40
1.0
 40
1.0
 40
1.0
 10
3.709096855
 20
-27.9615021868
 30
0.0
 10
3.7934675538
 20
-28.0085743775
 30
0.0
 10
3.9625500056
 20
-28.0937790241
 30
0.0
 10
4.2208179415
 20
-28.1960583622
 30
0.0
 10
4.4779648185
 20
-28.2657591271
 30
0.0
 10
4.8107257058
 20
-28.3130528411
 30
0.0
 10
5.1423445703
 20
-28.3010873186
 30
0.0
 10
5.4486632
 20
-28.2062756929
 30
0.0
 10
5.6595530275
 20
-28.1009926566
 30
0.0
 10
5.8525004111
 20
-27.9653631843
 30
0.0
 10
6.0277163808
 20
-27.8040671654
 30
0.0
 10
6.1784436961
 20
-27.6137113952
 30
0.0
 10
6.2984051051
 20
-27.3948382065
 30
0.0
 10
6.3864988922
 20
-27.1520127261
 30
0.0
 10
6.467443034
 20
-26.7967921239
 30
0.0
 10
6.4829667741
 20
-26.5168607245
 30
0.0
 10
6.4778487748
 20
-26.328215515
 30
0.0
  0
SPLINE
  5
288
100
AcDbEntity
  8
RACCORDO
100
AcDbSpline
 62
250
  6
CONTINUOUS
 70
0
 71
3
 72
13
 73
9
 74
0
 42
0.0000001
 43
0.0000001
 44
0.0000000001
 40
0.0
 40
0.0
 40
0.0
 40
0.0
 40
0.1243939254
 40
0.2489747209
 40
0.3738606273
 40
0.4989797725
 40
0.7496270218
 40
1.0
 40
1.0
 40
1.0
 40
1.0
 10
6.4778487748
 20
-26.328215515
 30
0.0
 10
6.4682388505
 20
-25.9738628237
 30
0.0
 10
6.4575063616
 20
-25.2644091878
 30
0.0
 10
6.4491382378
 20
-24.1990659226
 30
0.0
 10
6.4430950661
 20
-23.1316298537
 30
0.0
 10
6.4379183393
 20
-21.7049403694
 30
0.0
 10
6.43395338
 20
-19.9206452927
 30
0.0
 10
6.4344191428
 20
-18.4928970472
 30
0.0
 10
6.4344293217
 20
-17.7794139877
 30
0.0
  0
SPLINE
  5
289
100
AcDbEntity
  8
RACCORDO
100
AcDbSpline
 62
250
  6
CONTINUOUS
 70
0
 71
3
 72
9
 73
5
 74
0
 42
0.0000001
 43
0.0000001
 44
0.0000000001
 40
0.0
 40
0.0
 40
0.0
 40
0.0
 40
0.5115997959
 40
1.0
 40
1.0
 40
1.0
 40
1.0
 10
11.5401171541
 20
-18.8088768635
 30
0.0
 10
10.6526991265
 20
-18.7409337735
 30
0.0
 10
8.9241854249
 20
-18.5066433875
 30
0.0
 10
7.2373378178
 20
-18.0573939639
 30
0.0
 10
6.4344406674
 20
-17.7794179158
 30
0.0
  0
SPLINE
  5
28A
100
AcDbEntity
  8
RACCORDO
100
AcDbSpline
 62
250
  6
CONTINUOUS
 70
0
 71
3
 72
29
 73
25
 74
0
 42
0.0000001
 43
0.0000001
 44
0.0000000001
 40
0.0
 40
0.0
 40
0.0
 40
0.0
 40
0.0295217398
 40
0.0445127923
 40
0.0597380494
 40
0.067440363
 40
0.0751950569
 40
0.0829735882
 40
0.0907472026
 40
0.1062780416
 40
0.1217859541
 40
0.1527386978
 40
0.1836234442
 40
0.2144451189
 40
0.2452425649
 40
0.3069783222
 40
0.3689964828
 40
0.4313262745
 40
0.493976212
 40
0.5569043024
 40
0.6200464514
 40
0.7467243811
 40
0.8735298064
 40
1.0
 40
1.0
 40
1.0
 40
1.0
 10
11.3533124159
 20
-39.3111670561
 30
0.0
 10
11.3527271984
 20
-39.1093840355
 30
0.0
 10
11.359806959
 20
-38.8049458753
 30
0.0
 10
11.3904587913
 20
-38.3977637199
 30
0.0
 10
11.4106339058
 20
-38.1393670759
 30
0.0
 10
11.4223155401
 20
-37.9299580843
 30
0.0
 10
11.426989041
 20
-37.7711930723
 30
0.0
 10
11.4286824891
 20
-37.6118959739
 30
0.0
 10
11.4311155839
 20
-37.399455151
 30
0.0
 10
11.4329556233
 20
-37.13417415
 30
0.0
 10
11.4351690865
 20
-36.7104626045
 30
0.0
 10
11.4379483343
 20
-36.1818064081
 30
0.0
 10
11.4407655797
 20
-35.5484793901
 30
0.0
 10
11.4456835587
 20
-34.9162202511
 30
0.0
 10
11.4596920524
 20
-34.0731879057
 30
0.0
 10
11.4818180403
 20
-33.0170467528
 30
0.0
 10
11.5028864626
 20
-31.7453165793
 30
0.0
 10
11.519579677
 20
-30.4672772801
 30
0.0
 10
11.536878907
 20
-29.1830254413
 30
0.0
 10
11.5497384317
 20
-27.8931660453
 30
0.0
 10
11.5603000941
 20
-26.1656362082
 30
0.0
 10
11.5600003898
 20
-24.0014506129
 30
0.0
 10
11.5468418333
 20
-21.4044683954
 30
0.0
 10
11.5401016825
 20
-19.6733112016
 30
0.0
 10
11.5400997158
 20
-18.8088755284
 30
0.0
  0
SPLINE
  5
28B
100
AcDbEntity
  8
RACCORDO
100
AcDbSpline
 62
250
  6
CONTINUOUS
 70
0
 71
3
 72
13
 73
9
 74
0
 42
0.0000001
 43
0.0000001
 44
0.0000000001
 40
0.0
 40
0.0
 40
0.0
 40
0.0
 40
0.1181391363
 40
0.2429581692
 40
0.5035704081
 40
0.6347870512
 40
0.7629175546
 40
1.0
 40
1.0
 40
1.0
 40
1.0
 10
11.3532060709
 20
21.2420493629
 30
0.0
 10
11.3535795873
 20
21.3535560156
 30
0.0
 10
11.3314431095
 20
21.5831853402
 30
0.0
 10
11.2173078511
 20
22.0454989901
 30
0.0
 10
11.0180897863
 20
22.4959653381
 30
0.0
 10
10.7485738648
 20
22.9071800523
 30
0.0
 10
10.4501873852
 20
23.2687634523
 30
0.0
 10
10.1828798275
 20
23.4963181555
 30
0.0
 10
9.9894601153
 20
23.6088500749
 30
0.0
  0
SPLINE
  5
28C
100
AcDbEntity
  8
RACCORDO
100
AcDbSpline
 62
250
  6
CONTINUOUS
 70
0
 71
3
 72
22
 73
18
 74
0
 42
0.0000001
 43
0.0000001
 44
0.0000000001
 40
0.0
 40
0.0
 40
0.0
 40
0.0
 40
0.124123398
 40
0.2479414416
 40
0.3718286394
 40
0.4962335761
 40
0.5587533513
 40
0.6215114588
 40
0.6844657803
 40
0.7475435814
 40
0.8106815304
 40
0.842212344
 40
0.8736860794
 40
0.905088638
 40
0.9364166989
 40
0.9679248372
 40
1.0
 40
1.0
 40
1.0
 40
1.0
 10
12.3406726461
 20
0.5214680733
 30
0.0
 10
12.3406726475
 20
1.3787925123
 30
0.0
 10
12.3319829832
 20
3.0913306633
 30
0.0
 10
12.3067206322
 20
5.659436489
 30
0.0
 10
12.2833121085
 20
8.2295108535
 30
0.0
 10
12.2816162135
 20
10.3763531891
 30
0.0
 10
12.2986668742
 20
12.1008528199
 30
0.0
 10
12.3214254018
 20
13.4007912214
 30
0.0
 10
12.3524029112
 20
14.704408189
 30
0.0
 10
12.3877856413
 20
16.0105349465
 30
0.0
 10
12.4205704129
 20
17.099602988
 30
0.0
 10
12.4439186162
 20
17.9705628535
 30
0.0
 10
12.458935021
 20
18.6224620006
 30
0.0
 10
12.471579806
 20
19.273022641
 30
0.0
 10
12.4790711158
 20
19.9238707602
 30
0.0
 10
12.4918174247
 20
20.5793961638
 30
0.0
 10
12.5192584141
 20
21.0178470963
 30
0.0
 10
12.535945994
 20
21.2387619317
 30
0.0
  0
SPLINE
  5
28D
100
AcDbEntity
  8
RACCORDO
100
AcDbSpline
 62
250
  6
CONTINUOUS
 70
0
 71
3
 72
11
 73
7
 74
0
 42
0.0000001
 43
0.0000001
 44
0.0000000001
 40
0.0
 40
0.0
 40
0.0
 40
0.0
 40
0.2884767143
 40
0.5463261706
 40
0.7792798573
 40
1.0
 40
1.0
 40
1.0
 40
1.0
 10
-13.4239684304
 20
38.5272003283
 30
0.0
 10
-13.5478193027
 20
38.6023945736
 30
0.0
 10
-13.796119396
 20
38.724425742
 30
0.0
 10
-14.1816399382
 20
38.8132411238
 30
0.0
 10
-14.5441959174
 20
38.7913335088
 30
0.0
 10
-14.7585344178
 20
38.6986562315
 30
0.0
 10
-14.8508450107
 20
38.637268483
 30
0.0
  0
SPLINE
  5
28E
100
AcDbEntity
  8
RACCORDO
100
AcDbSpline
 62
250
  6
CONTINUOUS
 70
0
 71
3
 72
13
 73
9
 74
0
 42
0.0000001
 43
0.0000001
 44
0.0000000001
 40
0.0
 40
0.0
 40
0.0
 40
0.0
 40
0.2387835386
 40
0.3684284476
 40
0.5011522279
 40
0.6337661429
 40
0.7630440303
 40
1.0
 40
1.0
 40
1.0
 40
1.0
 10
12.5359490848
 20
21.2387635407
 30
0.0
 10
12.5517869261
 20
21.5627575402
 30
0.0
 10
12.4777726777
 20
22.0686833441
 30
0.0
 10
12.2540874421
 20
22.7120554397
 30
0.0
 10
12.0169181618
 20
23.1950516816
 30
0.0
 10
11.7249288502
 20
23.6463569025
 30
0.0
 10
11.2913773223
 20
24.1676795487
 30
0.0
 10
10.8998627989
 20
24.4909899637
 30
0.0
 10
10.6176752222
 20
24.6458725068
 30
0.0
  0
LINE
  5
28F
100
AcDbEntity
  8
0
100
AcDbLine
 62
250
  6
CONTINUOUS
 10
-12.1177613558
 20
-7.3931368126
 11
-12.1375026967
 21
-7.3815407325
  0
SPLINE
  5
290
100
AcDbEntity
  8
RACCORDO
100
AcDbSpline
 62
250
  6
CONTINUOUS
 70
0
 71
3
 72
11
 73
7
 74
0
 42
0.0000001
 43
0.0000001
 44
0.0000000001
 40
0.0
 40
0.0
 40
0.0
 40
0.0
 40
0.2701544459
 40
0.5251877994
 40
0.7674005287
 40
1.0
 40
1.0
 40
1.0
 40
1.0
 10
-14.0545488185
 20
-5.949332174
 30
0.0
 10
-14.2809904767
 20
-5.7312884594
 30
0.0
 10
-14.6980461713
 20
-5.2821901718
 30
0.0
 10
-15.2173997986
 20
-4.5524093038
 30
0.0
 10
-15.6060279205
 20
-3.7937555888
 30
0.0
 10
-15.7769279641
 20
-3.2651667836
 30
0.0
 10
-15.8375091465
 20
-3.0013785598
 30
0.0
  0
SPLINE
  5
291
100
AcDbEntity
  8
DRAFT
100
AcDbSpline
 62
7
  6
CONTINUOUS
 70
0
 71
3
 72
9
 73
5
 74
0
 42
0.0000001
 43
0.0000001
 44
0.0000000001
 40
0.0
 40
0.0
 40
0.0
 40
0.0
 40
0.2735189617
 40
1.0
 40
1.0
 40
1.0
 40
1.0
 10
-12.1173150626
 20
20.3670928659
 30
0.0
 10
-12.1173035457
 20
20.3780943019
 30
0.0
 10
-12.1155481238
 20
20.4182210446
 30
0.0
 10
-12.1062999402
 20
20.4585676476
 30
0.0
 10
-12.0935363991
 20
20.4848530997
 30
0.0
  0
SPLINE
  5
292
100
AcDbEntity
  8
DRAFT
100
AcDbSpline
 62
7
  6
CONTINUOUS
 70
0
 71
3
 72
9
 73
5
 74
0
 42
0.0000001
 43
0.0000001
 44
0.0000000001
 40
0.0
 40
0.0
 40
0.0
 40
0.0
 40
0.2608025652
 40
1.0
 40
1.0
 40
1.0
 40
1.0
 10
-12.0935363991
 20
20.4848530997
 30
0.0
 10
-12.0912324336
 20
20.4895979252
 30
0.0
 10
-12.0816506784
 20
20.5074081597
 30
0.0
 10
-12.0687628902
 20
20.5235192017
 30
0.0
 10
-12.0576437904
 20
20.5335125361
 30
0.0
  0
SPLINE
  5
293
100
AcDbEntity
  8
DRAFT
100
AcDbSpline
 62
7
  6
CONTINUOUS
 70
0
 71
3
 72
10
 73
6
 74
0
 42
0.0000001
 43
0.0000001
 44
0.0000000001
 40
0.0
 40
0.0
 40
0.0
 40
0.0
 40
0.500002054
 40
0.7499816044
 40
1.0
 40
1.0
 40
1.0
 40
1.0
 10
-12.1177617842
 20
11.7939144346
 30
0.0
 10
-12.1177617744
 20
13.2227833855
 30
0.0
 10
-12.1173661823
 20
15.3660255335
 30
0.0
 10
-12.1176533532
 20
18.223751418
 30
0.0
 10
-12.1180630219
 20
19.6526091471
 30
0.0
 10
-12.1173150626
 20
20.3670928659
 30
0.0
  0
LINE
  5
294
100
AcDbEntity
  8
0
100
AcDbLine
 62
250
  6
CONTINUOUS
 10
-12.1375026967
 20
11.8055107721
 11
-12.1177613558
 21
11.793914692
  0
SPLINE
  5
295
100
AcDbEntity
  8
0
100
AcDbSpline
 62
7
  6
CONTINUOUS
 70
0
 71
3
 72
10
 73
6
 74
0
 42
0.0000001
 43
0.0000001
 44
0.0000000001
 40
0.0
 40
0.0
 40
0.0
 40
0.0
 40
0.5000048336
 40
0.7499769965
 40
1.0
 40
1.0
 40
1.0
 40
1.0
 10
-12.1375025348
 20
11.8055106768
 30
0.0
 10
-12.137502518
 20
13.234398121
 30
0.0
 10
-12.1368279136
 20
15.3776430505
 30
0.0
 10
-12.1373182627
 20
18.2353896569
 30
0.0
 10
-12.1379755537
 20
19.6642506802
 30
0.0
 10
-12.1368411372
 20
20.3787523333
 30
0.0
  0
SPLINE
  5
296
100
AcDbEntity
  8
0
100
AcDbSpline
 62
7
  6
CONTINUOUS
 70
0
 71
3
 72
9
 73
5
 74
0
 42
0.0000001
 43
0.0000001
 44
0.0000000001
 40
0.0
 40
0.0
 40
0.0
 40
0.0
 40
0.2690119073
 40
1.0
 40
1.0
 40
1.0
 40
1.0
 10
-12.1368411372
 20
20.3787523333
 30
0.0
 10
-12.1368256371
 20
20.3885149516
 30
0.0
 10
-12.1354816826
 20
20.4247599341
 30
0.0
 10
-12.1286291795
 20
20.461039781
 30
0.0
 10
-12.1194232056
 20
20.4859192616
 30
0.0
  0
SPLINE
  5
297
100
AcDbEntity
  8
0
100
AcDbSpline
 62
7
  6
CONTINUOUS
 70
0
 71
3
 72
9
 73
5
 74
0
 42
0.0000001
 43
0.0000001
 44
0.0000000001
 40
0.0
 40
0.0
 40
0.0
 40
0.0
 40
0.2617195074
 40
1.0
 40
1.0
 40
1.0
 40
1.0
 10
-12.1194232056
 20
20.4859192616
 30
0.0
 10
-12.1175810984
 20
20.4908976237
 30
0.0
 10
-12.1098919721
 20
20.5096631318
 30
0.0
 10
-12.0993768385
 20
20.5273405478
 30
0.0
 10
-12.0899963636
 20
20.5390121204
 30
0.0
  0
SPLINE
  5
298
100
AcDbEntity
  8
RACCORDO
100
AcDbSpline
 62
250
  6
CONTINUOUS
 70
0
 71
3
 72
17
 73
13
 74
0
 42
0.0000001
 43
0.0000001
 44
0.0000000001
 40
0.0
 40
0.0
 40
0.0
 40
0.0
 40
0.2514854449
 40
0.5015833974
 40
0.6263885639
 40
0.7512860264
 40
0.8137357703
 40
0.8761199624
 40
0.9072690767
 40
0.938383011
 40
0.9693559608
 40
1.0
 40
1.0
 40
1.0
 40
1.0
 10
-6.1684227355
 20
32.9799592078
 30
0.0
 10
-6.8321059723
 20
33.3631614338
 30
0.0
 10
-8.1568804807
 20
34.1256015986
 30
0.0
 10
-9.8139142158
 20
35.0731713702
 30
0.0
 10
-11.1357118126
 20
35.829878694
 30
0.0
 10
-11.9610626209
 20
36.3028030012
 30
0.0
 10
-12.6216490413
 20
36.6806661188
 30
0.0
 10
-13.034519731
 20
36.9162161241
 30
0.0
 10
-13.3648154446
 20
37.1037978494
 30
0.0
 10
-13.6118038133
 20
37.2442410608
 30
0.0
 10
-13.8584889771
 20
37.3820822124
 30
0.0
 10
-14.0225086097
 20
37.4734987369
 30
0.0
 10
-14.1035461706
 20
37.5199034656
 30
0.0
  0
SPLINE
  5
299
100
AcDbEntity
  8
RACCORDO
100
AcDbSpline
 62
250
  6
CONTINUOUS
 70
0
 71
3
 72
9
 73
5
 74
0
 42
0.0000001
 43
0.0000001
 44
0.0000000001
 40
0.0
 40
0.0
 40
0.0
 40
0.0
 40
0.4872504599
 40
1.0
 40
1.0
 40
1.0
 40
1.0
 10
-8.0764479373
 20
21.1130376181
 30
0.0
 10
-7.9655540389
 20
23.0643371709
 30
0.0
 10
-7.5144820617
 20
27.0582425147
 30
0.0
 10
-6.6812791855
 20
30.9881933107
 30
0.0
 10
-6.1684237732
 20
32.9799551779
 30
0.0
  0
SPLINE
  5
29A
100
AcDbEntity
  8
RACCORDO
100
AcDbSpline
 62
250
  6
CONTINUOUS
 70
0
 71
3
 72
13
 73
9
 74
0
 42
0.0000001
 43
0.0000001
 44
0.0000000001
 40
0.0
 40
0.0
 40
0.0
 40
0.0
 40
0.2509471439
 40
0.5015508531
 40
0.6266273019
 40
0.7514123529
 40
0.875737736
 40
1.0
 40
1.0
 40
1.0
 40
1.0
 10
-8.0764476243
 20
21.1130431258
 30
0.0
 10
-8.380150333
 20
21.2883976225
 30
0.0
 10
-8.9846306343
 20
21.6431882233
 30
0.0
 10
-9.7420731329
 20
22.0826588455
 30
0.0
 10
-10.349239857
 20
22.4297722856
 30
0.0
 10
-10.8044157144
 20
22.6872004287
 30
0.0
 10
-11.2614932751
 20
22.9388315613
 30
0.0
 10
-11.5642540106
 20
23.1092875046
 30
0.0
 10
-11.7136657179
 20
23.1977832748
 30
0.0
  0
SPLINE
  5
29B
100
AcDbEntity
  8
0
100
AcDbSpline
 62
7
  6
CONTINUOUS
 70
0
 71
3
 72
9
 73
5
 74
0
 42
0.0000001
 43
0.0000001
 44
0.0000000001
 40
0.0
 40
0.0
 40
0.0
 40
0.0
 40
0.2234062506
 40
1.0
 40
1.0
 40
1.0
 40
1.0
 10
3.8116899825
 20
-25.4599833343
 30
0.0
 10
3.7993458544
 20
-25.4617913596
 30
0.0
 10
3.7431042665
 20
-25.4635525535
 30
0.0
 10
3.6883422306
 20
-25.442207048
 30
0.0
 10
3.6507814115
 20
-25.4205285372
 30
0.0
  0
SPLINE
  5
29C
100
AcDbEntity
  8
RACCORDO
100
AcDbSpline
 62
250
  6
CONTINUOUS
 70
0
 71
3
 72
22
 73
18
 74
0
 42
0.0000001
 43
0.0000001
 44
0.0000000001
 40
0.0
 40
0.0
 40
0.0
 40
0.0
 40
0.0773743059
 40
0.1505484586
 40
0.2190524469
 40
0.2828039357
 40
0.3419231025
 40
0.3965929003
 40
0.4478350334
 40
0.4972715547
 40
0.5466328311
 40
0.5975380952
 40
0.6518563071
 40
0.7111326977
 40
0.7759260637
 40
0.8459184029
 40
1.0
 40
1.0
 40
1.0
 40
1.0
 10
-11.7136657179
 20
23.1977832748
 30
0.0
 10
-11.7952960798
 20
23.2461413374
 30
0.0
 10
-11.9580293443
 20
23.3337930356
 30
0.0
 10
-12.2041176853
 20
23.442218533
 30
0.0
 10
-12.4438562078
 20
23.5211917572
 30
0.0
 10
-12.6737841229
 20
23.5698858844
 30
0.0
 10
-12.8905172294
 20
23.5950031789
 30
0.0
 10
-13.0938668363
 20
23.5872965583
 30
0.0
 10
-13.2802921858
 20
23.5419939681
 30
0.0
 10
-13.447599523
 20
23.4624536799
 30
0.0
 10
-13.595659637
 20
23.3522832691
 30
0.0
 10
-13.7272540492
 20
23.2145573184
 30
0.0
 10
-13.8386270221
 20
23.0450660948
 30
0.0
 10
-13.926767789
 20
22.8439379537
 30
0.0
 10
-13.9923347457
 20
22.61463311
 30
0.0
 10
-14.0556754312
 20
22.2657225778
 30
0.0
 10
-14.0712543133
 20
21.9902346891
 30
0.0
 10
-14.0723216162
 20
21.8012976873
 30
0.0
  0
SPLINE
  5
29D
100
AcDbEntity
  8
RACCORDO
100
AcDbSpline
 62
250
  6
CONTINUOUS
 70
0
 71
3
 72
9
 73
5
 74
0
 42
0.0000001
 43
0.0000001
 44
0.0000000001
 40
0.0
 40
0.0
 40
0.0
 40
0.0
 40
0.2603466107
 40
1.0
 40
1.0
 40
1.0
 40
1.0
 10
-12.5774106492
 20
-17.7045255119
 30
0.0
 10
-12.5470182121
 20
-17.731867202
 30
0.0
 10
-12.4278556549
 20
-17.8341158452
 30
0.0
 10
-12.2987250542
 20
-17.9251002
 30
0.0
 10
-12.198047103
 20
-17.9830099749
 30
0.0
  0
SPLINE
  5
29E
100
AcDbEntity
  8
RACCORDO
100
AcDbSpline
 62
250
  6
CONTINUOUS
 70
0
 71
3
 72
12
 73
8
 74
0
 42
0.0000001
 43
0.0000001
 44
0.0000000001
 40
0.0
 40
0.0
 40
0.0
 40
0.0
 40
0.1259074408
 40
0.2511661299
 40
0.5011201988
 40
0.7506981667
 40
1.0
 40
1.0
 40
1.0
 40
1.0
 10
-14.0723216162
 20
21.8012976873
 30
0.0
 10
-14.074345721
 20
21.4418926806
 30
0.0
 10
-14.0798005955
 20
20.7249432699
 30
0.0
 10
-14.0853353256
 20
19.2944702255
 30
0.0
 10
-14.0802834347
 20
17.5109543571
 30
0.0
 10
-14.0643470315
 20
15.3734278979
 30
0.0
 10
-14.0545391337
 20
13.9493605384
 30
0.0
 10
-14.0545420153
 20
13.2377127798
 30
0.0
  0
SPLINE
  5
29F
100
AcDbEntity
  8
RACCORDO
100
AcDbSpline
 62
250
  6
CONTINUOUS
 70
0
 71
3
 72
11
 73
7
 74
0
 42
0.0000001
 43
0.0000001
 44
0.0000000001
 40
0.0
 40
0.0
 40
0.0
 40
0.0
 40
0.2325994713
 40
0.4748122006
 40
0.7298455541
 40
1.0
 40
1.0
 40
1.0
 40
1.0
 10
-15.8375091465
 20
16.1856729449
 30
0.0
 10
-15.7769279641
 20
15.9218847211
 30
0.0
 10
-15.6060279205
 20
15.3932959159
 30
0.0
 10
-15.2173997986
 20
14.6346422008
 30
0.0
 10
-14.6980461713
 20
13.9048613329
 30
0.0
 10
-14.2809904767
 20
13.4557630453
 30
0.0
 10
-14.0545488185
 20
13.2377193306
 30
0.0
  0
SPLINE
  5
2A0
100
AcDbEntity
  8
RACCORDO
100
AcDbSpline
 62
250
  6
CONTINUOUS
 70
0
 71
3
 72
15
 73
11
 74
0
 42
0.0000001
 43
0.0000001
 44
0.0000000001
 40
0.0
 40
0.0
 40
0.0
 40
0.0
 40
0.0866680498
 40
0.183797563
 40
0.2963425493
 40
0.4244841326
 40
0.5648096778
 40
0.7118266847
 40
0.8590470957
 40
1.0
 40
1.0
 40
1.0
 40
1.0
 10
-13.6275433128
 20
-15.4523905328
 30
0.0
 10
-13.6274779874
 20
-15.5030866142
 30
0.0
 10
-13.6009372283
 20
-15.6114841852
 30
0.0
 10
-13.4944485174
 20
-15.7524875463
 30
0.0
 10
-13.3330083882
 20
-15.870021124
 30
0.0
 10
-13.1272473273
 20
-15.9592453869
 30
0.0
 10
-12.8896905212
 20
-16.0154637345
 30
0.0
 10
-12.6352921759
 20
-16.0352410562
 30
0.0
 10
-12.3804789897
 20
-16.0173883114
 30
0.0
 10
-12.2152274755
 20
-15.9797344479
 30
0.0
 10
-12.1368432499
 20
-15.9541632263
 30
0.0
  0
SPLINE
  5
2A1
100
AcDbEntity
  8
RACCORDO
100
AcDbSpline
 62
250
  6
CONTINUOUS
 70
0
 71
3
 72
15
 73
11
 74
0
 42
0.0000001
 43
0.0000001
 44
0.0000000001
 40
0.0
 40
0.0
 40
0.0
 40
0.0
 40
0.0869386087
 40
0.1839865857
 40
0.2964873775
 40
0.4245827164
 40
0.5648706375
 40
0.7118594765
 40
0.8590605779
 40
1.0
 40
1.0
 40
1.0
 40
1.0
 10
-13.6279892772
 20
-6.8788542722
 30
0.0
 10
-13.6279807247
 20
-6.9297260669
 30
0.0
 10
-13.6017258766
 20
-7.0383652878
 30
0.0
 10
-13.4951225191
 20
-7.1795109567
 30
0.0
 10
-13.3338163332
 20
-7.2971393627
 30
0.0
 10
-13.1280656691
 20
-7.3864230623
 30
0.0
 10
-12.8905108047
 20
-7.4427101744
 30
0.0
 10
-12.6360770228
 20
-7.4625458562
 30
0.0
 10
-12.3812107233
 20
-7.4447285694
 30
0.0
 10
-12.2159115268
 20
-7.4071080036
 30
0.0
 10
-12.1375041091
 20
-7.3815423029
 30
0.0
  0
SPLINE
  5
2A2
100
AcDbEntity
  8
RACCORDO
100
AcDbSpline
 62
250
  6
CONTINUOUS
 70
0
 71
3
 72
25
 73
21
 74
0
 42
0.0000001
 43
0.0000001
 44
0.0000000001
 40
0.0
 40
0.0
 40
0.0
 40
0.0
 40
0.0156535937
 40
0.0309978106
 40
0.0460647117
 40
0.0611874665
 40
0.0765415885
 40
0.0921110573
 40
0.1233786557
 40
0.1547159219
 40
0.1860479235
 40
0.2173121309
 40
0.2484560043
 40
0.3106062699
 40
0.3728349472
 40
0.4975258884
 40
0.6225846461
 40
0.7481943855
 40
0.874137935
 40
1.0
 40
1.0
 40
1.0
 40
1.0
 10
-15.5244183075
 20
36.7608524024
 30
0.0
 10
-15.5367114427
 20
36.6545490117
 30
0.0
 10
-15.5599492621
 20
36.4439146527
 30
0.0
 10
-15.5925983492
 20
36.1307041607
 30
0.0
 10
-15.6206254007
 20
35.8206510214
 30
0.0
 10
-15.6380962095
 20
35.5097391462
 30
0.0
 10
-15.6483994629
 20
35.1951136993
 30
0.0
 10
-15.6583949638
 20
34.7700766693
 30
0.0
 10
-15.6731114931
 20
34.2358584094
 30
0.0
 10
-15.6928492402
 20
33.5939849343
 30
0.0
 10
-15.7153945643
 20
32.9522263396
 30
0.0
 10
-15.7402217395
 20
32.3118762257
 30
0.0
 10
-15.7748475309
 20
31.4610692923
 30
0.0
 10
-15.8140517555
 20
30.3985911288
 30
0.0
 10
-15.8634469079
 20
28.6965875612
 30
0.0
 10
-15.8971707958
 20
26.5639730116
 30
0.0
 10
-15.896618575
 20
23.9978597389
 30
0.0
 10
-15.8747488664
 20
21.4233335189
 30
0.0
 10
-15.8482001558
 20
18.8433706143
 30
0.0
 10
-15.8378160896
 20
17.1219741182
 30
0.0
 10
-15.837519958
 20
16.2615500159
 30
0.0
  0
LINE
  5
2A3
100
AcDbEntity
  8
RACCORDO
100
AcDbLine
 62
250
  6
CONTINUOUS
 10
-15.837519958
 20
16.2615500159
 11
-15.8375068342
 21
16.1856628762
  0
SPLINE
  5
2A4
100
AcDbEntity
  8
RACCORDO
100
AcDbSpline
 62
250
  6
CONTINUOUS
 70
0
 71
3
 72
15
 73
11
 74
0
 42
0.0000001
 43
0.0000001
 44
0.0000000001
 40
0.0
 40
0.0
 40
0.0
 40
0.0
 40
0.0868703316
 40
0.1838910014
 40
0.2963987316
 40
0.4245208913
 40
0.5648417445
 40
0.7118579202
 40
0.8590711528
 40
1.0
 40
1.0
 40
1.0
 40
1.0
 10
-13.6279892771
 20
12.3086737326
 30
0.0
 10
-13.6279807911
 20
12.257848859
 30
0.0
 10
-13.6017067697
 20
12.1492841391
 30
0.0
 10
-13.4950986838
 20
12.0082431561
 30
0.0
 10
-13.333803598
 20
11.8906482583
 30
0.0
 10
-13.1280635516
 20
11.8013277751
 30
0.0
 10
-12.8905174899
 20
11.7449396125
 30
0.0
 10
-12.6360908274
 20
11.724947721
 30
0.0
 10
-12.3812303669
 20
11.7425627579
 30
0.0
 10
-12.2159199501
 20
11.7800266642
 30
0.0
 10
-12.1375041091
 20
11.8055099722
 30
0.0
  0
SPLINE
  5
2A5
100
AcDbEntity
  8
RACCORDO
100
AcDbSpline
 62
250
  6
CONTINUOUS
 70
0
 71
3
 72
15
 73
11
 74
0
 42
0.0000001
 43
0.0000001
 44
0.0000000001
 40
0.0
 40
0.0
 40
0.0
 40
0.0
 40
0.141022502
 40
0.2687611138
 40
0.3856365097
 40
0.4962603346
 40
0.6072779847
 40
0.7252354084
 40
0.8548821681
 40
1.0
 40
1.0
 40
1.0
 40
1.0
 10
-14.1035461706
 20
37.5199034656
 30
0.0
 10
-14.1848222525
 20
37.566435021
 30
0.0
 10
-14.348108039
 20
37.6418368227
 30
0.0
 10
-14.6004118792
 20
37.6974701151
 30
0.0
 10
-14.8391393758
 20
37.6885878051
 30
0.0
 10
-15.0550946181
 20
37.6139966781
 30
0.0
 10
-15.2371842743
 20
37.4748660455
 30
0.0
 10
-15.3788382837
 20
37.2799862428
 30
0.0
 10
-15.4787211637
 20
37.0369065556
 30
0.0
 10
-15.513342505
 20
36.8565871093
 30
0.0
 10
-15.5244183075
 20
36.7608524024
 30
0.0
  0
SPLINE
  5
2A6
100
AcDbEntity
  8
RACCORDO
100
AcDbSpline
 62
250
  6
CONTINUOUS
 70
0
 71
3
 72
9
 73
5
 74
0
 42
0.0000001
 43
0.0000001
 44
0.0000000001
 40
0.0
 40
0.0
 40
0.0
 40
0.0
 40
0.4884002041
 40
1.0
 40
1.0
 40
1.0
 40
1.0
 10
6.4344406674
 20
1.4076335888
 30
0.0
 10
7.2373378178
 20
1.1296575408
 30
0.0
 10
8.9241854249
 20
0.6804081171
 30
0.0
 10
10.6526991265
 20
0.4461177311
 30
0.0
 10
11.5401171541
 20
0.3781746412
 30
0.0
  0
SPLINE
  5
2A7
100
AcDbEntity
  8
RACCORDO
100
AcDbSpline
 62
250
  6
CONTINUOUS
 70
0
 71
3
 72
15
 73
11
 74
0
 42
0.0000001
 43
0.0000001
 44
0.0000000001
 40
0.0
 40
0.0
 40
0.0
 40
0.0
 40
0.0628619446
 40
0.125442961
 40
0.1879848484
 40
0.2505084908
 40
0.3755829509
 40
0.500721585
 40
0.7507373146
 40
1.0
 40
1.0
 40
1.0
 40
1.0
 10
10.6176752222
 20
24.6458725068
 30
0.0
 10
10.4471377019
 20
24.7368232055
 30
0.0
 10
10.1107741459
 20
24.925630488
 30
0.0
 10
9.6073300154
 20
25.2094958259
 30
0.0
 10
9.1051042713
 20
25.4934500886
 30
0.0
 10
8.4358569529
 20
25.8723771991
 30
0.0
 10
7.5989509618
 20
26.3458155124
 30
0.0
 10
6.2590886717
 20
27.1009328862
 30
0.0
 10
4.5880281583
 20
28.0460934884
 30
0.0
 10
3.2575622262
 20
28.8118303495
 30
0.0
 10
2.593867918
 20
29.1950384559
 30
0.0
  0
SPLINE
  5
2A8
100
AcDbEntity
  8
RACCORDO
100
AcDbSpline
 62
250
  6
CONTINUOUS
 70
0
 71
3
 72
14
 73
10
 74
0
 42
0.0000001
 43
0.0000001
 44
0.0000000001
 40
0.0
 40
0.0
 40
0.0
 40
0.0
 40
0.0872109133
 40
0.18424464
 40
0.2968276326
 40
0.4250373558
 40
0.5654596381
 40
0.7125811813
 40
1.0
 40
1.0
 40
1.0
 40
1.0
 10
-13.6275414862
 20
20.8824823678
 30
0.0
 10
-13.6275369901
 20
20.8314860613
 30
0.0
 10
-13.6014386432
 20
20.7227072781
 30
0.0
 10
-13.4945831561
 20
20.5816148547
 30
0.0
 10
-13.3333188989
 20
20.4640151565
 30
0.0
 10
-13.127546237
 20
20.3747312474
 30
0.0
 10
-12.8898404816
 20
20.3183288313
 30
0.0
 10
-12.5540407408
 20
20.2919683279
 30
0.0
 10
-12.2967098877
 20
20.3269007889
 30
0.0
 10
-12.1368411372
 20
20.3787523332
 30
0.0
  0
SPLINE
  5
2A9
100
AcDbEntity
  8
RACCORDO
100
AcDbSpline
 62
250
  6
CONTINUOUS
 70
0
 71
3
 72
11
 73
7
 74
0
 42
0.0000001
 43
0.0000001
 44
0.0000000001
 40
0.0
 40
0.0
 40
0.0
 40
0.0
 40
0.2195474289
 40
0.4517273497
 40
0.7099777352
 40
1.0
 40
1.0
 40
1.0
 40
1.0
 10
11.9566729237
 20
-40.4503789698
 30
0.0
 10
12.0533123073
 20
-40.4024644128
 30
0.0
 10
12.2354718299
 20
-40.2657219147
 30
0.0
 10
12.4265378813
 20
-39.9667236114
 30
0.0
 10
12.5321400615
 20
-39.5936662227
 30
0.0
 10
12.5432657018
 20
-39.3221638412
 30
0.0
 10
12.5359436965
 20
-39.1798616535
 30
0.0
  0
SPLINE
  5
2AA
100
AcDbEntity
  8
RACCORDO
100
AcDbSpline
 62
250
  6
CONTINUOUS
 70
0
 71
3
 72
15
 73
11
 74
0
 42
0.0000001
 43
0.0000001
 44
0.0000000001
 40
0.0
 40
0.0
 40
0.0
 40
0.0
 40
0.2507476813
 40
0.50073292
 40
0.6255930921
 40
0.7505185126
 40
0.8129948416
 40
0.87545286
 40
0.9378706984
 40
1.0
 40
1.0
 40
1.0
 40
1.0
 10
-5.53785993
 20
33.8901962009
 30
0.0
 10
-6.2000556049
 20
34.2725400865
 30
0.0
 10
-7.5214000889
 20
35.0378753567
 30
0.0
 10
-9.1649273972
 20
36.0065393278
 30
0.0
 10
-10.4766617534
 20
36.7824590857
 30
0.0
 10
-11.2970493916
 20
37.2659066406
 30
0.0
 10
-11.9536286407
 20
37.6525038023
 30
0.0
 10
-12.4457885771
 20
37.9426747826
 30
0.0
 10
-12.9366363328
 20
38.2329372089
 30
0.0
 10
-13.2632845039
 20
38.426818229
 30
0.0
 10
-13.4239684304
 20
38.5272003283
 30
0.0
  0
SPLINE
  5
2AB
100
AcDbEntity
  8
RACCORDO
100
AcDbSpline
 62
250
  6
CONTINUOUS
 70
0
 71
3
 72
24
 73
20
 74
0
 42
0.0000001
 43
0.0000001
 44
0.0000000001
 40
0.0
 40
0.0
 40
0.0
 40
0.0
 40
0.0303907463
 40
0.0458158627
 40
0.0613682846
 40
0.0769718415
 40
0.0925549662
 40
0.1236467483
 40
0.1546680175
 40
0.185634174
 40
0.2474818826
 40
0.309393291
 40
0.3714370216
 40
0.4336752981
 40
0.4961591186
 40
0.6217697273
 40
0.7479024388
 40
0.8741048778
 40
1.0
 40
1.0
 40
1.0
 40
1.0
 10
12.5359412591
 20
-39.1798629219
 30
0.0
 10
12.5189807497
 20
-38.9727010578
 30
0.0
 10
12.4987124323
 20
-38.6599035499
 30
0.0
 10
12.4845429161
 20
-38.2403977142
 30
0.0
 10
12.4792071688
 20
-37.9218463874
 30
0.0
 10
12.4758842902
 20
-37.602196228
 30
0.0
 10
12.4695029987
 20
-37.1762939232
 30
0.0
 10
12.4590239953
 20
-36.6449984326
 30
0.0
 10
12.4438408386
 20
-36.0085706572
 30
0.0
 10
12.4207056537
 20
-35.1619249806
 30
0.0
 10
12.3876368177
 20
-34.104209577
 30
0.0
 10
12.3521702702
 20
-32.8339189164
 30
0.0
 10
12.3215087641
 20
-31.5608291056
 30
0.0
 10
12.29853613
 20
-30.2836545411
 30
0.0
 10
12.2815616582
 20
-28.5715910779
 30
0.0
 10
12.2833939273
 20
-26.4224071997
 30
0.0
 10
12.3067313028
 20
-23.8375807087
 30
0.0
 10
12.3319255009
 20
-21.2508315226
 30
0.0
 10
12.340672833
 20
-19.526633141
 30
0.0
 10
12.3406726461
 20
-18.6655838883
 30
0.0
  0
SPLINE
  5
2AC
100
AcDbEntity
  8
RACCORDO
100
AcDbSpline
 62
250
  6
CONTINUOUS
 70
0
 71
3
 72
30
 73
26
 74
0
 42
0.0000001
 43
0.0000001
 44
0.0000000001
 40
0.0
 40
0.0
 40
0.0
 40
0.0
 40
0.1236169037
 40
0.2468998446
 40
0.3703092954
 40
0.4322103892
 40
0.49432317
 40
0.5567049177
 40
0.6193906645
 40
0.6823706949
 40
0.7139581725
 40
0.7456020959
 40
0.7772846133
 40
0.8089439177
 40
0.8405438711
 40
0.8720747633
 40
0.9035396415
 40
0.9113980955
 40
0.9192560499
 40
0.9271336369
 40
0.9350526175
 40
0.9510352064
 40
0.967245182
 40
0.9835848584
 40
1.0
 40
1.0
 40
1.0
 40
1.0
 10
11.5400997158
 20
0.3781759763
 30
0.0
 10
11.5401015316
 20
1.2380006372
 30
0.0
 10
11.5467891554
 20
2.9553217266
 30
0.0
 10
11.560030485
 20
5.5309931099
 30
0.0
 10
11.5603286833
 20
7.6774542691
 30
0.0
 10
11.549633806
 20
9.3983931837
 30
0.0
 10
11.5367925555
 20
10.694818036
 30
0.0
 10
11.51987022
 20
11.9966521684
 30
0.0
 10
11.5021417954
 20
13.3045079815
 30
0.0
 10
11.4849267924
 20
14.3981576823
 30
0.0
 10
11.4695812287
 20
15.2758953625
 30
0.0
 10
11.4569246486
 20
15.9359521334
 30
0.0
 10
11.4455204062
 20
16.5965385223
 30
0.0
 10
11.4405606897
 20
17.2569000237
 30
0.0
 10
11.4378981939
 20
17.9162124229
 30
0.0
 10
11.4353905346
 20
18.5741729992
 30
0.0
 10
11.4320103418
 20
19.0669968535
 30
0.0
 10
11.4277563869
 20
19.3951413694
 30
0.0
 10
11.4254139709
 20
19.5592351003
 30
0.0
 10
11.4208157045
 20
19.7237106531
 30
0.0
 10
11.4104003215
 20
19.9445158018
 30
0.0
 10
11.3930797148
 20
20.2229845652
 30
0.0
 10
11.3678330687
 20
20.5596278363
 30
0.0
 10
11.3543389682
 20
20.90002112
 30
0.0
 10
11.3528158703
 20
21.1278735444
 30
0.0
 10
11.3532060709
 20
21.2420493629
 30
0.0
  0
SPLINE
  5
2AD
100
AcDbEntity
  8
RACCORDO
100
AcDbSpline
 62
250
  6
CONTINUOUS
 70
0
 71
3
 72
11
 73
7
 74
0
 42
0.0000001
 43
0.0000001
 44
0.0000000001
 40
0.0
 40
0.0
 40
0.0
 40
0.0
 40
0.2496302902
 40
0.4989728574
 40
0.7489722624
 40
1.0
 40
1.0
 40
1.0
 40
1.0
 10
6.4344290056
 20
1.4076376263
 30
0.0
 10
6.4344072269
 20
2.1172376738
 30
0.0
 10
6.434167887
 20
3.5356169244
 30
0.0
 10
6.4383434633
 20
5.6646614188
 30
0.0
 10
6.448563454
 20
7.7975899817
 30
0.0
 10
6.4593032242
 20
9.2219069766
 30
0.0
 10
6.4782556985
 20
9.9352276808
 30
0.0
  0
SPLINE
  5
2AE
100
AcDbEntity
  8
RACCORDO
100
AcDbSpline
 62
250
  6
CONTINUOUS
 70
0
 71
3
 72
19
 73
15
 74
0
 42
0.0000001
 43
0.0000001
 44
0.0000000001
 40
0.0
 40
0.0
 40
0.0
 40
0.0
 40
0.1134074403
 40
0.2343182396
 40
0.2977007004
 40
0.3626549592
 40
0.4286949725
 40
0.4953820853
 40
0.6291616258
 40
0.6952530339
 40
0.7600942475
 40
0.8233766004
 40
0.8846358704
 40
1.0
 40
1.0
 40
1.0
 40
1.0
 10
6.4782556985
 20
9.9352276808
 30
0.0
 10
6.4836587646
 20
10.1387098299
 30
0.0
 10
6.4548680556
 20
10.5606545252
 30
0.0
 10
6.3326453716
 20
11.0834286033
 30
0.0
 10
6.1750216943
 20
11.5026594253
 30
0.0
 10
6.0253989861
 20
11.8182347291
 30
0.0
 10
5.8510564004
 20
12.1275203392
 30
0.0
 10
5.5948473461
 20
12.5316125322
 30
0.0
 10
5.3064407976
 20
12.9149427737
 30
0.0
 10
4.9870323967
 20
13.2670422339
 30
0.0
 10
4.7383736191
 20
13.5115034462
 30
0.0
 10
4.4876290409
 20
13.7412309194
 30
0.0
 10
4.1535077687
 20
14.0130401497
 30
0.0
 10
3.8896831114
 20
14.1911907753
 30
0.0
 10
3.7092523159
 20
14.2927831965
 30
0.0
  0
LINE
  5
2AF
100
AcDbEntity
  8
0
100
AcDbLine
 62
250
  6
CONTINUOUS
 10
-0.0261957971
 20
-23.274481899
 11
-0.0261306531
 21
-23.2974706536
  0
SPLINE
  5
2B0
100
AcDbEntity
  8
RACCORDO
100
AcDbSpline
 62
250
  6
CONTINUOUS
 70
0
 71
3
 72
11
 73
7
 74
0
 42
0.0000001
 43
0.0000001
 44
0.0000000001
 40
0.0
 40
0.0
 40
0.0
 40
0.0
 40
0.2499932635
 40
0.4999926134
 40
0.7499705995
 40
1.0
 40
1.0
 40
1.0
 40
1.0
 10
4.8419542439
 20
1.6540030367
 30
0.0
 10
4.841947535
 20
2.3684918675
 30
0.0
 10
4.83792083
 20
3.7974835633
 30
0.0
 10
4.8326545384
 20
5.9409175774
 30
0.0
 10
4.832676826
 20
8.0844624514
 30
0.0
 10
4.8390878055
 20
9.5134997119
 30
0.0
 10
4.8457160442
 20
10.2280610827
 30
0.0
  0
SPLINE
  5
2B1
100
AcDbEntity
  8
RACCORDO
100
AcDbSpline
 62
250
  6
CONTINUOUS
 70
0
 71
3
 72
13
 73
9
 74
0
 42
0.0000001
 43
0.0000001
 44
0.0000000001
 40
0.0
 40
0.0
 40
0.0
 40
0.0
 40
0.3060343765
 40
0.5828903705
 40
0.7039621704
 40
0.8121703297
 40
0.9093522451
 40
1.0
 40
1.0
 40
1.0
 40
1.0
 10
4.8419546225
 20
1.6540023884
 30
0.0
 10
4.7119864687
 20
1.6527592342
 30
0.0
 10
4.4634609996
 20
1.6777284497
 30
0.0
 10
4.1772967171
 20
1.7788255979
 30
0.0
 10
3.9983437654
 20
1.9000470711
 30
0.0
 10
3.9012814047
 20
2.0008436238
 30
0.0
 10
3.839774758
 20
2.1124904192
 30
0.0
 10
3.8253987285
 20
2.1928122016
 30
0.0
 10
3.8253973856
 20
2.231310688
 30
0.0
  0
SPLINE
  5
2B2
100
AcDbEntity
  8
RACCORDO
100
AcDbSpline
 62
250
  6
CONTINUOUS
 70
0
 71
3
 72
13
 73
9
 74
0
 42
0.0000001
 43
0.0000001
 44
0.0000000001
 40
0.0
 40
0.0
 40
0.0
 40
0.0
 40
0.3060103993
 40
0.5830124018
 40
0.7041378534
 40
0.8123507156
 40
0.9094734089
 40
1.0
 40
1.0
 40
1.0
 40
1.0
 10
4.8457160442
 20
10.2280610827
 30
0.0
 10
4.7154659921
 20
10.2266330394
 30
0.0
 10
4.4662409184
 20
10.2508706085
 30
0.0
 10
4.1792512018
 20
10.3520025966
 30
0.0
 10
3.9996156968
 20
10.473222653
 30
0.0
 10
3.902145206
 20
10.5740657703
 30
0.0
 10
3.8403308591
 20
10.6857887157
 30
0.0
 10
3.8258383542
 20
10.7662070771
 30
0.0
 10
3.8258146507
 20
10.8047410605
 30
0.0
  0
SPLINE
  5
2B3
100
AcDbEntity
  8
RACCORDO
100
AcDbSpline
 62
250
  6
CONTINUOUS
 70
0
 71
3
 72
13
 73
9
 74
0
 42
0.0000001
 43
0.0000001
 44
0.0000000001
 40
0.0
 40
0.0
 40
0.0
 40
0.0
 40
0.1141512452
 40
0.237340327
 40
0.4998244276
 40
0.7623577394
 40
0.885693786
 40
1.0
 40
1.0
 40
1.0
 40
1.0
 10
4.845711706
 20
10.2280608271
 30
0.0
 10
4.8477131267
 20
10.343346402
 30
0.0
 10
4.8252317448
 20
10.5838122503
 30
0.0
 10
4.6929335447
 20
11.0729235548
 30
0.0
 10
4.3850783897
 20
11.6592548113
 30
0.0
 10
3.9663700942
 20
12.1683370397
 30
0.0
 10
3.5884056323
 20
12.5049127499
 30
0.0
 10
3.3888768583
 20
12.6403663007
 30
0.0
 10
3.28799216
 20
12.6965193851
 30
0.0
  0
SPLINE
  5
2B4
100
AcDbEntity
  8
RACCORDO
100
AcDbSpline
 62
250
  6
CONTINUOUS
 70
0
 71
3
 72
20
 73
16
 74
0
 42
0.0000001
 43
0.0000001
 44
0.0000000001
 40
0.0
 40
0.0
 40
0.0
 40
0.0
 40
0.1567465986
 40
0.2331620315
 40
0.3077710113
 40
0.3810396075
 40
0.4532161703
 40
0.5222561955
 40
0.5856236305
 40
0.6439708848
 40
0.6999683739
 40
0.7554371977
 40
0.8092216453
 40
0.907650893
 40
1.0
 40
1.0
 40
1.0
 40
1.0
 10
3.28799216
 20
12.6965193851
 30
0.0
 10
3.2615811127
 20
12.6428470054
 30
0.0
 10
3.2272594461
 20
12.5605281309
 30
0.0
 10
3.1887679736
 20
12.4495537222
 30
0.0
 10
3.1652607368
 20
12.3671590444
 30
0.0
 10
3.1504299081
 20
12.2842968786
 30
0.0
 10
3.145559403
 20
12.2024723153
 30
0.0
 10
3.1450847224
 20
12.1244003992
 30
0.0
 10
3.1432278888
 20
12.0516389019
 30
0.0
 10
3.1429460507
 20
11.9837582722
 30
0.0
 10
3.1511702348
 20
11.919194155
 30
0.0
 10
3.169529384
 20
11.8585934309
 30
0.0
 10
3.2016843414
 20
11.78606714
 30
0.0
 10
3.2531971712
 20
11.7069202081
 30
0.0
 10
3.3107400508
 20
11.659971108
 30
0.0
 10
3.3412580127
 20
11.6423440744
 30
0.0
  0
SPLINE
  5
2B5
100
AcDbEntity
  8
RACCORDO
100
AcDbSpline
 62
250
  6
CONTINUOUS
 70
0
 71
3
 72
11
 73
7
 74
0
 42
0.0000001
 43
0.0000001
 44
0.0000000001
 40
0.0
 40
0.0
 40
0.0
 40
0.0
 40
0.2499839803
 40
0.4999931894
 40
0.7499942806
 40
1.0
 40
1.0
 40
1.0
 40
1.0
 10
3.287992319
 20
12.6965196911
 30
0.0
 10
2.9801490204
 20
12.8708547039
 30
0.0
 10
2.3675275961
 20
13.2249793167
 30
0.0
 10
1.4479906605
 20
13.7550835972
 30
0.0
 10
0.5280337828
 20
14.2845324925
 30
0.0
 10
-0.0855471322
 20
14.6370060902
 30
0.0
 10
-0.3919512217
 20
14.8139199009
 30
0.0
  0
SPLINE
  5
2B6
100
AcDbEntity
  8
RACCORDO
100
AcDbSpline
 62
250
  6
CONTINUOUS
 70
0
 71
3
 72
13
 73
9
 74
0
 42
0.0000001
 43
0.0000001
 44
0.0000000001
 40
0.0
 40
0.0
 40
0.0
 40
0.0
 40
0.3074322531
 40
0.5812343777
 40
0.7010982448
 40
0.8091395594
 40
0.9073961629
 40
1.0
 40
1.0
 40
1.0
 40
1.0
 10
-0.3919522976
 20
14.813917805
 30
0.0
 10
-0.4430862285
 20
14.7091077344
 30
0.0
 10
-0.5201231757
 20
14.5006535616
 30
0.0
 10
-0.5525777095
 20
14.2327736033
 30
0.0
 10
-0.5275000877
 20
14.0430995175
 30
0.0
 10
-0.4865172288
 20
13.9252330477
 30
0.0
 10
-0.4231501099
 20
13.82955466
 30
0.0
 10
-0.3659839468
 20
13.7828970895
 30
0.0
 10
-0.3355653557
 20
13.7653287896
 30
0.0
  0
SPLINE
  5
2B7
100
AcDbEntity
  8
RACCORDO
100
AcDbSpline
 62
250
  6
CONTINUOUS
 70
0
 71
3
 72
13
 73
9
 74
0
 42
0.0000001
 43
0.0000001
 44
0.0000000001
 40
0.0
 40
0.0
 40
0.0
 40
0.0
 40
0.3074211525
 40
0.5812146261
 40
0.7010776162
 40
0.8091216196
 40
0.907385164
 40
1.0
 40
1.0
 40
1.0
 40
1.0
 10
-8.5237439843
 20
19.5091124087
 30
0.0
 10
-8.5748855249
 20
19.404307154
 30
0.0
 10
-8.6519343939
 20
19.1958581124
 30
0.0
 10
-8.684392306
 20
18.9279777178
 30
0.0
 10
-8.6593091165
 20
18.7383013844
 30
0.0
 10
-8.6183181557
 20
18.62043036
 30
0.0
 10
-8.5549393944
 20
18.5247464324
 30
0.0
 10
-8.4977649617
 20
18.4780853569
 30
0.0
 10
-8.4673418415
 20
18.4605146172
 30
0.0
  0
SPLINE
  5
2B8
100
AcDbEntity
  8
RACCORDO
100
AcDbSpline
 62
250
  6
CONTINUOUS
 70
0
 71
3
 72
11
 73
7
 74
0
 42
0.0000001
 43
0.0000001
 44
0.0000000001
 40
0.0
 40
0.0
 40
0.0
 40
0.0
 40
0.2499943738
 40
0.4999934308
 40
0.7499842526
 40
1.0
 40
1.0
 40
1.0
 40
1.0
 10
-8.5237429017
 20
19.5091145096
 30
0.0
 10
-8.8301820009
 20
19.6860487927
 30
0.0
 10
-9.4422853871
 20
20.0412699509
 30
0.0
 10
-10.3608585568
 20
20.5733650872
 30
0.0
 10
-11.2798420898
 20
21.1047996163
 30
0.0
 10
-11.8929287503
 20
21.4583827541
 30
0.0
 10
-12.1979075809
 20
21.6378820187
 30
0.0
  0
SPLINE
  5
2B9
100
AcDbEntity
  8
RACCORDO
100
AcDbSpline
 62
250
  6
CONTINUOUS
 70
0
 71
3
 72
13
 73
9
 74
0
 42
0.0000001
 43
0.0000001
 44
0.0000000001
 40
0.0
 40
0.0
 40
0.0
 40
0.0
 40
0.3059495169
 40
0.5796950039
 40
0.7000456027
 40
0.808735528
 40
0.9074850534
 40
1.0
 40
1.0
 40
1.0
 40
1.0
 10
-12.1979075809
 20
21.6378820187
 30
0.0
 10
-12.2487249637
 20
21.534725386
 30
0.0
 10
-12.3259158772
 20
21.329171684
 30
0.0
 10
-12.3607143256
 20
21.064707326
 30
0.0
 10
-12.3393826578
 20
20.8760014456
 30
0.0
 10
-12.3017681947
 20
20.7576557859
 30
0.0
 10
-12.2424362569
 20
20.6603203542
 30
0.0
 10
-12.1880556426
 20
20.6113278734
 30
0.0
 10
-12.158869451
 20
20.592425286
 30
0.0
  0
SPLINE
  5
2BA
100
AcDbEntity
  8
RACCORDO
100
AcDbSpline
 62
250
  6
CONTINUOUS
 70
0
 71
3
 72
15
 73
11
 74
0
 42
0.0000001
 43
0.0000001
 44
0.0000000001
 40
0.0
 40
0.0
 40
0.0
 40
0.0
 40
0.1504814161
 40
0.2846729571
 40
0.4037208752
 40
0.5114837902
 40
0.6156089345
 40
0.7268950107
 40
0.853850275
 40
1.0
 40
1.0
 40
1.0
 40
1.0
 10
-12.1979080387
 20
21.6378810894
 30
0.0
 10
-12.2855458509
 20
21.6903732865
 30
0.0
 10
-12.4595461041
 20
21.7771277165
 30
0.0
 10
-12.7249945353
 20
21.8519171171
 30
0.0
 10
-12.9722076084
 20
21.866007766
 30
0.0
 10
-13.1946575366
 20
21.8132994979
 30
0.0
 10
-13.3814713876
 20
21.6889262963
 30
0.0
 10
-13.5179511155
 20
21.4953709797
 30
0.0
 10
-13.6020095332
 20
21.245645407
 30
0.0
 10
-13.6226553569
 20
21.0601633286
 30
0.0
 10
-13.626141113
 20
20.9610093471
 30
0.0
  0
SPLINE
  5
2BB
100
AcDbEntity
  8
DRAFT
100
AcDbSpline
 62
7
  6
CONTINUOUS
 70
0
 71
3
 72
9
 73
5
 74
0
 42
0.0000001
 43
0.0000001
 44
0.0000000001
 40
0.0
 40
0.0
 40
0.0
 40
0.0
 40
0.4542810784
 40
1.0
 40
1.0
 40
1.0
 40
1.0
 10
3.8257556278
 20
-25.428581281
 30
0.0
 10
3.7996361083
 20
-25.4372335704
 30
0.0
 10
3.7361342253
 20
-25.4383389991
 30
0.0
 10
3.6793546138
 20
-25.4140530752
 30
0.0
 10
3.6507275014
 20
-25.3975295259
 30
0.0
  0
SPLINE
  5
2BC
100
AcDbEntity
  8
RACCORDO
100
AcDbSpline
 62
250
  6
CONTINUOUS
 70
0
 71
3
 72
9
 73
5
 74
0
 42
0.0000001
 43
0.0000001
 44
0.0000000001
 40
0.0
 40
0.0
 40
0.0
 40
0.0
 40
0.519240942
 40
1.0
 40
1.0
 40
1.0
 40
1.0
 10
0.0552800464
 20
-25.8863030705
 30
0.0
 10
0.1590539281
 20
-27.5924826573
 30
0.0
 10
0.5552074438
 20
-30.8709730314
 30
0.0
 10
1.4187550881
 20
-34.0638640079
 30
0.0
 10
1.9633042105
 20
-35.549882152
 30
0.0
  0
SPLINE
  5
2BD
100
AcDbEntity
  8
DRAFT
100
AcDbSpline
 62
7
  6
CONTINUOUS
 70
0
 71
3
 72
10
 73
6
 74
0
 42
0.0000001
 43
0.0000001
 44
0.0000000001
 40
0.0
 40
0.0
 40
0.0
 40
0.0
 40
0.2499816631
 40
0.5000021078
 40
1.0
 40
1.0
 40
1.0
 40
1.0
 10
-12.11731766
 20
-15.9658358499
 30
0.0
 10
-12.1180690538
 20
-15.2514970742
 30
0.0
 10
-12.1176515647
 20
-13.8227073884
 30
0.0
 10
-12.1173675541
 20
-10.965141391
 30
0.0
 10
-12.1177617744
 20
-8.8219141863
 30
0.0
 10
-12.1177617842
 20
-7.39313707
 30
0.0
  0
SPLINE
  5
2BE
100
AcDbEntity
  8
DRAFT
100
AcDbSpline
 62
7
  6
CONTINUOUS
 70
0
 71
3
 72
11
 73
7
 74
0
 42
0.0000001
 43
0.0000001
 44
0.0000000001
 40
0.0
 40
0.0
 40
0.0
 40
0.0
 40
0.2373202414
 40
0.5000941171
 40
0.7628110019
 40
1.0
 40
1.0
 40
1.0
 40
1.0
 10
-11.8349110065
 20
-16.456315932
 30
0.0
 10
-11.8751045947
 20
-16.4331010926
 30
0.0
 10
-11.9511444129
 20
-16.3690715654
 30
0.0
 10
-12.039895914
 20
-16.2477629484
 30
0.0
 10
-12.1002059273
 20
-16.1100755061
 30
0.0
 10
-12.1172688632
 20
-16.0122262438
 30
0.0
 10
-12.11731766
 20
-15.9658358499
 30
0.0
  0
LINE
  5
2BF
100
AcDbEntity
  8
DRAFT
100
AcDbLine
 62
7
  6
CONTINUOUS
 10
-8.1579238169
 20
-18.5793240954
 11
-11.8349110065
 21
-16.456315932
  0
LINE
  5
2C0
100
AcDbEntity
  8
0
100
AcDbLine
 62
250
  6
CONTINUOUS
 10
-8.1579237807
 20
-18.5793240757
 11
-8.1578586368
 21
-18.6023128303
  0
SPLINE
  5
2C1
100
AcDbEntity
  8
0
100
AcDbSpline
 62
7
  6
CONTINUOUS
 70
0
 71
3
 72
8
 73
4
 74
0
 42
0.0000001
 43
0.0000001
 44
0.0000000001
 40
0.0
 40
0.0
 40
0.0
 40
0.0
 40
1.0
 40
1.0
 40
1.0
 40
1.0
 10
-8.1578586368
 20
-18.6023128181
 30
0.0
 10
-9.3835166345
 20
-17.8946332484
 30
0.0
 10
-10.6093187427
 20
-17.1872032291
 30
0.0
 10
-11.8348564292
 20
-16.4793153288
 30
0.0
  0
SPLINE
  5
2C2
100
AcDbEntity
  8
0
100
AcDbSpline
 62
7
  6
CONTINUOUS
 70
0
 71
3
 72
11
 73
7
 74
0
 42
0.0000001
 43
0.0000001
 44
0.0000000001
 40
0.0
 40
0.0
 40
0.0
 40
0.0
 40
0.2371573467
 40
0.4998664939
 40
0.7626860901
 40
1.0
 40
1.0
 40
1.0
 40
1.0
 10
-11.8348564292
 20
-16.4793153288
 30
0.0
 10
-11.8778493732
 20
-16.4544819963
 30
0.0
 10
-11.9591958811
 20
-16.3859793916
 30
0.0
 10
-12.0542530466
 20
-16.2561737753
 30
0.0
 10
-12.1184489376
 20
-16.1085972147
 30
0.0
 10
-12.1367660548
 20
-16.0038455943
 30
0.0
 10
-12.1368432499
 20
-15.9541632283
 30
0.0
  0
SPLINE
  5
2C3
100
AcDbEntity
  8
RACCORDO
100
AcDbSpline
 62
250
  6
CONTINUOUS
 70
0
 71
3
 72
22
 73
18
 74
0
 42
0.0000001
 43
0.0000001
 44
0.0000000001
 40
0.0
 40
0.0
 40
0.0
 40
0.0
 40
0.0433880326
 40
0.0885315071
 40
0.1365067265
 40
0.1905020586
 40
0.2489805477
 40
0.2783054779
 40
0.3075937073
 40
0.3684084909
 40
0.4340122924
 40
0.5029764394
 40
0.573650604
 40
0.6455913033
 40
0.7181772778
 40
0.8621551656
 40
1.0
 40
1.0
 40
1.0
 40
1.0
 10
-12.198047103
 20
-17.9830099749
 30
0.0
 10
-12.2164892362
 20
-17.9668668689
 30
0.0
 10
-12.2507923063
 20
-17.9299488123
 30
0.0
 10
-12.2914716248
 20
-17.8638404005
 30
0.0
 10
-12.3207360746
 20
-17.7857328376
 30
0.0
 10
-12.3453285756
 20
-17.6985300233
 30
0.0
 10
-12.3608861111
 20
-17.619589701
 30
0.0
 10
-12.3630332732
 20
-17.5533038071
 30
0.0
 10
-12.3567978183
 20
-17.4859930226
 30
0.0
 10
-12.3382085325
 20
-17.3998975559
 30
0.0
 10
-12.3158315489
 20
-17.2918733618
 30
0.0
 10
-12.2869867289
 20
-17.1794205678
 30
0.0
 10
-12.245119417
 20
-17.0672675005
 30
0.0
 10
-12.1940203636
 20
-16.9568743844
 30
0.0
 10
-12.116144797
 20
-16.8135873411
 30
0.0
 10
-12.0019042554
 20
-16.6483240203
 30
0.0
 10
-11.8927170353
 20
-16.5314251013
 30
0.0
 10
-11.8348564292
 20
-16.4793153288
 30
0.0
  0
SPLINE
  5
2C4
100
AcDbEntity
  8
RACCORDO
100
AcDbSpline
 62
250
  6
CONTINUOUS
 70
0
 71
3
 72
9
 73
5
 74
0
 42
0.0000001
 43
0.0000001
 44
0.0000000001
 40
0.0
 40
0.0
 40
0.0
 40
0.0
 40
0.4999638906
 40
1.0
 40
1.0
 40
1.0
 40
1.0
 10
-12.1980469303
 20
-17.9830101071
 30
0.0
 10
-11.5854789061
 20
-18.3360450155
 30
0.0
 10
-10.3609991933
 20
-19.0434572882
 30
0.0
 10
-9.1360525686
 20
-19.7500600637
 30
0.0
 10
-8.5236792054
 20
-20.1036368115
 30
0.0
  0
SPLINE
  5
2C5
100
AcDbEntity
  8
RACCORDO
100
AcDbSpline
 62
250
  6
CONTINUOUS
 70
0
 71
3
 72
16
 73
12
 74
0
 42
0.0000001
 43
0.0000001
 44
0.0000000001
 40
0.0
 40
0.0
 40
0.0
 40
0.0
 40
0.0885149153
 40
0.1890714761
 40
0.3044793863
 40
0.4336909048
 40
0.5024801184
 40
0.5732442467
 40
0.7178926814
 40
0.8620171312
 40
1.0
 40
1.0
 40
1.0
 40
1.0
 10
-8.5236802812
 20
-20.103635958
 30
0.0
 10
-8.5607564215
 20
-20.0704549727
 30
0.0
 10
-8.6245166284
 20
-19.9815955498
 30
0.0
 10
-8.6725344207
 20
-19.8149861293
 30
0.0
 10
-8.6787935103
 20
-19.6195276144
 30
0.0
 10
-8.6502180893
 20
-19.4447266107
 30
0.0
 10
-8.6083799044
 20
-19.2994425245
 30
0.0
 10
-8.5524971142
 20
-19.1496345473
 30
0.0
 10
-8.4612765873
 20
-18.9684485238
 30
0.0
 10
-8.3243056722
 20
-18.770640594
 30
0.0
 10
-8.215494127
 20
-18.6542173041
 30
0.0
 10
-8.1578587394
 20
-18.60231289
 30
0.0
  0
SPLINE
  5
2C6
100
AcDbEntity
  8
RACCORDO
100
AcDbSpline
 62
250
  6
CONTINUOUS
 70
0
 71
3
 72
16
 73
12
 74
0
 42
0.0000001
 43
0.0000001
 44
0.0000000001
 40
0.0
 40
0.0
 40
0.0
 40
0.0
 40
0.0885077669
 40
0.1890621186
 40
0.3044714107
 40
0.4336861935
 40
0.5024772381
 40
0.5732431124
 40
0.7178942091
 40
0.8620193121
 40
1.0
 40
1.0
 40
1.0
 40
1.0
 10
-0.3918884596
 20
-24.7988306404
 30
0.0
 10
-0.4289602165
 20
-24.7656517848
 30
0.0
 10
-0.4927118224
 20
-24.6767944078
 30
0.0
 10
-0.5407212062
 20
-24.5101903173
 30
0.0
 10
-0.5469798512
 20
-24.3147335276
 30
0.0
 10
-0.518409778
 20
-24.1399306993
 30
0.0
 10
-0.4765788215
 20
-23.9946426832
 30
0.0
 10
-0.420705562
 20
-23.8448297495
 30
0.0
 10
-0.3295006039
 20
-23.6636360277
 30
0.0
 10
-0.1925525387
 20
-23.4658156579
 30
0.0
 10
-0.0837575019
 20
-23.3493812764
 30
0.0
 10
-0.0261306496
 20
-23.2974707746
 30
0.0
  0
SPLINE
  5
2C7
100
AcDbEntity
  8
RACCORDO
100
AcDbSpline
 62
250
  6
CONTINUOUS
 70
0
 71
3
 72
9
 73
5
 74
0
 42
0.0000001
 43
0.0000001
 44
0.0000000001
 40
0.0
 40
0.0
 40
0.0
 40
0.0
 40
0.4999647939
 40
1.0
 40
1.0
 40
1.0
 40
1.0
 10
-0.3918873779
 20
-24.7988314917
 30
0.0
 10
0.2214258028
 20
-25.1529507972
 30
0.0
 10
1.4478511885
 20
-25.8617366958
 30
0.0
 10
2.6747393286
 20
-26.5697219485
 30
0.0
 10
3.2878579151
 20
-26.9243773037
 30
0.0
  0
SPLINE
  5
2C8
100
AcDbEntity
  8
RACCORDO
100
AcDbSpline
 62
250
  6
CONTINUOUS
 70
0
 71
3
 72
15
 73
11
 74
0
 42
0.0000001
 43
0.0000001
 44
0.0000000001
 40
0.0
 40
0.0
 40
0.0
 40
0.0
 40
0.088388416
 40
0.18875643
 40
0.304030595
 40
0.4332118691
 40
0.5727361649
 40
0.7175351232
 40
0.8618442481
 40
1.0
 40
1.0
 40
1.0
 40
1.0
 10
3.2878579151
 20
-26.9243773037
 30
0.0
 10
3.2503999588
 20
-26.8915788473
 30
0.0
 10
3.1857451293
 20
-26.8032476366
 30
0.0
 10
3.1366867011
 20
-26.6367856247
 30
0.0
 10
3.1296709746
 20
-26.4411074664
 30
0.0
 10
3.1641984393
 20
-26.2264710636
 30
0.0
 10
3.2378902537
 20
-26.0045827763
 30
0.0
 10
3.346562098
 20
-25.7880648447
 30
0.0
 10
3.483832683
 20
-25.589472296
 30
0.0
 10
3.5929610116
 20
-25.4726143529
 30
0.0
 10
3.6507814115
 20
-25.4205285372
 30
0.0
  0
SPLINE
  5
2C9
100
AcDbEntity
  8
RACCORDO
100
AcDbSpline
 62
250
  6
CONTINUOUS
 70
0
 71
3
 72
15
 73
11
 74
0
 42
0.0000001
 43
0.0000001
 44
0.0000000001
 40
0.0
 40
0.0
 40
0.0
 40
0.0
 40
0.1422575364
 40
0.2712194822
 40
0.3901099315
 40
0.5029290625
 40
0.6150504923
 40
0.732024284
 40
0.859243745
 40
1.0
 40
1.0
 40
1.0
 40
1.0
 10
3.2878574572
 20
-26.9243769027
 30
0.0
 10
3.3794915351
 20
-26.9774979882
 30
0.0
 10
3.563000675
 20
-27.0650929587
 30
0.0
 10
3.8476740822
 20
-27.1336932899
 30
0.0
 10
4.1194500954
 20
-27.1315474875
 30
0.0
 10
4.3678806143
 20
-27.0549929343
 30
0.0
 10
4.579511548
 20
-26.9054277106
 30
0.0
 10
4.7371940049
 20
-26.6864919272
 30
0.0
 10
4.8310465774
 20
-26.4121041204
 30
0.0
 10
4.8475014809
 20
-26.2112551672
 30
0.0
 10
4.8456845217
 20
-26.1064705537
 30
0.0
  0
SPLINE
  5
2CA
100
AcDbEntity
  8
RACCORDO
100
AcDbSpline
 62
250
  6
CONTINUOUS
 70
0
 71
3
 72
14
 73
10
 74
0
 42
0.0000001
 43
0.0000001
 44
0.0000000001
 40
0.0
 40
0.0
 40
0.0
 40
0.0
 40
0.1538830431
 40
0.304349802
 40
0.5806918511
 40
0.7022856775
 40
0.8113599066
 40
0.9093165574
 40
1.0
 40
1.0
 40
1.0
 40
1.0
 10
4.8456845217
 20
-26.1064705537
 30
0.0
 10
4.7812955664
 20
-26.1072249101
 30
0.0
 10
4.6537177535
 20
-26.1007750639
 30
0.0
 10
4.4135644629
 20
-26.0629818034
 30
0.0
 10
4.1929577609
 20
-25.9876190651
 30
0.0
 10
4.0139307776
 20
-25.871910464
 30
0.0
 10
3.9145691265
 20
-25.7751901039
 30
0.0
 10
3.8485443349
 20
-25.6677599774
 30
0.0
 10
3.8292172288
 20
-25.5895080215
 30
0.0
 10
3.8266063597
 20
-25.5516508613
 30
0.0
  0
SPLINE
  5
2CB
100
AcDbEntity
  8
RACCORDO
100
AcDbSpline
 62
250
  6
CONTINUOUS
 70
0
 71
3
 72
11
 73
7
 74
0
 42
0.0000001
 43
0.0000001
 44
0.0000000001
 40
0.0
 40
0.0
 40
0.0
 40
0.0
 40
0.249972145
 40
0.4999927176
 40
0.7499937713
 40
1.0
 40
1.0
 40
1.0
 40
1.0
 10
4.8456879337
 20
-26.1064705824
 30
0.0
 10
4.839136391
 20
-25.3921251571
 30
0.0
 10
4.8326255992
 20
-23.9632367256
 30
0.0
 10
4.8326966628
 20
-21.8198876324
 30
0.0
 10
4.8378313942
 20
-19.6764488924
 30
0.0
 10
4.8419510349
 20
-18.2475214321
 30
0.0
 10
4.8419538798
 20
-17.5330485589
 30
0.0
  0
SPLINE
  5
2CC
100
AcDbEntity
  8
RACCORDO
100
AcDbSpline
 62
250
  6
CONTINUOUS
 70
0
 71
3
 72
13
 73
9
 74
0
 42
0.0000001
 43
0.0000001
 44
0.0000000001
 40
0.0
 40
0.0
 40
0.0
 40
0.0
 40
0.3060341224
 40
0.5828901822
 40
0.7039620383
 40
0.8121702605
 40
0.9093522287
 40
1.0
 40
1.0
 40
1.0
 40
1.0
 10
4.8419546579
 20
-17.5330490656
 30
0.0
 10
4.7119867054
 20
-17.5342922672
 30
0.0
 10
4.4634614896
 20
-17.5093231241
 30
0.0
 10
4.1772974269
 20
-17.4082262231
 30
0.0
 10
3.9983444216
 20
-17.2870049716
 30
0.0
 10
3.901281941
 20
-17.1862085799
 30
0.0
 10
3.8397750816
 20
-17.0745619497
 30
0.0
 10
3.8253988426
 20
-16.9942402399
 30
0.0
 10
3.8253973863
 20
-16.9557417741
 30
0.0
  0
SPLINE
  5
2CD
100
AcDbEntity
  8
0
100
AcDbSpline
 62
7
  6
CONTINUOUS
 70
0
 71
3
 72
10
 73
6
 74
0
 42
0.0000001
 43
0.0000001
 44
0.0000000001
 40
0.0
 40
0.0
 40
0.0
 40
0.0
 40
0.2499770577
 40
0.5000048482
 40
1.0
 40
1.0
 40
1.0
 40
1.0
 10
-12.1368432499
 20
-15.9541632283
 30
0.0
 10
-12.1379531388
 20
-15.2398444383
 30
0.0
 10
-12.1373278306
 20
-13.8110590122
 30
0.0
 10
-12.1368228972
 20
-10.9535187973
 30
0.0
 10
-12.1375025181
 20
-8.8102973956
 30
0.0
 10
-12.1375025349
 20
-7.3815408277
 30
0.0
  0
SPLINE
  5
2CE
100
AcDbEntity
  8
RACCORDO
100
AcDbSpline
 62
250
  6
CONTINUOUS
 70
0
 71
3
 72
22
 73
18
 74
0
 42
0.0000001
 43
0.0000001
 44
0.0000000001
 40
0.0
 40
0.0
 40
0.0
 40
0.0
 40
0.1241457962
 40
0.2482014543
 40
0.3725803416
 40
0.4974969585
 40
0.6227843071
 40
0.6855500798
 40
0.7484054263
 40
0.7797715623
 40
0.811017734
 40
0.8422007204
 40
0.8733822725
 40
0.9045885339
 40
0.9361491776
 40
0.9684314749
 40
1.0
 40
1.0
 40
1.0
 40
1.0
 10
-15.8375068342
 20
-3.0013886284
 30
0.0
 10
-15.8375073788
 20
-3.8621306229
 30
0.0
 10
-15.8475514582
 20
-5.582984364
 30
0.0
 10
-15.874236701
 20
-8.1660584772
 30
0.0
 10
-15.8964459622
 20
-10.7545309806
 30
0.0
 10
-15.8974015139
 20
-13.3516943451
 30
0.0
 10
-15.8640439291
 20
-15.521473981
 30
0.0
 10
-15.8147675065
 20
-17.2604195333
 30
0.0
 10
-15.7757107156
 20
-18.3481699195
 30
0.0
 10
-15.7409652624
 20
-19.2173820967
 30
0.0
 10
-15.7159793249
 20
-19.8672156532
 30
0.0
 10
-15.6933727948
 20
-20.5158541334
 30
0.0
 10
-15.6731375995
 20
-21.1643027137
 30
0.0
 10
-15.6550100061
 20
-21.8153995258
 30
0.0
 10
-15.6435281916
 20
-22.474436586
 30
0.0
 10
-15.5958877911
 20
-23.1345228341
 30
0.0
 10
-15.5498232305
 20
-23.5748497281
 30
0.0
 10
-15.5245008641
 20
-23.7922545263
 30
0.0
  0
SPLINE
  5
2CF
100
AcDbEntity
  8
RACCORDO
100
AcDbSpline
 62
250
  6
CONTINUOUS
 70
0
 71
3
 72
12
 73
8
 74
0
 42
0.0000001
 43
0.0000001
 44
0.0000000001
 40
0.0
 40
0.0
 40
0.0
 40
0.0
 40
0.2507112929
 40
0.5011456423
 40
0.7511952197
 40
0.8759339156
 40
1.0
 40
1.0
 40
1.0
 40
1.0
 10
-14.0545418242
 20
-5.9493389089
 30
0.0
 10
-14.0545383546
 20
-6.6608236034
 30
0.0
 10
-14.0643198846
 20
-8.0829907932
 30
0.0
 10
-14.0802733029
 20
-10.2147139316
 30
0.0
 10
-14.0853212821
 20
-11.9890224103
 30
0.0
 10
-14.0798401557
 20
-13.4046976711
 30
0.0
 10
-14.0743766841
 20
-14.1107514686
 30
0.0
 10
-14.0723234373
 20
-14.4628282263
 30
0.0
  0
SPLINE
  5
2D0
100
AcDbEntity
  8
RACCORDO
100
AcDbSpline
 62
250
  6
CONTINUOUS
 70
0
 71
3
 72
17
 73
13
 74
0
 42
0.0000001
 43
0.0000001
 44
0.0000000001
 40
0.0
 40
0.0
 40
0.0
 40
0.0
 40
0.113501237
 40
0.2370919705
 40
0.3020196707
 40
0.3683220271
 40
0.4353159813
 40
0.5024711399
 40
0.6355300333
 40
0.7639785014
 40
0.8862301186
 40
1.0
 40
1.0
 40
1.0
 40
1.0
 10
-14.0723234373
 20
-14.4628282263
 30
0.0
 10
-14.0711374757
 20
-14.666078753
 30
0.0
 10
-14.0429851289
 20
-15.0907014955
 30
0.0
 10
-13.9499360675
 20
-15.6246395853
 30
0.0
 10
-13.8331615485
 20
-16.0660133331
 30
0.0
 10
-13.7227097856
 20
-16.403558103
 30
0.0
 10
-13.5934269304
 20
-16.7385955781
 30
0.0
 10
-13.4003341429
 20
-17.1765289731
 30
0.0
 10
-13.1165649524
 20
-17.6943534518
 30
0.0
 10
-12.6998209975
 20
-18.2439060041
 30
0.0
 10
-12.2338862248
 20
-18.7041853312
 30
0.0
 10
-11.8887889612
 20
-18.951935288
 30
0.0
 10
-11.7139045499
 20
-19.0564504525
 30
0.0
  0
SPLINE
  5
2D1
100
AcDbEntity
  8
RACCORDO
100
AcDbSpline
 62
250
  6
CONTINUOUS
 70
0
 71
3
 72
11
 73
7
 74
0
 42
0.0000001
 43
0.0000001
 44
0.0000000001
 40
0.0
 40
0.0
 40
0.0
 40
0.0
 40
0.2511136259
 40
0.5016905426
 40
0.7510182987
 40
1.0
 40
1.0
 40
1.0
 40
1.0
 10
-11.7139045499
 20
-19.0564504525
 30
0.0
 10
-11.4108465897
 20
-19.2375349336
 30
0.0
 10
-10.8076705449
 20
-19.6031571288
 30
0.0
 10
-9.8964589051
 20
-20.1365982175
 30
0.0
 10
-8.9862022736
 20
-20.6656717305
 30
0.0
 10
-8.3795868542
 20
-21.016121768
 30
0.0
 10
-8.0764476238
 20
-21.191150401
 30
0.0
  0
SPLINE
  5
2D2
100
AcDbEntity
  8
RACCORDO
100
AcDbSpline
 62
250
  6
CONTINUOUS
 70
0
 71
3
 72
9
 73
5
 74
0
 42
0.0000001
 43
0.0000001
 44
0.0000000001
 40
0.0
 40
0.0
 40
0.0
 40
0.0
 40
0.5215859332
 40
1.0
 40
1.0
 40
1.0
 40
1.0
 10
1.9633065618
 20
-35.5498797934
 30
0.0
 10
1.9796948836
 20
-35.5946030495
 30
0.0
 10
2.0227773873
 20
-35.6770896124
 30
0.0
 10
2.0930154484
 20
-35.7394135144
 30
0.0
 10
2.1308515704
 20
-35.7612572224
 30
0.0
  0
SPLINE
  5
2D3
100
AcDbEntity
  8
RACCORDO
100
AcDbSpline
 62
250
  6
CONTINUOUS
 70
0
 71
3
 72
9
 73
5
 74
0
 42
0.0000001
 43
0.0000001
 44
0.0000000001
 40
0.0
 40
0.0
 40
0.0
 40
0.0
 40
0.5215853152
 40
1.0
 40
1.0
 40
1.0
 40
1.0
 10
-6.168421354
 20
-30.8547220093
 30
0.0
 10
-6.1520347207
 20
-30.8994407114
 30
0.0
 10
-6.1089578293
 20
-30.9819191167
 30
0.0
 10
-6.0387311927
 20
-31.0442406602
 30
0.0
 10
-6.0009006789
 20
-31.0660853883
 30
0.0
  0
SPLINE
  5
2D4
100
AcDbEntity
  8
RACCORDO
100
AcDbSpline
 62
250
  6
CONTINUOUS
 70
0
 71
3
 72
9
 73
5
 74
0
 42
0.0000001
 43
0.0000001
 44
0.0000000001
 40
0.0
 40
0.0
 40
0.0
 40
0.0
 40
0.5276170939
 40
1.0
 40
1.0
 40
1.0
 40
1.0
 10
-14.1050268905
 20
-26.1247974383
 30
0.0
 10
-14.0917884562
 20
-26.1862774998
 30
0.0
 10
-14.0499477656
 20
-26.3009210024
 30
0.0
 10
-13.9638005083
 20
-26.3898995923
 30
0.0
 10
-13.9160568185
 20
-26.4197468669
 30
0.0
  0
SPLINE
  5
2D5
100
AcDbEntity
  8
RACCORDO
100
AcDbSpline
 62
250
  6
CONTINUOUS
 70
0
 71
3
 72
9
 73
5
 74
0
 42
0.0000001
 43
0.0000001
 44
0.0000000001
 40
0.0
 40
0.0
 40
0.0
 40
0.0
 40
0.5203284096
 40
1.0
 40
1.0
 40
1.0
 40
1.0
 10
-15.5245002126
 20
-23.7922542489
 30
0.0
 10
-15.5647615477
 20
-23.7521756435
 30
0.0
 10
-15.6323615496
 20
-23.6636597093
 30
0.0
 10
-15.6635593565
 20
-23.5557073956
 30
0.0
 10
-15.667555277
 20
-23.5034898826
 30
0.0
  0
SPLINE
  5
2D6
100
AcDbEntity
  8
RACCORDO
100
AcDbSpline
 62
250
  6
CONTINUOUS
 70
0
 71
3
 72
9
 73
5
 74
0
 42
0.0000001
 43
0.0000001
 44
0.0000000001
 40
0.0
 40
0.0
 40
0.0
 40
0.0
 40
0.519240942
 40
1.0
 40
1.0
 40
1.0
 40
1.0
 10
-8.0764479373
 20
-21.1911452472
 30
0.0
 10
-7.9726740556
 20
-22.897324834
 30
0.0
 10
-7.57652054
 20
-26.1758152081
 30
0.0
 10
-6.7129728956
 20
-29.3687061846
 30
0.0
 10
-6.1684237732
 20
-30.8547243287
 30
0.0
  0
SPLINE
  5
2D7
100
AcDbEntity
  8
RACCORDO
100
AcDbSpline
 62
250
  6
CONTINUOUS
 70
0
 71
3
 72
15
 73
11
 74
0
 42
0.0000001
 43
0.0000001
 44
0.0000000001
 40
0.0
 40
0.0
 40
0.0
 40
0.0
 40
0.062675712
 40
0.1255017284
 40
0.1880096925
 40
0.2504740782
 40
0.3754703446
 40
0.5004428281
 40
0.7503776842
 40
1.0
 40
1.0
 40
1.0
 40
1.0
 10
-14.1050272612
 20
-26.1247977239
 30
0.0
 10
-13.9433705413
 20
-26.2302862487
 30
0.0
 10
-13.6162341004
 20
-26.4362789022
 30
0.0
 10
-13.1192253094
 20
-26.7333917173
 30
0.0
 10
-12.6228750667
 20
-27.030317588
 30
0.0
 10
-11.9625493697
 20
-27.4261153238
 30
0.0
 10
-11.1361127268
 20
-27.918975385
 30
0.0
 10
-9.8162215625
 20
-28.711629632
 30
0.0
 10
-8.1646754171
 20
-29.6975993831
 30
0.0
 10
-6.8342065789
 20
-30.4703113441
 30
0.0
 10
-6.1684227355
 20
-30.8547271604
 30
0.0
  0
SPLINE
  5
2D8
100
AcDbEntity
  8
RACCORDO
100
AcDbSpline
 62
250
  6
CONTINUOUS
 70
0
 71
3
 72
10
 73
6
 74
0
 42
0.0000001
 43
0.0000001
 44
0.0000000001
 40
0.0
 40
0.0
 40
0.0
 40
0.0
 40
0.5393294215
 40
0.7755937716
 40
1.0
 40
1.0
 40
1.0
 40
1.0
 10
-15.5244184207
 20
36.760852372
 30
0.0
 10
-15.5694516714
 20
36.8021058417
 30
0.0
 10
-15.6275802384
 20
36.8718515103
 30
0.0
 10
-15.6658626266
 20
36.979507191
 30
0.0
 10
-15.6697832754
 20
37.0323241049
 30
0.0
 10
-15.6680632463
 20
37.0576770761
 30
0.0
  0
SPLINE
  5
2D9
100
AcDbEntity
  8
RACCORDO
100
AcDbSpline
 62
250
  6
CONTINUOUS
 70
0
 71
3
 72
9
 73
5
 74
0
 42
0.0000001
 43
0.0000001
 44
0.0000000001
 40
0.0
 40
0.0
 40
0.0
 40
0.0
 40
0.4878678694
 40
1.0
 40
1.0
 40
1.0
 40
1.0
 10
6.4344421557
 20
1.4076349616
 30
0.0
 10
6.1859220865
 20
1.4936778301
 30
0.0
 10
5.6582973646
 20
1.6192723439
 30
0.0
 10
5.1180155947
 20
1.6566431211
 30
0.0
 10
4.8419546225
 20
1.6540024324
 30
0.0
  0
SPLINE
  5
2DA
100
AcDbEntity
  8
RACCORDO
100
AcDbSpline
 62
250
  6
CONTINUOUS
 70
0
 71
3
 72
9
 73
5
 74
0
 42
0.0000001
 43
0.0000001
 44
0.0000000001
 40
0.0
 40
0.0
 40
0.0
 40
0.0
 40
0.488233555
 40
1.0
 40
1.0
 40
1.0
 40
1.0
 10
6.478255701
 20
9.935227683
 30
0.0
 10
6.2247904785
 20
10.0309991474
 30
0.0
 10
5.6850268683
 20
10.1744271017
 30
0.0
 10
5.1297191055
 20
10.2256668419
 30
0.0
 10
4.8457217277
 20
10.228866169
 30
0.0
  0
SPLINE
  5
2DB
100
AcDbEntity
  8
RACCORDO
100
AcDbSpline
 62
250
  6
CONTINUOUS
 70
0
 71
3
 72
9
 73
5
 74
0
 42
0.0000001
 43
0.0000001
 44
0.0000000001
 40
0.0
 40
0.0
 40
0.0
 40
0.0
 40
0.4811493726
 40
1.0
 40
1.0
 40
1.0
 40
1.0
 10
3.7092523192
 20
14.2927831981
 30
0.0
 10
3.6956664072
 20
14.0271644169
 30
0.0
 10
3.601332673
 20
13.4779021293
 30
0.0
 10
3.4090704372
 20
12.9565127039
 30
0.0
 10
3.2880212204
 20
12.6965033048
 30
0.0
  0
SPLINE
  5
2DC
100
AcDbEntity
  8
RACCORDO
100
AcDbSpline
 62
250
  6
CONTINUOUS
 70
0
 71
3
 72
9
 73
5
 74
0
 42
0.0000001
 43
0.0000001
 44
0.0000000001
 40
0.0
 40
0.0
 40
0.0
 40
0.0
 40
0.4792433973
 40
1.0
 40
1.0
 40
1.0
 40
1.0
 10
0.0552764179
 20
16.4178779303
 30
0.0
 10
0.040111238
 20
16.1510383065
 30
0.0
 10
-0.0616292861
 20
15.5976636005
 30
0.0
 10
-0.2646102898
 20
15.0749328113
 30
0.0
 10
-0.391952297
 20
14.8139178047
 30
0.0
  0
SPLINE
  5
2DD
100
AcDbEntity
  8
RACCORDO
100
AcDbSpline
 62
250
  6
CONTINUOUS
 70
0
 71
3
 72
9
 73
5
 74
0
 42
0.0000001
 43
0.0000001
 44
0.0000000001
 40
0.0
 40
0.0
 40
0.0
 40
0.0
 40
0.4792411561
 40
1.0
 40
1.0
 40
1.0
 40
1.0
 10
-8.0764516655
 20
21.1130358112
 30
0.0
 10
-8.0916276937
 20
20.8462010016
 30
0.0
 10
-8.193391074
 20
20.2928367417
 30
0.0
 10
-8.3963920567
 20
19.7701204107
 30
0.0
 10
-8.5237439905
 20
19.5091124123
 30
0.0
  0
SPLINE
  5
2DE
100
AcDbEntity
  8
RACCORDO
100
AcDbSpline
 62
250
  6
CONTINUOUS
 70
0
 71
3
 72
9
 73
5
 74
0
 42
0.0000001
 43
0.0000001
 44
0.0000000001
 40
0.0
 40
0.0
 40
0.0
 40
0.0
 40
0.4791497518
 40
1.0
 40
1.0
 40
1.0
 40
1.0
 10
-11.713665695
 20
23.1977832854
 30
0.0
 10
-11.7371252764
 20
22.9367668124
 30
0.0
 10
-11.8534419085
 20
22.3975277014
 30
0.0
 10
-12.0664785627
 20
21.8906313003
 30
0.0
 10
-12.1979523106
 20
21.6379076107
 30
0.0
  0
SPLINE
  5
2DF
100
AcDbEntity
  8
RACCORDO
100
AcDbSpline
 62
250
  6
CONTINUOUS
 70
0
 71
3
 72
11
 73
7
 74
0
 42
0.0000001
 43
0.0000001
 44
0.0000000001
 40
0.0
 40
0.0
 40
0.0
 40
0.0
 40
0.2761935555
 40
0.5319919392
 40
0.7711790375
 40
1.0
 40
1.0
 40
1.0
 40
1.0
 10
-14.0723221553
 20
21.8012975037
 30
0.0
 10
-14.0083344124
 20
21.7435805602
 30
0.0
 10
-13.8923637977
 20
21.6238052771
 30
0.0
 10
-13.7548780981
 20
21.4248204618
 30
0.0
 10
-13.6637683502
 20
21.2165294305
 30
0.0
 10
-13.6352542066
 20
21.0718429504
 30
0.0
 10
-13.6296326458
 20
21.0006724994
 30
0.0
  0
SPLINE
  5
2E0
100
AcDbEntity
  8
RACCORDO
100
AcDbSpline
 62
250
  6
CONTINUOUS
 70
0
 71
3
 72
10
 73
6
 74
0
 42
0.0000001
 43
0.0000001
 44
0.0000000001
 40
0.0
 40
0.0
 40
0.0
 40
0.0
 40
0.5276659878
 40
0.7679856543
 40
1.0
 40
1.0
 40
1.0
 40
1.0
 10
-14.0545463365
 20
13.2377201297
 30
0.0
 10
-13.9281040794
 20
13.1159687586
 30
0.0
 10
-13.7657155149
 20
12.9093973105
 30
0.0
 10
-13.6493675241
 20
12.5954796224
 30
0.0
 10
-13.6286327504
 20
12.4380473743
 30
0.0
 10
-13.627542959
 20
12.3608743316
 30
0.0
  0
SPLINE
  5
2E1
100
AcDbEntity
  8
RACCORDO
100
AcDbSpline
 62
250
  6
CONTINUOUS
 70
0
 71
3
 72
10
 73
6
 74
0
 42
0.0000001
 43
0.0000001
 44
0.0000000001
 40
0.0
 40
0.0
 40
0.0
 40
0.0
 40
0.5276376666
 40
0.7679685125
 40
1.0
 40
1.0
 40
1.0
 40
1.0
 10
-14.0545463365
 20
-5.9493312544
 30
0.0
 10
-13.9281014319
 20
-6.0711536813
 30
0.0
 10
-13.7657201747
 20
-6.2778329177
 30
0.0
 10
-13.6493770256
 20
-6.5918731806
 30
0.0
 10
-13.628637173
 20
-6.7493679069
 30
0.0
 10
-13.6275436514
 20
-6.8265732607
 30
0.0
  0
SPLINE
  5
2E2
100
AcDbEntity
  8
RACCORDO
100
AcDbSpline
 62
250
  6
CONTINUOUS
 70
0
 71
3
 72
10
 73
6
 74
0
 42
0.0000001
 43
0.0000001
 44
0.0000000001
 40
0.0
 40
0.0
 40
0.0
 40
0.0
 40
0.5257718745
 40
0.7667965873
 40
1.0
 40
1.0
 40
1.0
 40
1.0
 10
-14.0723234298
 20
-14.4628282235
 30
0.0
 10
-13.9411766867
 20
-14.5903535604
 30
0.0
 10
-13.773035769
 20
-14.8069857238
 30
0.0
 10
-13.6514871754
 20
-15.1352362276
 30
0.0
 10
-13.6288571726
 20
-15.300351307
 30
0.0
 10
-13.6270309293
 20
-15.3814669518
 30
0.0
  0
SPLINE
  5
2E3
100
AcDbEntity
  8
RACCORDO
100
AcDbSpline
 62
250
  6
CONTINUOUS
 70
0
 71
3
 72
11
 73
7
 74
0
 42
0.0000001
 43
0.0000001
 44
0.0000000001
 40
0.0
 40
0.0
 40
0.0
 40
0.0
 40
0.2782147349
 40
0.53560732
 40
0.7745833283
 40
1.0
 40
1.0
 40
1.0
 40
1.0
 10
-11.713904546
 20
-19.0564504499
 30
0.0
 10
-11.7245346688
 20
-18.945229178
 30
0.0
 10
-11.7594549901
 20
-18.7320454077
 30
0.0
 10
-11.8591898374
 20
-18.4357252929
 30
0.0
 10
-12.0030664245
 20
-18.1818712775
 30
0.0
 10
-12.1295528628
 20
-18.0421459402
 30
0.0
 10
-12.1980774924
 20
-17.9829923748
 30
0.0
  0
SPLINE
  5
2E4
100
AcDbEntity
  8
RACCORDO
100
AcDbSpline
 62
250
  6
CONTINUOUS
 70
0
 71
3
 72
11
 73
7
 74
0
 42
0.0000001
 43
0.0000001
 44
0.0000000001
 40
0.0
 40
0.0
 40
0.0
 40
0.0
 40
0.281312903
 40
0.5396970243
 40
0.777522823
 40
1.0
 40
1.0
 40
1.0
 40
1.0
 10
-8.0764516655
 20
-21.1911476304
 30
0.0
 10
-8.0833064693
 20
-21.0784492362
 30
0.0
 10
-8.1108161683
 20
-20.8626624086
 30
0.0
 10
-8.2002345154
 20
-20.5619927301
 30
0.0
 10
-8.3351664496
 20
-20.3047719889
 30
0.0
 10
-8.4571425292
 20
-20.1631833671
 30
0.0
 10
-8.5236802818
 20
-20.1036359577
 30
0.0
  0
SPLINE
  5
2E5
100
AcDbEntity
  8
RACCORDO
100
AcDbSpline
 62
250
  6
CONTINUOUS
 70
0
 71
3
 72
11
 73
7
 74
0
 42
0.0000001
 43
0.0000001
 44
0.0000000001
 40
0.0
 40
0.0
 40
0.0
 40
0.0
 40
0.281317362
 40
0.5397026586
 40
0.777526686
 40
1.0
 40
1.0
 40
1.0
 40
1.0
 10
0.0552764179
 20
-25.8863055114
 30
0.0
 10
0.0484265228
 20
-25.7736104621
 30
0.0
 10
0.0209269641
 20
-25.557830601
 30
0.0
 10
-0.0684749692
 20
-25.2571700942
 30
0.0
 10
-0.2033903563
 20
-24.9999582834
 30
0.0
 10
-0.3253559146
 20
-24.8583751192
 30
0.0
 10
-0.3918884534
 20
-24.798830644
 30
0.0
  0
SPLINE
  5
2E6
100
AcDbEntity
  8
RACCORDO
100
AcDbSpline
 62
250
  6
CONTINUOUS
 70
0
 71
3
 72
11
 73
7
 74
0
 42
0.0000001
 43
0.0000001
 44
0.0000000001
 40
0.0
 40
0.0
 40
0.0
 40
0.0
 40
0.2832227619
 40
0.5420388536
 40
0.7790788131
 40
1.0
 40
1.0
 40
1.0
 40
1.0
 10
3.7090968684
 20
-27.9615021774
 30
0.0
 10
3.7029470848
 20
-27.853423903
 30
0.0
 10
3.6776535718
 20
-27.6469225679
 30
0.0
 10
3.5938723891
 20
-27.3595538712
 30
0.0
 10
3.466657989
 20
-27.1147038222
 30
0.0
 10
3.3510095469
 20
-26.9805071171
 30
0.0
 10
3.2879025657
 20
-26.9244030531
 30
0.0
  0
SPLINE
  5
2E7
100
AcDbEntity
  8
RACCORDO
100
AcDbSpline
 62
250
  6
CONTINUOUS
 70
0
 71
3
 72
9
 73
5
 74
0
 42
0.0000001
 43
0.0000001
 44
0.0000000001
 40
0.0
 40
0.0
 40
0.0
 40
0.0
 40
0.4864389203
 40
1.0
 40
1.0
 40
1.0
 40
1.0
 10
6.4778484417
 20
-26.3282158355
 30
0.0
 10
6.2235688886
 20
-26.2432764725
 30
0.0
 10
5.681804155
 20
-26.1236263739
 30
0.0
 10
5.1285714048
 20
-26.0977261317
 30
0.0
 10
4.845694783
 20
-26.1073073233
 30
0.0
  0
SPLINE
  5
2E8
100
AcDbEntity
  8
RACCORDO
100
AcDbSpline
 62
250
  6
CONTINUOUS
 70
0
 71
3
 72
9
 73
5
 74
0
 42
0.0000001
 43
0.0000001
 44
0.0000000001
 40
0.0
 40
0.0
 40
0.0
 40
0.0
 40
0.487867845
 40
1.0
 40
1.0
 40
1.0
 40
1.0
 10
6.4344421557
 20
-17.7794164225
 30
0.0
 10
6.185922083
 20
-17.6933736358
 30
0.0
 10
5.6582973808
 20
-17.5677791797
 30
0.0
 10
5.1180156324
 20
-17.5304083778
 30
0.0
 10
4.8419546579
 20
-17.533049069
 30
0.0
  0
SPLINE
  5
2E9
100
AcDbEntity
  8
RACCORDO
100
AcDbSpline
 62
250
  6
CONTINUOUS
 70
0
 71
3
 72
11
 73
7
 74
0
 42
0.0000001
 43
0.0000001
 44
0.0000000001
 40
0.0
 40
0.0
 40
0.0
 40
0.0
 40
0.2459232442
 40
0.5060127072
 40
0.7629141304
 40
1.0
 40
1.0
 40
1.0
 40
1.0
 10
-14.1035452311
 20
37.5199037452
 30
0.0
 10
-14.0858417231
 20
37.6205657368
 30
0.0
 10
-14.023229501
 20
37.8234441093
 30
0.0
 10
-13.870865819
 20
38.1035821313
 30
0.0
 10
-13.67078921
 20
38.34718199
 30
0.0
 10
-13.5086884088
 20
38.4768810836
 30
0.0
 10
-13.4239681571
 20
38.5271944722
 30
0.0
  0
SPLINE
  5
2EA
100
AcDbEntity
  8
RACCORDO
100
AcDbSpline
 62
250
  6
CONTINUOUS
 70
0
 71
3
 72
11
 73
7
 74
0
 42
0.0000001
 43
0.0000001
 44
0.0000000001
 40
0.0
 40
0.0
 40
0.0
 40
0.0
 40
0.2529797279
 40
0.5137079319
 40
0.7672573813
 40
1.0
 40
1.0
 40
1.0
 40
1.0
 10
-6.168421354
 20
32.9799555737
 30
0.0
 10
-6.1446700021
 20
33.0722000294
 30
0.0
 10
-6.0777260359
 20
33.2550020465
 30
0.0
 10
-5.9334267554
 20
33.5067596252
 30
0.0
 10
-5.7538323285
 20
33.7249374164
 30
0.0
 10
-5.6117412941
 20
33.8430670617
 30
0.0
 10
-5.53785993
 20
33.8901962009
 30
0.0
  0
SPLINE
  5
2EB
100
AcDbEntity
  8
RACCORDO
100
AcDbSpline
 62
250
  6
CONTINUOUS
 70
0
 71
3
 72
11
 73
7
 74
0
 42
0.0000001
 43
0.0000001
 44
0.0000000001
 40
0.0
 40
0.0
 40
0.0
 40
0.0
 40
0.2529797138
 40
0.5137079309
 40
0.7672573841
 40
1.0
 40
1.0
 40
1.0
 40
1.0
 10
1.9633065618
 20
28.2847977896
 30
0.0
 10
1.9870579457
 20
28.3770422293
 30
0.0
 10
2.0540019302
 20
28.559844227
 30
0.0
 10
2.1983011411
 20
28.8116018386
 30
0.0
 10
2.3778955467
 20
29.0297796482
 30
0.0
 10
2.5199865617
 20
29.1479093102
 30
0.0
 10
2.593867918
 20
29.1950384559
 30
0.0
  0
SPLINE
  5
2EC
100
AcDbEntity
  8
RACCORDO
100
AcDbSpline
 62
250
  6
CONTINUOUS
 70
0
 71
3
 72
11
 73
7
 74
0
 42
0.0000001
 43
0.0000001
 44
0.0000000001
 40
0.0
 40
0.0
 40
0.0
 40
0.0
 40
0.2488646823
 40
0.5108841783
 40
0.7671548221
 40
1.0
 40
1.0
 40
1.0
 40
1.0
 10
9.9894620823
 20
23.6088507934
 30
0.0
 10
10.0055796341
 20
23.7104656763
 30
0.0
 10
10.0628483291
 20
23.9155368354
 30
0.0
 10
10.2029575206
 20
24.2018182403
 30
0.0
 10
10.3873543173
 20
24.4536343506
 30
0.0
 10
10.5382818182
 20
24.5914377593
 30
0.0
 10
10.6176752222
 20
24.6458725068
 30
0.0
  0
SPLINE
  5
2ED
100
AcDbEntity
  8
RACCORDO
100
AcDbSpline
 62
250
  6
CONTINUOUS
 70
0
 71
3
 72
11
 73
7
 74
0
 42
0.0000001
 43
0.0000001
 44
0.0000000001
 40
0.0
 40
0.0
 40
0.0
 40
0.0
 40
0.2523942399
 40
0.515552699
 40
0.7705375303
 40
1.0
 40
1.0
 40
1.0
 40
1.0
 10
11.3532066501
 20
21.2420498432
 30
0.0
 10
11.4483008703
 20
21.2066027803
 30
0.0
 10
11.6502800094
 20
21.1541833559
 30
0.0
 10
11.9602689083
 20
21.1272700262
 30
0.0
 10
12.2612754329
 20
21.1509214329
 30
0.0
 10
12.4510352473
 20
21.2027798729
 30
0.0
 10
12.5359504792
 20
21.2388670565
 30
0.0
  0
SPLINE
  5
2EE
100
AcDbEntity
  8
RACCORDO
100
AcDbSpline
 62
250
  6
CONTINUOUS
 70
0
 71
3
 72
9
 73
5
 74
0
 42
0.0000001
 43
0.0000001
 44
0.0000000001
 40
0.0
 40
0.0
 40
0.0
 40
0.0
 40
0.5215992266
 40
1.0
 40
1.0
 40
1.0
 40
1.0
 10
11.5401155415
 20
0.3781677339
 30
0.0
 10
11.6823810323
 20
0.3672779118
 30
0.0
 10
11.9584176797
 20
0.379800662
 30
0.0
 10
12.2245619508
 20
0.4611031575
 30
0.0
 10
12.3406726461
 20
0.5214680734
 30
0.0
  0
SPLINE
  5
2EF
100
AcDbEntity
  8
RACCORDO
100
AcDbSpline
 62
250
  6
CONTINUOUS
 70
0
 71
3
 72
9
 73
5
 74
0
 42
0.0000001
 43
0.0000001
 44
0.0000000001
 40
0.0
 40
0.0
 40
0.0
 40
0.0
 40
0.5215993134
 40
1.0
 40
1.0
 40
1.0
 40
1.0
 10
11.5401155415
 20
-18.8088839992
 30
0.0
 10
11.6823810555
 20
-18.8197736532
 30
0.0
 10
11.9584176381
 20
-18.8072510336
 30
0.0
 10
12.2245619434
 20
-18.7259487118
 30
0.0
 10
12.3406726461
 20
-18.6655838883
 30
0.0
  0
SPLINE
  5
2F0
100
AcDbEntity
  8
RACCORDO
100
AcDbSpline
 62
250
  6
CONTINUOUS
 70
0
 71
3
 72
11
 73
7
 74
0
 42
0.0000001
 43
0.0000001
 44
0.0000000001
 40
0.0
 40
0.0
 40
0.0
 40
0.0
 40
0.2455467845
 40
0.5043903697
 40
0.7609076729
 40
1.0
 40
1.0
 40
1.0
 40
1.0
 10
11.3533125033
 20
-39.3111669607
 30
0.0
 10
11.4484137579
 20
-39.3420624195
 30
0.0
 10
11.6521410879
 20
-39.3809924417
 30
0.0
 10
11.9638281279
 20
-39.376744446
 30
0.0
 10
12.2663674084
 20
-39.3133841737
 30
0.0
 10
12.4529985856
 20
-39.2309246217
 30
0.0
 10
12.5359470054
 20
-39.1799384528
 30
0.0
  0
SPLINE
  5
2F1
100
AcDbEntity
  8
RACCORDO
100
AcDbSpline
 62
250
  6
CONTINUOUS
 70
0
 71
3
 72
10
 73
6
 74
0
 42
0.0000001
 43
0.0000001
 44
0.0000000001
 40
0.0
 40
0.0
 40
0.0
 40
0.0
 40
0.5358487861
 40
0.7733122044
 40
1.0
 40
1.0
 40
1.0
 40
1.0
 10
9.9910559535
 20
-40.0375730552
 30
0.0
 10
10.0036308229
 20
-40.1013146638
 30
0.0
 10
10.0353851845
 20
-40.1928893734
 30
0.0
 10
10.1125197966
 20
-40.2877843434
 30
0.0
 10
10.1587165892
 20
-40.3213236866
 30
0.0
 10
10.1829583367
 20
-40.3342765554
 30
0.0
  0
SPLINE
  5
2F2
100
AcDbEntity
  8
RACCORDO
100
AcDbSpline
 62
250
  6
CONTINUOUS
 70
0
 71
3
 72
11
 73
7
 74
0
 42
0.0000001
 43
0.0000001
 44
0.0000000001
 40
0.0
 40
0.0
 40
0.0
 40
0.0
 40
0.2385896576
 40
0.5009793338
 40
0.7627800538
 40
1.0
 40
1.0
 40
1.0
 40
1.0
 10
-15.5245008641
 20
-23.7922545263
 30
0.0
 10
-15.4987090927
 20
-24.0135986025
 30
0.0
 10
-15.3800960309
 20
-24.4711210489
 30
0.0
 10
-15.0704319459
 20
-25.1170899485
 30
0.0
 10
-14.6435609695
 20
-25.6911308369
 30
0.0
 10
-14.290569892
 20
-26.0037034646
 30
0.0
 10
-14.1050272612
 20
-26.1247977239
 30
0.0
  0
LINE
  5
2F3
100
AcDbEntity
  8
DRAFT
100
AcDbLine
 62
7
  6
CONTINUOUS
 10
3.6507275014
 20
-25.3975295259
 11
-0.0261958332
 21
-23.2744819187
  0
SPLINE
  5
2F4
100
AcDbEntity
  8
RACCORDO
100
AcDbSpline
 62
250
  6
CONTINUOUS
 70
0
 71
3
 72
13
 73
9
 74
0
 42
0.0000001
 43
0.0000001
 44
0.0000000001
 40
0.0
 40
0.0
 40
0.0
 40
0.0
 40
0.1257094302
 40
0.2513737183
 40
0.3765881832
 40
0.5015157391
 40
0.7509267778
 40
1.0
 40
1.0
 40
1.0
 40
1.0
 10
3.7092523159
 20
14.2927831965
 30
0.0
 10
3.5549012861
 20
14.3796763635
 30
0.0
 10
3.2500185406
 20
14.5600555332
 30
0.0
 10
2.7958981127
 20
14.8345086425
 30
0.0
 10
2.339678817
 20
15.1033450876
 30
0.0
 10
1.7316065694
 20
15.4578935232
 30
0.0
 10
0.9699740026
 20
15.8955367081
 30
0.0
 10
0.3592096747
 20
16.2424007203
 30
0.0
 10
0.0552803598
 20
16.4178853106
 30
0.0
  0
SPLINE
  5
2F5
100
AcDbEntity
  8
RACCORDO
100
AcDbSpline
 62
250
  6
CONTINUOUS
 70
0
 71
3
 72
9
 73
5
 74
0
 42
0.0000001
 43
0.0000001
 44
0.0000000001
 40
0.0
 40
0.0
 40
0.0
 40
0.0
 40
0.4872504599
 40
1.0
 40
1.0
 40
1.0
 40
1.0
 10
0.0552800464
 20
16.4178797948
 30
0.0
 10
0.1661739448
 20
18.3691793476
 30
0.0
 10
0.6172459221
 20
22.3630846914
 30
0.0
 10
1.4504487982
 20
26.2930354873
 30
0.0
 10
1.9633042105
 20
28.2847973546
 30
0.0
  0
SPLINE
  5
2F6
100
AcDbEntity
  8
RACCORDO
100
AcDbSpline
 62
250
  6
CONTINUOUS
 70
0
 71
3
 72
17
 73
13
 74
0
 42
0.0000001
 43
0.0000001
 44
0.0000000001
 40
0.0
 40
0.0
 40
0.0
 40
0.0
 40
0.0318125904
 40
0.0633248114
 40
0.094703728
 40
0.126051258
 40
0.188664446
 40
0.2512148507
 40
0.3763176495
 40
0.5015080551
 40
0.7514241123
 40
1.0
 40
1.0
 40
1.0
 40
1.0
 10
9.9894601153
 20
23.6088500749
 30
0.0
 10
9.9043189596
 20
23.6583834785
 30
0.0
 10
9.7359534023
 20
23.7588818473
 30
0.0
 10
9.4840674469
 20
23.9090088564
 30
0.0
 10
9.2322906683
 20
24.056495347
 30
0.0
 10
8.897565905
 20
24.2528955086
 30
0.0
 10
8.4791250184
 20
24.4973373142
 30
0.0
 10
7.8095986794
 20
24.8874757039
 30
0.0
 10
6.9722990892
 20
25.3745419348
 30
0.0
 10
5.6338253183
 20
26.153822705
 30
0.0
 10
3.9654334288
 20
27.1262794464
 30
0.0
 10
2.6298466047
 20
27.8999487877
 30
0.0
 10
1.9633052481
 20
28.2848013845
 30
0.0
  0
ELLIPSE
  5
2F7
100
AcDbEntity
  8
RACCORDO
100
AcDbEllipse
 62
7
  6
CONTINUOUS
 10
4.3731177861
 20
31.6604571141
 30
0.0
 11
0.4997887139
 21
0.0239535316
 31
0.0
 40
0.6067642562
 41
0.7563257746
 42
2.1962224075
  0
ELLIPSE
  5
2F8
100
AcDbEntity
  8
RACCORDO
100
AcDbEllipse
 62
7
  6
CONTINUOUS
 10
-1.5691151813
 20
33.7850755129
 30
0.0
 11
0.4997887139
 21
0.0239535316
 31
0.0
 40
0.6067642562
 41
-0.6835708583
 42
-0.029072548
  0
ELLIPSE
  5
2F9
100
AcDbEntity
  8
RACCORDO
100
AcDbEllipse
 62
7
  6
CONTINUOUS
 10
2.8597102534
 20
31.6749410753
 30
0.0
 11
0.4997887139
 21
0.0239535316
 31
0.0
 40
0.6067642562
 41
-2.385266879
 42
-0.9453702461
  0
ELLIPSE
  5
2FA
100
AcDbEntity
  8
RACCORDO
100
AcDbEllipse
 62
7
  6
CONTINUOUS
 10
-1.5691151813
 20
35.0914279558
 30
0.0
 11
0.4997887139
 21
0.0239535316
 31
0.0
 40
0.6067642562
 41
-0.6835708583
 42
0.7563257746
  0
ELLIPSE
  5
2FB
100
AcDbEntity
  8
RACCORDO
100
AcDbEllipse
 62
7
  6
CONTINUOUS
 10
-1.469921211
 20
34.1748160198
 30
0.0
 11
0.4997887139
 21
0.0239535316
 31
0.0
 40
0.6067642562
 41
2.4580217953
 42
3.8979184282
  0
ENDSEC
  0
SECTION
  2
OBJECTS
  0
DICTIONARY
  5
C
100
AcDbDictionary
280
0
281
1
  3
ACAD_GROUP
350
D
  3
ACAD_MLINESTYLE
350
17
  3
ACAD_LAYOUT
350
1A
  3
ACAD_PLOTSETTINGS
350
19
  3
ACAD_PLOTSTYLENAME
350
E
  0
DICTIONARY
  5
D
102
{ACAD_REACTORS
330
C
102
}
100
AcDbDictionary
280
0
281
1
  0
ACDBDICTIONARYWDFLT
  5
E
102
{ACAD_REACTORS
330
C
102
}
100
AcDbDictionary
281
1
  3
Normal
350
F
100
AcDbDictionaryWithDefault
340
F
  0
DICTIONARY
  5
17
102
{ACAD_REACTORS
330
C
102
}
100
AcDbDictionary
280
0
281
1
  3
Standard
350
18
  0
DICTIONARY
  5
19
102
{ACAD_REACTORS
330
C
102
}
100
AcDbDictionary
281
1
  0
DICTIONARY
  5
1A
102
{ACAD_REACTORS
330
C
102
}
100
AcDbDictionary
281
1
  3
Model
350
2FC
  3
Layout1
350
2FD
  0
ACDBPLACEHOLDER
  5
F
102
{ACAD_REACTORS
330
E
102
}
  0
MLINESTYLE
  5
18
102
{ACAD_REACTORS
330
17
102
}
100
AcDbMlineStyle
  2
STANDARD
 70
0
  3

 62
256
 51
90.0
 52
90.0
 71
2
 49
0.5
 62
256
  6
BYLAYER
 49
-0.5
 62
256
  6
BYLAYER
  0
LAYOUT
  5
2FC
102
{ACAD_REACTORS
330
1A
102
}
100
AcDbPlotSettings
  1

  2
none_device
  4
ANSI_C_(22.00_x_17.00_Inches)
  6

 40
0.0
 41
0.0
 42
0.0
 43
0.0
 44
558.8
 45
431.8
 46
0.0
 47
0.0
 48
0.0
 49
0.0
140
0.0
141
0.0
142
1.0
143
1.0
 70
1024
 72
1
 73
0
 74
0
  7

 75
0
147
1.0
148
0.0
149
0.0
100
AcDbLayout
  1
Model
 70
0
 71
0
 10
0.0
 20
0.0
 11
558.8
 21
431.8
 12
0.0
 22
0.0
 32
0.0
 14
0.0
 24
0.0
 34
0.0
 15
0.0
 25
0.0
 35
0.0
146
0.0
 13
0.0
 23
0.0
 33
0.0
 16
1.0
 26
0.0
 36
0.0
 17
0.0
 27
1.0
 37
0.0
 76
0
330
215
345
0
346
0
  0
LAYOUT
  5
2FD
102
{ACAD_REACTORS
330
1A
102
}
100
AcDbPlotSettings
  1

  2
none_device
  4
ANSI_C_(22.00_x_17.00_Inches)
  6

 40
0.0
 41
0.0
 42
0.0
 43
0.0
 44
558.8
 45
431.8
 46
0.0
 47
0.0
 48
0.0
 49
0.0
140
0.0
141
0.0
142
1.0
143
1.0
 70
0
 72
1
 73
0
 74
0
  7

 75
0
147
1.0
148
0.0
149
0.0
100
AcDbLayout
  1
Layout1
 70
0
 71
1
 10
0.0
 20
0.0
 11
558.8
 21
431.8
 12
0.0
 22
0.0
 32
0.0
 14
0.0
 24
0.0
 34
0.0
 15
0.0
 25
0.0
 35
0.0
146
0.0
 13
0.0
 23
0.0
 33
0.0
 16
1.0
 26
0.0
 36
0.0
 17
0.0
 27
1.0
 37
0.0
 76
0
330
216
345
0
346
0
  0
ENDSEC
  0
EOF
