  0
SECTION
  2
HEADER
  9
$ACADVER
  1
AC1024
  9
$DWGCODEPAGE
  3
ANSI_1252
  9
$EXTMAX
 10
210.0
 20
297.0
 30
0.0
  9
$EXTMIN
 10
0.0
 20
0.0
 30
0.0
  9
$LIMMIN
 10
0.0
 20
0.0
  9
$LIMMAX
 10
210.0
 20
297.0
  9
$VIEWCTR
 10
105.0
 20
148.5
  9
$VIEWSIZE
 40
297.0
  9
$CLAYER
  8
0
  9
$LTSCALE
 40
19.36
  9
$CELTYPE
  6
BYLAYER
  9
$DIMSCALE
 40
1.0
  9
$DIMASZ
 40
3.0
  9
$DIMEXO
 40
0.5
  9
$DIMDLI
 40
13.376
  9
$DIMEXE
 40
1.5
  9
$DIMCEN
 40
3.168
  9
$DIMLFAC
 40
1.0
  9
$DIMBLK
  1
_FILLED
  9
$DIMALT
 70
0
  9
$DIMALTF
 40
0.0393700787
  9
$DIMTXT
 40
3.0
  9
$DIMTOL
 70
1
  9
$DIMLIM
 70
0
  9
$DIMTFAC
 40
1.0
  9
$DIMTP
 40
0.01
  9
$DIMTM
 40
0.01
  9
$DIMGAP
 40
0.625
  9
$DIMDSEP
 70
44
  9
$AUNITS
 70
0
  9
$PDMODE
 70
3
  9
$PDSIZE
 40
3.0
  9
$HANDSEED
  5
2C0
  9
$TILEMODE
 70
1
  9
$MEASUREMENT
 70
1
  9
$INSUNITS
 70
4
  0
ENDSEC
  0
SECTION
  2
CLASSES
  0
CLASS
  1
ACDBDICTIONARYWDFLT
  2
AcDbDictionaryWithDefault
  3
AutoCAD 2000
 90
0
 91
1
280
0
281
0
  0
CLASS
  1
ACDBPLACEHOLDER
  2
AcDbPlaceHolder
  3
AutoCAD 2000
 90
0
 91
1
280
0
281
0
  0
CLASS
  1
LAYOUT
  2
AcDbLayout
  3
AutoCAD 2000
 90
0
 91
0
280
0
281
0
  0
ENDSEC
  0
SECTION
  2
TABLES
  0
TABLE
  2
VPORT
  5
8
100
AcDbSymbolTable
 70
2
  0
VPORT
  5
1F4
100
AcDbSymbolTableRecord
100
AcDbViewportTableRecord
  2
*ACTIVE
 70
0
 10
0.0
 20
0.0
 11
1.0
 21
1.0
 12
105.0
 22
148.5
 13
0.0
 23
0.0
 14
1.0
 24
1.0
 15
0.0
 25
0.0
 16
0.0
 26
0.0
 36
1.0
 17
0.0
 27
0.0
 37
0.0
 40
297.0
 41
0.7070707071
 42
50.0
 43
0.0
 44
0.0
 50
0.0
 51
0.0
 71
0
 72
100
 73
1
 74
1
 75
0
 76
0
 77
0
 78
0
  0
ENDTAB
  0
TABLE
  2
LTYPE
  5
5
100
AcDbSymbolTable
 70
6
  0
LTYPE
  5
14
100
AcDbSymbolTableRecord
100
AcDbLinetypeTableRecord
  2
BYBLOCK
 70
0
  3

 72
65
 73
0
 40
0.0
  0
LTYPE
  5
15
100
AcDbSymbolTableRecord
100
AcDbLinetypeTableRecord
  2
BYLAYER
 70
0
  3

 72
65
 73
0
 40
0.0
  0
LTYPE
  5
16
100
AcDbSymbolTableRecord
100
AcDbLinetypeTableRecord
  2
CONTINUOUS
 70
64
  3
Solid line
 72
65
 73
0
 40
0.0
  0
LTYPE
  5
1F5
100
AcDbSymbolTableRecord
100
AcDbLinetypeTableRecord
  2
CENTER
 70
64
  3
____ _ ____ _ ____ _ ____ _ ____ _ ____ _ ____
 72
65
 73
4
 40
0.6
 49
0.375
 74
0
 49
-0.075
 74
0
 49
0.075
 74
0
 49
-0.075
 74
0
  0
LTYPE
  5
1F6
100
AcDbSymbolTableRecord
100
AcDbLinetypeTableRecord
  2
HIDDEN
 70
64
  3
- - - - - - - - - - - - - - - - - - - -
 72
65
 73
2
 40
0.2
 49
0.1
 74
0
 49
-0.1
 74
0
  0
LTYPE
  5
1F7
100
AcDbSymbolTableRecord
100
AcDbLinetypeTableRecord
  2
PHANTOM
 70
64
  3
_____ _ _ _____ _ _ _____ _ _ _____
 72
65
 73
6
 40
0.8
 49
0.45
 74
0
 49
-0.05
 74
0
 49
0.1
 74
0
 49
-0.05
 74
0
 49
0.1
 74
0
 49
-0.05
 74
0
  0
LTYPE
  5
1F8
100
AcDbSymbolTableRecord
100
AcDbLinetypeTableRecord
  2
DOT
 70
64
  3
. . . . . . . . . . . . . . . . . . . .
 72
65
 73
2
 40
0.2
 49
0.1
 74
0
 49
-0.1
 74
0
  0
LTYPE
  5
1F9
100
AcDbSymbolTableRecord
100
AcDbLinetypeTableRecord
  2
DASHED
 70
64
  3
- - - - - - - - - - - - - - - - - - - -
 72
65
 73
2
 40
0.2
 49
0.1
 74
0
 49
-0.1
 74
0
  0
ENDTAB
  0
TABLE
  2
LAYER
  5
2
100
AcDbSymbolTable
 70
36
  0
LAYER
  5
10
100
AcDbSymbolTableRecord
100
AcDbLayerTableRecord
  2
0
 70
0
 62
7
  6
CONTINUOUS
370
-3
390
F
  0
LAYER
  5
1FA
100
AcDbSymbolTableRecord
100
AcDbLayerTableRecord
  2
DEFAULT_1
 70
0
 62
7
  6
CENTER
370
-3
390
F
  0
LAYER
  5
1FB
100
AcDbSymbolTableRecord
100
AcDbLayerTableRecord
  2
DEFAULT_2
 70
0
 62
7
  6
HIDDEN
370
-3
390
F
  0
LAYER
  5
1FC
100
AcDbSymbolTableRecord
100
AcDbLayerTableRecord
  2
DEFAULT_3
 70
0
 62
7
  6
PHANTOM
370
-3
390
F
  0
LAYER
  5
1FD
100
AcDbSymbolTableRecord
100
AcDbLayerTableRecord
  2
ASSI
 70
0
 62
7
  6
CONTINUOUS
370
-3
390
F
  0
LAYER
  5
1FE
100
AcDbSymbolTableRecord
100
AcDbLayerTableRecord
  2
COORDINATE
 70
0
 62
7
  6
CONTINUOUS
370
-3
390
F
  0
LAYER
  5
1FF
100
AcDbSymbolTableRecord
100
AcDbLayerTableRecord
  2
COORD_ORIGINE
 70
0
 62
7
  6
CONTINUOUS
370
-3
390
F
  0
LAYER
  5
200
100
AcDbSymbolTableRecord
100
AcDbLayerTableRecord
  2
COPY_PUBLISH
 70
0
 62
7
  6
CONTINUOUS
370
-3
390
F
  0
LAYER
  5
201
100
AcDbSymbolTableRecord
100
AcDbLayerTableRecord
  2
COSMETICI
 70
0
 62
7
  6
CONTINUOUS
370
-3
390
F
  0
LAYER
  5
202
100
AcDbSymbolTableRecord
100
AcDbLayerTableRecord
  2
CURVE
 70
0
 62
7
  6
CONTINUOUS
370
-3
390
F
  0
LAYER
  5
203
100
AcDbSymbolTableRecord
100
AcDbLayerTableRecord
  2
DRAFT
 70
0
 62
7
  6
CONTINUOUS
370
-3
390
F
  0
LAYER
  5
204
100
AcDbSymbolTableRecord
100
AcDbLayerTableRecord
  2
IGES
 70
0
 62
7
  6
CONTINUOUS
370
-3
390
F
  0
LAYER
  5
205
100
AcDbSymbolTableRecord
100
AcDbLayerTableRecord
  2
IMPORT_IGES
 70
0
 62
7
  6
CONTINUOUS
370
-3
390
F
  0
LAYER
  5
206
100
AcDbSymbolTableRecord
100
AcDbLayerTableRecord
  2
INTFCLR_2
 70
0
 62
7
  6
CONTINUOUS
370
-3
390
F
  0
LAYER
  5
207
100
AcDbSymbolTableRecord
100
AcDbLayerTableRecord
  2
INTFCLR_3
 70
0
 62
7
  6
CONTINUOUS
370
-3
390
F
  0
LAYER
  5
208
100
AcDbSymbolTableRecord
100
AcDbLayerTableRecord
  2
INTFCLR_4
 70
0
 62
7
  6
CONTINUOUS
370
-3
390
F
  0
LAYER
  5
209
100
AcDbSymbolTableRecord
100
AcDbLayerTableRecord
  2
NOTE
 70
0
 62
7
  6
CONTINUOUS
370
-3
390
F
  0
LAYER
  5
20A
100
AcDbSymbolTableRecord
100
AcDbLayerTableRecord
  2
PIANI
 70
0
 62
7
  6
CONTINUOUS
370
-3
390
F
  0
LAYER
  5
20B
100
AcDbSymbolTableRecord
100
AcDbLayerTableRecord
  2
PIANI_ORIGINE
 70
0
 62
7
  6
CONTINUOUS
370
-3
390
F
  0
LAYER
  5
20C
100
AcDbSymbolTableRecord
100
AcDbLayerTableRecord
  2
PIANI_RIFERIMENTO
 70
0
 62
7
  6
CONTINUOUS
370
-3
390
F
  0
LAYER
  5
20D
100
AcDbSymbolTableRecord
100
AcDbLayerTableRecord
  2
PUNTI
 70
0
 62
7
  6
CONTINUOUS
370
-3
390
F
  0
LAYER
  5
20E
100
AcDbSymbolTableRecord
100
AcDbLayerTableRecord
  2
RACCORDO
 70
0
 62
7
  6
CONTINUOUS
370
-3
390
F
  0
LAYER
  5
20F
100
AcDbSymbolTableRecord
100
AcDbLayerTableRecord
  2
SIMBOLI
 70
0
 62
7
  6
CONTINUOUS
370
-3
390
F
  0
LAYER
  5
210
100
AcDbSymbolTableRecord
100
AcDbLayerTableRecord
  2
SMUSSO
 70
0
 62
7
  6
CONTINUOUS
370
-3
390
F
  0
LAYER
  5
211
100
AcDbSymbolTableRecord
100
AcDbLayerTableRecord
  2
SNAPLINE
 70
0
 62
7
  6
CONTINUOUS
370
-3
390
F
  0
LAYER
  5
212
100
AcDbSymbolTableRecord
100
AcDbLayerTableRecord
  2
SUPERFICI
 70
0
 62
7
  6
CONTINUOUS
370
-3
390
F
  0
LAYER
  5
213
100
AcDbSymbolTableRecord
100
AcDbLayerTableRecord
  2
TRASH
 70
0
 62
7
  6
CONTINUOUS
370
-3
390
F
  0
LAYER
  5
214
100
AcDbSymbolTableRecord
100
AcDbLayerTableRecord
  2
XSEC_DATUMS
 70
0
 62
7
  6
CONTINUOUS
370
-3
390
F
  0
ENDTAB
  0
TABLE
  2
STYLE
  5
3
100
AcDbSymbolTable
 70
1
  0
STYLE
  5
11
100
AcDbSymbolTableRecord
100
AcDbTextStyleTableRecord
  2
STANDARD
 70
0
 40
0.0
 41
0.8
 50
0.0
 71
0
 42
0.2
  3
txt
  4

  0
STYLE
  5
215
100
AcDbSymbolTableRecord
100
AcDbTextStyleTableRecord
  2
TEXTSTYLE_1
 70
0
 40
0.0
 41
0.8
 50
0.0
 71
0
 42
0.2
  3
gdt
  4

  0
ENDTAB
  0
TABLE
  2
VIEW
  5
6
100
AcDbSymbolTable
 70
0
  0
ENDTAB
  0
TABLE
  2
UCS
  5
7
100
AcDbSymbolTable
 70
0
  0
ENDTAB
  0
TABLE
  2
APPID
  5
9
100
AcDbSymbolTable
 70
1
  0
APPID
  5
216
100
AcDbSymbolTableRecord
100
AcDbRegAppTableRecord
  2
ACAD
 70
0
  0
ENDTAB
  0
TABLE
  2
BLOCK_RECORD
  5
1
100
AcDbSymbolTable
 70
0
  0
BLOCK_RECORD
  5
217
100
AcDbSymbolTableRecord
100
AcDbBlockTableRecord
  2
*Model_Space
  0
BLOCK_RECORD
  5
218
100
AcDbSymbolTableRecord
100
AcDbBlockTableRecord
  2
*Paper_Space
  0
BLOCK_RECORD
  5
219
100
AcDbSymbolTableRecord
100
AcDbBlockTableRecord
  2
_FILLED
  0
ENDTAB
  0
TABLE
  2
DIMSTYLE
  5
A
100
AcDbSymbolTable
 70
1
100
AcDbDimStyleTable
 71
0
  0
DIMSTYLE
105
21A
100
AcDbSymbolTableRecord
100
AcDbDimStyleTableRecord
  2
STANDARD
 70
0
  3

  4

 40
1.0
 41
3.0
 42
0.5
 43
0.38
 44
1.5
 45
0.0
 46
0.0
 47
0.01
 48
0.01
140
3.0
141
0.09
142
0.0
143
25.4
144
1.0
145
0.0
146
1.0
147
0.625
 71
1
 72
0
 73
0
 74
0
 75
0
 76
0
 77
1
 78
8
 79
2
170
0
171
1
172
0
173
0
174
0
175
0
176
0
177
0
178
0
270
2
179
2
271
2
272
2
273
2
274
2
275
0
280
0
281
0
282
0
283
1
284
8
285
0
286
0
287
3
288
0
340
11
278
44
341
219
342
219
343
219
344
219
  0
ENDTAB
  0
ENDSEC
  0
SECTION
  2
BLOCKS
  0
BLOCK
  5
20
100
AcDbEntity
  8
0
100
AcDbBlockBegin
  2
*Model_Space
 70
0
 10
0.0
 20
0.0
 30
0.0
  3
*Model_Space
  1

  0
ENDBLK
  5
21
100
AcDbEntity
  8
0
100
AcDbBlockEnd
  0
BLOCK
  5
1C
100
AcDbEntity
  8
0
100
AcDbBlockBegin
  2
*Paper_Space
 70
0
 10
0.0
 20
0.0
 30
0.0
  3
*Paper_Space
  1

  0
ENDBLK
  5
1D
100
AcDbEntity
  8
0
100
AcDbBlockEnd
  0
BLOCK
  5
21B
100
AcDbEntity
  8
0
100
AcDbBlockBegin
  2
_FILLED
 70
64
 10
0.0
 20
0.0
  3
_FILLED
  1

  0
SOLID
  5
21C
100
AcDbEntity
  8
0
  6
BYBLOCK
 62
0
100
AcDbTrace
 10
0.0
 20
0.0
 11
-1.0
 21
0.3166666667
 12
-1.0
 22
-0.3166666667
 13
-1.0
 23
-0.3166666667
  0
ENDBLK
  5
21D
100
AcDbEntity
  8
0
  6
BYBLOCK
 62
0
100
AcDbBlockEnd
  0
ENDSEC
  0
SECTION
  2
ENTITIES
  0
LWPOLYLINE
  5
21E
100
AcDbEntity
  8
ASSI
100
AcDbPolyline
 62
7
  6
CONTINUOUS
 90
16
 70
0
 10
-8.6466521708
 20
21.6704861019
 10
-8.6975761201
 20
21.6354276534
 10
-8.8007689767
 20
21.5548959647
 10
-8.8987171854
 20
21.4657565557
 10
-8.9912410164
 20
21.3687932078
 10
-9.0780672693
 20
21.2647471711
 10
-9.1587002651
 20
21.154556592
 10
-9.23274386
 20
21.039009756
 10
-9.2997847501
 20
20.9188558309
 10
-9.3592280589
 20
20.7951616714
 10
-9.4106538123
 20
20.6686730547
 10
-9.4535999306
 20
20.5401414632
 10
-9.4875290641
 20
20.4104822515
 10
-9.5119548406
 20
20.2803180596
 10
-9.5263060633
 20
20.150213879
 10
-9.5292094119
 20
20.0945771405
  0
LINE
  5
21F
100
AcDbEntity
  8
ASSI
100
AcDbLine
 62
7
  6
CONTINUOUS
 10
-8.6469490632
 20
21.6702909841
 11
-6.5098055129
 21
23.0797170564
  0
LINE
  5
220
100
AcDbEntity
  8
ASSI
100
AcDbLine
 62
250
  6
CONTINUOUS
 10
-8.3901676085
 20
21.6498884356
 11
-6.2612889684
 21
23.0538638774
  0
LWPOLYLINE
  5
221
100
AcDbEntity
  8
ASSI
100
AcDbPolyline
 62
250
  6
CONTINUOUS
 90
15
 70
0
 10
-8.6466522587
 20
21.6704862353
 10
-8.6318345624
 20
21.6790782993
 10
-8.6169241844
 20
21.6857171951
 10
-8.601184929
 20
21.690893238
 10
-8.584669991
 20
21.6945889343
 10
-8.5674351866
 20
21.6967917935
 10
-8.5495387653
 20
21.6974943704
 10
-8.5310412126
 20
21.6966942906
 10
-8.5120050454
 20
21.694394258
 10
-8.4924946014
 20
21.6906020463
 10
-8.4725758209
 20
21.6853304721
 10
-8.4523160244
 20
21.6785973521
 10
-8.4317836851
 20
21.6704254426
 10
-8.4110481971
 20
21.6608423624
 10
-8.3901796412
 20
21.6498805002
  0
LWPOLYLINE
  5
222
100
AcDbEntity
  8
ASSI
100
AcDbPolyline
 62
7
  6
CONTINUOUS
 90
12
 70
0
 10
5.8724113438
 20
-22.9527172651
 10
5.889925595
 20
-22.9626014311
 10
5.9744334486
 20
-23.0030660442
 10
6.0634765451
 20
-23.0341950755
 10
6.1563648561
 20
-23.055662332
 10
6.2529085487
 20
-23.0672444514
 10
6.3523859987
 20
-23.0685999577
 10
6.45402668
 20
-23.0594891733
 10
6.5579151114
 20
-23.0395909085
 10
6.6638147686
 20
-23.0084644655
 10
6.7709380619
 20
-22.9658209146
 10
6.8177528477
 20
-22.943614734
  0
LINE
  5
223
100
AcDbEntity
  8
ASSI
100
AcDbLine
 62
7
  6
CONTINUOUS
 10
5.8739201254
 20
-22.9535918599
 11
-9.0766231888
 21
-14.3213355246
  0
LINE
  5
224
100
AcDbEntity
  8
ASSI
100
AcDbLine
 62
250
  6
CONTINUOUS
 10
5.5605887226
 20
-22.3147370102
 11
-9.3827462303
 21
-13.6866426928
  0
LINE
  5
225
100
AcDbEntity
  8
ASSI
100
AcDbLine
 62
250
  6
CONTINUOUS
 10
-9.0815793723
 20
-14.3183949741
 11
-9.1103636551
 21
-14.2999720764
  0
LWPOLYLINE
  5
226
100
AcDbEntity
  8
ASSI
100
AcDbPolyline
 62
250
  6
CONTINUOUS
 90
18
 70
0
 10
-9.1103636551
 20
-14.2999720764
 10
-9.13867072
 20
-14.2788593412
 10
-9.1656251722
 20
-14.2556222713
 10
-9.1911810575
 20
-14.2303005244
 10
-9.2152950078
 20
-14.202937007
 10
-9.2379276614
 20
-14.1735770104
 10
-9.2590405542
 20
-14.1422702169
 10
-9.2785976614
 20
-14.1090696315
 10
-9.2965670548
 20
-14.0740302828
 10
-9.312918413
 20
-14.0372106906
 10
-9.3276234505
 20
-13.9986735717
 10
-9.3406575321
 20
-13.9584848166
 10
-9.3519985096
 20
-13.9167130021
 10
-9.3616273181
 20
-13.8734281108
 10
-9.3695283609
 20
-13.8287021948
 10
-9.3756884434
 20
-13.7826103253
 10
-9.3800968868
 20
-13.7352305427
 10
-9.3827462303
 20
-13.6866426928
  0
LINE
  5
227
100
AcDbEntity
  8
ASSI
100
AcDbLine
 62
7
  6
CONTINUOUS
 10
-4.2615054692
 20
21.8992139481
 11
-4.4430359535
 21
21.4820540877
  0
LWPOLYLINE
  5
228
100
AcDbEntity
  8
ASSI
100
AcDbPolyline
 62
7
  6
CONTINUOUS
 90
12
 70
0
 10
-9.5291704207
 20
-13.4838100776
 10
-9.5205889459
 20
-13.5951337977
 10
-9.5025819233
 20
-13.7039840845
 10
-9.4758908947
 20
-13.8058158859
 10
-9.4412439937
 20
-13.9001430692
 10
-9.3991761207
 20
-13.9871407034
 10
-9.3498698392
 20
-14.067299305
 10
-9.2939308489
 20
-14.140142576
 10
-9.2319918898
 20
-14.2053367367
 10
-9.1641076502
 20
-14.2630722303
 10
-9.090737338
 20
-14.3129964911
 10
-9.0752954046
 20
-14.3220992786
  0
LWPOLYLINE
  5
229
100
AcDbEntity
  8
ASSI
100
AcDbPolyline
 62
250
  6
CONTINUOUS
 90
15
 70
0
 10
-9.5291706956
 20
-13.4838100875
 10
-9.5289278814
 20
-13.4887113339
 10
-9.5270119865
 20
-13.5059237174
 10
-9.5234497999
 20
-13.5230036821
 10
-9.5182531089
 20
-13.5398947104
 10
-9.5114391093
 20
-13.5565409101
 10
-9.5030303487
 20
-13.5728871991
 10
-9.4930546514
 20
-13.5888794876
 10
-9.481545027
 20
-13.6044648573
 10
-9.4685395608
 20
-13.6195917363
 10
-9.4540812877
 20
-13.6342100699
 10
-9.43821805
 20
-13.6482714861
 10
-9.4210023391
 20
-13.6617294559
 10
-9.4024911217
 20
-13.6745394469
 10
-9.3827456511
 20
-13.686659071
  0
LWPOLYLINE
  5
22A
100
AcDbEntity
  8
ASSI
100
AcDbPolyline
 62
7
  6
CONTINUOUS
 90
10
 70
0
 10
-9.5291973976
 20
20.0949481748
 10
-9.588444188
 20
18.2727020738
 10
-9.6426899499
 20
16.392799655
 10
-9.6898166873
 20
14.5168733448
 10
-9.7298233395
 20
12.6449628899
 10
-9.762709055
 20
10.7771053295
 10
-9.788473105
 20
8.9133369835
 10
-9.8071148727
 20
7.0536947401
 10
-9.8186338422
 20
5.1982177116
 10
-9.8229947097
 20
3.4141493227
  0
LWPOLYLINE
  5
22B
100
AcDbEntity
  8
ASSI
100
AcDbPolyline
 62
250
  6
CONTINUOUS
 90
37
 70
0
 10
-9.3827462303
 20
19.8906122509
 10
-9.3800968869
 20
19.9423320201
 10
-9.3756884435
 20
19.9949223759
 10
-9.369528361
 20
20.0482948567
 10
-9.3616273182
 20
20.1023595253
 10
-9.3519985098
 20
20.1570256391
 10
-9.3406575323
 20
20.2122018313
 10
-9.3276234507
 20
20.2677963459
 10
-9.3129184133
 20
20.3237147877
 10
-9.2965670551
 20
20.3798607884
 10
-9.2785976618
 20
20.4361391824
 10
-9.2590405546
 20
20.4924562208
 10
-9.2379276618
 20
20.548717332
 10
-9.2152950082
 20
20.604828118
 10
-9.191181058
 20
20.6606942713
 10
-9.1656251727
 20
20.7162217482
 10
-9.1386707206
 20
20.7713177581
 10
-9.1103636557
 20
20.8258893805
 10
-9.0807507896
 20
20.8798434898
 10
-9.0498826363
 20
20.9330896091
 10
-9.0178117005
 20
20.9855383778
 10
-8.9845910652
 20
21.0371001967
 10
-8.9502776583
 20
21.0876883361
 10
-8.9149296731
 20
21.1372183468
 10
-8.8786048848
 20
21.1856065229
 10
-8.8413652356
 20
21.2327718063
 10
-8.8032740979
 20
21.2786351812
 10
-8.7643936708
 20
21.3231190264
 10
-8.7247896071
 20
21.3661494907
 10
-8.684529891
 20
21.4076537896
 10
-8.643682109
 20
21.4475596932
 10
-8.6023166927
 20
21.4857998837
 10
-8.5605033641
 20
21.5223112981
 10
-8.5183099947
 20
21.5570323562
 10
-8.4758073322
 20
21.5899048288
 10
-8.4330689096
 20
21.6208740623
 10
-8.3901675365
 20
21.6498883939
  0
LWPOLYLINE
  5
22C
100
AcDbEntity
  8
ASSI
100
AcDbPolyline
 62
250
  6
CONTINUOUS
 90
3
 70
0
 10
-9.6228757583
 20
3.026093259
 10
-9.6210090846
 20
3.0350767932
 10
-9.6183417651
 20
3.0439951963
  0
LWPOLYLINE
  5
22D
100
AcDbEntity
  8
ASSI
100
AcDbPolyline
 62
250
  6
CONTINUOUS
 90
7
 70
0
 10
-9.6183417651
 20
3.0439951963
 10
-9.6148801254
 20
3.0528490993
 10
-9.6106518319
 20
3.0615678077
 10
-9.6056504828
 20
3.0701504843
 10
-9.5998824799
 20
3.0785979662
 10
-9.5933946954
 20
3.086842071
 10
-9.5886815047
 20
3.0920946171
  0
LWPOLYLINE
  5
22E
100
AcDbEntity
  8
ASSI
100
AcDbPolyline
 62
7
  6
CONTINUOUS
 90
9
 70
0
 10
-9.8229944926
 20
3.4137747616
 10
-9.8219073865
 20
3.3885275647
 10
-9.8147402629
 20
3.3441665649
 10
-9.8006660057
 20
3.3001998199
 10
-9.7793621262
 20
3.2571295077
 10
-9.7510407288
 20
3.2162998527
 10
-9.7160537614
 20
3.1785773822
 10
-9.6745948106
 20
3.1444178078
 10
-9.6353419234
 20
3.1190367937
  0
LWPOLYLINE
  5
22F
100
AcDbEntity
  8
ASSI
100
AcDbPolyline
 62
250
  6
CONTINUOUS
 90
13
 70
0
 10
-9.3827462385
 20
-13.6866426881
 10
-9.4289226776
 20
-12.3394873216
 10
-9.4711553364
 20
-10.9898289828
 10
-9.5094439895
 20
-9.6376831684
 10
-9.5437882224
 20
-8.2830750808
 10
-9.5741881932
 20
-6.9260106241
 10
-9.6006443467
 20
-5.5664762293
 10
-9.6231567981
 20
-4.2044878825
 10
-9.6417248811
 20
-2.840060518
 10
-9.6563474008
 20
-1.4731787079
 10
-9.6670235548
 20
-0.1038474878
 10
-9.6737532437
 20
1.2679074595
 10
-9.6765361158
 20
2.6420707127
  0
LWPOLYLINE
  5
230
100
AcDbEntity
  8
ASSI
100
AcDbPolyline
 62
250
  6
CONTINUOUS
 90
12
 70
0
 10
-9.6765477638
 20
3.210575224
 10
-9.6761636733
 20
3.1986559707
 10
-9.6749988855
 20
3.1872540584
 10
-9.6730598481
 20
3.1764326009
 10
-9.6703572943
 20
3.1662514995
 10
-9.6669061839
 20
3.1567671106
 10
-9.6627256202
 20
3.148031934
 10
-9.6578387442
 20
3.1400943224
 10
-9.6522726067
 20
3.1329982137
 10
-9.6460580185
 20
3.1267828877
 10
-9.6392293799
 20
3.1214827486
 10
-9.6353421495
 20
3.1190364032
  0
LWPOLYLINE
  5
231
100
AcDbEntity
  8
ASSI
100
AcDbPolyline
 62
250
  6
CONTINUOUS
 90
15
 70
0
 10
-9.5292096746
 20
20.0945771493
 10
-9.5289276055
 20
20.0792174131
 10
-9.5270117003
 20
20.0633027406
 10
-9.523449505
 20
20.0474360572
 10
-9.518252807
 20
20.0316698658
 10
-9.511438802
 20
20.0160563364
 10
-9.5030300374
 20
20.000647134
 10
-9.4930543378
 20
19.9854932475
 10
-9.4815447128
 20
19.970644821
 10
-9.4685392474
 20
19.9561509877
 10
-9.4540809766
 20
19.9420597076
 10
-9.4382177427
 20
19.9284176086
 10
-9.421002037
 20
19.9152698322
 10
-9.402490826
 20
19.9026598842
 10
-9.3827453632
 20
19.8906294909
  0
LWPOLYLINE
  5
232
100
AcDbEntity
  8
ASSI
100
AcDbPolyline
 62
250
  6
CONTINUOUS
 90
17
 70
0
 10
-9.8229945118
 20
3.4137784676
 10
-9.8229756787
 20
3.4115450144
 10
-9.8220795451
 20
3.3966860437
 10
-9.819845478
 20
3.3818695647
 10
-9.8162795009
 20
3.3671350571
 10
-9.811391267
 20
3.3525223066
 10
-9.8051938798
 20
3.3380705048
 10
-9.7977037757
 20
3.3238177447
 10
-9.7889406097
 20
3.3098018084
 10
-9.7789280694
 20
3.2960609842
 10
-9.7676939788
 20
3.2826330932
 10
-9.7552696749
 20
3.269555066
 10
-9.7416879143
 20
3.2568609789
 10
-9.7269832806
 20
3.2445830163
 10
-9.7111942384
 20
3.2327536327
 10
-9.6943635411
 20
3.2214052827
 10
-9.676536114
 20
3.2105685055
  0
LWPOLYLINE
  5
233
100
AcDbEntity
  8
ASSI
100
AcDbPolyline
 62
7
  6
CONTINUOUS
 90
10
 70
0
 10
-9.8229947091
 20
2.84677627
 10
-9.8186102802
 20
1.0624658935
 10
-9.807069945
 20
-0.7792751369
 10
-9.7884063468
 20
-2.6166873881
 10
-9.7626198289
 20
-4.4497322686
 10
-9.7297108345
 20
-6.2783735286
 10
-9.6896799193
 20
-8.1025756335
 10
-9.6425277609
 20
-9.9223024672
 10
-9.5882552473
 20
-11.7375154315
 10
-9.5291717338
 20
-13.483781131
  0
LWPOLYLINE
  5
234
100
AcDbEntity
  8
ASSI
100
AcDbPolyline
 62
250
  6
CONTINUOUS
 90
13
 70
0
 10
-9.6765361159
 20
3.2105684986
 10
-9.6737532437
 20
4.588071602
 10
-9.6670235548
 20
5.9678827816
 10
-9.6563474008
 20
7.3499862104
 10
-9.6417248811
 20
8.7343551021
 10
-9.6231567981
 20
10.120984483
 10
-9.6006443467
 20
11.5098913657
 10
-9.5741881932
 20
12.9010610343
 10
-9.5437882224
 20
14.2944766478
 10
-9.5094439895
 20
15.6901522894
 10
-9.4711553364
 20
17.0880822382
 10
-9.4289226776
 20
18.4882408125
 10
-9.3827462386
 20
19.8906122555
  0
LWPOLYLINE
  5
235
100
AcDbEntity
  8
ASSI
100
AcDbPolyline
 62
250
  6
CONTINUOUS
 90
22
 70
0
 10
-9.6765477638
 20
2.6420774381
 10
-9.6761636724
 20
2.6544402469
 10
-9.6749988816
 20
2.6671872444
 10
-9.6730598394
 20
2.6802478706
 10
-9.6703572792
 20
2.6935498298
 10
-9.666906161
 20
2.7070194899
 10
-9.6627255885
 20
2.7205822901
 10
-9.6578387034
 20
2.7341631546
 10
-9.6522725566
 20
2.747686908
 10
-9.6460579596
 20
2.7610786902
 10
-9.639229313
 20
2.7742643724
 10
-9.6318244165
 20
2.7871709667
 10
-9.6238842596
 20
2.7997270297
 10
-9.6154527945
 20
2.8118630588
 10
-9.606576693
 20
2.8235118766
 10
-9.5973050883
 20
2.8346090024
 10
-9.5876893027
 20
2.8450930096
 10
-9.5777825633
 20
2.8549058655
 10
-9.5676397081
 20
2.8639932528
 10
-9.5573168818
 20
2.8723048695
 10
-9.5468712254
 20
2.8797947084
 10
-9.5363605595
 20
2.8864213109
  0
LWPOLYLINE
  5
236
100
AcDbEntity
  8
ASSI
100
AcDbPolyline
 62
7
  6
CONTINUOUS
 90
8
 70
0
 10
-9.7093612161
 20
3.0901413769
 10
-9.7398787378
 20
3.0592100616
 10
-9.7658850917
 20
3.0259296197
 10
-9.7871722094
 20
2.9906782948
 10
-9.8034560933
 20
2.9542159388
 10
-9.8147253252
 20
2.917234782
 10
-9.8211607086
 20
2.8801684265
 10
-9.822994527
 20
2.8466210123
  0
LINE
  5
237
100
AcDbEntity
  8
ASSI
100
AcDbLine
 62
7
  6
CONTINUOUS
 10
-9.674405741
 20
3.118536875
 11
-9.7093612161
 21
3.0901413769
  0
LINE
  5
238
100
AcDbEntity
  8
CURVE
100
AcDbLine
 62
250
  6
CONTINUOUS
 10
-4.098538858
 20
8.0904258921
 11
-3.1789654943
 21
8.6212755779
  0
LINE
  5
239
100
AcDbEntity
  8
CURVE
100
AcDbLine
 62
250
  6
CONTINUOUS
 10
-1.0190699903
 20
9.8664495183
 11
-0.0652068789
 21
10.417094793
  0
LINE
  5
23A
100
AcDbEntity
  8
ASSI
100
AcDbLine
 62
7
  6
CONTINUOUS
 10
-9.6547804453
 20
3.1316057901
 11
-9.674405741
 21
3.118536875
  0
LWPOLYLINE
  5
23B
100
AcDbEntity
  8
ASSI
100
AcDbPolyline
 62
250
  6
CONTINUOUS
 90
37
 70
0
 10
6.5765401181
 20
13.0082989717
 10
6.5326256658
 20
12.9798695795
 10
6.4888814254
 20
12.9494810929
 10
6.4453802063
 20
12.9171851746
 10
6.4021939026
 20
12.8830374244
 10
6.3593949009
 20
12.8470951252
 10
6.3170559895
 20
12.8094170187
 10
6.2752469171
 20
12.7700661521
 10
6.2340380885
 20
12.7291098589
 10
6.1935019264
 20
12.6866175765
 10
6.153706526
 20
12.6426620254
 10
6.1147174291
 20
12.5973171209
 10
6.0766013382
 20
12.5506578839
 10
6.039421729
 20
12.5027632707
 10
6.0032404403
 20
12.4537143991
 10
5.9681194405
 20
12.4035925537
 10
5.9341170487
 20
12.3524821111
 10
5.9012900671
 20
12.3004698738
 10
5.8696953951
 20
12.2476432373
 10
5.8393856874
 20
12.1940914755
 10
5.810411308
 20
12.1399051523
 10
5.7828224341
 20
12.0851754495
 10
5.7566651897
 20
12.0299951897
 10
5.7319827732
 20
11.9744572617
 10
5.7088174025
 20
11.9186540599
 10
5.6872077219
 20
11.8626797878
 10
5.6671895759
 20
11.8066289473
 10
5.6487972082
 20
11.7505947734
 10
5.6320611257
 20
11.6946709076
 10
5.6170094283
 20
11.638952623
 10
5.6036685087
 20
11.5835352727
 10
5.5920607249
 20
11.5285131311
 10
5.5822049322
 20
11.4739780752
 10
5.5741178562
 20
11.4200208198
 10
5.5678130678
 20
11.3667318901
 10
5.5633008697
 20
11.3142014408
 10
5.5605887226
 20
11.2625179335
  0
LWPOLYLINE
  5
23C
100
AcDbEntity
  8
ASSI
100
AcDbPolyline
 62
250
  6
CONTINUOUS
 90
37
 70
0
 10
6.9423604695
 20
12.4036304029
 10
6.9128443919
 20
12.384720587
 10
6.8835369686
 20
12.3645747045
 10
6.8544381995
 20
12.3431927557
 10
6.825499187
 20
12.3205342857
 10
6.7967688287
 20
12.2966397492
 10
6.7683938177
 20
12.2716305104
 10
6.7403762766
 20
12.2455009878
 10
6.7127140828
 20
12.2182567629
 10
6.6855475622
 20
12.1900359438
 10
6.6588796467
 20
12.160833977
 10
6.6327074045
 20
12.1306554161
 10
6.6071623657
 20
12.0996520297
 10
6.5822476495
 20
12.0678196649
 10
6.5579601368
 20
12.0351624747
 10
6.5344220004
 20
12.0018446867
 10
6.5116368708
 20
11.967862735
 10
6.4896011176
 20
11.9332201855
 10
6.4684260223
 20
11.8980919633
 10
6.4481159776
 20
11.8624756159
 10
6.4286665909
 20
11.8263735958
 10
6.4101759661
 20
11.7899681859
 10
6.3926490715
 20
11.7532581159
 10
6.3760809387
 20
11.7162446561
 10
6.3605547678
 20
11.6791139002
 10
6.3460757744
 20
11.6418652893
 10
6.3326387428
 20
11.6044993824
 10
6.3203112251
 20
11.5672039497
 10
6.309098708
 20
11.5299787919
 10
6.2989957048
 20
11.4928241084
 10
6.2900533072
 20
11.4559282677
 10
6.2822774722
 20
11.4192919702
 10
6.2756622427
 20
11.3829145154
 10
6.2702408397
 20
11.3469821706
 10
6.2660243367
 20
11.3115570247
 10
6.2630016602
 20
11.2765769887
 10
6.2611728101
 20
11.2420420626
  0
LINE
  5
23D
100
AcDbEntity
  8
ASSI
100
AcDbLine
 62
250
  6
CONTINUOUS
 10
8.7810585559
 20
14.3686009418
 11
6.5765401901
 21
13.0082989302
  0
LINE
  5
23E
100
AcDbEntity
  8
ASSI
100
AcDbLine
 62
250
  6
CONTINUOUS
 10
9.1656853506
 20
13.7755370086
 11
6.9423604695
 21
12.4036304029
  0
LWPOLYLINE
  5
23F
100
AcDbEntity
  8
ASSI
100
AcDbPolyline
 62
250
  6
CONTINUOUS
 90
28
 70
0
 10
6.2611728101
 20
11.2420420626
 10
6.2399346237
 20
11.2318296427
 10
6.2176174048
 20
11.2223381903
 10
6.1942950009
 20
11.2135991125
 10
6.1700445858
 20
11.2056413268
 10
6.1449464038
 20
11.1984911655
 10
6.1190835046
 20
11.1921722885
 10
6.0925414684
 20
11.1867056047
 10
6.0654081224
 20
11.1821092035
 10
6.0377732508
 20
11.1783982943
 10
6.0097282971
 20
11.1755851564
 10
5.9813660618
 20
11.1736790985
 10
5.9527803953
 20
11.1726864278
 10
5.9240658874
 20
11.172610429
 10
5.8953175541
 20
11.1734513535
 10
5.8666305234
 20
11.1752064187
 10
5.8380997204
 20
11.1778698172
 10
5.8098195534
 20
11.1814327358
 10
5.7818836012
 20
11.1858833848
 10
5.7543843037
 20
11.191207037
 10
5.7274126557
 20
11.1973860766
 10
5.7010579062
 20
11.2044000571
 10
5.675407263
 20
11.2122257694
 10
5.6505456037
 20
11.2208373182
 10
5.6265551954
 20
11.2302062079
 10
5.6035154221
 20
11.2403014371
 10
5.5815025223
 20
11.2510896006
 10
5.5605893364
 20
11.2625350006
  0
LINE
  5
240
100
AcDbEntity
  8
ASSI
100
AcDbLine
 62
7
  6
CONTINUOUS
 10
-4.2615054692
 20
21.8992139481
 11
-4.2401710902
 21
21.2789886001
  0
LWPOLYLINE
  5
241
100
AcDbEntity
  8
ASSI
100
AcDbPolyline
 62
250
  6
CONTINUOUS
 90
12
 70
0
 10
-3.3551922537
 20
-0.4392962231
 10
-3.3548081663
 20
-0.4512154315
 10
-3.3536433869
 20
-0.4626173078
 10
-3.3517043621
 20
-0.4734387378
 10
-3.3490018242
 20
-0.4836198201
 10
-3.3455507319
 20
-0.493104198
 10
-3.3413701873
 20
-0.5018393711
 10
-3.3364833304
 20
-0.5097769859
 10
-3.330917211
 20
-0.5168731037
 10
-3.324702639
 20
-0.5230884436
 10
-3.3178740136
 20
-0.5283886003
 10
-3.3137757644
 20
-0.5309573143
  0
LINE
  5
242
100
AcDbEntity
  8
ASSI
100
AcDbLine
 62
250
  6
CONTINUOUS
 10
-4.4430359535
 20
21.4820540877
 11
-4.4430359535
 21
21.4194503044
  0
LWPOLYLINE
  5
243
100
AcDbEntity
  8
ASSI
100
AcDbPolyline
 62
250
  6
CONTINUOUS
 90
22
 70
0
 10
-3.3551922537
 20
-1.0077940075
 10
-3.3548081632
 20
-0.9954312162
 10
-3.3536433754
 20
-0.9826842362
 10
-3.351704338
 20
-0.969623627
 10
-3.3490017842
 20
-0.9563216843
 10
-3.3455506738
 20
-0.9428520397
 10
-3.3413701101
 20
-0.929289253
 10
-3.3364832341
 20
-0.9157083996
 10
-3.3309170966
 20
-0.9021846549
 10
-3.3247025085
 20
-0.8887928784
 10
-3.31787387
 20
-0.8756071987
 10
-3.3104689802
 20
-0.8627006038
 10
-3.3025288282
 20
-0.850144537
 10
-3.2940973659
 20
-0.838008501
 10
-3.2852212649
 20
-0.8263596737
 10
-3.2759496578
 20
-0.8152625359
 10
-3.2663338666
 20
-0.8047785146
 10
-3.2564271187
 20
-0.7949656433
 10
-3.2462842519
 20
-0.7858782399
 10
-3.2359614108
 20
-0.7775666069
 10
-3.2255157366
 20
-0.7700767525
 10
-3.2150050503
 20
-0.763450136
  0
LINE
  5
244
100
AcDbEntity
  8
ASSI
100
AcDbLine
 62
7
  6
CONTINUOUS
 10
3.6580904801
 20
17.3265385029
 11
3.4765599958
 21
16.9093786425
  0
LWPOLYLINE
  5
245
100
AcDbEntity
  8
ASSI
100
AcDbPolyline
 62
250
  6
CONTINUOUS
 90
19
 70
0
 10
5.381346522
 20
-5.4642330302
 10
5.4046696423
 20
-5.4707580398
 10
5.4285446593
 20
-5.4765834665
 10
5.4529055037
 20
-5.4816929187
 10
5.4776858933
 20
-5.4860727373
 10
5.502820295
 20
-5.4897115177
 10
5.5282419718
 20
-5.4925993299
 10
5.5538830671
 20
-5.4947286198
 10
5.5796745698
 20
-5.4960937536
 10
5.6055471492
 20
-5.4966907023
 10
5.6314314498
 20
-5.4965180794
 10
5.6572580779
 20
-5.4955765107
 10
5.6829575977
 20
-5.4938681251
 10
5.7084608315
 20
-5.4913977893
 10
5.7336997098
 20
-5.4881723244
 10
5.7586072282
 20
-5.4841998219
 10
5.7831175317
 20
-5.4794909528
 10
5.8071639159
 20
-5.4740586604
 10
5.8306798013
 20
-5.4679175457
  0
LWPOLYLINE
  5
246
100
AcDbEntity
  8
ASSI
100
AcDbPolyline
 62
250
  6
CONTINUOUS
 90
25
 70
0
 10
-3.0105206972
 20
-1.0610932186
 10
-3.0139367703
 20
-1.046490994
 10
-3.0179396285
 20
-1.031773978
 10
-3.022517554
 20
-1.0169853302
 10
-3.0276571077
 20
-1.0021683884
 10
-3.0333432752
 20
-0.9873666813
 10
-3.0395595024
 20
-0.9726238
 10
-3.0462877679
 20
-0.9579826681
 10
-3.0535081815
 20
-0.9434866711
 10
-3.0611990115
 20
-0.9291796235
 10
-3.0693373079
 20
-0.9151040622
 10
-3.0778993729
 20
-0.9013007443
 10
-3.0868603189
 20
-0.887809779
 10
-3.0961938227
 20
-0.8746708295
 10
-3.1058724794
 20
-0.8619224452
 10
-3.1158682258
 20
-0.8496015953
 10
-3.1261521981
 20
-0.8377440698
 10
-3.1366938215
 20
-0.8263852655
 10
-3.1474611795
 20
-0.8155594538
 10
-3.1584221052
 20
-0.805298897
 10
-3.1695449524
 20
-0.7956331
 10
-3.1807977218
 20
-0.7865897052
 10
-3.1921476427
 20
-0.7781951314
 10
-3.2035612369
 20
-0.7704743549
 10
-3.2150050503
 20
-0.763450136
  0
LWPOLYLINE
  5
247
100
AcDbEntity
  8
ASSI
100
AcDbPolyline
 62
250
  6
CONTINUOUS
 90
25
 70
0
 10
-3.2870037569
 20
-1.1070179371
 10
-3.2881342321
 20
-1.1021200605
 10
-3.2894531447
 20
-1.0972124453
 10
-3.2909604974
 20
-1.0922950931
 10
-3.2926618309
 20
-1.0873532432
 10
-3.2945516094
 20
-1.0824016592
 10
-3.2966132209
 20
-1.077484629
 10
-3.2988482158
 20
-1.0726025712
 10
-3.3012550501
 20
-1.0677550709
 10
-3.3038124718
 20
-1.0629851664
 10
-3.3065218544
 20
-1.0582936021
 10
-3.3093818313
 20
-1.0536796375
 10
-3.312367041
 20
-1.0491840838
 10
-3.3154784694
 20
-1.0448081738
 10
-3.3187151372
 20
-1.0405506785
 10
-3.3220487361
 20
-1.036448716
 10
-3.3254802079
 20
-1.0325035733
 10
-3.3290086163
 20
-1.0287139667
 10
-3.3326028362
 20
-1.0251131586
 10
-3.336263449
 20
-1.0217028168
 10
-3.3399898775
 20
-1.0184812758
 10
-3.3437492576
 20
-1.0154767977
 10
-3.3475306356
 20
-1.0126988034
 10
-3.3513449675
 20
-1.0101378733
 10
-3.3551922537
 20
-1.0077940075
  0
LINE
  5
248
100
AcDbEntity
  8
CURVE
100
AcDbLine
 62
250
  6
CONTINUOUS
 10
-2.0556221043
 20
-13.3859558104
 11
-2.0294614412
 21
-14.3505561728
  0
LINE
  5
249
100
AcDbEntity
  8
CURVE
100
AcDbLine
 62
250
  6
CONTINUOUS
 10
-2.1370025342
 20
-9.6783918214
 11
-2.1202590227
 21
-10.566857706
  0
LWPOLYLINE
  5
24A
100
AcDbEntity
  8
CURVE
100
AcDbPolyline
 62
250
  6
CONTINUOUS
 90
81
 70
0
 10
-2.5497203662
 20
-11.7125179402
 10
-2.5498402305
 20
-11.6919390881
 10
-2.54924743
 20
-11.6720727096
 10
-2.547955071
 20
-11.6528464677
 10
-2.5459762595
 20
-11.6341880256
 10
-2.5433209048
 20
-11.6160400349
 10
-2.539986128
 20
-11.598405102
 10
-2.5359658533
 20
-11.5813008219
 10
-2.5312540048
 20
-11.5647447894
 10
-2.5258478249
 20
-11.5487586485
 10
-2.5197578296
 20
-11.5333802385
 10
-2.5129978531
 20
-11.5186514479
 10
-2.5055817296
 20
-11.5046141649
 10
-2.4975223053
 20
-11.4913064074
 10
-2.4888284738
 20
-11.4787507121
 10
-2.4795081408
 20
-11.4669657449
 10
-2.4695692119
 20
-11.4559701721
 10
-2.4590224363
 20
-11.445781684
 10
-2.4478899386
 20
-11.4364140675
 10
-2.4361966868
 20
-11.4278801337
 10
-2.423967649
 20
-11.4201926938
 10
-2.4112277934
 20
-11.4133645588
 10
-2.3980020882
 20
-11.4074085399
 10
-2.3843155014
 20
-11.4023374483
 10
-2.3701930011
 20
-11.3981640949
 10
-2.355658512
 20
-11.3948989843
 10
-2.340731784
 20
-11.3925433939
 10
-2.3254315237
 20
-11.3910962945
 10
-2.3097764376
 20
-11.3905566568
 10
-2.2937852321
 20
-11.3909234517
 10
-2.2774766137
 20
-11.3921956499
 10
-2.260869289
 20
-11.3943722223
 10
-2.2439819644
 20
-11.3974521395
 10
-2.2268352555
 20
-11.4014330833
 10
-2.2094574142
 20
-11.4063075798
 10
-2.1918786018
 20
-11.4120668656
 10
-2.1741289793
 20
-11.4187021778
 10
-2.1562387078
 20
-11.4262047532
 10
-2.1382379484
 20
-11.4345658287
 10
-2.1201568622
 20
-11.4437766412
 10
-2.1020256103
 20
-11.4538284275
 10
-2.0838744987
 20
-11.464709459
 10
-2.0657344123
 20
-11.4763961442
 10
-2.0476363809
 20
-11.488861926
 10
-2.0296114343
 20
-11.5020802475
 10
-2.0116906024
 20
-11.5160245514
 10
-1.993904915
 20
-11.5306682809
 10
-1.9762854018
 20
-11.5459848787
 10
-1.9588630927
 20
-11.5619477878
 10
-1.9416669102
 20
-11.5785316658
 10
-1.9247173473
 20
-11.5957160282
 10
-1.9080327897
 20
-11.6134816052
 10
-1.8916316234
 20
-11.6318091269
 10
-1.8755322339
 20
-11.6506793234
 10
-1.8597530072
 20
-11.6700729251
 10
-1.8443123288
 20
-11.6899706619
 10
-1.8292285847
 20
-11.710353264
 10
-1.8145217886
 20
-11.7311969844
 10
-1.8002184663
 20
-11.7524601666
 10
-1.786346772
 20
-11.7740966769
 10
-1.7729348595
 20
-11.7960603818
 10
-1.7600108829
 20
-11.8183051476
 10
-1.747602996
 20
-11.8407848406
 10
-1.7357393529
 20
-11.8634533271
 10
-1.7244481075
 20
-11.8862644735
 10
-1.7137536141
 20
-11.9091758338
 10
-1.7036650279
 20
-11.9321597123
 10
-1.6941877045
 20
-11.955192101
 10
-1.6853269994
 20
-11.9782489917
 10
-1.677090016
 20
-12.0013010022
 10
-1.6694908496
 20
-12.0242972523
 10
-1.6625453429
 20
-12.0471814877
 10
-1.6562693391
 20
-12.0698974541
 10
-1.6506752825
 20
-12.0923961011
 10
-1.6457620235
 20
-12.1146571952
 10
-1.6415250139
 20
-12.1366677066
 10
-1.6379597053
 20
-12.1584146059
 10
-1.6350640033
 20
-12.1798968857
 10
-1.6328456279
 20
-12.2011616274
 10
-1.6313147524
 20
-12.2222679348
 10
-1.6304815507
 20
-12.2432749115
  0
LWPOLYLINE
  5
24B
100
AcDbEntity
  8
CURVE
100
AcDbPolyline
 62
250
  6
CONTINUOUS
 90
81
 70
0
 10
-1.6304815507
 20
-12.2432749115
 10
-1.63036076
 20
-12.2638534605
 10
-1.6309508221
 20
-12.2837184615
 10
-1.6322386751
 20
-12.3029422801
 10
-1.6342112573
 20
-12.3215972821
 10
-1.6368587031
 20
-12.3397408442
 10
-1.6401839322
 20
-12.3573703885
 10
-1.6441930607
 20
-12.3744683484
 10
-1.6488922046
 20
-12.3910171574
 10
-1.6542841728
 20
-12.4069952029
 10
-1.6603585466
 20
-12.4223646903
 10
-1.6671016001
 20
-12.437083779
 10
-1.6744996077
 20
-12.4511106284
 10
-1.6825398328
 20
-12.4644072721
 10
-1.6912134967
 20
-12.4769512396
 10
-1.7005128098
 20
-12.4887239341
 10
-1.7104299827
 20
-12.4997067593
 10
-1.7209543878
 20
-12.5098820984
 10
-1.7320640443
 20
-12.5192362547
 10
-1.7437341334
 20
-12.5277565113
 10
-1.7559398362
 20
-12.5354301514
 10
-1.7686563338
 20
-12.542244458
 10
-1.7818588074
 20
-12.5481867144
 10
-1.7955224381
 20
-12.5532442036
 10
-1.8096224069
 20
-12.5574042088
 10
-1.8241349324
 20
-12.5606563162
 10
-1.8390403816
 20
-12.5629993236
 10
-1.8543201594
 20
-12.564434332
 10
-1.8699556701
 20
-12.5649624425
 10
-1.8859283184
 20
-12.564584756
 10
-1.9022195088
 20
-12.5633023733
 10
-1.918810646
 20
-12.5611163956
 10
-1.9356831344
 20
-12.5580279236
 10
-1.9528164608
 20
-12.5540393408
 10
-1.9701824411
 20
-12.5491581592
 10
-1.987750973
 20
-12.5433931736
 10
-2.0054919546
 20
-12.5367531785
 10
-2.0233752839
 20
-12.5292469684
 10
-2.0413708586
 20
-12.5208833378
 10
-2.0594485769
 20
-12.5116710814
 10
-2.0775783367
 20
-12.5016189936
 10
-2.0957298736
 20
-12.4907388231
 10
-2.1138722745
 20
-12.4790541343
 10
-2.131974464
 20
-12.4665914459
 10
-2.1500053666
 20
-12.4533772764
 10
-2.1679339071
 20
-12.4394381443
 10
-2.1857290101
 20
-12.4248005682
 10
-2.2033596
 20
-12.4094910666
 10
-2.2207946015
 20
-12.393536158
 10
-2.2380050358
 20
-12.376961141
 10
-2.2549703103
 20
-12.3597864341
 10
-2.2716719288
 20
-12.3420312356
 10
-2.2880913954
 20
-12.323714744
 10
-2.304210214
 20
-12.3048561576
 10
-2.3200098885
 20
-12.2854746749
 10
-2.3354719229
 20
-12.2655894943
 10
-2.3505778211
 20
-12.2452198142
 10
-2.3653074496
 20
-12.2243893075
 10
-2.3796341255
 20
-12.2031395452
 10
-2.3935295285
 20
-12.1815165727
 10
-2.4069653382
 20
-12.1595664353
 10
-2.4199132342
 20
-12.1373351785
 10
-2.4323448963
 20
-12.1148688476
 10
-2.444232004
 20
-12.0922134882
 10
-2.4555462371
 20
-12.0694151456
 10
-2.4662630827
 20
-12.0465161821
 10
-2.476373259
 20
-12.0235442273
 10
-2.4858712915
 20
-12.0005232275
 10
-2.4947517057
 20
-11.9774771292
 10
-2.5030072799
 20
-11.9544352566
 10
-2.5106238022
 20
-11.9314484441
 10
-2.5175853135
 20
-11.9085729042
 10
-2.5238758545
 20
-11.8858648491
 10
-2.5294828789
 20
-11.8633732878
 10
-2.5344074925
 20
-11.8411184163
 10
-2.5386542138
 20
-11.8191132271
 10
-2.5422275616
 20
-11.7973707129
 10
-2.545129598
 20
-11.7758918458
 10
-2.5473525583
 20
-11.7546295153
 10
-2.5488862214
 20
-11.7335245905
 10
-2.5497203662
 20
-11.7125179402
  0
LINE
  5
24C
100
AcDbEntity
  8
CURVE
100
AcDbLine
 62
250
  6
CONTINUOUS
 10
-2.1247070971
 20
7.5321950372
 11
-2.1507393475
 21
6.0051329622
  0
LINE
  5
24D
100
AcDbEntity
  8
CURVE
100
AcDbLine
 62
250
  6
CONTINUOUS
 10
-2.0058177076
 20
12.5063981125
 11
-2.0465014639
 21
11.0132094359
  0
LWPOLYLINE
  5
24E
100
AcDbEntity
  8
CURVE
100
AcDbPolyline
 62
250
  6
CONTINUOUS
 90
87
 70
0
 10
-2.7968012693
 20
9.6583629348
 10
-2.7956874581
 20
9.6879038029
 10
-2.7936820654
 20
9.7165598876
 10
-2.7907958129
 20
9.7444166578
 10
-2.7870394223
 20
9.7715595821
 10
-2.782420928
 20
9.798056468
 10
-2.776937616
 20
9.8239044773
 10
-2.7705840851
 20
9.8490831105
 10
-2.763354934
 20
9.8735718681
 10
-2.7552485518
 20
9.8973451725
 10
-2.7462784875
 20
9.9203571328
 10
-2.7364620806
 20
9.9425567803
 10
-2.7258166705
 20
9.9638931459
 10
-2.7143582159
 20
9.984320075
 10
-2.7020971536
 20
10.0038106688
 10
-2.6890425399
 20
10.022342843
 10
-2.675203431
 20
10.039894513
 10
-2.6584432407
 20
10.0587250306
 10
-2.6407132888
 20
10.076215558
 10
-2.6220566323
 20
10.0923356086
 10
-2.6025163277
 20
10.1070546957
 10
-2.582135432
 20
10.1203423327
 10
-2.5609570017
 20
10.1321680329
 10
-2.5390240936
 20
10.1425013095
 10
-2.5192464535
 20
10.1502986267
 10
-2.4989452587
 20
10.1569330646
 10
-2.4781416362
 20
10.1624077222
 10
-2.456856713
 20
10.1667256983
 10
-2.4351096816
 20
10.1698882612
 10
-2.4129119973
 20
10.1718893569
 10
-2.3902731809
 20
10.1727211008
 10
-2.3672027533
 20
10.1723756083
 10
-2.3437163904
 20
10.1708462814
 10
-2.31985439
 20
10.1681316691
 10
-2.2956632047
 20
10.1642316069
 10
-2.2711892875
 20
10.1591459302
 10
-2.2464802685
 20
10.1528784957
 10
-2.221588487
 20
10.1454492436
 10
-2.1965674597
 20
10.1368821351
 10
-2.1714707033
 20
10.1272011315
 10
-2.1463447401
 20
10.1164283121
 10
-2.1212081156
 20
10.104578228
 10
-2.096072381
 20
10.0916635484
 10
-2.0709490876
 20
10.0776969424
 10
-2.0458496473
 20
10.0626889212
 10
-2.0207849156
 20
10.0466413635
 10
-1.9957656085
 20
10.0295539901
 10
-1.9708024421
 20
10.0114265217
 10
-1.9459134257
 20
9.9922650778
 10
-1.9211457405
 20
9.972101373
 10
-1.8965538609
 20
9.9509735207
 10
-1.8721922612
 20
9.9289196341
 10
-1.8481142059
 20
9.9059807834
 10
-1.8243681198
 20
9.8822098661
 10
-1.8010012176
 20
9.8576627365
 10
-1.7780607142
 20
9.832395249
 10
-1.7555870043
 20
9.8064567077
 10
-1.7335932028
 20
9.7798702161
 10
-1.7120856046
 20
9.7526523276
 10
-1.6910705044
 20
9.7248195956
 10
-1.6705563261
 20
9.6963885863
 10
-1.6505600097
 20
9.6673759169
 10
-1.6311006239
 20
9.6377982175
 10
-1.6121972378
 20
9.6076721182
 10
-1.5913011159
 20
9.5726021173
 10
-1.5711993908
 20
9.5369224067
 10
-1.5519353495
 20
9.5007178335
 10
-1.533552279
 20
9.4640732446
 10
-1.5160934661
 20
9.4270734869
 10
-1.4996021978
 20
9.3898034074
 10
-1.484121761
 20
9.3523478531
 10
-1.4714355626
 20
9.3194838328
 10
-1.4595611629
 20
9.2865698274
 10
-1.4485033009
 20
9.2536328949
 10
-1.4382667159
 20
9.2207000935
 10
-1.4288578045
 20
9.1878050643
 10
-1.4202895925
 20
9.1550077811
 10
-1.4125767632
 20
9.1223748009
 10
-1.4057339998
 20
9.0899726805
 10
-1.3997726675
 20
9.0578595594
 10
-1.394690858
 20
9.0260599072
 10
-1.3904833452
 20
8.9945897763
 10
-1.3871449026
 20
8.9634652188
 10
-1.3846735914
 20
8.9326877554
 10
-1.3830806228
 20
8.9022007806
 10
-1.3823804951
 20
8.8719331572
 10
-1.382587707
 20
8.8418137482
  0
LWPOLYLINE
  5
24F
100
AcDbEntity
  8
CURVE
100
AcDbPolyline
 62
250
  6
CONTINUOUS
 90
87
 70
0
 10
-1.382587707
 20
8.8418137482
 10
-1.3836996772
 20
8.8122743454
 10
-1.3856996168
 20
8.78362178
 10
-1.3885768806
 20
8.755770543
 10
-1.3923208238
 20
8.728635125
 10
-1.3969234832
 20
8.7021476822
 10
-1.4023876222
 20
8.6763110319
 10
-1.408718686
 20
8.6511456568
 10
-1.41592212
 20
8.6266720395
 10
-1.4239996042
 20
8.6029157201
 10
-1.4329377585
 20
8.5799224682
 10
-1.4427194378
 20
8.5577431109
 10
-1.4533274968
 20
8.5364284753
 10
-1.4647461723
 20
8.5160245786
 10
-1.4769652288
 20
8.4965581983
 10
-1.4899758126
 20
8.4780513022
 10
-1.5037690702
 20
8.4605258578
 10
-1.52047491
 20
8.4417263139
 10
-1.538148827
 20
8.4242676146
 10
-1.5567481942
 20
8.4081800162
 10
-1.5762303849
 20
8.3934937745
 10
-1.5965527723
 20
8.3802391456
 10
-1.6176727294
 20
8.3684463855
 10
-1.6395476294
 20
8.3581457503
 10
-1.6592752205
 20
8.3503765752
 10
-1.6795272702
 20
8.3437697627
 10
-1.7002828701
 20
8.3383221028
 10
-1.7215211119
 20
8.3340303852
 10
-1.7432230204
 20
8.3308932321
 10
-1.7653773531
 20
8.3289165951
 10
-1.7879748007
 20
8.3281082583
 10
-1.8110060539
 20
8.3284760055
 10
-1.8344556451
 20
8.330026332
 10
-1.8582834736
 20
8.3327605776
 10
-1.8824432806
 20
8.3366787934
 10
-1.9068888071
 20
8.3417810306
 10
-1.9315726026
 20
8.3480633289
 10
-1.9564424499
 20
8.3555056833
 10
-1.98144494
 20
8.3640840775
 10
-2.0065266644
 20
8.3737744951
 10
-2.0316411885
 20
8.3845548097
 10
-2.0567699759
 20
8.3964104539
 10
-2.0819014646
 20
8.40932875
 10
-2.1070240926
 20
8.4232970204
 10
-2.1321264353
 20
8.4383047449
 10
-2.1571976173
 20
8.4543500335
 10
-2.1822269007
 20
8.4714331534
 10
-2.2072035476
 20
8.4895543718
 10
-2.2321095132
 20
8.5087075687
 10
-2.2568975254
 20
8.5288610744
 10
-2.2815130052
 20
8.5499768316
 10
-2.3059013739
 20
8.5720167832
 10
-2.3300092401
 20
8.5949399211
 10
-2.3537879628
 20
8.6186934339
 10
-2.3771900889
 20
8.6432215595
 10
-2.4001681649
 20
8.6684685354
 10
-2.4226815685
 20
8.6943851545
 10
-2.4447170008
 20
8.7209484287
 10
-2.4662679939
 20
8.7481419251
 10
-2.4873280798
 20
8.7759492107
 10
-2.5078886537
 20
8.8043538364
 10
-2.527932563
 20
8.8333392892
 10
-2.5474405182
 20
8.8628890401
 10
-2.5663932296
 20
8.8929865601
 10
-2.5873463547
 20
8.9280232751
 10
-2.6075053861
 20
8.9636692727
 10
-2.6268266407
 20
8.9998399707
 10
-2.6452664357
 20
9.0364507871
 10
-2.6627810881
 20
9.07341714
 10
-2.6793269148
 20
9.1106544471
 10
-2.694860233
 20
9.1480781266
 10
-2.7075910287
 20
9.18091519
 10
-2.7195082507
 20
9.2138032417
 10
-2.7306069722
 20
9.2467153367
 10
-2.7408822662
 20
9.2796245302
 10
-2.7503275497
 20
9.3124972997
 10
-2.7589296162
 20
9.3452738133
 10
-2.7666736032
 20
9.3778876614
 10
-2.7735446481
 20
9.4102724345
 10
-2.7795312247
 20
9.4423701171
 10
-2.7846351513
 20
9.47415627
 10
-2.7888615823
 20
9.5056148481
 10
-2.7922156724
 20
9.5367298062
 10
-2.7946992878
 20
9.5674996367
 10
-2.7963011422
 20
9.5979809818
 10
-2.7970066609
 20
9.6282450213
 10
-2.7968012693
 20
9.6583629348
  0
LWPOLYLINE
  5
250
100
AcDbEntity
  8
ASSI
100
AcDbPolyline
 62
250
  6
CONTINUOUS
 90
62
 70
0
 10
-3.2870037569
 20
-0.4187224491
 10
-3.2740055514
 20
-0.375932918
 10
-3.2592018656
 20
-0.3348033872
 10
-3.242592896
 20
-0.2953339708
 10
-3.2241483701
 20
-0.2574227512
 10
-3.2038989224
 20
-0.2211718558
 10
-3.1819362162
 20
-0.1868875277
 10
-3.1582383399
 20
-0.1545930902
 10
-3.1328277868
 20
-0.1242655559
 10
-3.1058630205
 20
-0.0961418127
 10
-3.0773290685
 20
-0.0702511271
 10
-3.0472416224
 20
-0.0465646473
 10
-3.0158052887
 20
-0.0252321674
 10
-2.9830310456
 20
-0.0062841026
 10
-2.9489086949
 20
0.0103095131
 10
-2.913611161
 20
0.024489411
 10
-2.8771442686
 20
0.0362468259
 10
-2.8395029363
 20
0.0455900955
 10
-2.8008437619
 20
0.0524855867
 10
-2.7611520239
 20
0.056927779
 10
-2.7204431103
 20
0.05892181
 10
-2.678918795
 20
0.0584500263
 10
-2.6365669328
 20
0.0554975934
 10
-2.5934002381
 20
0.0500790189
 10
-2.5496577722
 20
0.0422206647
 10
-2.5053410732
 20
0.0319082294
 10
-2.4604490398
 20
0.0191557637
 10
-2.4152167511
 20
0.0040321715
 10
-2.3696457639
 20
-0.0134737012
 10
-2.3237347944
 20
-0.0333508571
 10
-2.2777146229
 20
-0.0554971428
 10
-2.2315854309
 20
-0.0799228701
 10
-2.1853471296
 20
-0.1066177804
 10
-2.1392300487
 20
-0.1354488404
 10
-2.0932341735
 20
-0.1664263403
 10
-2.0473594262
 20
-0.1995399368
 10
-2.0018359972
 20
-0.2346256197
 10
-1.956662496
 20
-0.2716958442
 10
-1.9118400404
 20
-0.3107379985
 10
-1.8676025453
 20
-0.3515504498
 10
-1.8239483862
 20
-0.3941488499
 10
-1.780878751
 20
-0.4385172962
 10
-1.7386317504
 20
-0.4844068117
 10
-1.6972192746
 20
-0.5318180069
 10
-1.656628864
 20
-0.5807499442
 10
-1.6170621023
 20
-0.6309513222
 10
-1.5785340004
 20
-0.682409729
 10
-1.5410288808
 20
-0.7351371935
 10
-1.5047023084
 20
-0.7889190831
 10
-1.4695491531
 20
-0.8437688572
 10
-1.4355738021
 20
-0.8996726292
 10
-1.4029461284
 20
-0.9563747662
 10
-1.3716551132
 20
-1.0139170611
 10
-1.3417109952
 20
-1.0722572718
 10
-1.3133156141
 20
-1.13101376
 10
-1.2864833197
 20
-1.190198725
 10
-1.261199041
 20
-1.2497995517
 10
-1.2376206324
 20
-1.3093974644
 10
-1.215769829
 20
-1.3689906268
 10
-1.1956243113
 20
-1.4285805376
 10
-1.1772760448
 20
-1.4877535342
 10
-1.1607556042
 20
-1.546371682
  0
LWPOLYLINE
  5
251
100
AcDbEntity
  8
ASSI
100
AcDbPolyline
 62
250
  6
CONTINUOUS
 90
14
 70
0
 10
-3.0105206307
 20
-0.4601533989
 10
-2.9991673777
 20
-0.4229120971
 10
-2.9862277982
 20
-0.386969144
 10
-2.9717043384
 20
-0.3524024035
 10
-2.9555919106
 20
-0.3192689928
 10
-2.9379078199
 20
-0.2876663511
 10
-2.9187007986
 20
-0.257721818
 10
-2.897992984
 20
-0.2294976661
 10
-2.8758105641
 20
-0.203055273
 10
-2.8522286537
 20
-0.1784974382
 10
-2.8272891921
 20
-0.1558711981
 10
-2.8010308209
 20
-0.1352147373
 10
-2.7735409859
 20
-0.1165932548
 10
-2.7564199062
 20
-0.1063752084
  0
LWPOLYLINE
  5
252
100
AcDbEntity
  8
ASSI
100
AcDbPolyline
 62
7
  6
CONTINUOUS
 90
11
 70
0
 10
-2.5821849449
 20
-0.219979949
 10
-2.5855217707
 20
-0.2307599726
 10
-2.5894356011
 20
-0.2409338918
 10
-2.5939264362
 20
-0.2505017066
 10
-2.5990178668
 20
-0.2594994065
 10
-2.604686302
 20
-0.2678910019
 10
-2.61086097
 20
-0.2755685243
 10
-2.6175291233
 20
-0.2825064842
 10
-2.6247035093
 20
-0.288730371
 10
-2.6323515979
 20
-0.2942086843
 10
-2.637925678
 20
-0.297562809
  0
LWPOLYLINE
  5
253
100
AcDbEntity
  8
ASSI
100
AcDbPolyline
 62
7
  6
CONTINUOUS
 90
6
 70
0
 10
-2.5189941441
 20
-0.0631219961
 10
-2.5270396181
 20
-0.0775284075
 10
-2.5431486597
 20
-0.1107444782
 10
-2.5576951376
 20
-0.1455329541
 10
-2.5707072326
 20
-0.1819447777
 10
-2.5821849449
 20
-0.219979949
  0
LWPOLYLINE
  5
254
100
AcDbEntity
  8
ASSI
100
AcDbPolyline
 62
7
  6
CONTINUOUS
 90
3
 70
0
 10
-1.2720941817
 20
-2.3101938393
 10
-1.2353178786
 20
-2.3127823761
 10
-1.2199573922
 20
-2.3129676905
  0
LWPOLYLINE
  5
255
100
AcDbEntity
  8
ASSI
100
AcDbPolyline
 62
250
  6
CONTINUOUS
 90
22
 70
0
 10
-3.2870037567
 20
-1.1070179371
 10
-3.2764841674
 20
-1.1094062633
 10
-3.2652404254
 20
-1.1113288968
 10
-3.2533347317
 20
-1.1127752014
 10
-3.2408329492
 20
-1.1137371761
 10
-3.2278042381
 20
-1.1142094991
 10
-3.2143206741
 20
-1.1141895577
 10
-3.2004568487
 20
-1.113677462
 10
-3.1862894573
 20
-1.1126760451
 10
-3.1718968744
 20
-1.1111908468
 10
-3.1573587206
 20
-1.1092300833
 10
-3.1427554216
 20
-1.1068046016
 10
-3.1281677634
 20
-1.1039278197
 10
-3.1136764456
 20
-1.1006156519
 10
-3.0993616349
 20
-1.0968864214
 10
-3.0853025215
 20
-1.0927607585
 10
-3.071576881
 20
-1.0882614864
 10
-3.0582606442
 20
-1.0834134953
 10
-3.0454274772
 20
-1.0782436046
 10
-3.0331483737
 20
-1.0727804144
 10
-3.0214912621
 20
-1.0670541472
 10
-3.0105206302
 20
-1.0610964809
  0
LWPOLYLINE
  5
256
100
AcDbEntity
  8
ASSI
100
AcDbPolyline
 62
250
  6
CONTINUOUS
 90
11
 70
0
 10
-1.1331051881
 20
-1.6623564879
 10
-1.1428471089
 20
-1.6595191456
 10
-1.1517527863
 20
-1.656246543
 10
-1.1597729537
 20
-1.6525567842
 10
-1.1668632432
 20
-1.6484702812
 10
-1.1729844309
 20
-1.6440096408
 10
-1.1781026542
 20
-1.6391995394
 10
-1.1821895989
 20
-1.6340665866
 10
-1.1852226557
 20
-1.6286391782
 10
-1.1871850456
 20
-1.622947339
 10
-1.1874311838
 20
-1.6218650653
  0
LWPOLYLINE
  5
257
100
AcDbEntity
  8
ASSI
100
AcDbPolyline
 62
7
  6
CONTINUOUS
 90
10
 70
0
 10
-3.3137423395
 20
-0.5309756245
 10
-3.2849734626
 20
-0.5455014803
 10
-3.2541065701
 20
-0.5567801177
 10
-3.2227829935
 20
-0.5640203086
 10
-3.191560016
 20
-0.5672092598
 10
-3.1607754608
 20
-0.566446679
 10
-3.1306509084
 20
-0.5618244776
 10
-3.1017472066
 20
-0.5535062576
 10
-3.0745015273
 20
-0.5417396549
 10
-3.0665583558
 20
-0.5374980522
  0
LWPOLYLINE
  5
258
100
AcDbEntity
  8
ASSI
100
AcDbPolyline
 62
7
  6
CONTINUOUS
 90
13
 70
0
 10
5.2977369114
 20
-5.5031362683
 10
5.3410257893
 20
-5.5254100031
 10
5.3910125504
 20
-5.5453691492
 10
5.4430490749
 20
-5.5608209351
 10
5.4968049519
 20
-5.5719378052
 10
5.5518204898
 20
-5.5787675744
 10
5.6073195928
 20
-5.5813046509
 10
5.662845269
 20
-5.5795703084
 10
5.7179418979
 20
-5.5735376793
 10
5.7718350947
 20
-5.5632019235
 10
5.8240668721
 20
-5.5485093836
 10
5.8743113485
 20
-5.5292830487
 10
5.9144496202
 20
-5.5095525218
  0
LWPOLYLINE
  5
259
100
AcDbEntity
  8
ASSI
100
AcDbPolyline
 62
250
  6
CONTINUOUS
 90
16
 70
0
 10
-0.92480934
 20
-2.0857804362
 10
-0.9363509346
 20
-2.0795331687
 10
-0.9478547281
 20
-2.0740217327
 10
-0.959286868
 20
-2.0692622301
 10
-0.9706134147
 20
-2.0652686108
 10
-0.9818013671
 20
-2.0620524318
 10
-0.9928187241
 20
-2.0596230035
 10
-1.0036336159
 20
-2.0579874947
 10
-1.0142136211
 20
-2.0571509354
 10
-1.0245268328
 20
-2.0571159049
 10
-1.034542579
 20
-2.0578823698
 10
-1.0442318572
 20
-2.0594479513
 10
-1.0535666125
 20
-2.0618080819
 10
-1.0625194563
 20
-2.0649558495
 10
-1.0710640488
 20
-2.0688819977
 10
-1.0757105366
 20
-2.0714453183
  0
LWPOLYLINE
  5
25A
100
AcDbEntity
  8
ASSI
100
AcDbPolyline
 62
250
  6
CONTINUOUS
 90
25
 70
0
 10
-1.0649965435
 20
-2.3301243077
 10
-1.0688436819
 20
-2.3280255091
 10
-1.0726575805
 20
-2.3261819946
 10
-1.0764382388
 20
-2.3245937639
 10
-1.0801966073
 20
-2.3232575882
 10
-1.0839217333
 20
-2.322176695
 10
-1.0875807612
 20
-2.321360768
 10
-1.0911731072
 20
-2.320812143
 10
-1.094699351
 20
-2.3205284818
 10
-1.0981283813
 20
-2.3205124566
 10
-1.1014592544
 20
-2.3207664365
 10
-1.1046929084
 20
-2.3212880491
 10
-1.1078010551
 20
-2.3220728543
 10
-1.1107827067
 20
-2.3231232171
 10
-1.1136388445
 20
-2.3244367688
 10
-1.1163441343
 20
-2.326001969
 10
-1.1188972009
 20
-2.3278211417
 10
-1.1212994128
 20
-2.329891959
 10
-1.1235295527
 20
-2.3321959039
 10
-1.1255860687
 20
-2.3347351789
 10
-1.1274705063
 20
-2.3375075778
 10
-1.1291662962
 20
-2.3404879712
 10
-1.1306679137
 20
-2.3436679817
 10
-1.1319808786
 20
-2.3470559838
 10
-1.1331051882
 20
-2.350651976
  0
LWPOLYLINE
  5
25B
100
AcDbEntity
  8
ASSI
100
AcDbPolyline
 62
250
  6
CONTINUOUS
 90
25
 70
0
 10
-3.3551922537
 20
-0.4392962231
 10
-3.3513449675
 20
-0.4413949363
 10
-3.3475306356
 20
-0.4432382007
 10
-3.3437492576
 20
-0.4448260159
 10
-3.3399898775
 20
-0.4461616075
 10
-3.336263449
 20
-0.4472417486
 10
-3.3326028362
 20
-0.4480567605
 10
-3.3290086163
 20
-0.4486043035
 10
-3.3254802079
 20
-0.4488867148
 10
-3.3220487361
 20
-0.4489013304
 10
-3.3187151372
 20
-0.4486457767
 10
-3.3154784694
 20
-0.448122424
 10
-3.312367041
 20
-0.4473357239
 10
-3.3093818313
 20
-0.4462833067
 10
-3.3065218545
 20
-0.4449675384
 10
-3.3038124718
 20
-0.4433999751
 10
-3.3012550501
 20
-0.4415782878
 10
-3.2988482159
 20
-0.4395048016
 10
-3.2966132209
 20
-0.4371980535
 10
-3.2945516094
 20
-0.4346558364
 10
-3.2926618309
 20
-0.4318803537
 10
-3.2909604974
 20
-0.4288967595
 10
-3.2894531447
 20
-0.4257134376
 10
-3.2881342321
 20
-0.4223220013
 10
-3.2870037569
 20
-0.4187224491
  0
LWPOLYLINE
  5
25C
100
AcDbEntity
  8
ASSI
100
AcDbPolyline
 62
250
  6
CONTINUOUS
 90
7
 70
0
 10
5.2563473205
 20
-5.4114912365
 10
5.2751214648
 20
-5.421787748
 10
5.2947919474
 20
-5.4315147219
 10
5.3153058694
 20
-5.440646215
 10
5.3366071161
 20
-5.4491575965
 10
5.3586393584
 20
-5.4570265883
 10
5.381346522
 20
-5.4642330302
  0
LINE
  5
25D
100
AcDbEntity
  8
ASSI
100
AcDbLine
 62
250
  6
CONTINUOUS
 10
5.2563473187
 20
-5.9799890294
 11
-1.0649965435
 21
-2.3301243077
  0
LINE
  5
25E
100
AcDbEntity
  8
ASSI
100
AcDbLine
 62
250
  6
CONTINUOUS
 10
-3.3551922537
 20
-1.0077940075
 11
-9.6765361158
 21
2.6420707127
  0
LINE
  5
25F
100
AcDbEntity
  8
ASSI
100
AcDbLine
 62
250
  6
CONTINUOUS
 10
5.3965461709
 20
-5.735651882
 11
-0.92480934
 21
-2.0857804362
  0
LINE
  5
260
100
AcDbEntity
  8
ASSI
100
AcDbLine
 62
250
  6
CONTINUOUS
 10
-3.2150050503
 20
-0.763450136
 11
-9.5363605595
 21
2.8864213109
  0
LINE
  5
261
100
AcDbEntity
  8
ASSI
100
AcDbLine
 62
7
  6
CONTINUOUS
 10
-9.6351312739
 20
3.1189141316
 11
-3.3137757644
 21
-0.5309573143
  0
LINE
  5
262
100
AcDbEntity
  8
ASSI
100
AcDbLine
 62
7
  6
CONTINUOUS
 10
-1.0235800535
 20
-1.8532876149
 11
5.2977754573
 21
-5.5031590617
  0
LINE
  5
263
100
AcDbEntity
  8
ASSI
100
AcDbLine
 62
250
  6
CONTINUOUS
 10
-9.6765361159
 20
3.2105684986
 11
-3.3551922537
 21
-0.4392962231
  0
LINE
  5
264
100
AcDbEntity
  8
ASSI
100
AcDbLine
 62
250
  6
CONTINUOUS
 10
-1.0649965435
 20
-1.7616265233
 11
5.2563473186
 21
-5.4114912435
  0
LINE
  5
265
100
AcDbEntity
  8
ASSI
100
AcDbLine
 62
7
  6
CONTINUOUS
 10
-2.7867641223
 20
-0.5151686597
 11
-2.9048545432
 21
-0.4469847306
  0
LWPOLYLINE
  5
266
100
AcDbEntity
  8
ASSI
100
AcDbPolyline
 62
250
  6
CONTINUOUS
 90
17
 70
0
 10
-9.6765361138
 20
2.642070708
 10
-9.6943635405
 20
2.6529138423
 10
-9.7111942376
 20
2.6642804729
 10
-9.7269832796
 20
2.6761400523
 10
-9.7416879134
 20
2.6884602355
 10
-9.7552696742
 20
2.7012084294
 10
-9.7676939782
 20
2.7143520656
 10
-9.7789280689
 20
2.7278571294
 10
-9.7889406092
 20
2.7416865764
 10
-9.7977037752
 20
2.7558019326
 10
-9.8051938794
 20
2.7701649453
 10
-9.8113912667
 20
2.7847377205
 10
-9.8162795007
 20
2.7994812851
 10
-9.8198454779
 20
2.8143564717
 10
-9.822079545
 20
2.8293233734
 10
-9.8229756787
 20
2.8443414089
 10
-9.8229945508
 20
2.8466244019
  0
LWPOLYLINE
  5
267
100
AcDbEntity
  8
ASSI
100
AcDbPolyline
 62
7
  6
CONTINUOUS
 90
24
 70
0
 10
-2.7867641223
 20
-0.5151686597
 10
-2.7752685996
 20
-0.5221628282
 10
-2.7638475493
 20
-0.5298292478
 10
-2.7525009715
 20
-0.5381679184
 10
-2.741180326
 20
-0.547220325
 10
-2.729934153
 20
-0.5569449827
 10
-2.7189080727
 20
-0.5672174364
 10
-2.7081343002
 20
-0.5780131614
 10
-2.6975806204
 20
-0.5893566825
 10
-2.6872960079
 20
-0.6011971191
 10
-2.6772591985
 20
-0.6135639608
 10
-2.6674914563
 20
-0.6264277181
 10
-2.6581055485
 20
-0.6396490413
 10
-2.6491084412
 20
-0.6532344845
 10
-2.6404931683
 20
-0.6671774936
 10
-2.6323515979
 20
-0.6813190564
 10
-2.6247035093
 20
-0.6956291906
 10
-2.6175291233
 20
-0.7101378786
 10
-2.61086097
 20
-0.7247760548
 10
-2.604686302
 20
-0.7395839289
 10
-2.5990178668
 20
-0.7545212913
 10
-2.5939264362
 20
-0.7693984476
 10
-2.5894356011
 20
-0.7841521662
 10
-2.5855217707
 20
-0.7988456787
  0
LWPOLYLINE
  5
268
100
AcDbEntity
  8
ASSI
100
AcDbPolyline
 62
250
  6
CONTINUOUS
 90
18
 70
0
 10
-9.5363605595
 20
2.8864213109
 10
-9.5470904157
 20
2.8929539844
 10
-9.5571736966
 20
2.8997665269
 10
-9.5666104022
 20
2.9068589385
 10
-9.5754228281
 20
2.9142518766
 10
-9.5835886788
 20
2.9219246838
 10
-9.5910410666
 20
2.9298153872
 10
-9.5977739981
 20
2.9379257342
 10
-9.6037934668
 20
2.9462539775
 10
-9.609050566
 20
2.9547329027
 10
-9.6135389241
 20
2.9633634779
 10
-9.6172649126
 20
2.9721447351
 10
-9.6201987393
 20
2.9810065556
 10
-9.6223340893
 20
2.989949725
 10
-9.6236772773
 20
2.9989734577
 10
-9.6242174557
 20
3.0080052784
 10
-9.6239481119
 20
3.0170452247
 10
-9.6228757583
 20
3.026093259
  0
LWPOLYLINE
  5
269
100
AcDbEntity
  8
ASSI
100
AcDbPolyline
 62
250
  6
CONTINUOUS
 90
22
 70
0
 10
-3.2870036974
 20
-0.4187224149
 10
-3.276484097
 20
-0.4275838905
 10
-3.2652403369
 20
-0.435945386
 10
-3.2533346185
 20
-0.443760645
 10
-3.2408328052
 20
-0.4509864327
 10
-3.2278040578
 20
-0.4575827757
 10
-3.2143204525
 20
-0.4635131825
 10
-3.2004565815
 20
-0.4687448455
 10
-3.1862891409
 20
-0.4732488228
 10
-3.1718965061
 20
-0.4770001981
 10
-3.1573582981
 20
-0.4799782185
 10
-3.1427549434
 20
-0.4821664094
 10
-3.128167229
 20
-0.4835526654
 10
-3.1136758551
 20
-0.4841293178
 10
-3.0993609892
 20
-0.4838931765
 10
-3.0853018222
 20
-0.4828455477
 10
-3.0715761304
 20
-0.4809922271
 10
-3.0582598455
 20
-0.4783434674
 10
-3.0454266341
 20
-0.4749139217
 10
-3.0331474906
 20
-0.4707225625
 10
-3.0214903441
 20
-0.4657925768
 10
-3.0105196828
 20
-0.4601512376
  0
LWPOLYLINE
  5
26A
100
AcDbEntity
  8
ASSI
100
AcDbPolyline
 62
250
  6
CONTINUOUS
 90
14
 70
0
 10
-1.1331051287
 20
-2.3506519416
 10
-1.1428471505
 20
-2.3413415018
 10
-1.1517529272
 20
-2.331630084
 10
-1.1597731916
 20
-2.3215714126
 10
-1.1668635748
 20
-2.3112211329
 10
-1.1729848524
 20
-2.3006365034
 10
-1.1781031609
 20
-2.2898760792
 10
-1.1821901855
 20
-2.2789993876
 10
-1.1852233165
 20
-2.2680665994
 10
-1.1871857743
 20
-2.2571381957
 10
-1.1880667025
 20
-2.2462746331
 10
-1.1878612276
 20
-2.2355360097
 10
-1.1865704865
 20
-2.2249817324
 10
-1.1844168109
 20
-2.2154352452
  0
LWPOLYLINE
  5
26B
100
AcDbEntity
  8
ASSI
100
AcDbPolyline
 62
7
  6
CONTINUOUS
 90
17
 70
0
 10
-1.2291529285
 20
-1.4589691171
 10
-1.238617842
 20
-1.4477869515
 10
-1.284244898
 20
-1.3912454226
 10
-1.3287659799
 20
-1.3333860649
 10
-1.3721761614
 20
-1.2742030098
 10
-1.4144803686
 20
-1.2137021259
 10
-1.4554904665
 20
-1.1521524838
 10
-1.4952006908
 20
-1.0895494129
 10
-1.5336168057
 20
-1.0258975836
 10
-1.5705679685
 20
-0.9614800778
 10
-1.6060476541
 20
-0.8962934857
 10
-1.6400623876
 20
-0.8303412171
 10
-1.6724609013
 20
-0.7639165824
 10
-1.7032359966
 20
-0.6970174786
 10
-1.7323948721
 20
-0.6296460088
 10
-1.7598078562
 20
-0.5621017935
 10
-1.7850472425
 20
-0.4954923056
  0
LWPOLYLINE
  5
26C
100
AcDbEntity
  8
ASSI
100
AcDbPolyline
 62
7
  6
CONTINUOUS
 90
14
 70
0
 10
-1.7490893025
 20
-0.5338846711
 10
-1.7360338024
 20
-0.5654502328
 10
-1.7017331896
 20
-0.6434318839
 10
-1.6655350908
 20
-0.7210256757
 10
-1.6274638218
 20
-0.7981981135
 10
-1.5877074949
 20
-0.8745689443
 10
-1.5462808016
 20
-0.9500949052
 10
-1.5031690504
 20
-1.0248192592
 10
-1.4585162789
 20
-1.0984915427
 10
-1.4122888351
 20
-1.1711504692
 10
-1.364520371
 20
-1.2427573252
 10
-1.3154558806
 20
-1.3129455073
 10
-1.2651223732
 20
-1.3816642258
 10
-1.2459167413
 20
-1.4066991195
  0
LWPOLYLINE
  5
26D
100
AcDbEntity
  8
ASSI
100
AcDbPolyline
 62
7
  6
CONTINUOUS
 90
10
 70
0
 10
-1.1874439021
 20
-1.6217997779
 10
-1.179661679
 20
-1.6519685959
 10
-1.1677268968
 20
-1.6849634298
 10
-1.1521232053
 20
-1.7176831335
 10
-1.1329162512
 20
-1.7494575399
 10
-1.1111819893
 20
-1.7784684406
 10
-1.0870795435
 20
-1.8046954277
 10
-1.060374305
 20
-1.8282656523
 10
-1.032257748
 20
-1.8480765315
 10
-1.0236112423
 20
-1.8532686199
  0
LINE
  5
26E
100
AcDbEntity
  8
ASSI
100
AcDbLine
 62
250
  6
CONTINUOUS
 10
-1.1607556042
 20
-1.546371682
 11
-1.1460320512
 21
-1.6045727049
  0
LWPOLYLINE
  5
26F
100
AcDbEntity
  8
ASSI
100
AcDbPolyline
 62
7
  6
CONTINUOUS
 90
42
 70
0
 10
-2.5855217707
 20
-0.7988456787
 10
-2.5707072326
 20
-0.8647683308
 10
-2.5576951376
 20
-0.9162061956
 10
-2.5431486597
 20
-0.9677925795
 10
-2.5270396181
 20
-1.0196109678
 10
-2.5093961936
 20
-1.0715778751
 10
-2.4903029297
 20
-1.1234428459
 10
-2.4697467589
 20
-1.1752187139
 10
-2.4477407486
 20
-1.2268926454
 10
-2.424408644
 20
-1.2781756833
 10
-2.3997535522
 20
-1.3290461243
 10
-2.3737723661
 20
-1.3795256717
 10
-2.3465795085
 20
-1.4293904793
 10
-2.3181534513
 20
-1.4786635012
 10
-2.2885157226
 20
-1.5273217832
 10
-2.2578453301
 20
-1.5750726164
 10
-2.2261583716
 20
-1.6218799318
 10
-2.1934387492
 20
-1.6677797984
 10
-2.1598171771
 20
-1.7125877151
 10
-2.1252613565
 20
-1.7563331933
 10
-2.0898035861
 20
-1.7989867214
 10
-2.0536714771
 20
-1.8402752647
 10
-2.0168951739
 20
-1.8801550809
 10
-1.9794445321
 20
-1.9186699122
 10
-1.9414567285
 20
-1.9556779496
 10
-1.9028903495
 20
-1.991207628
 10
-1.8637868087
 20
-2.0252305125
 10
-1.8244075241
 20
-2.0575194896
 10
-1.7847933872
 20
-2.0880323235
 10
-1.7449035064
 20
-2.1168112501
 10
-1.7048766259
 20
-2.143755864
 10
-1.6646676604
 20
-2.1688854314
 10
-1.6243216952
 20
-2.1921806861
 10
-1.5841127297
 20
-2.2134834242
 10
-1.5440858492
 20
-2.2327608486
 10
-1.5041959684
 20
-2.2500457564
 10
-1.4645818315
 20
-2.2652783349
 10
-1.4252025469
 20
-2.2784635685
 10
-1.3860990061
 20
-2.2895964727
 10
-1.3475326271
 20
-2.2986022822
 10
-1.3095448235
 20
-2.3054616082
 10
-1.2720941817
 20
-2.3101938393
  0
LWPOLYLINE
  5
270
100
AcDbEntity
  8
ASSI
100
AcDbPolyline
 62
250
  6
CONTINUOUS
 90
12
 70
0
 10
-1.0649965435
 20
-1.7616265233
 10
-1.0646124529
 20
-1.7735457764
 10
-1.0634476651
 20
-1.7849476887
 10
-1.0615086277
 20
-1.795769146
 10
-1.0588060739
 20
-1.8059502473
 10
-1.0553549635
 20
-1.8154346362
 10
-1.0511743998
 20
-1.8241698127
 10
-1.0462875238
 20
-1.8321074242
 10
-1.0407213863
 20
-1.8392035329
 10
-1.0345067982
 20
-1.8454188589
 10
-1.0276781596
 20
-1.8507189979
 10
-1.0236116647
 20
-1.8532693515
  0
LWPOLYLINE
  5
271
100
AcDbEntity
  8
ASSI
100
AcDbPolyline
 62
250
  6
CONTINUOUS
 90
22
 70
0
 10
-1.0649965435
 20
-2.3301243077
 10
-1.0646124558
 20
-2.3177615646
 10
-1.0634476762
 20
-2.3050146301
 10
-1.0615086512
 20
-2.2919540628
 10
-1.0588061132
 20
-2.2786521574
 10
-1.0553550207
 20
-2.2651825445
 10
-1.051174476
 20
-2.2516197833
 10
-1.046287619
 20
-2.2380389485
 10
-1.0407214995
 20
-2.2245152155
 10
-1.0345069275
 20
-2.2111234435
 10
-1.0276783021
 20
-2.1979377615
 10
-1.0202734219
 20
-2.1850311578
 10
-1.0123332755
 20
-2.1724750763
 10
-1.0039018143
 20
-2.1603390204
 10
-0.9950257092
 20
-2.1486901688
 10
-0.9857540932
 20
-2.1375930036
 10
-0.9761382883
 20
-2.1271089529
 10
-0.9662315216
 20
-2.1172960509
 10
-0.9560886318
 20
-2.1082086173
 10
-0.9457657641
 20
-2.0998969558
 10
-0.9353200597
 20
-2.0924070753
 10
-0.9248093399
 20
-2.0857804362
  0
LWPOLYLINE
  5
272
100
AcDbEntity
  8
ASSI
100
AcDbPolyline
 62
7
  6
CONTINUOUS
 90
8
 70
0
 10
-1.1844168109
 20
-2.2154352452
 10
-1.1918876789
 20
-2.2406161062
 10
-1.2170951043
 20
-2.3074606663
 10
-1.2475605486
 20
-2.3660759931
 10
-1.2824103383
 20
-2.4157081494
 10
-1.3212990316
 20
-2.4567408407
 10
-1.365137198
 20
-2.4902383376
 10
-1.3756516792
 20
-2.4966847706
  0
LWPOLYLINE
  5
273
100
AcDbEntity
  8
ASSI
100
AcDbPolyline
 62
250
  6
CONTINUOUS
 90
64
 70
0
 10
-1.1331051882
 20
-2.350651976
 10
-1.1460246638
 20
-2.3933960496
 10
-1.1607400812
 20
-2.4344746153
 10
-1.1772516372
 20
-2.4738877863
 10
-1.1955897188
 20
-2.5117375463
 10
-1.2157243008
 20
-2.5479221196
 10
-1.2375650677
 20
-2.5821360415
 10
-1.2611345465
 20
-2.6143563439
 10
-1.2864107918
 20
-2.6446063306
 10
-1.3132369722
 20
-2.672650056
 10
-1.3416288562
 20
-2.6984587132
 10
-1.3715713944
 20
-2.7220615251
 10
-1.4028616753
 20
-2.743309676
 10
-1.4354896538
 20
-2.7621732894
 10
-1.469466155
 20
-2.7786826934
 10
-1.5046196537
 20
-2.7927794272
 10
-1.5409451375
 20
-2.8044551946
 10
-1.5784483622
 20
-2.8137187226
 10
-1.6169739875
 20
-2.8205371041
 10
-1.6565374074
 20
-2.8249052073
 10
-1.6971238945
 20
-2.8268285507
 10
-1.7385329389
 20
-2.8262902111
 10
-1.7807773176
 20
-2.8232757185
 10
-1.823844823
 20
-2.8177998733
 10
-1.8674974659
 20
-2.8098896565
 10
-1.9117342508
 20
-2.7995310797
 10
-1.95655661
 20
-2.786738385
 10
-2.001730173
 20
-2.7715808854
 10
-2.0472537498
 20
-2.7540476385
 10
-2.0931288032
 20
-2.7341497452
 10
-2.1391249044
 20
-2.7119895615
 10
-2.1852420516
 20
-2.6875568798
 10
-2.2314803392
 20
-2.6608619615
 10
-2.2776094373
 20
-2.6320378402
 10
-2.3236293552
 20
-2.6010742221
 10
-2.369539991
 20
-2.5679813472
 10
-2.4151108031
 20
-2.5329230227
 10
-2.4603430026
 20
-2.4958866899
 10
-2.5052351055
 20
-2.456884749
 10
-2.5495524898
 20
-2.4161184248
 10
-2.5932964494
 20
-2.3735718744
 10
-2.6364652535
 20
-2.3292606869
 10
-2.6788197205
 20
-2.2834332212
 10
-2.7203474545
 20
-2.2360885746
 10
-2.7610602819
 20
-2.1872273193
 10
-2.8007553515
 20
-2.1371000246
 10
-2.8394169923
 20
-2.0857187215
 10
-2.8770602088
 20
-2.0330709925
 10
-2.9135281762
 20
-1.9793707426
 10
-2.9488253475
 20
-1.9246041215
 10
-2.9829465271
 20
-1.8687845491
 10
-3.0157204495
 20
-1.8121668542
 10
-3.047157505
 20
-1.7547088812
 10
-3.0772465232
 20
-1.6964523341
 10
-3.1057839788
 20
-1.6377778779
 10
-3.1327548802
 20
-1.5786729428
 10
-3.1581734979
 20
-1.5191496817
 10
-3.1818803455
 20
-1.4596259281
 10
-3.2038531394
 20
-1.4001032015
 10
-3.2241135789
 20
-1.3405796451
 10
-3.2425683453
 20
-1.2814681403
 10
-3.2591862518
 20
-1.2229062679
 10
-3.2739981215
 20
-1.1647562381
 10
-3.2870037569
 20
-1.1070179371
  0
LINE
  5
274
100
AcDbEntity
  8
ASSI
100
AcDbLine
 62
7
  6
CONTINUOUS
 10
-2.5614417848
 20
-0.1560172196
 11
-2.4352158236
 21
-0.0764297071
  0
LWPOLYLINE
  5
275
100
AcDbEntity
  8
ASSI
100
AcDbPolyline
 62
250
  6
CONTINUOUS
 90
11
 70
0
 10
-3.0664530275
 20
-0.5374395548
 10
-3.0611990115
 20
-0.5342841321
 10
-3.0535081816
 20
-0.5288166413
 10
-3.046287768
 20
-0.5226064468
 10
-3.0395595024
 20
-0.5156722849
 10
-3.0333432792
 20
-0.5080348676
 10
-3.027657115
 20
-0.4997165652
 10
-3.022517554
 20
-0.4907418778
 10
-3.0179396112
 20
-0.481137269
 10
-3.0139367328
 20
-0.470931082
 10
-3.0105206404
 20
-0.4601534043
  0
LINE
  5
276
100
AcDbEntity
  8
ASSI
100
AcDbLine
 62
250
  6
CONTINUOUS
 10
-2.7867641223
 20
-0.5151686597
 11
-3.2150050503
 21
-0.763450136
  0
LINE
  5
277
100
AcDbEntity
  8
ASSI
100
AcDbLine
 62
250
  6
CONTINUOUS
 10
-2.5821849449
 20
-0.813478985
 11
-3.0105206867
 21
-1.0610932126
  0
LINE
  5
278
100
AcDbEntity
  8
ASSI
100
AcDbLine
 62
7
  6
CONTINUOUS
 10
-2.7564199062
 20
-0.1063752084
 11
-2.7549812133
 21
-0.1055615127
  0
LINE
  5
279
100
AcDbEntity
  8
ASSI
100
AcDbLine
 62
250
  6
CONTINUOUS
 10
-3.0105206307
 20
-0.4601533989
 11
-2.5821849449
 21
-0.219979949
  0
LINE
  5
27A
100
AcDbEntity
  8
ASSI
100
AcDbLine
 62
7
  6
CONTINUOUS
 10
-3.0664530265
 20
-0.5374395542
 11
-2.6379220564
 21
-0.2975691512
  0
LWPOLYLINE
  5
27B
100
AcDbEntity
  8
ASSI
100
AcDbPolyline
 62
7
  6
CONTINUOUS
 90
26
 70
0
 10
-2.7564310651
 20
-0.1063821375
 10
-2.7396485849
 20
-0.0974507559
 10
-2.6846570685
 20
-0.0759385946
 10
-2.6246296942
 20
-0.0633943959
 10
-2.5584982949
 20
-0.0598297204
 10
-2.4860866913
 20
-0.065864503
 10
-2.4089017496
 20
-0.0818947911
 10
-2.3289064158
 20
-0.1076437736
 10
-2.2479696305
 20
-0.1422909311
 10
-2.166511172
 20
-0.1853643274
 10
-2.0840824161
 20
-0.2370576393
 10
-2.0011989371
 20
-0.2972110927
 10
-1.9189800098
 20
-0.3651384052
 10
-1.8375800331
 20
-0.4408520584
 10
-1.7574780887
 20
-0.5241674505
 10
-1.6797215181
 20
-0.6142374238
 10
-1.605212411
 20
-0.710156013
 10
-1.5346148086
 20
-0.8111535466
 10
-1.4685449702
 20
-0.9164118768
 10
-1.4076930777
 20
-1.0248352773
 10
-1.3525448888
 20
-1.1354970147
 10
-1.3035136576
 20
-1.2474696985
 10
-1.2610261147
 20
-1.3595877059
 10
-1.2253503153
 20
-1.4708257625
 10
-1.1966242554
 20
-1.5803286357
 10
-1.1874311838
 20
-1.6218650653
  0
LWPOLYLINE
  5
27C
100
AcDbEntity
  8
ASSI
100
AcDbPolyline
 62
250
  6
CONTINUOUS
 90
25
 70
0
 10
-1.1331051882
 20
-1.662356488
 10
-1.1319808786
 20
-1.6672579246
 10
-1.1306679137
 20
-1.672168974
 10
-1.1291662962
 20
-1.6770896376
 10
-1.1274705063
 20
-1.6820346883
 10
-1.1255860687
 20
-1.686989356
 10
-1.1235295527
 20
-1.6919093284
 10
-1.1212994128
 20
-1.6967941894
 10
-1.1188972009
 20
-1.7016443586
 10
-1.1163441344
 20
-1.7064167777
 10
-1.1136388445
 20
-1.7111107051
 10
-1.1107827068
 20
-1.7157268863
 10
-1.1078010552
 20
-1.7202244945
 10
-1.1046929084
 20
-1.7246022992
 10
-1.1014592544
 20
-1.7288615347
 10
-1.0981283813
 20
-1.732965071
 10
-1.094699351
 20
-1.7369116233
 10
-1.0911731072
 20
-1.7407024798
 10
-1.0875807612
 20
-1.7443043698
 10
-1.0839217333
 20
-1.7477156268
 10
-1.0801966073
 20
-1.7509379198
 10
-1.0764382388
 20
-1.7539429821
 10
-1.0726575805
 20
-1.7567213918
 10
-1.0688436819
 20
-1.7592825721
 10
-1.0649965435
 20
-1.7616265233
  0
LINE
  5
27D
100
AcDbEntity
  8
ASSI
100
AcDbLine
 62
250
  6
CONTINUOUS
 10
-1.1460320512
 20
-1.6045727049
 11
-1.1331051882
 21
-1.662356488
  0
LINE
  5
27E
100
AcDbEntity
  8
ASSI
100
AcDbLine
 62
7
  6
CONTINUOUS
 10
-1.1874311838
 20
-1.6218650653
 11
-1.1874447042
 21
-1.6217999457
  0
LWPOLYLINE
  5
27F
100
AcDbEntity
  8
ASSI
100
AcDbPolyline
 62
7
  6
CONTINUOUS
 90
8
 70
0
 10
-1.0757163341
 20
-2.0714489594
 10
-1.0816839474
 20
-2.0751015343
 10
-1.1064650655
 20
-2.0931700696
 10
-1.1289211358
 20
-2.1145867151
 10
-1.1485619265
 20
-2.1390158748
 10
-1.1650094643
 20
-2.1660863119
 10
-1.1779718895
 20
-2.1954076688
 10
-1.1842173143
 20
-2.2147290589
  0
LINE
  5
280
100
AcDbEntity
  8
ASSI
100
AcDbLine
 62
7
  6
CONTINUOUS
 10
-0.8640059516
 20
-1.9454237014
 11
-1.0762409611
 21
-2.071758836
  0
LINE
  5
281
100
AcDbEntity
  8
ASSI
100
AcDbLine
 62
250
  6
CONTINUOUS
 10
-0.92480934
 20
-2.0857804362
 11
-0.7751781029
 21
-1.996711788
  0
LINE
  5
282
100
AcDbEntity
  8
ASSI
100
AcDbLine
 62
7
  6
CONTINUOUS
 10
-1.3747221021
 20
-2.4961366516
 11
-1.3756636169
 21
-2.4966922548
  0
LWPOLYLINE
  5
283
100
AcDbEntity
  8
ASSI
100
AcDbPolyline
 62
250
  6
CONTINUOUS
 90
52
 70
0
 10
-1.3756636169
 20
-2.4966922548
 10
-1.3932576853
 20
-2.5065314828
 10
-1.4228885062
 20
-2.5209194809
 10
-1.4536035222
 20
-2.5332157207
 10
-1.4853409109
 20
-2.5434017882
 10
-1.5180505485
 20
-2.5514676958
 10
-1.5517108798
 20
-2.5574101335
 10
-1.5862761392
 20
-2.5612179161
 10
-1.6216776121
 20
-2.562880397
 10
-1.6578601148
 20
-2.5623933852
 10
-1.6947693336
 20
-2.5597545472
 10
-1.7323363059
 20
-2.5549657029
 10
-1.7704812761
 20
-2.5480366726
 10
-1.8091344861
 20
-2.5389808575
 10
-1.8482338205
 20
-2.5278133662
 10
-1.8877087773
 20
-2.5145555649
 10
-1.9274890552
 20
-2.4992322938
 10
-1.9675089982
 20
-2.481869853
 10
-2.007704312
 20
-2.462497149
 10
-2.048005901
 20
-2.4411480193
 10
-2.088345249
 20
-2.4178590435
 10
-2.1286587683
 20
-2.3926669445
 10
-2.1688781258
 20
-2.3656141804
 10
-2.2089340477
 20
-2.3367468209
 10
-2.2487616982
 20
-2.3061104967
 10
-2.2882955829
 20
-2.2737546428
 10
-2.3274652436
 20
-2.2397356697
 10
-2.3661991434
 20
-2.2041140738
 10
-2.4044355106
 20
-2.166946156
 10
-2.4421042048
 20
-2.1282992735
 10
-2.4791233302
 20
-2.0882569038
 10
-2.5154243526
 20
-2.0468963788
 10
-2.5509524614
 20
-2.0042831466
 10
-2.5856490071
 20
-1.9604877513
 10
-2.6194452053
 20
-1.9156004462
 10
-2.6522954521
 20
-1.869685146
 10
-2.6841751851
 20
-1.8227722442
 10
-2.7150338731
 20
-1.7749305743
 10
-2.7448103525
 20
-1.7262491381
 10
-2.7734620512
 20
-1.6767873143
 10
-2.8009527717
 20
-1.6265960463
 10
-2.8272127747
 20
-1.5757905958
 10
-2.8521559008
 20
-1.5245305765
 10
-2.8757436376
 20
-1.4728976745
 10
-2.8979332845
 20
-1.4209883184
 10
-2.9186494321
 20
-1.3689885791
 10
-2.9378657189
 20
-1.3169894104
 10
-2.9555594736
 20
-1.2650794028
 10
-2.9716812201
 20
-1.2134408879
 10
-2.9862132928
 20
-1.1621909507
 10
-2.999160678
 20
-1.1113814404
 10
-3.0105206867
 20
-1.0610932126
  0
LINE
  5
284
100
AcDbEntity
  8
ASSI
100
AcDbLine
 62
7
  6
CONTINUOUS
 10
9.4755185006
 20
-3.559252331
 11
9.5631478032
 21
-3.6098483921
  0
LINE
  5
285
100
AcDbEntity
  8
ASSI
100
AcDbLine
 62
250
  6
CONTINUOUS
 10
3.4765599958
 20
16.9093786425
 11
3.4765599958
 21
16.8467748591
  0
LWPOLYLINE
  5
286
100
AcDbEntity
  8
ASSI
100
AcDbPolyline
 62
250
  6
CONTINUOUS
 90
37
 70
0
 10
6.2611728101
 20
-22.3016690584
 10
6.2630016602
 20
-22.3341645363
 10
6.2660243366
 20
-22.3657738247
 10
6.2702408396
 20
-22.3964969238
 10
6.2756622426
 20
-22.4263835737
 10
6.2822774721
 20
-22.4553840342
 10
6.2900533071
 20
-22.4833490845
 10
6.2989957047
 20
-22.510272782
 10
6.3090987078
 20
-22.5361610693
 10
6.3203112248
 20
-22.5608825529
 10
6.3326387426
 20
-22.5844309149
 10
6.3460757742
 20
-22.6068124731
 10
6.3605547675
 20
-22.6279147884
 10
6.3760809384
 20
-22.6477314852
 10
6.3926490711
 20
-22.666268939
 10
6.4101759658
 20
-22.6834338365
 10
6.4286665905
 20
-22.6992193672
 10
6.4481159772
 20
-22.7136323416
 10
6.4684260219
 20
-22.7265998778
 10
6.4896011171
 20
-22.738114625
 10
6.5116368703
 20
-22.748183934
 10
6.5344219999
 20
-22.7567569758
 10
6.5579601363
 20
-22.7638261359
 10
6.582247649
 20
-22.7693990288
 10
6.6071623652
 20
-22.7734476683
 10
6.632707404
 20
-22.7759644232
 10
6.6588796462
 20
-22.7769569248
 10
6.6855475616
 20
-22.7764200805
 10
6.7127140822
 20
-22.7743460675
 10
6.7403762759
 20
-22.7707427088
 10
6.7683938171
 20
-22.765628381
 10
6.796768828
 20
-22.7589951359
 10
6.8254991863
 20
-22.7508509216
 10
6.8544381989
 20
-22.7412379594
 10
6.8835369681
 20
-22.7301703231
 10
6.9128443916
 20
-22.7176339388
 10
6.9423604695
 20
-22.7036288066
  0
LWPOLYLINE
  5
287
100
AcDbEntity
  8
ASSI
100
AcDbPolyline
 62
250
  6
CONTINUOUS
 90
19
 70
0
 10
5.5605887226
 20
-22.3147370102
 10
5.5633008697
 20
-22.363361122
 10
5.5678130678
 20
-22.4108008112
 10
5.5741178561
 20
-22.4569762318
 10
5.582204932
 20
-22.5018095611
 10
5.5920607247
 20
-22.5452255103
 10
5.6036685085
 20
-22.5871513754
 10
5.617009428
 20
-22.627517295
 10
5.6320611254
 20
-22.666254571
 10
5.6487972078
 20
-22.7032962982
 10
5.6671895756
 20
-22.738579867
 10
5.6872077215
 20
-22.7720466504
 10
5.7088174021
 20
-22.803640283
 10
5.7319827728
 20
-22.8333078638
 10
5.7566651893
 20
-22.8609996065
 10
5.7828224336
 20
-22.8866685706
 10
5.8104113074
 20
-22.9102719477
 10
5.8393856868
 20
-22.931769982
 10
5.8724162507
 20
-22.9527201322
  0
LINE
  5
288
100
AcDbEntity
  8
ASSI
100
AcDbLine
 62
7
  6
CONTINUOUS
 10
3.6580904801
 20
17.3265385029
 11
3.6794248591
 21
16.7063131548
  0
LWPOLYLINE
  5
289
100
AcDbEntity
  8
ASSI
100
AcDbPolyline
 62
250
  6
CONTINUOUS
 90
12
 70
0
 10
5.2563589666
 20
-5.4114979689
 10
5.2567430583
 20
-5.4234172383
 10
5.2579078493
 20
-5.4348191645
 10
5.2598468917
 20
-5.4456406333
 10
5.2625494522
 20
-5.4558217436
 10
5.2660005705
 20
-5.4653061388
 10
5.2701811431
 20
-5.4740413186
 10
5.2750680284
 20
-5.4819789306
 10
5.2806341753
 20
-5.4890750371
 10
5.2868487724
 20
-5.4952903584
 10
5.293677419
 20
-5.5005904907
 10
5.2977366861
 20
-5.5031366583
  0
LWPOLYLINE
  5
28A
100
AcDbEntity
  8
ASSI
100
AcDbPolyline
 62
250
  6
CONTINUOUS
 90
13
 70
0
 10
5.5605887307
 20
11.2625179287
 10
5.5127732863
 20
9.8610928267
 10
5.4690416168
 20
8.4617997621
 10
5.4293939477
 20
7.064654492
 10
5.3938306939
 20
5.6696826978
 10
5.3623516969
 20
4.2768901006
 10
5.3349565111
 20
2.8862626174
 10
5.3116458772
 20
1.4978165954
 10
5.2924196056
 20
0.1115672442
 10
5.2772763243
 20
-1.2725009662
 10
5.2662159798
 20
-2.6543825682
 10
5.2592395274
 20
-4.0340512696
 10
5.2563473186
 20
-5.4114912435
  0
LWPOLYLINE
  5
28B
100
AcDbEntity
  8
ASSI
100
AcDbPolyline
 62
250
  6
CONTINUOUS
 90
22
 70
0
 10
5.9572402785
 20
-5.9813141063
 10
5.9567580732
 20
-5.9689328227
 10
5.9555017501
 20
-5.9561563094
 10
5.953478334
 20
-5.9430560043
 10
5.9506991386
 20
-5.9297051555
 10
5.9471797035
 20
-5.9161784123
 10
5.9429397076
 20
-5.902551408
 10
5.9380028584
 20
-5.8889003359
 10
5.9323967597
 20
-5.8753015234
 10
5.9261527577
 20
-5.8618310067
 10
5.9193057651
 20
-5.8485641038
 10
5.9118940658
 20
-5.8355749941
 10
5.9039591017
 20
-5.822936304
 10
5.8955452401
 20
-5.8107187005
 10
5.8866995258
 20
-5.7989904956
 10
5.8774714185
 20
-5.7878172654
 10
5.8679125158
 20
-5.7772614825
 10
5.8580762646
 20
-5.767382167
 10
5.8480176628
 20
-5.7582345569
 10
5.8377929512
 20
-5.7498697987
 10
5.8274592994
 20
-5.7423346616
 10
5.8170744859
 20
-5.7356712762
  0
LWPOLYLINE
  5
28C
100
AcDbEntity
  8
ASSI
100
AcDbPolyline
 62
250
  6
CONTINUOUS
 90
6
 70
0
 10
6.0631125315
 20
-15.5430566499
 10
6.0945622514
 20
-16.8995571705
 10
6.1300931316
 20
-18.2536702364
 10
6.1697051975
 20
-19.6053906318
 10
6.2133984237
 20
-20.9547235724
 10
6.2611728101
 20
-22.3016690584
  0
LWPOLYLINE
  5
28D
100
AcDbEntity
  8
ASSI
100
AcDbPolyline
 62
250
  6
CONTINUOUS
 90
12
 70
0
 10
5.2592395274
 20
-7.3542154122
 10
5.2662159798
 20
-8.7261128376
 10
5.2772763243
 20
-10.0956658846
 10
5.2924196056
 20
-11.4628483758
 10
5.3116458771
 20
-12.8276557701
 10
5.3349565111
 20
-14.1901049776
 10
5.3623516969
 20
-15.5501815578
 10
5.3938306939
 20
-16.9078690308
 10
5.4293939477
 20
-18.2631809657
 10
5.4690416168
 20
-19.6161114588
 10
5.5127732862
 20
-20.9666353075
 10
5.5605887307
 20
-22.314737015
  0
LINE
  5
28E
100
AcDbEntity
  8
ASSI
100
AcDbLine
 62
250
  6
CONTINUOUS
 10
5.2563473187
 20
-5.9799890294
 11
5.2592395274
 21
-7.3542154122
  0
LWPOLYLINE
  5
28F
100
AcDbEntity
  8
ASSI
100
AcDbPolyline
 62
250
  6
CONTINUOUS
 90
8
 70
0
 10
5.9572522348
 20
-5.9813073213
 10
5.9601265957
 20
-7.3543458882
 10
5.9670839896
 20
-8.725027495
 10
5.9781244165
 20
-10.0933521418
 10
5.9932485262
 20
-11.4593247776
 10
6.0124556688
 20
-12.8229404535
 10
6.0357438956
 20
-14.184184322
 10
6.0631125315
 20
-15.5430566499
  0
LWPOLYLINE
  5
290
100
AcDbEntity
  8
ASSI
100
AcDbPolyline
 62
250
  6
CONTINUOUS
 90
8
 70
0
 10
6.0631125315
 20
4.2625621023
 10
6.0357438956
 20
2.8731695528
 10
6.0124556688
 20
1.4859557438
 10
5.9932485262
 20
0.1009211616
 10
5.9781244165
 20
-1.2819171734
 10
5.9670839896
 20
-2.6625535876
 10
5.9601265957
 20
-4.0409937544
 10
5.9572522348
 20
-5.417237674
  0
LWPOLYLINE
  5
291
100
AcDbEntity
  8
ASSI
100
AcDbPolyline
 62
250
  6
CONTINUOUS
 90
22
 70
0
 10
5.2563589666
 20
-5.9799957547
 10
5.2567430571
 20
-5.9676329634
 10
5.2579078449
 20
-5.9548859833
 10
5.2598468823
 20
-5.9418253741
 10
5.2625494361
 20
-5.9285234313
 10
5.2660005464
 20
-5.9150537866
 10
5.2701811102
 20
-5.9014909998
 10
5.2750679862
 20
-5.8879101463
 10
5.2806341237
 20
-5.8743864016
 10
5.2868487118
 20
-5.8609946249
 10
5.2936773505
 20
-5.8478089451
 10
5.3010822403
 20
-5.8349023502
 10
5.3090223923
 20
-5.8223462833
 10
5.3174538547
 20
-5.8102102472
 10
5.3263299558
 20
-5.7985614198
 10
5.335601563
 20
-5.787464282
 10
5.3452173542
 20
-5.7769802607
 10
5.3551241022
 20
-5.7671673893
 10
5.3652669691
 20
-5.7580799859
 10
5.3755898103
 20
-5.7497683529
 10
5.3860354845
 20
-5.7422784985
 10
5.3965461709
 20
-5.735651882
  0
LWPOLYLINE
  5
292
100
AcDbEntity
  8
ASSI
100
AcDbPolyline
 62
250
  6
CONTINUOUS
 90
6
 70
0
 10
6.2611728101
 20
11.2420420626
 10
6.2133984237
 20
9.8418208171
 10
6.1697051975
 20
8.4437632358
 10
6.1300931316
 20
7.0478693188
 10
6.0945622514
 20
5.6541338784
 10
6.0631125315
 20
4.2625621023
  0
LWPOLYLINE
  5
293
100
AcDbEntity
  8
ASSI
100
AcDbPolyline
 62
250
  6
CONTINUOUS
 90
12
 70
0
 10
5.9572402785
 20
-5.4172442221
 10
5.9567580747
 20
-5.4292656275
 10
5.9555017554
 20
-5.44075536
 10
5.953478345
 20
-5.4516491767
 10
5.9506991572
 20
-5.4618861667
 10
5.9471797311
 20
-5.4714090919
 10
5.9429397451
 20
-5.4801647064
 10
5.9380029063
 20
-5.4881040548
 10
5.9323968181
 20
-5.4951827456
 10
5.9261528261
 20
-5.5013611996
 10
5.9193058423
 20
-5.5066048711
 10
5.9144498612
 20
-5.5095529612
  0
LWPOLYLINE
  5
294
100
AcDbEntity
  8
ASSI
100
AcDbPolyline
 62
250
  6
CONTINUOUS
 90
28
 70
0
 10
6.9423604695
 20
12.4036304029
 10
6.94067983
 20
12.4270619836
 10
6.9378309853
 20
12.4511162408
 10
6.9338235637
 20
12.475711877
 10
6.9286711091
 20
12.5007657653
 10
6.9223910355
 20
12.5261932299
 10
6.9150045678
 20
12.5519083324
 10
6.9065366704
 20
12.5778241622
 10
6.8970159625
 20
12.6038531303
 10
6.8864746217
 20
12.6299072652
 10
6.874948275
 20
12.6558985106
 10
6.8624758784
 20
12.6817390226
 10
6.8490995855
 20
12.7073414665
 10
6.8348646048
 20
12.7326193124
 10
6.8198190469
 20
12.7574871276
 10
6.8040137619
 20
12.781860865
 10
6.7875021679
 20
12.8056581472
 10
6.7703400698
 20
12.8287985454
 10
6.7525854712
 20
12.8512038507
 10
6.7342983783
 20
12.8727983385
 10
6.7155405969
 20
12.893509025
 10
6.6963755237
 20
12.913265913
 10
6.6768679319
 20
12.9320022289
 10
6.6570837523
 20
12.9496546488
 10
6.6370898506
 20
12.9661635116
 10
6.6169538013
 20
12.9814730215
 10
6.5967436591
 20
12.995531436
 10
6.5765277295
 20
13.0082912413
  0
LWPOLYLINE
  5
295
100
AcDbEntity
  8
ASSI
100
AcDbPolyline
 62
250
  6
CONTINUOUS
 90
16
 70
0
 10
6.9423604695
 20
-22.7036288066
 10
6.9406798293
 20
-22.7275781657
 10
6.9378309833
 20
-22.7507447128
 10
6.9338235598
 20
-22.7730501509
 10
6.928671103
 20
-22.7944190931
 10
6.9223910267
 20
-22.8147793177
 10
6.9150045561
 20
-22.8340620123
 10
6.9065366557
 20
-22.852202006
 10
6.8970159448
 20
-22.8691379903
 10
6.886474601
 20
-22.8848127258
 10
6.8749482516
 20
-22.8991732358
 10
6.8624758525
 20
-22.9121709853
 10
6.8490995576
 20
-22.9237620451
 10
6.8348645752
 20
-22.9339072405
 10
6.8198190162
 20
-22.9425722831
 10
6.8179580436
 20
-22.9435128828
  0
LINE
  5
296
100
AcDbEntity
  8
ASSI
100
AcDbLine
 62
250
  6
CONTINUOUS
 10
9.5631478032
 20
-3.6098483921
 11
5.8170744859
 21
-5.7356712762
  0
LINE
  5
297
100
AcDbEntity
  8
ASSI
100
AcDbLine
 62
250
  6
CONTINUOUS
 10
9.7045691602
 20
-3.8547787141
 11
5.9572522348
 21
-5.9813073213
  0
LINE
  5
298
100
AcDbEntity
  8
ASSI
100
AcDbLine
 62
250
  6
CONTINUOUS
 10
5.9572522348
 20
-5.417237674
 11
9.7045691602
 21
-3.364933853
  0
LINE
  5
299
100
AcDbEntity
  8
ASSI
100
AcDbLine
 62
7
  6
CONTINUOUS
 10
5.9143787922
 20
-5.5095919409
 11
9.6618481377
 21
-3.4572046436
  0
LWPOLYLINE
  5
29A
100
AcDbEntity
  8
ASSI
100
AcDbPolyline
 62
250
  6
CONTINUOUS
 90
31
 70
0
 10
5.8170744859
 20
-5.7356712762
 10
5.805579989
 20
-5.7418625402
 10
5.7936218835
 20
-5.7476748
 10
5.7812001697
 20
-5.7531080558
 10
5.7682787833
 20
-5.7581751157
 10
5.7548937885
 20
-5.7628631714
 10
5.7411533772
 20
-5.7671337985
 10
5.7270547266
 20
-5.7709834846
 10
5.7126006595
 20
-5.774415742
 10
5.6979078373
 20
-5.7774026834
 10
5.6829747667
 20
-5.7799405877
 10
5.6678029409
 20
-5.782033176
 10
5.6525135
 20
-5.7836637244
 10
5.6371053056
 20
-5.7848285544
 10
5.6215794961
 20
-5.7855313444
 10
5.6060606269
 20
-5.7857664058
 10
5.5905487062
 20
-5.7855299457
 10
5.5750437257
 20
-5.7848257571
 10
5.5596702164
 20
-5.7836595306
 10
5.5444294724
 20
-5.7820275818
 10
5.5293201995
 20
-5.7799335951
 10
5.5144630461
 20
-5.7773943145
 10
5.4998596192
 20
-5.7744060209
 10
5.4855083119
 20
-5.7709724334
 10
5.4715249512
 20
-5.767121453
 10
5.4579124855
 20
-5.762849574
 10
5.4446679664
 20
-5.7581603021
 10
5.4318983772
 20
-5.7530920551
 10
5.4196393787
 20
-5.7476576391
 10
5.4078553099
 20
-5.7418442481
 10
5.3965461709
 20
-5.735651882
  0
LWPOLYLINE
  5
29B
100
AcDbEntity
  8
ASSI
100
AcDbPolyline
 62
250
  6
CONTINUOUS
 90
31
 70
0
 10
5.9572522346
 20
-5.9813073652
 10
5.9381696064
 20
-5.9915269317
 10
5.918208161
 20
-6.0011610708
 10
5.8974215779
 20
-6.0101843415
 10
5.8758667185
 20
-6.0185728444
 10
5.8536005742
 20
-6.026304649
 10
5.8306798024
 20
-6.0333595521
 10
5.807163917
 20
-6.0397192012
 10
5.7831175329
 20
-6.0453661107
 10
5.7586072295
 20
-6.050284077
 10
5.7336997111
 20
-6.0544600319
 10
5.7084608327
 20
-6.0578832863
 10
5.682957599
 20
-6.0605443093
 10
5.6572580792
 20
-6.0624361662
 10
5.6314314511
 20
-6.0635539728
 10
5.6055471505
 20
-6.0638943071
 10
5.5796745711
 20
-6.0634564232
 10
5.5538830684
 20
-6.0622417122
 10
5.5282419731
 20
-6.0602531012
 10
5.5028202963
 20
-6.0574961033
 10
5.4776858946
 20
-6.0539782963
 10
5.452905505
 20
-6.0497087303
 10
5.4285446606
 20
-6.044698698
 10
5.4046696435
 20
-6.0389618942
 10
5.3813465231
 20
-6.0325140575
 10
5.3586393596
 20
-6.0253732246
 10
5.3366071175
 20
-6.0175583397
 10
5.3153058707
 20
-6.0090891787
 10
5.2947919485
 20
-5.9999878816
 10
5.2751214654
 20
-5.9902791884
 10
5.2563473206
 20
-5.9799890341
  0
LWPOLYLINE
  5
29C
100
AcDbEntity
  8
ASSI
100
AcDbPolyline
 62
250
  6
CONTINUOUS
 90
7
 70
0
 10
5.8306798013
 20
-5.4679175457
 10
5.853600573
 20
-5.4610850234
 10
5.8758667172
 20
-5.4535793654
 10
5.8974215766
 20
-5.4454191568
 10
5.91820816
 20
-5.4366257369
 10
5.9381696059
 20
-5.4272234405
 10
5.9572522346
 20
-5.4172376299
  0
LINE
  5
29D
100
AcDbEntity
  8
CURVE
100
AcDbLine
 62
250
  6
CONTINUOUS
 10
-0.6173446675
 20
8.399972008
 11
0.6921550778
 21
7.6438832669
  0
LINE
  5
29E
100
AcDbEntity
  8
CURVE
100
AcDbLine
 62
250
  6
CONTINUOUS
 10
-4.8667685191
 20
10.8546903493
 11
-3.5939313561
 21
10.1197701238
  0
LINE
  5
29F
100
AcDbEntity
  8
ASSI
100
AcDbLine
 62
7
  6
CONTINUOUS
 10
9.7045691602
 20
-3.8547787141
 11
9.7045691602
 21
-14.3056169095
  0
LINE
  5
2A0
100
AcDbEntity
  8
ASSI
100
AcDbLine
 62
7
  6
CONTINUOUS
 10
9.7045691602
 20
-3.364933853
 11
9.7045691602
 21
7.0859043425
  0
LINE
  5
2A1
100
AcDbEntity
  8
ASSI
100
AcDbLine
 62
7
  6
CONTINUOUS
 10
9.7045691602
 20
7.0859043425
 11
9.1656853506
 21
13.7755370086
  0
LINE
  5
2A2
100
AcDbEntity
  8
ASSI
100
AcDbLine
 62
7
  6
CONTINUOUS
 10
9.7045691602
 20
-14.3056169095
 11
9.1656853506
 21
-21.5961875758
  0
LINE
  5
2A3
100
AcDbEntity
  8
ASSI
100
AcDbLine
 62
250
  6
CONTINUOUS
 10
-9.3827462303
 20
19.8906122509
 11
5.5605887226
 21
11.2625179335
  0
LINE
  5
2A4
100
AcDbEntity
  8
ASSI
100
AcDbLine
 62
7
  6
CONTINUOUS
 10
6.7812750566
 20
15.523250871
 11
6.1037940662
 21
15.3924466172
  0
LINE
  5
2A5
100
AcDbEntity
  8
ASSI
100
AcDbLine
 62
250
  6
CONTINUOUS
 10
-8.3901676085
 20
21.6498884356
 11
6.5765401901
 21
13.0082989302
  0
LINE
  5
2A6
100
AcDbEntity
  8
ASSI
100
AcDbLine
 62
7
  6
CONTINUOUS
 10
5.9106089009
 20
15.4180554524
 11
3.5283238048
 21
16.7935570098
  0
LINE
  5
2A7
100
AcDbEntity
  8
ASSI
100
AcDbLine
 62
7
  6
CONTINUOUS
 10
-2.0089870484
 20
19.9907308977
 11
-4.3912721445
 21
21.3662324551
  0
LINE
  5
2A8
100
AcDbEntity
  8
ASSI
100
AcDbLine
 62
7
  6
CONTINUOUS
 10
8.7810585559
 20
14.3686009418
 11
6.7812750566
 21
15.523250871
  0
LINE
  5
2A9
100
AcDbEntity
  8
ASSI
100
AcDbLine
 62
7
  6
CONTINUOUS
 10
3.6580904801
 20
17.3265385029
 11
-1.1383208926
 21
20.0959263163
  0
LINE
  5
2AA
100
AcDbEntity
  8
ASSI
100
AcDbLine
 62
7
  6
CONTINUOUS
 10
-4.2615054692
 20
21.8992139481
 11
-6.2612889684
 21
23.0538638774
  0
LINE
  5
2AB
100
AcDbEntity
  8
ASSI
100
AcDbLine
 62
7
  6
CONTINUOUS
 10
-1.1383208926
 20
20.0959263163
 11
-1.8158018831
 21
19.9651220625
  0
LWPOLYLINE
  5
2AC
100
AcDbEntity
  8
ASSI
100
AcDbPolyline
 62
250
  6
CONTINUOUS
 90
28
 70
0
 10
6.2611728101
 20
-22.3016690584
 10
6.2399346227
 20
-22.3138124522
 10
6.2176174045
 20
-22.3252284892
 10
6.1942950031
 20
-22.3358793936
 10
6.170044592
 20
-22.3457299219
 10
6.1449464155
 20
-22.3547474788
 10
6.1190835232
 20
-22.3629022252
 10
6.0925414953
 20
-22.3701671771
 10
6.0654081588
 20
-22.376518295
 10
6.0377732978
 20
-22.381934563
 10
6.0097283557
 20
-22.3863980588
 10
5.9813661328
 20
-22.3898940127
 10
5.9527804796
 20
-22.3924108567
 10
5.9240659855
 20
-22.3939402624
 10
5.8953176666
 20
-22.3944771693
 10
5.8666306506
 20
-22.3940198006
 10
5.8380998627
 20
-22.3925696697
 10
5.8098197109
 20
-22.3901315752
 10
5.7818837738
 20
-22.3867135846
 10
5.7543844912
 20
-22.382327008
 10
5.727412858
 20
-22.3769863607
 10
5.7010581228
 20
-22.3707093146
 10
5.6754074934
 20
-22.3635166406
 10
5.6505458473
 20
-22.355432139
 10
5.6265554514
 20
-22.3464825615
 10
5.6035156897
 20
-22.336697522
 10
5.5815028006
 20
-22.3261093991
 10
5.5605896243
 20
-22.3147532289
  0
LINE
  5
2AD
100
AcDbEntity
  8
ASSI
100
AcDbLine
 62
250
  6
CONTINUOUS
 10
6.9423604695
 20
-22.7036288066
 11
9.1656853506
 21
-21.5961875758
  0
LINE
  5
2AE
100
AcDbEntity
  8
ASSI
100
AcDbLine
 62
7
  6
CONTINUOUS
 10
6.8179580436
 20
-22.9435128828
 11
9.0301076775
 21
-21.8416380583
  0
ELLIPSE
  5
2AF
100
AcDbEntity
  8
ASSI
100
AcDbEllipse
 62
7
  6
CONTINUOUS
 10
8.812106758
 20
-21.3916315217
 30
0.0
 11
-0.2148150744
 21
0.4515576038
 31
0.0
 40
0.6258090719
 41
-3.1302698991
 42
-2.3092664522
  0
ELLIPSE
  5
2B0
100
AcDbEntity
  8
ASSI
100
AcDbEllipse
 62
7
  6
CONTINUOUS
 10
9.5631262616
 20
-3.7731362275
 30
0.0
 11
-0.1000238792
 21
0.1731956925
 31
0.0
 40
0.5774195892
 41
-2.3562809449
 42
-0.7856369171
  0
ELLIPSE
  5
2B1
100
AcDbEntity
  8
CURVE
100
AcDbEllipse
 62
250
  6
CONTINUOUS
 10
367.3959793974
 20
193.4838693356
 30
0.0
 11
706.2927611762
 21
155.990410841
 31
0.0
 40
0.2018995412
 41
-2.1681735653
 42
-2.1670727516
  0
ELLIPSE
  5
2B2
100
AcDbEntity
  8
CURVE
100
AcDbEllipse
 62
250
  6
CONTINUOUS
 10
335.2886923391
 20
212.0222144842
 30
0.0
 11
-637.5382900747
 21
743.8512262672
 31
0.0
 40
0.4108236887
 41
1.5174049066
 42
1.5185055845
  0
ELLIPSE
  5
2B3
100
AcDbEntity
  8
CURVE
100
AcDbEllipse
 62
250
  6
CONTINUOUS
 10
367.404679005
 20
193.4788462912
 30
0.0
 11
706.5819703036
 21
155.7881600713
 31
0.0
 40
0.2020255955
 41
-2.1632901262
 42
-2.1620901997
  0
ELLIPSE
  5
2B4
100
AcDbEntity
  8
CURVE
100
AcDbEllipse
 62
250
  6
CONTINUOUS
 10
335.2799536977
 20
212.0272600662
 30
0.0
 11
-637.879010485
 21
744.0347918791
 31
0.0
 40
0.4106623389
 41
1.5219749118
 42
1.523174983
  0
ELLIPSE
  5
2B5
100
AcDbEntity
  8
ASSI
100
AcDbEllipse
 62
7
  6
CONTINUOUS
 10
8.812106758
 20
13.9793496932
 30
0.0
 11
-0.2807400337
 21
0.4141474974
 31
0.0
 40
0.5245128892
 41
-2.3945640771
 42
-0.8246811388
  0
ELLIPSE
  5
2B6
100
AcDbEntity
  8
ASSI
100
AcDbEllipse
 62
7
  6
CONTINUOUS
 10
9.5631262616
 20
-3.2832416255
 30
0.0
 11
-0.1000390991
 21
0.1732220807
 31
0.0
 40
0.5772437351
 41
-3.1546807054
 42
-2.3564331449
  0
ELLIPSE
  5
2B7
100
AcDbEntity
  8
ASSI
100
AcDbEllipse
 62
7
  6
CONTINUOUS
 10
-6.2306711885
 20
22.6648611492
 30
0.0
 11
-0.2805986523
 21
0.4138767202
 31
0.0
 40
0.5251497255
 41
-0.8253745819
 42
-0.0067082778
  0
ELLIPSE
  5
2B8
100
AcDbEntity
  8
ASSI
100
AcDbEllipse
 62
7
  6
CONTINUOUS
 10
6.0520302572
 20
15.5082682499
 30
0.0
 11
0.1999154856
 21
0.0095814127
 31
0.0
 40
0.6067642562
 41
-2.385266879
 42
-1.3380693278
  0
ELLIPSE
  5
2B9
100
AcDbEntity
  8
ASSI
100
AcDbEllipse
 62
7
  6
CONTINUOUS
 10
-1.8675656921
 20
20.0809436951
 30
0.0
 11
0.1999154856
 21
0.0095814127
 31
0.0
 40
0.6067642562
 41
-2.385266879
 42
-1.3380693278
  0
ELLIPSE
  5
2BA
100
AcDbEntity
  8
ASSI
100
AcDbEllipse
 62
7
  6
CONTINUOUS
 10
3.6697451611
 20
16.8837698073
 30
0.0
 11
0.1999154856
 21
0.0095814127
 31
0.0
 40
0.6067642562
 41
2.850720877
 42
3.8979184282
  0
ELLIPSE
  5
2BB
100
AcDbEntity
  8
ASSI
100
AcDbEllipse
 62
7
  6
CONTINUOUS
 10
-4.2498507882
 20
21.4564452526
 30
0.0
 11
0.1999154856
 21
0.0095814127
 31
0.0
 40
0.6067642562
 41
2.850720877
 42
3.8979184282
  0
ELLIPSE
  5
2BC
100
AcDbEntity
  8
CURVE
100
AcDbEllipse
 62
250
  6
CONTINUOUS
 10
360.4979358851
 20
197.4667132068
 30
0.0
 11
-353.5448483845
 21
612.3773669863
 31
0.0
 40
0.5773595689
 41
1.5478741762
 42
1.5504937534
  0
ELLIPSE
  5
2BD
100
AcDbEntity
  8
CURVE
100
AcDbEllipse
 62
250
  6
CONTINUOUS
 10
360.500780317
 20
197.4650708675
 30
0.0
 11
-353.6046579676
 21
612.3980882638
 31
0.0
 40
0.5773205013
 41
1.5393363962
 42
1.5418831391
  0
ENDSEC
  0
SECTION
  2
OBJECTS
  0
DICTIONARY
  5
C
100
AcDbDictionary
280
0
281
1
  3
ACAD_GROUP
350
D
  3
ACAD_MLINESTYLE
350
17
  3
ACAD_LAYOUT
350
1A
  3
ACAD_PLOTSETTINGS
350
19
  3
ACAD_PLOTSTYLENAME
350
E
  0
DICTIONARY
  5
D
102
{ACAD_REACTORS
330
C
102
}
100
AcDbDictionary
280
0
281
1
  0
ACDBDICTIONARYWDFLT
  5
E
102
{ACAD_REACTORS
330
C
102
}
100
AcDbDictionary
281
1
  3
Normal
350
F
100
AcDbDictionaryWithDefault
340
F
  0
DICTIONARY
  5
17
102
{ACAD_REACTORS
330
C
102
}
100
AcDbDictionary
280
0
281
1
  3
Standard
350
18
  0
DICTIONARY
  5
19
102
{ACAD_REACTORS
330
C
102
}
100
AcDbDictionary
281
1
  0
DICTIONARY
  5
1A
102
{ACAD_REACTORS
330
C
102
}
100
AcDbDictionary
281
1
  3
Model
350
2BE
  3
Layout1
350
2BF
  0
ACDBPLACEHOLDER
  5
F
102
{ACAD_REACTORS
330
E
102
}
  0
MLINESTYLE
  5
18
102
{ACAD_REACTORS
330
17
102
}
100
AcDbMlineStyle
  2
STANDARD
 70
0
  3

 62
256
 51
90.0
 52
90.0
 71
2
 49
0.5
 62
256
  6
BYLAYER
 49
-0.5
 62
256
  6
BYLAYER
  0
LAYOUT
  5
2BE
102
{ACAD_REACTORS
330
1A
102
}
100
AcDbPlotSettings
  1

  2
none_device
  4

  6

 40
0.0
 41
0.0
 42
0.0
 43
0.0
 44
210.0
 45
297.0
 46
0.0
 47
0.0
 48
0.0
 49
0.0
140
0.0
141
0.0
142
1.0
143
1.0
 70
1024
 72
1
 73
0
 74
0
  7

 75
0
147
1.0
148
0.0
149
0.0
100
AcDbLayout
  1
Model
 70
0
 71
0
 10
0.0
 20
0.0
 11
210.0
 21
297.0
 12
0.0
 22
0.0
 32
0.0
 14
0.0
 24
0.0
 34
0.0
 15
0.0
 25
0.0
 35
0.0
146
0.0
 13
0.0
 23
0.0
 33
0.0
 16
1.0
 26
0.0
 36
0.0
 17
0.0
 27
1.0
 37
0.0
 76
0
330
217
345
0
346
0
  0
LAYOUT
  5
2BF
102
{ACAD_REACTORS
330
1A
102
}
100
AcDbPlotSettings
  1

  2
none_device
  4

  6

 40
0.0
 41
0.0
 42
0.0
 43
0.0
 44
210.0
 45
297.0
 46
0.0
 47
0.0
 48
0.0
 49
0.0
140
0.0
141
0.0
142
1.0
143
1.0
 70
0
 72
1
 73
0
 74
0
  7

 75
0
147
1.0
148
0.0
149
0.0
100
AcDbLayout
  1
Layout1
 70
0
 71
1
 10
0.0
 20
0.0
 11
210.0
 21
297.0
 12
0.0
 22
0.0
 32
0.0
 14
0.0
 24
0.0
 34
0.0
 15
0.0
 25
0.0
 35
0.0
146
0.0
 13
0.0
 23
0.0
 33
0.0
 16
1.0
 26
0.0
 36
0.0
 17
0.0
 27
1.0
 37
0.0
 76
0
330
218
345
0
346
0
  0
ENDSEC
  0
EOF
