  0
SECTION
  2
HEADER
  9
$ACADVER
  1
AC1015
  9
$DWGCODEPAGE
  3
ANSI_1252
  9
$EXTMAX
 10
297.0
 20
210.0
 30
0.0
  9
$EXTMIN
 10
0.0
 20
0.0
 30
0.0
  9
$LIMMIN
 10
0.0
 20
0.0
  9
$LIMMAX
 10
297.0
 20
210.0
  9
$VIEWCTR
 10
148.5
 20
105.0
  9
$VIEWSIZE
 40
210.0
  9
$CLAYER
  8
0
  9
$LTSCALE
 40
16.335
  9
$CELTYPE
  6
BYLAYER
  9
$DIMSCALE
 40
1.0
  9
$DIMASZ
 40
3.0
  9
$DIMEXO
 40
0.5
  9
$DIMDLI
 40
11.286
  9
$DIMEXE
 40
1.5
  9
$DIMCEN
 40
2.673
  9
$DIMLFAC
 40
1.0
  9
$DIMBLK
  1
_FILLED
  9
$DIMTXT
 40
3.0
  9
$DIMTOL
 70
1
  9
$DIMLIM
 70
0
  9
$DIMTFAC
 40
1.0
  9
$DIMTP
 40
0.01
  9
$DIMTM
 40
0.01
  9
$DIMGAP
 40
0.625
  9
$DIMDSEP
 70
44
  9
$PDMODE
 70
3
  9
$PDSIZE
 40
3.0
  9
$HANDSEED
  5
7E9
  9
$TILEMODE
 70
1
  9
$MEASUREMENT
 70
1
  9
$INSUNITS
 70
4
  0
ENDSEC
  0
SECTION
  2
CLASSES
  0
CLASS
  1
ACDBDICTIONARYWDFLT
  2
AcDbDictionaryWithDefault
  3
AutoCAD 2000
 90
0
280
0
281
0
  0
CLASS
  1
ACDBPLACEHOLDER
  2
AcDbPlaceHolder
  3
AutoCAD 2000
 90
0
280
0
281
0
  0
CLASS
  1
LAYOUT
  2
AcDbLayout
  3
AutoCAD 2000
 90
0
280
0
281
0
  0
ENDSEC
  0
SECTION
  2
TABLES
  0
TABLE
  2
VPORT
  5
8
100
AcDbSymbolTable
 70
2
  0
VPORT
  5
1F4
100
AcDbSymbolTableRecord
100
AcDbViewportTableRecord
  2
*ACTIVE
 70
0
 10
0.0
 20
0.0
 11
1.0
 21
1.0
 12
148.5
 22
105.0
 13
0.0
 23
0.0
 14
1.0
 24
1.0
 15
0.0
 25
0.0
 16
0.0
 26
0.0
 36
1.0
 17
0.0
 27
0.0
 37
0.0
 40
210.0
 41
1.4142857143
 42
50.0
 43
0.0
 44
0.0
 50
0.0
 51
0.0
 71
0
 72
100
 73
1
 74
1
 75
0
 76
0
 77
0
 78
0
  0
ENDTAB
  0
TABLE
  2
LTYPE
  5
5
100
AcDbSymbolTable
 70
6
  0
LTYPE
  5
14
100
AcDbSymbolTableRecord
100
AcDbLinetypeTableRecord
  2
BYBLOCK
 70
0
  3

 72
65
 73
0
 40
0.0
  0
LTYPE
  5
15
100
AcDbSymbolTableRecord
100
AcDbLinetypeTableRecord
  2
BYLAYER
 70
0
  3

 72
65
 73
0
 40
0.0
  0
LTYPE
  5
16
100
AcDbSymbolTableRecord
100
AcDbLinetypeTableRecord
  2
CONTINUOUS
 70
64
  3
Solid line
 72
65
 73
0
 40
0.0
  0
LTYPE
  5
1F5
100
AcDbSymbolTableRecord
100
AcDbLinetypeTableRecord
  2
CENTER
 70
64
  3
____ _ ____ _ ____ _ ____ _ ____ _ ____ _ ____
 72
65
 73
4
 40
0.6
 49
0.375
 74
0
 49
-0.075
 74
0
 49
0.075
 74
0
 49
-0.075
 74
0
  0
LTYPE
  5
1F6
100
AcDbSymbolTableRecord
100
AcDbLinetypeTableRecord
  2
HIDDEN
 70
64
  3
- - - - - - - - - - - - - - - - - - - -
 72
65
 73
2
 40
0.2
 49
0.1
 74
0
 49
-0.1
 74
0
  0
LTYPE
  5
1F7
100
AcDbSymbolTableRecord
100
AcDbLinetypeTableRecord
  2
PHANTOM
 70
64
  3
_____ _ _ _____ _ _ _____ _ _ _____
 72
65
 73
6
 40
0.8
 49
0.45
 74
0
 49
-0.05
 74
0
 49
0.1
 74
0
 49
-0.05
 74
0
 49
0.1
 74
0
 49
-0.05
 74
0
  0
LTYPE
  5
1F8
100
AcDbSymbolTableRecord
100
AcDbLinetypeTableRecord
  2
DOT
 70
64
  3
. . . . . . . . . . . . . . . . . . . .
 72
65
 73
2
 40
0.2
 49
0.1
 74
0
 49
-0.1
 74
0
  0
LTYPE
  5
1F9
100
AcDbSymbolTableRecord
100
AcDbLinetypeTableRecord
  2
DASHED
 70
64
  3
- - - - - - - - - - - - - - - - - - - -
 72
65
 73
2
 40
0.2
 49
0.1
 74
0
 49
-0.1
 74
0
  0
ENDTAB
  0
TABLE
  2
LAYER
  5
2
100
AcDbSymbolTable
 70
36
  0
LAYER
  5
10
100
AcDbSymbolTableRecord
100
AcDbLayerTableRecord
  2
0
 70
0
 62
7
  6
CONTINUOUS
370
-3
390
F
  0
LAYER
  5
1FA
100
AcDbSymbolTableRecord
100
AcDbLayerTableRecord
  2
DEFAULT_1
 70
0
 62
7
  6
CENTER
370
-3
390
F
  0
LAYER
  5
1FB
100
AcDbSymbolTableRecord
100
AcDbLayerTableRecord
  2
DEFAULT_2
 70
0
 62
7
  6
HIDDEN
370
-3
390
F
  0
LAYER
  5
1FC
100
AcDbSymbolTableRecord
100
AcDbLayerTableRecord
  2
DEFAULT_3
 70
0
 62
7
  6
PHANTOM
370
-3
390
F
  0
LAYER
  5
1FD
100
AcDbSymbolTableRecord
100
AcDbLayerTableRecord
  2
ASSI
 70
0
 62
7
  6
CONTINUOUS
370
-3
390
F
  0
LAYER
  5
1FE
100
AcDbSymbolTableRecord
100
AcDbLayerTableRecord
  2
COLOR5
 70
0
 62
7
  6
CONTINUOUS
370
-3
390
F
  0
LAYER
  5
1FF
100
AcDbSymbolTableRecord
100
AcDbLayerTableRecord
  2
COORDINATE
 70
0
 62
7
  6
CONTINUOUS
370
-3
390
F
  0
LAYER
  5
200
100
AcDbSymbolTableRecord
100
AcDbLayerTableRecord
  2
COORD_ORIGINE
 70
0
 62
7
  6
CONTINUOUS
370
-3
390
F
  0
LAYER
  5
201
100
AcDbSymbolTableRecord
100
AcDbLayerTableRecord
  2
COSMETICI
 70
0
 62
7
  6
CONTINUOUS
370
-3
390
F
  0
LAYER
  5
202
100
AcDbSymbolTableRecord
100
AcDbLayerTableRecord
  2
CURVE
 70
0
 62
7
  6
CONTINUOUS
370
-3
390
F
  0
LAYER
  5
203
100
AcDbSymbolTableRecord
100
AcDbLayerTableRecord
  2
DRAFT
 70
0
 62
7
  6
CONTINUOUS
370
-3
390
F
  0
LAYER
  5
204
100
AcDbSymbolTableRecord
100
AcDbLayerTableRecord
  2
IGES_SCRITTE
 70
0
 62
7
  6
CONTINUOUS
370
-3
390
F
  0
LAYER
  5
205
100
AcDbSymbolTableRecord
100
AcDbLayerTableRecord
  2
INTF_1
 70
0
 62
7
  6
CONTINUOUS
370
-3
390
F
  0
LAYER
  5
206
100
AcDbSymbolTableRecord
100
AcDbLayerTableRecord
  2
INTF_7
 70
0
 62
7
  6
CONTINUOUS
370
-3
390
F
  0
LAYER
  5
207
100
AcDbSymbolTableRecord
100
AcDbLayerTableRecord
  2
NOTE
 70
0
 62
7
  6
CONTINUOUS
370
-3
390
F
  0
LAYER
  5
208
100
AcDbSymbolTableRecord
100
AcDbLayerTableRecord
  2
PIANI
 70
0
 62
7
  6
CONTINUOUS
370
-3
390
F
  0
LAYER
  5
209
100
AcDbSymbolTableRecord
100
AcDbLayerTableRecord
  2
PIANI_ORIGINE
 70
0
 62
7
  6
CONTINUOUS
370
-3
390
F
  0
LAYER
  5
20A
100
AcDbSymbolTableRecord
100
AcDbLayerTableRecord
  2
PUNTI
 70
0
 62
7
  6
CONTINUOUS
370
-3
390
F
  0
LAYER
  5
20B
100
AcDbSymbolTableRecord
100
AcDbLayerTableRecord
  2
RACCORDO
 70
0
 62
7
  6
CONTINUOUS
370
-3
390
F
  0
LAYER
  5
20C
100
AcDbSymbolTableRecord
100
AcDbLayerTableRecord
  2
RGB__255__255__255__
 70
0
 62
7
  6
CONTINUOUS
370
-3
390
F
  0
LAYER
  5
20D
100
AcDbSymbolTableRecord
100
AcDbLayerTableRecord
  2
RGB____0____0____0__
 70
0
 62
7
  6
CONTINUOUS
370
-3
390
F
  0
LAYER
  5
20E
100
AcDbSymbolTableRecord
100
AcDbLayerTableRecord
  2
SNAPLINE
 70
0
 62
7
  6
CONTINUOUS
370
-3
390
F
  0
LAYER
  5
20F
100
AcDbSymbolTableRecord
100
AcDbLayerTableRecord
  2
SUPERFICI
 70
0
 62
7
  6
CONTINUOUS
370
-3
390
F
  0
LAYER
  5
210
100
AcDbSymbolTableRecord
100
AcDbLayerTableRecord
  2
TRASH
 70
0
 62
7
  6
CONTINUOUS
370
-3
390
F
  0
LAYER
  5
211
100
AcDbSymbolTableRecord
100
AcDbLayerTableRecord
  2
XSEC_DATUMS
 70
0
 62
7
  6
CONTINUOUS
370
-3
390
F
  0
ENDTAB
  0
TABLE
  2
STYLE
  5
3
100
AcDbSymbolTable
 70
1
  0
STYLE
  5
11
100
AcDbSymbolTableRecord
100
AcDbTextStyleTableRecord
  2
STANDARD
 70
0
 40
0.0
 41
0.8
 50
0.0
 71
0
 42
0.2
  3
txt
  4

  0
STYLE
  5
212
100
AcDbSymbolTableRecord
100
AcDbTextStyleTableRecord
  2
TEXTSTYLE_1
 70
0
 40
0.0
 41
0.8
 50
0.0
 71
0
 42
0.2
  3
gdt
  4

  0
ENDTAB
  0
TABLE
  2
VIEW
  5
6
100
AcDbSymbolTable
 70
0
  0
ENDTAB
  0
TABLE
  2
UCS
  5
7
100
AcDbSymbolTable
 70
0
  0
ENDTAB
  0
TABLE
  2
APPID
  5
9
100
AcDbSymbolTable
 70
1
  0
APPID
  5
213
100
AcDbSymbolTableRecord
100
AcDbRegAppTableRecord
  2
ACAD
 70
0
  0
ENDTAB
  0
TABLE
  2
BLOCK_RECORD
  5
1
100
AcDbSymbolTable
 70
0
  0
BLOCK_RECORD
  5
214
100
AcDbSymbolTableRecord
100
AcDbBlockTableRecord
  2
*Model_Space
  0
BLOCK_RECORD
  5
215
100
AcDbSymbolTableRecord
100
AcDbBlockTableRecord
  2
*Paper_Space
  0
ENDTAB
  0
TABLE
  2
DIMSTYLE
  5
A
100
AcDbSymbolTable
 70
1
100
AcDbDimStyleTable
 71
0
  0
DIMSTYLE
105
216
100
AcDbSymbolTableRecord
100
AcDbDimStyleTableRecord
  2
STANDARD
 70
0
  3

  4

 40
1.0
 41
3.0
 42
0.5
 43
0.38
 44
1.5
 45
0.0
 46
0.0
 47
0.01
 48
0.01
140
3.0
141
0.09
142
0.0
143
25.4
144
1.0
145
0.0
146
1.0
147
0.625
 71
1.0
 72
0.0
 73
0
 74
0
 75
0
 76
0
 77
1
 78
8
170
0
171
2
172
0
173
0
174
0
175
0
176
0
177
0
178
0
270
2
271
2
272
2
273
2
274
2
275
0
280
0
281
0
282
0
283
1
284
8
285
0
286
0
287
3
288
0
340
11
278
44
  0
ENDTAB
  0
ENDSEC
  0
SECTION
  2
BLOCKS
  0
BLOCK
  5
20
100
AcDbEntity
  8
0
100
AcDbBlockBegin
  2
*Model_Space
 70
0
 10
0.0
 20
0.0
 30
0.0
  3
*Model_Space
  1

  0
ENDBLK
  5
21
100
AcDbEntity
  8
0
100
AcDbBlockEnd
  0
BLOCK
  5
1C
100
AcDbEntity
  8
0
100
AcDbBlockBegin
  2
*Paper_Space
 70
0
 10
0.0
 20
0.0
 30
0.0
  3
*Paper_Space
  1

  0
ENDBLK
  5
1D
100
AcDbEntity
  8
0
100
AcDbBlockEnd
  0
ENDSEC
  0
SECTION
  2
ENTITIES
  0
LWPOLYLINE
  5
217
100
AcDbEntity
  8
RACCORDO
100
AcDbPolyline
 62
7
  6
CONTINUOUS
 90
10
 70
0
 10
63.2327451197
 20
111.8746952866
 10
63.3453620186
 20
111.2504180043
 10
63.5136032685
 20
110.3599218044
 10
63.6912236977
 20
109.4669057746
 10
63.8782111582
 20
108.5714199229
 10
64.0745537056
 20
107.6735115274
 10
64.2802396292
 20
106.7732273086
 10
64.4952567112
 20
105.8706157239
 10
64.7195892098
 20
104.9657341126
 10
64.8801309017
 20
104.3388143492
  0
LWPOLYLINE
  5
218
100
AcDbEntity
  8
0
100
AcDbPolyline
 62
7
  6
CONTINUOUS
 90
9
 70
0
 10
63.2328946623
 20
111.8747196687
 10
63.213255276
 20
112.0266216124
 10
63.2078327827
 20
112.192967587
 10
63.2193579632
 20
112.3602774618
 10
63.247537934
 20
112.5285138137
 10
63.2918618994
 20
112.6948113021
 10
63.3521595944
 20
112.8582148137
 10
63.428601284
 20
113.0196794617
 10
63.5211869683
 20
113.1792052464
  0
LWPOLYLINE
  5
219
100
AcDbEntity
  8
RACCORDO
100
AcDbPolyline
 62
7
  6
CONTINUOUS
 90
10
 70
0
 10
64.8801846466
 20
104.3386072212
 10
64.9087723696
 20
104.23735852
 10
65.0002301639
 20
103.9854273372
 10
65.1181912252
 20
103.7428760478
 10
65.2615505415
 20
103.51255704
 10
65.4287696684
 20
103.29722398
 10
65.618608175
 20
103.0984647842
 10
65.8295882438
 20
102.9181056707
 10
66.0595890488
 20
102.7582456229
 10
66.3069468989
 20
102.620129154
  0
LWPOLYLINE
  5
21A
100
AcDbEntity
  8
RACCORDO
100
AcDbPolyline
 62
253
  6
CONTINUOUS
 90
13
 70
0
 10
64.8801309017
 20
104.3388143492
 10
64.8934111467
 20
104.2909289007
 10
64.9475561907
 20
104.136615565
 10
65.0175438455
 20
103.987416704
 10
65.103025724
 20
103.8440410088
 10
65.2036240325
 20
103.7073110384
 10
65.3187331417
 20
103.5780439497
 10
65.44763533
 20
103.4569332132
 10
65.589596754
 20
103.3447349206
 10
65.7438726104
 20
103.2421009711
 10
65.909625429
 20
103.1494748869
 10
66.0859761301
 20
103.0673665469
 10
66.2719903838
 20
102.9963518228
  0
LWPOLYLINE
  5
21B
100
AcDbEntity
  8
RACCORDO
100
AcDbPolyline
 62
253
  6
CONTINUOUS
 90
6
 70
0
 10
66.4848464262
 20
102.8428189483
 10
66.5080933152
 20
102.7573300509
 10
66.5361004738
 20
102.6808322569
 10
66.5687103585
 20
102.6137587415
 10
66.6057393964
 20
102.5564895479
 10
66.6469790141
 20
102.5093494243
  0
LWPOLYLINE
  5
21C
100
AcDbEntity
  8
0
100
AcDbPolyline
 62
253
  6
CONTINUOUS
 90
10
 70
0
 10
66.4664904514
 20
102.9368151001
 10
66.2561455879
 20
103.7608018158
 10
66.0537862098
 20
104.5825898253
 10
65.8594123169
 20
105.4021791285
 10
65.6730216518
 20
106.2195818234
 10
65.494616472
 20
107.034785812
 10
65.3242035503
 20
107.8477548009
 10
65.1617851445
 20
108.6584766924
 10
65.0073589968
 20
109.4669635842
 10
64.8609251073
 20
110.2732154764
  0
LWPOLYLINE
  5
21D
100
AcDbEntity
  8
RACCORDO
100
AcDbPolyline
 62
253
  6
CONTINUOUS
 90
7
 70
0
 10
70.9361152777
 20
88.3429126432
 10
70.9631524297
 20
88.213814128
 10
70.9996511403
 20
88.1017376768
 10
71.0452086543
 20
88.0079201105
 10
71.0993919504
 20
87.9333194365
 10
71.1615524689
 20
87.8788844197
 10
71.2334410426
 20
87.8444556389
  0
LWPOLYLINE
  5
21E
100
AcDbEntity
  8
RACCORDO
100
AcDbPolyline
 62
253
  6
CONTINUOUS
 90
7
 70
0
 10
67.6455366146
 20
102.2027020592
 10
68.1233604173
 20
99.9106331796
 10
68.6294263668
 20
97.6114059654
 10
69.1637344631
 20
95.3050204166
 10
69.7262847062
 20
92.9914765332
 10
70.3170770962
 20
90.6707743151
 10
70.9361116329
 20
88.3429137624
  0
LWPOLYLINE
  5
21F
100
AcDbEntity
  8
RACCORDO
100
AcDbPolyline
 62
7
  6
CONTINUOUS
 90
10
 70
0
 10
66.7272286338
 20
102.4509691929
 10
66.8451028827
 20
101.8824597987
 10
67.1863315803
 20
100.2834171478
 10
67.5412134065
 20
98.680671207
 10
67.909727628
 20
97.0743070868
 10
68.2918581946
 20
95.4643892495
 10
68.6875945965
 20
93.8509613565
 10
69.0969220513
 20
92.2340876025
 10
69.5198206373
 20
90.6138526245
 10
69.8904370252
 20
89.2322363912
  0
LWPOLYLINE
  5
220
100
AcDbEntity
  8
0
100
AcDbPolyline
 62
7
  6
CONTINUOUS
 90
11
 70
0
 10
65.2067388104
 20
112.1974278365
 10
65.211820176
 20
112.1720639063
 10
65.2343816204
 20
112.0977863581
 10
65.2676238884
 20
112.0255097011
 10
65.3104878382
 20
111.9575972495
 10
65.3632945045
 20
111.8941976909
 10
65.4257228525
 20
111.8351623377
 10
65.4957506364
 20
111.7824084406
 10
65.5727037743
 20
111.7365750831
 10
65.6572563482
 20
111.6970231817
 10
65.749408358
 20
111.6637527364
  0
LINE
  5
221
100
AcDbEntity
  8
RACCORDO
100
AcDbLine
 62
253
  6
CONTINUOUS
 10
66.4664904395
 20
102.9368151037
 11
66.4848464262
 21
102.8428189483
  0
LINE
  5
222
100
AcDbEntity
  8
0
100
AcDbLine
 62
253
  6
CONTINUOUS
 10
65.4116703399
 20
112.0298430953
 11
65.4518943099
 21
111.8154466435
  0
LINE
  5
223
100
AcDbEntity
  8
0
100
AcDbLine
 62
253
  6
CONTINUOUS
 10
65.3028275258
 20
112.6324115189
 11
65.4116703399
 21
112.0298430953
  0
LWPOLYLINE
  5
224
100
AcDbEntity
  8
0
100
AcDbPolyline
 62
7
  6
CONTINUOUS
 90
7
 70
0
 10
65.3028276724
 20
112.6324117489
 10
65.2609686465
 20
112.5569653065
 10
65.2297860645
 20
112.481007585
 10
65.2092799265
 20
112.4045385841
 10
65.1994487725
 20
112.3267209139
 10
65.2002940624
 20
112.2483919645
 10
65.2067388104
 20
112.1974278365
  0
LINE
  5
225
100
AcDbEntity
  8
0
100
AcDbLine
 62
7
  6
CONTINUOUS
 10
63.5211869683
 20
113.1792052464
 11
96.3767034158
 21
164.6256132139
  0
LINE
  5
226
100
AcDbEntity
  8
0
100
AcDbLine
 62
7
  6
CONTINUOUS
 10
65.3028276724
 20
112.6324117489
 11
76.6689025755
 21
130.4298409081
  0
LINE
  5
227
100
AcDbEntity
  8
0
100
AcDbLine
 62
7
  6
CONTINUOUS
 10
77.2016924533
 20
131.2641034118
 11
86.2591203748
 21
145.4465659745
  0
LINE
  5
228
100
AcDbEntity
  8
0
100
AcDbLine
 62
7
  6
CONTINUOUS
 10
86.7919102526
 20
146.2808284782
 11
98.1580611943
 21
164.0783767015
  0
LINE
  5
229
100
AcDbEntity
  8
0
100
AcDbLine
 62
7
  6
CONTINUOUS
 10
79.8436517069
 20
131.4047875288
 11
79.3108618291
 21
130.5705250251
  0
LINE
  5
22A
100
AcDbEntity
  8
0
100
AcDbLine
 62
7
  6
CONTINUOUS
 10
88.9010796284
 20
145.5872500914
 11
89.4338695062
 21
146.4215125951
  0
LWPOLYLINE
  5
22B
100
AcDbEntity
  8
0
100
AcDbPolyline
 62
7
  6
CONTINUOUS
 90
22
 70
0
 10
96.3767034158
 20
164.6256132139
 10
96.4848300215
 20
164.7803675817
 10
96.6058776171
 20
164.9281342843
 10
96.7398462025
 20
165.0689133218
 10
96.8876410785
 20
165.2034336749
 10
97.0483569443
 20
165.3309663629
 10
97.2192778979
 20
165.4493244435
 10
97.4005611521
 20
165.5583327082
 10
97.592049494
 20
165.6581663655
 10
97.790555383
 20
165.7471640991
 10
97.9961962396
 20
165.8251444473
 10
98.2088546432
 20
165.8922888717
 10
98.4249907918
 20
165.9474804408
 10
98.6446628283
 20
165.9905189925
 10
98.8678126098
 20
166.021604689
 10
99.090725905
 20
166.0402210848
 10
99.3134738301
 20
166.0461361053
 10
99.5359852691
 20
166.0395818252
 10
99.7543326421
 20
166.0207380227
 10
99.967206756
 20
165.9896646241
 10
100.1759168041
 20
165.9463017031
 10
100.3804627862
 20
165.8906492598
  0
LINE
  5
22C
100
AcDbEntity
  8
0
100
AcDbLine
 62
7
  6
CONTINUOUS
 10
79.3407865653
 20
129.6093312199
 11
79.3108618291
 21
130.5705250251
  0
LINE
  5
22D
100
AcDbEntity
  8
0
100
AcDbLine
 62
7
  6
CONTINUOUS
 10
99.4556554384
 20
156.2919832886
 11
92.5462239631
 21
145.4729346495
  0
LINE
  5
22E
100
AcDbEntity
  8
0
100
AcDbLine
 62
7
  6
CONTINUOUS
 10
87.7737814693
 20
138.0000640302
 11
82.9560061638
 21
130.4562095831
  0
LINE
  5
22F
100
AcDbEntity
  8
0
100
AcDbLine
 62
7
  6
CONTINUOUS
 10
78.18356367
 20
122.9833389638
 11
70.101034947
 21
110.3274103693
  0
LINE
  5
230
100
AcDbEntity
  8
0
100
AcDbLine
 62
7
  6
CONTINUOUS
 10
71.9680317765
 20
109.7540737303
 11
80.0505604994
 21
122.4100023249
  0
LINE
  5
231
100
AcDbEntity
  8
0
100
AcDbLine
 62
7
  6
CONTINUOUS
 10
83.6168287882
 20
127.9941998401
 11
84.8456693991
 21
129.918364858
  0
LINE
  5
232
100
AcDbEntity
  8
0
100
AcDbLine
 62
7
  6
CONTINUOUS
 10
85.3784592768
 20
130.7526273617
 11
89.6407782987
 21
137.4267273912
  0
LINE
  5
233
100
AcDbEntity
  8
0
100
AcDbLine
 62
7
  6
CONTINUOUS
 10
93.2070465875
 20
143.0109249065
 11
100.8500684834
 21
154.9786571195
  0
LWPOLYLINE
  5
234
100
AcDbEntity
  8
RACCORDO
100
AcDbPolyline
 62
7
  6
CONTINUOUS
 90
25
 70
0
 10
99.4556554384
 20
156.2919832886
 10
99.4867694323
 20
156.3370469332
 10
99.5212280323
 20
156.3803961857
 10
99.5590312385
 20
156.4220310461
 10
99.6003653313
 20
156.4621158869
 10
99.6450440303
 20
156.5004863357
 10
99.6925084944
 20
156.5366492741
 10
99.7427976601
 20
156.5705774409
 10
99.7958725909
 20
156.6022980974
 10
99.8510576367
 20
156.6313999103
 10
99.9083812815
 20
156.6578482037
 10
99.9678150413
 20
156.6816776536
 10
100.0285978141
 20
156.702580954
 10
100.0907475023
 20
156.720519165
 10
100.1542462035
 20
156.7355312266
 10
100.2182791095
 20
156.7474266522
 10
100.2828528208
 20
156.756163901
 10
100.3479607368
 20
156.7617845138
 10
100.4127682475
 20
156.7642226264
 10
100.4772682823
 20
156.7634364834
 10
100.5414679118
 20
156.7594678402
 10
100.6045537377
 20
156.7523760991
 10
100.6662546273
 20
156.7421810608
 10
100.7268417133
 20
156.7288629246
 10
100.7863149959
 20
156.7124216905
  0
LWPOLYLINE
  5
235
100
AcDbEntity
  8
RACCORDO
100
AcDbPolyline
 62
7
  6
CONTINUOUS
 90
8
 70
0
 10
70.5867978063
 20
88.1822183012
 10
70.4363988216
 20
88.3126881645
 10
70.2992500904
 20
88.4580130157
 10
70.1768391574
 20
88.6169444481
 10
70.0706405519
 20
88.7879260345
 10
69.981877302
 20
88.9693886197
 10
69.9116429228
 20
89.1596118463
 10
69.8900880068
 20
89.2335326834
  0
LWPOLYLINE
  5
236
100
AcDbEntity
  8
0
100
AcDbPolyline
 62
7
  6
CONTINUOUS
 90
3
 70
0
 10
83.6995338511
 20
106.1514430975
 10
83.3775316453
 20
107.3700034915
 10
82.619529355
 20
110.4018386162
  0
LWPOLYLINE
  5
237
100
AcDbEntity
  8
0
100
AcDbPolyline
 62
7
  6
CONTINUOUS
 90
10
 70
0
 10
78.18356367
 20
122.9833389638
 10
77.9837320472
 20
123.8192784146
 10
77.7917777137
 20
124.653113204
 10
77.6077006694
 20
125.4848433321
 10
77.4314919848
 20
126.314512699
 10
77.2631605895
 20
127.1420774046
 10
77.102733272
 20
127.9674057483
 10
76.950218962
 20
128.7904538301
 10
76.8056087298
 20
129.61126555
 10
76.6689025755
 20
130.4298409081
  0
LWPOLYLINE
  5
238
100
AcDbEntity
  8
0
100
AcDbPolyline
 62
7
  6
CONTINUOUS
 90
5
 70
0
 10
82.619529355
 20
110.4018386162
 10
81.9078039477
 20
113.4218585967
 10
81.2424459154
 20
116.4297216502
 10
80.623364766
 20
119.4257695595
 10
80.0505604994
 20
122.4100023249
  0
LINE
  5
239
100
AcDbEntity
  8
ASSI
100
AcDbLine
 62
7
  6
CONTINUOUS
 10
82.353543353
 20
110.722354755
 11
82.9946885121
 21
106.3678942726
  0
LINE
  5
23A
100
AcDbEntity
  8
0
100
AcDbLine
 62
7
  6
CONTINUOUS
 10
88.9310043646
 20
144.6260562863
 11
88.9010796284
 21
145.5872500914
  0
LWPOLYLINE
  5
23B
100
AcDbEntity
  8
0
100
AcDbPolyline
 62
7
  6
CONTINUOUS
 90
4
 70
0
 10
93.486243228
 20
134.4249507386
 10
93.4955964691
 20
134.4547121948
 10
93.5505238643
 20
134.5798494771
 10
93.6207205788
 20
134.703934406
  0
LWPOLYLINE
  5
23C
100
AcDbEntity
  8
ASSI
100
AcDbPolyline
 62
7
  6
CONTINUOUS
 90
6
 70
0
 10
92.8095351298
 20
133.6598223018
 10
92.7434558714
 20
133.5352188263
 10
92.6992081913
 20
133.410908985
 10
92.6767920896
 20
133.286892778
 10
92.6765669742
 20
133.1610823234
 10
92.6819352514
 20
133.1152068841
  0
LWPOLYLINE
  5
23D
100
AcDbEntity
  8
ASSI
100
AcDbPolyline
 62
7
  6
CONTINUOUS
 90
6
 70
0
 10
97.5228304932
 20
136.7028619687
 10
97.5889097517
 20
136.8274654442
 10
97.6331574318
 20
136.9517752855
 10
97.6555735335
 20
137.0757914925
 10
97.6557986488
 20
137.2016019471
 10
97.6504303717
 20
137.2474773865
  0
LWPOLYLINE
  5
23E
100
AcDbEntity
  8
ASSI
100
AcDbPolyline
 62
7
  6
CONTINUOUS
 90
7
 70
0
 10
97.6696404665
 20
135.7057738396
 10
97.704236678
 20
135.764974754
 10
97.7337341268
 20
135.8242982803
 10
97.758132813
 20
135.8837444186
 10
97.7774327365
 20
135.9433131689
 10
97.7916338973
 20
136.0030045311
 10
97.8007362955
 20
136.0628185054
  0
LINE
  5
23F
100
AcDbEntity
  8
0
100
AcDbLine
 62
7
  6
CONTINUOUS
 10
95.2070895797
 20
137.4140035684
 11
94.6235251134
 21
136.5002362973
  0
LINE
  5
240
100
AcDbEntity
  8
0
100
AcDbLine
 62
7
  6
CONTINUOUS
 10
93.3930995961
 20
134.573589573
 11
92.8095351298
 21
133.6598223018
  0
LINE
  5
241
100
AcDbEntity
  8
0
100
AcDbLine
 62
7
  6
CONTINUOUS
 10
95.1252760434
 20
132.9486807021
 11
95.7088405096
 21
133.8624479732
  0
LINE
  5
242
100
AcDbEntity
  8
0
100
AcDbLine
 62
7
  6
CONTINUOUS
 10
96.9392660269
 20
135.7890946975
 11
97.5228304932
 21
136.7028619687
  0
LINE
  5
243
100
AcDbEntity
  8
0
100
AcDbLine
 62
7
  6
CONTINUOUS
 10
112.8080764937
 20
160.4110044886
 11
110.3661873477
 21
156.5874022811
  0
LINE
  5
244
100
AcDbEntity
  8
0
100
AcDbLine
 62
7
  6
CONTINUOUS
 10
81.2847398545
 20
111.0505739548
 11
79.0649156667
 21
107.574689442
  0
LINE
  5
245
100
AcDbEntity
  8
0
100
AcDbLine
 62
7
  6
CONTINUOUS
 10
95.2720860166
 20
131.951592573
 11
95.8556504829
 21
132.8653598442
  0
LINE
  5
246
100
AcDbEntity
  8
0
100
AcDbLine
 62
7
  6
CONTINUOUS
 10
97.0860760002
 20
134.7920065685
 11
97.6696404665
 21
135.7057738396
  0
LINE
  5
247
100
AcDbEntity
  8
0
100
AcDbLine
 62
7
  6
CONTINUOUS
 10
80.1337191652
 20
107.2464702421
 11
82.353543353
 21
110.722354755
  0
LINE
  5
248
100
AcDbEntity
  8
0
100
AcDbLine
 62
7
  6
CONTINUOUS
 10
111.4349908462
 20
156.2591830812
 11
113.8768799922
 21
160.0827852887
  0
LWPOLYLINE
  5
249
100
AcDbEntity
  8
0
100
AcDbPolyline
 62
7
  6
CONTINUOUS
 90
10
 70
0
 10
93.6207205788
 20
134.703934406
 10
93.7060468262
 20
134.8233732019
 10
93.8027589479
 20
134.9356787995
 10
93.9108569437
 20
135.0408511989
 10
94.0313857467
 20
135.1395918911
 10
94.163300424
 20
135.231199385
 10
94.3034661765
 20
135.313569207
 10
94.4508380713
 20
135.385999866
 10
94.6064610414
 20
135.449192853
 10
94.7703350867
 20
135.5031481682
  0
LWPOLYLINE
  5
24A
100
AcDbEntity
  8
0
100
AcDbPolyline
 62
7
  6
CONTINUOUS
 90
10
 70
0
 10
97.0052649908
 20
133.6645736064
 10
96.9199387434
 20
133.5451348105
 10
96.8232266217
 20
133.4328292128
 10
96.7151286259
 20
133.3276568135
 10
96.5945998229
 20
133.2289161213
 10
96.4626851456
 20
133.1373086274
 10
96.3225193931
 20
133.0549388053
 10
96.1751474983
 20
132.9825081464
 10
96.0195245282
 20
132.9193151593
 10
95.8556504829
 20
132.8653598442
  0
LWPOLYLINE
  5
24B
100
AcDbEntity
  8
RACCORDO
100
AcDbPolyline
 62
7
  6
CONTINUOUS
 90
3
 70
0
 10
70.9216928093
 20
87.9697075319
 10
70.7490946394
 20
88.0675576407
 10
70.5867978063
 20
88.1822183012
  0
LWPOLYLINE
  5
24C
100
AcDbEntity
  8
RACCORDO
100
AcDbPolyline
 62
253
  6
CONTINUOUS
 90
7
 70
0
 10
66.6469790141
 20
102.5093494243
 10
66.667396779
 20
102.4910824983
 10
66.6886272012
 20
102.4750535162
 10
66.7106448844
 20
102.4612820152
 10
66.7334225262
 20
102.4497851696
 10
66.7569337502
 20
102.4405766591
 10
66.763290441
 20
102.438519351
  0
LWPOLYLINE
  5
24D
100
AcDbEntity
  8
RACCORDO
100
AcDbPolyline
 62
7
  6
CONTINUOUS
 90
8
 70
0
 10
83.3042858999
 20
130.1133365248
 10
83.2949052423
 20
130.1580683636
 10
83.2697311028
 20
130.2196247585
 10
83.2317663049
 20
130.2779388348
 10
83.1833481136
 20
130.3296993652
 10
83.1252556173
 20
130.3738026072
 10
83.0567097276
 20
130.4113523031
 10
82.9777104445
 20
130.4423484531
  0
LINE
  5
24E
100
AcDbEntity
  8
RACCORDO
100
AcDbLine
 62
253
  6
CONTINUOUS
 10
82.4449205668
 20
129.6080859494
 11
86.0027895284
 21
105.4441355929
  0
LINE
  5
24F
100
AcDbEntity
  8
RACCORDO
100
AcDbLine
 62
7
  6
CONTINUOUS
 10
83.3049156068
 20
130.1126181164
 11
86.9813158741
 21
105.143639632
  0
LINE
  5
250
100
AcDbEntity
  8
0
100
AcDbLine
 62
7
  6
CONTINUOUS
 10
96.0357635382
 20
111.9159751915
 11
95.8007663192
 21
102.4352718428
  0
LINE
  5
251
100
AcDbEntity
  8
0
100
AcDbLine
 62
7
  6
CONTINUOUS
 10
96.9264331204
 20
111.6424591916
 11
96.6914359014
 21
102.1617558429
  0
LINE
  5
252
100
AcDbEntity
  8
0
100
AcDbLine
 62
7
  6
CONTINUOUS
 10
114.7351197783
 20
152.4288788772
 11
113.819875607
 21
150.9957550028
  0
LWPOLYLINE
  5
253
100
AcDbEntity
  8
ASSI
100
AcDbPolyline
 62
7
  6
CONTINUOUS
 90
7
 70
0
 10
94.9789232393
 20
131.644317097
 10
95.0366779018
 20
131.6891904322
 10
95.0908748844
 20
131.736599465
 10
95.1415141873
 20
131.7865441956
 10
95.1885958102
 20
131.8390246237
 10
95.2321197534
 20
131.8940407495
 10
95.2720860166
 20
131.951592573
  0
LWPOLYLINE
  5
254
100
AcDbEntity
  8
ASSI
100
AcDbPolyline
 62
7
  6
CONTINUOUS
 90
9
 70
0
 10
91.3058973249
 20
103.8156025648
 10
91.0410419807
 20
104.6632379985
 10
89.9598935753
 20
108.3172563263
 10
88.9436232462
 20
111.957684332
 10
87.9924440487
 20
115.583738585
 10
87.1069951487
 20
119.1930687933
 10
86.2874896014
 20
122.7848915263
 10
85.5337143515
 20
126.3599902145
 10
84.8456693991
 20
129.918364858
  0
LWPOLYLINE
  5
255
100
AcDbEntity
  8
0
100
AcDbPolyline
 62
7
  6
CONTINUOUS
 90
10
 70
0
 10
87.7737814693
 20
138.0000640302
 10
87.5739498465
 20
138.836003481
 10
87.381995513
 20
139.6698382704
 10
87.1979184687
 20
140.5015683985
 10
87.0217097841
 20
141.3312377655
 10
86.8533783887
 20
142.1588024711
 10
86.6929510713
 20
142.9841308149
 10
86.5404367612
 20
143.8071788966
 10
86.3958265291
 20
144.6279906165
 10
86.2591203748
 20
145.4465659745
  0
LWPOLYLINE
  5
256
100
AcDbEntity
  8
RACCORDO
100
AcDbPolyline
 62
7
  6
CONTINUOUS
 90
4
 70
0
 10
91.3993045573
 20
128.9036841058
 10
91.0070803636
 20
130.6385551044
 10
90.2941402913
 20
134.0402700798
 10
89.6407782987
 20
137.4267273912
  0
LWPOLYLINE
  5
257
100
AcDbEntity
  8
ASSI
100
AcDbPolyline
 62
7
  6
CONTINUOUS
 90
6
 70
0
 10
91.9496798151
 20
133.688559013
 10
91.9535479748
 20
133.6633041712
 10
92.0023481684
 20
133.4439048776
 10
92.078094096
 20
133.2305162588
 10
92.1801599704
 20
133.0230003562
 10
92.3061481859
 20
132.8262685879
  0
LINE
  5
258
100
AcDbEntity
  8
ASSI
100
AcDbLine
 62
7
  6
CONTINUOUS
 10
95.9088684571
 20
106.7965332412
 11
91.9492588786
 21
133.6889821535
  0
LINE
  5
259
100
AcDbEntity
  8
ASSI
100
AcDbLine
 62
7
  6
CONTINUOUS
 10
96.0021633287
 20
110.5604118345
 11
92.6812720342
 21
133.1148828524
  0
LINE
  5
25A
100
AcDbEntity
  8
RACCORDO
100
AcDbLine
 62
253
  6
CONTINUOUS
 10
92.0351383661
 20
144.6248110157
 11
93.2933904399
 21
136.0791504039
  0
LINE
  5
25B
100
AcDbEntity
  8
0
100
AcDbLine
 62
7
  6
CONTINUOUS
 10
98.3995950966
 20
101.6371967026
 11
96.9264331204
 21
111.6424591916
  0
LWPOLYLINE
  5
25C
100
AcDbEntity
  8
0
100
AcDbPolyline
 62
7
  6
CONTINUOUS
 90
25
 70
0
 10
104.8778644628
 20
111.9363284951
 10
104.7790278714
 20
113.9464890827
 10
104.6733963965
 20
115.9413204296
 10
104.5609254501
 20
117.920351914
 10
104.4413603827
 20
119.8831653457
 10
104.3148781427
 20
121.8292475949
 10
104.1820859765
 20
123.7579894697
 10
104.042976886
 20
125.6689457647
 10
103.8974997525
 20
127.5616482009
 10
103.7462004523
 20
129.4354575733
 10
103.5890879335
 20
131.2899029855
 10
103.4261190897
 20
133.1245656827
 10
103.2577668912
 20
134.9388899749
 10
103.0840543301
 20
136.7323661826
 10
102.9049462265
 20
138.5046379895
 10
102.7208271362
 20
140.2553779521
 10
102.5317178318
 20
141.9841344508
 10
102.3375952893
 20
143.6905030827
 10
102.138770901
 20
145.3742172071
 10
101.9352671833
 20
147.0348496866
 10
101.7270676029
 20
148.6719779603
 10
101.5144169584
 20
150.2853303535
 10
101.2973992727
 20
151.8745314026
 10
101.0759451492
 20
153.4391119639
 10
100.8500684834
 20
154.9786571195
  0
LWPOLYLINE
  5
25D
100
AcDbEntity
  8
ASSI
100
AcDbPolyline
 62
7
  6
CONTINUOUS
 90
17
 70
0
 10
94.4475361701
 20
136.5733436046
 10
94.157345119
 20
136.4862860036
 10
93.878571876
 20
136.3817667875
 10
93.6114896982
 20
136.25937191
 10
93.3558253285
 20
136.1195154173
 10
93.1176150068
 20
135.9655091709
 10
92.8972742088
 20
135.7970177701
 10
92.6943874589
 20
135.6143766156
 10
92.5137445706
 20
135.4219037699
 10
92.3558740111
 20
135.2193660574
 10
92.2202473132
 20
135.0069966539
 10
92.110068889
 20
134.7898131487
 10
92.0259429038
 20
134.5677008971
 10
91.9672651924
 20
134.3407745439
 10
91.9354276715
 20
134.114395613
 10
91.9310677279
 20
133.8885761809
 10
91.9496798151
 20
133.688559013
  0
LWPOLYLINE
  5
25E
100
AcDbEntity
  8
0
100
AcDbPolyline
 62
7
  6
CONTINUOUS
 90
5
 70
0
 10
179.85341994
 20
77.4672830718
 10
179.8018861813
 20
77.453460491
 10
179.7486642899
 20
77.4466773821
 10
179.6943194394
 20
77.4472512371
 10
179.6382864561
 20
77.454864564
  0
LWPOLYLINE
  5
25F
100
AcDbEntity
  8
0
100
AcDbPolyline
 62
7
  6
CONTINUOUS
 90
3
 70
0
 10
179.1004548374
 20
77.4708823142
 10
179.0013352466
 20
77.445345213
 10
178.9131166815
 20
77.4093767654
  0
LWPOLYLINE
  5
260
100
AcDbEntity
  8
RACCORDO
100
AcDbPolyline
 62
7
  6
CONTINUOUS
 90
9
 70
0
 10
187.7291615655
 20
52.0697484714
 10
187.9190313178
 20
52.0214790348
 10
188.1131267627
 20
51.9919746735
 10
188.3095690878
 20
51.9816409734
 10
188.5068037887
 20
51.9907250767
 10
188.7025811042
 20
52.0192910982
 10
188.8941969745
 20
52.0669459178
 10
189.0804414033
 20
52.1333710818
 10
189.2647172632
 20
52.2208145257
  0
LINE
  5
261
100
AcDbEntity
  8
RACCORDO
100
AcDbLine
 62
7
  6
CONTINUOUS
 10
71.2334265745
 20
87.8444600814
 11
187.7291615655
 21
52.0697484714
  0
LINE
  5
262
100
AcDbEntity
  8
RACCORDO
100
AcDbLine
 62
253
  6
CONTINUOUS
 10
70.9361116329
 20
88.3429137624
 11
187.4318539134
 21
52.5681999139
  0
LWPOLYLINE
  5
263
100
AcDbEntity
  8
RACCORDO
100
AcDbPolyline
 62
253
  6
CONTINUOUS
 90
10
 70
0
 10
70.9361152777
 20
88.3429126431
 10
70.7577067638
 20
88.3976928574
 10
70.5905849654
 20
88.4649059479
 10
70.4369273021
 20
88.5451736145
 10
70.2985314215
 20
88.6398425187
 10
70.1767586922
 20
88.7478505266
 10
70.0730203001
 20
88.8659357144
 10
69.9884322441
 20
88.9938583345
 10
69.9237432732
 20
89.1309949616
 10
69.8903407035
 20
89.2326009456
  0
LWPOLYLINE
  5
264
100
AcDbEntity
  8
RACCORDO
100
AcDbPolyline
 62
253
  6
CONTINUOUS
 90
16
 70
0
 10
187.4318502687
 20
52.5682010331
 10
187.6243745145
 20
52.5063651559
 10
187.8233258253
 20
52.4617012538
 10
188.0271941077
 20
52.4339772979
 10
188.2348628629
 20
52.4224935616
 10
188.4443367197
 20
52.4276678002
 10
188.6523582266
 20
52.4505256164
 10
188.8562296381
 20
52.4899520843
 10
189.0543700398
 20
52.5451204484
 10
189.2446587426
 20
52.6167998989
 10
189.4245869214
 20
52.7033248313
 10
189.5922597617
 20
52.8030537023
 10
189.7462233244
 20
52.9165835489
 10
189.8846561553
 20
53.0426888795
 10
190.0056765473
 20
53.1781791692
 10
190.107911203
 20
53.3205403241
  0
LWPOLYLINE
  5
265
100
AcDbEntity
  8
RACCORDO
100
AcDbPolyline
 62
7
  6
CONTINUOUS
 90
3
 70
0
 10
71.2336744032
 20
87.8443841089
 10
71.102685696
 20
87.8896133192
 10
70.9216928093
 20
87.9697075319
  0
LWPOLYLINE
  5
266
100
AcDbEntity
  8
RACCORDO
100
AcDbPolyline
 62
7
  6
CONTINUOUS
 90
8
 70
0
 10
92.8945036992
 20
145.1300615911
 10
92.8851230416
 20
145.17479343
 10
92.859948902
 20
145.2363498248
 10
92.8219841042
 20
145.2946639012
 10
92.7735659129
 20
145.3464244316
 10
92.7154734166
 20
145.3905276735
 10
92.6469275269
 20
145.4280773695
 10
92.5679282438
 20
145.4590735194
  0
LWPOLYLINE
  5
267
100
AcDbEntity
  8
ASSI
100
AcDbPolyline
 62
7
  6
CONTINUOUS
 90
21
 70
0
 10
92.6819352514
 20
133.1152068841
 10
92.6981734372
 20
133.0355655031
 10
92.7405332548
 20
132.9166059626
 10
92.8046995969
 20
132.8045364643
 10
92.8896192936
 20
132.6990242458
 10
92.9910546109
 20
132.6053346665
 10
93.1098436666
 20
132.5240676897
 10
93.2451483429
 20
132.4546233519
 10
93.3902165524
 20
132.400467123
 10
93.5455437648
 20
132.3623748281
 10
93.7106345103
 20
132.339570642
 10
93.8772502921
 20
132.3331925583
 10
94.0454685012
 20
132.344074152
 10
94.2152117465
 20
132.3713818481
 10
94.3780093582
 20
132.4137529151
 10
94.5335088664
 20
132.4719517734
 10
94.6820627411
 20
132.5452140026
 10
94.8162577222
 20
132.6298836093
 10
94.9336227229
 20
132.7247419293
 10
95.0366288299
 20
132.8310076269
 10
95.1252760434
 20
132.9486807021
  0
LWPOLYLINE
  5
268
100
AcDbEntity
  8
ASSI
100
AcDbPolyline
 62
7
  6
CONTINUOUS
 90
21
 70
0
 10
97.6504303717
 20
137.2474773865
 10
97.6341921858
 20
137.3271187675
 10
97.5918323683
 20
137.4460783079
 10
97.5276660261
 20
137.5581478063
 10
97.4427463294
 20
137.6636600247
 10
97.3413110122
 20
137.757349604
 10
97.2225219564
 20
137.8386165809
 10
97.0872172801
 20
137.9080609186
 10
96.9421490706
 20
137.9622171475
 10
96.7868218582
 20
138.0003094424
 10
96.6217311127
 20
138.0231136285
 10
96.4551153309
 20
138.0294917123
 10
96.2868971219
 20
138.0186101185
 10
96.1171538766
 20
137.9913024224
 10
95.9543562648
 20
137.9489313554
 10
95.7988567566
 20
137.8907324971
 10
95.6503028819
 20
137.817470268
 10
95.5161079009
 20
137.7328006612
 10
95.3987429002
 20
137.6379423412
 10
95.2957367931
 20
137.5316766436
 10
95.2070895797
 20
137.4140035684
  0
LWPOLYLINE
  5
269
100
AcDbEntity
  8
ASSI
100
AcDbPolyline
 62
7
  6
CONTINUOUS
 90
8
 70
0
 10
98.6763057545
 20
134.6799489994
 10
98.6724375948
 20
134.7052038412
 10
98.6236374012
 20
134.9246031347
 10
98.5478914736
 20
135.1379917535
 10
98.4458255992
 20
135.3455076561
 10
98.3198373837
 20
135.5422394245
 10
98.1707260288
 20
135.7265499191
 10
97.9976923327
 20
135.9000762794
  0
LINE
  5
26A
100
AcDbEntity
  8
RACCORDO
100
AcDbLine
 62
7
  6
CONTINUOUS
 10
92.895133406
 20
145.1293431827
 11
94.16728688
 21
136.4892685417
  0
LINE
  5
26B
100
AcDbEntity
  8
ASSI
100
AcDbLine
 62
7
  6
CONTINUOUS
 10
99.4443732943
 20
101.3163554398
 11
94.9789232393
 21
131.644317097
  0
LINE
  5
26C
100
AcDbEntity
  8
ASSI
100
AcDbLine
 62
253
  6
CONTINUOUS
 10
95.1252760434
 20
132.9486807021
 11
95.2720860166
 21
131.951592573
  0
LINE
  5
26D
100
AcDbEntity
  8
0
100
AcDbLine
 62
7
  6
CONTINUOUS
 10
94.6235251134
 20
136.5002362973
 11
94.7703350867
 21
135.5031481682
  0
LINE
  5
26E
100
AcDbEntity
  8
0
100
AcDbLine
 62
7
  6
CONTINUOUS
 10
95.7088405096
 20
133.8624479732
 11
95.8556504829
 21
132.8653598442
  0
LINE
  5
26F
100
AcDbEntity
  8
0
100
AcDbLine
 62
7
  6
CONTINUOUS
 10
96.9392660269
 20
135.7890946975
 11
97.0860760002
 21
134.7920065685
  0
LINE
  5
270
100
AcDbEntity
  8
ASSI
100
AcDbLine
 62
253
  6
CONTINUOUS
 10
97.5228304932
 20
136.7028619687
 11
97.6696404665
 21
135.7057738396
  0
LINE
  5
271
100
AcDbEntity
  8
0
100
AcDbLine
 62
7
  6
CONTINUOUS
 10
102.8951889744
 20
100.2566433758
 11
101.0225488621
 21
112.9750383468
  0
LINE
  5
272
100
AcDbEntity
  8
ASSI
100
AcDbLine
 62
7
  6
CONTINUOUS
 10
97.8250420187
 20
136.0663972488
 11
97.6510935888
 21
137.2478014181
  0
LINE
  5
273
100
AcDbEntity
  8
ASSI
100
AcDbLine
 62
7
  6
CONTINUOUS
 10
101.9270963031
 20
112.6040163908
 11
98.676726691
 21
134.6795258588
  0
LWPOLYLINE
  5
274
100
AcDbEntity
  8
0
100
AcDbPolyline
 62
7
  6
CONTINUOUS
 90
8
 70
0
 10
97.1927800139
 20
134.460584138
 10
97.1974054884
 20
134.4248684807
 10
97.2036489945
 20
134.2975377937
 10
97.1944827451
 20
134.1682354468
 10
97.1700471764
 20
134.0399854533
 10
97.1303891005
 20
133.9137958176
 10
97.0754617053
 20
133.7886585353
 10
97.0052649908
 20
133.6645736064
  0
LINE
  5
275
100
AcDbEntity
  8
ASSI
100
AcDbLine
 62
7
  6
CONTINUOUS
 10
104.9246021451
 20
109.5634584724
 11
104.4324941515
 21
106.4163883167
  0
LINE
  5
276
100
AcDbEntity
  8
ASSI
100
AcDbLine
 62
7
  6
CONTINUOUS
 10
104.9444787775
 20
109.4284625058
 11
104.4620615026
 21
106.3433652748
  0
LINE
  5
277
100
AcDbEntity
  8
ASSI
100
AcDbLine
 62
7
  6
CONTINUOUS
 10
105.2250770551
 20
107.0674371493
 11
105.5837305906
 21
109.3610465124
  0
LINE
  5
278
100
AcDbEntity
  8
ASSI
100
AcDbLine
 62
7
  6
CONTINUOUS
 10
109.578974882
 20
106.9452230321
 11
109.1608978032
 21
104.7715241477
  0
LINE
  5
279
100
AcDbEntity
  8
ASSI
100
AcDbLine
 62
7
  6
CONTINUOUS
 10
109.5988515145
 20
106.8102270655
 11
109.2051035233
 21
104.7630218669
  0
LINE
  5
27A
100
AcDbEntity
  8
ASSI
100
AcDbLine
 62
7
  6
CONTINUOUS
 10
110.0411476864
 20
105.7187470909
 11
110.4540178553
 21
107.8654284765
  0
LWPOLYLINE
  5
27B
100
AcDbEntity
  8
0
100
AcDbPolyline
 62
7
  6
CONTINUOUS
 90
7
 70
0
 10
101.2774688734
 20
113.3125370933
 10
101.3138862234
 20
113.3713410682
 10
101.3483414036
 20
113.4304714537
 10
101.380834414
 20
113.4899282495
 10
101.4113652547
 20
113.5497114558
 10
101.4399339257
 20
113.6098210726
 10
101.4665404269
 20
113.6702570999
  0
LINE
  5
27C
100
AcDbEntity
  8
0
100
AcDbLine
 62
7
  6
CONTINUOUS
 10
101.4994646122
 20
113.6601464015
 11
101.0554730474
 21
112.9649276485
  0
LWPOLYLINE
  5
27D
100
AcDbEntity
  8
0
100
AcDbPolyline
 62
7
  6
CONTINUOUS
 90
7
 70
0
 10
101.0225488621
 20
112.9750383468
 10
101.0691026885
 20
113.0291840446
 10
101.1140296487
 20
113.0841713749
 10
101.1573297428
 20
113.1400003379
 10
101.1990029707
 20
113.1966709335
 10
101.2390493325
 20
113.2541831617
 10
101.2774688282
 20
113.3125370226
  0
LINE
  5
27E
100
AcDbEntity
  8
0
100
AcDbLine
 62
7
  6
CONTINUOUS
 10
179.937692584
 20
77.4312751507
 11
179.8610472576
 21
77.4179223899
  0
LWPOLYLINE
  5
27F
100
AcDbEntity
  8
0
100
AcDbPolyline
 62
7
  6
CONTINUOUS
 90
3
 70
0
 10
179.6418244976
 20
78.2320193802
 10
179.5498371918
 20
78.2160261337
 10
179.4607430281
 20
78.1879563381
  0
LINE
  5
280
100
AcDbEntity
  8
0
100
AcDbLine
 62
7
  6
CONTINUOUS
 10
179.2104754538
 20
77.4859880691
 11
179.1004548374
 21
77.4708823142
  0
LWPOLYLINE
  5
281
100
AcDbEntity
  8
RACCORDO
100
AcDbPolyline
 62
7
  6
CONTINUOUS
 90
16
 70
0
 10
187.5721792522
 20
65.3415763381
 10
187.8427903672
 20
65.2819009208
 10
188.1217090828
 20
65.2455070956
 10
188.406287513
 20
65.2332000851
 10
188.6904412645
 20
65.2453448276
 10
188.9737049567
 20
65.2817383747
 10
189.2549964035
 20
65.342718012
 10
189.5276008099
 20
65.426927319
 10
189.7904445544
 20
65.5338054141
 10
190.0429379123
 20
65.6634310869
 10
190.2795877577
 20
65.8129688807
 10
190.4988132864
 20
65.9810961615
 10
190.7002128258
 20
66.1673351182
 10
190.8802873056
 20
66.3682017644
 10
191.0374216067
 20
66.5807756621
 10
191.0685106675
 20
66.6283233678
  0
LINE
  5
282
100
AcDbEntity
  8
RACCORDO
100
AcDbLine
 62
7
  6
CONTINUOUS
 10
66.3069468989
 20
102.620129154
 11
66.5703753431
 21
102.5048997369
  0
LWPOLYLINE
  5
283
100
AcDbEntity
  8
0
100
AcDbPolyline
 62
7
  6
CONTINUOUS
 90
4
 70
0
 10
97.0860760002
 20
134.7920065685
 10
97.1385955852
 20
134.6715988658
 10
97.1757054145
 20
134.5492195033
 10
97.1927800139
 20
134.460584138
  0
LINE
  5
284
100
AcDbEntity
  8
0
100
AcDbLine
 62
7
  6
CONTINUOUS
 10
101.0554730474
 20
112.9649276485
 11
106.6705500759
 21
99.0972665571
  0
LINE
  5
285
100
AcDbEntity
  8
0
100
AcDbLine
 62
7
  6
CONTINUOUS
 10
101.4994646122
 20
113.6601464015
 11
107.4990571874
 21
98.8428400497
  0
LWPOLYLINE
  5
286
100
AcDbEntity
  8
0
100
AcDbPolyline
 62
253
  6
CONTINUOUS
 90
13
 70
0
 10
99.4556555251
 20
156.2919834244
 10
99.3355998925
 20
156.9647589921
 10
99.217687395
 20
157.6332484899
 10
99.1019280405
 20
158.2974318939
 10
98.9883368823
 20
158.9572858552
 10
98.8769184087
 20
159.6127936642
 10
98.767667147
 20
160.2639450885
 10
98.6605936592
 20
160.91071853
 10
98.5557073993
 20
161.5530951199
 10
98.4530022499
 20
162.1910683648
 10
98.3524833376
 20
162.8246223685
 10
98.2541663084
 20
163.4537320354
 10
98.1580612961
 20
164.0783768605
  0
LWPOLYLINE
  5
287
100
AcDbEntity
  8
0
100
AcDbPolyline
 62
253
  6
CONTINUOUS
 90
13
 70
0
 10
100.7863148227
 20
156.7124217437
 10
100.6667843276
 20
157.3853635025
 10
100.549379624
 20
158.0540115693
 10
100.4340996609
 20
158.7183424496
 10
100.3209379073
 20
159.3783248457
 10
100.2098990724
 20
160.0339433042
 10
100.1009987618
 20
160.6851977111
 10
99.9942357398
 20
161.3320622706
 10
99.8896091736
 20
161.9745153097
 10
99.7871346926
 20
162.6125619427
 10
99.6868165368
 20
163.2461874963
 10
99.588647976
 20
163.8753581406
 10
99.4926279164
 20
164.5000497469
  0
LINE
  5
288
100
AcDbEntity
  8
ASSI
100
AcDbLine
 62
7
  6
CONTINUOUS
 10
105.2250770551
 20
107.0674371493
 11
105.2449536876
 21
106.9324411826
  0
LINE
  5
289
100
AcDbEntity
  8
ASSI
100
AcDbLine
 62
7
  6
CONTINUOUS
 10
104.9246021451
 20
109.5634584724
 11
104.9444787775
 21
109.4284625058
  0
LINE
  5
28A
100
AcDbEntity
  8
0
100
AcDbLine
 62
7
  6
CONTINUOUS
 10
107.7581040696
 20
100.1075439113
 11
107.7779807021
 21
99.9725479447
  0
LINE
  5
28B
100
AcDbEntity
  8
0
100
AcDbLine
 62
7
  6
CONTINUOUS
 10
108.3126714689
 20
99.9372416356
 11
108.3325481014
 21
99.802245669
  0
LINE
  5
28C
100
AcDbEntity
  8
ASSI
100
AcDbLine
 62
7
  6
CONTINUOUS
 10
107.0408508856
 20
108.9135789863
 11
107.060727518
 21
108.7785830197
  0
LINE
  5
28D
100
AcDbEntity
  8
0
100
AcDbLine
 62
7
  6
CONTINUOUS
 10
108.7273254464
 20
98.5070791011
 11
108.7337141709
 21
98.4636888513
  0
LINE
  5
28E
100
AcDbEntity
  8
0
100
AcDbLine
 62
7
  6
CONTINUOUS
 10
109.3165950324
 20
99.6289464352
 11
109.3364716649
 21
99.4939504686
  0
LINE
  5
28F
100
AcDbEntity
  8
ASSI
100
AcDbLine
 62
7
  6
CONTINUOUS
 10
108.1393902788
 20
108.5762281813
 11
108.1592669113
 21
108.4412322146
  0
LINE
  5
290
100
AcDbEntity
  8
0
100
AcDbLine
 62
7
  6
CONTINUOUS
 10
110.4532212383
 20
99.279899539
 11
110.4730978707
 21
99.1449035723
  0
LINE
  5
291
100
AcDbEntity
  8
ASSI
100
AcDbLine
 62
7
  6
CONTINUOUS
 10
109.578974882
 20
106.9452230321
 11
109.5988515145
 21
106.8102270655
  0
LINE
  5
292
100
AcDbEntity
  8
ASSI
100
AcDbLine
 62
7
  6
CONTINUOUS
 10
109.4576053084
 20
108.1714171165
 11
109.4774819409
 21
108.0364211498
  0
LINE
  5
293
100
AcDbEntity
  8
0
100
AcDbLine
 62
7
  6
CONTINUOUS
 10
110.8771550206
 20
99.1497135815
 11
110.8970316531
 21
99.0147176148
  0
LINE
  5
294
100
AcDbEntity
  8
ASSI
100
AcDbLine
 62
7
  6
CONTINUOUS
 10
110.0411476864
 20
105.7187470909
 11
110.0610243189
 21
105.5837511242
  0
LINE
  5
295
100
AcDbEntity
  8
0
100
AcDbLine
 62
7
  6
CONTINUOUS
 10
111.3027346087
 20
98.8269168861
 11
111.3226112411
 21
98.6919209194
  0
LINE
  5
296
100
AcDbEntity
  8
0
100
AcDbLine
 62
7
  6
CONTINUOUS
 10
112.1705885956
 20
97.8075514501
 11
112.1904652281
 21
97.6725554834
  0
LINE
  5
297
100
AcDbEntity
  8
0
100
AcDbLine
 62
7
  6
CONTINUOUS
 10
112.6278092206
 20
97.4750380987
 11
112.647685853
 21
97.3400421321
  0
LINE
  5
298
100
AcDbEntity
  8
0
100
AcDbLine
 62
7
  6
CONTINUOUS
 10
112.6408710417
 20
97.663132267
 11
112.6607476741
 21
97.5281363003
  0
LINE
  5
299
100
AcDbEntity
  8
ASSI
100
AcDbLine
 62
7
  6
CONTINUOUS
 10
111.4843950071
 20
106.3600869713
 11
111.5042716395
 21
106.2250910047
  0
LINE
  5
29A
100
AcDbEntity
  8
0
100
AcDbLine
 62
7
  6
CONTINUOUS
 10
108.3746877591
 20
99.6168544749
 11
108.5226642944
 21
98.5285002238
  0
LINE
  5
29B
100
AcDbEntity
  8
DRAFT
100
AcDbLine
 62
7
  6
CONTINUOUS
 10
112.8861384716
 20
97.1885195771
 11
112.701174508
 21
98.5689161106
  0
LINE
  5
29C
100
AcDbEntity
  8
0
100
AcDbLine
 62
7
  6
CONTINUOUS
 10
108.7273254464
 20
98.5070791011
 11
108.5552399856
 21
99.8627511941
  0
LWPOLYLINE
  5
29D
100
AcDbEntity
  8
DRAFT
100
AcDbPolyline
 62
7
  6
CONTINUOUS
 90
7
 70
0
 10
118.1164038988
 20
99.3660916217
 10
118.1345284582
 20
99.1563896445
 10
118.1257210172
 20
98.9600385183
 10
118.0927804717
 20
98.7655935966
 10
118.0357495793
 20
98.575055303
 10
117.9545855823
 20
98.3864232139
 10
117.8492884809
 20
98.1996973294
  0
LWPOLYLINE
  5
29E
100
AcDbEntity
  8
DRAFT
100
AcDbPolyline
 62
7
  6
CONTINUOUS
 90
7
 70
0
 10
112.7012593781
 20
98.5685912579
 10
112.688684069
 20
98.7401821998
 10
112.69749151
 20
98.936533326
 10
112.7304320555
 20
99.1309782477
 10
112.787462948
 20
99.3215165413
 10
112.8686269449
 20
99.5101486304
 10
112.9739240463
 20
99.6968745149
  0
LINE
  5
29F
100
AcDbEntity
  8
ASSI
100
AcDbLine
 62
7
  6
CONTINUOUS
 10
116.6014829674
 20
103.8364179682
 11
116.6514804617
 21
102.4712482165
  0
LINE
  5
2A0
100
AcDbEntity
  8
ASSI
100
AcDbLine
 62
7
  6
CONTINUOUS
 10
116.6213595999
 20
103.7014220016
 11
116.6663930474
 21
102.4717943698
  0
LINE
  5
2A1
100
AcDbEntity
  8
ASSI
100
AcDbLine
 62
7
  6
CONTINUOUS
 10
117.3938814471
 20
102.2432725575
 11
117.3407782154
 21
103.6933532286
  0
LWPOLYLINE
  5
2A2
100
AcDbEntity
  8
0
100
AcDbPolyline
 62
7
  6
CONTINUOUS
 90
5
 70
0
 10
114.2196263267
 20
97.9221089072
 10
114.223523152
 20
97.9771746945
 10
114.2497964454
 20
98.0919460604
 10
114.2939594951
 20
98.2063692932
 10
114.3560123011
 20
98.3204443929
  0
LINE
  5
2A3
100
AcDbEntity
  8
0
100
AcDbLine
 62
7
  6
CONTINUOUS
 10
112.8186462726
 20
97.2092457776
 11
112.8484330745
 21
97.4699170903
  0
LINE
  5
2A4
100
AcDbEntity
  8
0
100
AcDbLine
 62
7
  6
CONTINUOUS
 10
112.6278092206
 20
97.4750380987
 11
112.6005471636
 21
97.276221901
  0
LINE
  5
2A5
100
AcDbEntity
  8
0
100
AcDbLine
 62
7
  6
CONTINUOUS
 10
112.647685853
 20
97.3400421321
 11
112.637383564
 21
97.2649097993
  0
LINE
  5
2A6
100
AcDbEntity
  8
0
100
AcDbLine
 62
7
  6
CONTINUOUS
 10
112.7341775789
 20
98.322612324
 11
112.6408710417
 21
97.663132267
  0
LINE
  5
2A7
100
AcDbEntity
  8
0
100
AcDbLine
 62
7
  6
CONTINUOUS
 10
112.7531358631
 20
98.1811255757
 11
112.6607476741
 21
97.5281363003
  0
LINE
  5
2A8
100
AcDbEntity
  8
ASSI
100
AcDbLine
 62
7
  6
CONTINUOUS
 10
114.016592827
 20
105.6841356369
 11
113.8593411168
 21
104.6785031648
  0
LINE
  5
2A9
100
AcDbEntity
  8
ASSI
100
AcDbLine
 62
7
  6
CONTINUOUS
 10
113.7603923171
 20
104.0456011976
 11
113.6579515749
 21
103.3905319365
  0
LINE
  5
2AA
100
AcDbEntity
  8
ASSI
100
AcDbLine
 62
7
  6
CONTINUOUS
 10
114.0364694595
 20
105.5491396703
 11
113.8792177493
 21
104.5435071981
  0
LINE
  5
2AB
100
AcDbEntity
  8
ASSI
100
AcDbLine
 62
7
  6
CONTINUOUS
 10
113.7802689495
 20
103.910605231
 11
113.6979606554
 21
103.3842752547
  0
LINE
  5
2AC
100
AcDbEntity
  8
ASSI
100
AcDbLine
 62
7
  6
CONTINUOUS
 10
114.3170757531
 20
103.1881118522
 11
114.837946366
 21
106.5191749935
  0
LINE
  5
2AD
100
AcDbEntity
  8
ASSI
100
AcDbLine
 62
7
  6
CONTINUOUS
 10
108.1393902788
 20
108.5762281813
 11
106.5603908423
 21
105.5701061506
  0
LINE
  5
2AE
100
AcDbEntity
  8
ASSI
100
AcDbLine
 62
7
  6
CONTINUOUS
 10
108.1592669113
 20
108.4412322146
 11
106.6315444023
 21
105.5327319422
  0
LINE
  5
2AF
100
AcDbEntity
  8
ASSI
100
AcDbLine
 62
7
  6
CONTINUOUS
 10
107.2195151125
 20
105.367703964
 11
108.7985098177
 21
108.3738189564
  0
LINE
  5
2B0
100
AcDbEntity
  8
ASSI
100
AcDbLine
 62
7
  6
CONTINUOUS
 10
109.4576053084
 20
108.1714171165
 11
107.8786186192
 21
105.1652996625
  0
LINE
  5
2B1
100
AcDbEntity
  8
ASSI
100
AcDbLine
 62
7
  6
CONTINUOUS
 10
109.4774819409
 20
108.0364211498
 11
107.9497720167
 21
105.1279257843
  0
LINE
  5
2B2
100
AcDbEntity
  8
ASSI
100
AcDbLine
 62
7
  6
CONTINUOUS
 10
108.5377390488
 20
104.9628901641
 11
109.578974882
 21
106.9452230321
  0
LINE
  5
2B3
100
AcDbEntity
  8
0
100
AcDbLine
 62
7
  6
CONTINUOUS
 10
107.7581040696
 20
100.1075439113
 11
107.3226503393
 21
99.2785153525
  0
LINE
  5
2B4
100
AcDbEntity
  8
0
100
AcDbLine
 62
7
  6
CONTINUOUS
 10
107.7779807021
 20
99.9725479447
 11
107.3621692207
 21
99.1809148294
  0
LINE
  5
2B5
100
AcDbEntity
  8
0
100
AcDbLine
 62
7
  6
CONTINUOUS
 10
107.426052913
 20
99.023140076
 11
107.9626507925
 21
100.0447295944
  0
LINE
  5
2B6
100
AcDbEntity
  8
ASSI
100
AcDbLine
 62
7
  6
CONTINUOUS
 10
111.4843950071
 20
106.3600869713
 11
110.4431680805
 21
104.3777513682
  0
LINE
  5
2B7
100
AcDbEntity
  8
ASSI
100
AcDbLine
 62
7
  6
CONTINUOUS
 10
111.5042716395
 20
106.2250910047
 11
110.5143212316
 21
104.3403779907
  0
LINE
  5
2B8
100
AcDbEntity
  8
0
100
AcDbLine
 62
7
  6
CONTINUOUS
 10
108.3126714689
 20
99.9372416356
 11
107.7046638077
 21
98.7797002485
  0
LINE
  5
2B9
100
AcDbEntity
  8
0
100
AcDbLine
 62
7
  6
CONTINUOUS
 10
108.3325481014
 20
99.802245669
 11
107.7828384354
 21
98.7556935777
  0
LINE
  5
2BA
100
AcDbEntity
  8
0
100
AcDbLine
 62
7
  6
CONTINUOUS
 10
107.9029776249
 20
98.7187999965
 11
108.3746877591
 21
99.6168544749
  0
LINE
  5
2BB
100
AcDbEntity
  8
ASSI
100
AcDbLine
 62
7
  6
CONTINUOUS
 10
111.1022876194
 20
104.1753421433
 11
112.6812743085
 21
107.1814595973
  0
LINE
  5
2BC
100
AcDbEntity
  8
0
100
AcDbLine
 62
7
  6
CONTINUOUS
 10
109.3165950324
 20
99.6289464352
 11
108.7273254464
 21
98.5070791011
  0
LINE
  5
2BD
100
AcDbEntity
  8
0
100
AcDbLine
 62
7
  6
CONTINUOUS
 10
109.3364716649
 20
99.4939504686
 11
108.7984788439
 21
98.4697052229
  0
LINE
  5
2BE
100
AcDbEntity
  8
0
100
AcDbLine
 62
7
  6
CONTINUOUS
 10
108.9068032147
 20
98.4105348829
 11
109.5148108759
 21
99.56807627
  0
LINE
  5
2BF
100
AcDbEntity
  8
ASSI
100
AcDbLine
 62
7
  6
CONTINUOUS
 10
107.0408508856
 20
108.9135789863
 11
105.2250770551
 21
107.0674371493
  0
LINE
  5
2C0
100
AcDbEntity
  8
ASSI
100
AcDbLine
 62
7
  6
CONTINUOUS
 10
107.060727518
 20
108.7785830197
 11
105.2449536876
 21
106.9324411826
  0
LINE
  5
2C1
100
AcDbEntity
  8
0
100
AcDbLine
 62
7
  6
CONTINUOUS
 10
179.7373168555
 20
78.2332372141
 11
179.6418244976
 21
78.2320193802
  0
LWPOLYLINE
  5
2C2
100
AcDbEntity
  8
0
100
AcDbPolyline
 62
7
  6
CONTINUOUS
 90
4
 70
0
 10
179.3432589647
 20
77.4393267059
 10
179.287028605
 20
77.4412642706
 10
179.2293127525
 20
77.4366476092
 10
179.1713340323
 20
77.4255101898
  0
LWPOLYLINE
  5
2C3
100
AcDbEntity
  8
RACCORDO
100
AcDbPolyline
 62
7
  6
CONTINUOUS
 90
5
 70
0
 10
67.0152577712
 20
102.3611420214
 10
67.0675064728
 20
102.3462306176
 10
67.1283593383
 20
102.3309546852
 10
67.1930869144
 20
102.3160303024
 10
67.3345870518
 20
102.2846495356
  0
LINE
  5
2C4
100
AcDbEntity
  8
RACCORDO
100
AcDbLine
 62
7
  6
CONTINUOUS
 10
187.4609028216
 20
65.3735009157
 11
187.5721792522
 21
65.3415763381
  0
LINE
  5
2C5
100
AcDbEntity
  8
RACCORDO
100
AcDbLine
 62
7
  6
CONTINUOUS
 10
187.2090564435
 20
65.4507906997
 11
187.4607931698
 21
65.3734847898
  0
LINE
  5
2C6
100
AcDbEntity
  8
RACCORDO
100
AcDbLine
 62
7
  6
CONTINUOUS
 10
67.6455366146
 20
102.2027020592
 11
186.3454951142
 21
65.751094764
  0
LINE
  5
2C7
100
AcDbEntity
  8
RACCORDO
100
AcDbLine
 62
253
  6
CONTINUOUS
 10
66.2719903838
 20
102.9963518228
 11
187.1635641307
 21
65.8719130812
  0
LINE
  5
2C8
100
AcDbEntity
  8
RACCORDO
100
AcDbLine
 62
7
  6
CONTINUOUS
 10
66.763290441
 20
102.438519351
 11
67.0156210647
 21
102.3610302756
  0
LWPOLYLINE
  5
2C9
100
AcDbEntity
  8
RACCORDO
100
AcDbPolyline
 62
253
  6
CONTINUOUS
 90
18
 70
0
 10
187.16359431
 20
65.871961293
 10
187.3680026536
 20
65.8089396231
 10
187.5786531296
 20
65.7581424494
 10
187.7943123891
 20
65.719868325
 10
188.0137850897
 20
65.6941953801
 10
188.2358882191
 20
65.6812469851
 10
188.4594424169
 20
65.6811989673
 10
188.6832434252
 20
65.6939979655
 10
188.9059985404
 20
65.7195102205
 10
189.126365396
 20
65.7576748949
 10
189.3430538257
 20
65.8082570123
 10
189.5549427514
 20
65.8708943032
 10
189.7609545307
 20
65.9453159972
 10
189.9599730097
 20
66.031178682
 10
190.1508433312
 20
66.1279311128
 10
190.3324384068
 20
66.2349915879
 10
190.5036774308
 20
66.3517550664
 10
190.6636368952
 20
66.477591353
  0
LWPOLYLINE
  5
2CA
100
AcDbEntity
  8
RACCORDO
100
AcDbPolyline
 62
7
  6
CONTINUOUS
 90
4
 70
0
 10
186.3454951142
 20
65.751094764
 10
186.4291183298
 20
65.7244501573
 10
186.5164290012
 20
65.6949073139
 10
186.6075023055
 20
65.6626656
  0
LINE
  5
2CB
100
AcDbEntity
  8
RACCORDO
100
AcDbLine
 62
7
  6
CONTINUOUS
 10
66.5703753431
 20
102.5048997369
 11
66.7633171613
 21
102.4385609488
  0
LWPOLYLINE
  5
2CC
100
AcDbEntity
  8
RACCORDO
100
AcDbPolyline
 62
7
  6
CONTINUOUS
 90
4
 70
0
 10
186.9047469798
 20
65.5537392563
 10
187.0073808867
 20
65.5172685491
 10
187.1120942228
 20
65.4817007056
 10
187.2088407834
 20
65.4508571087
  0
LINE
  5
2CD
100
AcDbEntity
  8
RACCORDO
100
AcDbLine
 62
7
  6
CONTINUOUS
 10
186.6075023055
 20
65.6626656
 11
186.9047469798
 21
65.5537392563
  0
LWPOLYLINE
  5
2CE
100
AcDbEntity
  8
0
100
AcDbPolyline
 62
7
  6
CONTINUOUS
 90
5
 70
0
 10
116.5852127734
 20
98.6661625404
 10
116.67870397
 20
98.57937858
 10
116.7565778496
 20
98.4838374956
 10
116.8194380365
 20
98.3798777586
 10
116.8486888467
 20
98.3100578486
  0
LWPOLYLINE
  5
2CF
100
AcDbEntity
  8
0
100
AcDbPolyline
 62
7
  6
CONTINUOUS
 90
3
 70
0
 10
116.8894487842
 20
98.8780039471
 10
117.0106410761
 20
98.7655062205
 10
117.0772194491
 20
98.6838232482
  0
LWPOLYLINE
  5
2D0
100
AcDbEntity
  8
ASSI
100
AcDbPolyline
 62
7
  6
CONTINUOUS
 90
3
 70
0
 10
117.7440555713
 20
104.7862011546
 10
117.7360839588
 20
104.8247517082
 10
117.7160275718
 20
104.876739353
  0
LWPOLYLINE
  5
2D1
100
AcDbEntity
  8
ASSI
100
AcDbPolyline
 62
7
  6
CONTINUOUS
 90
10
 70
0
 10
118.5067729886
 20
104.9003161176
 10
118.4894481456
 20
104.984544049
 10
118.4546963955
 20
105.0880048465
 10
118.4070203127
 20
105.1845946023
 10
118.3459643591
 20
105.2740013872
 10
118.2719840729
 20
105.3565371304
 10
118.1879987887
 20
105.4292334777
 10
118.0949816179
 20
105.4911009778
 10
117.991959449
 20
105.5431290821
 10
117.8789322821
 20
105.5853177905
  0
LINE
  5
2D2
100
AcDbEntity
  8
DRAFT
100
AcDbLine
 62
7
  6
CONTINUOUS
 10
118.7326063851
 20
95.3931259212
 11
118.3473160343
 21
97.7387726655
  0
LINE
  5
2D3
100
AcDbEntity
  8
DRAFT
100
AcDbLine
 62
7
  6
CONTINUOUS
 10
118.3293521172
 20
98.0394551181
 11
118.1163568347
 21
99.3662405893
  0
LINE
  5
2D4
100
AcDbEntity
  8
ASSI
100
AcDbLine
 62
7
  6
CONTINUOUS
 10
111.6848626523
 20
107.4874479638
 11
111.7047392847
 21
107.3524519971
  0
LINE
  5
2D5
100
AcDbEntity
  8
ASSI
100
AcDbLine
 62
7
  6
CONTINUOUS
 10
113.2204798576
 20
104.8746912682
 11
113.2403564901
 21
104.7396953016
  0
LINE
  5
2D6
100
AcDbEntity
  8
ASSI
100
AcDbLine
 62
7
  6
CONTINUOUS
 10
113.7603923171
 20
104.0456011976
 11
113.7802689495
 21
103.910605231
  0
LINE
  5
2D7
100
AcDbEntity
  8
ASSI
100
AcDbLine
 62
7
  6
CONTINUOUS
 10
113.8593411168
 20
104.6785031648
 11
113.8792177493
 21
104.5435071981
  0
LINE
  5
2D8
100
AcDbEntity
  8
ASSI
100
AcDbLine
 62
7
  6
CONTINUOUS
 10
114.016592827
 20
105.6841356369
 11
114.0364694595
 21
105.5491396703
  0
LINE
  5
2D9
100
AcDbEntity
  8
ASSI
100
AcDbLine
 62
7
  6
CONTINUOUS
 10
114.1787929817
 20
106.721594612
 11
114.1986696141
 21
106.5865986453
  0
LINE
  5
2DA
100
AcDbEntity
  8
ASSI
100
AcDbLine
 62
7
  6
CONTINUOUS
 10
116.3091701224
 20
104.5720268302
 11
116.3290467549
 21
104.4370308635
  0
LINE
  5
2DB
100
AcDbEntity
  8
ASSI
100
AcDbLine
 62
7
  6
CONTINUOUS
 10
116.6014829674
 20
103.8364179682
 11
116.6213595999
 21
103.7014220016
  0
LINE
  5
2DC
100
AcDbEntity
  8
ASSI
100
AcDbLine
 62
7
  6
CONTINUOUS
 10
116.3354772305
 20
106.059297773
 11
116.355353863
 21
105.9243018064
  0
LINE
  5
2DD
100
AcDbEntity
  8
ASSI
100
AcDbLine
 62
7
  6
CONTINUOUS
 10
117.1110809698
 20
104.3257674421
 11
117.1309576022
 21
104.1907714755
  0
LINE
  5
2DE
100
AcDbEntity
  8
0
100
AcDbLine
 62
7
  6
CONTINUOUS
 10
110.3661873477
 20
156.5874022811
 11
113.6938108449
 21
133.9872082154
  0
LINE
  5
2DF
100
AcDbEntity
  8
ASSI
100
AcDbLine
 62
7
  6
CONTINUOUS
 10
117.8789131381
 20
105.5853239948
 11
117.8987897705
 21
105.4503280282
  0
LWPOLYLINE
  5
2E0
100
AcDbEntity
  8
0
100
AcDbPolyline
 62
7
  6
CONTINUOUS
 90
7
 70
0
 10
113.6805044599
 20
98.6927570531
 10
113.6736162225
 20
98.7540308739
 10
113.6720007843
 20
98.8912223777
 10
113.6891196782
 20
99.02755176
 10
113.7249902851
 20
99.1615429354
 10
113.779595224
 20
99.2946719894
 10
113.8529344949
 20
99.426938922
  0
LWPOLYLINE
  5
2E1
100
AcDbEntity
  8
0
100
AcDbPolyline
 62
7
  6
CONTINUOUS
 90
7
 70
0
 10
117.1427080674
 20
99.2038147912
 10
117.1495963047
 20
99.1425409704
 10
117.1512117429
 20
99.0053494667
 10
117.134092849
 20
98.8690200843
 10
117.0982222422
 20
98.7350289089
 10
117.0436173033
 20
98.6018998549
 10
116.9702780323
 20
98.4696329223
  0
LINE
  5
2E2
100
AcDbEntity
  8
ASSI
100
AcDbLine
 62
7
  6
CONTINUOUS
 10
125.7830411312
 20
93.5168117509
 11
125.7988699841
 21
93.3696372894
  0
LWPOLYLINE
  5
2E3
100
AcDbEntity
  8
0
100
AcDbPolyline
 62
7
  6
CONTINUOUS
 90
10
 70
0
 10
113.819875607
 20
150.9957550028
 10
114.0119083359
 20
149.1863639172
 10
114.1821272937
 20
147.3475470869
 10
114.3305324803
 20
145.4793045119
 10
114.4571335278
 20
143.5813739479
 10
114.5619208041
 20
141.6540176392
 10
114.6448654134
 20
139.6980223184
 10
114.7059577238
 20
137.7136502296
 10
114.7452073671
 20
135.7006391286
 10
114.7626143435
 20
133.6589890155
  0
LINE
  5
2E4
100
AcDbEntity
  8
ASSI
100
AcDbLine
 62
7
  6
CONTINUOUS
 10
122.5485849156
 20
94.5459934481
 11
122.5387625627
 21
94.6436295246
  0
LINE
  5
2E5
100
AcDbEntity
  8
ASSI
100
AcDbLine
 62
7
  6
CONTINUOUS
 10
124.4976933942
 20
94.9686808124
 11
124.5075157472
 21
94.8710447359
  0
LWPOLYLINE
  5
2E6
100
AcDbEntity
  8
DRAFT
100
AcDbPolyline
 62
7
  6
CONTINUOUS
 90
7
 70
0
 10
119.3611328499
 20
108.996872554
 10
119.3485575408
 20
109.1684634959
 10
119.3573649818
 20
109.3648146221
 10
119.3903055273
 20
109.5592595438
 10
119.4473364197
 20
109.7497978374
 10
119.5285004166
 20
109.9384299265
 10
119.6337975181
 20
110.125155811
  0
LWPOLYLINE
  5
2E7
100
AcDbEntity
  8
DRAFT
100
AcDbPolyline
 62
7
  6
CONTINUOUS
 90
4
 70
0
 10
118.3473160343
 20
97.7387726655
 10
118.3468480837
 20
97.867492093
 10
118.3358652192
 20
97.9942667649
 10
118.3292621337
 20
98.0398988961
  0
LINE
  5
2E8
100
AcDbEntity
  8
ASSI
100
AcDbLine
 62
7
  6
CONTINUOUS
 10
122.5387625627
 20
94.6436295246
 11
122.5425321485
 21
94.7414853189
  0
LWPOLYLINE
  5
2E9
100
AcDbEntity
  8
ASSI
100
AcDbPolyline
 62
7
  6
CONTINUOUS
 90
3
 70
0
 10
122.3186537515
 20
94.5462272318
 10
122.3272373376
 20
94.688186908
 10
122.3598341507
 20
94.8326036797
  0
LWPOLYLINE
  5
2EA
100
AcDbEntity
  8
ASSI
100
AcDbPolyline
 62
7
  6
CONTINUOUS
 90
17
 70
0
 10
118.8658048798
 20
106.8914423473
 10
118.8197756638
 20
106.4751028201
 10
118.7573121666
 20
106.0528500573
 10
118.6784143882
 20
105.6246840587
 10
118.582233352
 20
105.1872626434
 10
118.4696180345
 20
104.7439279924
 10
118.3431153658
 20
104.3047066485
 10
118.2024088811
 20
103.8696923456
 10
118.0478150451
 20
103.4387913498
 10
117.8828301821
 20
103.0217490018
 10
117.7072175016
 20
102.6188811124
 10
117.5212137941
 20
102.2298718709
 10
117.3290257557
 20
101.8635191859
 10
117.1305124579
 20
101.5203393549
 10
116.9258148293
 20
101.1998160805
 10
116.7195623511
 20
100.9091983795
 10
116.6618059691
 20
100.8369397691
  0
LWPOLYLINE
  5
2EB
100
AcDbEntity
  8
ASSI
100
AcDbPolyline
 62
7
  6
CONTINUOUS
 90
17
 70
0
 10
119.7564744619
 20
106.6179263474
 10
119.7104452459
 20
106.2015868202
 10
119.6479817487
 20
105.7793340574
 10
119.5690839703
 20
105.3511680588
 10
119.4729029341
 20
104.9137466435
 10
119.3602876166
 20
104.4704119925
 10
119.2337849479
 20
104.0311906486
 10
119.0930784632
 20
103.5961763457
 10
118.9384846272
 20
103.1652753499
 10
118.7734997642
 20
102.7482330019
 10
118.5978870837
 20
102.3453651125
 10
118.4118833762
 20
101.956355871
 10
118.2196953378
 20
101.590003186
 10
118.02118204
 20
101.246823355
 10
117.8164844114
 20
100.9263000806
 10
117.6102319332
 20
100.6356823796
 10
117.4473574986
 20
100.4319113002
  0
LWPOLYLINE
  5
2EC
100
AcDbEntity
  8
ASSI
100
AcDbPolyline
 62
7
  6
CONTINUOUS
 90
21
 70
0
 10
122.4284832083
 20
105.7973783477
 10
122.3824539923
 20
105.3810388205
 10
122.3199904951
 20
104.9587860577
 10
122.2410927167
 20
104.5306200591
 10
122.1449116804
 20
104.0931986438
 10
122.032296363
 20
103.6498639928
 10
121.9057936943
 20
103.2106426489
 10
121.7650872095
 20
102.775628346
 10
121.6104933735
 20
102.3447273502
 10
121.4455085106
 20
101.9276850022
 10
121.26989583
 20
101.5248171128
 10
121.0838921226
 20
101.1358078713
 10
120.8917040842
 20
100.7694551863
 10
120.6931907864
 20
100.4262753553
 10
120.4884931577
 20
100.1057520809
 10
120.2822406796
 20
99.8151343799
 10
120.07439792
 20
99.55510374
 10
119.865000311
 20
99.3249786735
 10
119.6587836296
 20
99.1299637338
 10
119.4558203628
 20
98.9708590098
 10
119.2560380235
 20
98.8468644125
  0
LWPOLYLINE
  5
2ED
100
AcDbEntity
  8
ASSI
100
AcDbPolyline
 62
7
  6
CONTINUOUS
 90
25
 70
0
 10
123.3191527904
 20
105.5238623478
 10
123.2731235744
 20
105.1075228206
 10
123.2106600772
 20
104.6852700578
 10
123.1317622988
 20
104.2571040592
 10
123.0355812626
 20
103.8196826439
 10
122.9229659451
 20
103.3763479929
 10
122.7964632764
 20
102.937126649
 10
122.6557567917
 20
102.5021123461
 10
122.5011629557
 20
102.0712113503
 10
122.3361780927
 20
101.6541690023
 10
122.1605654122
 20
101.2513011129
 10
121.9745617047
 20
100.8622918714
 10
121.7823736663
 20
100.4959391864
 10
121.5838603685
 20
100.1527593554
 10
121.3791627398
 20
99.832236081
 10
121.1729102617
 20
99.54161838
 10
120.9650675022
 20
99.2815877401
 10
120.7556698932
 20
99.0514626736
 10
120.5494532117
 20
98.8564477339
 10
120.3464899449
 20
98.6973430099
 10
120.1467076056
 20
98.5733484126
 10
119.9546245102
 20
98.4872682279
 10
119.770416109
 20
98.439966449
 10
119.5939069517
 20
98.4305790827
 10
119.4270499753
 20
98.4599411485
  0
LWPOLYLINE
  5
2EE
100
AcDbEntity
  8
0
100
AcDbPolyline
 62
7
  6
CONTINUOUS
 90
3
 70
0
 10
120.9020927567
 20
108.4924224423
 10
120.878037231
 20
108.361452722
 10
120.8780189367
 20
108.3512286106
  0
LWPOLYLINE
  5
2EF
100
AcDbEntity
  8
0
100
AcDbPolyline
 62
7
  6
CONTINUOUS
 90
3
 70
0
 10
113.8930453679
 20
98.2139372041
 10
113.9193056456
 20
98.2819756636
 10
113.9997444682
 20
98.4298507929
  0
LINE
  5
2F0
100
AcDbEntity
  8
0
100
AcDbLine
 62
7
  6
CONTINUOUS
 10
120.6171495067
 20
108.7858117608
 11
120.5508032666
 21
108.6447555802
  0
LWPOLYLINE
  5
2F1
100
AcDbEntity
  8
RACCORDO
100
AcDbPolyline
 62
7
  6
CONTINUOUS
 90
5
 70
0
 10
139.2998735532
 20
148.5709953382
 10
139.2659151873
 20
148.5043088172
 10
139.2450267441
 20
148.4385012338
 10
139.2372082234
 20
148.3735725881
 10
139.2407739998
 20
148.3200765577
  0
LINE
  5
2F2
100
AcDbEntity
  8
0
100
AcDbLine
 62
7
  6
CONTINUOUS
 10
110.4532212383
 20
99.279899539
 11
109.8452135771
 21
98.1223581519
  0
LINE
  5
2F3
100
AcDbEntity
  8
0
100
AcDbLine
 62
7
  6
CONTINUOUS
 10
110.4730978707
 20
99.1449035723
 11
109.9233882047
 21
98.0983514811
  0
LINE
  5
2F4
100
AcDbEntity
  8
0
100
AcDbLine
 62
7
  6
CONTINUOUS
 10
110.0498208655
 20
98.0595252358
 11
110.6578285267
 21
99.217066623
  0
LINE
  5
2F5
100
AcDbEntity
  8
0
100
AcDbLine
 62
7
  6
CONTINUOUS
 10
110.8771550206
 20
99.1497135815
 11
110.7902655979
 21
98.9842911545
  0
LINE
  5
2F6
100
AcDbEntity
  8
0
100
AcDbLine
 62
7
  6
CONTINUOUS
 10
110.8970316531
 20
99.0147176148
 11
110.8614189953
 21
98.9469172763
  0
LINE
  5
2F7
100
AcDbEntity
  8
0
100
AcDbLine
 62
7
  6
CONTINUOUS
 10
111.3027346087
 20
98.8269168861
 11
110.7816163703
 21
97.8347979259
  0
LINE
  5
2F8
100
AcDbEntity
  8
0
100
AcDbLine
 62
7
  6
CONTINUOUS
 10
111.3226112411
 20
98.6919209194
 11
110.8597909979
 21
97.8107912551
  0
LINE
  5
2F9
100
AcDbEntity
  8
0
100
AcDbLine
 62
7
  6
CONTINUOUS
 10
110.9861497331
 20
97.7719877117
 11
111.5072679715
 21
98.7641066718
  0
LINE
  5
2FA
100
AcDbEntity
  8
0
100
AcDbLine
 62
7
  6
CONTINUOUS
 10
112.0197360917
 20
98.6067326769
 11
112.1066255144
 21
98.7721551039
  0
LINE
  5
2FB
100
AcDbEntity
  8
ASSI
100
AcDbLine
 62
7
  6
CONTINUOUS
 10
116.3354772305
 20
106.059297773
 11
114.7564909681
 21
103.0531811314
  0
LINE
  5
2FC
100
AcDbEntity
  8
ASSI
100
AcDbLine
 62
7
  6
CONTINUOUS
 10
116.355353863
 20
105.9243018064
 11
114.8276443656
 21
103.0158072532
  0
LINE
  5
2FD
100
AcDbEntity
  8
ASSI
100
AcDbLine
 62
7
  6
CONTINUOUS
 10
116.3091701224
 20
104.5720268302
 11
116.6933988562
 21
105.3035495814
  0
LINE
  5
2FE
100
AcDbEntity
  8
ASSI
100
AcDbLine
 62
7
  6
CONTINUOUS
 10
115.4156194136
 20
102.8507691714
 11
116.0262202477
 21
104.0130840676
  0
LINE
  5
2FF
100
AcDbEntity
  8
0
100
AcDbLine
 62
7
  6
CONTINUOUS
 10
140.395985277
 20
150.2873284541
 11
139.2998735532
 21
148.5709953382
  0
LINE
  5
300
100
AcDbEntity
  8
0
100
AcDbLine
 62
7
  6
CONTINUOUS
 10
141.9329718329
 20
151.4670312607
 11
141.0510925332
 21
150.0861513624
  0
LINE
  5
301
100
AcDbEntity
  8
0
100
AcDbLine
 62
7
  6
CONTINUOUS
 10
140.3686770517
 20
148.2427761383
 11
141.4647887755
 21
149.9591092542
  0
LINE
  5
302
100
AcDbEntity
  8
0
100
AcDbLine
 62
7
  6
CONTINUOUS
 10
143.0017753317
 20
151.1388120612
 11
141.6698650978
 21
149.0532567376
  0
LINE
  5
303
100
AcDbEntity
  8
DRAFT
100
AcDbLine
 62
7
  6
CONTINUOUS
 10
119.5083843714
 20
107.897617573
 11
118.8658048798
 21
106.8914423473
  0
LINE
  5
304
100
AcDbEntity
  8
0
100
AcDbLine
 62
7
  6
CONTINUOUS
 10
120.7083030052
 20
108.9285433498
 11
120.6171495067
 21
108.7858117608
  0
LWPOLYLINE
  5
305
100
AcDbEntity
  8
DRAFT
100
AcDbPolyline
 62
7
  6
CONTINUOUS
 90
28
 70
0
 10
119.6337975181
 20
110.125155811
 10
119.7624246219
 20
110.3047172778
 10
119.9093065072
 20
110.4731680401
 10
120.074443174
 20
110.6305080977
 10
120.2599420317
 20
110.7781038397
 10
120.4636956709
 20
110.9145888771
 10
120.6793818633
 20
111.0358640429
 10
120.9065427681
 20
111.1412094603
 10
121.1456362262
 20
111.2313450062
 10
121.3917135321
 20
111.3043311437
 10
121.6460904095
 20
111.3599397034
 10
121.9074511346
 20
111.3983988549
 10
122.1668998309
 20
111.4184535701
 10
122.4230381099
 20
111.4195867625
 10
122.67726436
 20
111.4023155187
 10
122.9248778706
 20
111.3669360706
 10
123.1670716686
 20
111.3126996142
 10
123.402652727
 20
111.2403549535
 10
123.6233412542
 20
111.1524447322
 10
123.8275358392
 20
111.0490782913
 10
124.0168378929
 20
110.9301462898
 10
124.1877718567
 20
110.7978633491
 10
124.3407253829
 20
110.6511639067
 10
124.4753108192
 20
110.491113525
 10
124.58688965
 20
110.3231235127
 10
124.6743339606
 20
110.1477161178
 10
124.7387716658
 20
109.9643690923
 10
124.7762773706
 20
109.7943729178
  0
LWPOLYLINE
  5
306
100
AcDbEntity
  8
DRAFT
100
AcDbPolyline
 62
7
  6
CONTINUOUS
 90
28
 70
0
 10
112.9739240463
 20
99.6968745149
 10
113.1025511502
 20
99.8764359817
 10
113.2494330355
 20
100.044886744
 10
113.4145697023
 20
100.2022268016
 10
113.60006856
 20
100.3498225436
 10
113.8038221991
 20
100.486307581
 10
114.0195083916
 20
100.6075827468
 10
114.2466692964
 20
100.7129281642
 10
114.4857627545
 20
100.8030637101
 10
114.7318400604
 20
100.8760498476
 10
114.9862169377
 20
100.9316584073
 10
115.2475776629
 20
100.9701175588
 10
115.5070263592
 20
100.990172274
 10
115.7631646382
 20
100.9913054664
 10
116.0173908883
 20
100.9740342226
 10
116.2650043989
 20
100.9386547745
 10
116.5071981969
 20
100.8844183181
 10
116.7427792553
 20
100.8120736574
 10
116.9634677825
 20
100.7241634361
 10
117.1676623674
 20
100.6207969952
 10
117.3569644211
 20
100.5018649937
 10
117.527898385
 20
100.369582053
 10
117.6808519112
 20
100.2228826106
 10
117.8154373475
 20
100.0628322289
 10
117.9270161783
 20
99.8948422166
 10
118.0144604889
 20
99.7194348217
 10
118.0788981941
 20
99.5360877962
 10
118.1164038988
 20
99.3660916217
  0
LINE
  5
307
100
AcDbEntity
  8
ASSI
100
AcDbLine
 62
7
  6
CONTINUOUS
 10
111.6848626523
 20
107.4874479638
 11
110.0411476864
 21
105.7187470909
  0
LINE
  5
308
100
AcDbEntity
  8
ASSI
100
AcDbLine
 62
7
  6
CONTINUOUS
 10
111.7047392847
 20
107.3524519971
 11
110.0610243189
 21
105.5837511242
  0
LINE
  5
309
100
AcDbEntity
  8
ASSI
100
AcDbLine
 62
7
  6
CONTINUOUS
 10
109.8200055774
 20
104.5691279704
 11
111.4843950071
 21
106.3600869713
  0
LINE
  5
30A
100
AcDbEntity
  8
ASSI
100
AcDbLine
 62
7
  6
CONTINUOUS
 10
105.0628727251
 20
106.0299879477
 11
107.6999793311
 21
108.7111670263
  0
LINE
  5
30B
100
AcDbEntity
  8
ASSI
100
AcDbLine
 62
7
  6
CONTINUOUS
 10
114.1787929817
 20
106.721594612
 11
111.541698567
 21
104.0404032983
  0
LINE
  5
30C
100
AcDbEntity
  8
ASSI
100
AcDbLine
 62
7
  6
CONTINUOUS
 10
114.1986696141
 20
106.5865986453
 11
111.6589407734
 21
104.0044010307
  0
LINE
  5
30D
100
AcDbEntity
  8
0
100
AcDbLine
 62
7
  6
CONTINUOUS
 10
152.4158666505
 20
86.687465619
 11
152.4366650987
 21
86.6927010902
  0
LINE
  5
30E
100
AcDbEntity
  8
0
100
AcDbLine
 62
7
  6
CONTINUOUS
 10
152.4366650987
 20
86.6927010902
 11
152.4654777365
 21
86.6976868739
  0
LINE
  5
30F
100
AcDbEntity
  8
0
100
AcDbLine
 62
7
  6
CONTINUOUS
 10
152.4654777365
 20
86.6976868739
 11
152.5206147074
 21
86.7068116735
  0
LINE
  5
310
100
AcDbEntity
  8
0
100
AcDbLine
 62
7
  6
CONTINUOUS
 10
152.5206147074
 20
86.7068116735
 11
152.5725509263
 21
86.7151050751
  0
LINE
  5
311
100
AcDbEntity
  8
0
100
AcDbLine
 62
7
  6
CONTINUOUS
 10
152.5725509263
 20
86.7151050751
 11
152.6213035961
 21
86.7225487603
  0
LINE
  5
312
100
AcDbEntity
  8
0
100
AcDbLine
 62
7
  6
CONTINUOUS
 10
152.6213035961
 20
86.7225487603
 11
152.6670656406
 21
86.7292873847
  0
LINE
  5
313
100
AcDbEntity
  8
0
100
AcDbLine
 62
7
  6
CONTINUOUS
 10
152.6670656406
 20
86.7292873847
 11
152.7101534315
 21
86.7353727592
  0
LINE
  5
314
100
AcDbEntity
  8
0
100
AcDbLine
 62
7
  6
CONTINUOUS
 10
152.7101534315
 20
86.7353727592
 11
152.7513178892
 21
86.7409510525
  0
LINE
  5
315
100
AcDbEntity
  8
0
100
AcDbLine
 62
7
  6
CONTINUOUS
 10
152.7513178892
 20
86.7409510525
 11
152.7910610395
 21
86.7461406582
  0
LINE
  5
316
100
AcDbEntity
  8
0
100
AcDbLine
 62
7
  6
CONTINUOUS
 10
152.7910610395
 20
86.7461406582
 11
152.8301409364
 21
86.7510212661
  0
LINE
  5
317
100
AcDbEntity
  8
0
100
AcDbLine
 62
7
  6
CONTINUOUS
 10
152.8301409364
 20
86.7510212661
 11
152.8692665956
 21
86.7557144579
  0
LINE
  5
318
100
AcDbEntity
  8
0
100
AcDbLine
 62
7
  6
CONTINUOUS
 10
152.8692665956
 20
86.7557144579
 11
152.9086586666
 21
86.760216094
  0
LINE
  5
319
100
AcDbEntity
  8
0
100
AcDbLine
 62
7
  6
CONTINUOUS
 10
152.9086586666
 20
86.760216094
 11
152.9482871617
 21
86.7645269557
  0
LINE
  5
31A
100
AcDbEntity
  8
0
100
AcDbLine
 62
7
  6
CONTINUOUS
 10
152.9482871617
 20
86.7645269557
 11
152.9879935559
 21
86.7686268705
  0
LINE
  5
31B
100
AcDbEntity
  8
0
100
AcDbLine
 62
7
  6
CONTINUOUS
 10
154.2152364397
 20
85.5135671148
 11
154.2365028306
 21
85.5156244812
  0
LINE
  5
31C
100
AcDbEntity
  8
0
100
AcDbLine
 62
7
  6
CONTINUOUS
 10
140.8551927079
 20
89.6163071133
 11
140.8764590988
 21
89.6183644797
  0
LINE
  5
31D
100
AcDbEntity
  8
0
100
AcDbLine
 62
7
  6
CONTINUOUS
 10
152.9879935559
 20
86.7686268705
 11
153.0277913835
 21
86.7724990238
  0
LINE
  5
31E
100
AcDbEntity
  8
0
100
AcDbLine
 62
7
  6
CONTINUOUS
 10
153.1768158972
 20
85.9343284202
 11
153.146047378
 21
85.9324353796
  0
LWPOLYLINE
  5
31F
100
AcDbEntity
  8
0
100
AcDbPolyline
 62
7
  6
CONTINUOUS
 90
16
 70
0
 10
151.7934291693
 20
86.6742504212
 10
151.8340667253
 20
86.6766355871
 10
151.8748754686
 20
86.6788088324
 10
151.9158553879
 20
86.6807701303
 10
151.9569974421
 20
86.6825207487
 10
151.9983106503
 20
86.6840593671
 10
152.0398220901
 20
86.6853820712
 10
152.0815861441
 20
86.6864893294
 10
152.1235484005
 20
86.6873806032
 10
152.1655727533
 20
86.6880504867
 10
152.207720659
 20
86.688495135
 10
152.2499306507
 20
86.6887183694
 10
152.2918822699
 20
86.6887263637
 10
152.3334687198
 20
86.6885212324
 10
152.3747968403
 20
86.6881009685
 10
152.4158666505
 20
86.687465619
  0
LINE
  5
320
100
AcDbEntity
  8
0
100
AcDbLine
 62
7
  6
CONTINUOUS
 10
153.7346014749
 20
85.5047418173
 11
153.614276227
 21
85.5005581904
  0
LINE
  5
321
100
AcDbEntity
  8
0
100
AcDbLine
 62
7
  6
CONTINUOUS
 10
140.3745577431
 20
89.6074818158
 11
140.2542324953
 21
89.6032981889
  0
LINE
  5
322
100
AcDbEntity
  8
0
100
AcDbLine
 62
7
  6
CONTINUOUS
 10
153.8338518761
 20
85.5076928193
 11
153.7346014749
 21
85.5047418173
  0
LINE
  5
323
100
AcDbEntity
  8
0
100
AcDbLine
 62
7
  6
CONTINUOUS
 10
140.4738081443
 20
89.6104328178
 11
140.3745577431
 21
89.6074818158
  0
LINE
  5
324
100
AcDbEntity
  8
0
100
AcDbLine
 62
7
  6
CONTINUOUS
 10
153.9359671028
 20
85.510158245
 11
153.8338518761
 21
85.5076928193
  0
LINE
  5
325
100
AcDbEntity
  8
0
100
AcDbLine
 62
7
  6
CONTINUOUS
 10
140.575923371
 20
89.6128982435
 11
140.4738081443
 21
89.6104328178
  0
LINE
  5
326
100
AcDbEntity
  8
0
100
AcDbLine
 62
7
  6
CONTINUOUS
 10
154.0264576723
 20
85.5118388829
 11
153.9359671028
 21
85.510158245
  0
LINE
  5
327
100
AcDbEntity
  8
0
100
AcDbLine
 62
7
  6
CONTINUOUS
 10
140.6664139405
 20
89.6145788814
 11
140.575923371
 21
89.6128982435
  0
LINE
  5
328
100
AcDbEntity
  8
0
100
AcDbLine
 62
7
  6
CONTINUOUS
 10
154.1023323481
 20
85.5128273795
 11
154.0264576723
 21
85.5118388829
  0
LINE
  5
329
100
AcDbEntity
  8
0
100
AcDbLine
 62
7
  6
CONTINUOUS
 10
140.7422886163
 20
89.615567378
 11
140.6664139405
 21
89.6145788814
  0
LINE
  5
32A
100
AcDbEntity
  8
0
100
AcDbLine
 62
7
  6
CONTINUOUS
 10
154.2152364397
 20
85.5135671148
 11
154.1023323481
 21
85.5128273795
  0
LINE
  5
32B
100
AcDbEntity
  8
0
100
AcDbLine
 62
7
  6
CONTINUOUS
 10
140.8551927079
 20
89.6163071133
 11
140.7422886163
 21
89.615567378
  0
LINE
  5
32C
100
AcDbEntity
  8
ASSI
100
AcDbLine
 62
7
  6
CONTINUOUS
 10
135.2347393341
 20
90.3323349173
 11
135.4165279877
 21
90.3240003551
  0
LWPOLYLINE
  5
32D
100
AcDbEntity
  8
0
100
AcDbPolyline
 62
253
  6
CONTINUOUS
 90
36
 70
0
 10
153.8953566468
 20
87.7146889757
 10
153.7611899717
 20
87.7252583274
 10
153.625796086
 20
87.7301734842
 10
153.4895887014
 20
87.7294194268
 10
153.3529840146
 20
87.7229984594
 10
153.2163994381
 20
87.7109302016
 10
153.0802523244
 20
87.6932515299
 10
152.9449586899
 20
87.670016464
 10
152.8109319371
 20
87.6412960014
 10
152.6785815939
 20
87.6071778992
 10
152.5483120633
 20
87.5677664056
 10
152.4205214088
 20
87.5231819487
 10
152.2956001304
 20
87.4735607696
 10
152.1739299659
 20
87.4190545065
 10
152.0558826622
 20
87.3598297006
 10
151.9418188668
 20
87.2960672875
 10
151.8320870684
 20
87.227962062
 10
151.7270226264
 20
87.1557221524
 10
151.6269466735
 20
87.0795683633
 10
151.5321650456
 20
86.9997334422
 10
151.4429672946
 20
86.9164612992
 10
151.3596259075
 20
86.8300063238
 10
151.2823955285
 20
86.7406326649
 10
151.2115121687
 20
86.6486134332
 10
151.147192426
 20
86.554229806
 10
151.0896328304
 20
86.4577701651
 10
151.0390092773
 20
86.35952927
 10
150.9954764785
 20
86.2598073627
 10
150.9591674623
 20
86.1589092105
 10
150.9301931412
 20
86.0571430678
 10
150.9086420222
 20
85.9548197876
 10
150.8945799638
 20
85.8522519556
 10
150.8880499666
 20
85.7497530536
 10
150.8890719926
 20
85.6476363953
 10
150.8976428992
 20
85.5462140766
 10
150.9028108739
 20
85.5139677863
  0
LWPOLYLINE
  5
32E
100
AcDbEntity
  8
0
100
AcDbPolyline
 62
7
  6
CONTINUOUS
 90
34
 70
0
 10
153.9379060612
 20
87.734802901
 10
153.806598238
 20
87.7460967701
 10
153.6631670488
 20
87.7524018172
 10
153.5189122048
 20
87.752535603
 10
153.3742557185
 20
87.7465071563
 10
153.229632241
 20
87.734340812
 10
153.0854891868
 20
87.716078855
 10
152.94226026
 20
87.6917793738
 10
152.8003642554
 20
87.6615134651
 10
152.6602225631
 20
87.6253674804
 10
152.5222062022
 20
87.5834270887
 10
152.3867755972
 20
87.5358187236
 10
152.2544675999
 20
87.4827271618
 10
152.1257197937
 20
87.4243344497
 10
152.0008585515
 20
87.3607916515
 10
151.88022847
 20
87.2922673499
 10
151.7641210423
 20
87.2189074767
 10
151.6529572743
 20
87.1409534579
 10
151.5472329537
 20
87.0587488132
 10
151.4472780298
 20
86.9725651562
 10
151.3533388751
 20
86.8826262845
 10
151.2657263864
 20
86.7892398976
 10
151.1846662259
 20
86.6926572437
 10
151.1104033121
 20
86.5931769465
 10
151.0432198136
 20
86.4912038769
 10
150.98328801
 20
86.3870485228
 10
150.9307541531
 20
86.2810160399
 10
150.8857906771
 20
86.173532863
 10
150.8485211774
 20
86.0650431936
 10
150.818961747
 20
85.9557726942
 10
150.7971185776
 20
85.8458365214
 10
150.7830515868
 20
85.7355096641
 10
150.7768175941
 20
85.6252138748
 10
150.7766718305
 20
85.5683121541
  0
LWPOLYLINE
  5
32F
100
AcDbEntity
  8
0
100
AcDbPolyline
 62
7
  6
CONTINUOUS
 90
7
 70
0
 10
154.0497525775
 20
87.3474910964
 10
154.1794841784
 20
87.3301346099
 10
154.3067289781
 20
87.3079210882
 10
154.4314869765
 20
87.2808505311
 10
154.5541009909
 20
87.248817663
 10
154.6742282042
 20
87.2119277596
 10
154.7588091084
 20
87.1818769755
  0
LWPOLYLINE
  5
330
100
AcDbEntity
  8
TRASH
100
AcDbPolyline
 62
7
  6
CONTINUOUS
 90
10
 70
0
 10
153.7658763916
 20
85.8996785545
 10
153.816972641
 20
85.8922143747
 10
153.8673575896
 20
85.8829326471
 10
153.9169212156
 20
85.871851641
 10
153.9655476288
 20
85.8589943922
 10
154.0131379376
 20
85.8443867229
 10
154.0596093341
 20
85.828054517
 10
154.1048654074
 20
85.8100275609
 10
154.1487975309
 20
85.7903421731
 10
154.1913069166
 20
85.7690373327
  0
LWPOLYLINE
  5
331
100
AcDbEntity
  8
TRASH
100
AcDbPolyline
 62
7
  6
CONTINUOUS
 90
10
 70
0
 10
140.4058326599
 20
90.002418553
 10
140.4569289092
 20
89.9949543732
 10
140.5073138579
 20
89.9856726456
 10
140.5568774838
 20
89.9745916395
 10
140.605503897
 20
89.9617343907
 10
140.6530942058
 20
89.9471267214
 10
140.6995656023
 20
89.9307945155
 10
140.7448216756
 20
89.9127675594
 10
140.7887537991
 20
89.8930821716
 10
140.8312631849
 20
89.8717773312
  0
LWPOLYLINE
  5
332
100
AcDbEntity
  8
0
100
AcDbPolyline
 62
7
  6
CONTINUOUS
 90
13
 70
0
 10
153.9379058948
 20
87.7348023054
 10
153.9403245947
 20
87.7344334268
 10
153.9441040601
 20
87.7333893956
 10
153.9476960539
 20
87.7317986774
 10
153.9510991508
 20
87.7296572477
 10
153.9543147761
 20
87.7269691312
 10
153.9573157787
 20
87.723754031
 10
153.9601008763
 20
87.7200072867
 10
153.9626713513
 20
87.7157335587
 10
153.9650038996
 20
87.7109665326
 10
153.9670907532
 20
87.7057174366
 10
153.9689396801
 20
87.6999750424
 10
153.9705506804
 20
87.6937393499
  0
LINE
  5
333
100
AcDbEntity
  8
0
100
AcDbLine
 62
7
  6
CONTINUOUS
 10
150.7101403991
 20
87.3648540101
 11
149.2776059367
 21
87.6078766763
  0
LWPOLYLINE
  5
334
100
AcDbEntity
  8
0
100
AcDbPolyline
 62
7
  6
CONTINUOUS
 90
14
 70
0
 10
179.784782104
 20
78.1480473518
 10
179.7341174008
 20
78.1571450112
 10
179.682694519
 20
78.1592584044
 10
179.6287461196
 20
78.1541279796
 10
179.5740395417
 20
78.1420132885
 10
179.5238768028
 20
78.1236929868
 10
179.479654735
 20
78.0983767241
 10
179.4399765063
 20
78.0668548507
 10
179.4059536377
 20
78.032277073
 10
179.3772682375
 20
77.9950811022
 10
179.3542381975
 20
77.9548292271
 10
179.338928714
 20
77.9133580197
 10
179.3315872153
 20
77.8701214188
 10
179.3322276413
 20
77.8233367512
  0
LWPOLYLINE
  5
335
100
AcDbEntity
  8
TRASH
100
AcDbPolyline
 62
7
  6
CONTINUOUS
 90
14
 70
0
 10
152.7017070989
 20
85.50185806
 10
152.7557122968
 20
85.4903407329
 10
152.8075350765
 20
85.4797648138
 10
152.8572684236
 20
85.4700983289
 10
152.9050447776
 20
85.4611239942
 10
152.9508848494
 20
85.4529331001
 10
152.9949452609
 20
85.4456037177
 10
153.0375344955
 20
85.4388879639
 10
153.0787456462
 20
85.4328177607
 10
153.1186805834
 20
85.4274947015
 10
153.1576208406
 20
85.4227376464
 10
153.195719507
 20
85.4185066581
 10
153.2330327064
 20
85.4149217249
 10
153.2696855778
 20
85.412017766
  0
LWPOLYLINE
  5
336
100
AcDbEntity
  8
TRASH
100
AcDbPolyline
 62
7
  6
CONTINUOUS
 90
14
 70
0
 10
139.3416633672
 20
89.6045980585
 10
139.395668565
 20
89.5930807314
 10
139.4474913447
 20
89.5825048123
 10
139.4972246919
 20
89.5728383274
 10
139.5450010459
 20
89.5638639927
 10
139.5908411176
 20
89.5556730986
 10
139.6349015291
 20
89.5483437162
 10
139.6774907638
 20
89.5416279624
 10
139.7187019145
 20
89.5355577592
 10
139.7586368516
 20
89.5302347
 10
139.7975771088
 20
89.5254776449
 10
139.8356757753
 20
89.5212466566
 10
139.8729889746
 20
89.5176617234
 10
139.9096418461
 20
89.5147577645
  0
LINE
  5
337
100
AcDbEntity
  8
TRASH
100
AcDbLine
 62
7
  6
CONTINUOUS
 10
152.5870011705
 20
85.527198298
 11
152.7017070989
 21
85.50185806
  0
LINE
  5
338
100
AcDbEntity
  8
TRASH
100
AcDbLine
 62
7
  6
CONTINUOUS
 10
139.2269574387
 20
89.6299382965
 11
139.3416633672
 21
89.6045980585
  0
LWPOLYLINE
  5
339
100
AcDbEntity
  8
RACCORDO
100
AcDbPolyline
 62
7
  6
CONTINUOUS
 90
5
 70
0
 10
67.3345870518
 20
102.2846495356
 10
67.4094414716
 20
102.267235297
 10
67.4861241561
 20
102.2479607717
 10
67.5648475962
 20
102.2265161477
 10
67.6455366146
 20
102.2027020592
  0
LINE
  5
33A
100
AcDbEntity
  8
0
100
AcDbLine
 62
7
  6
CONTINUOUS
 10
154.3217361478
 20
85.495311755
 11
154.2365028306
 21
85.5156244812
  0
LINE
  5
33B
100
AcDbEntity
  8
0
100
AcDbLine
 62
7
  6
CONTINUOUS
 10
140.961692416
 20
89.5980517535
 11
140.8764590988
 21
89.6183644797
  0
LINE
  5
33C
100
AcDbEntity
  8
0
100
AcDbLine
 62
7
  6
CONTINUOUS
 10
154.4083812105
 20
85.4740128684
 11
154.3217361478
 21
85.495311755
  0
LINE
  5
33D
100
AcDbEntity
  8
0
100
AcDbLine
 62
7
  6
CONTINUOUS
 10
141.0483374788
 20
89.5767528669
 11
140.961692416
 21
89.5980517535
  0
LWPOLYLINE
  5
33E
100
AcDbEntity
  8
0
100
AcDbPolyline
 62
7
  6
CONTINUOUS
 90
7
 70
0
 10
179.5606887078
 20
77.6045133294
 10
179.6244185434
 20
77.5885503259
 10
179.686306315
 20
77.5813803753
 10
179.7463520226
 20
77.5830034778
 10
179.8061409948
 20
77.5945585476
 10
179.8640879029
 20
77.6149066704
 10
179.9154367606
 20
77.6406311031
  0
LINE
  5
33F
100
AcDbEntity
  8
0
100
AcDbLine
 62
7
  6
CONTINUOUS
 10
179.6382864561
 20
77.454864564
 11
179.5805653402
 21
77.4695173627
  0
LINE
  5
340
100
AcDbEntity
  8
0
100
AcDbLine
 62
7
  6
CONTINUOUS
 10
154.4961072415
 20
85.4518054471
 11
154.4083812105
 21
85.4740128684
  0
LINE
  5
341
100
AcDbEntity
  8
0
100
AcDbLine
 62
7
  6
CONTINUOUS
 10
141.1360635097
 20
89.5545454456
 11
141.0483374788
 21
89.5767528669
  0
LWPOLYLINE
  5
342
100
AcDbEntity
  8
0
100
AcDbPolyline
 62
7
  6
CONTINUOUS
 90
16
 70
0
 10
187.3258004292
 20
74.3288205582
 10
187.4232611915
 20
74.3038627581
 10
187.5223221978
 20
74.2870287079
 10
187.6229834479
 20
74.2783184075
 10
187.7263804186
 20
74.2778152427
 10
187.8313776332
 20
74.2854358277
 10
187.9345686616
 20
74.3009300055
 10
188.0358965204
 20
74.3245625496
 10
188.1354181931
 20
74.3560686866
 10
188.2298982002
 20
74.3944039389
 10
188.3191512718
 20
74.4397836857
 10
188.4033626777
 20
74.4919925479
 10
188.4798527488
 20
74.5493399104
 10
188.5477282617
 20
74.6112622352
 10
188.6078824397
 20
74.6783230603
 10
188.6603152827
 20
74.7505223859
  0
LINE
  5
343
100
AcDbEntity
  8
0
100
AcDbLine
 62
7
  6
CONTINUOUS
 10
154.5836856904
 20
85.4289719512
 11
154.4961072415
 21
85.4518054471
  0
LINE
  5
344
100
AcDbEntity
  8
0
100
AcDbLine
 62
7
  6
CONTINUOUS
 10
141.2236419587
 20
89.5317119497
 11
141.1360635097
 21
89.5545454456
  0
LWPOLYLINE
  5
345
100
AcDbEntity
  8
0
100
AcDbPolyline
 62
7
  6
CONTINUOUS
 90
3
 70
0
 10
179.454931081
 20
77.4158893026
 10
179.3992264567
 20
77.4308683833
 10
179.3432589647
 20
77.4393267059
  0
LINE
  5
346
100
AcDbEntity
  8
0
100
AcDbLine
 62
7
  6
CONTINUOUS
 10
154.6707573549
 20
85.4056194968
 11
154.5836856904
 21
85.4289719512
  0
LINE
  5
347
100
AcDbEntity
  8
0
100
AcDbLine
 62
7
  6
CONTINUOUS
 10
141.3107136231
 20
89.5083594953
 11
141.2236419587
 21
89.5317119497
  0
LINE
  5
348
100
AcDbEntity
  8
0
100
AcDbLine
 62
7
  6
CONTINUOUS
 10
154.7572065108
 20
85.3817834335
 11
154.6707573549
 21
85.4056194968
  0
LINE
  5
349
100
AcDbEntity
  8
0
100
AcDbLine
 62
7
  6
CONTINUOUS
 10
141.3971627791
 20
89.484523432
 11
141.3107136231
 21
89.5083594953
  0
LWPOLYLINE
  5
34A
100
AcDbEntity
  8
0
100
AcDbPolyline
 62
7
  6
CONTINUOUS
 90
3
 70
0
 10
154.8859982449
 20
85.3450705152
 10
154.8431888893
 20
85.357435546
 10
154.7572065108
 20
85.3817834335
  0
LWPOLYLINE
  5
34B
100
AcDbEntity
  8
0
100
AcDbPolyline
 62
7
  6
CONTINUOUS
 90
3
 70
0
 10
141.5259545132
 20
89.4478105137
 10
141.4831451575
 20
89.4601755445
 10
141.3971627791
 20
89.484523432
  0
LWPOLYLINE
  5
34C
100
AcDbEntity
  8
0
100
AcDbPolyline
 62
7
  6
CONTINUOUS
 90
4
 70
0
 10
180.0176795944
 20
78.1761795718
 10
179.9294134094
 20
78.203023677
 10
179.8357023555
 20
78.2223784988
 10
179.7373168555
 20
78.2332372141
  0
LINE
  5
34D
100
AcDbEntity
  8
ASSI
100
AcDbLine
 62
7
  6
CONTINUOUS
 10
134.5691018116
 20
90.7965305505
 11
134.7633727007
 21
90.7369270143
  0
LINE
  5
34E
100
AcDbEntity
  8
ASSI
100
AcDbLine
 62
7
  6
CONTINUOUS
 10
134.5430791277
 20
90.8766160896
 11
134.7835907998
 21
90.802825589
  0
LINE
  5
34F
100
AcDbEntity
  8
ASSI
100
AcDbLine
 62
7
  6
CONTINUOUS
 10
129.8801669759
 20
92.5444237268
 11
129.3189731507
 21
92.7166015382
  0
LINE
  5
350
100
AcDbEntity
  8
ASSI
100
AcDbLine
 62
7
  6
CONTINUOUS
 10
129.4522320297
 20
92.8408120502
 11
129.9264615098
 21
92.6953154493
  0
LINE
  5
351
100
AcDbEntity
  8
ASSI
100
AcDbLine
 62
7
  6
CONTINUOUS
 10
135.0167015113
 20
91.1582599246
 11
134.7361042547
 21
91.2443489359
  0
LINE
  5
352
100
AcDbEntity
  8
ASSI
100
AcDbLine
 62
7
  6
CONTINUOUS
 10
133.033884657
 20
91.8140400091
 11
132.8735432364
 21
91.86323377
  0
LINE
  5
353
100
AcDbEntity
  8
ASSI
100
AcDbLine
 62
7
  6
CONTINUOUS
 10
129.4262093457
 20
92.9208975893
 11
129.9874031709
 21
92.7487197779
  0
LINE
  5
354
100
AcDbEntity
  8
ASSI
100
AcDbLine
 62
7
  6
CONTINUOUS
 10
132.9853548523
 20
91.946585026
 11
133.1456962729
 21
91.8973912651
  0
LINE
  5
355
100
AcDbEntity
  8
ASSI
100
AcDbLine
 62
7
  6
CONTINUOUS
 10
135.6636840391
 20
91.1495189787
 11
135.423172367
 21
91.2233094794
  0
LINE
  5
356
100
AcDbEntity
  8
ASSI
100
AcDbLine
 62
7
  6
CONTINUOUS
 10
126.6845816321
 20
93.9043643306
 11
126.4039846622
 21
93.9904532539
  0
LINE
  5
357
100
AcDbEntity
  8
ASSI
100
AcDbLine
 62
7
  6
CONTINUOUS
 10
132.9593321684
 20
92.0266705652
 11
133.119673589
 21
91.9774768042
  0
LINE
  5
358
100
AcDbEntity
  8
ASSI
100
AcDbLine
 62
7
  6
CONTINUOUS
 10
126.5773288089
 20
94.1023652861
 11
126.7777551832
 21
94.040873208
  0
LINE
  5
359
100
AcDbEntity
  8
ASSI
100
AcDbLine
 62
7
  6
CONTINUOUS
 10
135.5564312159
 20
91.3475199342
 11
135.796942888
 21
91.2737294335
  0
LINE
  5
35A
100
AcDbEntity
  8
ASSI
100
AcDbLine
 62
7
  6
CONTINUOUS
 10
126.551306125
 20
94.1824508252
 11
126.7517324993
 21
94.1209587472
  0
LINE
  5
35B
100
AcDbEntity
  8
ASSI
100
AcDbLine
 62
7
  6
CONTINUOUS
 10
135.5304085319
 20
91.4276054733
 11
135.7709202041
 21
91.3538149726
  0
LINE
  5
35C
100
AcDbEntity
  8
ASSI
100
AcDbLine
 62
7
  6
CONTINUOUS
 10
127.401524542
 20
94.2062346479
 11
127.2010982251
 21
94.2677267084
  0
LINE
  5
35D
100
AcDbEntity
  8
0
100
AcDbLine
 62
7
  6
CONTINUOUS
 10
64.8609251073
 20
110.2732154764
 11
186.4380468966
 21
72.9380592088
  0
LINE
  5
35E
100
AcDbEntity
  8
0
100
AcDbLine
 62
7
  6
CONTINUOUS
 10
187.3258004292
 20
74.3288205582
 11
174.0102931205
 21
78.4178838526
  0
LINE
  5
35F
100
AcDbEntity
  8
0
100
AcDbLine
 62
7
  6
CONTINUOUS
 10
172.9414896219
 20
78.7461030525
 11
80.1337191652
 21
107.2464702421
  0
LINE
  5
360
100
AcDbEntity
  8
0
100
AcDbLine
 62
7
  6
CONTINUOUS
 10
79.0649156667
 20
107.574689442
 11
65.749408358
 21
111.6637527364
  0
LINE
  5
361
100
AcDbEntity
  8
0
100
AcDbLine
 62
7
  6
CONTINUOUS
 10
142.6968006126
 20
88.1625445032
 11
149.8221572696
 21
85.974416504
  0
LINE
  5
362
100
AcDbEntity
  8
0
100
AcDbLine
 62
7
  6
CONTINUOUS
 10
112.0204268964
 20
97.6615593262
 11
112.6278092206
 21
97.4750380987
  0
LINE
  5
363
100
AcDbEntity
  8
0
100
AcDbLine
 62
7
  6
CONTINUOUS
 10
176.8383471922
 20
77.7628582953
 11
176.920918667
 21
77.7375013954
  0
LINE
  5
364
100
AcDbEntity
  8
0
100
AcDbLine
 62
7
  6
CONTINUOUS
 10
180.0924772618
 20
76.7635464768
 11
180.9246717139
 21
76.5079876228
  0
LINE
  5
365
100
AcDbEntity
  8
0
100
AcDbLine
 62
7
  6
CONTINUOUS
 10
181.1632161854
 20
76.4347329267
 11
181.4424223953
 21
76.3489914045
  0
LINE
  5
366
100
AcDbEntity
  8
0
100
AcDbLine
 62
7
  6
CONTINUOUS
 10
112.6607476741
 20
97.5281363003
 11
112.1904652281
 21
97.6725554834
  0
LINE
  5
367
100
AcDbEntity
  8
0
100
AcDbLine
 62
7
  6
CONTINUOUS
 10
181.4691043284
 20
76.4358776789
 11
181.2843956047
 21
76.4925999385
  0
LINE
  5
368
100
AcDbEntity
  8
0
100
AcDbLine
 62
7
  6
CONTINUOUS
 10
181.0431408257
 20
76.5666869439
 11
180.4337767617
 21
76.7538167444
  0
LINE
  5
369
100
AcDbEntity
  8
0
100
AcDbLine
 62
7
  6
CONTINUOUS
 10
176.9476006001
 20
77.8243876697
 11
176.8236847594
 21
77.8624410239
  0
LINE
  5
36A
100
AcDbEntity
  8
0
100
AcDbLine
 62
7
  6
CONTINUOUS
 10
112.6408710417
 20
97.663132267
 11
112.1705885956
 21
97.8075514501
  0
LINE
  5
36B
100
AcDbEntity
  8
0
100
AcDbLine
 62
7
  6
CONTINUOUS
 10
181.5437251822
 20
76.541854383
 11
181.2645189723
 21
76.6275959051
  0
LINE
  5
36C
100
AcDbEntity
  8
0
100
AcDbLine
 62
7
  6
CONTINUOUS
 10
181.0232641932
 20
76.7016829105
 11
180.4139001293
 21
76.8888127111
  0
LINE
  5
36D
100
AcDbEntity
  8
0
100
AcDbLine
 62
7
  6
CONTINUOUS
 10
177.0222214539
 20
77.9303643739
 11
176.803808127
 21
77.9974369906
  0
LINE
  5
36E
100
AcDbEntity
  8
0
100
AcDbLine
 62
7
  6
CONTINUOUS
 10
110.7902655979
 20
98.9842911545
 11
111.3027346087
 21
98.8269168861
  0
LINE
  5
36F
100
AcDbEntity
  8
0
100
AcDbLine
 62
7
  6
CONTINUOUS
 10
111.5072679715
 20
98.7641066718
 11
112.0197360917
 21
98.6067326769
  0
LINE
  5
370
100
AcDbEntity
  8
0
100
AcDbLine
 62
7
  6
CONTINUOUS
 10
112.0374753837
 20
98.6644983937
 11
110.8970316531
 21
99.0147176148
  0
LINE
  5
371
100
AcDbEntity
  8
0
100
AcDbLine
 62
7
  6
CONTINUOUS
 10
110.5995305315
 20
99.1060773271
 11
110.4730978707
 21
99.1449035723
  0
LINE
  5
372
100
AcDbEntity
  8
0
100
AcDbLine
 62
7
  6
CONTINUOUS
 10
109.4565128807
 20
99.4570869741
 11
109.3364716649
 21
99.4939504686
  0
LINE
  5
373
100
AcDbEntity
  8
0
100
AcDbLine
 62
7
  6
CONTINUOUS
 10
108.575116618
 20
99.7277552275
 11
108.3325481014
 21
99.802245669
  0
LINE
  5
374
100
AcDbEntity
  8
0
100
AcDbLine
 62
7
  6
CONTINUOUS
 10
107.9043527973
 20
99.9337402985
 11
107.7779807021
 21
99.9725479447
  0
LINE
  5
375
100
AcDbEntity
  8
0
100
AcDbLine
 62
7
  6
CONTINUOUS
 10
112.1066255144
 20
98.7721551039
 11
110.8771550206
 21
99.1497135815
  0
LINE
  5
376
100
AcDbEntity
  8
0
100
AcDbLine
 62
7
  6
CONTINUOUS
 10
110.6578285267
 20
99.217066623
 11
110.4532212383
 21
99.279899539
  0
LINE
  5
377
100
AcDbEntity
  8
0
100
AcDbLine
 62
7
  6
CONTINUOUS
 10
109.5148108759
 20
99.56807627
 11
109.3165950324
 21
99.6289464352
  0
LINE
  5
378
100
AcDbEntity
  8
0
100
AcDbLine
 62
7
  6
CONTINUOUS
 10
108.5552399856
 20
99.8627511941
 11
108.3126714689
 21
99.9372416356
  0
LINE
  5
379
100
AcDbEntity
  8
0
100
AcDbLine
 62
7
  6
CONTINUOUS
 10
107.9626507925
 20
100.0447295944
 11
107.7581040696
 21
100.1075439113
  0
LINE
  5
37A
100
AcDbEntity
  8
0
100
AcDbLine
 62
7
  6
CONTINUOUS
 10
177.6678355548
 20
78.7399783265
 11
178.7157463486
 21
78.4181750739
  0
LINE
  5
37B
100
AcDbEntity
  8
0
100
AcDbLine
 62
7
  6
CONTINUOUS
 10
138.2308343617
 20
90.4598671776
 11
138.2556049225
 21
90.4517016585
  0
LINE
  5
37C
100
AcDbEntity
  8
0
100
AcDbLine
 62
7
  6
CONTINUOUS
 10
151.5908780935
 20
86.3571271791
 11
151.6156486543
 21
86.34896166
  0
LINE
  5
37D
100
AcDbEntity
  8
0
100
AcDbLine
 62
7
  6
CONTINUOUS
 10
138.2556049225
 20
90.4517016585
 11
138.3086942134
 21
90.433810845
  0
LWPOLYLINE
  5
37E
100
AcDbEntity
  8
0
100
AcDbPolyline
 62
7
  6
CONTINUOUS
 90
4
 70
0
 10
151.6156486543
 20
86.34896166
 10
151.6687379451
 20
86.3310708465
 10
151.6969841525
 20
86.3213869463
 10
151.7264130829
 20
86.3111831211
  0
LWPOLYLINE
  5
37F
100
AcDbEntity
  8
0
100
AcDbPolyline
 62
7
  6
CONTINUOUS
 90
14
 70
0
 10
64.8609251073
 20
110.2732154764
 10
64.6640501319
 20
110.3408337691
 10
64.4774967462
 20
110.4188511828
 10
64.3012649502
 20
110.5072677175
 10
64.1344097206
 20
110.6067158095
 10
63.9778760808
 20
110.7165630225
 10
63.8344991007
 20
110.8349120473
 10
63.7045756717
 20
110.9618818349
 10
63.5878089025
 20
111.0973534344
 10
63.486143189
 20
111.2390726835
 10
63.3998313699
 20
111.3871442284
 10
63.3286206065
 20
111.5414634229
 10
63.2736967782
 20
111.6994621661
 10
63.2328946623
 20
111.8747196687
  0
LINE
  5
380
100
AcDbEntity
  8
0
100
AcDbLine
 62
7
  6
CONTINUOUS
 10
138.3086942134
 20
90.433810845
 11
138.3663693512
 21
90.4139231196
  0
LWPOLYLINE
  5
381
100
AcDbEntity
  8
0
100
AcDbPolyline
 62
7
  6
CONTINUOUS
 90
4
 70
0
 10
138.3663693512
 20
90.4139231196
 10
138.4295439907
 20
90.3915443546
 10
138.4632896997
 20
90.3793694148
 10
138.4983055515
 20
90.3665425568
  0
LWPOLYLINE
  5
382
100
AcDbEntity
  8
0
100
AcDbPolyline
 62
7
  6
CONTINUOUS
 90
11
 70
0
 10
114.6346210253
 20
97.7316531043
 10
114.4766860303
 20
97.7883254523
 10
114.327201783
 20
97.8582303001
 10
114.1909933244
 20
97.9391112641
 10
114.0684938302
 20
98.0313264841
 10
113.9592701248
 20
98.1345178203
 10
113.8668477226
 20
98.2453544708
 10
113.7917748331
 20
98.3640858944
 10
113.7335032469
 20
98.4904626323
 10
113.6939138497
 20
98.6204055056
 10
113.6805044599
 20
98.6927570531
  0
LWPOLYLINE
  5
383
100
AcDbEntity
  8
0
100
AcDbPolyline
 62
7
  6
CONTINUOUS
 90
6
 70
0
 10
138.4983055515
 20
90.3665425568
 10
138.5725076134
 20
90.3387857131
 10
138.6108438152
 20
90.3241426635
 10
138.6495567688
 20
90.3091320282
 10
138.6888698218
 20
90.2936827243
 10
138.7287829743
 20
90.2777947516
  0
LWPOLYLINE
  5
384
100
AcDbEntity
  8
ASSI
100
AcDbPolyline
 62
7
  6
CONTINUOUS
 90
4
 70
0
 10
119.4270499753
 20
98.4599411485
 10
119.2772929202
 20
98.5262552765
 10
119.1371880461
 20
98.6313188365
 10
119.0087743813
 20
98.7745091156
  0
LWPOLYLINE
  5
385
100
AcDbEntity
  8
ASSI
100
AcDbPolyline
 62
7
  6
CONTINUOUS
 90
5
 70
0
 10
124.0246492842
 20
95.5281319956
 10
124.1209176715
 20
95.4822219241
 10
124.2074710221
 20
95.4267546998
 10
124.2857387202
 20
95.3612400358
 10
124.3557207656
 20
95.2856779322
  0
LINE
  5
386
100
AcDbEntity
  8
ASSI
100
AcDbLine
 62
7
  6
CONTINUOUS
 10
126.7777551832
 20
94.040873208
 11
126.9567343819
 21
93.9385219137
  0
LINE
  5
387
100
AcDbEntity
  8
ASSI
100
AcDbLine
 62
7
  6
CONTINUOUS
 10
126.7517324993
 20
94.1209587472
 11
126.930711698
 21
94.0186074528
  0
LINE
  5
388
100
AcDbEntity
  8
ASSI
100
AcDbLine
 62
7
  6
CONTINUOUS
 10
127.1022729064
 20
94.7477781244
 11
127.2812520477
 21
94.6454268476
  0
LINE
  5
389
100
AcDbEntity
  8
ASSI
100
AcDbLine
 62
7
  6
CONTINUOUS
 10
127.0762502225
 20
94.8278636635
 11
127.2552293638
 21
94.7255123867
  0
LINE
  5
38A
100
AcDbEntity
  8
ASSI
100
AcDbLine
 62
7
  6
CONTINUOUS
 10
135.796942888
 20
91.2737294335
 11
135.9759217426
 21
91.1713782447
  0
LINE
  5
38B
100
AcDbEntity
  8
ASSI
100
AcDbLine
 62
7
  6
CONTINUOUS
 10
135.7709202041
 20
91.3538149726
 11
135.9498990587
 21
91.2514637838
  0
LINE
  5
38C
100
AcDbEntity
  8
ASSI
100
AcDbLine
 62
7
  6
CONTINUOUS
 10
133.5960882259
 20
92.755434554
 11
133.7750670805
 21
92.6530833651
  0
LINE
  5
38D
100
AcDbEntity
  8
ASSI
100
AcDbLine
 62
7
  6
CONTINUOUS
 10
133.5700655419
 20
92.8355200931
 11
133.7490443965
 21
92.7331689042
  0
LINE
  5
38E
100
AcDbEntity
  8
ASSI
100
AcDbLine
 62
7
  6
CONTINUOUS
 10
132.3700465016
 20
91.2586801239
 11
132.5089402305
 21
91.1686273049
  0
LINE
  5
38F
100
AcDbEntity
  8
ASSI
100
AcDbLine
 62
7
  6
CONTINUOUS
 10
134.8553334744
 20
90.4961783776
 11
134.994227662
 21
90.4061254179
  0
LINE
  5
390
100
AcDbEntity
  8
ASSI
100
AcDbLine
 62
7
  6
CONTINUOUS
 10
133.1727783858
 20
91.7239871901
 11
133.033884657
 21
91.8140400091
  0
LINE
  5
391
100
AcDbEntity
  8
ASSI
100
AcDbLine
 62
7
  6
CONTINUOUS
 10
132.8464611235
 20
92.036637845
 11
132.9853548523
 21
91.946585026
  0
LINE
  5
392
100
AcDbEntity
  8
ASSI
100
AcDbLine
 62
7
  6
CONTINUOUS
 10
132.8204384396
 20
92.1167233841
 11
132.9593321684
 21
92.0266705652
  0
LINE
  5
393
100
AcDbEntity
  8
ASSI
100
AcDbLine
 62
7
  6
CONTINUOUS
 10
135.8025782267
 20
91.059466019
 11
135.6636840391
 21
91.1495189787
  0
LINE
  5
394
100
AcDbEntity
  8
ASSI
100
AcDbLine
 62
7
  6
CONTINUOUS
 10
133.6017231058
 20
92.5411712802
 11
133.462829377
 21
92.6312240992
  0
LINE
  5
395
100
AcDbEntity
  8
0
100
AcDbLine
 62
7
  6
CONTINUOUS
 10
116.748794298
 20
98.9795886053
 11
116.8894487842
 21
98.8780039471
  0
LINE
  5
396
100
AcDbEntity
  8
ASSI
100
AcDbLine
 62
7
  6
CONTINUOUS
 10
125.8762313542
 20
93.2510236416
 11
125.9750399572
 21
93.1732691924
  0
LINE
  5
397
100
AcDbEntity
  8
ASSI
100
AcDbLine
 62
7
  6
CONTINUOUS
 10
126.7833901778
 20
93.8266098991
 11
126.6845816321
 21
93.9043643306
  0
LINE
  5
398
100
AcDbEntity
  8
ASSI
100
AcDbLine
 62
7
  6
CONTINUOUS
 10
127.1079079584
 20
94.5335147979
 11
127.0090993553
 21
94.611269247
  0
LINE
  5
399
100
AcDbEntity
  8
ASSI
100
AcDbLine
 62
7
  6
CONTINUOUS
 10
124.3950269434
 20
95.5206695381
 11
124.5089302359
 21
95.4251995078
  0
LINE
  5
39A
100
AcDbEntity
  8
ASSI
100
AcDbLine
 62
7
  6
CONTINUOUS
 10
122.7569772409
 20
94.1572806193
 11
122.6905575442
 21
94.2289963283
  0
LINE
  5
39B
100
AcDbEntity
  8
ASSI
100
AcDbLine
 62
7
  6
CONTINUOUS
 10
132.2786226897
 20
91.3095066025
 11
132.3504070583
 21
91.2294919842
  0
LINE
  5
39C
100
AcDbEntity
  8
ASSI
100
AcDbLine
 62
7
  6
CONTINUOUS
 10
132.2526000058
 20
91.3895921416
 11
132.3700465016
 21
91.2586801239
  0
LINE
  5
39D
100
AcDbEntity
  8
ASSI
100
AcDbLine
 62
7
  6
CONTINUOUS
 10
132.5957557787
 20
92.043339408
 11
132.5370323014
 21
92.1087954872
  0
LINE
  5
39E
100
AcDbEntity
  8
ASSI
100
AcDbLine
 62
7
  6
CONTINUOUS
 10
133.2902248817
 20
91.5930751724
 11
133.1727783858
 21
91.7239871901
  0
LINE
  5
39F
100
AcDbEntity
  8
ASSI
100
AcDbLine
 62
7
  6
CONTINUOUS
 10
133.4234837306
 20
91.7172856272
 11
133.449033084
 21
91.6888070599
  0
LINE
  5
3A0
100
AcDbEntity
  8
ASSI
100
AcDbLine
 62
7
  6
CONTINUOUS
 10
133.3974610467
 20
91.7973711663
 11
133.456184524
 21
91.731915087
  0
LINE
  5
3A1
100
AcDbEntity
  8
ASSI
100
AcDbLine
 62
7
  6
CONTINUOUS
 10
124.5089302359
 20
95.4251995078
 11
124.5617813031
 21
95.3658105168
  0
LINE
  5
3A2
100
AcDbEntity
  8
ASSI
100
AcDbLine
 62
7
  6
CONTINUOUS
 10
124.4974418216
 20
95.4915164957
 11
124.5832954032
 21
95.3924787498
  0
LWPOLYLINE
  5
3A3
100
AcDbEntity
  8
ASSI
100
AcDbPolyline
 62
7
  6
CONTINUOUS
 90
4
 70
0
 10
92.3061481859
 20
132.8262685879
 10
92.4552595408
 20
132.6419580933
 10
92.6282932369
 20
132.468431733
 10
92.7969769722
 20
132.3290505443
  0
LINE
  5
3A4
100
AcDbEntity
  8
ASSI
100
AcDbLine
 62
7
  6
CONTINUOUS
 10
126.9567343819
 20
93.9385219137
 11
127.0330109045
 21
93.835349391
  0
LINE
  5
3A5
100
AcDbEntity
  8
ASSI
100
AcDbLine
 62
7
  6
CONTINUOUS
 10
126.930711698
 20
94.0186074528
 11
127.066796316
 21
93.834537796
  0
LINE
  5
3A6
100
AcDbEntity
  8
ASSI
100
AcDbLine
 62
7
  6
CONTINUOUS
 10
127.2812520477
 20
94.6454268476
 11
127.3698568063
 21
94.5255790859
  0
LINE
  5
3A7
100
AcDbEntity
  8
ASSI
100
AcDbLine
 62
7
  6
CONTINUOUS
 10
127.2552293638
 20
94.7255123867
 11
127.3913140965
 21
94.5414426948
  0
LINE
  5
3A8
100
AcDbEntity
  8
ASSI
100
AcDbLine
 62
7
  6
CONTINUOUS
 10
125.824892668
 20
93.2895517503
 11
125.8855689121
 21
93.1965204268
  0
LINE
  5
3A9
100
AcDbEntity
  8
ASSI
100
AcDbLine
 62
7
  6
CONTINUOUS
 10
125.7988699841
 20
93.3696372894
 11
125.8762313542
 21
93.2510236416
  0
LINE
  5
3AA
100
AcDbEntity
  8
ASSI
100
AcDbLine
 62
7
  6
CONTINUOUS
 10
126.8607515479
 20
93.7079962512
 11
126.7833901778
 21
93.8266098991
  0
LINE
  5
3AB
100
AcDbEntity
  8
ASSI
100
AcDbLine
 62
7
  6
CONTINUOUS
 10
127.1852693284
 20
94.41490115
 11
127.1079079584
 21
94.5335147979
  0
LWPOLYLINE
  5
3AC
100
AcDbEntity
  8
ASSI
100
AcDbPolyline
 62
7
  6
CONTINUOUS
 90
6
 70
0
 10
117.7160275718
 20
104.876739353
 10
117.6864448312
 20
104.9256752699
 10
117.649378222
 20
104.9685036793
 10
117.6055085725
 20
105.0042059881
 10
117.5541550545
 20
105.0338007894
 10
117.4953176678
 20
105.0572880833
  0
LINE
  5
3AD
100
AcDbEntity
  8
ASSI
100
AcDbLine
 62
7
  6
CONTINUOUS
 10
124.9522701496
 20
95.5656386636
 11
125.0708284864
 21
95.3460579025
  0
LINE
  5
3AE
100
AcDbEntity
  8
ASSI
100
AcDbLine
 62
7
  6
CONTINUOUS
 10
126.8980276775
 20
93.6016810084
 11
126.8607515479
 21
93.7079962512
  0
LINE
  5
3AF
100
AcDbEntity
  8
ASSI
100
AcDbLine
 62
7
  6
CONTINUOUS
 10
127.066796316
 20
93.834537796
 11
127.122710453
 21
93.6750649493
  0
LINE
  5
3B0
100
AcDbEntity
  8
ASSI
100
AcDbLine
 62
7
  6
CONTINUOUS
 10
122.3444245698
 20
94.3417762717
 11
122.334305494
 21
94.3722481166
  0
LINE
  5
3B1
100
AcDbEntity
  8
ASSI
100
AcDbLine
 62
7
  6
CONTINUOUS
 10
124.70185374
 20
95.1728979887
 11
124.7119728159
 21
95.1424261438
  0
LINE
  5
3B2
100
AcDbEntity
  8
ASSI
100
AcDbLine
 62
7
  6
CONTINUOUS
 10
122.3444245698
 20
94.3417762717
 11
122.3607914285
 21
94.2914068053
  0
LINE
  5
3B3
100
AcDbEntity
  8
ASSI
100
AcDbLine
 62
7
  6
CONTINUOUS
 10
122.5719992074
 20
94.4485770894
 11
122.5980218913
 21
94.3684915503
  0
LINE
  5
3B4
100
AcDbEntity
  8
ASSI
100
AcDbLine
 62
7
  6
CONTINUOUS
 10
122.6905575442
 20
94.2289963283
 11
122.7002133695
 21
94.1992802555
  0
LINE
  5
3B5
100
AcDbEntity
  8
ASSI
100
AcDbLine
 62
7
  6
CONTINUOUS
 10
124.3557207656
 20
95.2856779322
 11
124.3817434496
 21
95.2055923931
  0
LINE
  5
3B6
100
AcDbEntity
  8
ASSI
100
AcDbLine
 62
7
  6
CONTINUOUS
 10
124.4742791025
 20
95.0660971711
 11
124.4906459612
 21
95.0157277047
  0
LINE
  5
3B7
100
AcDbEntity
  8
ASSI
100
AcDbLine
 62
7
  6
CONTINUOUS
 10
124.5832954032
 20
95.3924787498
 11
124.6093180871
 21
95.3123932107
  0
LINE
  5
3B8
100
AcDbEntity
  8
ASSI
100
AcDbLine
 62
7
  6
CONTINUOUS
 10
124.70185374
 20
95.1728979887
 11
124.7115095653
 21
95.143181916
  0
LINE
  5
3B9
100
AcDbEntity
  8
ASSI
100
AcDbLine
 62
7
  6
CONTINUOUS
 10
125.7988699841
 20
93.3696372894
 11
125.8163838117
 21
93.3157379943
  0
LINE
  5
3BA
100
AcDbEntity
  8
ASSI
100
AcDbLine
 62
7
  6
CONTINUOUS
 10
125.8762313542
 20
93.2510236416
 11
125.8948694708
 21
93.1936643153
  0
LINE
  5
3BB
100
AcDbEntity
  8
ASSI
100
AcDbLine
 62
7
  6
CONTINUOUS
 10
125.6954693169
 20
93.9706335116
 11
125.7214920008
 21
93.8905479725
  0
LINE
  5
3BC
100
AcDbEntity
  8
ASSI
100
AcDbLine
 62
7
  6
CONTINUOUS
 10
125.8455999479
 20
94.2566479031
 11
125.8716226318
 21
94.176562364
  0
LINE
  5
3BD
100
AcDbEntity
  8
ASSI
100
AcDbLine
 62
7
  6
CONTINUOUS
 10
126.0031318705
 20
94.1134374231
 11
126.0291545545
 21
94.033351884
  0
LINE
  5
3BE
100
AcDbEntity
  8
ASSI
100
AcDbLine
 62
7
  6
CONTINUOUS
 10
126.3973399389
 20
93.0911442352
 11
126.4160314736
 21
93.0336205132
  0
LINE
  5
3BF
100
AcDbEntity
  8
ASSI
100
AcDbLine
 62
7
  6
CONTINUOUS
 10
126.0358158587
 20
94.5303638774
 11
126.0618385426
 21
94.4502783383
  0
LINE
  5
3C0
100
AcDbEntity
  8
ASSI
100
AcDbLine
 62
7
  6
CONTINUOUS
 10
126.5604902409
 20
93.1359673824
 11
126.5865129249
 21
93.0558818433
  0
LINE
  5
3C1
100
AcDbEntity
  8
ASSI
100
AcDbLine
 62
7
  6
CONTINUOUS
 10
126.329432489
 20
94.2030837132
 11
126.3554551729
 21
94.1229981741
  0
LINE
  5
3C2
100
AcDbEntity
  8
ASSI
100
AcDbLine
 62
7
  6
CONTINUOUS
 10
126.2232226399
 20
94.7100631526
 11
126.2492453239
 21
94.6299776135
  0
LINE
  5
3C3
100
AcDbEntity
  8
ASSI
100
AcDbLine
 62
7
  6
CONTINUOUS
 10
126.7050025505
 20
93.2339481621
 11
126.7310252345
 21
93.153862623
  0
LINE
  5
3C4
100
AcDbEntity
  8
ASSI
100
AcDbLine
 62
7
  6
CONTINUOUS
 10
126.80942949
 20
93.3442273534
 11
126.8354521739
 21
93.2641418143
  0
LINE
  5
3C5
100
AcDbEntity
  8
ASSI
100
AcDbLine
 62
7
  6
CONTINUOUS
 10
126.551306125
 20
94.1824508252
 11
126.5773288089
 21
94.1023652861
  0
LINE
  5
3C6
100
AcDbEntity
  8
ASSI
100
AcDbLine
 62
7
  6
CONTINUOUS
 10
126.873771189
 20
93.4668049497
 11
126.8997938729
 21
93.3867194106
  0
LINE
  5
3C7
100
AcDbEntity
  8
ASSI
100
AcDbLine
 62
7
  6
CONTINUOUS
 10
126.429267408
 20
94.8366046974
 11
126.4552900919
 21
94.7565191583
  0
LINE
  5
3C8
100
AcDbEntity
  8
ASSI
100
AcDbLine
 62
7
  6
CONTINUOUS
 10
126.8980276775
 20
93.6016810084
 11
126.9240503615
 21
93.5215954693
  0
LINE
  5
3C9
100
AcDbEntity
  8
ASSI
100
AcDbLine
 62
7
  6
CONTINUOUS
 10
126.7517324993
 20
94.1209587472
 11
126.7777551832
 21
94.040873208
  0
LINE
  5
3CA
100
AcDbEntity
  8
ASSI
100
AcDbLine
 62
7
  6
CONTINUOUS
 10
126.6940355099
 20
94.8976902069
 11
126.7200581939
 21
94.8176046678
  0
LINE
  5
3CB
100
AcDbEntity
  8
ASSI
100
AcDbLine
 62
7
  6
CONTINUOUS
 10
127.066796316
 20
93.834537796
 11
127.08431014
 21
93.7806385116
  0
LINE
  5
3CC
100
AcDbEntity
  8
ASSI
100
AcDbLine
 62
7
  6
CONTINUOUS
 10
126.9159091459
 20
94.8770573189
 11
126.9419318299
 21
94.7969717798
  0
LINE
  5
3CD
100
AcDbEntity
  8
ASSI
100
AcDbLine
 62
7
  6
CONTINUOUS
 10
127.1852693284
 20
94.41490115
 11
127.1937781883
 21
94.3887148953
  0
LINE
  5
3CE
100
AcDbEntity
  8
ASSI
100
AcDbLine
 62
7
  6
CONTINUOUS
 10
127.0762502225
 20
94.8278636635
 11
127.1022729064
 21
94.7477781244
  0
LINE
  5
3CF
100
AcDbEntity
  8
ASSI
100
AcDbLine
 62
7
  6
CONTINUOUS
 10
122.334305494
 20
94.3722481166
 11
122.3102390279
 21
94.4650618378
  0
LINE
  5
3D0
100
AcDbEntity
  8
ASSI
100
AcDbLine
 62
7
  6
CONTINUOUS
 10
124.7119728159
 20
95.1424261438
 11
124.736039282
 21
95.0496124227
  0
LINE
  5
3D1
100
AcDbEntity
  8
ASSI
100
AcDbLine
 62
7
  6
CONTINUOUS
 10
122.5719992074
 20
94.4485770894
 11
122.5485849156
 21
94.5459934481
  0
LINE
  5
3D2
100
AcDbEntity
  8
ASSI
100
AcDbLine
 62
7
  6
CONTINUOUS
 10
124.4742791025
 20
95.0660971711
 11
124.4976933942
 21
94.9686808124
  0
LWPOLYLINE
  5
3D3
100
AcDbEntity
  8
DRAFT
100
AcDbPolyline
 62
7
  6
CONTINUOUS
 90
8
 70
0
 10
119.5396316281
 20
107.6647052619
 10
119.5602118203
 20
107.5468547818
 10
119.592389341
 20
107.4235008428
 10
119.6350817755
 20
107.3020916595
 10
119.6877946388
 20
107.1840335672
 10
119.7503631024
 20
107.0697953443
 10
119.8229519948
 20
106.9589082123
 10
119.9055613158
 20
106.8513721714
  0
LINE
  5
3D4
100
AcDbEntity
  8
ASSI
100
AcDbLine
 62
7
  6
CONTINUOUS
 10
125.5849556763
 20
93.2888358391
 11
125.558358312
 21
93.4434277901
  0
LINE
  5
3D5
100
AcDbEntity
  8
0
100
AcDbLine
 62
7
  6
CONTINUOUS
 10
111.4349908462
 20
156.2591830812
 11
114.7626143435
 21
133.6589890155
  0
LINE
  5
3D6
100
AcDbEntity
  8
DRAFT
100
AcDbLine
 62
7
  6
CONTINUOUS
 10
120.5842866705
 20
101.9620495434
 11
119.9055613158
 21
106.8513721714
  0
LWPOLYLINE
  5
3D7
100
AcDbEntity
  8
0
100
AcDbPolyline
 62
7
  6
CONTINUOUS
 90
10
 70
0
 10
113.8768799922
 20
160.0827852887
 10
113.9881920827
 20
159.2561863607
 10
114.0955199394
 20
158.4235948111
 10
114.1988635623
 20
157.5850106399
 10
114.2982280111
 20
156.7403887241
 10
114.393608226
 20
155.8897741868
 10
114.4849890281
 20
155.0333023965
 10
114.5723653577
 20
154.1710184763
 10
114.6557422744
 20
153.3028773032
 10
114.7351197783
 20
152.4288788772
  0
LINE
  5
3D8
100
AcDbEntity
  8
DRAFT
100
AcDbLine
 62
7
  6
CONTINUOUS
 10
119.5395097295
 20
107.6653272625
 11
119.3610479798
 21
108.9971974067
  0
LWPOLYLINE
  5
3D9
100
AcDbEntity
  8
ASSI
100
AcDbPolyline
 62
7
  6
CONTINUOUS
 90
23
 70
0
 10
122.3102390279
 20
94.4650618378
 10
122.2938003542
 20
94.5889804515
 10
122.2951085487
 20
94.7135321128
 10
122.3146954541
 20
94.8405350755
 10
122.3520292277
 20
94.9681710858
 10
122.4055143417
 20
95.0909853827
 10
122.4758510286
 20
95.2087689235
 10
122.562339056
 20
95.3217307509
 10
122.6612821978
 20
95.4250432324
 10
122.773220439
 20
95.5182880256
 10
122.8976137947
 20
95.6018834729
 10
123.0291460848
 20
95.6722569681
 10
123.1681268139
 20
95.7288352807
 10
123.3142464774
 20
95.7721916411
 10
123.4612603812
 20
95.8004731353
 10
123.6092072946
 20
95.8130262005
 10
123.7580484482
 20
95.8105043993
 10
123.9014228402
 20
95.7930155056
 10
124.0390934619
 20
95.7599106293
 10
124.1712973219
 20
95.7118386605
 10
124.2923844437
 20
95.6508540436
 10
124.4004715017
 20
95.5776415937
 10
124.4974418216
 20
95.4915164957
  0
LINE
  5
3DA
100
AcDbEntity
  8
ASSI
100
AcDbLine
 62
7
  6
CONTINUOUS
 10
124.736039282
 20
95.0496124227
 11
124.7524779557
 21
94.925693809
  0
LINE
  5
3DB
100
AcDbEntity
  8
DRAFT
100
AcDbLine
 62
7
  6
CONTINUOUS
 10
124.6116543243
 20
101.752673617
 11
124.3291810975
 21
103.8979103606
  0
LWPOLYLINE
  5
3DC
100
AcDbEntity
  8
DRAFT
100
AcDbPolyline
 62
7
  6
CONTINUOUS
 90
3
 70
0
 10
124.3291810975
 20
103.8979103606
 10
124.0499117896
 20
106.0290325073
 10
123.9806111373
 20
106.5595987979
  0
LWPOLYLINE
  5
3DD
100
AcDbEntity
  8
0
100
AcDbPolyline
 62
7
  6
CONTINUOUS
 90
22
 70
0
 10
120.3403779316
 20
109.1210383492
 10
120.3334896942
 20
109.18231217
 10
120.3318742561
 20
109.3195036737
 10
120.3489931499
 20
109.4558330561
 10
120.3854576581
 20
109.591272187
 10
120.4406564983
 20
109.7258491964
 10
120.5128079666
 20
109.8552202181
 10
120.6024652101
 20
109.9792153857
 10
120.7090750817
 20
110.0980045655
 10
120.829196436
 20
110.2077534894
 10
120.9632701391
 20
110.3081671829
 10
121.1108553249
 20
110.3995406205
 10
121.2671882502
 20
110.4789244573
 10
121.4325543447
 20
110.5459274848
 10
121.6066681786
 20
110.6009409114
 10
121.7839097188
 20
110.6421890181
 10
121.9643810192
 20
110.6692226563
 10
122.1479800259
 20
110.6824909745
 10
122.3287805442
 20
110.681565699
 10
122.5048071758
 20
110.6663040718
 10
122.678035319
 20
110.6368488508
 10
122.8484649737
 20
110.5932000361
  0
LWPOLYLINE
  5
3DE
100
AcDbEntity
  8
0
100
AcDbPolyline
 62
7
  6
CONTINUOUS
 90
11
 70
0
 10
123.8025815391
 20
109.6320960873
 10
123.8094697765
 20
109.5708222665
 10
123.8110852146
 20
109.4336307627
 10
123.7939663208
 20
109.2973013804
 10
123.7575018126
 20
109.1618622495
 10
123.7023029724
 20
109.02728524
 10
123.6301515041
 20
108.8979142184
 10
123.5404942606
 20
108.7739190508
 10
123.433884389
 20
108.655129871
 10
123.3137630347
 20
108.5453809471
 10
123.1796893316
 20
108.4449672536
  0
LINE
  5
3DF
100
AcDbEntity
  8
ASSI
100
AcDbLine
 62
7
  6
CONTINUOUS
 10
127.2010982251
 20
94.2677267084
 11
127.1852693284
 21
94.41490115
  0
LINE
  5
3E0
100
AcDbEntity
  8
ASSI
100
AcDbLine
 62
7
  6
CONTINUOUS
 10
132.7086101654
 20
92.4356690775
 11
132.7244391767
 21
92.2884946007
  0
LWPOLYLINE
  5
3E1
100
AcDbEntity
  8
DRAFT
100
AcDbPolyline
 62
7
  6
CONTINUOUS
 90
7
 70
0
 10
124.7762773706
 20
109.7943729178
 10
124.7944019299
 20
109.5846709406
 10
124.7855944889
 20
109.3883198144
 10
124.7526539434
 20
109.1938748927
 10
124.695623051
 20
109.0033365991
 10
124.6144590541
 20
108.81470451
 10
124.5091619526
 20
108.6279786255
  0
LWPOLYLINE
  5
3E2
100
AcDbEntity
  8
ASSI
100
AcDbPolyline
 62
7
  6
CONTINUOUS
 90
3
 70
0
 10
124.7524779557
 20
94.925693809
 10
124.7511697611
 20
94.8011421476
 10
124.7315828557
 20
94.674139185
  0
LWPOLYLINE
  5
3E3
100
AcDbEntity
  8
ASSI
100
AcDbPolyline
 62
7
  6
CONTINUOUS
 90
15
 70
0
 10
124.5075157472
 20
94.8710447359
 10
124.5037461614
 20
94.7731889415
 10
124.4859555989
 20
94.6737509847
 10
124.4545730976
 20
94.5740933101
 10
124.4108857714
 20
94.4783032515
 10
124.3543819581
 20
94.386541633
 10
124.2855733198
 20
94.2986476305
 10
124.2072819559
 20
94.2182261058
 10
124.1191135538
 20
94.1455877811
 10
124.0214624263
 20
94.0804219341
 10
123.9183336111
 20
94.0254012599
 10
123.8094993338
 20
93.9809476173
 10
123.695187369
 20
93.9466391476
 10
123.5800860777
 20
93.9238829692
 10
123.5316093043
 20
93.9193986173
  0
LINE
  5
3E4
100
AcDbEntity
  8
ASSI
100
AcDbLine
 62
7
  6
CONTINUOUS
 10
124.5238850102
 20
94.6502208218
 11
124.5336133562
 21
94.7616633066
  0
LINE
  5
3E5
100
AcDbEntity
  8
ASSI
100
AcDbLine
 62
7
  6
CONTINUOUS
 10
125.558358312
 20
93.4434277901
 11
125.5854239358
 21
93.6723206458
  0
LINE
  5
3E6
100
AcDbEntity
  8
ASSI
100
AcDbLine
 62
7
  6
CONTINUOUS
 10
125.5880727406
 20
93.3945631827
 11
125.6114466197
 21
93.5922351067
  0
LINE
  5
3E7
100
AcDbEntity
  8
ASSI
100
AcDbLine
 62
7
  6
CONTINUOUS
 10
127.122710453
 20
93.6750649493
 11
127.0956448837
 21
93.4461721101
  0
LWPOLYLINE
  5
3E8
100
AcDbEntity
  8
ASSI
100
AcDbPolyline
 62
7
  6
CONTINUOUS
 90
18
 70
0
 10
122.5425321485
 20
94.7414853189
 10
122.5603227109
 20
94.8409232757
 10
122.5917052122
 20
94.9405809504
 10
122.6353925385
 20
95.036371009
 10
122.6918963518
 20
95.1281326275
 10
122.7607049901
 20
95.2160266299
 10
122.8389963539
 20
95.2964481546
 10
122.927164756
 20
95.3690864793
 10
123.0248158836
 20
95.4342523263
 10
123.1279446988
 20
95.4892730005
 10
123.236778976
 20
95.5337266431
 10
123.3510909408
 20
95.5680351129
 10
123.4661922322
 20
95.5907912912
 10
123.5821156719
 20
95.6015148082
 10
123.6988284382
 20
95.6006860337
 10
123.811543704
 20
95.588338959
 10
123.9200952443
 20
95.5639946274
 10
124.0246492842
 20
95.5281319956
  0
LINE
  5
3E9
100
AcDbEntity
  8
ASSI
100
AcDbLine
 62
7
  6
CONTINUOUS
 10
125.807297561
 20
93.6516877611
 11
125.7830411312
 21
93.5168117509
  0
LINE
  5
3EA
100
AcDbEntity
  8
ASSI
100
AcDbLine
 62
7
  6
CONTINUOUS
 10
126.873771189
 20
93.4668049497
 11
126.8980276775
 21
93.6016810084
  0
LINE
  5
3EB
100
AcDbEntity
  8
ASSI
100
AcDbLine
 62
7
  6
CONTINUOUS
 10
126.8997938729
 20
93.3867194106
 11
126.9240503615
 21
93.5215954693
  0
LINE
  5
3EC
100
AcDbEntity
  8
ASSI
100
AcDbLine
 62
7
  6
CONTINUOUS
 10
127.4257810006
 20
94.3411106493
 11
127.401524542
 21
94.2062346479
  0
LWPOLYLINE
  5
3ED
100
AcDbEntity
  8
ASSI
100
AcDbPolyline
 62
7
  6
CONTINUOUS
 90
10
 70
0
 10
124.7315828557
 20
94.674139185
 10
124.6942490821
 20
94.5465031747
 10
124.6407639682
 20
94.4236888778
 10
124.5704272812
 20
94.305905337
 10
124.4839392539
 20
94.1929435095
 10
124.384996112
 20
94.0896310281
 10
124.2730578709
 20
93.9963862348
 10
124.1486645152
 20
93.9127907876
 10
124.0171322251
 20
93.8424172923
 10
123.9161526984
 20
93.8013090664
  0
LWPOLYLINE
  5
3EE
100
AcDbEntity
  8
ASSI
100
AcDbPolyline
 62
7
  6
CONTINUOUS
 90
13
 70
0
 10
122.3598341507
 20
94.8326036797
 10
122.4154178553
 20
94.9768147358
 10
122.4909094453
 20
95.112831643
 10
122.5874324446
 20
95.2401919552
 10
122.7038633292
 20
95.3593581184
 10
122.833752522
 20
95.4637290371
 10
122.9778595574
 20
95.5524697252
 10
123.1354249009
 20
95.6264151687
 10
123.2977203712
 20
95.6814692308
 10
123.4650129181
 20
95.7165657551
 10
123.6370355918
 20
95.7327708978
 10
123.804259361
 20
95.7291869907
 10
123.966413394
 20
95.7046972165
  0
LINE
  5
3EF
100
AcDbEntity
  8
DRAFT
100
AcDbLine
 62
7
  6
CONTINUOUS
 10
118.9313634853
 20
98.8151697937
 11
120.5842866705
 21
101.9620495434
  0
LINE
  5
3F0
100
AcDbEntity
  8
DRAFT
100
AcDbLine
 62
7
  6
CONTINUOUS
 10
120.9186412907
 20
94.7218157799
 11
124.6116543243
 21
101.752673617
  0
LINE
  5
3F1
100
AcDbEntity
  8
DRAFT
100
AcDbLine
 62
7
  6
CONTINUOUS
 10
119.9055613158
 20
106.8513721714
 11
119.7564744619
 21
106.6179263474
  0
LINE
  5
3F2
100
AcDbEntity
  8
0
100
AcDbLine
 62
7
  6
CONTINUOUS
 10
143.8600151136
 20
143.4849056805
 11
142.9447709423
 21
142.051781806
  0
LINE
  5
3F3
100
AcDbEntity
  8
DRAFT
100
AcDbLine
 62
7
  6
CONTINUOUS
 10
122.5775700622
 20
106.0308241717
 11
122.4284832083
 21
105.7973783477
  0
LINE
  5
3F4
100
AcDbEntity
  8
DRAFT
100
AcDbLine
 62
7
  6
CONTINUOUS
 10
123.9806111373
 20
106.5595987979
 11
123.3191527904
 21
105.5238623478
  0
LINE
  5
3F5
100
AcDbEntity
  8
DRAFT
100
AcDbLine
 62
7
  6
CONTINUOUS
 10
119.0087743813
 20
98.7745091156
 11
118.3473160343
 21
97.7387726655
  0
LWPOLYLINE
  5
3F6
100
AcDbEntity
  8
DRAFT
100
AcDbPolyline
 62
7
  6
CONTINUOUS
 90
13
 70
0
 10
124.5091619526
 20
108.6279786255
 10
124.3805348488
 20
108.4484171586
 10
124.2336529635
 20
108.2799663964
 10
124.0685162967
 20
108.1226263388
 10
123.883017439
 20
107.9750305968
 10
123.6792637998
 20
107.8385455594
 10
123.4635776074
 20
107.7172703936
 10
123.2364167026
 20
107.6119249762
 10
122.9973232445
 20
107.5217894303
 10
122.7512459386
 20
107.4488032927
 10
122.4968690612
 20
107.393194733
 10
122.2355083361
 20
107.3547355816
 10
121.9760596398
 20
107.3346808664
  0
LWPOLYLINE
  5
3F7
100
AcDbEntity
  8
DRAFT
100
AcDbPolyline
 62
7
  6
CONTINUOUS
 90
8
 70
0
 10
117.8492884809
 20
98.1996973294
 10
117.7206613771
 20
98.0201358626
 10
117.5737794917
 20
97.8516851003
 10
117.4086428249
 20
97.6943450427
 10
117.2231439673
 20
97.5467493007
 10
117.0193903281
 20
97.4102642633
 10
116.8037041357
 20
97.2889890975
 10
116.5765432308
 20
97.1836436801
  0
LWPOLYLINE
  5
3F8
100
AcDbEntity
  8
0
100
AcDbPolyline
 62
7
  6
CONTINUOUS
 90
26
 70
0
 10
113.8529344949
 20
99.426938922
 10
113.9448858353
 20
99.5534902684
 10
114.0503486584
 20
99.6710013588
 10
114.1693229643
 20
99.7794721933
 10
114.3033966674
 20
99.8798858868
 10
114.4509818532
 20
99.9712593244
 10
114.6073147784
 20
100.0506431612
 10
114.772680873
 20
100.1176461887
 10
114.9467947068
 20
100.1726596153
 10
115.124036247
 20
100.213907722
 10
115.3045075474
 20
100.2409413602
 10
115.4881065542
 20
100.2542096784
 10
115.6689070725
 20
100.2532844029
 10
115.8468177905
 20
100.237702411
 10
116.02193002
 20
100.2079268253
 10
116.188591502
 20
100.16491874
 10
116.3465264969
 20
100.108246392
 10
116.4960107443
 20
100.0383415442
 10
116.6322192028
 20
99.9574605802
 10
116.754718697
 20
99.8652453602
 10
116.8639424024
 20
99.762054024
 10
116.9563648047
 20
99.6512173735
 10
117.0314376941
 20
99.5324859499
 10
117.0897092803
 20
99.406109212
 10
117.1292986775
 20
99.2761663387
 10
117.1427080674
 20
99.2038147912
  0
LWPOLYLINE
  5
3F9
100
AcDbEntity
  8
0
100
AcDbPolyline
 62
7
  6
CONTINUOUS
 90
5
 70
0
 10
116.9702780323
 20
98.4696329223
 10
116.878326692
 20
98.3430815759
 10
116.7728638689
 20
98.2255704855
 10
116.653889563
 20
98.117099651
 10
116.5198158599
 20
98.0166859575
  0
LWPOLYLINE
  5
3FA
100
AcDbEntity
  8
0
100
AcDbPolyline
 62
7
  6
CONTINUOUS
 90
17
 70
0
 10
113.9997444682
 20
98.4298507929
 10
114.1035915409
 20
98.5705374754
 10
114.2235062116
 20
98.6996196829
 10
114.3594884802
 20
98.8170974157
 10
114.5137913965
 20
98.9242340298
 10
114.6841619108
 20
99.0197661691
 10
114.863840874
 20
99.0999037646
 10
115.0532025314
 20
99.1640278801
 10
115.2518726377
 20
99.2127574519
 10
115.4519693073
 20
99.2441592203
 10
115.6535498953
 20
99.2575365225
 10
115.8565570467
 20
99.2535860213
 10
116.0529368114
 20
99.2324644458
 10
116.242422736
 20
99.1934814346
 10
116.4252812739
 20
99.1373273491
 10
116.5942578358
 20
99.0662300035
 10
116.748794298
 20
98.9795886053
  0
LWPOLYLINE
  5
3FB
100
AcDbEntity
  8
0
100
AcDbPolyline
 62
7
  6
CONTINUOUS
 90
18
 70
0
 10
114.3560123011
 20
98.3204443929
 10
114.4361229
 20
98.4289741194
 10
114.5286285031
 20
98.5285518224
 10
114.6335291103
 20
98.6191775019
 10
114.7525627886
 20
98.7018257471
 10
114.8839914711
 20
98.7755219688
 10
115.0226009569
 20
98.8373423997
 10
115.1686799498
 20
98.8868095745
 10
115.3219397461
 20
98.9244009585
 10
115.4763000341
 20
98.9486251798
 10
115.6318050591
 20
98.9589448129
 10
115.7884105759
 20
98.9558972834
 10
115.9399035372
 20
98.9396034966
 10
116.0860783933
 20
98.9095308879
 10
116.227140694
 20
98.866212022
 10
116.3574940418
 20
98.8113654983
 10
116.476707884
 20
98.7445278482
 10
116.5852127734
 20
98.6661625404
  0
LINE
  5
3FC
100
AcDbEntity
  8
ASSI
100
AcDbLine
 62
7
  6
CONTINUOUS
 10
113.2204798576
 20
104.8746912682
 11
114.016592827
 21
105.6841356369
  0
LINE
  5
3FD
100
AcDbEntity
  8
ASSI
100
AcDbLine
 62
7
  6
CONTINUOUS
 10
112.2008232639
 20
103.8380019242
 11
112.719424915
 21
104.3652722019
  0
LINE
  5
3FE
100
AcDbEntity
  8
0
100
AcDbLine
 62
7
  6
CONTINUOUS
 10
111.8565058048
 20
97.5047097941
 11
112.0204268964
 21
97.6615593262
  0
LINE
  5
3FF
100
AcDbEntity
  8
0
100
AcDbLine
 62
7
  6
CONTINUOUS
 10
112.1705885956
 20
97.8075514501
 11
112.7374566575
 21
98.3457884813
  0
LINE
  5
400
100
AcDbEntity
  8
0
100
AcDbLine
 62
7
  6
CONTINUOUS
 10
112.7117169375
 20
98.5573653982
 11
111.6498491251
 21
97.5681720583
  0
LINE
  5
401
100
AcDbEntity
  8
0
100
AcDbLine
 62
7
  6
CONTINUOUS
 10
112.7220073663
 20
98.4134393098
 11
111.7737842377
 21
97.5301127859
  0
LINE
  5
402
100
AcDbEntity
  8
ASSI
100
AcDbLine
 62
7
  6
CONTINUOUS
 10
135.4730565478
 20
90.252295857
 11
135.6057009737
 21
90.2887379632
  0
LINE
  5
403
100
AcDbEntity
  8
ASSI
100
AcDbLine
 62
7
  6
CONTINUOUS
 10
135.4165279877
 20
90.3240003551
 11
135.5796782898
 21
90.3688235023
  0
LINE
  5
404
100
AcDbEntity
  8
0
100
AcDbLine
 62
7
  6
CONTINUOUS
 10
139.0558229188
 20
90.7902056175
 11
139.0766213669
 21
90.7954410887
  0
LINE
  5
405
100
AcDbEntity
  8
ASSI
100
AcDbLine
 62
7
  6
CONTINUOUS
 10
135.0697891912
 20
91.3070674006
 11
135.3345578953
 21
91.3681527254
  0
LINE
  5
406
100
AcDbEntity
  8
ASSI
100
AcDbLine
 62
7
  6
CONTINUOUS
 10
135.0437665073
 20
91.3871529397
 11
135.3085352113
 21
91.4482382645
  0
LINE
  5
407
100
AcDbEntity
  8
ASSI
100
AcDbLine
 62
7
  6
CONTINUOUS
 10
132.9491052393
 20
92.7641756406
 11
133.2138734847
 21
92.8252611062
  0
LINE
  5
408
100
AcDbEntity
  8
ASSI
100
AcDbLine
 62
7
  6
CONTINUOUS
 10
132.9230825554
 20
92.8442611797
 11
133.1878508007
 21
92.9053466453
  0
LINE
  5
409
100
AcDbEntity
  8
ASSI
100
AcDbLine
 62
7
  6
CONTINUOUS
 10
190.900692038
 20
107.0933728604
 11
190.6398510389
 21
107.0336156154
  0
LINE
  5
40A
100
AcDbEntity
  8
0
100
AcDbLine
 62
7
  6
CONTINUOUS
 10
139.0766213669
 20
90.7954410887
 11
139.1054340047
 21
90.8004268724
  0
LINE
  5
40B
100
AcDbEntity
  8
0
100
AcDbLine
 62
7
  6
CONTINUOUS
 10
139.1054340047
 20
90.8004268724
 11
139.1605709757
 21
90.809551672
  0
LINE
  5
40C
100
AcDbEntity
  8
ASSI
100
AcDbLine
 62
7
  6
CONTINUOUS
 10
132.9166486708
 20
91.0373439497
 11
133.0803279576
 21
91.0635383608
  0
LINE
  5
40D
100
AcDbEntity
  8
ASSI
100
AcDbLine
 62
7
  6
CONTINUOUS
 10
132.8510698459
 20
91.1110991226
 11
133.0543052737
 21
91.1436238999
  0
LINE
  5
40E
100
AcDbEntity
  8
ASSI
100
AcDbLine
 62
7
  6
CONTINUOUS
 10
133.4990789899
 20
91.8136334846
 11
133.3974610467
 21
91.7973711663
  0
LINE
  5
40F
100
AcDbEntity
  8
ASSI
100
AcDbLine
 62
7
  6
CONTINUOUS
 10
132.6917550416
 20
91.8715681914
 11
132.4885196138
 21
91.8390434141
  0
LINE
  5
410
100
AcDbEntity
  8
ASSI
100
AcDbLine
 62
7
  6
CONTINUOUS
 10
132.5201605194
 20
91.9469915505
 11
132.6217784627
 21
91.9632538689
  0
LINE
  5
411
100
AcDbEntity
  8
ASSI
100
AcDbLine
 62
7
  6
CONTINUOUS
 10
132.4941378354
 20
92.0270770897
 11
132.5957557787
 21
92.043339408
  0
LINE
  5
412
100
AcDbEntity
  8
0
100
AcDbLine
 62
7
  6
CONTINUOUS
 10
139.1605709757
 20
90.809551672
 11
139.2125071945
 21
90.8178450736
  0
LINE
  5
413
100
AcDbEntity
  8
0
100
AcDbLine
 62
7
  6
CONTINUOUS
 10
139.2125071945
 20
90.8178450736
 11
139.2612598644
 21
90.8252887588
  0
LINE
  5
414
100
AcDbEntity
  8
0
100
AcDbLine
 62
7
  6
CONTINUOUS
 10
139.2612598644
 20
90.8252887588
 11
139.3070219088
 21
90.8320273832
  0
LINE
  5
415
100
AcDbEntity
  8
0
100
AcDbLine
 62
7
  6
CONTINUOUS
 10
139.3070219088
 20
90.8320273832
 11
139.3501096997
 21
90.8381127577
  0
LINE
  5
416
100
AcDbEntity
  8
0
100
AcDbLine
 62
7
  6
CONTINUOUS
 10
139.3501096997
 20
90.8381127577
 11
139.3912741574
 21
90.843691051
  0
LINE
  5
417
100
AcDbEntity
  8
0
100
AcDbLine
 62
7
  6
CONTINUOUS
 10
139.3912741574
 20
90.843691051
 11
139.4310173077
 21
90.8488806567
  0
LINE
  5
418
100
AcDbEntity
  8
0
100
AcDbLine
 62
7
  6
CONTINUOUS
 10
139.4310173077
 20
90.8488806567
 11
139.4700972047
 21
90.8537612646
  0
LINE
  5
419
100
AcDbEntity
  8
0
100
AcDbLine
 62
7
  6
CONTINUOUS
 10
139.4700972047
 20
90.8537612646
 11
139.5092228638
 21
90.8584544564
  0
LINE
  5
41A
100
AcDbEntity
  8
0
100
AcDbLine
 62
7
  6
CONTINUOUS
 10
139.5092228638
 20
90.8584544564
 11
139.5486149349
 21
90.8629560925
  0
LINE
  5
41B
100
AcDbEntity
  8
0
100
AcDbLine
 62
7
  6
CONTINUOUS
 10
139.5486149349
 20
90.8629560925
 11
139.5882434299
 21
90.8672669542
  0
LINE
  5
41C
100
AcDbEntity
  8
0
100
AcDbLine
 62
7
  6
CONTINUOUS
 10
139.5882434299
 20
90.8672669542
 11
139.6279498241
 21
90.871366869
  0
LINE
  5
41D
100
AcDbEntity
  8
0
100
AcDbLine
 62
7
  6
CONTINUOUS
 10
139.6279498241
 20
90.871366869
 11
139.6677476517
 21
90.8752390223
  0
LINE
  5
41E
100
AcDbEntity
  8
0
100
AcDbLine
 62
7
  6
CONTINUOUS
 10
139.8167721655
 20
90.0370684187
 11
139.7860036462
 21
90.0351753781
  0
LWPOLYLINE
  5
41F
100
AcDbEntity
  8
0
100
AcDbPolyline
 62
7
  6
CONTINUOUS
 90
16
 70
0
 10
138.4333854375
 20
90.7769904197
 10
138.4740229936
 20
90.7793755856
 10
138.5148317368
 20
90.7815488309
 10
138.5558116562
 20
90.7835101288
 10
138.5969537103
 20
90.7852607472
 10
138.6382669185
 20
90.7867993656
 10
138.6797783583
 20
90.7881220696
 10
138.7215424123
 20
90.7892293278
 10
138.7635046688
 20
90.7901206017
 10
138.8055290215
 20
90.7907904852
 10
138.8476769272
 20
90.7912351335
 10
138.889886919
 20
90.7914583679
 10
138.9318385381
 20
90.7914663622
 10
138.973424988
 20
90.7912612309
 10
139.0147531086
 20
90.790840967
 10
139.0558229188
 20
90.7902056175
  0
LINE
  5
420
100
AcDbEntity
  8
ASSI
100
AcDbLine
 62
7
  6
CONTINUOUS
 10
126.2556369272
 20
93.0871802691
 11
126.3973399389
 21
93.0911442352
  0
LINE
  5
421
100
AcDbEntity
  8
ASSI
100
AcDbLine
 62
7
  6
CONTINUOUS
 10
126.4039846622
 20
93.9904532539
 11
126.2622815931
 21
93.9864893054
  0
LINE
  5
422
100
AcDbEntity
  8
ASSI
100
AcDbLine
 62
7
  6
CONTINUOUS
 10
126.7685876832
 20
94.6850597476
 11
126.6268846141
 21
94.6810957992
  0
LINE
  5
423
100
AcDbEntity
  8
0
100
AcDbLine
 62
7
  6
CONTINUOUS
 10
166.1043654863
 20
90.143892361
 11
177.4091222757
 21
90.0880379439
  0
LINE
  5
424
100
AcDbEntity
  8
ASSI
100
AcDbLine
 62
7
  6
CONTINUOUS
 10
153.0409681463
 20
91.4523208518
 11
153.3173002024
 21
91.4410879082
  0
LINE
  5
425
100
AcDbEntity
  8
ASSI
100
AcDbLine
 62
7
  6
CONTINUOUS
 10
132.669281651
 20
91.119433544
 11
132.8510698459
 21
91.1110991226
  0
LINE
  5
426
100
AcDbEntity
  8
ASSI
100
AcDbLine
 62
7
  6
CONTINUOUS
 10
135.423172367
 20
91.2233094794
 11
135.2413837134
 21
91.2316440415
  0
LINE
  5
427
100
AcDbEntity
  8
ASSI
100
AcDbLine
 62
7
  6
CONTINUOUS
 10
132.8735432364
 20
91.86323377
 11
132.6917550416
 21
91.8715681914
  0
LINE
  5
428
100
AcDbEntity
  8
ASSI
100
AcDbLine
 62
7
  6
CONTINUOUS
 10
133.1456962729
 20
91.8973912651
 11
133.3274844677
 21
91.8890568437
  0
LINE
  5
429
100
AcDbEntity
  8
ASSI
100
AcDbLine
 62
7
  6
CONTINUOUS
 10
133.119673589
 20
91.9774768042
 11
133.3014617838
 21
91.9691423828
  0
LINE
  5
42A
100
AcDbEntity
  8
ASSI
100
AcDbLine
 62
7
  6
CONTINUOUS
 10
133.3024879564
 20
92.6804178601
 11
133.1206997615
 21
92.6887522815
  0
LWPOLYLINE
  5
42B
100
AcDbEntity
  8
0
100
AcDbPolyline
 62
253
  6
CONTINUOUS
 90
36
 70
0
 10
140.5353129151
 20
91.8174289742
 10
140.4011462399
 20
91.8279983259
 10
140.2657523542
 20
91.8329134827
 10
140.1295449696
 20
91.8321594253
 10
139.9929402828
 20
91.8257384579
 10
139.8563557063
 20
91.8136702001
 10
139.7202085926
 20
91.7959915283
 10
139.5849149582
 20
91.7727564625
 10
139.4508882053
 20
91.7440359999
 10
139.3185378621
 20
91.7099178977
 10
139.1882683315
 20
91.6705064041
 10
139.060477677
 20
91.6259219472
 10
138.9355563986
 20
91.5763007681
 10
138.8138862341
 20
91.521794505
 10
138.6958389305
 20
91.4625696991
 10
138.5817751351
 20
91.398807286
 10
138.4720433366
 20
91.3307020605
 10
138.3669788947
 20
91.2584621509
 10
138.2669029417
 20
91.1823083618
 10
138.1721213139
 20
91.1024734407
 10
138.0829235628
 20
91.0192012976
 10
137.9995821758
 20
90.9327463223
 10
137.9223517968
 20
90.8433726634
 10
137.8514684369
 20
90.7513534317
 10
137.7871486942
 20
90.6569698045
 10
137.7295890986
 20
90.5605101636
 10
137.6789655455
 20
90.4622692685
 10
137.6354327467
 20
90.3625473612
 10
137.5991237305
 20
90.261649209
 10
137.5701494094
 20
90.1598830663
 10
137.5485982905
 20
90.0575597861
 10
137.5345362321
 20
89.9549919541
 10
137.5280062349
 20
89.8524930521
 10
137.5290282608
 20
89.7503763938
 10
137.5375991675
 20
89.6489540751
 10
137.5427671421
 20
89.6167077848
  0
LWPOLYLINE
  5
42C
100
AcDbEntity
  8
ASSI
100
AcDbPolyline
 62
7
  6
CONTINUOUS
 90
10
 70
0
 10
153.2365245472
 20
91.2873049782
 10
152.919370161
 20
91.3135397155
 10
152.6013051125
 20
91.3218193508
 10
152.2823294016
 20
91.312143884
 10
151.9610774522
 20
91.2843192652
 10
151.6389148404
 20
91.2385395444
 10
151.3199382946
 20
91.1753868719
 10
151.0055133909
 20
91.0950552979
 10
150.6942745531
 20
90.9973507722
 10
150.3862217813
 20
90.8822732949
  0
LWPOLYLINE
  5
42D
100
AcDbEntity
  8
0
100
AcDbPolyline
 62
7
  6
CONTINUOUS
 90
34
 70
0
 10
140.5778623295
 20
91.8375428995
 10
140.4465545063
 20
91.8488367686
 10
140.3031233171
 20
91.8551418157
 10
140.1588684731
 20
91.8552756015
 10
140.0142119867
 20
91.8492471548
 10
139.8695885092
 20
91.8370808105
 10
139.7254454551
 20
91.8188188535
 10
139.5822165282
 20
91.7945193723
 10
139.4403205237
 20
91.7642534636
 10
139.3001788314
 20
91.7281074789
 10
139.1621624705
 20
91.6861670872
 10
139.0267318654
 20
91.6385587221
 10
138.8944238682
 20
91.5854671603
 10
138.7656760619
 20
91.5270744482
 10
138.6408148197
 20
91.46353165
 10
138.5201847383
 20
91.3950073484
 10
138.4040773106
 20
91.3216474752
 10
138.2929135425
 20
91.2436934564
 10
138.1871892219
 20
91.1614888117
 10
138.087234298
 20
91.0753051547
 10
137.9932951434
 20
90.985366283
 10
137.9056826547
 20
90.8919798961
 10
137.8246224941
 20
90.7953972421
 10
137.7503595804
 20
90.695916945
 10
137.6831760818
 20
90.5939438754
 10
137.6232442782
 20
90.4897885213
 10
137.5707104213
 20
90.3837560384
 10
137.5257469454
 20
90.2762728614
 10
137.4884774456
 20
90.1677831921
 10
137.4589180152
 20
90.0585126927
 10
137.4370748458
 20
89.9485765199
 10
137.423007855
 20
89.8382496626
 10
137.4167738623
 20
89.7279538733
 10
137.4166280987
 20
89.6710521526
  0
LINE
  5
42E
100
AcDbEntity
  8
ASSI
100
AcDbLine
 62
7
  6
CONTINUOUS
 10
135.3345578953
 20
91.3681527254
 11
135.5564312159
 21
91.3475199342
  0
LINE
  5
42F
100
AcDbEntity
  8
ASSI
100
AcDbLine
 62
7
  6
CONTINUOUS
 10
135.3085352113
 20
91.4482382645
 11
135.5304085319
 21
91.4276054733
  0
LINE
  5
430
100
AcDbEntity
  8
ASSI
100
AcDbLine
 62
7
  6
CONTINUOUS
 10
133.2138734847
 20
92.8252611062
 11
133.4357468053
 21
92.8046283149
  0
LINE
  5
431
100
AcDbEntity
  8
ASSI
100
AcDbLine
 62
7
  6
CONTINUOUS
 10
133.1878508007
 20
92.9053466453
 11
133.4097241214
 21
92.884713854
  0
LINE
  5
432
100
AcDbEntity
  8
ASSI
100
AcDbLine
 62
7
  6
CONTINUOUS
 10
126.3554551729
 20
94.1229981741
 11
126.5773288089
 21
94.1023652861
  0
LINE
  5
433
100
AcDbEntity
  8
ASSI
100
AcDbLine
 62
7
  6
CONTINUOUS
 10
126.329432489
 20
94.2030837132
 11
126.551306125
 21
94.1824508252
  0
LINE
  5
434
100
AcDbEntity
  8
ASSI
100
AcDbLine
 62
7
  6
CONTINUOUS
 10
126.7200581939
 20
94.8176046678
 11
126.9419318299
 21
94.7969717798
  0
LINE
  5
435
100
AcDbEntity
  8
ASSI
100
AcDbLine
 62
7
  6
CONTINUOUS
 10
126.6940355099
 20
94.8976902069
 11
126.9159091459
 21
94.8770573189
  0
LWPOLYLINE
  5
436
100
AcDbEntity
  8
0
100
AcDbPolyline
 62
7
  6
CONTINUOUS
 90
7
 70
0
 10
140.6897088457
 20
91.4502310949
 10
140.8194404466
 20
91.4328746084
 10
140.9466852463
 20
91.4106610866
 10
141.0714432447
 20
91.3835905296
 10
141.1940572592
 20
91.3515576615
 10
141.3141844724
 20
91.3146677581
 10
141.3987653766
 20
91.284616974
  0
LWPOLYLINE
  5
437
100
AcDbEntity
  8
0
100
AcDbPolyline
 62
7
  6
CONTINUOUS
 90
13
 70
0
 10
140.5778621631
 20
91.8375423039
 10
140.580280863
 20
91.8371734253
 10
140.5840603284
 20
91.836129394
 10
140.5876523221
 20
91.8345386759
 10
140.591055419
 20
91.8323972462
 10
140.5942710443
 20
91.8297091297
 10
140.5972720469
 20
91.8264940295
 10
140.6000571446
 20
91.8227472852
 10
140.6026276195
 20
91.8184735572
 10
140.6049601678
 20
91.8137065311
 10
140.6070470214
 20
91.8084574351
 10
140.6088959483
 20
91.8027150409
 10
140.6105069486
 20
91.7964793484
  0
LWPOLYLINE
  5
438
100
AcDbEntity
  8
DRAFT
100
AcDbPolyline
 62
7
  6
CONTINUOUS
 90
36
 70
0
 10
141.6662174297
 20
92.3873786423
 10
141.4812882968
 20
92.4393942144
 10
141.2930415856
 20
92.4832191361
 10
141.1014772961
 20
92.5188534074
 10
140.9059443799
 20
92.5463570778
 10
140.7070938854
 20
92.5656700977
 10
140.5068789576
 20
92.5766123188
 10
140.3054180533
 20
92.5791107362
 10
140.1025927159
 20
92.5732383547
 10
139.9000007196
 20
92.5590340401
 10
139.6974584652
 20
92.5363987658
 10
139.495149552
 20
92.5054315582
 10
139.2952225525
 20
92.4664683624
 10
139.0979269299
 20
92.419491362
 10
138.9030132209
 20
92.3645183732
 10
138.7118816083
 20
92.3019387901
 10
138.5243129777
 20
92.2315897681
 10
138.3405264433
 20
92.1536341518
 10
138.1625795312
 20
92.0689498684
 10
137.9907865981
 20
91.9776113341
 10
137.8248332871
 20
91.8795441328
 10
137.6658340539
 20
91.7754029426
 10
137.5136012684
 20
91.6649564548
 10
137.3683225607
 20
91.5484359782
 10
137.2316752757
 20
91.4271901178
 10
137.1039615703
 20
91.301387355
 10
136.9848792876
 20
91.1708592084
 10
136.875199302
 20
91.0364488381
 10
136.7748244488
 20
90.8978827991
 10
136.6838518927
 20
90.7554345365
 10
136.6033440015
 20
90.6107675459
 10
136.5335274708
 20
90.4641154949
 10
136.474175605
 20
90.3152447159
 10
136.425670685
 20
90.1651177025
 10
136.3880358701
 20
90.0134660717
 10
136.3810283623
 20
89.9734665092
  0
LWPOLYLINE
  5
439
100
AcDbEntity
  8
ASSI
100
AcDbPolyline
 62
7
  6
CONTINUOUS
 90
4
 70
0
 10
123.966413394
 20
95.7046972165
 10
124.1237685224
 20
95.6604183924
 10
124.2676082096
 20
95.5988033015
 10
124.3950269434
 20
95.5206695381
  0
LINE
  5
43A
100
AcDbEntity
  8
ASSI
100
AcDbLine
 62
7
  6
CONTINUOUS
 10
136.5493959888
 20
91.6842459605
 11
135.3869222952
 21
92.0409002347
  0
LINE
  5
43B
100
AcDbEntity
  8
ASSI
100
AcDbLine
 62
7
  6
CONTINUOUS
 10
133.462829377
 20
92.6312240992
 11
133.3024879564
 21
92.6804178601
  0
LINE
  5
43C
100
AcDbEntity
  8
ASSI
100
AcDbLine
 62
7
  6
CONTINUOUS
 10
127.0090993553
 20
94.611269247
 11
126.7685876832
 21
94.6850597476
  0
LINE
  5
43D
100
AcDbEntity
  8
ASSI
100
AcDbLine
 62
7
  6
CONTINUOUS
 10
126.9419318299
 20
94.7969717798
 11
127.1022729064
 21
94.7477781244
  0
LINE
  5
43E
100
AcDbEntity
  8
ASSI
100
AcDbLine
 62
7
  6
CONTINUOUS
 10
133.4357468053
 20
92.8046283149
 11
133.5960882259
 21
92.755434554
  0
LINE
  5
43F
100
AcDbEntity
  8
ASSI
100
AcDbLine
 62
7
  6
CONTINUOUS
 10
135.3197550565
 20
92.2266026795
 11
136.5956905041
 21
91.8351376224
  0
LINE
  5
440
100
AcDbEntity
  8
ASSI
100
AcDbLine
 62
7
  6
CONTINUOUS
 10
126.9159091459
 20
94.8770573189
 11
127.0762502225
 21
94.8278636635
  0
LINE
  5
441
100
AcDbEntity
  8
ASSI
100
AcDbLine
 62
7
  6
CONTINUOUS
 10
133.4097241214
 20
92.884713854
 11
133.5700655419
 21
92.8355200931
  0
LINE
  5
442
100
AcDbEntity
  8
ASSI
100
AcDbLine
 62
7
  6
CONTINUOUS
 10
135.2937323726
 20
92.3066882186
 11
136.6566321538
 21
91.8885419544
  0
LINE
  5
443
100
AcDbEntity
  8
0
100
AcDbLine
 62
7
  6
CONTINUOUS
 10
179.0257462517
 20
78.446771756
 11
177.8020026204
 21
78.8225715696
  0
LINE
  5
444
100
AcDbEntity
  8
0
100
AcDbLine
 62
7
  6
CONTINUOUS
 10
143.933588444
 20
89.2489726757
 11
149.2776059367
 21
87.6078766763
  0
LINE
  5
445
100
AcDbEntity
  8
0
100
AcDbLine
 62
7
  6
CONTINUOUS
 10
181.7932583181
 20
77.6342241352
 11
181.6699919877
 21
77.672078031
  0
LINE
  5
446
100
AcDbEntity
  8
0
100
AcDbLine
 62
7
  6
CONTINUOUS
 10
177.2717554804
 20
79.0227338525
 11
177.1484882593
 21
79.0605880219
  0
LINE
  5
447
100
AcDbEntity
  8
0
100
AcDbLine
 62
7
  6
CONTINUOUS
 10
179.0995429776
 20
78.5530015418
 11
177.7821259879
 21
78.9575675362
  0
LINE
  5
448
100
AcDbEntity
  8
0
100
AcDbLine
 62
7
  6
CONTINUOUS
 10
181.8515563133
 20
77.745213431
 11
181.6501153552
 21
77.8070739977
  0
LINE
  5
449
100
AcDbEntity
  8
0
100
AcDbLine
 62
7
  6
CONTINUOUS
 10
177.3300534756
 20
79.1337231484
 11
177.1286116269
 21
79.1955839885
  0
LINE
  5
44A
100
AcDbEntity
  8
0
100
AcDbLine
 62
7
  6
CONTINUOUS
 10
143.5847837422
 20
89.5529820093
 11
150.7101403991
 21
87.3648540101
  0
LINE
  5
44B
100
AcDbEntity
  8
ASSI
100
AcDbLine
 62
7
  6
CONTINUOUS
 10
189.8551528962
 20
77.0182726303
 11
189.4375112958
 21
77.1465263197
  0
LINE
  5
44C
100
AcDbEntity
  8
ASSI
100
AcDbLine
 62
7
  6
CONTINUOUS
 10
118.1699998609
 20
99.0320886448
 11
119.0087743813
 21
98.7745091156
  0
LINE
  5
44D
100
AcDbEntity
  8
DRAFT
100
AcDbLine
 62
7
  6
CONTINUOUS
 10
155.0262611615
 20
88.2846386438
 11
141.6662174297
 21
92.3873786423
  0
LINE
  5
44E
100
AcDbEntity
  8
0
100
AcDbLine
 62
7
  6
CONTINUOUS
 10
176.2301173083
 20
81.8937683655
 11
175.1613138097
 21
82.2219875654
  0
LINE
  5
44F
100
AcDbEntity
  8
0
100
AcDbLine
 62
7
  6
CONTINUOUS
 10
82.353543353
 20
110.722354755
 11
81.2847398545
 21
111.0505739548
  0
LINE
  5
450
100
AcDbEntity
  8
ASSI
100
AcDbLine
 62
7
  6
CONTINUOUS
 10
178.2459275307
 20
82.1535189761
 11
179.4393169998
 21
81.7870406317
  0
LINE
  5
451
100
AcDbEntity
  8
ASSI
100
AcDbLine
 62
7
  6
CONTINUOUS
 10
179.5825317129
 20
82.059696666
 11
179.2881152062
 21
82.1501091229
  0
LINE
  5
452
100
AcDbEntity
  8
ASSI
100
AcDbLine
 62
7
  6
CONTINUOUS
 10
178.8400522942
 20
82.2877049023
 11
178.4673168715
 21
82.4021683396
  0
LINE
  5
453
100
AcDbEntity
  8
ASSI
100
AcDbLine
 62
7
  6
CONTINUOUS
 10
179.6408297081
 20
82.1706859618
 11
179.2682385738
 21
82.2851050895
  0
LINE
  5
454
100
AcDbEntity
  8
ASSI
100
AcDbLine
 62
7
  6
CONTINUOUS
 10
178.8201756618
 20
82.422700869
 11
178.447440239
 21
82.5371643063
  0
LINE
  5
455
100
AcDbEntity
  8
ASSI
100
AcDbLine
 62
7
  6
CONTINUOUS
 10
113.6579515749
 20
103.3905319365
 11
114.3170757531
 21
103.1881118522
  0
LINE
  5
456
100
AcDbEntity
  8
ASSI
100
AcDbLine
 62
7
  6
CONTINUOUS
 10
107.8786186192
 20
105.1652996625
 11
108.5377390488
 21
104.9628901641
  0
LINE
  5
457
100
AcDbEntity
  8
ASSI
100
AcDbLine
 62
7
  6
CONTINUOUS
 10
110.4431680805
 20
104.3777513682
 11
111.1022876194
 21
104.1753421433
  0
LINE
  5
458
100
AcDbEntity
  8
ASSI
100
AcDbLine
 62
7
  6
CONTINUOUS
 10
114.7564909681
 20
103.0531811314
 11
115.4156194136
 21
102.8507691714
  0
LINE
  5
459
100
AcDbEntity
  8
ASSI
100
AcDbLine
 62
7
  6
CONTINUOUS
 10
116.6514804617
 20
102.4712482165
 11
117.3938814471
 21
102.2432725575
  0
LINE
  5
45A
100
AcDbEntity
  8
ASSI
100
AcDbLine
 62
7
  6
CONTINUOUS
 10
111.541698567
 20
104.0404032983
 11
112.2008232639
 21
103.8380019242
  0
LINE
  5
45B
100
AcDbEntity
  8
ASSI
100
AcDbLine
 62
7
  6
CONTINUOUS
 10
106.5603908423
 20
105.5701061506
 11
107.2195151125
 21
105.367703964
  0
LINE
  5
45C
100
AcDbEntity
  8
ASSI
100
AcDbLine
 62
7
  6
CONTINUOUS
 10
109.1608978032
 20
104.7715241477
 11
109.8200055774
 21
104.5691279704
  0
LINE
  5
45D
100
AcDbEntity
  8
ASSI
100
AcDbLine
 62
7
  6
CONTINUOUS
 10
104.5216561099
 20
106.1961833549
 11
105.0628727251
 21
106.0299879477
  0
LINE
  5
45E
100
AcDbEntity
  8
ASSI
100
AcDbLine
 62
7
  6
CONTINUOUS
 10
112.719424915
 20
104.3652722019
 11
113.7603923171
 21
104.0456011976
  0
LINE
  5
45F
100
AcDbEntity
  8
ASSI
100
AcDbLine
 62
7
  6
CONTINUOUS
 10
136.3091812516
 20
97.1638834623
 11
137.6100050669
 21
96.7644130709
  0
LINE
  5
460
100
AcDbEntity
  8
ASSI
100
AcDbLine
 62
7
  6
CONTINUOUS
 10
113.8792177493
 20
104.5435071981
 11
113.2403564901
 21
104.7396953016
  0
LINE
  5
461
100
AcDbEntity
  8
ASSI
100
AcDbLine
 62
7
  6
CONTINUOUS
 10
137.8717574957
 20
97.2627444059
 11
136.6491055362
 21
97.6382089776
  0
LINE
  5
462
100
AcDbEntity
  8
ASSI
100
AcDbLine
 62
7
  6
CONTINUOUS
 10
116.0262202477
 20
104.0130840676
 11
116.6014829674
 21
103.8364179682
  0
LINE
  5
463
100
AcDbEntity
  8
ASSI
100
AcDbLine
 62
7
  6
CONTINUOUS
 10
113.8593411168
 20
104.6785031648
 11
113.2204798576
 21
104.8746912682
  0
LINE
  5
464
100
AcDbEntity
  8
ASSI
100
AcDbLine
 62
7
  6
CONTINUOUS
 10
137.9300554909
 20
97.3737337018
 11
136.6292289037
 21
97.7732049443
  0
LINE
  5
465
100
AcDbEntity
  8
ASSI
100
AcDbLine
 62
7
  6
CONTINUOUS
 10
117.1309562703
 20
104.1907693898
 11
116.3290467549
 21
104.4370308635
  0
LINE
  5
466
100
AcDbEntity
  8
0
100
AcDbLine
 62
7
  6
CONTINUOUS
 10
179.5095173911
 20
77.3967051045
 11
179.454931081
 21
77.4158893026
  0
LWPOLYLINE
  5
467
100
AcDbEntity
  8
0
100
AcDbPolyline
 62
7
  6
CONTINUOUS
 90
4
 70
0
 10
151.7264130829
 20
86.3111831211
 10
151.7895877224
 20
86.2888043561
 10
151.8233334315
 20
86.2766294163
 10
151.8583492833
 20
86.2638025583
  0
LWPOLYLINE
  5
468
100
AcDbEntity
  8
ASSI
100
AcDbPolyline
 62
7
  6
CONTINUOUS
 90
11
 70
0
 10
185.8881875947
 20
75.8503731123
 10
185.7302525997
 20
75.9070454604
 10
185.5807683524
 20
75.9769503081
 10
185.4445598939
 20
76.0578312721
 10
185.3220603997
 20
76.1500464921
 10
185.2128366942
 20
76.2532378284
 10
185.120414292
 20
76.3640744789
 10
185.0453414026
 20
76.4828059025
 10
184.9870698164
 20
76.6091826403
 10
184.9474804192
 20
76.7391255136
 10
184.9340710293
 20
76.8114770612
  0
LWPOLYLINE
  5
469
100
AcDbEntity
  8
0
100
AcDbPolyline
 62
7
  6
CONTINUOUS
 90
6
 70
0
 10
151.8583492833
 20
86.2638025583
 10
151.9325513452
 20
86.2360457146
 10
151.970887547
 20
86.221402665
 10
152.0096005005
 20
86.2063920297
 10
152.0489135536
 20
86.1909427258
 10
152.0888267061
 20
86.1750547531
  0
LWPOLYLINE
  5
46A
100
AcDbEntity
  8
0
100
AcDbPolyline
 62
7
  6
CONTINUOUS
 90
7
 70
0
 10
179.5805653402
 20
77.4695173627
 10
179.5251214716
 20
77.4916863591
 10
179.4771343246
 20
77.5171882988
 10
179.436603899
 20
77.5460231821
 10
179.4032339169
 20
77.5786836272
 10
179.3773206564
 20
77.6146770158
 10
179.3597529512
 20
77.6525254925
  0
LWPOLYLINE
  5
46B
100
AcDbEntity
  8
0
100
AcDbPolyline
 62
7
  6
CONTINUOUS
 90
9
 70
0
 10
140.8370388948
 20
90.3962745302
 10
140.8009040229
 20
90.4113079021
 10
140.7574106283
 20
90.4277543196
 10
140.7128793964
 20
90.4429748694
 10
140.6673955768
 20
90.4569433715
 10
140.6212149183
 20
90.4695812853
 10
140.5744226702
 20
90.4808624305
 10
140.5269335832
 20
90.4908129874
 10
140.4787476571
 20
90.4994329561
  0
LWPOLYLINE
  5
46C
100
AcDbEntity
  8
0
100
AcDbPolyline
 62
7
  6
CONTINUOUS
 90
9
 70
0
 10
154.1970826265
 20
86.2935345317
 10
154.1609477547
 20
86.3085679036
 10
154.1174543601
 20
86.3250143211
 10
154.0729231282
 20
86.3402348709
 10
154.0274393086
 20
86.354203373
 10
153.98125865
 20
86.3668412868
 10
153.934466402
 20
86.378122432
 10
153.886977315
 20
86.388072989
 10
153.8387913889
 20
86.3966929576
  0
LINE
  5
46D
100
AcDbEntity
  8
0
100
AcDbLine
 62
7
  6
CONTINUOUS
 10
180.1012713335
 20
78.1408393601
 11
180.0176795944
 21
78.1761795718
  0
LWPOLYLINE
  5
46E
100
AcDbEntity
  8
0
100
AcDbPolyline
 62
7
  6
CONTINUOUS
 90
14
 70
0
 10
141.6569573456
 20
91.5060443605
 10
141.6563177195
 20
91.5063926458
 10
141.6527143975
 20
91.5079639241
 10
141.6489274619
 20
91.5089841674
 10
141.6449902168
 20
91.5094518159
 10
141.6409025195
 20
91.5093631824
 10
141.6366645127
 20
91.5087219542
 10
141.6323099299
 20
91.5075376337
 10
141.6278383629
 20
91.5058073143
 10
141.6232502197
 20
91.5035339026
 10
141.6185804575
 20
91.5007356206
 10
141.6138407286
 20
91.4974185422
 10
141.6090193806
 20
91.4935765934
 10
141.6041164136
 20
91.4892097743
  0
LWPOLYLINE
  5
46F
100
AcDbEntity
  8
0
100
AcDbPolyline
 62
7
  6
CONTINUOUS
 90
14
 70
0
 10
155.0170010774
 20
87.403304362
 10
155.0163614512
 20
87.4036526473
 10
155.0127581293
 20
87.4052239256
 10
155.0089711936
 20
87.4062441689
 10
155.0050339486
 20
87.4067118174
 10
155.0009462512
 20
87.4066231839
 10
154.9967082445
 20
87.4059819557
 10
154.9923536616
 20
87.4047976352
 10
154.9878820946
 20
87.4030673158
 10
154.9832939515
 20
87.4007939041
 10
154.9786241893
 20
87.3979956221
 10
154.9738844604
 20
87.3946785437
 10
154.9690631124
 20
87.3908365949
 10
154.9641601454
 20
87.3864697758
  0
LWPOLYLINE
  5
470
100
AcDbEntity
  8
0
100
AcDbPolyline
 62
7
  6
CONTINUOUS
 90
5
 70
0
 10
141.203493492
 20
90.1308130296
 10
141.2432207164
 20
90.1047232179
 10
141.2826694136
 20
90.0785688395
 10
141.3218395837
 20
90.0523498946
 10
141.3609457727
 20
90.0259093382
  0
LWPOLYLINE
  5
471
100
AcDbEntity
  8
0
100
AcDbPolyline
 62
7
  6
CONTINUOUS
 90
5
 70
0
 10
154.5635372238
 20
86.0280730311
 10
154.6032644481
 20
86.0019832194
 10
154.6427131454
 20
85.975828841
 10
154.6818833155
 20
85.9496098961
 10
154.7209895045
 20
85.9231693397
  0
LWPOLYLINE
  5
472
100
AcDbEntity
  8
0
100
AcDbPolyline
 62
7
  6
CONTINUOUS
 90
3
 70
0
 10
141.3609457727
 20
90.0259093382
 10
141.4376789314
 20
89.9733056599
 10
141.4745308826
 20
89.9476943567
  0
LWPOLYLINE
  5
473
100
AcDbEntity
  8
0
100
AcDbPolyline
 62
7
  6
CONTINUOUS
 90
3
 70
0
 10
154.7209895045
 20
85.9231693397
 10
154.7977226631
 20
85.8705656614
 10
154.8345746144
 20
85.8449543582
  0
LINE
  5
474
100
AcDbEntity
  8
0
100
AcDbLine
 62
7
  6
CONTINUOUS
 10
141.4745308826
 20
89.9476943567
 11
141.5452187928
 21
89.8979205355
  0
LINE
  5
475
100
AcDbEntity
  8
0
100
AcDbLine
 62
7
  6
CONTINUOUS
 10
154.8345746144
 20
85.8449543582
 11
154.9052625245
 21
85.795180537
  0
LINE
  5
476
100
AcDbEntity
  8
0
100
AcDbLine
 62
7
  6
CONTINUOUS
 10
141.5452187928
 20
89.8979205355
 11
141.6110654311
 21
89.8507960386
  0
LINE
  5
477
100
AcDbEntity
  8
0
100
AcDbLine
 62
7
  6
CONTINUOUS
 10
154.9052625245
 20
85.795180537
 11
154.9711091629
 21
85.7480560402
  0
LINE
  5
478
100
AcDbEntity
  8
0
100
AcDbLine
 62
7
  6
CONTINUOUS
 10
141.6110654311
 20
89.8507960386
 11
141.6721668835
 21
89.8064441144
  0
LINE
  5
479
100
AcDbEntity
  8
0
100
AcDbLine
 62
7
  6
CONTINUOUS
 10
141.6721668835
 20
89.8064441144
 11
141.7285055885
 21
89.7649337551
  0
LWPOLYLINE
  5
47A
100
AcDbEntity
  8
0
100
AcDbPolyline
 62
7
  6
CONTINUOUS
 90
8
 70
0
 10
120.8508667962
 20
108.3673925602
 10
120.728367302
 20
108.4596077802
 10
120.6191435965
 20
108.5627991164
 10
120.5267211943
 20
108.6736357669
 10
120.4516483049
 20
108.7923671905
 10
120.3933767186
 20
108.9187439284
 10
120.3537873215
 20
109.0486868017
 10
120.3403779316
 20
109.1210383492
  0
LINE
  5
47B
100
AcDbEntity
  8
0
100
AcDbLine
 62
7
  6
CONTINUOUS
 10
123.4815141453
 20
109.3590310027
 11
123.6112268142
 21
109.2521619456
  0
LINE
  5
47C
100
AcDbEntity
  8
0
100
AcDbLine
 62
7
  6
CONTINUOUS
 10
138.8093352921
 20
90.2051682247
 11
138.7572484946
 21
90.2501170941
  0
LINE
  5
47D
100
AcDbEntity
  8
0
100
AcDbLine
 62
7
  6
CONTINUOUS
 10
138.7572484946
 20
90.2501170941
 11
138.7386734926
 21
90.2662696921
  0
LINE
  5
47E
100
AcDbEntity
  8
0
100
AcDbLine
 62
7
  6
CONTINUOUS
 10
143.5847837422
 20
89.5529820093
 11
143.933588444
 21
89.2489726757
  0
LINE
  5
47F
100
AcDbEntity
  8
0
100
AcDbLine
 62
7
  6
CONTINUOUS
 10
138.9518313525
 20
90.0801333913
 11
138.8093352921
 21
90.2051682247
  0
LINE
  5
480
100
AcDbEntity
  8
0
100
AcDbLine
 62
7
  6
CONTINUOUS
 10
139.0847900831
 20
89.9624223074
 11
138.9518313525
 21
90.0801333913
  0
LINE
  5
481
100
AcDbEntity
  8
TRASH
100
AcDbLine
 62
7
  6
CONTINUOUS
 10
139.1978464616
 20
89.6557991853
 11
139.2269523561
 21
89.6299392281
  0
LINE
  5
482
100
AcDbEntity
  8
0
100
AcDbLine
 62
7
  6
CONTINUOUS
 10
139.2899632865
 20
89.2584566571
 11
139.3086206529
 21
89.2413856257
  0
LINE
  5
483
100
AcDbEntity
  8
0
100
AcDbLine
 62
7
  6
CONTINUOUS
 10
140.854807309
 20
89.7069564353
 11
140.8361499426
 21
89.7240274667
  0
LINE
  5
484
100
AcDbEntity
  8
0
100
AcDbLine
 62
7
  6
CONTINUOUS
 10
140.8371900736
 20
90.5161148385
 11
140.8645955625
 21
90.4894553306
  0
LINE
  5
485
100
AcDbEntity
  8
0
100
AcDbLine
 62
7
  6
CONTINUOUS
 10
140.8645955625
 20
90.4894553306
 11
140.8918337946
 21
90.4625978065
  0
LINE
  5
486
100
AcDbEntity
  8
0
100
AcDbLine
 62
7
  6
CONTINUOUS
 10
140.8918337946
 20
90.4625978065
 11
140.9189651569
 21
90.4355359861
  0
LINE
  5
487
100
AcDbEntity
  8
0
100
AcDbLine
 62
7
  6
CONTINUOUS
 10
140.9189651569
 20
90.4355359861
 11
140.9458824343
 21
90.4083754863
  0
LINE
  5
488
100
AcDbEntity
  8
0
100
AcDbLine
 62
7
  6
CONTINUOUS
 10
140.9458824343
 20
90.4083754863
 11
140.9727136308
 21
90.380984242
  0
LINE
  5
489
100
AcDbEntity
  8
0
100
AcDbLine
 62
7
  6
CONTINUOUS
 10
140.9727136308
 20
90.380984242
 11
140.9997190132
 21
90.3531491711
  0
LINE
  5
48A
100
AcDbEntity
  8
0
100
AcDbLine
 62
7
  6
CONTINUOUS
 10
140.9997190132
 20
90.3531491711
 11
141.0417623745
 21
90.3092111064
  0
LINE
  5
48B
100
AcDbEntity
  8
0
100
AcDbLine
 62
7
  6
CONTINUOUS
 10
141.0417623745
 20
90.3092111064
 11
141.0714369261
 21
90.277753353
  0
LINE
  5
48C
100
AcDbEntity
  8
0
100
AcDbLine
 62
7
  6
CONTINUOUS
 10
141.0714369261
 20
90.277753353
 11
141.1030573107
 21
90.2439407849
  0
LWPOLYLINE
  5
48D
100
AcDbEntity
  8
0
100
AcDbPolyline
 62
7
  6
CONTINUOUS
 90
4
 70
0
 10
141.1030573107
 20
90.2439407849
 10
141.1550122473
 20
90.1876275541
 10
141.1737677233
 20
90.167049906
 10
141.1931405848
 20
90.1454784924
  0
LWPOLYLINE
  5
48E
100
AcDbEntity
  8
0
100
AcDbPolyline
 62
7
  6
CONTINUOUS
 90
7
 70
0
 10
142.663222521
 20
90.0685077271
 10
142.6703700566
 20
90.0603362173
 10
142.7543362592
 20
89.9488834738
 10
142.8284139562
 20
89.8331030994
 10
142.8927141349
 20
89.7130436669
 10
142.9465096581
 20
89.5900628658
 10
142.9868390842
 20
89.4724184769
  0
LINE
  5
48F
100
AcDbEntity
  8
0
100
AcDbLine
 62
7
  6
CONTINUOUS
 10
138.7287829743
 20
90.2777947516
 11
138.7386734926
 21
90.2662696921
  0
LINE
  5
490
100
AcDbEntity
  8
ASSI
100
AcDbLine
 62
7
  6
CONTINUOUS
 10
133.7750670805
 20
92.6530833651
 11
133.8833414512
 21
92.5066303672
  0
LINE
  5
491
100
AcDbEntity
  8
ASSI
100
AcDbLine
 62
7
  6
CONTINUOUS
 10
133.7490443965
 20
92.7331689042
 11
133.8851292439
 21
92.5490991771
  0
LINE
  5
492
100
AcDbEntity
  8
ASSI
100
AcDbLine
 62
7
  6
CONTINUOUS
 10
135.9759217426
 20
91.1713782447
 11
136.0645269993
 21
91.0515301997
  0
LINE
  5
493
100
AcDbEntity
  8
ASSI
100
AcDbLine
 62
7
  6
CONTINUOUS
 10
135.9498990587
 20
91.2514637838
 11
136.0859843648
 21
91.0673939159
  0
LINE
  5
494
100
AcDbEntity
  8
0
100
AcDbLine
 62
7
  6
CONTINUOUS
 10
141.1931405848
 20
90.1454784924
 11
141.203493492
 21
90.1308130296
  0
LINE
  5
495
100
AcDbEntity
  8
0
100
AcDbLine
 62
7
  6
CONTINUOUS
 10
139.1650880403
 20
89.7037153617
 11
139.19785718
 21
89.6558300674
  0
LINE
  5
496
100
AcDbEntity
  8
0
100
AcDbLine
 62
7
  6
CONTINUOUS
 10
138.4333854375
 20
90.7769904197
 11
138.8419211727
 21
90.1767171108
  0
LINE
  5
497
100
AcDbEntity
  8
ASSI
100
AcDbLine
 62
7
  6
CONTINUOUS
 10
134.8039947883
 20
90.5347064864
 11
134.8667507176
 21
90.4384865036
  0
LINE
  5
498
100
AcDbEntity
  8
ASSI
100
AcDbLine
 62
7
  6
CONTINUOUS
 10
134.7779721044
 20
90.6147920255
 11
134.8553334744
 21
90.4961783776
  0
LINE
  5
499
100
AcDbEntity
  8
ASSI
100
AcDbLine
 62
7
  6
CONTINUOUS
 10
135.8799395968
 20
90.9408523711
 11
135.8025782267
 21
91.059466019
  0
LINE
  5
49A
100
AcDbEntity
  8
ASSI
100
AcDbLine
 62
7
  6
CONTINUOUS
 10
132.8242369098
 20
92.0764035693
 11
132.8464611235
 21
92.036637845
  0
LINE
  5
49B
100
AcDbEntity
  8
ASSI
100
AcDbLine
 62
7
  6
CONTINUOUS
 10
132.7244391767
 20
92.2884946007
 11
132.8204384396
 21
92.1167233841
  0
LINE
  5
49C
100
AcDbEntity
  8
ASSI
100
AcDbLine
 62
7
  6
CONTINUOUS
 10
133.456184524
 20
91.731915087
 11
133.5521842456
 21
91.5601437298
  0
LINE
  5
49D
100
AcDbEntity
  8
ASSI
100
AcDbLine
 62
7
  6
CONTINUOUS
 10
133.6977223687
 20
92.3694000637
 11
133.6017231058
 21
92.5411712802
  0
LINE
  5
49E
100
AcDbEntity
  8
ASSI
100
AcDbLine
 62
7
  6
CONTINUOUS
 10
132.0184954025
 20
91.3430801035
 11
131.9906411006
 21
91.4225234435
  0
LINE
  5
49F
100
AcDbEntity
  8
ASSI
100
AcDbLine
 62
7
  6
CONTINUOUS
 10
132.5370323014
 20
92.1087954872
 11
132.4811181644
 21
92.2682683339
  0
LINE
  5
4A0
100
AcDbEntity
  8
ASSI
100
AcDbLine
 62
7
  6
CONTINUOUS
 10
133.8851292439
 20
92.5490991771
 11
133.941043381
 21
92.3896263304
  0
LINE
  5
4A1
100
AcDbEntity
  8
ASSI
100
AcDbLine
 62
7
  6
CONTINUOUS
 10
129.4262093457
 20
92.9208975893
 11
129.4522320297
 21
92.8408120502
  0
LINE
  5
4A2
100
AcDbEntity
  8
ASSI
100
AcDbLine
 62
7
  6
CONTINUOUS
 10
132.0177065703
 20
91.6514163465
 11
132.0437292543
 21
91.5713308074
  0
LINE
  5
4A3
100
AcDbEntity
  8
ASSI
100
AcDbLine
 62
7
  6
CONTINUOUS
 10
132.0820482693
 20
91.7739939428
 11
132.1080709533
 21
91.6939084037
  0
LINE
  5
4A4
100
AcDbEntity
  8
ASSI
100
AcDbLine
 62
7
  6
CONTINUOUS
 10
132.2526000058
 20
91.3895921416
 11
132.2786226897
 21
91.3095066025
  0
LINE
  5
4A5
100
AcDbEntity
  8
ASSI
100
AcDbLine
 62
7
  6
CONTINUOUS
 10
132.3700465016
 20
91.2586801239
 11
132.3893502901
 21
91.199272174
  0
LINE
  5
4A6
100
AcDbEntity
  8
ASSI
100
AcDbLine
 62
7
  6
CONTINUOUS
 10
132.2694551746
 20
91.9536931135
 11
132.2954778586
 21
91.8736075744
  0
LINE
  5
4A7
100
AcDbEntity
  8
ASSI
100
AcDbLine
 62
7
  6
CONTINUOUS
 10
132.4941378354
 20
92.0270770897
 11
132.5201605194
 21
91.9469915505
  0
LINE
  5
4A8
100
AcDbEntity
  8
ASSI
100
AcDbLine
 62
7
  6
CONTINUOUS
 10
132.8510698459
 20
91.1110991226
 11
132.8704229433
 21
91.0515394227
  0
LINE
  5
4A9
100
AcDbEntity
  8
ASSI
100
AcDbLine
 62
7
  6
CONTINUOUS
 10
132.5957557787
 20
92.043339408
 11
132.6217784627
 21
91.9632538689
  0
LINE
  5
4AA
100
AcDbEntity
  8
ASSI
100
AcDbLine
 62
7
  6
CONTINUOUS
 10
132.486736386
 20
92.4563020095
 11
132.4940685131
 21
92.4337371829
  0
LINE
  5
4AB
100
AcDbEntity
  8
ASSI
100
AcDbLine
 62
7
  6
CONTINUOUS
 10
132.551078085
 20
92.5788796058
 11
132.577100769
 21
92.4987940667
  0
LINE
  5
4AC
100
AcDbEntity
  8
ASSI
100
AcDbLine
 62
7
  6
CONTINUOUS
 10
133.0543052737
 20
91.1436238999
 11
133.0803279576
 21
91.0635383608
  0
LINE
  5
4AD
100
AcDbEntity
  8
ASSI
100
AcDbLine
 62
7
  6
CONTINUOUS
 10
132.7244391767
 20
92.2884946007
 11
132.7331692412
 21
92.2616275826
  0
LINE
  5
4AE
100
AcDbEntity
  8
ASSI
100
AcDbLine
 62
7
  6
CONTINUOUS
 10
132.8204384396
 20
92.1167233841
 11
132.8464611235
 21
92.036637845
  0
LINE
  5
4AF
100
AcDbEntity
  8
ASSI
100
AcDbLine
 62
7
  6
CONTINUOUS
 10
132.9593321684
 20
92.0266705652
 11
132.9853548523
 21
91.946585026
  0
LINE
  5
4B0
100
AcDbEntity
  8
ASSI
100
AcDbLine
 62
7
  6
CONTINUOUS
 10
132.7384850204
 20
92.7585788337
 11
132.7645077043
 21
92.6784932946
  0
LINE
  5
4B1
100
AcDbEntity
  8
ASSI
100
AcDbLine
 62
7
  6
CONTINUOUS
 10
133.2603505155
 20
91.2701653326
 11
133.2863731994
 21
91.1900797935
  0
LINE
  5
4B2
100
AcDbEntity
  8
ASSI
100
AcDbLine
 62
7
  6
CONTINUOUS
 10
133.119673589
 20
91.9774768042
 11
133.1456962729
 21
91.8973912651
  0
LINE
  5
4B3
100
AcDbEntity
  8
ASSI
100
AcDbLine
 62
7
  6
CONTINUOUS
 10
133.3246922145
 20
91.392742929
 11
133.3507148984
 21
91.3126573899
  0
LINE
  5
4B4
100
AcDbEntity
  8
ASSI
100
AcDbLine
 62
7
  6
CONTINUOUS
 10
132.9230825554
 20
92.8442611797
 11
132.9491052393
 21
92.7641756406
  0
LINE
  5
4B5
100
AcDbEntity
  8
ASSI
100
AcDbLine
 62
7
  6
CONTINUOUS
 10
133.3014617838
 20
91.9691423828
 11
133.3274844677
 21
91.8890568437
  0
LINE
  5
4B6
100
AcDbEntity
  8
ASSI
100
AcDbLine
 62
7
  6
CONTINUOUS
 10
133.3974610467
 20
91.7973711663
 11
133.402386013
 21
91.7822144443
  0
LINE
  5
4B7
100
AcDbEntity
  8
ASSI
100
AcDbLine
 62
7
  6
CONTINUOUS
 10
133.1878508007
 20
92.9053466453
 11
133.2138734847
 21
92.8252611062
  0
LINE
  5
4B8
100
AcDbEntity
  8
ASSI
100
AcDbLine
 62
7
  6
CONTINUOUS
 10
133.5261444446
 20
92.042526359
 11
133.5521671286
 21
91.9624408199
  0
LINE
  5
4B9
100
AcDbEntity
  8
ASSI
100
AcDbLine
 62
7
  6
CONTINUOUS
 10
133.4097241214
 20
92.884713854
 11
133.4357468053
 21
92.8046283149
  0
LINE
  5
4BA
100
AcDbEntity
  8
ASSI
100
AcDbLine
 62
7
  6
CONTINUOUS
 10
133.6706568539
 20
92.1405070748
 11
133.6966795378
 21
92.0604215357
  0
LINE
  5
4BB
100
AcDbEntity
  8
ASSI
100
AcDbLine
 62
7
  6
CONTINUOUS
 10
133.7135513199
 20
92.2222254724
 11
133.7395740038
 21
92.1421399333
  0
LINE
  5
4BC
100
AcDbEntity
  8
ASSI
100
AcDbLine
 62
7
  6
CONTINUOUS
 10
133.6977223687
 20
92.3694000637
 11
133.7150149881
 21
92.3161815426
  0
LINE
  5
4BD
100
AcDbEntity
  8
ASSI
100
AcDbLine
 62
7
  6
CONTINUOUS
 10
133.5700655419
 20
92.8355200931
 11
133.5960882259
 21
92.755434554
  0
LINE
  5
4BE
100
AcDbEntity
  8
ASSI
100
AcDbLine
 62
7
  6
CONTINUOUS
 10
134.7779721044
 20
90.6147920255
 11
134.7954859319
 21
90.5608927304
  0
LINE
  5
4BF
100
AcDbEntity
  8
ASSI
100
AcDbLine
 62
7
  6
CONTINUOUS
 10
134.8553334744
 20
90.4961783776
 11
134.8748920261
 21
90.4359863866
  0
LINE
  5
4C0
100
AcDbEntity
  8
ASSI
100
AcDbLine
 62
7
  6
CONTINUOUS
 10
135.0437665073
 20
91.3871529397
 11
135.0697891912
 21
91.3070674006
  0
LINE
  5
4C1
100
AcDbEntity
  8
ASSI
100
AcDbLine
 62
7
  6
CONTINUOUS
 10
135.4165279877
 20
90.3240003551
 11
135.4361440667
 21
90.2636313224
  0
LINE
  5
4C2
100
AcDbEntity
  8
ASSI
100
AcDbLine
 62
7
  6
CONTINUOUS
 10
135.5796782898
 20
90.3688235023
 11
135.6057009737
 21
90.2887379632
  0
LINE
  5
4C3
100
AcDbEntity
  8
ASSI
100
AcDbLine
 62
7
  6
CONTINUOUS
 10
135.3085352113
 20
91.4482382645
 11
135.3345578953
 21
91.3681527254
  0
LINE
  5
4C4
100
AcDbEntity
  8
ASSI
100
AcDbLine
 62
7
  6
CONTINUOUS
 10
135.7241902553
 20
90.4668043876
 11
135.7502129393
 21
90.3867188485
  0
LINE
  5
4C5
100
AcDbEntity
  8
ASSI
100
AcDbLine
 62
7
  6
CONTINUOUS
 10
135.5304085319
 20
91.4276054733
 11
135.5564312159
 21
91.3475199342
  0
LINE
  5
4C6
100
AcDbEntity
  8
ASSI
100
AcDbLine
 62
7
  6
CONTINUOUS
 10
135.8286175388
 20
90.5770834733
 11
135.8546402228
 21
90.4969979342
  0
LINE
  5
4C7
100
AcDbEntity
  8
ASSI
100
AcDbLine
 62
7
  6
CONTINUOUS
 10
135.2937323726
 20
92.3066882186
 11
135.3197550565
 21
92.2266026795
  0
LINE
  5
4C8
100
AcDbEntity
  8
ASSI
100
AcDbLine
 62
7
  6
CONTINUOUS
 10
135.8715120048
 20
90.6588018709
 11
135.8975346887
 21
90.5787163318
  0
LINE
  5
4C9
100
AcDbEntity
  8
ASSI
100
AcDbLine
 62
7
  6
CONTINUOUS
 10
135.8957681493
 20
90.793678035
 11
135.9217908333
 21
90.7135924959
  0
LINE
  5
4CA
100
AcDbEntity
  8
ASSI
100
AcDbLine
 62
7
  6
CONTINUOUS
 10
135.8799395968
 20
90.9408523711
 11
135.8884484566
 21
90.9146661164
  0
LINE
  5
4CB
100
AcDbEntity
  8
ASSI
100
AcDbLine
 62
7
  6
CONTINUOUS
 10
135.7709202041
 20
91.3538149726
 11
135.796942888
 21
91.2737294335
  0
LINE
  5
4CC
100
AcDbEntity
  8
ASSI
100
AcDbLine
 62
7
  6
CONTINUOUS
 10
127.3913140965
 20
94.5414426948
 11
127.4257810006
 21
94.3411106493
  0
LINE
  5
4CD
100
AcDbEntity
  8
ASSI
100
AcDbLine
 62
7
  6
CONTINUOUS
 10
132.2181331167
 20
91.5899242157
 11
132.2526000058
 21
91.3895921416
  0
LINE
  5
4CE
100
AcDbEntity
  8
ASSI
100
AcDbLine
 62
7
  6
CONTINUOUS
 10
133.3246922145
 20
91.392742929
 11
133.2902248817
 21
91.5930751724
  0
LINE
  5
4CF
100
AcDbEntity
  8
DRAFT
100
AcDbLine
 62
7
  6
CONTINUOUS
 10
125.690430702
 20
104.0998051352
 11
124.7762303064
 21
109.7945218854
  0
LINE
  5
4D0
100
AcDbEntity
  8
ASSI
100
AcDbLine
 62
7
  6
CONTINUOUS
 10
133.7135513199
 20
92.2222254724
 11
133.6977223687
 21
92.3694000637
  0
LINE
  5
4D1
100
AcDbEntity
  8
ASSI
100
AcDbLine
 62
7
  6
CONTINUOUS
 10
135.8957681493
 20
90.793678035
 11
135.8799395968
 21
90.9408523711
  0
LINE
  5
4D2
100
AcDbEntity
  8
ASSI
100
AcDbLine
 62
7
  6
CONTINUOUS
 10
135.9217908333
 20
90.7135924959
 11
135.9059622807
 21
90.860766832
  0
LINE
  5
4D3
100
AcDbEntity
  8
ASSI
100
AcDbLine
 62
7
  6
CONTINUOUS
 10
132.4811181644
 20
92.2682683339
 11
132.486736386
 21
92.4563020095
  0
LINE
  5
4D4
100
AcDbEntity
  8
ASSI
100
AcDbLine
 62
7
  6
CONTINUOUS
 10
132.5095083634
 20
92.2674200686
 11
132.51275907
 21
92.3762164704
  0
LINE
  5
4D5
100
AcDbEntity
  8
ASSI
100
AcDbLine
 62
7
  6
CONTINUOUS
 10
134.5374604322
 20
90.6885825262
 11
134.5430791277
 21
90.8766160896
  0
LINE
  5
4D6
100
AcDbEntity
  8
ASSI
100
AcDbLine
 62
7
  6
CONTINUOUS
 10
134.5634831162
 20
90.6084969871
 11
134.5691018116
 21
90.7965305505
  0
LINE
  5
4D7
100
AcDbEntity
  8
ASSI
100
AcDbLine
 62
7
  6
CONTINUOUS
 10
134.7835907998
 20
90.802825589
 11
134.7779721044
 21
90.6147920255
  0
LINE
  5
4D8
100
AcDbEntity
  8
ASSI
100
AcDbLine
 62
7
  6
CONTINUOUS
 10
131.9906411006
 20
91.4225234435
 11
132.0177065703
 21
91.6514163465
  0
LINE
  5
4D9
100
AcDbEntity
  8
ASSI
100
AcDbLine
 62
7
  6
CONTINUOUS
 10
132.0254160093
 20
91.4164555415
 11
132.0437292543
 21
91.5713308074
  0
LINE
  5
4DA
100
AcDbEntity
  8
ASSI
100
AcDbLine
 62
7
  6
CONTINUOUS
 10
133.5521842456
 20
91.5601437298
 11
133.5251183021
 21
91.3312509389
  0
LINE
  5
4DB
100
AcDbEntity
  8
ASSI
100
AcDbLine
 62
7
  6
CONTINUOUS
 10
133.941043381
 20
92.3896263304
 11
133.9139774075
 21
92.1607334824
  0
LINE
  5
4DC
100
AcDbEntity
  8
ASSI
100
AcDbLine
 62
7
  6
CONTINUOUS
 10
125.5854239358
 20
93.6723206458
 11
125.6954693169
 21
93.9706335116
  0
LINE
  5
4DD
100
AcDbEntity
  8
ASSI
100
AcDbLine
 62
7
  6
CONTINUOUS
 10
125.6114466197
 20
93.5922351067
 11
125.7214920008
 21
93.8905479725
  0
LINE
  5
4DE
100
AcDbEntity
  8
ASSI
100
AcDbLine
 62
7
  6
CONTINUOUS
 10
125.6954693169
 20
93.9706335116
 11
125.8455999479
 21
94.2566479031
  0
LINE
  5
4DF
100
AcDbEntity
  8
ASSI
100
AcDbLine
 62
7
  6
CONTINUOUS
 10
125.7214920008
 20
93.8905479725
 11
125.8716226318
 21
94.176562364
  0
LINE
  5
4E0
100
AcDbEntity
  8
ASSI
100
AcDbLine
 62
7
  6
CONTINUOUS
 10
126.0460263365
 20
94.1951558207
 11
126.0031318705
 21
94.1134374231
  0
LINE
  5
4E1
100
AcDbEntity
  8
ASSI
100
AcDbLine
 62
7
  6
CONTINUOUS
 10
125.87163926
 20
93.7742653574
 11
125.807297561
 21
93.6516877611
  0
LINE
  5
4E2
100
AcDbEntity
  8
ASSI
100
AcDbLine
 62
7
  6
CONTINUOUS
 10
126.80942949
 20
93.3442273534
 11
126.873771189
 21
93.4668049497
  0
LINE
  5
4E3
100
AcDbEntity
  8
ASSI
100
AcDbLine
 62
7
  6
CONTINUOUS
 10
126.8354521739
 20
93.2641418143
 11
126.8997938729
 21
93.3867194106
  0
LINE
  5
4E4
100
AcDbEntity
  8
ASSI
100
AcDbLine
 62
7
  6
CONTINUOUS
 10
127.0956448837
 20
93.4461721101
 11
126.9884086887
 21
93.241876059
  0
LINE
  5
4E5
100
AcDbEntity
  8
ASSI
100
AcDbLine
 62
7
  6
CONTINUOUS
 10
125.8455999479
 20
94.2566479031
 11
126.0358158587
 21
94.5303638774
  0
LINE
  5
4E6
100
AcDbEntity
  8
ASSI
100
AcDbLine
 62
7
  6
CONTINUOUS
 10
125.8716226318
 20
94.176562364
 11
126.0618385426
 21
94.4502783383
  0
LWPOLYLINE
  5
4E7
100
AcDbEntity
  8
0
100
AcDbPolyline
 62
7
  6
CONTINUOUS
 90
12
 70
0
 10
123.1796893316
 20
108.4449672536
 10
123.0321041458
 20
108.353593816
 10
122.8757712205
 20
108.2742099792
 10
122.710405126
 20
108.2072069517
 10
122.5362912921
 20
108.1521935251
 10
122.3590497519
 20
108.1109454184
 10
122.1785784515
 20
108.0839117802
 10
121.9949794448
 20
108.070643462
 10
121.8141789265
 20
108.0715687375
 10
121.6381522949
 20
108.0868303647
 10
121.4649241517
 20
108.1162855857
 10
121.294494497
 20
108.1599344004
  0
LINE
  5
4E8
100
AcDbEntity
  8
ASSI
100
AcDbLine
 62
7
  6
CONTINUOUS
 10
126.4582708355
 20
93.0206492144
 11
126.5865129249
 21
93.0558818433
  0
LINE
  5
4E9
100
AcDbEntity
  8
ASSI
100
AcDbLine
 62
7
  6
CONTINUOUS
 10
126.3973399389
 20
93.0911442352
 11
126.5604902409
 21
93.1359673824
  0
LINE
  5
4EA
100
AcDbEntity
  8
ASSI
100
AcDbLine
 62
7
  6
CONTINUOUS
 10
126.2622815931
 20
93.9864893054
 11
126.0991312911
 21
93.9416661582
  0
LINE
  5
4EB
100
AcDbEntity
  8
ASSI
100
AcDbLine
 62
7
  6
CONTINUOUS
 10
126.0291545545
 20
94.033351884
 11
126.3554551729
 21
94.1229981741
  0
LINE
  5
4EC
100
AcDbEntity
  8
ASSI
100
AcDbLine
 62
7
  6
CONTINUOUS
 10
126.0031318705
 20
94.1134374231
 11
126.329432489
 21
94.2030837132
  0
LINE
  5
4ED
100
AcDbEntity
  8
ASSI
100
AcDbLine
 62
7
  6
CONTINUOUS
 10
126.6268846141
 20
94.6810957992
 11
126.4637343121
 21
94.6362726519
  0
LINE
  5
4EE
100
AcDbEntity
  8
ASSI
100
AcDbLine
 62
7
  6
CONTINUOUS
 10
126.4552900919
 20
94.7565191583
 11
126.7200581939
 21
94.8176046678
  0
LINE
  5
4EF
100
AcDbEntity
  8
ASSI
100
AcDbLine
 62
7
  6
CONTINUOUS
 10
126.429267408
 20
94.8366046974
 11
126.6940355099
 21
94.8976902069
  0
LWPOLYLINE
  5
4F0
100
AcDbEntity
  8
ASSI
100
AcDbPolyline
 62
7
  6
CONTINUOUS
 90
11
 70
0
 10
123.708380113
 20
93.8651140145
 10
123.7544832093
 20
93.8750256158
 10
123.8815530785
 20
93.9184440929
 10
124.0049178097
 20
93.9763391831
 10
124.1180172295
 20
94.0456321958
 10
124.2202956085
 20
94.1269401765
 10
124.3123086761
 20
94.2196460798
 10
124.3891634485
 20
94.3188200787
 10
124.4500393061
 20
94.4248123342
 10
124.4957568685
 20
94.5372726854
 10
124.5238850102
 20
94.6502208218
  0
LWPOLYLINE
  5
4F1
100
AcDbEntity
  8
ASSI
100
AcDbPolyline
 62
7
  6
CONTINUOUS
 90
21
 70
0
 10
191.1712381081
 20
102.1045891078
 10
191.4773910089
 20
102.112831453
 10
191.778982113
 20
102.1406051353
 10
192.0760114204
 20
102.1879101548
 10
192.3707642682
 20
102.2554364186
 10
192.6609553193
 20
102.3424940196
 10
192.9397285623
 20
102.4470132357
 10
193.2068107402
 20
102.5694081132
 10
193.4624751099
 20
102.7092646058
 10
193.7006854315
 20
102.8632708523
 10
193.9210262295
 20
103.031762253
 10
194.1239129795
 20
103.2144034076
 10
194.3045558677
 20
103.4068762533
 10
194.4624264273
 20
103.6094139658
 10
194.5980531252
 20
103.8217833693
 10
194.7082315493
 20
104.0389668745
 10
194.7923575345
 20
104.2610791261
 10
194.851035246
 20
104.4880054793
 10
194.8828727669
 20
104.7143844102
 10
194.8872327105
 20
104.9402038423
 10
194.8686206232
 20
105.1402210102
  0
LWPOLYLINE
  5
4F2
100
AcDbEntity
  8
ASSI
100
AcDbPolyline
 62
7
  6
CONTINUOUS
 90
16
 70
0
 10
117.111091963
 20
104.3257643166
 10
117.1748231155
 20
104.3116111469
 10
117.2386745434
 20
104.3058251576
 10
117.3026462467
 20
104.3084063487
 10
117.3681507121
 20
104.3197299834
 10
117.433775453
 20
104.3394207986
 10
117.4952830089
 20
104.3663530045
 10
117.5524586716
 20
104.4010487334
 10
117.6055171493
 20
104.442985853
 10
117.650865106
 20
104.4894721767
 10
117.6879625877
 20
104.5408616914
 10
117.7173495484
 20
104.5968004101
 10
117.7370525134
 20
104.6535341858
 10
117.7463611102
 20
104.7110938979
 10
117.7459857113
 20
104.769448667
 10
117.7440555713
 20
104.7862011546
  0
LWPOLYLINE
  5
4F3
100
AcDbEntity
  8
DRAFT
100
AcDbPolyline
 62
7
  6
CONTINUOUS
 90
14
 70
0
 10
121.2180816001
 20
107.3861983659
 10
120.9758878021
 20
107.4404348223
 10
120.7403067437
 20
107.512779483
 10
120.5196182165
 20
107.6006897043
 10
120.3154236316
 20
107.7040561452
 10
120.1261215778
 20
107.8229881467
 10
119.955187614
 20
107.9552710874
 10
119.8022340878
 20
108.1019705298
 10
119.6676486515
 20
108.2620209115
 10
119.5560698207
 20
108.4300109238
 10
119.4686255101
 20
108.6054183187
 10
119.4041878049
 20
108.7887653442
 10
119.3640114769
 20
108.9762074359
 10
119.3611328499
 20
108.996872554
  0
LINE
  5
4F4
100
AcDbEntity
  8
ASSI
100
AcDbLine
 62
7
  6
CONTINUOUS
 10
117.111091963
 20
104.3257643166
 11
116.3091701224
 21
104.5720268302
  0
LINE
  5
4F5
100
AcDbEntity
  8
ASSI
100
AcDbLine
 62
7
  6
CONTINUOUS
 10
179.8928209703
 20
85.2585521499
 11
180.2518213774
 21
85.1483066029
  0
LINE
  5
4F6
100
AcDbEntity
  8
ASSI
100
AcDbLine
 62
7
  6
CONTINUOUS
 10
180.6998842894
 20
85.0107108234
 11
181.0587395174
 21
84.9005098595
  0
LINE
  5
4F7
100
AcDbEntity
  8
ASSI
100
AcDbLine
 62
7
  6
CONTINUOUS
 10
181.2030624584
 20
85.175275768
 11
180.115318539
 21
85.5093113876
  0
LINE
  5
4F8
100
AcDbEntity
  8
ASSI
100
AcDbLine
 62
7
  6
CONTINUOUS
 10
181.2613604536
 20
85.2862650638
 11
180.0954419065
 21
85.6443073543
  0
LINE
  5
4F9
100
AcDbEntity
  8
ASSI
100
AcDbLine
 62
7
  6
CONTINUOUS
 10
116.6933988562
 20
105.3035495814
 11
117.4953176678
 21
105.0572880833
  0
LINE
  5
4FA
100
AcDbEntity
  8
SUPERFICI
100
AcDbLine
 62
7
  6
CONTINUOUS
 10
144.690317246
 20
96.7199391844
 11
166.1043654863
 21
90.143892361
  0
LINE
  5
4FB
100
AcDbEntity
  8
ASSI
100
AcDbLine
 62
7
  6
CONTINUOUS
 10
112.6229763134
 20
107.0704703015
 11
111.7047392847
 21
107.3524519971
  0
LINE
  5
4FC
100
AcDbEntity
  8
ASSI
100
AcDbLine
 62
7
  6
CONTINUOUS
 10
110.4178473928
 20
107.7476440298
 11
109.4774819409
 21
108.0364211498
  0
LINE
  5
4FD
100
AcDbEntity
  8
ASSI
100
AcDbLine
 62
7
  6
CONTINUOUS
 10
108.7402115265
 20
108.2628297514
 11
108.1592669113
 21
108.4412322146
  0
LINE
  5
4FE
100
AcDbEntity
  8
ASSI
100
AcDbLine
 62
7
  6
CONTINUOUS
 10
107.602614338
 20
108.6121748271
 11
107.060727518
 21
108.7785830197
  0
LINE
  5
4FF
100
AcDbEntity
  8
ASSI
100
AcDbLine
 62
7
  6
CONTINUOUS
 10
105.5475601281
 20
109.2432620656
 11
104.9444787775
 21
109.4284625058
  0
LINE
  5
500
100
AcDbEntity
  8
ASSI
100
AcDbLine
 62
7
  6
CONTINUOUS
 10
114.8017759034
 20
106.4013905467
 11
114.1986696141
 21
106.5865986453
  0
LINE
  5
501
100
AcDbEntity
  8
ASSI
100
AcDbLine
 62
7
  6
CONTINUOUS
 10
117.8987915015
 20
105.4503307386
 11
116.355353863
 21
105.9243018064
  0
LINE
  5
502
100
AcDbEntity
  8
ASSI
100
AcDbLine
 62
7
  6
CONTINUOUS
 10
112.6812743085
 20
107.1814595973
 11
111.6848626523
 21
107.4874479638
  0
LINE
  5
503
100
AcDbEntity
  8
ASSI
100
AcDbLine
 62
7
  6
CONTINUOUS
 10
110.4540178553
 20
107.8654284765
 11
109.4576053084
 21
108.1714171165
  0
LINE
  5
504
100
AcDbEntity
  8
ASSI
100
AcDbLine
 62
7
  6
CONTINUOUS
 10
108.7985098177
 20
108.3738189564
 11
108.1393902788
 21
108.5762281813
  0
LINE
  5
505
100
AcDbEntity
  8
ASSI
100
AcDbLine
 62
7
  6
CONTINUOUS
 10
107.6999793311
 20
108.7111670263
 11
107.0408508856
 21
108.9135789863
  0
LINE
  5
506
100
AcDbEntity
  8
ASSI
100
AcDbLine
 62
7
  6
CONTINUOUS
 10
105.5837305906
 20
109.3610465124
 11
104.9246021451
 21
109.5634584724
  0
LINE
  5
507
100
AcDbEntity
  8
ASSI
100
AcDbLine
 62
7
  6
CONTINUOUS
 10
114.837946366
 20
106.5191749935
 11
114.1787929817
 21
106.721594612
  0
LINE
  5
508
100
AcDbEntity
  8
ASSI
100
AcDbLine
 62
7
  6
CONTINUOUS
 10
117.8789322821
 20
105.5853177905
 11
116.3354772305
 21
106.059297773
  0
LINE
  5
509
100
AcDbEntity
  8
ASSI
100
AcDbLine
 62
7
  6
CONTINUOUS
 10
191.0100410314
 20
84.7366463554
 11
190.1193714492
 21
85.0101623553
  0
LINE
  5
50A
100
AcDbEntity
  8
ASSI
100
AcDbLine
 62
7
  6
CONTINUOUS
 10
119.7564744619
 20
106.6179263474
 11
118.8658048798
 21
106.8914423473
  0
LINE
  5
50B
100
AcDbEntity
  8
ASSI
100
AcDbLine
 62
7
  6
CONTINUOUS
 10
122.4284832083
 20
105.7973783477
 11
123.3191527904
 21
105.5238623478
  0
LINE
  5
50C
100
AcDbEntity
  8
0
100
AcDbLine
 62
7
  6
CONTINUOUS
 10
101.0225488621
 20
112.9750383468
 11
101.0554730474
 21
112.9649276485
  0
LINE
  5
50D
100
AcDbEntity
  8
0
100
AcDbLine
 62
7
  6
CONTINUOUS
 10
104.8778644628
 20
111.9363284951
 11
119.2658870694
 21
107.5179061431
  0
LINE
  5
50E
100
AcDbEntity
  8
0
100
AcDbLine
 62
7
  6
CONTINUOUS
 10
125.4463975097
 20
105.6199312634
 11
142.0444926322
 21
100.522817053
  0
LINE
  5
50F
100
AcDbEntity
  8
0
100
AcDbLine
 62
7
  6
CONTINUOUS
 10
177.7092529777
 20
89.5705146695
 11
190.5194536388
 21
85.6366261511
  0
LINE
  5
510
100
AcDbEntity
  8
0
100
AcDbLine
 62
7
  6
CONTINUOUS
 10
177.4091222757
 20
90.0880379439
 11
142.4289634016
 21
100.8301073572
  0
LINE
  5
511
100
AcDbEntity
  8
0
100
AcDbLine
 62
7
  6
CONTINUOUS
 10
101.4665404269
 20
113.6702570999
 11
101.4994646122
 21
113.6601464015
  0
LINE
  5
512
100
AcDbEntity
  8
0
100
AcDbLine
 62
7
  6
CONTINUOUS
 10
80.0505604994
 20
122.4100023249
 11
78.18356367
 21
122.9833389638
  0
LWPOLYLINE
  5
513
100
AcDbEntity
  8
0
100
AcDbPolyline
 62
7
  6
CONTINUOUS
 90
4
 70
0
 10
121.294494497
 20
108.1599344004
 10
121.1333428079
 20
108.218111004
 10
120.9854669077
 20
108.2872637239
 10
120.8508667962
 20
108.3673925602
  0
LWPOLYLINE
  5
514
100
AcDbEntity
  8
0
100
AcDbPolyline
 62
7
  6
CONTINUOUS
 90
4
 70
0
 10
122.995274947
 20
109.596111907
 10
123.1742839587
 20
109.5302125409
 10
123.3363636915
 20
109.4511855728
 10
123.4815141453
 20
109.3590310027
  0
LWPOLYLINE
  5
515
100
AcDbEntity
  8
0
100
AcDbPolyline
 62
7
  6
CONTINUOUS
 90
8
 70
0
 10
122.8176783211
 20
109.3180244058
 10
122.9730005992
 20
109.2593860737
 10
123.1111720405
 20
109.1884703855
 10
123.232192645
 20
109.1052773413
 10
123.3375293206
 20
109.0079843167
 10
123.4257151595
 20
108.898413936
 10
123.4923494378
 20
108.7820340723
 10
123.5080942858
 20
108.7378176431
  0
LINE
  5
516
100
AcDbEntity
  8
ASSI
100
AcDbLine
 62
7
  6
CONTINUOUS
 10
155.5649203224
 20
90.9175862323
 11
155.7348526502
 21
90.8425687899
  0
LWPOLYLINE
  5
517
100
AcDbEntity
  8
ASSI
100
AcDbPolyline
 62
7
  6
CONTINUOUS
 90
4
 70
0
 10
155.7348526502
 20
90.8425687899
 10
156.1190820326
 20
90.6341136019
 10
156.481000033
 20
90.3959202781
 10
156.7499341166
 20
90.1837456686
  0
LWPOLYLINE
  5
518
100
AcDbEntity
  8
ASSI
100
AcDbPolyline
 62
7
  6
CONTINUOUS
 90
5
 70
0
 10
155.3173409916
 20
91.3104259232
 10
155.648641667
 20
91.1248245103
 10
155.9573874237
 20
90.9195287925
 10
156.2435782618
 20
90.6945387699
 10
156.4719442611
 20
90.4849247488
  0
LWPOLYLINE
  5
519
100
AcDbEntity
  8
ASSI
100
AcDbPolyline
 62
7
  6
CONTINUOUS
 90
17
 70
0
 10
188.0023608675
 20
77.0983086134
 10
187.8478244053
 20
77.1849500116
 10
187.6788478434
 20
77.2560473571
 10
187.4959893054
 20
77.3122014426
 10
187.3065033809
 20
77.3511844539
 10
187.1101236161
 20
77.3723060293
 10
186.9071164648
 20
77.3762565305
 10
186.7055358768
 20
77.3628792284
 10
186.5054392071
 20
77.3314774599
 10
186.3067691008
 20
77.2827478882
 10
186.1174074434
 20
77.2186237727
 10
185.9377284803
 20
77.1384861771
 10
185.767357966
 20
77.0429540378
 10
185.6130550497
 20
76.9358174237
 10
185.477072781
 20
76.818339691
 10
185.3571581103
 20
76.6892574834
 10
185.2533110376
 20
76.5485708009
  0
LWPOLYLINE
  5
51A
100
AcDbEntity
  8
ASSI
100
AcDbPolyline
 62
7
  6
CONTINUOUS
 90
10
 70
0
 10
149.8793062754
 20
91.2956317781
 10
149.9166048814
 20
91.2723649971
 10
149.953965823
 20
91.2487793675
 10
149.9913891003
 20
91.2248748892
 10
150.0288734902
 20
91.2006471992
 10
150.0664202158
 20
91.1761006606
 10
150.1040329467
 20
91.1512483626
 10
150.1417129061
 20
91.1260946681
 10
150.1794588709
 20
91.1006352143
 10
150.217270841
 20
91.074870001
  0
LINE
  5
51B
100
AcDbEntity
  8
0
100
AcDbLine
 62
7
  6
CONTINUOUS
 10
154.9711091629
 20
85.7480560402
 11
155.0322106153
 21
85.7037041159
  0
LINE
  5
51C
100
AcDbEntity
  8
0
100
AcDbLine
 62
7
  6
CONTINUOUS
 10
155.0322106153
 20
85.7037041159
 11
155.0885493203
 21
85.6621937566
  0
LINE
  5
51D
100
AcDbEntity
  8
ASSI
100
AcDbLine
 62
7
  6
CONTINUOUS
 10
97.9976923327
 20
135.9000762794
 11
97.8007362955
 21
136.0628185054
  0
LINE
  5
51E
100
AcDbEntity
  8
0
100
AcDbLine
 62
7
  6
CONTINUOUS
 10
152.1693790239
 20
86.1024282262
 11
152.1172922264
 21
86.1473770956
  0
LINE
  5
51F
100
AcDbEntity
  8
0
100
AcDbLine
 62
7
  6
CONTINUOUS
 10
152.1172922264
 20
86.1473770956
 11
152.0987172244
 21
86.1635296936
  0
LINE
  5
520
100
AcDbEntity
  8
0
100
AcDbLine
 62
7
  6
CONTINUOUS
 10
152.3118750843
 20
85.9773933928
 11
152.1693790239
 21
86.1024282262
  0
LINE
  5
521
100
AcDbEntity
  8
0
100
AcDbLine
 62
7
  6
CONTINUOUS
 10
152.4448338148
 20
85.8596823089
 11
152.3118750843
 21
85.9773933928
  0
LINE
  5
522
100
AcDbEntity
  8
TRASH
100
AcDbLine
 62
7
  6
CONTINUOUS
 10
152.5578901934
 20
85.5530591868
 11
152.5869960879
 21
85.5271992296
  0
LINE
  5
523
100
AcDbEntity
  8
0
100
AcDbLine
 62
7
  6
CONTINUOUS
 10
152.6500070183
 20
85.1557166586
 11
152.6686643847
 21
85.1386456272
  0
LINE
  5
524
100
AcDbEntity
  8
0
100
AcDbLine
 62
7
  6
CONTINUOUS
 10
154.2148510407
 20
85.6042164368
 11
154.1961936744
 21
85.6212874682
  0
LINE
  5
525
100
AcDbEntity
  8
0
100
AcDbLine
 62
7
  6
CONTINUOUS
 10
154.1972338054
 20
86.41337484
 11
154.2246392943
 21
86.3867153321
  0
LINE
  5
526
100
AcDbEntity
  8
0
100
AcDbLine
 62
7
  6
CONTINUOUS
 10
154.2246392943
 20
86.3867153321
 11
154.2518775263
 21
86.359857808
  0
LINE
  5
527
100
AcDbEntity
  8
0
100
AcDbLine
 62
7
  6
CONTINUOUS
 10
154.2518775263
 20
86.359857808
 11
154.2790088886
 21
86.3327959876
  0
LINE
  5
528
100
AcDbEntity
  8
0
100
AcDbLine
 62
7
  6
CONTINUOUS
 10
154.2790088886
 20
86.3327959876
 11
154.3059261661
 21
86.3056354878
  0
LINE
  5
529
100
AcDbEntity
  8
0
100
AcDbLine
 62
7
  6
CONTINUOUS
 10
154.3059261661
 20
86.3056354878
 11
154.3327573626
 21
86.2782442435
  0
LINE
  5
52A
100
AcDbEntity
  8
0
100
AcDbLine
 62
7
  6
CONTINUOUS
 10
154.3327573626
 20
86.2782442435
 11
154.359762745
 21
86.2504091726
  0
LINE
  5
52B
100
AcDbEntity
  8
0
100
AcDbLine
 62
7
  6
CONTINUOUS
 10
154.359762745
 20
86.2504091726
 11
154.4018061063
 21
86.2064711079
  0
LINE
  5
52C
100
AcDbEntity
  8
0
100
AcDbLine
 62
7
  6
CONTINUOUS
 10
154.4018061063
 20
86.2064711079
 11
154.4314806579
 21
86.1750133545
  0
LINE
  5
52D
100
AcDbEntity
  8
0
100
AcDbLine
 62
7
  6
CONTINUOUS
 10
154.4314806579
 20
86.1750133545
 11
154.4631010425
 21
86.1412007864
  0
LWPOLYLINE
  5
52E
100
AcDbEntity
  8
0
100
AcDbPolyline
 62
7
  6
CONTINUOUS
 90
4
 70
0
 10
154.4631010425
 20
86.1412007864
 10
154.515055979
 20
86.0848875556
 10
154.5338114551
 20
86.0643099075
 10
154.5531843165
 20
86.0427384939
  0
LINE
  5
52F
100
AcDbEntity
  8
0
100
AcDbLine
 62
7
  6
CONTINUOUS
 10
152.0888267061
 20
86.1750547531
 11
152.0987172244
 21
86.1635296936
  0
LINE
  5
530
100
AcDbEntity
  8
0
100
AcDbLine
 62
7
  6
CONTINUOUS
 10
152.5251317721
 20
85.6009753632
 11
152.5579009118
 21
85.5530900689
  0
LINE
  5
531
100
AcDbEntity
  8
0
100
AcDbLine
 62
7
  6
CONTINUOUS
 10
152.1275434417
 20
86.1831716923
 11
152.2019649044
 21
86.0739771123
  0
LINE
  5
532
100
AcDbEntity
  8
0
100
AcDbLine
 62
7
  6
CONTINUOUS
 10
151.7934291693
 20
86.6742504212
 11
152.1275434417
 21
86.1831716923
  0
LINE
  5
533
100
AcDbEntity
  8
0
100
AcDbLine
 62
7
  6
CONTINUOUS
 10
139.08595302
 20
89.8647611938
 11
139.2349098357
 21
89.4787958084
  0
LINE
  5
534
100
AcDbEntity
  8
0
100
AcDbLine
 62
7
  6
CONTINUOUS
 10
139.3086206529
 20
89.2413856257
 11
139.3659289188
 21
89.0568324659
  0
LINE
  5
535
100
AcDbEntity
  8
0
100
AcDbLine
 62
7
  6
CONTINUOUS
 10
139.0847900831
 20
89.9624223074
 11
139.2349098357
 21
89.4787958084
  0
LWPOLYLINE
  5
536
100
AcDbEntity
  8
0
100
AcDbPolyline
 62
7
  6
CONTINUOUS
 90
14
 70
0
 10
142.5613002148
 20
90.4279939362
 10
142.5529462711
 20
90.4564291735
 10
142.5170034807
 20
90.5610161283
 10
142.473458449
 20
90.6634983897
 10
142.4224212903
 20
90.7635661651
 10
142.3640658984
 20
90.8608466339
 10
142.2985333124
 20
90.9550800855
 10
142.2258685569
 20
91.0461344607
 10
142.1461554253
 20
91.1337923577
 10
142.0596503609
 20
91.2176680338
 10
141.9666643714
 20
91.2973949941
 10
141.8674769686
 20
91.3726918389
 10
141.762315655
 20
91.4433437661
 10
141.6569575945
 20
91.5060450955
  0
LINE
  5
537
100
AcDbEntity
  8
0
100
AcDbLine
 62
7
  6
CONTINUOUS
 10
142.5612400983
 20
90.4282060323
 11
142.8496300011
 21
89.4110370296
  0
LINE
  5
538
100
AcDbEntity
  8
0
100
AcDbLine
 62
253
  6
CONTINUOUS
 10
142.5613002148
 20
90.4279939362
 11
142.5612414814
 21
90.4282011537
  0
LINE
  5
539
100
AcDbEntity
  8
0
100
AcDbLine
 62
7
  6
CONTINUOUS
 10
139.2349098357
 20
89.4787958084
 11
139.2899632865
 21
89.2584566571
  0
LINE
  5
53A
100
AcDbEntity
  8
0
100
AcDbLine
 62
7
  6
CONTINUOUS
 10
140.6105069486
 20
91.7964793484
 11
140.6897088457
 21
91.4502310949
  0
LWPOLYLINE
  5
53B
100
AcDbEntity
  8
0
100
AcDbPolyline
 62
7
  6
CONTINUOUS
 90
3
 70
0
 10
140.3484685783
 20
90.3645306665
 10
140.3605173652
 20
90.3107729602
 10
140.4215292631
 20
90.0424369614
  0
LINE
  5
53C
100
AcDbEntity
  8
0
100
AcDbLine
 62
7
  6
CONTINUOUS
 10
140.3277533746
 20
90.3544261995
 11
140.4058370726
 21
90.0024224933
  0
LINE
  5
53D
100
AcDbEntity
  8
0
100
AcDbLine
 62
7
  6
CONTINUOUS
 10
140.8316218245
 20
90.199693003
 11
140.82844103
 21
90.2173914722
  0
LINE
  5
53E
100
AcDbEntity
  8
0
100
AcDbLine
 62
7
  6
CONTINUOUS
 10
139.9096473681
 20
89.5147617555
 11
139.8167721655
 21
90.0370684187
  0
LINE
  5
53F
100
AcDbEntity
  8
0
100
AcDbLine
 62
7
  6
CONTINUOUS
 10
139.7676995852
 20
90.3130586799
 11
139.6677476517
 21
90.8752390223
  0
LINE
  5
540
100
AcDbEntity
  8
ASSI
100
AcDbLine
 62
7
  6
CONTINUOUS
 10
134.5645209954
 20
90.5312983233
 11
134.5374604322
 21
90.6885825262
  0
LINE
  5
541
100
AcDbEntity
  8
ASSI
100
AcDbLine
 62
7
  6
CONTINUOUS
 10
136.0859843648
 20
91.0673939159
 11
136.1204512689
 21
90.8670618705
  0
LINE
  5
542
100
AcDbEntity
  8
ASSI
100
AcDbLine
 62
7
  6
CONTINUOUS
 10
136.6292289037
 20
97.7732049443
 11
136.6491055362
 21
97.6382089776
  0
LINE
  5
543
100
AcDbEntity
  8
0
100
AcDbLine
 62
7
  6
CONTINUOUS
 10
139.2269523561
 20
89.6299392281
 11
139.0766213669
 21
90.7954410887
  0
LINE
  5
544
100
AcDbEntity
  8
0
100
AcDbLine
 62
7
  6
CONTINUOUS
 10
139.1978464616
 20
89.6557991853
 11
139.0558229188
 21
90.7902056175
  0
LINE
  5
545
100
AcDbEntity
  8
TRASH
100
AcDbLine
 62
7
  6
CONTINUOUS
 10
140.8279386251
 20
89.9176325788
 11
140.8312607239
 21
89.8717790066
  0
LINE
  5
546
100
AcDbEntity
  8
0
100
AcDbLine
 62
7
  6
CONTINUOUS
 10
139.7860036462
 20
90.0351753781
 11
139.7676995852
 21
90.3130586799
  0
LINE
  5
547
100
AcDbEntity
  8
0
100
AcDbLine
 62
7
  6
CONTINUOUS
 10
140.8365032176
 20
89.984839121
 11
140.854807309
 21
89.7069564353
  0
LINE
  5
548
100
AcDbEntity
  8
0
100
AcDbLine
 62
7
  6
CONTINUOUS
 10
141.203493492
 20
90.1308130296
 11
141.2218396315
 21
89.532185234
  0
LINE
  5
549
100
AcDbEntity
  8
0
100
AcDbLine
 62
7
  6
CONTINUOUS
 10
141.1931405848
 20
90.1454784924
 11
141.210794418
 21
89.5350856655
  0
LINE
  5
54A
100
AcDbEntity
  8
0
100
AcDbLine
 62
7
  6
CONTINUOUS
 10
140.833939623
 20
90.0798026735
 11
140.8316218245
 21
90.199693003
  0
LINE
  5
54B
100
AcDbEntity
  8
TRASH
100
AcDbLine
 62
7
  6
CONTINUOUS
 10
140.8312631849
 20
89.8717773312
 11
140.832979021
 21
89.758523646
  0
LINE
  5
54C
100
AcDbEntity
  8
0
100
AcDbLine
 62
7
  6
CONTINUOUS
 10
140.8356342351
 20
89.9608073933
 11
140.833939623
 21
90.0798026735
  0
LINE
  5
54D
100
AcDbEntity
  8
0
100
AcDbLine
 62
7
  6
CONTINUOUS
 10
139.08595302
 20
89.8647611938
 11
139.0850231289
 21
89.9294256464
  0
LINE
  5
54E
100
AcDbEntity
  8
TRASH
100
AcDbLine
 62
7
  6
CONTINUOUS
 10
140.832979021
 20
89.758523646
 11
140.834593244
 21
89.6161926933
  0
LINE
  5
54F
100
AcDbEntity
  8
0
100
AcDbLine
 62
7
  6
CONTINUOUS
 10
140.8363069218
 20
89.8818043494
 11
140.8356342351
 21
89.9608073933
  0
LINE
  5
550
100
AcDbEntity
  8
0
100
AcDbLine
 62
7
  6
CONTINUOUS
 10
139.0850231289
 20
89.9294256464
 11
139.0847900831
 21
89.9624223074
  0
LINE
  5
551
100
AcDbEntity
  8
0
100
AcDbLine
 62
7
  6
CONTINUOUS
 10
139.3082953431
 20
89.1230394474
 11
139.3085229758
 21
89.0744612748
  0
LINE
  5
552
100
AcDbEntity
  8
0
100
AcDbLine
 62
7
  6
CONTINUOUS
 10
140.8365112181
 20
89.8226692242
 11
140.8363069218
 21
89.8818043494
  0
LINE
  5
553
100
AcDbEntity
  8
0
100
AcDbLine
 62
7
  6
CONTINUOUS
 10
140.8312607239
 20
89.8717790066
 11
140.8316218245
 21
90.199693003
  0
LINE
  5
554
100
AcDbEntity
  8
0
100
AcDbLine
 62
7
  6
CONTINUOUS
 10
140.8365032176
 20
89.984839121
 11
140.8371900736
 21
90.5161148385
  0
LINE
  5
555
100
AcDbEntity
  8
0
100
AcDbLine
 62
7
  6
CONTINUOUS
 10
140.8360006971
 20
89.616200511
 11
140.8361499426
 21
89.7240274667
  0
LINE
  5
556
100
AcDbEntity
  8
0
100
AcDbLine
 62
7
  6
CONTINUOUS
 10
139.3082894227
 20
89.1821554009
 11
139.3082953431
 21
89.1230394474
  0
LINE
  5
557
100
AcDbEntity
  8
0
100
AcDbLine
 62
7
  6
CONTINUOUS
 10
140.8279386251
 20
89.9176325788
 11
140.82844103
 21
90.2173914722
  0
LINE
  5
558
100
AcDbEntity
  8
0
100
AcDbLine
 62
7
  6
CONTINUOUS
 10
139.7676995852
 20
90.3130586799
 11
139.7684778062
 21
90.9334841018
  0
LINE
  5
559
100
AcDbEntity
  8
0
100
AcDbLine
 62
7
  6
CONTINUOUS
 10
140.8372804622
 20
90.6052637507
 11
140.8372932986
 21
90.5314194354
  0
LINE
  5
55A
100
AcDbEntity
  8
0
100
AcDbLine
 62
7
  6
CONTINUOUS
 10
140.8364082239
 20
89.7635269801
 11
140.8365112181
 21
89.8226692242
  0
LWPOLYLINE
  5
55B
100
AcDbEntity
  8
RACCORDO
100
AcDbPolyline
 62
7
  6
CONTINUOUS
 90
75
 70
0
 10
143.8883093658
 20
124.3385173171
 10
143.8879989734
 20
124.2512709379
 10
143.8868507074
 20
124.1664596077
 10
143.8849257232
 20
124.0840898558
 10
143.8822941742
 20
124.0042337269
 10
143.8790045151
 20
123.926823532
 10
143.8750744054
 20
123.851656356
 10
143.8705462798
 20
123.778724492
 10
143.8654676121
 20
123.708036188
 10
143.8598477288
 20
123.6394171987
 10
143.8537207962
 20
123.5728609243
 10
143.8471238547
 20
123.5083724667
 10
143.8400591261
 20
123.4457998755
 10
143.8325547819
 20
123.3851376
 10
143.8246400012
 20
123.3263895066
 10
143.8163099356
 20
123.2694226095
 10
143.8075885112
 20
123.2142326927
 10
143.7984987473
 20
123.1608235151
 10
143.7890277235
 20
123.1090791897
 10
143.7791966645
 20
123.058997232
 10
143.7690234994
 20
123.0105821924
 10
143.7584849191
 20
122.9637345052
 10
143.7476009755
 20
122.918453468
 10
143.7363851228
 20
122.8747458472
 10
143.7247996188
 20
122.8325302066
 10
143.7128656365
 20
122.7918085227
 10
143.7005919018
 20
122.7525908195
 10
143.6879182053
 20
122.7148167478
 10
143.6748703987
 20
122.6784907484
 10
143.6614512139
 20
122.6436294212
 10
143.6475627979
 20
122.6102035516
 10
143.6332402075
 20
122.5782145092
 10
143.6184789966
 20
122.5476966098
 10
143.6031207399
 20
122.5186898387
 10
143.5872281253
 20
122.4911922914
 10
143.570777469
 20
122.4652652702
 10
143.5534835444
 20
122.4410778384
 10
143.535466619
 20
122.4185840087
 10
143.5166678867
 20
122.3979347542
 10
143.4965485353
 20
122.3796615267
 10
143.4750161768
 20
122.3635839461
 10
143.4522932564
 20
122.3501052415
 10
143.4283364677
 20
122.3406736066
 10
143.4029610782
 20
122.3355534207
 10
143.3765683036
 20
122.3347094629
 10
143.3499634784
 20
122.3390357846
 10
143.3230458291
 20
122.3491623441
 10
143.2960822845
 20
122.3644695535
 10
143.2702871531
 20
122.3837473485
 10
143.2458566647
 20
122.4069931216
 10
143.2225173634
 20
122.4339471834
 10
143.2006467355
 20
122.4628738339
 10
143.1804167108
 20
122.4931923672
 10
143.1614858936
 20
122.5252369761
 10
143.1434767531
 20
122.5586733458
 10
143.1263136663
 20
122.593367683
 10
143.109993153
 20
122.6293406489
 10
143.0943134071
 20
122.6665489543
 10
143.0792353133
 20
122.7049426217
 10
143.0647561495
 20
122.7445063816
 10
143.0507669824
 20
122.7852764471
 10
143.0372513936
 20
122.8272224079
 10
143.0242056149
 20
122.8703321542
 10
143.0115636197
 20
122.9146833175
 10
142.9993197495
 20
122.9602589563
 10
142.9874747731
 20
123.0070455266
 10
142.97598914
 20
123.0551335444
 10
142.9648650781
 20
123.1045088915
 10
142.9541066015
 20
123.1551611906
 10
142.9436896778
 20
123.2071910122
 10
142.933622227
 20
123.2605845665
 10
142.9239117182
 20
123.3153336082
 10
142.9145443342
 20
123.3715495334
 10
142.9055325895
 20
123.4292181011
 10
142.9020977261
 20
123.4522306718
  0
LINE
  5
55C
100
AcDbEntity
  8
0
100
AcDbLine
 62
7
  6
CONTINUOUS
 10
140.8372932986
 20
90.5314194354
 11
140.8371900736
 21
90.5161148385
  0
LINE
  5
55D
100
AcDbEntity
  8
0
100
AcDbLine
 62
7
  6
CONTINUOUS
 10
139.3086206529
 20
89.2413856257
 11
139.3082894227
 21
89.1821554009
  0
LINE
  5
55E
100
AcDbEntity
  8
0
100
AcDbLine
 62
7
  6
CONTINUOUS
 10
140.8361499426
 20
89.7240274667
 11
140.8364082239
 21
89.7635269801
  0
LWPOLYLINE
  5
55F
100
AcDbEntity
  8
RACCORDO
100
AcDbPolyline
 62
7
  6
CONTINUOUS
 90
10
 70
0
 10
143.0418837494
 20
89.9178102938
 10
143.0396093641
 20
89.8033217918
 10
143.0291586611
 20
89.6888026465
 10
143.0106309852
 20
89.5745488356
 10
142.9841509751
 20
89.4608793592
 10
142.9498531359
 20
89.3480651188
 10
142.9078677703
 20
89.2363343291
 10
142.8583509467
 20
89.1259645994
 10
142.8014988033
 20
89.0172743805
 10
142.7375213827
 20
88.9105547565
  0
LWPOLYLINE
  5
560
100
AcDbEntity
  8
RACCORDO
100
AcDbPolyline
 62
253
  6
CONTINUOUS
 90
16
 70
0
 10
136.8389053214
 20
89.8328569309
 10
136.8403677431
 20
89.8462069561
 10
136.8524209404
 20
89.9224488831
 10
136.8667749321
 20
89.9958794455
 10
136.8833197109
 20
90.066457817
 10
136.9021652841
 20
90.134224824
 10
136.92257578
 20
90.1995462795
 10
136.9444574083
 20
90.2624018718
 10
136.9679039592
 20
90.3228119125
 10
136.9924609315
 20
90.3812031501
 10
137.0180442562
 20
90.437559426
 10
137.0447380022
 20
90.4918968989
 10
137.0723398744
 20
90.544690793
 10
137.1007824413
 20
90.5960995164
 10
137.1301331345
 20
90.6459646611
 10
137.160391954
 20
90.694286227
  0
LINE
  5
561
100
AcDbEntity
  8
ASSI
100
AcDbLine
 62
7
  6
CONTINUOUS
 10
136.1204512689
 20
90.8670618705
 11
136.0933853254
 21
90.6381690796
  0
LINE
  5
562
100
AcDbEntity
  8
0
100
AcDbLine
 62
7
  6
CONTINUOUS
 10
140.4213674176
 20
90.0425088969
 11
140.4787476571
 21
90.4994329561
  0
LWPOLYLINE
  5
563
100
AcDbEntity
  8
RACCORDO
100
AcDbPolyline
 62
253
  6
CONTINUOUS
 90
15
 70
0
 10
137.0621093015
 20
89.764313151
 10
137.066764023
 20
89.7943761051
 10
137.0802850485
 20
89.8632542872
 10
137.09594499
 20
89.929485183
 10
137.1134402515
 20
89.9930326839
 10
137.1326223591
 20
90.054303235
 10
137.1532560798
 20
90.1132742975
 10
137.1751155894
 20
90.1699336636
 10
137.1981717245
 20
90.224704481
 10
137.2222509113
 20
90.2775680366
 10
137.2471958032
 20
90.3285342544
 10
137.273095851
 20
90.3780610302
 10
137.2999262945
 20
90.4262958355
 10
137.3275015402
 20
90.4730856354
 10
137.3557166359
 20
90.5184330329
  0
LINE
  5
564
100
AcDbEntity
  8
ASSI
100
AcDbLine
 62
7
  6
CONTINUOUS
 10
135.8715120048
 20
90.6588018709
 11
135.8957681493
 21
90.793678035
  0
LINE
  5
565
100
AcDbEntity
  8
ASSI
100
AcDbLine
 62
7
  6
CONTINUOUS
 10
135.8975346887
 20
90.5787163318
 11
135.9217908333
 21
90.7135924959
  0
LINE
  5
566
100
AcDbEntity
  8
ASSI
100
AcDbLine
 62
7
  6
CONTINUOUS
 10
129.3189731507
 20
92.7166015382
 11
129.4262093457
 21
92.9208975893
  0
LINE
  5
567
100
AcDbEntity
  8
ASSI
100
AcDbLine
 62
7
  6
CONTINUOUS
 10
129.3723315645
 20
92.6885933939
 11
129.4522320297
 21
92.8408120502
  0
LINE
  5
568
100
AcDbEntity
  8
ASSI
100
AcDbLine
 62
7
  6
CONTINUOUS
 10
129.9874031709
 20
92.7487197779
 11
129.8801669759
 21
92.5444237268
  0
LINE
  5
569
100
AcDbEntity
  8
ASSI
100
AcDbLine
 62
7
  6
CONTINUOUS
 10
132.0177065703
 20
91.6514163465
 11
132.0820482693
 21
91.7739939428
  0
LINE
  5
56A
100
AcDbEntity
  8
ASSI
100
AcDbLine
 62
7
  6
CONTINUOUS
 10
132.486736386
 20
92.4563020095
 11
132.551078085
 21
92.5788796058
  0
LINE
  5
56B
100
AcDbEntity
  8
ASSI
100
AcDbLine
 62
7
  6
CONTINUOUS
 10
132.0437292543
 20
91.5713308074
 11
132.1080709533
 21
91.6939084037
  0
LINE
  5
56C
100
AcDbEntity
  8
ASSI
100
AcDbLine
 62
7
  6
CONTINUOUS
 10
132.51275907
 20
92.3762164704
 11
132.577100769
 21
92.4987940667
  0
LINE
  5
56D
100
AcDbEntity
  8
ASSI
100
AcDbLine
 62
7
  6
CONTINUOUS
 10
132.2824748157
 20
91.712501812
 11
132.2181331167
 21
91.5899242157
  0
LINE
  5
56E
100
AcDbEntity
  8
ASSI
100
AcDbLine
 62
7
  6
CONTINUOUS
 10
132.7515046314
 20
92.517387475
 11
132.7086101654
 21
92.4356690775
  0
LINE
  5
56F
100
AcDbEntity
  8
ASSI
100
AcDbLine
 62
7
  6
CONTINUOUS
 10
133.6706568539
 20
92.1405070748
 11
133.7135513199
 21
92.2222254724
  0
LINE
  5
570
100
AcDbEntity
  8
ASSI
100
AcDbLine
 62
7
  6
CONTINUOUS
 10
133.2603505155
 20
91.2701653326
 11
133.3246922145
 21
91.392742929
  0
LINE
  5
571
100
AcDbEntity
  8
ASSI
100
AcDbLine
 62
7
  6
CONTINUOUS
 10
133.6966795378
 20
92.0604215357
 11
133.7395740038
 21
92.1421399333
  0
LINE
  5
572
100
AcDbEntity
  8
ASSI
100
AcDbLine
 62
7
  6
CONTINUOUS
 10
133.2863731994
 20
91.1900797935
 11
133.3507148984
 21
91.3126573899
  0
LINE
  5
573
100
AcDbEntity
  8
ASSI
100
AcDbLine
 62
7
  6
CONTINUOUS
 10
133.9139774075
 20
92.1607334824
 11
133.8496357085
 21
92.038155886
  0
LINE
  5
574
100
AcDbEntity
  8
ASSI
100
AcDbLine
 62
7
  6
CONTINUOUS
 10
133.5251183021
 20
91.3312509389
 11
133.4607766031
 21
91.2086733426
  0
LINE
  5
575
100
AcDbEntity
  8
ASSI
100
AcDbLine
 62
7
  6
CONTINUOUS
 10
134.7361042547
 20
91.2443489359
 11
135.2937323726
 21
92.3066882186
  0
LINE
  5
576
100
AcDbEntity
  8
ASSI
100
AcDbLine
 62
7
  6
CONTINUOUS
 10
134.7894626685
 20
91.2163407916
 11
135.3197550565
 21
92.2266026795
  0
LINE
  5
577
100
AcDbEntity
  8
ASSI
100
AcDbLine
 62
7
  6
CONTINUOUS
 10
135.3869222952
 20
92.0409002347
 11
135.0437665073
 21
91.3871529397
  0
LINE
  5
578
100
AcDbEntity
  8
ASSI
100
AcDbLine
 62
7
  6
CONTINUOUS
 10
133.1332802579
 20
96.0889693832
 11
133.4536793234
 21
96.6989537672
  0
LINE
  5
579
100
AcDbEntity
  8
ASSI
100
AcDbLine
 62
7
  6
CONTINUOUS
 10
134.9875487176
 20
99.6191756982
 11
135.3079477831
 21
100.2291600822
  0
LINE
  5
57A
100
AcDbEntity
  8
ASSI
100
AcDbLine
 62
7
  6
CONTINUOUS
 10
137.6100050669
 20
96.7644130709
 11
137.9300554909
 21
97.3737337018
  0
LINE
  5
57B
100
AcDbEntity
  8
ASSI
100
AcDbLine
 62
7
  6
CONTINUOUS
 10
137.0389642989
 20
94.8895715412
 11
137.3593647155
 21
95.4995584976
  0
LINE
  5
57C
100
AcDbEntity
  8
ASSI
100
AcDbLine
 62
7
  6
CONTINUOUS
 10
138.8932328089
 20
98.4197779519
 11
139.2136319246
 21
99.0297624316
  0
LINE
  5
57D
100
AcDbEntity
  8
ASSI
100
AcDbLine
 62
7
  6
CONTINUOUS
 10
126.2147950179
 20
94.4280125951
 11
126.0460263365
 21
94.1951558207
  0
LINE
  5
57E
100
AcDbEntity
  8
ASSI
100
AcDbLine
 62
7
  6
CONTINUOUS
 10
126.3192220461
 20
94.5382918921
 11
126.2147950179
 21
94.4280125951
  0
LINE
  5
57F
100
AcDbEntity
  8
ASSI
100
AcDbLine
 62
7
  6
CONTINUOUS
 10
125.9760662582
 20
93.8845445971
 11
125.87163926
 21
93.7742653574
  0
LINE
  5
580
100
AcDbEntity
  8
ASSI
100
AcDbLine
 62
7
  6
CONTINUOUS
 10
126.7050025505
 20
93.2339481621
 11
126.80942949
 21
93.3442273534
  0
LINE
  5
581
100
AcDbEntity
  8
ASSI
100
AcDbLine
 62
7
  6
CONTINUOUS
 10
126.7310252345
 20
93.153862623
 11
126.8354521739
 21
93.2641418143
  0
LINE
  5
582
100
AcDbEntity
  8
ASSI
100
AcDbLine
 62
7
  6
CONTINUOUS
 10
126.0358158587
 20
94.5303638774
 11
126.2232226399
 21
94.7100631526
  0
LINE
  5
583
100
AcDbEntity
  8
ASSI
100
AcDbLine
 62
7
  6
CONTINUOUS
 10
126.0618385426
 20
94.4502783383
 11
126.2492453239
 21
94.6299776135
  0
LINE
  5
584
100
AcDbEntity
  8
ASSI
100
AcDbLine
 62
7
  6
CONTINUOUS
 10
126.9884086887
 20
93.241876059
 11
126.8010019131
 21
93.0621768818
  0
LINE
  5
585
100
AcDbEntity
  8
0
100
AcDbLine
 62
7
  6
CONTINUOUS
 10
116.5198158599
 20
98.0166859575
 11
116.372230674
 21
97.9253125199
  0
LWPOLYLINE
  5
586
100
AcDbEntity
  8
0
100
AcDbPolyline
 62
7
  6
CONTINUOUS
 90
11
 70
0
 10
116.372230674
 20
97.9253125199
 10
116.2158977488
 20
97.8459286831
 10
116.0505316543
 20
97.7789256556
 10
115.8764178204
 20
97.723912229
 10
115.6991762802
 20
97.6826641223
 10
115.5187049798
 20
97.6556304841
 10
115.3351059731
 20
97.6423621659
 10
115.1543054548
 20
97.6432874414
 10
114.9763947368
 20
97.6588694333
 10
114.8012825072
 20
97.688645019
 10
114.6346210253
 20
97.7316531043
  0
LWPOLYLINE
  5
587
100
AcDbEntity
  8
ASSI
100
AcDbPolyline
 62
7
  6
CONTINUOUS
 90
3
 70
0
 10
119.2560380235
 20
98.8468644125
 10
119.0639549281
 20
98.7607842278
 10
119.029107713
 20
98.7518360188
  0
LWPOLYLINE
  5
588
100
AcDbEntity
  8
DRAFT
100
AcDbPolyline
 62
7
  6
CONTINUOUS
 90
10
 70
0
 10
122.5775700622
 20
106.0308241717
 10
122.7479216948
 20
106.0606783544
 10
122.9151173028
 20
106.0979299893
 10
123.0791568862
 20
106.1425790764
 10
123.2406518055
 20
106.1948560339
 10
123.3989907001
 20
106.2545304436
 10
123.5523394888
 20
106.3209110503
 10
123.700086811
 20
106.3937674358
 10
123.8428440272
 20
106.4733300183
 10
123.9806111373
 20
106.5595987979
  0
LWPOLYLINE
  5
589
100
AcDbEntity
  8
ASSI
100
AcDbPolyline
 62
7
  6
CONTINUOUS
 90
10
 70
0
 10
117.3407782154
 20
103.6933532286
 10
117.4706353378
 20
103.7084621822
 10
117.5965407852
 20
103.7351221448
 10
117.7184945576
 20
103.7733331165
 10
117.8380180548
 20
103.8238416065
 10
117.953589877
 20
103.8859011056
 10
118.0606458248
 20
103.9572720858
 10
118.1588825667
 20
104.0383792977
 10
118.2486034341
 20
104.1287979907
 10
118.3114296854
 20
104.2067458176
  0
LWPOLYLINE
  5
58A
100
AcDbEntity
  8
0
100
AcDbPolyline
 62
7
  6
CONTINUOUS
 90
5
 70
0
 10
191.5669096832
 20
107.0604956297
 10
191.3780344703
 20
107.0568439773
 10
191.1908333212
 20
107.0389099155
 10
191.0034351585
 20
107.0067980258
 10
190.8158399822
 20
106.9605083081
  0
LWPOLYLINE
  5
58B
100
AcDbEntity
  8
DRAFT
100
AcDbPolyline
 62
7
  6
CONTINUOUS
 90
4
 70
0
 10
121.9760596398
 20
107.3346808664
 10
121.7199213608
 20
107.333547674
 10
121.4656951107
 20
107.3508189178
 10
121.2180816001
 20
107.3861983659
  0
LWPOLYLINE
  5
58C
100
AcDbEntity
  8
RACCORDO
100
AcDbPolyline
 62
7
  6
CONTINUOUS
 90
16
 70
0
 10
194.4895421257
 20
96.1981452656
 10
194.403349576
 20
96.2178779271
 10
194.3171843045
 20
96.2278385299
 10
194.2310463113
 20
96.2280270741
 10
194.1432333631
 20
96.2181018068
 10
194.0554476931
 20
96.1984044809
 10
193.9727960011
 20
96.1699603543
 10
193.8951952069
 20
96.1319514974
 10
193.8227283908
 20
96.08519584
 10
193.7607514927
 20
96.0331724287
 10
193.7103214115
 20
95.9759003673
 10
193.6703812484
 20
95.9133605521
 10
193.6431162464
 20
95.8489747193
 10
193.6292163208
 20
95.7821873356
 10
193.6279915563
 20
95.7135539342
 10
193.6301767926
 20
95.6928946902
  0
LWPOLYLINE
  5
58D
100
AcDbEntity
  8
0
100
AcDbPolyline
 62
7
  6
CONTINUOUS
 90
15
 70
0
 10
122.8176783211
 20
109.3180244058
 10
122.6506734104
 20
109.3583696307
 10
122.4820848082
 20
109.38165698
 10
122.3119125144
 20
109.3878864538
 10
122.1372243743
 20
109.3765863372
 10
121.9609525426
 20
109.3482283451
 10
121.7918934843
 20
109.3042276217
 10
121.6304132257
 20
109.2437903458
 10
121.4761457405
 20
109.1677103385
 10
121.336789414
 20
109.0797842084
 10
121.2131009426
 20
108.9794108005
 10
121.1043236299
 20
108.8671912696
 10
121.0158857728
 20
108.748725689
 10
120.948819537
 20
108.6236970906
 10
120.9020927567
 20
108.4924224423
  0
LWPOLYLINE
  5
58E
100
AcDbEntity
  8
0
100
AcDbPolyline
 62
7
  6
CONTINUOUS
 90
14
 70
0
 10
122.995274947
 20
109.596111907
 10
122.8045971124
 20
109.6437397899
 10
122.6112787507
 20
109.6738521335
 10
122.4153198619
 20
109.6864489379
 10
122.2140235006
 20
109.6812295472
 10
122.0100866122
 20
109.6584946172
 10
121.8116000324
 20
109.6191461162
 10
121.6187828903
 20
109.562516097
 10
121.4314160568
 20
109.4892725068
 10
121.25693298
 20
109.4023211556
 10
121.0958516501
 20
109.3011109239
 10
120.9476540769
 20
109.1861929314
 10
120.8182197371
 20
109.0621263461
 10
120.7083030052
 20
108.9285433498
  0
LINE
  5
58F
100
AcDbEntity
  8
0
100
AcDbLine
 62
7
  6
CONTINUOUS
 10
200.0263901858
 20
92.547951545
 11
197.354506196
 21
93.3684612332
  0
LINE
  5
590
100
AcDbEntity
  8
0
100
AcDbLine
 62
7
  6
CONTINUOUS
 10
76.6689025755
 20
130.4298409081
 11
79.3407865653
 21
129.6093312199
  0
LWPOLYLINE
  5
591
100
AcDbEntity
  8
0
100
AcDbPolyline
 62
7
  6
CONTINUOUS
 90
11
 70
0
 10
122.8484649737
 20
110.5932000361
 10
123.0096166628
 20
110.5350234325
 10
123.1574925631
 20
110.4658707125
 10
123.2920926746
 20
110.3857418763
 10
123.4145921688
 20
110.2935266563
 10
123.5238158742
 20
110.1903353201
 10
123.6162382764
 20
110.0794986696
 10
123.6913111658
 20
109.960767246
 10
123.7495827521
 20
109.8343905081
 10
123.7891721493
 20
109.7044476348
 10
123.8025815391
 20
109.6320960873
  0
LWPOLYLINE
  5
592
100
AcDbEntity
  8
0
100
AcDbPolyline
 62
7
  6
CONTINUOUS
 90
4
 70
0
 10
179.4252400947
 20
77.6738707373
 10
179.4646565972
 20
77.6462808424
 10
179.5098061349
 20
77.6231617064
 10
179.5606887078
 20
77.6045133294
  0
LWPOLYLINE
  5
593
100
AcDbEntity
  8
0
100
AcDbPolyline
 62
7
  6
CONTINUOUS
 90
18
 70
0
 10
187.8387793428
 20
76.7848825485
 10
187.7302744535
 20
76.8632478563
 10
187.6110606113
 20
76.9300855063
 10
187.4807072635
 20
76.98493203
 10
187.3396449628
 20
77.028250896
 10
187.1934701067
 20
77.0583235047
 10
187.0419771453
 20
77.0746172914
 10
186.8853716285
 20
77.0776648209
 10
186.7298666036
 20
77.0673451879
 10
186.5755063155
 20
77.0431209665
 10
186.4222465193
 20
77.0055295825
 10
186.2761675264
 20
76.9560624077
 10
186.1375580405
 20
76.8942419769
 10
186.0061293581
 20
76.8205457551
 10
185.8870956798
 20
76.73789751
 10
185.7821950725
 20
76.6472718304
 10
185.6896894694
 20
76.5476941274
 10
185.6095788705
 20
76.439164401
  0
LINE
  5
594
100
AcDbEntity
  8
ASSI
100
AcDbLine
 62
7
  6
CONTINUOUS
 10
188.1430153536
 20
76.9967239551
 11
188.0023608675
 21
77.0983086134
  0
LWPOLYLINE
  5
595
100
AcDbEntity
  8
0
100
AcDbPolyline
 62
7
  6
CONTINUOUS
 90
4
 70
0
 10
179.6397651812
 20
77.3157601086
 10
179.6016672917
 20
77.3467763918
 10
179.5584294614
 20
77.3736674676
 10
179.5095173911
 20
77.3967051045
  0
LWPOLYLINE
  5
596
100
AcDbEntity
  8
0
100
AcDbPolyline
 62
7
  6
CONTINUOUS
 90
3
 70
0
 10
180.238081645
 20
78.0448745525
 10
180.1749323071
 20
78.0975630161
 10
180.1012713335
 20
78.1408393601
  0
LWPOLYLINE
  5
597
100
AcDbEntity
  8
RACCORDO
100
AcDbPolyline
 62
253
  6
CONTINUOUS
 90
7
 70
0
 10
187.3440527476
 20
65.4444473888
 10
187.3643927427
 20
65.4262043443
 10
187.385565662
 20
65.4101930203
 10
187.4075461091
 20
65.3964329542
 10
187.4303078793
 20
65.3849409829
 10
187.4538234985
 20
65.3757311234
 10
187.4607844018
 20
65.3734874824
  0
LWPOLYLINE
  5
598
100
AcDbEntity
  8
ASSI
100
AcDbPolyline
 62
7
  6
CONTINUOUS
 90
7
 70
0
 10
156.4719442611
 20
90.4849247488
 10
156.5085869915
 20
90.4483826315
 10
156.7510408024
 20
90.1825321882
 10
156.9668212642
 20
89.9014028727
 10
157.1545555666
 20
89.6064664957
 10
157.3156165197
 20
89.2962512464
 10
157.4500041237
 20
88.9707571247
  0
LINE
  5
599
100
AcDbEntity
  8
ASSI
100
AcDbLine
 62
7
  6
CONTINUOUS
 10
155.3492059377
 20
91.2754273618
 11
155.3173409916
 21
91.3104259232
  0
LINE
  5
59A
100
AcDbEntity
  8
ASSI
100
AcDbLine
 62
7
  6
CONTINUOUS
 10
155.4130190509
 20
91.2053207422
 11
155.3492059377
 21
91.2754273618
  0
LWPOLYLINE
  5
59B
100
AcDbEntity
  8
ASSI
100
AcDbPolyline
 62
7
  6
CONTINUOUS
 90
3
 70
0
 10
155.508946773
 20
91.0998870708
 10
155.476943136
 20
91.135067962
 10
155.4130190509
 20
91.2053207422
  0
LWPOLYLINE
  5
59C
100
AcDbEntity
  8
ASSI
100
AcDbPolyline
 62
7
  6
CONTINUOUS
 90
3
 70
0
 10
155.6051240142
 20
90.9941271345
 10
155.5730372095
 20
91.0294166983
 10
155.508946773
 20
91.0998870708
  0
LINE
  5
59D
100
AcDbEntity
  8
0
100
AcDbLine
 62
7
  6
CONTINUOUS
 10
154.5531843165
 20
86.0427384939
 11
154.5635372238
 21
86.0280730311
  0
LINE
  5
59E
100
AcDbEntity
  8
0
100
AcDbLine
 62
7
  6
CONTINUOUS
 10
142.4289634016
 20
100.8301073572
 11
144.690317246
 21
96.7199391844
  0
LINE
  5
59F
100
AcDbEntity
  8
0
100
AcDbLine
 62
7
  6
CONTINUOUS
 10
152.4459967517
 20
85.7620211953
 11
152.5949535674
 21
85.3760558099
  0
LINE
  5
5A0
100
AcDbEntity
  8
0
100
AcDbLine
 62
7
  6
CONTINUOUS
 10
149.2776059367
 20
87.6078766763
 11
149.8221572696
 21
85.974416504
  0
LWPOLYLINE
  5
5A1
100
AcDbEntity
  8
0
100
AcDbPolyline
 62
7
  6
CONTINUOUS
 90
5
 70
0
 10
142.8928148308
 20
89.2027823211
 10
142.8883487249
 20
89.235384092
 10
142.8768545197
 20
89.2989577567
 10
142.862658376
 20
89.3619851861
 10
142.8496342608
 20
89.4110106178
  0
LWPOLYLINE
  5
5A2
100
AcDbEntity
  8
RACCORDO
100
AcDbPolyline
 62
7
  6
CONTINUOUS
 90
10
 70
0
 10
142.9447709423
 20
142.051781806
 10
143.1405412862
 20
140.2046697939
 10
143.3135872869
 20
138.3269163306
 10
143.4639089442
 20
136.418521416
 10
143.5915180475
 20
134.4789726109
 10
143.6964028075
 20
132.5087823546
 10
143.7785278561
 20
130.5094879652
 10
143.837881404
 20
128.4816018822
 10
143.8744752406
 20
126.4246116662
 10
143.8883093658
 20
124.3385173171
  0
LINE
  5
5A3
100
AcDbEntity
  8
TRASH
100
AcDbLine
 62
7
  6
CONTINUOUS
 10
140.4058370726
 20
90.0024224933
 11
140.4215292631
 21
90.0424369614
  0
LINE
  5
5A4
100
AcDbEntity
  8
0
100
AcDbLine
 62
7
  6
CONTINUOUS
 10
138.7569413905
 20
89.243846636
 11
138.780022498
 21
89.2899252609
  0
LINE
  5
5A5
100
AcDbEntity
  8
0
100
AcDbLine
 62
7
  6
CONTINUOUS
 10
139.8488220448
 20
88.9616982105
 11
139.8257448786
 21
88.9156274393
  0
LINE
  5
5A6
100
AcDbEntity
  8
0
100
AcDbLine
 62
7
  6
CONTINUOUS
 10
138.780022498
 20
89.2899252609
 11
138.8223471191
 21
89.3733697187
  0
LINE
  5
5A7
100
AcDbEntity
  8
0
100
AcDbLine
 62
7
  6
CONTINUOUS
 10
139.8911464202
 20
89.0451423081
 11
139.8488220448
 21
88.9616982105
  0
LINE
  5
5A8
100
AcDbEntity
  8
0
100
AcDbLine
 62
7
  6
CONTINUOUS
 10
138.8223471191
 20
89.3733697187
 11
138.8651945818
 21
89.4565259668
  0
LINE
  5
5A9
100
AcDbEntity
  8
0
100
AcDbLine
 62
7
  6
CONTINUOUS
 10
139.9339939088
 20
89.128298737
 11
139.8911464202
 21
89.0451423081
  0
LINE
  5
5AA
100
AcDbEntity
  8
ASSI
100
AcDbLine
 62
7
  6
CONTINUOUS
 10
135.8286175388
 20
90.5770834733
 11
135.8715120048
 21
90.6588018709
  0
LINE
  5
5AB
100
AcDbEntity
  8
ASSI
100
AcDbLine
 62
7
  6
CONTINUOUS
 10
135.8546402228
 20
90.4969979342
 11
135.8975346887
 21
90.5787163318
  0
LINE
  5
5AC
100
AcDbEntity
  8
ASSI
100
AcDbLine
 62
7
  6
CONTINUOUS
 10
136.6566321538
 20
91.8885419544
 11
136.5493959888
 21
91.6842459605
  0
LINE
  5
5AD
100
AcDbEntity
  8
ASSI
100
AcDbLine
 62
7
  6
CONTINUOUS
 10
136.0933853254
 20
90.6381690796
 11
136.0075963934
 21
90.4747322845
  0
LINE
  5
5AE
100
AcDbEntity
  8
0
100
AcDbLine
 62
7
  6
CONTINUOUS
 10
142.0444926322
 20
100.522817053
 11
137.2977377798
 21
91.485806761
  0
LINE
  5
5AF
100
AcDbEntity
  8
0
100
AcDbLine
 62
7
  6
CONTINUOUS
 10
142.3106582031
 20
92.1894771241
 11
144.690317246
 21
96.7199391844
  0
LINE
  5
5B0
100
AcDbEntity
  8
0
100
AcDbLine
 62
7
  6
CONTINUOUS
 10
138.8651945818
 20
89.4565259668
 11
138.9086047055
 21
89.5394379083
  0
LINE
  5
5B1
100
AcDbEntity
  8
0
100
AcDbLine
 62
7
  6
CONTINUOUS
 10
139.9774044046
 20
89.2112115067
 11
139.9339939088
 21
89.128298737
  0
LINE
  5
5B2
100
AcDbEntity
  8
0
100
AcDbLine
 62
7
  6
CONTINUOUS
 10
138.9086047055
 20
89.5394379083
 11
138.9525477299
 21
89.6220343648
  0
LINE
  5
5B3
100
AcDbEntity
  8
0
100
AcDbLine
 62
7
  6
CONTINUOUS
 10
140.0213481269
 20
89.2938093824
 11
139.9774044046
 21
89.2112115067
  0
LINE
  5
5B4
100
AcDbEntity
  8
0
100
AcDbLine
 62
7
  6
CONTINUOUS
 10
138.9525477299
 20
89.6220343648
 11
138.9968785761
 21
89.7040142295
  0
LINE
  5
5B5
100
AcDbEntity
  8
0
100
AcDbLine
 62
7
  6
CONTINUOUS
 10
140.0656798466
 20
89.3757909405
 11
140.0213481269
 21
89.2938093824
  0
LINE
  5
5B6
100
AcDbEntity
  8
0
100
AcDbLine
 62
7
  6
CONTINUOUS
 10
140.1101706618
 20
89.456741114
 11
140.0656798466
 21
89.3757909405
  0
LINE
  5
5B7
100
AcDbEntity
  8
0
100
AcDbLine
 62
7
  6
CONTINUOUS
 10
138.9968785761
 20
89.7040142295
 11
139.0413686006
 21
89.7849629056
  0
LINE
  5
5B8
100
AcDbEntity
  8
0
100
AcDbLine
 62
7
  6
CONTINUOUS
 10
139.0413686006
 20
89.7849629056
 11
139.08595302
 21
89.8647611938
  0
LINE
  5
5B9
100
AcDbEntity
  8
0
100
AcDbLine
 62
7
  6
CONTINUOUS
 10
140.1547557162
 20
89.5365405697
 11
140.1101706618
 21
89.456741114
  0
LINE
  5
5BA
100
AcDbEntity
  8
0
100
AcDbLine
 62
7
  6
CONTINUOUS
 10
140.6897088457
 20
91.4502310949
 11
139.7860036462
 21
90.0351753781
  0
LINE
  5
5BB
100
AcDbEntity
  8
0
100
AcDbLine
 62
7
  6
CONTINUOUS
 10
139.2899632865
 20
89.2584566571
 11
139.1947669546
 21
89.1093946469
  0
LWPOLYLINE
  5
5BC
100
AcDbEntity
  8
RACCORDO
100
AcDbPolyline
 62
253
  6
CONTINUOUS
 90
79
 70
0
 10
137.160391954
 20
90.694286227
 10
137.1915135099
 20
90.7420765437
 10
137.2248501833
 20
90.7904103712
 10
137.2604019741
 20
90.8392877094
 10
137.2979587582
 20
90.8886353695
 10
137.3377306598
 20
90.9385265403
 10
137.3803480514
 20
90.9891807884
 10
137.4257712135
 20
91.0406499624
 10
137.4740398657
 20
91.0928822136
 10
137.5259035392
 20
91.1459415628
 10
137.58132075
 20
91.1998882818
 10
137.6403329821
 20
91.2546620986
 10
137.703814219
 20
91.310146218
 10
137.7717333909
 20
91.36642262
 10
137.8441215675
 20
91.4234093244
 10
137.9219459417
 20
91.4807435958
 10
138.0051959088
 20
91.5385327847
 10
138.0938820735
 20
91.5966695405
 10
138.1890034426
 20
91.6544690762
 10
138.290594984
 20
91.7120703279
 10
138.3986217298
 20
91.7693343595
 10
138.5139777834
 20
91.8251595749
 10
138.6369785796
 20
91.879757014
 10
138.7673086836
 20
91.9329156369
 10
138.9049158933
 20
91.9829007286
 10
139.0503264778
 20
92.0298119605
 10
139.203014168
 20
92.0735496612
 10
139.3613479555
 20
92.1120801006
 10
139.5256269883
 20
92.1452608829
 10
139.6955521184
 20
92.1732344039
 10
139.868594893
 20
92.1943941214
 10
140.0450679576
 20
92.2084690515
 10
140.2246586667
 20
92.215730178
 10
140.4039006317
 20
92.2153839095
 10
140.582660656
 20
92.20709535
 10
140.7610719363
 20
92.1911993954
 10
140.9360676728
 20
92.1679071427
 10
141.106977912
 20
92.1371705898
 10
141.2744726075
 20
92.0990377387
 10
141.4374948214
 20
92.0538636929
 10
141.5960346555
 20
92.0016751852
 10
141.750102008
 20
91.9424454829
 10
141.8986696354
 20
91.8764494904
 10
142.0421459655
 20
91.8033308524
 10
142.1801225706
 20
91.7234459242
 10
142.3103469235
 20
91.6381386769
 10
142.4325902107
 20
91.5471011903
 10
142.5470812457
 20
91.4506413846
 10
142.6522539432
 20
91.3510269909
 10
142.7476143601
 20
91.2482180009
 10
142.8336564393
 20
91.142254423
 10
142.9102959242
 20
91.0355240139
 10
142.9771688396
 20
90.9280749922
 10
143.0346391607
 20
90.8198591392
 10
143.0837145557
 20
90.7131195553
 10
143.12413385
 20
90.6081772858
 10
143.1561582182
 20
90.5047112855
 10
143.1815788525
 20
90.4040015189
 10
143.2003924685
 20
90.3063618844
 10
143.2126023506
 20
90.2114784836
 10
143.2200095447
 20
90.119689586
 10
143.2227357332
 20
90.0311212162
 10
143.2206592336
 20
89.9456473494
 10
143.2152160454
 20
89.8632281815
 10
143.2065295369
 20
89.7839315557
 10
143.1944763396
 20
89.7076896287
 10
143.1801223479
 20
89.6342590663
 10
143.1635775691
 20
89.5636806947
 10
143.1447319959
 20
89.4959136877
 10
143.1243215
 20
89.4305922322
 10
143.1024398717
 20
89.36773664
 10
143.0789933207
 20
89.3073265993
 10
143.0544363485
 20
89.2489353617
 10
143.0288530238
 20
89.1925790858
 10
143.0021592778
 20
89.1382416129
 10
142.9745574056
 20
89.0854477188
 10
142.9461148387
 20
89.0340389954
 10
142.9167641455
 20
88.9841738507
 10
142.886505326
 20
88.9358522848
  0
LWPOLYLINE
  5
5BD
100
AcDbEntity
  8
RACCORDO
100
AcDbPolyline
 62
253
  6
CONTINUOUS
 90
62
 70
0
 10
137.3557166359
 20
90.5184330329
 10
137.3850382349
 20
90.56318959
 10
137.4162955432
 20
90.6085584453
 10
137.4495589212
 20
90.6544888996
 10
137.4847876516
 20
90.7007854694
 10
137.5221520598
 20
90.7475352325
 10
137.5620748578
 20
90.7950908319
 10
137.6046678875
 20
90.8433795076
 10
137.6500252885
 20
90.8923034223
 10
137.6986145838
 20
90.942135532
 10
137.7505708417
 20
90.9927551594
 10
137.806024664
 20
91.0440303382
 10
137.8655059521
 20
91.0961632298
 10
137.9291768028
 20
91.1489786427
 10
137.9971900848
 20
91.2022844232
 10
138.070127676
 20
91.2561873412
 10
138.1481662026
 20
91.3104371797
 10
138.2314668254
 20
91.3647616011
 10
138.3206447558
 20
91.4191446845
 10
138.4158755172
 20
91.4732416923
 10
138.5172938469
 20
91.5266714232
 10
138.6254900768
 20
91.5792529885
 10
138.7407790238
 20
91.6305992263
 10
138.8630465561
 20
91.680109815
 10
138.9922063549
 20
91.7272099812
 10
139.12852877
 20
91.7714386292
 10
139.2716379743
 20
91.8121044063
 10
139.4203406901
 20
91.8483695656
 10
139.5744451305
 20
91.8797404487
 10
139.7335783337
 20
91.9056881371
 10
139.8961150636
 20
91.9255677306
 10
140.0617596351
 20
91.9390251677
 10
140.2298633953
 20
91.945685692
 10
140.3981869552
 20
91.9452510895
 10
140.566059132
 20
91.9376274473
 10
140.7330488393
 20
91.9227376071
 10
140.8973149594
 20
91.9007258113
 10
141.057782553
 20
91.8718429206
 10
141.214559585
 20
91.8361776752
 10
141.3676219806
 20
91.793771591
 10
141.5164684604
 20
91.7447682901
 10
141.6606545638
 20
91.6893189708
 10
141.8001830207
 20
91.6273846664
 10
141.9350226792
 20
91.5588514749
 10
142.0641841452
 20
91.4840886286
 10
142.1863342219
 20
91.4038802106
 10
142.3012675088
 20
91.3184680592
 10
142.4085854594
 20
91.2282612588
 10
142.5070679006
 20
91.1345887009
 10
142.596658884
 20
91.0380188463
 10
142.6775045696
 20
90.9389437558
 10
142.7491512092
 20
90.8386463945
 10
142.8118928235
 20
90.7376747009
 10
142.8661090291
 20
90.6364625004
 10
142.9118571246
 20
90.5362133803
 10
142.9496144637
 20
90.4375817785
 10
142.9800443066
 20
90.3407570036
 10
143.0036823656
 20
90.2462356788
 10
143.0210953321
 20
90.1544991263
 10
143.0329180142
 20
90.0656451678
 10
143.0397474522
 20
89.9795299409
 10
143.0418837499
 20
89.9178102597
  0
LINE
  5
5BE
100
AcDbEntity
  8
ASSI
100
AcDbLine
 62
7
  6
CONTINUOUS
 10
135.7241902553
 20
90.4668043876
 11
135.8286175388
 21
90.5770834733
  0
LINE
  5
5BF
100
AcDbEntity
  8
ASSI
100
AcDbLine
 62
7
  6
CONTINUOUS
 10
135.7502129393
 20
90.3867188485
 11
135.8546402228
 21
90.4969979342
  0
LINE
  5
5C0
100
AcDbEntity
  8
ASSI
100
AcDbLine
 62
7
  6
CONTINUOUS
 10
132.551078085
 20
92.5788796058
 11
132.7384850204
 21
92.7585788337
  0
LINE
  5
5C1
100
AcDbEntity
  8
ASSI
100
AcDbLine
 62
7
  6
CONTINUOUS
 10
132.577100769
 20
92.4987940667
 11
132.7645077043
 21
92.6784932946
  0
LINE
  5
5C2
100
AcDbEntity
  8
ASSI
100
AcDbLine
 62
7
  6
CONTINUOUS
 10
132.0820482693
 20
91.7739939428
 11
132.2694551746
 21
91.9536931135
  0
LINE
  5
5C3
100
AcDbEntity
  8
ASSI
100
AcDbLine
 62
7
  6
CONTINUOUS
 10
132.1080709533
 20
91.6939084037
 11
132.2954778586
 21
91.8736075744
  0
LINE
  5
5C4
100
AcDbEntity
  8
ASSI
100
AcDbLine
 62
7
  6
CONTINUOUS
 10
133.4607766031
 20
91.2086733426
 11
133.2733701716
 21
91.0289740598
  0
LINE
  5
5C5
100
AcDbEntity
  8
ASSI
100
AcDbLine
 62
7
  6
CONTINUOUS
 10
133.8496357085
 20
92.038155886
 11
133.683676525
 21
91.8993158306
  0
LINE
  5
5C6
100
AcDbEntity
  8
ASSI
100
AcDbLine
 62
7
  6
CONTINUOUS
 10
126.4637343121
 20
94.6362726519
 11
126.3192220461
 21
94.5382918921
  0
LINE
  5
5C7
100
AcDbEntity
  8
ASSI
100
AcDbLine
 62
7
  6
CONTINUOUS
 10
126.5604902409
 20
93.1359673824
 11
126.7050025505
 21
93.2339481621
  0
LINE
  5
5C8
100
AcDbEntity
  8
ASSI
100
AcDbLine
 62
7
  6
CONTINUOUS
 10
126.5865129249
 20
93.0558818433
 11
126.7310252345
 21
93.153862623
  0
LINE
  5
5C9
100
AcDbEntity
  8
ASSI
100
AcDbLine
 62
7
  6
CONTINUOUS
 10
126.2232226399
 20
94.7100631526
 11
126.429267408
 21
94.8366046974
  0
LINE
  5
5CA
100
AcDbEntity
  8
ASSI
100
AcDbLine
 62
7
  6
CONTINUOUS
 10
126.2492453239
 20
94.6299776135
 11
126.4552900919
 21
94.7565191583
  0
LINE
  5
5CB
100
AcDbEntity
  8
ASSI
100
AcDbLine
 62
7
  6
CONTINUOUS
 10
126.8010019131
 20
93.0621768818
 11
126.6416757216
 21
92.9643273507
  0
LINE
  5
5CC
100
AcDbEntity
  8
ASSI
100
AcDbLine
 62
7
  6
CONTINUOUS
 10
122.2699714116
 20
94.3068353914
 11
122.3444245698
 21
94.3417762717
  0
LINE
  5
5CD
100
AcDbEntity
  8
ASSI
100
AcDbLine
 62
7
  6
CONTINUOUS
 10
122.5719992074
 20
94.4485770894
 11
124.3557207656
 21
95.2856779322
  0
LINE
  5
5CE
100
AcDbEntity
  8
ASSI
100
AcDbLine
 62
7
  6
CONTINUOUS
 10
124.5832954032
 20
95.3924787498
 11
124.9522701496
 21
95.5656386636
  0
LINE
  5
5CF
100
AcDbEntity
  8
ASSI
100
AcDbLine
 62
7
  6
CONTINUOUS
 10
122.5980218913
 20
94.3684915503
 11
124.3817434496
 21
95.2055923931
  0
LINE
  5
5D0
100
AcDbEntity
  8
ASSI
100
AcDbLine
 62
7
  6
CONTINUOUS
 10
124.6093180871
 20
95.3123932107
 11
124.9782928335
 21
95.4855531245
  0
LINE
  5
5D1
100
AcDbEntity
  8
ASSI
100
AcDbLine
 62
7
  6
CONTINUOUS
 10
125.0708284864
 20
95.3460579025
 11
124.70185374
 21
95.1728979887
  0
LINE
  5
5D2
100
AcDbEntity
  8
ASSI
100
AcDbLine
 62
7
  6
CONTINUOUS
 10
124.4742791025
 20
95.0660971711
 11
122.6905575442
 21
94.2289963283
  0
LINE
  5
5D3
100
AcDbEntity
  8
ASSI
100
AcDbLine
 62
7
  6
CONTINUOUS
 10
126.0991312911
 20
93.9416661582
 11
125.9760662582
 21
93.8845445971
  0
LWPOLYLINE
  5
5D4
100
AcDbEntity
  8
DRAFT
100
AcDbPolyline
 62
7
  6
CONTINUOUS
 90
22
 70
0
 10
116.5765432308
 20
97.1836436801
 10
116.3374497727
 20
97.0935081342
 10
116.0913724669
 20
97.0205219967
 10
115.8369955895
 20
96.964913437
 10
115.5756348644
 20
96.9264542855
 10
115.316186168
 20
96.9063995703
 10
115.0600478891
 20
96.9052663779
 10
114.8058216389
 20
96.9225376217
 10
114.5582081284
 20
96.9579170698
 10
114.3160143304
 20
97.0121535262
 10
114.080433272
 20
97.0844981869
 10
113.8597447448
 20
97.1724084082
 10
113.6555501598
 20
97.2757748491
 10
113.4662481061
 20
97.3947068506
 10
113.2953141423
 20
97.5269897913
 10
113.1423606161
 20
97.6736892337
 10
113.0077751798
 20
97.8337396154
 10
112.896196349
 20
98.0017296277
 10
112.8087520383
 20
98.1771370226
 10
112.7443143332
 20
98.3604840481
 10
112.7041380052
 20
98.5479261398
 10
112.7012593781
 20
98.5685912579
  0
LWPOLYLINE
  5
5D5
100
AcDbEntity
  8
RACCORDO
100
AcDbPolyline
 62
7
  6
CONTINUOUS
 90
16
 70
0
 10
82.4449205668
 20
129.6080859494
 10
82.5311131165
 20
129.5883532878
 10
82.617278388
 20
129.578392685
 10
82.7034163812
 20
129.5782041409
 10
82.7912293294
 20
129.5881294082
 10
82.8790149994
 20
129.6078267341
 10
82.9616666914
 20
129.6362708607
 10
83.0392674855
 20
129.6742797175
 10
83.1117343017
 20
129.721035375
 10
83.1737111998
 20
129.7730587862
 10
83.2241412809
 20
129.8303308477
 10
83.2640814441
 20
129.8928706629
 10
83.2913464461
 20
129.9572564957
 10
83.3052463717
 20
130.0240438794
 10
83.3064711362
 20
130.0926772808
 10
83.3042858999
 20
130.1133365248
  0
LINE
  5
5D6
100
AcDbEntity
  8
RACCORDO
100
AcDbLine
 62
7
  6
CONTINUOUS
 10
197.0908109856
 20
94.4014436862
 11
193.956752248
 21
95.3638827619
  0
LINE
  5
5D7
100
AcDbEntity
  8
RACCORDO
100
AcDbLine
 62
7
  6
CONTINUOUS
 10
79.3108618291
 20
130.5705250251
 11
82.4449205668
 21
129.6080859494
  0
LINE
  5
5D8
100
AcDbEntity
  8
0
100
AcDbLine
 62
7
  6
CONTINUOUS
 10
200.5591800635
 20
93.3822140487
 11
197.8872960737
 21
94.2027237369
  0
LINE
  5
5D9
100
AcDbEntity
  8
0
100
AcDbLine
 62
7
  6
CONTINUOUS
 10
77.2016924533
 20
131.2641034118
 11
79.3237349601
 21
130.6124447162
  0
LINE
  5
5DA
100
AcDbEntity
  8
RACCORDO
100
AcDbLine
 62
7
  6
CONTINUOUS
 10
197.6236008634
 20
95.2357061899
 11
194.4895421257
 21
96.1981452656
  0
LINE
  5
5DB
100
AcDbEntity
  8
RACCORDO
100
AcDbLine
 62
7
  6
CONTINUOUS
 10
79.8436517069
 20
131.4047875288
 11
82.9777104445
 21
130.4423484531
  0
LINE
  5
5DC
100
AcDbEntity
  8
ASSI
100
AcDbLine
 62
7
  6
CONTINUOUS
 10
84.8456693991
 20
129.918364858
 11
92.8671349551
 21
127.4550504974
  0
LINE
  5
5DD
100
AcDbEntity
  8
0
100
AcDbLine
 62
7
  6
CONTINUOUS
 10
195.2962697303
 20
96.000055537
 11
201.0939858213
 21
94.2196330935
  0
LINE
  5
5DE
100
AcDbEntity
  8
0
100
AcDbLine
 62
7
  6
CONTINUOUS
 10
201.6267756991
 20
95.0538955972
 11
195.829059608
 21
96.8343180407
  0
LINE
  5
5DF
100
AcDbEntity
  8
ASSI
100
AcDbLine
 62
7
  6
CONTINUOUS
 10
92.7132508535
 20
128.5001839277
 11
85.3784592768
 21
130.7526273617
  0
LINE
  5
5E0
100
AcDbEntity
  8
0
100
AcDbLine
 62
7
  6
CONTINUOUS
 10
179.1905988214
 20
77.6209840357
 11
179.1363393605
 21
77.6744729392
  0
LWPOLYLINE
  5
5E1
100
AcDbEntity
  8
0
100
AcDbPolyline
 62
7
  6
CONTINUOUS
 90
3
 70
0
 10
179.8610472576
 20
77.4179223899
 10
179.9235353609
 20
77.3520713702
 10
179.9693369298
 20
77.2835295031
  0
LINE
  5
5E2
100
AcDbEntity
  8
0
100
AcDbLine
 62
7
  6
CONTINUOUS
 10
179.9430511752
 20
77.2173998761
 11
179.8809238901
 21
77.2829264233
  0
LINE
  5
5E3
100
AcDbEntity
  8
RACCORDO
100
AcDbLine
 62
253
  6
CONTINUOUS
 10
187.3028132493
 20
65.4915873468
 11
187.3440527476
 21
65.4444473888
  0
LWPOLYLINE
  5
5E4
100
AcDbEntity
  8
ASSI
100
AcDbPolyline
 62
7
  6
CONTINUOUS
 90
10
 70
0
 10
156.7099799867
 20
88.9403169382
 10
156.5916010601
 20
89.1863464361
 10
156.4552056197
 20
89.421514101
 10
156.3007936657
 20
89.6458199327
 10
156.1275545092
 20
89.8601262859
 10
155.936298839
 20
90.063570806
 10
155.7294587214
 20
90.2535664294
 10
155.5078448453
 20
90.4292508017
 10
155.2706465219
 20
90.5914862774
 10
155.0178637511
 20
90.7402728564
  0
LWPOLYLINE
  5
5E5
100
AcDbEntity
  8
0
100
AcDbPolyline
 62
7
  6
CONTINUOUS
 90
7
 70
0
 10
156.3468840005
 20
85.3696750231
 10
156.3065533899
 20
85.4873228673
 10
156.2527578667
 20
85.6103036684
 10
156.188457688
 20
85.7303631009
 10
156.114379991
 20
85.8461434753
 10
156.0304137884
 20
85.9575962188
 10
156.0232662528
 20
85.9657677286
  0
LINE
  5
5E6
100
AcDbEntity
  8
ASSI
100
AcDbLine
 62
7
  6
CONTINUOUS
 10
156.7099799867
 20
88.9403169382
 11
156.883464593
 21
88.4064136581
  0
LINE
  5
5E7
100
AcDbEntity
  8
0
100
AcDbLine
 62
7
  6
CONTINUOUS
 10
152.6686643847
 20
85.1386456272
 11
152.7259726506
 21
84.9540924674
  0
LINE
  5
5E8
100
AcDbEntity
  8
0
100
AcDbLine
 62
7
  6
CONTINUOUS
 10
152.4448338148
 20
85.8596823089
 11
152.5949535674
 21
85.3760558099
  0
LWPOLYLINE
  5
5E9
100
AcDbEntity
  8
0
100
AcDbPolyline
 62
7
  6
CONTINUOUS
 90
14
 70
0
 10
155.9213439465
 20
86.3252539377
 10
155.9129900029
 20
86.353689175
 10
155.8770472125
 20
86.4582761298
 10
155.8335021808
 20
86.5607583913
 10
155.782465022
 20
86.6608261666
 10
155.7241096301
 20
86.7581066354
 10
155.6585770442
 20
86.852340087
 10
155.5859122887
 20
86.9433944622
 10
155.5061991571
 20
87.0310523592
 10
155.4196940926
 20
87.1149280353
 10
155.3267081032
 20
87.1946549956
 10
155.2275207004
 20
87.2699518404
 10
155.1223593868
 20
87.3406037676
 10
155.0170013263
 20
87.403305097
  0
LINE
  5
5EA
100
AcDbEntity
  8
0
100
AcDbLine
 62
7
  6
CONTINUOUS
 10
155.92128383
 20
86.3254660338
 11
156.2096737328
 21
85.3082970311
  0
LINE
  5
5EB
100
AcDbEntity
  8
0
100
AcDbLine
 62
253
  6
CONTINUOUS
 10
155.9213439465
 20
86.3252539377
 11
155.9212852132
 21
86.3254611552
  0
LINE
  5
5EC
100
AcDbEntity
  8
0
100
AcDbLine
 62
7
  6
CONTINUOUS
 10
152.5949535674
 20
85.3760558099
 11
152.6500070183
 21
85.1557166586
  0
LINE
  5
5ED
100
AcDbEntity
  8
0
100
AcDbLine
 62
7
  6
CONTINUOUS
 10
153.9705506804
 20
87.6937393499
 11
154.0497525775
 21
87.3474910964
  0
LINE
  5
5EE
100
AcDbEntity
  8
0
100
AcDbLine
 62
7
  6
CONTINUOUS
 10
141.4647887755
 20
149.9591092542
 11
141.6698650978
 21
149.0532567376
  0
LWPOLYLINE
  5
5EF
100
AcDbEntity
  8
0
100
AcDbPolyline
 62
7
  6
CONTINUOUS
 90
3
 70
0
 10
153.7085123101
 20
86.261790668
 10
153.720561097
 20
86.2080329617
 10
153.7815729949
 20
85.9396969629
  0
LINE
  5
5F0
100
AcDbEntity
  8
0
100
AcDbLine
 62
7
  6
CONTINUOUS
 10
153.6877971064
 20
86.251686201
 11
153.7658808044
 21
85.8996824948
  0
LINE
  5
5F1
100
AcDbEntity
  8
0
100
AcDbLine
 62
7
  6
CONTINUOUS
 10
154.1916655563
 20
86.0969530045
 11
154.1884847618
 21
86.1146514737
  0
LINE
  5
5F2
100
AcDbEntity
  8
0
100
AcDbLine
 62
7
  6
CONTINUOUS
 10
153.2696910999
 20
85.412021757
 11
153.1768158972
 21
85.9343284202
  0
LINE
  5
5F3
100
AcDbEntity
  8
0
100
AcDbLine
 62
7
  6
CONTINUOUS
 10
153.127743317
 20
86.2103186814
 11
153.0277913835
 21
86.7724990238
  0
LWPOLYLINE
  5
5F4
100
AcDbEntity
  8
RACCORDO
100
AcDbPolyline
 62
7
  6
CONTINUOUS
 90
19
 70
0
 10
139.2407739998
 20
148.3200765577
 10
139.2427671038
 20
148.3082701265
 10
139.2613959068
 20
148.2438466026
 10
139.2921721971
 20
148.1840602768
 10
139.33618244
 20
148.1289203887
 10
139.3923401703
 20
148.0784176987
 10
139.4564635569
 20
148.0362827487
 10
139.5286198922
 20
148.0033103213
 10
139.6087418837
 20
147.9787056339
 10
139.6924458231
 20
147.963814881
 10
139.7805351907
 20
147.9592067688
 10
139.872206506
 20
147.964312591
 10
139.9606656199
 20
147.978772423
 10
140.045192213
 20
148.0031503503
 10
140.1265066046
 20
148.0368822874
 10
140.1999756034
 20
148.0779160529
 10
140.2640548123
 20
148.1255675863
 10
140.3202886284
 20
148.1805209481
 10
140.3686770517
 20
148.2427761383
  0
LINE
  5
5F5
100
AcDbEntity
  8
RACCORDO
100
AcDbLine
 62
7
  6
CONTINUOUS
 10
139.2406752014
 20
148.3194848231
 11
142.9018640153
 21
123.453817846
  0
LINE
  5
5F6
100
AcDbEntity
  8
RACCORDO
100
AcDbLine
 62
253
  6
CONTINUOUS
 10
140.3686770517
 20
148.2427761383
 11
143.8883093658
 21
124.3385173171
  0
LWPOLYLINE
  5
5F7
100
AcDbEntity
  8
0
100
AcDbPolyline
 62
7
  6
CONTINUOUS
 90
10
 70
0
 10
143.0017753317
 20
151.1388120612
 10
143.1130874216
 20
150.3122131364
 10
143.2204152777
 20
149.4796215901
 10
143.3237589001
 20
148.6410374222
 10
143.4231233483
 20
147.7964155098
 10
143.5185035628
 20
146.9458009759
 10
143.6098843645
 20
146.0893291891
 10
143.6972606937
 20
145.2270452724
 10
143.78063761
 20
144.3589041028
 10
143.8600151136
 20
143.4849056805
  0
LINE
  5
5F8
100
AcDbEntity
  8
0
100
AcDbLine
 62
7
  6
CONTINUOUS
 10
152.5869960879
 20
85.5271992296
 11
152.4366650987
 21
86.6927010902
  0
LWPOLYLINE
  5
5F9
100
AcDbEntity
  8
0
100
AcDbPolyline
 62
7
  6
CONTINUOUS
 90
3
 70
0
 10
152.4632843011
 20
86.3091586993
 10
152.4395850345
 20
86.4982907289
 10
152.4158666505
 20
86.687465619
  0
LINE
  5
5FA
100
AcDbEntity
  8
0
100
AcDbLine
 62
7
  6
CONTINUOUS
 10
152.5106254821
 20
85.931023222
 11
152.4632843011
 21
86.3091586993
  0
LINE
  5
5FB
100
AcDbEntity
  8
0
100
AcDbLine
 62
7
  6
CONTINUOUS
 10
152.5578901934
 20
85.5530591868
 11
152.5106254821
 21
85.931023222
  0
LINE
  5
5FC
100
AcDbEntity
  8
0
100
AcDbLine
 62
7
  6
CONTINUOUS
 10
157.6775330728
 20
87.8111395674
 11
157.6466222448
 21
88.1635402265
  0
LINE
  5
5FD
100
AcDbEntity
  8
TRASH
100
AcDbLine
 62
7
  6
CONTINUOUS
 10
154.1879823569
 20
85.8148925803
 11
154.1913044557
 21
85.7690390081
  0
LINE
  5
5FE
100
AcDbEntity
  8
0
100
AcDbLine
 62
7
  6
CONTINUOUS
 10
153.146047378
 20
85.9324353796
 11
153.127743317
 21
86.2103186814
  0
LINE
  5
5FF
100
AcDbEntity
  8
0
100
AcDbLine
 62
7
  6
CONTINUOUS
 10
154.1965469494
 20
85.8820991225
 11
154.2148510407
 21
85.6042164368
  0
LINE
  5
600
100
AcDbEntity
  8
0
100
AcDbLine
 62
7
  6
CONTINUOUS
 10
154.5635372238
 20
86.0280730311
 11
154.5818833633
 21
85.4294452355
  0
LINE
  5
601
100
AcDbEntity
  8
0
100
AcDbLine
 62
7
  6
CONTINUOUS
 10
154.5531843165
 20
86.0427384939
 11
154.5708381498
 21
85.432345667
  0
LINE
  5
602
100
AcDbEntity
  8
0
100
AcDbLine
 62
7
  6
CONTINUOUS
 10
154.1939833547
 20
85.977062675
 11
154.1916655563
 21
86.0969530045
  0
LINE
  5
603
100
AcDbEntity
  8
TRASH
100
AcDbLine
 62
7
  6
CONTINUOUS
 10
154.1913069166
 20
85.7690373327
 11
154.1930227527
 21
85.6557836475
  0
LINE
  5
604
100
AcDbEntity
  8
0
100
AcDbLine
 62
7
  6
CONTINUOUS
 10
154.1956779669
 20
85.8580673948
 11
154.1939833547
 21
85.977062675
  0
LINE
  5
605
100
AcDbEntity
  8
0
100
AcDbLine
 62
7
  6
CONTINUOUS
 10
152.4459967517
 20
85.7620211953
 11
152.4450668607
 21
85.8266856479
  0
LINE
  5
606
100
AcDbEntity
  8
TRASH
100
AcDbLine
 62
7
  6
CONTINUOUS
 10
154.1930227527
 20
85.6557836475
 11
154.1946369758
 21
85.5134526948
  0
LINE
  5
607
100
AcDbEntity
  8
0
100
AcDbLine
 62
7
  6
CONTINUOUS
 10
154.1963506536
 20
85.779064351
 11
154.1956779669
 21
85.8580673948
  0
LINE
  5
608
100
AcDbEntity
  8
0
100
AcDbLine
 62
7
  6
CONTINUOUS
 10
152.4450668607
 20
85.8266856479
 11
152.4448338148
 21
85.8596823089
  0
LINE
  5
609
100
AcDbEntity
  8
0
100
AcDbLine
 62
7
  6
CONTINUOUS
 10
152.6683390749
 20
85.0202994489
 11
152.6685667076
 21
84.9717212763
  0
LINE
  5
60A
100
AcDbEntity
  8
0
100
AcDbLine
 62
7
  6
CONTINUOUS
 10
154.1965549499
 20
85.7199292257
 11
154.1963506536
 21
85.779064351
  0
LINE
  5
60B
100
AcDbEntity
  8
0
100
AcDbLine
 62
7
  6
CONTINUOUS
 10
154.1913044557
 20
85.7690390081
 11
154.1916655563
 21
86.0969530045
  0
LINE
  5
60C
100
AcDbEntity
  8
0
100
AcDbLine
 62
7
  6
CONTINUOUS
 10
154.1965469494
 20
85.8820991225
 11
154.1972338054
 21
86.41337484
  0
LINE
  5
60D
100
AcDbEntity
  8
0
100
AcDbLine
 62
7
  6
CONTINUOUS
 10
154.1960444289
 20
85.5134605125
 11
154.1961936744
 21
85.6212874682
  0
LINE
  5
60E
100
AcDbEntity
  8
0
100
AcDbLine
 62
7
  6
CONTINUOUS
 10
152.6683331545
 20
85.0794154024
 11
152.6683390749
 21
85.0202994489
  0
LINE
  5
60F
100
AcDbEntity
  8
0
100
AcDbLine
 62
7
  6
CONTINUOUS
 10
154.1879823569
 20
85.8148925803
 11
154.1884847618
 21
86.1146514737
  0
LINE
  5
610
100
AcDbEntity
  8
0
100
AcDbLine
 62
7
  6
CONTINUOUS
 10
153.127743317
 20
86.2103186814
 11
153.128521538
 21
86.8307441033
  0
LINE
  5
611
100
AcDbEntity
  8
0
100
AcDbLine
 62
7
  6
CONTINUOUS
 10
154.197324194
 20
86.5025237522
 11
154.1973370304
 21
86.4286794369
  0
LINE
  5
612
100
AcDbEntity
  8
0
100
AcDbLine
 62
7
  6
CONTINUOUS
 10
154.1964519557
 20
85.6607869816
 11
154.1965549499
 21
85.7199292257
  0
LINE
  5
613
100
AcDbEntity
  8
0
100
AcDbLine
 62
7
  6
CONTINUOUS
 10
154.1973370304
 20
86.4286794369
 11
154.1972338054
 21
86.41337484
  0
LINE
  5
614
100
AcDbEntity
  8
0
100
AcDbLine
 62
7
  6
CONTINUOUS
 10
152.6686643847
 20
85.1386456272
 11
152.6683331545
 21
85.0794154024
  0
LINE
  5
615
100
AcDbEntity
  8
0
100
AcDbLine
 62
7
  6
CONTINUOUS
 10
154.1961936744
 20
85.6212874682
 11
154.1964519557
 21
85.6607869816
  0
LWPOLYLINE
  5
616
100
AcDbEntity
  8
RACCORDO
100
AcDbPolyline
 62
253
  6
CONTINUOUS
 90
16
 70
0
 10
150.1990481571
 20
85.7300864986
 10
150.2013613406
 20
85.750441031
 10
150.213564146
 20
85.8259100798
 10
150.2280119621
 20
85.8986070171
 10
150.2445963657
 20
85.9684926997
 10
150.2634257798
 20
86.0356062707
 10
150.2837881027
 20
86.1003180061
 10
150.3055910925
 20
86.1626087
 10
150.328926991
 20
86.2224975583
 10
150.3533604221
 20
86.2804124753
 10
150.378809325
 20
86.336339
 10
150.4053557605
 20
86.3902915834
 10
150.4328105337
 20
86.4427414731
 10
150.4611105799
 20
86.4938457519
 10
150.490318964
 20
86.543447337
 10
150.5204356858
 20
86.5915462285
  0
LINE
  5
617
100
AcDbEntity
  8
0
100
AcDbLine
 62
7
  6
CONTINUOUS
 10
153.7814111494
 20
85.9397688984
 11
153.8387913889
 21
86.3966929576
  0
LWPOLYLINE
  5
618
100
AcDbEntity
  8
RACCORDO
100
AcDbPolyline
 62
253
  6
CONTINUOUS
 90
15
 70
0
 10
150.4221548267
 20
85.6615726018
 10
150.4278423565
 20
85.6974601756
 10
150.4414495567
 20
85.7656496519
 10
150.457143628
 20
85.831229176
 10
150.4746285513
 20
85.8941642385
 10
150.4937640698
 20
85.9548627985
 10
150.5143214889
 20
86.0133032244
 10
150.5360811684
 20
86.0694737681
 10
150.5590203752
 20
86.1237979421
 10
150.5829713666
 20
86.1762583334
 10
150.6077812785
 20
86.2268634679
 10
150.6335425833
 20
86.2760673976
 10
150.6602337944
 20
86.3240161022
 10
150.6876735313
 20
86.3705572962
 10
150.7157603677
 20
86.4156930344
  0
LINE
  5
619
100
AcDbEntity
  8
0
100
AcDbLine
 62
7
  6
CONTINUOUS
 10
148.6979274777
 20
90.2280086094
 11
149.0071156129
 21
90.8166495466
  0
LINE
  5
61A
100
AcDbEntity
  8
ASSI
100
AcDbLine
 62
7
  6
CONTINUOUS
 10
149.8793062754
 20
91.2956317781
 11
149.2323292538
 21
90.0638990013
  0
LWPOLYLINE
  5
61B
100
AcDbEntity
  8
0
100
AcDbPolyline
 62
253
  6
CONTINUOUS
 90
15
 70
0
 10
142.3427355614
 20
89.1503827172
 10
142.3972651639
 20
89.2411032275
 10
142.4459627018
 20
89.3333503749
 10
142.4887091028
 20
89.4268982001
 10
142.5253861325
 20
89.5214787204
 10
142.5559229302
 20
89.6168984498
 10
142.5802709615
 20
89.7130419256
 10
142.5983596148
 20
89.8097523499
 10
142.6100993522
 20
89.9067158378
 10
142.6154355192
 20
90.0035799546
 10
142.6143558127
 20
90.1000683789
 10
142.606865408
 20
90.1959804168
 10
142.5929822043
 20
90.291078219
 10
142.5727402796
 20
90.3851255506
 10
142.5613002148
 20
90.4279939362
  0
LWPOLYLINE
  5
61C
100
AcDbEntity
  8
0
100
AcDbPolyline
 62
7
  6
CONTINUOUS
 90
6
 70
0
 10
141.6306924093
 20
89.5886088928
 10
141.6508326887
 20
89.620249802
 10
141.6721525804
 20
89.6559394248
 10
141.69221439
 20
89.6919677485
 10
141.711003369
 20
89.7283081965
 10
141.7285055885
 20
89.7649337551
  0
LINE
  5
61D
100
AcDbEntity
  8
0
100
AcDbLine
 62
7
  6
CONTINUOUS
 10
142.6968006126
 20
88.1625445032
 11
143.5847837422
 21
89.5529820093
  0
LINE
  5
61E
100
AcDbEntity
  8
0
100
AcDbLine
 62
7
  6
CONTINUOUS
 10
176.0227685617
 20
139.3466884581
 11
174.9266568379
 21
137.6303553422
  0
LINE
  5
61F
100
AcDbEntity
  8
0
100
AcDbLine
 62
7
  6
CONTINUOUS
 10
177.5597551176
 20
140.5263912647
 11
176.6778758179
 21
139.1455113664
  0
LINE
  5
620
100
AcDbEntity
  8
0
100
AcDbLine
 62
7
  6
CONTINUOUS
 10
175.9954603365
 20
137.3021361423
 11
177.0915720602
 21
139.0184692582
  0
LINE
  5
621
100
AcDbEntity
  8
0
100
AcDbLine
 62
7
  6
CONTINUOUS
 10
178.6285586164
 20
140.1981720652
 11
177.2966483825
 21
138.1126167417
  0
LWPOLYLINE
  5
622
100
AcDbEntity
  8
RACCORDO
100
AcDbPolyline
 62
253
  6
CONTINUOUS
 90
16
 70
0
 10
142.886505326
 20
88.9358522848
 10
142.8553837701
 20
88.8880619681
 10
142.8220470967
 20
88.8397281406
 10
142.7864953059
 20
88.7908508024
 10
142.7489385218
 20
88.7415031423
 10
142.7091666202
 20
88.6916119715
 10
142.6665492286
 20
88.6409577234
 10
142.6211260665
 20
88.5894885494
 10
142.5728574143
 20
88.5372562982
 10
142.5209937408
 20
88.484196949
 10
142.46557653
 20
88.43025023
 10
142.4065642979
 20
88.3754764132
 10
142.343083061
 20
88.3199922938
 10
142.2751638891
 20
88.2637158918
 10
142.2027757125
 20
88.2067291874
 10
142.1825948248
 20
88.1918616539
  0
LINE
  5
623
100
AcDbEntity
  8
0
100
AcDbLine
 62
7
  6
CONTINUOUS
 10
141.5203179825
 20
89.4515678356
 11
141.7285055885
 21
89.7649337551
  0
LWPOLYLINE
  5
624
100
AcDbEntity
  8
RACCORDO
100
AcDbPolyline
 62
7
  6
CONTINUOUS
 90
8
 70
0
 10
142.7375213827
 20
88.9105547565
 10
142.6552438522
 20
88.7903645675
 10
142.5638568759
 20
88.6731838084
 10
142.4636880671
 20
88.5594526311
 10
142.3551123308
 20
88.4496074181
 10
142.2385258569
 20
88.3440524202
 10
142.1143324098
 20
88.2431556862
 10
142.0850832515
 20
88.2218065133
  0
LWPOLYLINE
  5
625
100
AcDbEntity
  8
0
100
AcDbPolyline
 62
7
  6
CONTINUOUS
 90
34
 70
0
 10
139.7684778062
 20
90.9334841018
 10
139.7919410671
 20
90.9653920587
 10
139.8154526803
 20
90.9970526386
 10
139.8390126458
 20
91.0284658417
 10
139.8626440004
 20
91.0596618136
 10
139.8863237074
 20
91.0906104086
 10
139.909982656
 20
91.1212211897
 10
139.933614802
 20
91.1514833828
 10
139.9572261898
 20
91.181407762
 10
139.980765841
 20
91.2109362128
 10
140.0042116597
 20
91.240040408
 10
140.0275857419
 20
91.2687486747
 10
140.0509033976
 20
91.29708788
 10
140.0741483521
 20
91.3250405643
 10
140.0973368801
 20
91.3526241871
 10
140.120533115
 20
91.3799179942
 10
140.1437608765
 20
91.406951471
 10
140.166996345
 20
91.433695132
 10
140.1902321939
 20
91.4601397667
 10
140.2134836253
 20
91.4863011692
 10
140.2367354373
 20
91.5121635454
 10
140.2599346979
 20
91.5376703016
 10
140.2830624383
 20
91.5627995869
 10
140.3061376274
 20
91.5875732521
 10
140.3291642406
 20
91.6120002564
 10
140.3521334887
 20
91.6360723532
 10
140.3750541611
 20
91.659797789
 10
140.3979566005
 20
91.683210262
 10
140.420841148
 20
91.7063117941
 10
140.4437074627
 20
91.7291003635
 10
140.4665848647
 20
91.7516036029
 10
140.4894831275
 20
91.7738307233
 10
140.5123924776
 20
91.7957725137
 10
140.5353129151
 20
91.8174289742
  0
LWPOLYLINE
  5
626
100
AcDbEntity
  8
0
100
AcDbPolyline
 62
7
  6
CONTINUOUS
 90
10
 70
0
 10
138.4333854375
 20
90.7769904197
 10
138.4060334013
 20
90.7433901032
 10
138.3798505457
 20
90.7093205874
 10
138.3548563587
 20
90.6748071786
 10
138.3310693114
 20
90.6398753102
 10
138.3085072617
 20
90.6045511311
 10
138.2871873699
 20
90.5688615082
 10
138.2671255603
 20
90.5328331844
 10
138.2483365812
 20
90.4964927363
 10
138.2308343617
 20
90.4598671776
  0
LWPOLYLINE
  5
627
100
AcDbEntity
  8
0
100
AcDbPolyline
 62
7
  6
CONTINUOUS
 90
6
 70
0
 10
141.5259545132
 20
89.4478105137
 10
141.5533065493
 20
89.4814108301
 10
141.5794894049
 20
89.5154803458
 10
141.6044835918
 20
89.5499937545
 10
141.628270639
 20
89.5849256229
 10
141.6306924093
 20
89.5886088928
  0
LINE
  5
628
100
AcDbEntity
  8
TRASH
100
AcDbLine
 62
7
  6
CONTINUOUS
 10
139.1975812279
 20
89.5990401721
 11
139.2269574387
 21
89.6299382965
  0
LINE
  5
629
100
AcDbEntity
  8
0
100
AcDbLine
 62
7
  6
CONTINUOUS
 10
140.4787476571
 20
90.4994329561
 11
140.3484685783
 21
90.3645306665
  0
LINE
  5
62A
100
AcDbEntity
  8
ASSI
100
AcDbLine
 62
7
  6
CONTINUOUS
 10
136.0075963934
 20
90.4747322845
 11
135.8201899619
 21
90.2950330017
  0
LWPOLYLINE
  5
62B
100
AcDbEntity
  8
0
100
AcDbPolyline
 62
7
  6
CONTINUOUS
 90
34
 70
0
 10
141.6041164136
 20
91.4892097743
 10
141.5811957504
 20
91.4675531013
 10
141.5582861386
 20
91.4456110551
 10
141.5353875781
 20
91.4233836357
 10
141.5125098299
 20
91.4008800422
 10
141.4896431331
 20
91.3780910754
 10
141.4667582052
 20
91.3549891382
 10
141.4438553865
 20
91.3315762499
 10
141.4209343368
 20
91.3078503913
 10
141.3979647528
 20
91.2837779078
 10
141.3749378551
 20
91.2593505618
 10
141.3518624231
 20
91.234576591
 10
141.3287344928
 20
91.2094470538
 10
141.3055351172
 20
91.1839401246
 10
141.2822832432
 20
91.1580776291
 10
141.2590317472
 20
91.1319161021
 10
141.2357958161
 20
91.1054713228
 10
141.2125602631
 20
91.0787275122
 10
141.189332404
 20
91.051693868
 10
141.166136029
 20
91.0243998392
 10
141.1429473481
 20
90.9968159768
 10
141.1197023067
 20
90.968863132
 10
141.0963846477
 20
90.9405238636
 10
141.0730106282
 20
90.9118156127
 10
141.0495649652
 20
90.8827115547
 10
141.0260255892
 20
90.853183396
 10
141.0024145696
 20
90.8232594302
 10
140.9787828314
 20
90.7929977125
 10
140.9551243386
 20
90.7623874825
 10
140.9314451273
 20
90.7314395006
 10
140.9078142307
 20
90.7002441029
 10
140.8842546598
 20
90.6688314013
 10
140.8607434037
 20
90.6371712839
 10
140.8372804622
 20
90.6052637507
  0
LWPOLYLINE
  5
62C
100
AcDbEntity
  8
0
100
AcDbPolyline
 62
7
  6
CONTINUOUS
 90
11
 70
0
 10
140.5353129151
 20
91.8174289742
 10
140.5402361044
 20
91.8218134686
 10
140.5450780888
 20
91.8256688174
 10
140.5498388682
 20
91.8289950206
 10
140.5545315125
 20
91.8317986351
 10
140.5591429519
 20
91.8340731041
 10
140.5636339765
 20
91.8357987561
 10
140.5680033933
 20
91.8369708675
 10
140.5722523955
 20
91.837594162
 10
140.5763453524
 20
91.8376631401
 10
140.5778621631
 20
91.8375423039
  0
LWPOLYLINE
  5
62D
100
AcDbEntity
  8
TRASH
100
AcDbPolyline
 62
7
  6
CONTINUOUS
 90
15
 70
0
 10
139.9096543215
 20
89.5147617063
 10
139.9371842733
 20
89.53794861
 10
139.9650088081
 20
89.5621169694
 10
139.9932490759
 20
89.587309879
 10
140.0220256533
 20
89.6134632049
 10
140.0514377823
 20
89.6406970774
 10
140.0816022375
 20
89.6693191164
 10
140.1126722663
 20
89.6993087628
 10
140.1447475956
 20
89.7306944816
 10
140.177925106
 20
89.7638513027
 10
140.2123901913
 20
89.7988085062
 10
140.248225455
 20
89.8355085459
 10
140.2854032278
 20
89.8742034295
 10
140.3239836137
 20
89.9149737789
 10
140.4058326599
 20
90.002418553
  0
LINE
  5
62E
100
AcDbEntity
  8
ASSI
100
AcDbLine
 62
7
  6
CONTINUOUS
 10
132.8960171007
 20
92.6153683054
 11
132.7515046314
 21
92.517387475
  0
LINE
  5
62F
100
AcDbEntity
  8
ASSI
100
AcDbLine
 62
7
  6
CONTINUOUS
 10
133.5261444446
 20
92.042526359
 11
133.6706568539
 21
92.1405070748
  0
LINE
  5
630
100
AcDbEntity
  8
ASSI
100
AcDbLine
 62
7
  6
CONTINUOUS
 10
133.5521671286
 20
91.9624408199
 11
133.6966795378
 21
92.0604215357
  0
LINE
  5
631
100
AcDbEntity
  8
ASSI
100
AcDbLine
 62
7
  6
CONTINUOUS
 10
135.5796782898
 20
90.3688235023
 11
135.7241902553
 21
90.4668043876
  0
LINE
  5
632
100
AcDbEntity
  8
ASSI
100
AcDbLine
 62
7
  6
CONTINUOUS
 10
135.6057009737
 20
90.2887379632
 11
135.7502129393
 21
90.3867188485
  0
LINE
  5
633
100
AcDbEntity
  8
0
100
AcDbLine
 62
7
  6
CONTINUOUS
 10
139.9003374524
 20
90.0900037525
 11
139.8167721655
 21
90.0370684187
  0
LINE
  5
634
100
AcDbEntity
  8
ASSI
100
AcDbLine
 62
7
  6
CONTINUOUS
 10
132.4885196138
 20
91.8390434141
 11
132.2824748157
 21
91.712501812
  0
LINE
  5
635
100
AcDbEntity
  8
ASSI
100
AcDbLine
 62
7
  6
CONTINUOUS
 10
133.0543052737
 20
91.1436238999
 11
133.2603505155
 21
91.2701653326
  0
LINE
  5
636
100
AcDbEntity
  8
ASSI
100
AcDbLine
 62
7
  6
CONTINUOUS
 10
133.0803279576
 20
91.0635383608
 11
133.2863731994
 21
91.1900797935
  0
LINE
  5
637
100
AcDbEntity
  8
ASSI
100
AcDbLine
 62
7
  6
CONTINUOUS
 10
135.8201899619
 20
90.2950330017
 11
135.6784552468
 21
90.2079872041
  0
LINE
  5
638
100
AcDbEntity
  8
0
100
AcDbLine
 62
7
  6
CONTINUOUS
 10
139.6677476517
 20
90.8752390223
 11
139.7012757353
 21
90.8949076895
  0
LINE
  5
639
100
AcDbEntity
  8
0
100
AcDbLine
 62
7
  6
CONTINUOUS
 10
139.7012757353
 20
90.8949076895
 11
139.7348419161
 21
90.9143025265
  0
LINE
  5
63A
100
AcDbEntity
  8
0
100
AcDbLine
 62
7
  6
CONTINUOUS
 10
139.7348419161
 20
90.9143025265
 11
139.7684778062
 21
90.9334841018
  0
LINE
  5
63B
100
AcDbEntity
  8
ASSI
100
AcDbLine
 62
7
  6
CONTINUOUS
 10
132.7384850204
 20
92.7585788337
 11
132.9230825554
 21
92.8442611797
  0
LINE
  5
63C
100
AcDbEntity
  8
ASSI
100
AcDbLine
 62
7
  6
CONTINUOUS
 10
132.7645077043
 20
92.6784932946
 11
132.9491052393
 21
92.7641756406
  0
LINE
  5
63D
100
AcDbEntity
  8
ASSI
100
AcDbLine
 62
7
  6
CONTINUOUS
 10
133.683676525
 20
91.8993158306
 11
133.4990789899
 21
91.8136334846
  0
LINE
  5
63E
100
AcDbEntity
  8
ASSI
100
AcDbLine
 62
7
  6
CONTINUOUS
 10
133.2733701716
 20
91.0289740598
 11
133.1421856072
 21
90.9680837415
  0
LINE
  5
63F
100
AcDbEntity
  8
ASSI
100
AcDbLine
 62
7
  6
CONTINUOUS
 10
133.1206997615
 20
92.6887522815
 11
132.8960171007
 21
92.6153683054
  0
LINE
  5
640
100
AcDbEntity
  8
ASSI
100
AcDbLine
 62
7
  6
CONTINUOUS
 10
132.2694551746
 20
91.9536931135
 11
132.4941378354
 21
92.0270770897
  0
LINE
  5
641
100
AcDbEntity
  8
ASSI
100
AcDbLine
 62
7
  6
CONTINUOUS
 10
132.2954778586
 20
91.8736075744
 11
132.5201605194
 21
91.9469915505
  0
LINE
  5
642
100
AcDbEntity
  8
ASSI
100
AcDbLine
 62
7
  6
CONTINUOUS
 10
133.3014617838
 20
91.9691423828
 11
133.5261444446
 21
92.042526359
  0
LINE
  5
643
100
AcDbEntity
  8
ASSI
100
AcDbLine
 62
7
  6
CONTINUOUS
 10
133.3274844677
 20
91.8890568437
 11
133.5521671286
 21
91.9624408199
  0
LINE
  5
644
100
AcDbEntity
  8
0
100
AcDbLine
 62
7
  6
CONTINUOUS
 10
89.6407782987
 20
137.4267273912
 11
87.7737814693
 21
138.0000640302
  0
LWPOLYLINE
  5
645
100
AcDbEntity
  8
0
100
AcDbPolyline
 62
7
  6
CONTINUOUS
 90
3
 70
0
 10
188.010144419
 20
76.6025575036
 10
187.9322705394
 20
76.698098588
 10
187.8387793428
 20
76.7848825485
  0
LINE
  5
646
100
AcDbEntity
  8
0
100
AcDbLine
 62
7
  6
CONTINUOUS
 10
179.1363393605
 20
77.6744729392
 11
179.0968595495
 21
77.7310671958
  0
LWPOLYLINE
  5
647
100
AcDbEntity
  8
0
100
AcDbPolyline
 62
7
  6
CONTINUOUS
 90
3
 70
0
 10
179.6973353433
 20
77.2429825308
 10
179.6721888307
 20
77.2808903865
 10
179.6397651812
 20
77.3157601086
  0
LWPOLYLINE
  5
648
100
AcDbEntity
  8
0
100
AcDbPolyline
 62
7
  6
CONTINUOUS
 90
7
 70
0
 10
180.0417486597
 20
77.9847641584
 10
180.0197016741
 20
78.0184107503
 10
179.991071852
 20
78.0490435285
 10
179.958037778
 20
78.0758014859
 10
179.9213256469
 20
78.0983976201
 10
179.8802092638
 20
78.1171189336
 10
179.784782104
 20
78.1480473518
  0
LWPOLYLINE
  5
649
100
AcDbEntity
  8
DRAFT
100
AcDbPolyline
 62
7
  6
CONTINUOUS
 90
20
 70
0
 10
157.0510270662
 20
86.1991542291
 10
157.0409342062
 20
86.2715900404
 10
157.011770431
 20
86.4198760094
 10
156.9714968091
 20
86.566638329
 10
156.9205586596
 20
86.7102304725
 10
156.8589293511
 20
86.8504304858
 10
156.786635515
 20
86.9874603229
 10
156.7042023657
 20
87.1203393192
 10
156.61144322
 20
87.2491835947
 10
156.5085447611
 20
87.3738770294
 10
156.3965922524
 20
87.4930905986
 10
156.2756033412
 20
87.6066634751
 10
156.1455603802
 20
87.7147564863
 10
156.0074956904
 20
87.8165230894
 10
155.8612517021
 20
87.911975045
 10
155.706985985
 20
88.0011005927
 10
155.5462035694
 20
88.0830179087
 10
155.379406132
 20
88.157433052
 10
155.206091996
 20
88.2246399637
 10
155.0262611615
 20
88.2846386438
  0
LWPOLYLINE
  5
64A
100
AcDbEntity
  8
0
100
AcDbPolyline
 62
7
  6
CONTINUOUS
 90
5
 70
0
 10
156.2528584153
 20
85.1000433978
 10
156.2483924566
 20
85.1326440935
 10
156.2368982515
 20
85.1962177582
 10
156.2227021078
 20
85.2592451876
 10
156.2096779926
 20
85.3082706193
  0
LINE
  5
64B
100
AcDbEntity
  8
DRAFT
100
AcDbLine
 62
7
  6
CONTINUOUS
 10
157.3740182396
 20
83.525128791
 11
157.0510295704
 21
86.1990353459
  0
LINE
  5
64C
100
AcDbEntity
  8
TRASH
100
AcDbLine
 62
7
  6
CONTINUOUS
 10
153.7658808044
 20
85.8996824948
 11
153.7815729949
 21
85.9396969629
  0
LINE
  5
64D
100
AcDbEntity
  8
0
100
AcDbLine
 62
7
  6
CONTINUOUS
 10
152.1169851223
 20
85.1411066375
 11
152.1400662297
 21
85.1871852624
  0
LINE
  5
64E
100
AcDbEntity
  8
0
100
AcDbLine
 62
7
  6
CONTINUOUS
 10
153.2088657765
 20
84.858958212
 11
153.1857886104
 21
84.8128874408
  0
LWPOLYLINE
  5
64F
100
AcDbEntity
  8
RACCORDO
100
AcDbPolyline
 62
7
  6
CONTINUOUS
 90
5
 70
0
 10
174.9266568379
 20
137.6303553422
 10
174.892698472
 20
137.5636688212
 10
174.8718100288
 20
137.4978612378
 10
174.8639915081
 20
137.4329325921
 10
174.8675572846
 20
137.3794365618
  0
LINE
  5
650
100
AcDbEntity
  8
0
100
AcDbLine
 62
7
  6
CONTINUOUS
 10
152.1400662297
 20
85.1871852624
 11
152.1823908508
 21
85.2706297202
  0
LINE
  5
651
100
AcDbEntity
  8
0
100
AcDbLine
 62
7
  6
CONTINUOUS
 10
153.251190152
 20
84.9424023096
 11
153.2088657765
 21
84.858958212
  0
LINE
  5
652
100
AcDbEntity
  8
0
100
AcDbLine
 62
7
  6
CONTINUOUS
 10
152.1823908508
 20
85.2706297202
 11
152.2252383136
 21
85.3537859683
  0
LINE
  5
653
100
AcDbEntity
  8
0
100
AcDbLine
 62
7
  6
CONTINUOUS
 10
153.2940376406
 20
85.0255587385
 11
153.251190152
 21
84.9424023096
  0
LINE
  5
654
100
AcDbEntity
  8
ASSI
100
AcDbLine
 62
7
  6
CONTINUOUS
 10
149.6232022187
 20
89.9438657005
 11
150.217270841
 21
91.074870001
  0
LINE
  5
655
100
AcDbEntity
  8
ASSI
100
AcDbLine
 62
7
  6
CONTINUOUS
 10
150.3862217813
 20
90.8822732949
 11
149.8557979925
 21
89.8724377917
  0
LINE
  5
656
100
AcDbEntity
  8
ASSI
100
AcDbLine
 62
7
  6
CONTINUOUS
 10
153.2365245472
 20
91.2873049782
 11
153.5360007952
 21
91.8574561555
  0
LINE
  5
657
100
AcDbEntity
  8
ASSI
100
AcDbLine
 62
7
  6
CONTINUOUS
 10
155.3173409916
 20
91.3104259232
 11
155.0178637511
 21
90.7402728564
  0
LINE
  5
658
100
AcDbEntity
  8
ASSI
100
AcDbLine
 62
7
  6
CONTINUOUS
 10
155.3736306206
 20
90.5534035988
 11
155.6051240142
 21
90.9941271345
  0
LINE
  5
659
100
AcDbEntity
  8
0
100
AcDbLine
 62
7
  6
CONTINUOUS
 10
152.2252383136
 20
85.3537859683
 11
152.2686484372
 21
85.4366979098
  0
LINE
  5
65A
100
AcDbEntity
  8
0
100
AcDbLine
 62
7
  6
CONTINUOUS
 10
153.3374481363
 20
85.1084715082
 11
153.2940376406
 21
85.0255587385
  0
LINE
  5
65B
100
AcDbEntity
  8
0
100
AcDbLine
 62
7
  6
CONTINUOUS
 10
152.2686484372
 20
85.4366979098
 11
152.3125914616
 21
85.5192943663
  0
LINE
  5
65C
100
AcDbEntity
  8
0
100
AcDbLine
 62
7
  6
CONTINUOUS
 10
153.3813918587
 20
85.1910693839
 11
153.3374481363
 21
85.1084715082
  0
LINE
  5
65D
100
AcDbEntity
  8
0
100
AcDbLine
 62
7
  6
CONTINUOUS
 10
152.3125914616
 20
85.5192943663
 11
152.3569223078
 21
85.601274231
  0
LINE
  5
65E
100
AcDbEntity
  8
0
100
AcDbLine
 62
7
  6
CONTINUOUS
 10
153.4257235784
 20
85.273050942
 11
153.3813918587
 21
85.1910693839
  0
LINE
  5
65F
100
AcDbEntity
  8
0
100
AcDbLine
 62
7
  6
CONTINUOUS
 10
153.4702143935
 20
85.3540011155
 11
153.4257235784
 21
85.273050942
  0
LINE
  5
660
100
AcDbEntity
  8
0
100
AcDbLine
 62
7
  6
CONTINUOUS
 10
152.3569223078
 20
85.601274231
 11
152.4014123324
 21
85.6822229071
  0
LINE
  5
661
100
AcDbEntity
  8
0
100
AcDbLine
 62
7
  6
CONTINUOUS
 10
152.4014123324
 20
85.6822229071
 11
152.4459967517
 21
85.7620211953
  0
LINE
  5
662
100
AcDbEntity
  8
0
100
AcDbLine
 62
7
  6
CONTINUOUS
 10
153.514799448
 20
85.4338005712
 11
153.4702143935
 21
85.3540011155
  0
LINE
  5
663
100
AcDbEntity
  8
0
100
AcDbLine
 62
7
  6
CONTINUOUS
 10
179.4867983983
 20
132.5442656845
 11
178.571554227
 21
131.11114181
  0
LINE
  5
664
100
AcDbEntity
  8
0
100
AcDbLine
 62
7
  6
CONTINUOUS
 10
149.8221572696
 20
85.974416504
 11
150.7101403991
 21
87.3648540101
  0
LINE
  5
665
100
AcDbEntity
  8
0
100
AcDbLine
 62
7
  6
CONTINUOUS
 10
154.0497525775
 20
87.3474910964
 11
153.146047378
 21
85.9324353796
  0
LINE
  5
666
100
AcDbEntity
  8
0
100
AcDbLine
 62
7
  6
CONTINUOUS
 10
152.6500070183
 20
85.1557166586
 11
152.5548106864
 21
85.0066546484
  0
LWPOLYLINE
  5
667
100
AcDbEntity
  8
RACCORDO
100
AcDbPolyline
 62
253
  6
CONTINUOUS
 90
79
 70
0
 10
150.5204356858
 20
86.5915462285
 10
150.5516995233
 20
86.6395591631
 10
150.5852219954
 20
86.688143195
 10
150.6210031019
 20
86.737298324
 10
150.6588283685
 20
86.7869527126
 10
150.6989122696
 20
86.8371781985
 10
150.7418982284
 20
86.8881902941
 10
150.7877469989
 20
86.9400430268
 10
150.8364978272
 20
86.9926823692
 10
150.8889118745
 20
87.0461617514
 10
150.944947797
 20
87.1005429834
 10
151.0046469385
 20
87.1557642553
 10
151.0688944919
 20
87.2116935669
 10
151.1376601199
 20
87.268414843
 10
151.2109741597
 20
87.3258441588
 10
151.2898128156
 20
87.3835977398
 10
151.3741656211
 20
87.4417845287
 10
151.4640430427
 20
87.5002955828
 10
151.5604526839
 20
87.5584202998
 10
151.6634473401
 20
87.6163058588
 10
151.7729742159
 20
87.6738050806
 10
151.8898825287
 20
87.7297658256
 10
152.0145096814
 20
87.7843973705
 10
152.1465182711
 20
87.8374904386
 10
152.2857453067
 20
87.8872650605
 10
152.4327091443
 20
87.9338028953
 10
152.5868914277
 20
87.977022284
 10
152.7465740981
 20
88.0148982801
 10
152.9120532639
 20
88.0472763973
 10
153.0830328168
 20
88.074311122
 10
153.2569063717
 20
88.0944409675
 10
153.4339631725
 20
88.1073854165
 10
153.6139139754
 20
88.1134249864
 10
153.7932846648
 20
88.1118397428
 10
153.9719002091
 20
88.1023052497
 10
154.1499356399
 20
88.0851459431
 10
154.324441936
 20
88.0606151972
 10
154.4947640705
 20
88.0286832332
 10
154.6615570703
 20
87.9893798298
 10
154.8238369952
 20
87.9430476976
 10
154.9816390442
 20
87.8896997204
 10
155.1349280182
 20
87.8293230143
 10
155.2826143801
 20
87.7622216377
 10
155.4250971299
 20
87.6880193229
 10
155.5619772676
 20
87.6070923375
 10
155.6909682559
 20
87.5208735426
 10
155.8118019952
 20
87.4290694694
 10
155.9247465852
 20
87.3319735866
 10
156.0283197878
 20
87.2318991609
 10
156.122022113
 20
87.1288246075
 10
156.2063530509
 20
87.0227715112
 10
156.2813288334
 20
86.916117893
 10
156.3465963539
 20
86.8089216582
 10
156.402508719
 20
86.7011249014
 10
156.4501414811
 20
86.594931928
 10
156.4892473822
 20
86.490679952
 10
156.5200736802
 20
86.3880317592
 10
156.5444377014
 20
86.2881800124
 10
156.5623528081
 20
86.1914285148
 10
156.573805638
 20
86.097473463
 10
156.5805734308
 20
86.0065961096
 10
156.5827810481
 20
85.9189077851
 10
156.5803036282
 20
85.8342971589
 10
156.5745438262
 20
85.752711491
 10
156.565623403
 20
85.6742174838
 10
156.5534205975
 20
85.598748435
 10
156.5389727814
 20
85.5260514977
 10
156.5223883779
 20
85.4561658151
 10
156.5035589637
 20
85.3890522441
 10
156.4831966408
 20
85.3243405087
 10
156.461393651
 20
85.2620498148
 10
156.4380577525
 20
85.2021609565
 10
156.4136243215
 20
85.1442460395
 10
156.3881754185
 20
85.0883195148
 10
156.3616289831
 20
85.0343669314
 10
156.3341742098
 20
84.9819170417
 10
156.3058741636
 20
84.9308127629
 10
156.2766657796
 20
84.8812111778
 10
156.2465490578
 20
84.8331122863
  0
LWPOLYLINE
  5
668
100
AcDbEntity
  8
RACCORDO
100
AcDbPolyline
 62
253
  6
CONTINUOUS
 90
62
 70
0
 10
150.7157603677
 20
86.4156930344
 10
150.7452217862
 20
86.4606577003
 10
150.776653495
 20
86.5062632174
 10
150.8101288094
 20
86.5524574443
 10
150.8456090432
 20
86.5990422305
 10
150.8832683149
 20
86.6461039754
 10
150.9235354726
 20
86.693996355
 10
150.966526864
 20
86.7426452479
 10
151.012339159
 20
86.7919489483
 10
151.061443812
 20
86.842176864
 10
151.1139795564
 20
86.8932048329
 10
151.1700804195
 20
86.9448969222
 10
151.230280209
 20
86.9974500569
 10
151.2947444061
 20
87.0506840803
 10
151.3636288968
 20
87.104401351
 10
151.4375189466
 20
87.1587013443
 10
151.5165922211
 20
87.2133260734
 10
151.6010130056
 20
87.2679967859
 10
151.6914028687
 20
87.3226903793
 10
151.7879506252
 20
87.3770594714
 10
151.8907787606
 20
87.4307052746
 10
152.0004421527
 20
87.4834179084
 10
152.1172629823
 20
87.5348056693
 10
152.2411081293
 20
87.5842540893
 10
152.3718073126
 20
87.6311543252
 10
152.5096041387
 20
87.675038578
 10
152.6541205868
 20
87.7152219058
 10
152.8041099205
 20
87.7508659863
 10
152.9593640117
 20
87.7814843314
 10
153.1194953496
 20
87.8065577125
 10
153.2828289704
 20
87.8254568715
 10
153.4490444429
 20
87.8378432644
 10
153.6174971376
 20
87.8433635714
 10
153.785947956
 20
87.8417512094
 10
153.9536922055
 20
87.8329358883
 10
154.1203335957
 20
87.8168605432
 10
154.2841388412
 20
87.7936827779
 10
154.4440487133
 20
87.7636624725
 10
154.6001639038
 20
87.7268921737
 10
154.7525278562
 20
87.683396669
 10
154.9006804024
 20
87.6333025627
 10
155.0441312796
 20
87.5767707258
 10
155.1828199748
 20
87.5137856184
 10
155.316724287
 20
87.4442321631
 10
155.4448538966
 20
87.3684937202
 10
155.5658174075
 20
87.287418721
 10
155.6794074913
 20
87.2012803746
 10
155.7852733469
 20
87.1104864356
 10
155.8822283839
 20
87.0163872027
 10
155.9702368415
 20
86.9195676094
 10
156.0494780807
 20
86.8204174391
 10
156.1195484755
 20
86.7202046359
 10
156.180762172
 20
86.6194761801
 10
156.2335174262
 20
86.5186623253
 10
156.2779068507
 20
86.418938822
 10
156.3144161201
 20
86.32096329
 10
156.3437193093
 20
86.2249068011
 10
156.3663721762
 20
86.1311999686
 10
156.3829390674
 20
86.0403048576
 10
156.3940449926
 20
85.9523200182
 10
156.4002798607
 20
85.8670638986
 10
156.4019274814
 20
85.8150702821
  0
LWPOLYLINE
  5
669
100
AcDbEntity
  8
0
100
AcDbPolyline
 62
7
  6
CONTINUOUS
 90
10
 70
0
 10
151.7934291693
 20
86.6742504212
 10
151.7660771331
 20
86.6406501047
 10
151.7398942775
 20
86.6065805889
 10
151.7149000905
 20
86.5720671801
 10
151.6911130432
 20
86.5371353117
 10
151.6685509935
 20
86.5018111326
 10
151.6472311017
 20
86.4661215097
 10
151.6271692921
 20
86.4300931859
 10
151.608380313
 20
86.3937527378
 10
151.5908780935
 20
86.3571271791
  0
LINE
  5
66A
100
AcDbEntity
  8
0
100
AcDbLine
 62
7
  6
CONTINUOUS
 10
143.933588444
 20
89.2489726757
 11
142.6968006126
 21
88.1625445032
  0
LWPOLYLINE
  5
66B
100
AcDbEntity
  8
0
100
AcDbPolyline
 62
7
  6
CONTINUOUS
 90
3
 70
0
 10
148.7314136755
 20
90.2917605604
 10
148.6686341556
 20
90.2470828391
 10
148.6598206534
 20
90.239710846
  0
LWPOLYLINE
  5
66C
100
AcDbEntity
  8
0
100
AcDbPolyline
 62
7
  6
CONTINUOUS
 90
3
 70
0
 10
149.0071156129
 20
90.8166495466
 10
148.6660094458
 20
90.5784917256
 10
148.3571696549
 20
90.3326520356
  0
LINE
  5
66D
100
AcDbEntity
  8
0
100
AcDbLine
 62
7
  6
CONTINUOUS
 10
140.2542324953
 20
89.6032981889
 11
140.1547557162
 21
89.5365405697
  0
LINE
  5
66E
100
AcDbEntity
  8
0
100
AcDbLine
 62
7
  6
CONTINUOUS
 10
140.0050482359
 20
90.1555994639
 11
139.9003374524
 21
90.0900037525
  0
LWPOLYLINE
  5
66F
100
AcDbEntity
  8
0
100
AcDbPolyline
 62
253
  6
CONTINUOUS
 90
11
 70
0
 10
141.5385876263
 20
88.3896300254
 10
141.6157201185
 20
88.4374603161
 10
141.7154466731
 20
88.5052619961
 10
141.8109835525
 20
88.5764124264
 10
141.9019913598
 20
88.6506470245
 10
141.9881952596
 20
88.7277091739
 10
142.0694759822
 20
88.8074581295
 10
142.145743724
 20
88.8897926278
 10
142.2168398334
 20
88.9745471312
 10
142.2825575214
 20
89.0614812783
 10
142.3427355614
 20
89.1503827172
  0
LINE
  5
670
100
AcDbEntity
  8
0
100
AcDbLine
 62
7
  6
CONTINUOUS
 10
140.1541977318
 20
90.2479832231
 11
140.0050482359
 21
90.1555994639
  0
LINE
  5
671
100
AcDbEntity
  8
0
100
AcDbLine
 62
7
  6
CONTINUOUS
 10
140.3277533746
 20
90.3544261995
 11
140.1541977318
 21
90.2479832231
  0
LWPOLYLINE
  5
672
100
AcDbEntity
  8
0
100
AcDbPolyline
 62
253
  6
CONTINUOUS
 90
36
 70
0
 10
141.2652977117
 20
88.4735547106
 10
141.3032051477
 20
88.4925730233
 10
141.4172689431
 20
88.5563354364
 10
141.5270007416
 20
88.6244406618
 10
141.6320651835
 20
88.6966805715
 10
141.7321411364
 20
88.7728343606
 10
141.8269227643
 20
88.8526692817
 10
141.9161205154
 20
88.9359414247
 10
141.9994619024
 20
89.0223964001
 10
142.0766922814
 20
89.111770059
 10
142.1475756412
 20
89.2037892907
 10
142.211895384
 20
89.2981729179
 10
142.2694549795
 20
89.3946325588
 10
142.3200785326
 20
89.4928734539
 10
142.3636113314
 20
89.5925953612
 10
142.3999203476
 20
89.6934935133
 10
142.4288946687
 20
89.7952596561
 10
142.4504457877
 20
89.8975829363
 10
142.4645078461
 20
90.0001507683
 10
142.4710378433
 20
90.1026496703
 10
142.4700158173
 20
90.2047663286
 10
142.4614449107
 20
90.3061886473
 10
142.445351326
 20
90.4066067879
 10
142.4217842269
 20
90.5057139972
 10
142.3908156013
 20
90.6032074862
 10
142.3525400791
 20
90.6987893027
 10
142.3070746358
 20
90.7921673308
 10
142.2545582142
 20
90.8830562234
 10
142.1951512789
 20
90.9711782825
 10
142.1290353493
 20
91.0562642546
 10
142.0564124515
 20
91.1380541506
 10
141.9775044948
 20
91.2162980526
 10
141.8925525818
 20
91.2907568871
 10
141.801816288
 20
91.3612031389
 10
141.7055728713
 20
91.4274215475
 10
141.6041164136
 20
91.4892097743
  0
LINE
  5
673
100
AcDbEntity
  8
0
100
AcDbLine
 62
7
  6
CONTINUOUS
 10
140.3484685783
 20
90.3645306665
 11
140.3277533746
 21
90.3544261995
  0
LINE
  5
674
100
AcDbEntity
  8
ASSI
100
AcDbLine
 62
7
  6
CONTINUOUS
 10
150.0913536769
 20
90.8351454156
 11
150.1865339397
 21
90.8790453003
  0
LWPOLYLINE
  5
675
100
AcDbEntity
  8
ASSI
100
AcDbPolyline
 62
7
  6
CONTINUOUS
 90
10
 70
0
 10
149.8793062754
 20
91.2956317781
 10
150.2708043928
 20
91.4596328696
 10
150.6677449736
 20
91.5984926084
 10
151.070128018
 20
91.7122109945
 10
151.4802763858
 20
91.8011249446
 10
151.8958672172
 20
91.8648975419
 10
152.3099319319
 20
91.9025180367
 10
152.7201476697
 20
91.9136495122
 10
153.1288372908
 20
91.8986288851
 10
153.5360007952
 20
91.8574561555
  0
LINE
  5
676
100
AcDbEntity
  8
ASSI
100
AcDbLine
 62
7
  6
CONTINUOUS
 10
150.1865339397
 20
90.8790453003
 11
150.644123471
 21
91.0543381928
  0
LWPOLYLINE
  5
677
100
AcDbEntity
  8
0
100
AcDbPolyline
 62
7
  6
CONTINUOUS
 90
10
 70
0
 10
190.9626499555
 20
105.963420179
 10
190.7987759101
 20
105.9094648639
 10
190.64315294
 20
105.8462718768
 10
190.4957810452
 20
105.7738412179
 10
190.3556152927
 20
105.6914713958
 10
190.2237006155
 20
105.5998639019
 10
190.1031718125
 20
105.5011232097
 10
189.9950738166
 20
105.3959508104
 10
189.898361695
 20
105.2836452127
 10
189.8130354475
 20
105.1642064168
  0
LWPOLYLINE
  5
678
100
AcDbEntity
  8
0
100
AcDbPolyline
 62
7
  6
CONTINUOUS
 90
10
 70
0
 10
192.0479653516
 20
103.325631855
 10
192.211839397
 20
103.3795871702
 10
192.3674623671
 20
103.4427801572
 10
192.5148342619
 20
103.5152108162
 10
192.6550000144
 20
103.5975806382
 10
192.7869146916
 20
103.6891881321
 10
192.9074434946
 20
103.7879288243
 10
193.0155414905
 20
103.8931012237
 10
193.1122536121
 20
104.0054068213
 10
193.1975798596
 20
104.1248456172
  0
LINE
  5
679
100
AcDbEntity
  8
ASSI
100
AcDbLine
 62
7
  6
CONTINUOUS
 10
135.2413837134
 20
91.2316440415
 11
135.0167015113
 21
91.1582599246
  0
LWPOLYLINE
  5
67A
100
AcDbEntity
  8
ASSI
100
AcDbPolyline
 62
7
  6
CONTINUOUS
 90
6
 70
0
 10
150.644123471
 20
91.0543381928
 10
151.1128011877
 20
91.1982919099
 10
151.5923563701
 20
91.3115020204
 10
152.0735586216
 20
91.3917894748
 10
152.5564398494
 20
91.4385164914
 10
153.0409681463
 20
91.4523208518
  0
LWPOLYLINE
  5
67B
100
AcDbEntity
  8
ASSI
100
AcDbPolyline
 62
7
  6
CONTINUOUS
 90
17
 70
0
 10
190.6398510389
 20
107.0336156154
 10
190.3496599878
 20
106.9465580144
 10
190.0708867448
 20
106.8420387984
 10
189.8038045669
 20
106.7196439208
 10
189.5481401972
 20
106.5797874282
 10
189.3099298756
 20
106.4257811817
 10
189.0895890776
 20
106.257289781
 10
188.8867023277
 20
106.0746486264
 10
188.7060594394
 20
105.8821757807
 10
188.5481888798
 20
105.6796380683
 10
188.4125621819
 20
105.4672686647
 10
188.3023837578
 20
105.2500851595
 10
188.2182577726
 20
105.0279729079
 10
188.1595800612
 20
104.8010465547
 10
188.1277425402
 20
104.5746676238
 10
188.1233825966
 20
104.3488481918
 10
188.1419946839
 20
104.1488310238
  0
LWPOLYLINE
  5
67C
100
AcDbEntity
  8
RACCORDO
100
AcDbPolyline
 62
7
  6
CONTINUOUS
 90
16
 70
0
 10
204.079759925
 20
111.214870332
 10
203.9935673753
 20
111.2346029935
 10
203.9074021038
 20
111.2445635963
 10
203.8212641106
 20
111.2447521404
 10
203.7334511624
 20
111.2348268732
 10
203.6456654924
 20
111.2151295472
 10
203.5630138004
 20
111.1866854206
 10
203.4854130062
 20
111.1486765638
 10
203.4129461901
 20
111.1019209063
 10
203.350969292
 20
111.0498974951
 10
203.3005392108
 20
110.9926254337
 10
203.2605990477
 20
110.9300856185
 10
203.2333340457
 20
110.8656997857
 10
203.2194341201
 20
110.7989124019
 10
203.2182093556
 20
110.7302790006
 10
203.2203945919
 20
110.7096197566
  0
LINE
  5
67D
100
AcDbEntity
  8
0
100
AcDbLine
 62
7
  6
CONTINUOUS
 10
114.7626143435
 20
133.6589890155
 11
113.6938108449
 21
133.9872082154
  0
LINE
  5
67E
100
AcDbEntity
  8
0
100
AcDbLine
 62
7
  6
CONTINUOUS
 10
209.6166079851
 20
107.5646766114
 11
206.9447239953
 21
108.3851862996
  0
LINE
  5
67F
100
AcDbEntity
  8
0
100
AcDbLine
 62
7
  6
CONTINUOUS
 10
86.2591203748
 20
145.4465659745
 11
88.9310043646
 21
144.6260562863
  0
LINE
  5
680
100
AcDbEntity
  8
RACCORDO
100
AcDbLine
 62
7
  6
CONTINUOUS
 10
206.6810287849
 20
109.4181687526
 11
203.5469700473
 21
110.3806078283
  0
LINE
  5
681
100
AcDbEntity
  8
RACCORDO
100
AcDbLine
 62
7
  6
CONTINUOUS
 10
88.9010796284
 20
145.5872500914
 11
92.0351383661
 21
144.6248110157
  0
LINE
  5
682
100
AcDbEntity
  8
0
100
AcDbLine
 62
7
  6
CONTINUOUS
 10
210.1493978628
 20
108.3989391151
 11
207.477513873
 21
109.2194488033
  0
LINE
  5
683
100
AcDbEntity
  8
0
100
AcDbLine
 62
7
  6
CONTINUOUS
 10
86.7919102526
 20
146.2808284782
 11
88.9139527594
 21
145.6291697825
  0
LINE
  5
684
100
AcDbEntity
  8
RACCORDO
100
AcDbLine
 62
7
  6
CONTINUOUS
 10
207.2138186627
 20
110.2524312563
 11
204.079759925
 21
111.214870332
  0
LINE
  5
685
100
AcDbEntity
  8
RACCORDO
100
AcDbLine
 62
7
  6
CONTINUOUS
 10
89.4338695062
 20
146.4215125951
 11
92.5679282438
 21
145.4590735194
  0
LWPOLYLINE
  5
686
100
AcDbEntity
  8
ASSI
100
AcDbPolyline
 62
7
  6
CONTINUOUS
 90
3
 70
0
 10
188.3307860185
 20
76.8025432562
 10
188.2642076455
 20
76.8842262285
 10
188.1430153536
 20
76.9967239551
  0
LINE
  5
687
100
AcDbEntity
  8
ASSI
100
AcDbLine
 62
7
  6
CONTINUOUS
 10
178.8139971577
 20
84.9113118898
 11
179.4883048188
 21
83.6947031817
  0
LINE
  5
688
100
AcDbEntity
  8
ASSI
100
AcDbLine
 62
7
  6
CONTINUOUS
 10
179.7579069821
 20
84.0351414175
 11
179.0524758094
 21
85.3079050599
  0
LINE
  5
689
100
AcDbEntity
  8
ASSI
100
AcDbLine
 62
7
  6
CONTINUOUS
 10
179.7380303497
 20
84.1701373841
 11
179.0325991769
 21
85.4429010266
  0
LINE
  5
68A
100
AcDbEntity
  8
ASSI
100
AcDbLine
 62
7
  6
CONTINUOUS
 10
156.0883823161
 20
87.756902073
 11
156.7099799867
 21
88.9403169382
  0
LINE
  5
68B
100
AcDbEntity
  8
ASSI
100
AcDbLine
 62
7
  6
CONTINUOUS
 10
156.4011727267
 20
87.4882130421
 11
156.883464593
 21
88.4064136581
  0
LINE
  5
68C
100
AcDbEntity
  8
ASSI
100
AcDbLine
 62
7
  6
CONTINUOUS
 10
156.5712915585
 20
87.2978398004
 11
157.4500041237
 21
88.9707571247
  0
LINE
  5
68D
100
AcDbEntity
  8
0
100
AcDbLine
 62
7
  6
CONTINUOUS
 10
157.6466222448
 20
88.1635402265
 11
156.9035654671
 21
86.7488881482
  0
LINE
  5
68E
100
AcDbEntity
  8
0
100
AcDbLine
 62
7
  6
CONTINUOUS
 10
157.6775732121
 20
87.7903714956
 11
156.9932191532
 21
86.4874792798
  0
LWPOLYLINE
  5
68F
100
AcDbEntity
  8
0
100
AcDbPolyline
 62
7
  6
CONTINUOUS
 90
8
 70
0
 10
157.1330356611
 20
85.5201365349
 10
157.2301468326
 20
85.7050194734
 10
157.3786431709
 20
86.0481645356
 10
157.4979051728
 20
86.3970682266
 10
157.5884003479
 20
86.7516384555
 10
157.6486659203
 20
87.106143902
 10
157.6782142979
 20
87.4586741259
 10
157.6775330728
 20
87.8111395674
  0
LWPOLYLINE
  5
690
100
AcDbEntity
  8
RACCORDO
100
AcDbPolyline
 62
7
  6
CONTINUOUS
 90
10
 70
0
 10
156.0975651145
 20
84.807814758
 10
156.1615484476
 20
84.9145449209
 10
156.2184053898
 20
85.0232466565
 10
156.267925711
 20
85.1336288143
 10
156.3099146408
 20
85.2453774269
 10
156.3442137442
 20
85.3582102812
 10
156.3706898114
 20
85.4718852438
 10
156.3892105088
 20
85.5861266776
 10
156.3996552369
 20
85.7006202582
 10
156.4019274812
 20
85.8150702954
  0
LWPOLYLINE
  5
691
100
AcDbEntity
  8
0
100
AcDbPolyline
 62
253
  6
CONTINUOUS
 90
15
 70
0
 10
155.7027792931
 20
85.0476427187
 10
155.7573088957
 20
85.138363229
 10
155.8060064335
 20
85.2306103764
 10
155.8487528346
 20
85.3241582016
 10
155.8854298643
 20
85.4187387219
 10
155.915966662
 20
85.5141584513
 10
155.9403146932
 20
85.6103019271
 10
155.9584033465
 20
85.7070123514
 10
155.970143084
 20
85.8039758393
 10
155.975479251
 20
85.9008399561
 10
155.9743995445
 20
85.9973283805
 10
155.9669091397
 20
86.0932404183
 10
155.9530259361
 20
86.1883382205
 10
155.9327840114
 20
86.2823855521
 10
155.9213439465
 20
86.3252539377
  0
LWPOLYLINE
  5
692
100
AcDbEntity
  8
0
100
AcDbPolyline
 62
7
  6
CONTINUOUS
 90
6
 70
0
 10
154.9907361411
 20
85.4858688943
 10
155.0108764204
 20
85.5175098035
 10
155.0321963122
 20
85.5531994263
 10
155.0522581217
 20
85.58922775
 10
155.0710471008
 20
85.625568198
 10
155.0885493203
 20
85.6621937566
  0
LWPOLYLINE
  5
693
100
AcDbEntity
  8
RACCORDO
100
AcDbPolyline
 62
253
  6
CONTINUOUS
 90
16
 70
0
 10
156.2465490578
 20
84.8331122863
 10
156.2152852202
 20
84.7850993517
 10
156.1817627481
 20
84.7365153198
 10
156.1459816416
 20
84.6873601908
 10
156.108156375
 20
84.6377058022
 10
156.0680724739
 20
84.5874803163
 10
156.0250865151
 20
84.5364682207
 10
155.9792377446
 20
84.484615488
 10
155.9304869163
 20
84.4319761456
 10
155.8780728691
 20
84.3784967634
 10
155.8220369466
 20
84.3241155314
 10
155.762337805
 20
84.2688942595
 10
155.6980902517
 20
84.2129649479
 10
155.6293246237
 20
84.1562436718
 10
155.5560105838
 20
84.098814356
 10
155.5427376604
 20
84.0890912215
  0
LINE
  5
694
100
AcDbEntity
  8
0
100
AcDbLine
 62
7
  6
CONTINUOUS
 10
154.8803617143
 20
85.3488278371
 11
155.0885493203
 21
85.6621937566
  0
LWPOLYLINE
  5
695
100
AcDbEntity
  8
0
100
AcDbPolyline
 62
7
  6
CONTINUOUS
 90
34
 70
0
 10
153.128521538
 20
86.8307441033
 10
153.1519847989
 20
86.8626520602
 10
153.175496412
 20
86.8943126402
 10
153.1990563775
 20
86.9257258432
 10
153.2226877322
 20
86.9569218151
 10
153.2463674391
 20
86.9878704101
 10
153.2700263877
 20
87.0184811912
 10
153.2936585338
 20
87.0487433843
 10
153.3172699215
 20
87.0786677635
 10
153.3408095728
 20
87.1081962143
 10
153.3642553915
 20
87.1373004095
 10
153.3876294737
 20
87.1660086762
 10
153.4109471293
 20
87.1943478815
 10
153.4341920839
 20
87.2223005658
 10
153.4573806119
 20
87.2498841886
 10
153.4805768467
 20
87.2771779957
 10
153.5038046083
 20
87.3042114725
 10
153.5270400767
 20
87.3309551335
 10
153.5502759257
 20
87.3573997682
 10
153.5735273571
 20
87.3835611707
 10
153.596779169
 20
87.4094235469
 10
153.6199784297
 20
87.4349303031
 10
153.64310617
 20
87.4600595884
 10
153.6661813591
 20
87.4848332536
 10
153.6892079724
 20
87.5092602579
 10
153.7121772205
 20
87.5333323547
 10
153.7350978928
 20
87.5570577905
 10
153.7580003323
 20
87.5804702635
 10
153.7808848798
 20
87.6035717956
 10
153.8037511945
 20
87.626360365
 10
153.8266285965
 20
87.6488636044
 10
153.8495268593
 20
87.6710907248
 10
153.8724362094
 20
87.6930325152
 10
153.8953566468
 20
87.7146889757
  0
LWPOLYLINE
  5
696
100
AcDbEntity
  8
0
100
AcDbPolyline
 62
7
  6
CONTINUOUS
 90
6
 70
0
 10
154.8859982449
 20
85.3450705152
 10
154.9133502811
 20
85.3786708316
 10
154.9395331366
 20
85.4127403473
 10
154.9645273235
 20
85.447253756
 10
154.9883143708
 20
85.4821856244
 10
154.9907361411
 20
85.4858688943
  0
LINE
  5
697
100
AcDbEntity
  8
TRASH
100
AcDbLine
 62
7
  6
CONTINUOUS
 10
152.5576249597
 20
85.4963001736
 11
152.5870011705
 21
85.527198298
  0
LINE
  5
698
100
AcDbEntity
  8
0
100
AcDbLine
 62
7
  6
CONTINUOUS
 10
153.8387913889
 20
86.3966929576
 11
153.7085123101
 21
86.261790668
  0
LWPOLYLINE
  5
699
100
AcDbEntity
  8
0
100
AcDbPolyline
 62
7
  6
CONTINUOUS
 90
34
 70
0
 10
154.9641601454
 20
87.3864697758
 10
154.9412394822
 20
87.3648131028
 10
154.9183298703
 20
87.3428710566
 10
154.8954313099
 20
87.3206436372
 10
154.8725535617
 20
87.2981400437
 10
154.8496868649
 20
87.2753510769
 10
154.826801937
 20
87.2522491398
 10
154.8038991183
 20
87.2288362514
 10
154.7809780685
 20
87.2051103928
 10
154.7580084846
 20
87.1810379093
 10
154.7349815868
 20
87.1566105633
 10
154.7119061549
 20
87.1318365925
 10
154.6887782246
 20
87.1067070553
 10
154.665578849
 20
87.0812001261
 10
154.642326975
 20
87.0553376306
 10
154.619075479
 20
87.0291761036
 10
154.5958395479
 20
87.0027313243
 10
154.5726039948
 20
86.9759875137
 10
154.5493761358
 20
86.9489538695
 10
154.5261797608
 20
86.9216598407
 10
154.5029910798
 20
86.8940759783
 10
154.4797460384
 20
86.8661231335
 10
154.4564283794
 20
86.8377838651
 10
154.43305436
 20
86.8090756142
 10
154.409608697
 20
86.7799715562
 10
154.3860693209
 20
86.7504433975
 10
154.3624583013
 20
86.7205194317
 10
154.3388265632
 20
86.690257714
 10
154.3151680704
 20
86.659647484
 10
154.2914888591
 20
86.6286995021
 10
154.2678579624
 20
86.5975041044
 10
154.2442983916
 20
86.5660914028
 10
154.2207871355
 20
86.5344312854
 10
154.197324194
 20
86.5025237522
  0
LWPOLYLINE
  5
69A
100
AcDbEntity
  8
0
100
AcDbPolyline
 62
7
  6
CONTINUOUS
 90
11
 70
0
 10
153.8953566468
 20
87.7146889757
 10
153.9002798362
 20
87.7190734701
 10
153.9051218206
 20
87.7229288189
 10
153.9098826
 20
87.7262550221
 10
153.9145752443
 20
87.7290586367
 10
153.9191866837
 20
87.7313331056
 10
153.9236777083
 20
87.7330587576
 10
153.9280471251
 20
87.734230869
 10
153.9322961272
 20
87.7348541635
 10
153.9363890842
 20
87.7349231416
 10
153.9379058948
 20
87.7348023054
  0
LWPOLYLINE
  5
69B
100
AcDbEntity
  8
TRASH
100
AcDbPolyline
 62
7
  6
CONTINUOUS
 90
15
 70
0
 10
153.2696980533
 20
85.4120217078
 10
153.2972280051
 20
85.4352086115
 10
153.3250525399
 20
85.4593769709
 10
153.3532928077
 20
85.4845698806
 10
153.3820693851
 20
85.5107232064
 10
153.411481514
 20
85.537957079
 10
153.4416459693
 20
85.5665791179
 10
153.4727159981
 20
85.5965687643
 10
153.5047913273
 20
85.6279544831
 10
153.5379688378
 20
85.6611113042
 10
153.572433923
 20
85.6960685078
 10
153.6082691868
 20
85.7327685474
 10
153.6454469596
 20
85.771463431
 10
153.6840273454
 20
85.8122337804
 10
153.7658763916
 20
85.8996785545
  0
LWPOLYLINE
  5
69C
100
AcDbEntity
  8
RACCORDO
100
AcDbPolyline
 62
7
  6
CONTINUOUS
 90
8
 70
0
 10
155.4451728329
 20
84.1190524349
 10
155.4721129602
 20
84.1386746959
 10
155.5969187952
 20
84.2398980244
 10
155.7140465452
 20
84.3458065833
 10
155.823051455
 20
84.4559842158
 10
155.9235340874
 20
84.5700020784
 10
156.015143949
 20
84.6874282582
 10
156.0975651145
 20
84.807814758
  0
LINE
  5
69D
100
AcDbEntity
  8
0
100
AcDbLine
 62
7
  6
CONTINUOUS
 10
153.614276227
 20
85.5005581904
 11
153.514799448
 21
85.4338005712
  0
LINE
  5
69E
100
AcDbEntity
  8
0
100
AcDbLine
 62
7
  6
CONTINUOUS
 10
153.2603811841
 20
85.987263754
 11
153.1768158972
 21
85.9343284202
  0
LINE
  5
69F
100
AcDbEntity
  8
0
100
AcDbLine
 62
7
  6
CONTINUOUS
 10
153.3650919676
 20
86.0528594654
 11
153.2603811841
 21
85.987263754
  0
LWPOLYLINE
  5
6A0
100
AcDbEntity
  8
0
100
AcDbPolyline
 62
253
  6
CONTINUOUS
 90
11
 70
0
 10
154.8986313581
 20
84.2868900269
 10
154.9757638502
 20
84.3347203176
 10
155.0754904049
 20
84.4025219976
 10
155.1710272843
 20
84.4736724279
 10
155.2620350916
 20
84.547907026
 10
155.3482389914
 20
84.6249691754
 10
155.429519714
 20
84.704718131
 10
155.5057874557
 20
84.7870526293
 10
155.5768835652
 20
84.8718071327
 10
155.6426012532
 20
84.9587412798
 10
155.7027792931
 20
85.0476427187
  0
LINE
  5
6A1
100
AcDbEntity
  8
0
100
AcDbLine
 62
7
  6
CONTINUOUS
 10
153.5142414635
 20
86.1452432246
 11
153.3650919676
 21
86.0528594654
  0
LINE
  5
6A2
100
AcDbEntity
  8
0
100
AcDbLine
 62
7
  6
CONTINUOUS
 10
153.6877971064
 20
86.251686201
 11
153.5142414635
 21
86.1452432246
  0
LINE
  5
6A3
100
AcDbEntity
  8
0
100
AcDbLine
 62
7
  6
CONTINUOUS
 10
153.0277913835
 20
86.7724990238
 11
153.0613194671
 21
86.7921676911
  0
LINE
  5
6A4
100
AcDbEntity
  8
0
100
AcDbLine
 62
7
  6
CONTINUOUS
 10
153.0613194671
 20
86.7921676911
 11
153.0948856478
 21
86.811562528
  0
LINE
  5
6A5
100
AcDbEntity
  8
0
100
AcDbLine
 62
7
  6
CONTINUOUS
 10
153.0948856478
 20
86.811562528
 11
153.128521538
 21
86.8307441033
  0
LWPOLYLINE
  5
6A6
100
AcDbEntity
  8
0
100
AcDbPolyline
 62
253
  6
CONTINUOUS
 90
36
 70
0
 10
154.6253414435
 20
84.3708147121
 10
154.6632488795
 20
84.3898330248
 10
154.7773126749
 20
84.4535954379
 10
154.8870444734
 20
84.5217006634
 10
154.9921089153
 20
84.593940573
 10
155.0921848682
 20
84.6700943621
 10
155.1869664961
 20
84.7499292832
 10
155.2761642472
 20
84.8332014262
 10
155.3595056342
 20
84.9196564016
 10
155.4367360132
 20
85.0090300605
 10
155.507619373
 20
85.1010492922
 10
155.5719391157
 20
85.1954329194
 10
155.6294987113
 20
85.2918925603
 10
155.6801222644
 20
85.3901334554
 10
155.7236550632
 20
85.4898553627
 10
155.7599640794
 20
85.5907535149
 10
155.7889384005
 20
85.6925196576
 10
155.8104895195
 20
85.7948429378
 10
155.8245515779
 20
85.8974107698
 10
155.8310815751
 20
85.9999096718
 10
155.8300595491
 20
86.1020263301
 10
155.8214886425
 20
86.2034486488
 10
155.8053950578
 20
86.3038667894
 10
155.7818279587
 20
86.4029739987
 10
155.7508593331
 20
86.5004674877
 10
155.7125838109
 20
86.5960493042
 10
155.6671183676
 20
86.6894273323
 10
155.6146019459
 20
86.7803162249
 10
155.5551950106
 20
86.868438284
 10
155.4890790811
 20
86.9535242561
 10
155.4164561833
 20
87.0353141522
 10
155.3375482266
 20
87.1135580541
 10
155.2525963135
 20
87.1880168886
 10
155.1618600198
 20
87.2584631404
 10
155.065616603
 20
87.324681549
 10
154.9641601454
 20
87.3864697758
  0
LINE
  5
6A7
100
AcDbEntity
  8
0
100
AcDbLine
 62
7
  6
CONTINUOUS
 10
153.7085123101
 20
86.261790668
 11
153.6877971064
 21
86.251686201
  0
LWPOLYLINE
  5
6A8
100
AcDbEntity
  8
ASSI
100
AcDbPolyline
 62
7
  6
CONTINUOUS
 90
21
 70
0
 10
94.9789232393
 20
131.644317097
 10
95.2850761401
 20
131.6525594422
 10
95.5866672442
 20
131.6803331245
 10
95.8836965516
 20
131.7276381439
 10
96.1784493995
 20
131.7951644078
 10
96.4686404506
 20
131.8822220088
 10
96.7474136936
 20
131.9867412248
 10
97.0144958714
 20
132.1091361024
 10
97.2701602411
 20
132.248992595
 10
97.5083705628
 20
132.4029988415
 10
97.7287113608
 20
132.5714902422
 10
97.9315981107
 20
132.7541313968
 10
98.112240999
 20
132.9466042425
 10
98.2701115585
 20
133.1491419549
 10
98.4057382564
 20
133.3615113585
 10
98.5159166806
 20
133.5786948637
 10
98.6000426658
 20
133.8008071153
 10
98.6587203772
 20
134.0277334685
 10
98.6905578981
 20
134.2541123994
 10
98.6949178417
 20
134.4799318314
 10
98.6763057545
 20
134.6799489994
  0
LWPOLYLINE
  5
6A9
100
AcDbEntity
  8
0
100
AcDbPolyline
 62
7
  6
CONTINUOUS
 90
12
 70
0
 10
95.3745948144
 20
136.6002236189
 10
95.5632730137
 20
136.5896974433
 10
95.7461409671
 20
136.5653071836
 10
95.9230241143
 20
136.5266364371
 10
96.0940970155
 20
136.4741016065
 10
96.2542701196
 20
136.4092656436
 10
96.4032160897
 20
136.331759062
 10
96.5412622627
 20
136.2419513481
 10
96.664301097
 20
136.1425139136
 10
96.7709634122
 20
136.0343372289
 10
96.8626183889
 20
135.9165308236
 10
96.9392660269
 20
135.7890946975
  0
LWPOLYLINE
  5
6AA
100
AcDbEntity
  8
RACCORDO
100
AcDbPolyline
 62
7
  6
CONTINUOUS
 90
16
 70
0
 10
92.0351383661
 20
144.6248110157
 10
92.1213309158
 20
144.6050783542
 10
92.2074961873
 20
144.5951177514
 10
92.2936341805
 20
144.5949292073
 10
92.3814471287
 20
144.6048544745
 10
92.4692327987
 20
144.6245518005
 10
92.5518844907
 20
144.6529959271
 10
92.6294852848
 20
144.6910047839
 10
92.701952101
 20
144.7377604414
 10
92.7639289991
 20
144.7897838526
 10
92.8143590802
 20
144.847055914
 10
92.8542992434
 20
144.9095957292
 10
92.8815642454
 20
144.973981562
 10
92.895464171
 20
145.0407689458
 10
92.8966889354
 20
145.1094023471
 10
92.8945036992
 20
145.1300615911
  0
LINE
  5
6AB
100
AcDbEntity
  8
0
100
AcDbLine
 62
7
  6
CONTINUOUS
 10
179.0968595495
 20
77.7310671958
 11
179.0721593883
 21
77.7907668056
  0
LINE
  5
6AC
100
AcDbEntity
  8
0
100
AcDbLine
 62
7
  6
CONTINUOUS
 10
179.9693369298
 20
77.2835295031
 11
179.9984519643
 21
77.2122967889
  0
LWPOLYLINE
  5
6AD
100
AcDbEntity
  8
0
100
AcDbPolyline
 62
7
  6
CONTINUOUS
 90
4
 70
0
 10
180.3467428432
 20
77.8791200532
 10
180.3310743158
 20
77.9206771637
 10
180.2913002176
 20
77.9842499565
 10
180.238081645
 20
78.0448745525
  0
LWPOLYLINE
  5
6AE
100
AcDbEntity
  8
0
100
AcDbPolyline
 62
7
  6
CONTINUOUS
 90
3
 70
0
 10
178.853548696
 20
76.998768507
 10
178.8654607381
 20
76.9478993576
 10
178.8760926416
 20
76.9236439594
  0
LWPOLYLINE
  5
6AF
100
AcDbEntity
  8
0
100
AcDbPolyline
 62
7
  6
CONTINUOUS
 90
3
 70
0
 10
179.7445605879
 20
77.0269963382
 10
179.746964584
 20
76.999271713
 10
179.7451588518
 20
76.9538979842
  0
LINE
  5
6B0
100
AcDbEntity
  8
0
100
AcDbLine
 62
7
  6
CONTINUOUS
 10
179.0653968706
 20
77.8249280617
 11
179.0634449706
 21
77.855279646
  0
LINE
  5
6B1
100
AcDbEntity
  8
0
100
AcDbLine
 62
7
  6
CONTINUOUS
 10
161.8987942878
 20
82.1372078085
 11
166.1043654863
 21
90.143892361
  0
LWPOLYLINE
  5
6B2
100
AcDbEntity
  8
DRAFT
100
AcDbPolyline
 62
7
  6
CONTINUOUS
 90
18
 70
0
 10
156.0006146195
 20
83.9484816433
 10
156.0386184511
 20
83.9789625351
 10
156.1752657361
 20
84.1002083955
 10
156.3029794415
 20
84.2260111583
 10
156.4220617242
 20
84.3565393049
 10
156.5317417098
 20
84.4909496752
 10
156.6321165629
 20
84.6295157142
 10
156.723089119
 20
84.7719639768
 10
156.8035970103
 20
84.9166309674
 10
156.8734135409
 20
85.0632830184
 10
156.9327654067
 20
85.2121537974
 10
156.9812703268
 20
85.3622808108
 10
157.0189051417
 20
85.5139324416
 10
157.0456930109
 20
85.6668403068
 10
157.0613211321
 20
85.8192367635
 10
157.0656686043
 20
85.9708700112
 10
157.0588563286
 20
86.1219918505
 10
157.0510270662
 20
86.1991542291
  0
LINE
  5
6B3
100
AcDbEntity
  8
0
100
AcDbLine
 62
7
  6
CONTINUOUS
 10
100.8500684834
 20
154.9786571195
 11
111.0649277258
 21
151.8417728073
  0
LINE
  5
6B4
100
AcDbEntity
  8
0
100
AcDbLine
 62
7
  6
CONTINUOUS
 10
113.819875607
 20
150.9957550028
 11
140.0318126226
 21
142.9463230854
  0
LINE
  5
6B5
100
AcDbEntity
  8
0
100
AcDbLine
 62
7
  6
CONTINUOUS
 10
142.9447709423
 20
142.051781806
 11
175.6585959073
 21
132.0056830894
  0
LINE
  5
6B6
100
AcDbEntity
  8
0
100
AcDbLine
 62
7
  6
CONTINUOUS
 10
178.571554227
 20
131.11114181
 11
204.941501681
 21
123.0131864178
  0
LINE
  5
6B7
100
AcDbEntity
  8
0
100
AcDbLine
 62
7
  6
CONTINUOUS
 10
207.6964495623
 20
122.1671686133
 11
217.0983849056
 21
119.2799253549
  0
LINE
  5
6B8
100
AcDbEntity
  8
0
100
AcDbLine
 62
7
  6
CONTINUOUS
 10
100.7863149959
 20
156.7124216905
 11
110.8005804982
 21
153.6371377725
  0
LINE
  5
6B9
100
AcDbEntity
  8
0
100
AcDbLine
 62
7
  6
CONTINUOUS
 10
114.7351197783
 20
152.4288788772
 11
139.767465395
 21
144.7416880506
  0
LINE
  5
6BA
100
AcDbEntity
  8
0
100
AcDbLine
 62
7
  6
CONTINUOUS
 10
143.8600151136
 20
143.4849056805
 11
175.3942486797
 21
133.8010480546
  0
LINE
  5
6BB
100
AcDbEntity
  8
0
100
AcDbLine
 62
7
  6
CONTINUOUS
 10
179.4867983983
 20
132.5442656845
 11
204.6771544534
 21
124.8085513831
  0
LINE
  5
6BC
100
AcDbEntity
  8
0
100
AcDbLine
 62
7
  6
CONTINUOUS
 10
208.6116937336
 20
123.6002924878
 11
218.0136290769
 21
120.7130492294
  0
LINE
  5
6BD
100
AcDbEntity
  8
ASSI
100
AcDbLine
 62
7
  6
CONTINUOUS
 10
194.1900072015
 20
106.3603482902
 11
193.9930511642
 21
106.5230905162
  0
LWPOLYLINE
  5
6BE
100
AcDbEntity
  8
ASSI
100
AcDbPolyline
 62
7
  6
CONTINUOUS
 90
4
 70
0
 10
188.4984630547
 20
103.2865405987
 10
188.6475744095
 20
103.1022301041
 10
188.8206081056
 20
102.9287037438
 10
188.989291841
 20
102.7893225552
  0
LWPOLYLINE
  5
6BF
100
AcDbEntity
  8
0
100
AcDbPolyline
 62
7
  6
CONTINUOUS
 90
3
 70
0
 10
188.1022554162
 20
76.4287778566
 10
188.0730046059
 20
76.4985977666
 10
188.010144419
 20
76.6025575036
  0
LWPOLYLINE
  5
6C0
100
AcDbEntity
  8
0
100
AcDbPolyline
 62
7
  6
CONTINUOUS
 90
3
 70
0
 10
180.3291593209
 20
78.0113524869
 10
180.3440185488
 20
77.950714898
 10
180.3449198933
 20
77.9446545916
  0
LWPOLYLINE
  5
6C1
100
AcDbEntity
  8
0
100
AcDbPolyline
 62
7
  6
CONTINUOUS
 90
3
 70
0
 10
179.7244370921
 20
77.1619310213
 10
179.7148641463
 20
77.2017251907
 10
179.6973353433
 20
77.2429825308
  0
LINE
  5
6C2
100
AcDbEntity
  8
0
100
AcDbLine
 62
7
  6
CONTINUOUS
 10
179.3597529512
 20
77.6525254925
 11
179.3512961985
 21
77.6882023052
  0
LWPOLYLINE
  5
6C3
100
AcDbEntity
  8
0
100
AcDbPolyline
 62
7
  6
CONTINUOUS
 90
5
 70
0
 10
179.3322276413
 20
77.8233367512
 10
179.3413887988
 20
77.7834649753
 10
179.3613992404
 20
77.7439396944
 10
179.39045315
 20
77.7066698364
 10
179.4252400947
 20
77.6738707373
  0
LWPOLYLINE
  5
6C4
100
AcDbEntity
  8
0
100
AcDbPolyline
 62
7
  6
CONTINUOUS
 90
3
 70
0
 10
180.064580392
 20
77.911251481
 10
180.0567197546
 20
77.9474526445
 10
180.0417486597
 20
77.9847641584
  0
LWPOLYLINE
  5
6C5
100
AcDbEntity
  8
RACCORDO
100
AcDbPolyline
 62
253
  6
CONTINUOUS
 90
7
 70
0
 10
187.4318502686
 20
52.5682010331
 10
187.4587732186
 20
52.4395363574
 10
187.4950912007
 20
52.3277671591
 10
187.5404063079
 20
52.2341180037
 10
187.5942220591
 20
52.1596149297
 10
187.6559488382
 20
52.1050742074
 10
187.7291615655
 20
52.0697484714
  0
LINE
  5
6C6
100
AcDbEntity
  8
0
100
AcDbLine
 62
7
  6
CONTINUOUS
 10
179.9984519643
 20
77.2122967889
 11
180.0065925224
 21
77.1724018895
  0
LINE
  5
6C7
100
AcDbEntity
  8
0
100
AcDbLine
 62
7
  6
CONTINUOUS
 10
179.0721593883
 20
77.7907668056
 11
179.0653968706
 21
77.8249280617
  0
LINE
  5
6C8
100
AcDbEntity
  8
0
100
AcDbLine
 62
7
  6
CONTINUOUS
 10
176.2301173083
 20
81.8937683655
 11
176.8712624673
 21
77.5393078832
  0
LINE
  5
6C9
100
AcDbEntity
  8
0
100
AcDbLine
 62
7
  6
CONTINUOUS
 10
176.911477069
 20
78.870222425
 11
176.9313537015
 21
78.7352264583
  0
LINE
  5
6CA
100
AcDbEntity
  8
0
100
AcDbLine
 62
7
  6
CONTINUOUS
 10
177.1286116269
 20
79.1955839885
 11
177.1484882593
 21
79.0605880219
  0
LINE
  5
6CB
100
AcDbEntity
  8
0
100
AcDbLine
 62
7
  6
CONTINUOUS
 10
177.782125988
 20
78.9575675362
 11
177.8020026204
 21
78.8225715696
  0
LINE
  5
6CC
100
AcDbEntity
  8
0
100
AcDbLine
 62
7
  6
CONTINUOUS
 10
178.8535459763
 20
76.9987679652
 11
178.864063221
 21
76.9273380779
  0
LINE
  5
6CD
100
AcDbEntity
  8
0
100
AcDbLine
 62
7
  6
CONTINUOUS
 10
178.7157463486
 20
78.4181750739
 11
178.735622981
 21
78.2831791072
  0
LINE
  5
6CE
100
AcDbEntity
  8
ASSI
100
AcDbLine
 62
7
  6
CONTINUOUS
 10
178.447440239
 20
82.5371643063
 11
178.4673168715
 21
82.4021683396
  0
LINE
  5
6CF
100
AcDbEntity
  8
0
100
AcDbLine
 62
7
  6
CONTINUOUS
 10
179.1905988214
 20
77.6209840357
 11
179.2104754538
 21
77.4859880691
  0
LINE
  5
6D0
100
AcDbEntity
  8
ASSI
100
AcDbLine
 62
7
  6
CONTINUOUS
 10
178.8201756618
 20
82.422700869
 11
178.8400522942
 21
82.2877049023
  0
LINE
  5
6D1
100
AcDbEntity
  8
0
100
AcDbLine
 62
7
  6
CONTINUOUS
 10
179.8610472576
 20
77.4179223899
 11
179.8809238901
 21
77.2829264233
  0
LINE
  5
6D2
100
AcDbEntity
  8
ASSI
100
AcDbLine
 62
7
  6
CONTINUOUS
 10
179.2682385738
 20
82.2851050895
 11
179.2881152062
 21
82.1501091229
  0
LINE
  5
6D3
100
AcDbEntity
  8
ASSI
100
AcDbLine
 62
7
  6
CONTINUOUS
 10
179.5818998152
 20
81.181831461
 11
179.6017764476
 21
81.0468354944
  0
LINE
  5
6D4
100
AcDbEntity
  8
0
100
AcDbLine
 62
7
  6
CONTINUOUS
 10
180.2057934615
 20
76.9792809145
 11
180.2256700939
 21
76.8442849478
  0
LINE
  5
6D5
100
AcDbEntity
  8
ASSI
100
AcDbLine
 62
7
  6
CONTINUOUS
 10
179.0325991769
 20
85.4429010266
 11
179.0524758094
 21
85.3079050599
  0
LINE
  5
6D6
100
AcDbEntity
  8
0
100
AcDbLine
 62
7
  6
CONTINUOUS
 10
180.4139001293
 20
76.8888127111
 11
180.4337767617
 21
76.7538167444
  0
LINE
  5
6D7
100
AcDbEntity
  8
ASSI
100
AcDbLine
 62
7
  6
CONTINUOUS
 10
179.4883048188
 20
83.6947031817
 11
179.5081814512
 21
83.5597072151
  0
LINE
  5
6D8
100
AcDbEntity
  8
ASSI
100
AcDbLine
 62
7
  6
CONTINUOUS
 10
179.7380303497
 20
84.1701373841
 11
179.7579069821
 21
84.0351414175
  0
LINE
  5
6D9
100
AcDbEntity
  8
0
100
AcDbLine
 62
7
  6
CONTINUOUS
 10
180.9246717139
 20
76.5079876228
 11
180.9445483463
 21
76.3729916562
  0
LINE
  5
6DA
100
AcDbEntity
  8
0
100
AcDbLine
 62
7
  6
CONTINUOUS
 10
181.0232641932
 20
76.7016829105
 11
181.0431408257
 21
76.5666869439
  0
LINE
  5
6DB
100
AcDbEntity
  8
0
100
AcDbLine
 62
7
  6
CONTINUOUS
 10
181.2645189723
 20
76.6275959051
 11
181.2843956047
 21
76.4925999385
  0
LINE
  5
6DC
100
AcDbEntity
  8
ASSI
100
AcDbLine
 62
7
  6
CONTINUOUS
 10
180.1860932617
 20
84.0325416047
 11
180.2059698941
 21
83.897545638
  0
LINE
  5
6DD
100
AcDbEntity
  8
ASSI
100
AcDbLine
 62
7
  6
CONTINUOUS
 10
180.0954419065
 20
85.6443073543
 11
180.115318539
 21
85.5093113876
  0
LINE
  5
6DE
100
AcDbEntity
  8
ASSI
100
AcDbLine
 62
7
  6
CONTINUOUS
 10
180.2518213774
 20
85.1483066029
 11
180.2716980099
 21
85.0133106362
  0
LINE
  5
6DF
100
AcDbEntity
  8
0
100
AcDbLine
 62
7
  6
CONTINUOUS
 10
181.4329807974
 20
77.4817124341
 11
181.4528574298
 21
77.3467164675
  0
LINE
  5
6E0
100
AcDbEntity
  8
0
100
AcDbLine
 62
7
  6
CONTINUOUS
 10
181.6501153552
 20
77.8070739977
 11
181.6699919877
 21
77.672078031
  0
LWPOLYLINE
  5
6E1
100
AcDbEntity
  8
RACCORDO
100
AcDbPolyline
 62
7
  6
CONTINUOUS
 90
10
 70
0
 10
178.571554227
 20
131.11114181
 10
178.7673245694
 20
129.2640298141
 10
178.9403705688
 20
127.3862763674
 10
179.0906922253
 20
125.47788147
 10
179.218301328
 20
123.5383326895
 10
179.3231860879
 20
121.5681424583
 10
179.4053111371
 20
119.568848074
 10
179.4646646865
 20
117.5409619691
 10
179.5012585254
 20
115.4839717111
 10
179.5150926536
 20
113.3978773001
  0
LWPOLYLINE
  5
6E2
100
AcDbEntity
  8
0
100
AcDbPolyline
 62
7
  6
CONTINUOUS
 90
3
 70
0
 10
180.0841714261
 20
77.7762007431
 10
180.0864228564
 20
77.7485172568
 10
180.0832162168
 20
77.7056922828
  0
LINE
  5
6E3
100
AcDbEntity
  8
ASSI
100
AcDbLine
 62
7
  6
CONTINUOUS
 10
179.8759552718
 20
82.2186994973
 11
179.9042928705
 21
81.8446070479
  0
LWPOLYLINE
  5
6E4
100
AcDbEntity
  8
DRAFT
100
AcDbPolyline
 62
7
  6
CONTINUOUS
 90
7
 70
0
 10
183.9418627684
 20
76.6854950714
 10
183.9292276097
 20
76.8579028657
 10
183.9380767736
 20
77.05519464
 10
183.9711746112
 20
77.2505708281
 10
184.0284782278
 20
77.4420211149
 10
184.1100305182
 20
77.6315558156
 10
184.2158314822
 20
77.8191749299
  0
LWPOLYLINE
  5
6E5
100
AcDbEntity
  8
0
100
AcDbPolyline
 62
7
  6
CONTINUOUS
 90
3
 70
0
 10
180.0065925224
 20
77.1724018895
 10
180.0091964339
 20
77.1366584091
 10
180.0032543691
 20
77.058329182
  0
LWPOLYLINE
  5
6E6
100
AcDbEntity
  8
0
100
AcDbPolyline
 62
7
  6
CONTINUOUS
 90
8
 70
0
 10
180.3449198933
 20
77.9446545916
 10
180.3478538319
 20
77.8897324528
 10
180.3413952721
 20
77.8280389233
 10
180.3262032646
 20
77.7684063584
 10
180.3021317494
 20
77.7110229651
 10
180.2693267866
 20
77.6557005365
 10
180.229786951
 20
77.6046465009
 10
180.1839586385
 20
77.5576504091
  0
LWPOLYLINE
  5
6E7
100
AcDbEntity
  8
RACCORDO
100
AcDbPolyline
 62
7
  6
CONTINUOUS
 90
75
 70
0
 10
179.5150926505
 20
113.3978773212
 10
179.5147822581
 20
113.3106309419
 10
179.5136339921
 20
113.2258196117
 10
179.5117090079
 20
113.1434498598
 10
179.5090774589
 20
113.0635937309
 10
179.5057877998
 20
112.986183536
 10
179.5018576901
 20
112.91101636
 10
179.4973295645
 20
112.838084496
 10
179.4922508968
 20
112.767396192
 10
179.4866310136
 20
112.6987772027
 10
179.4805040809
 20
112.6322209283
 10
179.4739071394
 20
112.5677324707
 10
179.4668424108
 20
112.5051598795
 10
179.4593380667
 20
112.444497604
 10
179.451423286
 20
112.3857495107
 10
179.4430932204
 20
112.3287826136
 10
179.4343717959
 20
112.2735926967
 10
179.425282032
 20
112.2201835191
 10
179.4158110082
 20
112.1684391937
 10
179.4059799492
 20
112.118357236
 10
179.3958067841
 20
112.0699421964
 10
179.3852682038
 20
112.0230945092
 10
179.3743842602
 20
111.977813472
 10
179.3631684075
 20
111.9341058512
 10
179.3515829035
 20
111.8918902106
 10
179.3396489212
 20
111.8511685268
 10
179.3273751865
 20
111.8119508235
 10
179.31470149
 20
111.7741767518
 10
179.3016536835
 20
111.7378507524
 10
179.2882344986
 20
111.7029894252
 10
179.2743460826
 20
111.6695635556
 10
179.2600234922
 20
111.6375745132
 10
179.2452622813
 20
111.6070566138
 10
179.2299040246
 20
111.5780498427
 10
179.2140114101
 20
111.5505522954
 10
179.1975607537
 20
111.5246252742
 10
179.1802668291
 20
111.5004378424
 10
179.1622499037
 20
111.4779440127
 10
179.1434511714
 20
111.4572947582
 10
179.12333182
 20
111.4390215307
 10
179.1017994616
 20
111.4229439501
 10
179.0790765411
 20
111.4094652455
 10
179.0551197524
 20
111.4000336106
 10
179.0297443629
 20
111.3949134247
 10
179.0033515884
 20
111.3940694669
 10
178.9767467631
 20
111.3983957886
 10
178.9498291139
 20
111.4085223481
 10
178.9228655692
 20
111.4238295575
 10
178.8970704378
 20
111.4431073525
 10
178.8726399494
 20
111.4663531256
 10
178.8493006481
 20
111.4933071874
 10
178.8274300203
 20
111.5222338379
 10
178.8071999955
 20
111.5525523712
 10
178.7882691783
 20
111.5845969801
 10
178.7702600378
 20
111.6180333498
 10
178.753096951
 20
111.652727687
 10
178.7367764377
 20
111.6887006529
 10
178.7210966918
 20
111.7259089583
 10
178.7060185981
 20
111.7643026257
 10
178.6915394342
 20
111.8038663857
 10
178.6775502672
 20
111.8446364511
 10
178.6640346783
 20
111.8865824119
 10
178.6509888996
 20
111.9296921582
 10
178.6383469045
 20
111.9740433215
 10
178.6261030342
 20
112.0196189603
 10
178.6142580578
 20
112.0664055306
 10
178.6027724247
 20
112.1144935485
 10
178.5916483628
 20
112.1638688955
 10
178.5808898862
 20
112.2145211946
 10
178.5704729625
 20
112.2665510162
 10
178.5604055117
 20
112.3199445705
 10
178.550695003
 20
112.3746936122
 10
178.5413276189
 20
112.4309095374
 10
178.5323158742
 20
112.4885781051
 10
178.5288810108
 20
112.5115906758
  0
LWPOLYLINE
  5
6E8
100
AcDbEntity
  8
0
100
AcDbPolyline
 62
7
  6
CONTINUOUS
 90
4
 70
0
 10
178.566660729
 20
77.018667502
 10
178.5681304692
 20
77.0786181363
 10
178.5870134725
 20
77.1604139052
 10
178.6150815572
 20
77.2375075135
  0
LWPOLYLINE
  5
6E9
100
AcDbEntity
  8
0
100
AcDbPolyline
 62
7
  6
CONTINUOUS
 90
4
 70
0
 10
179.0634449706
 20
77.855279646
 10
179.0695102028
 20
77.9228978397
 10
179.0867368043
 20
77.9884977536
 10
179.1147661027
 20
78.0513005326
  0
LWPOLYLINE
  5
6EA
100
AcDbEntity
  8
0
100
AcDbPolyline
 62
7
  6
CONTINUOUS
 90
3
 70
0
 10
178.8548271891
 20
77.0899684356
 10
178.8504420123
 20
77.0423476152
 10
178.853548696
 20
76.998768507
  0
LINE
  5
6EB
100
AcDbEntity
  8
0
100
AcDbLine
 62
7
  6
CONTINUOUS
 10
177.7092529777
 20
89.5705146695
 11
172.1511288874
 21
78.9888151771
  0
LWPOLYLINE
  5
6EC
100
AcDbEntity
  8
ASSI
100
AcDbPolyline
 62
7
  6
CONTINUOUS
 90
7
 70
0
 10
191.1712381081
 20
102.1045891078
 10
191.2289927705
 20
102.149462443
 10
191.2831897532
 20
102.1968714759
 10
191.333829056
 20
102.2468162064
 10
191.380910679
 20
102.2992966346
 10
191.4244346221
 20
102.3543127604
 10
191.4644008854
 20
102.4118645838
  0
LINE
  5
6ED
100
AcDbEntity
  8
ASSI
100
AcDbLine
 62
7
  6
CONTINUOUS
 10
181.8426550465
 20
84.5772584918
 11
180.1860932617
 21
84.0325416047
  0
LINE
  5
6EE
100
AcDbEntity
  8
ASSI
100
AcDbLine
 62
7
  6
CONTINUOUS
 10
181.8625316789
 20
84.4422625251
 11
180.2059698941
 21
83.897545638
  0
LINE
  5
6EF
100
AcDbEntity
  8
ASSI
100
AcDbLine
 62
7
  6
CONTINUOUS
 10
179.9386208858
 20
83.5613970195
 11
181.5183202723
 21
84.0808398848
  0
LWPOLYLINE
  5
6F0
100
AcDbEntity
  8
0
100
AcDbPolyline
 62
7
  6
CONTINUOUS
 90
16
 70
0
 10
95.7088405096
 20
133.8624479732
 10
95.5212453333
 20
133.8161582555
 10
95.3338471706
 20
133.7840463658
 10
95.1466460215
 20
133.7661123041
 10
94.9577708086
 20
133.7624606517
 10
94.7690926093
 20
133.7729868272
 10
94.5862246559
 20
133.7973770869
 10
94.4093415087
 20
133.8360478334
 10
94.2382686075
 20
133.888582664
 10
94.0780955035
 20
133.9534186269
 10
93.9291495333
 20
134.0309252085
 10
93.7911033604
 20
134.1207329224
 10
93.668064526
 20
134.2201703569
 10
93.5614022108
 20
134.3283470416
 10
93.4697472341
 20
134.4461534469
 10
93.3930995961
 20
134.573589573
  0
LWPOLYLINE
  5
6F1
100
AcDbEntity
  8
0
100
AcDbPolyline
 62
7
  6
CONTINUOUS
 90
5
 70
0
 10
94.6235251134
 20
136.5002362973
 10
94.8111202897
 20
136.546526015
 10
94.9985184524
 20
136.5786379047
 10
95.1857196015
 20
136.5965719664
 10
95.3745948144
 20
136.6002236189
  0
LINE
  5
6F2
100
AcDbEntity
  8
ASSI
100
AcDbLine
 62
7
  6
CONTINUOUS
 10
94.7083771693
 20
136.6331008496
 11
94.4475361701
 21
136.5733436046
  0
LINE
  5
6F3
100
AcDbEntity
  8
0
100
AcDbLine
 62
7
  6
CONTINUOUS
 10
110.3661873477
 20
156.5874022811
 11
111.4349908462
 21
156.2591830812
  0
LINE
  5
6F4
100
AcDbEntity
  8
0
100
AcDbLine
 62
7
  6
CONTINUOUS
 10
204.2427613029
 20
127.7588158917
 11
205.3115648015
 21
127.4305966918
  0
LINE
  5
6F5
100
AcDbEntity
  8
0
100
AcDbLine
 62
7
  6
CONTINUOUS
 10
140.395985277
 20
150.2873284541
 11
141.4647887755
 21
149.9591092542
  0
LINE
  5
6F6
100
AcDbEntity
  8
0
100
AcDbLine
 62
7
  6
CONTINUOUS
 10
176.0227685617
 20
139.3466884581
 11
177.0915720602
 21
139.0184692582
  0
LINE
  5
6F7
100
AcDbEntity
  8
0
100
AcDbLine
 62
7
  6
CONTINUOUS
 10
221.0689023243
 20
127.1651537022
 11
207.7534539474
 21
131.2541988993
  0
LINE
  5
6F8
100
AcDbEntity
  8
0
100
AcDbLine
 62
7
  6
CONTINUOUS
 10
206.6846504489
 20
131.5824180991
 11
178.6285586122
 21
140.198172096
  0
LINE
  5
6F9
100
AcDbEntity
  8
0
100
AcDbLine
 62
7
  6
CONTINUOUS
 10
177.5597551136
 20
140.5263912959
 11
143.0017753275
 21
151.138812092
  0
LINE
  5
6FA
100
AcDbEntity
  8
0
100
AcDbLine
 62
7
  6
CONTINUOUS
 10
141.9329718289
 20
151.4670312918
 11
113.8768799922
 21
160.0827852887
  0
LINE
  5
6FB
100
AcDbEntity
  8
0
100
AcDbLine
 62
7
  6
CONTINUOUS
 10
112.8080764937
 20
160.4110044886
 11
99.4926281168
 21
164.5000496856
  0
LWPOLYLINE
  5
6FC
100
AcDbEntity
  8
0
100
AcDbPolyline
 62
7
  6
CONTINUOUS
 90
16
 70
0
 10
189.5854144648
 20
105.0338615838
 10
189.6620621029
 20
104.9064254578
 10
189.7537170795
 20
104.7886190524
 10
189.8603793948
 20
104.6804423677
 10
189.9834182291
 20
104.5810049332
 10
190.1214644021
 20
104.4911972194
 10
190.2704103722
 20
104.4136906377
 10
190.4305834762
 20
104.3488546749
 10
190.6016563775
 20
104.2963198443
 10
190.7785395246
 20
104.2576490978
 10
190.961407478
 20
104.2332588381
 10
191.1500856773
 20
104.2227326625
 10
191.3389608903
 20
104.2263843149
 10
191.5261620394
 20
104.2443183766
 10
191.7135602021
 20
104.2764302663
 10
191.9011553784
 20
104.3227199841
  0
LWPOLYLINE
  5
6FD
100
AcDbEntity
  8
DRAFT
100
AcDbPolyline
 62
7
  6
CONTINUOUS
 90
4
 70
0
 10
190.7063447903
 20
86.7301190506
 10
190.6449980332
 20
86.9046696041
 10
190.6046292757
 20
87.0930077459
 10
190.6017362402
 20
87.1137763675
  0
LINE
  5
6FE
100
AcDbEntity
  8
0
100
AcDbLine
 62
7
  6
CONTINUOUS
 10
177.0915720602
 20
139.0184692582
 11
177.2966483825
 21
138.1126167417
  0
LWPOLYLINE
  5
6FF
100
AcDbEntity
  8
RACCORDO
100
AcDbPolyline
 62
253
  6
CONTINUOUS
 90
6
 70
0
 10
187.1635641425
 20
65.8719130776
 10
187.1819202
 20
65.7779166331
 10
187.2051671582
 20
65.6924276065
 10
187.2331743651
 20
65.6159298122
 10
187.2657842588
 20
65.5488563906
 10
187.3028132493
 20
65.4915873468
  0
LWPOLYLINE
  5
700
100
AcDbEntity
  8
RACCORDO
100
AcDbPolyline
 62
7
  6
CONTINUOUS
 90
19
 70
0
 10
174.8675572846
 20
137.3794365618
 10
174.8695503885
 20
137.3676301305
 10
174.8881791915
 20
137.3032066066
 10
174.9189554818
 20
137.2434202808
 10
174.9629657248
 20
137.1882803927
 10
175.019123455
 20
137.1377777027
 10
175.0832468416
 20
137.0956427527
 10
175.1554031769
 20
137.0626703253
 10
175.2355251684
 20
137.0380656379
 10
175.3192291078
 20
137.023174885
 10
175.4073184754
 20
137.0185667728
 10
175.4989897908
 20
137.023672595
 10
175.5874489047
 20
137.038132427
 10
175.6719754977
 20
137.0625103543
 10
175.7532898893
 20
137.0962422914
 10
175.8267588881
 20
137.1372760569
 10
175.890838097
 20
137.1849275903
 10
175.9470719131
 20
137.2398809521
 10
175.9954603365
 20
137.3021361423
  0
LINE
  5
701
100
AcDbEntity
  8
DRAFT
100
AcDbLine
 62
7
  6
CONTINUOUS
 10
189.5887670667
 20
76.2043272389
 11
189.3828598927
 21
77.486959623
  0
LINE
  5
702
100
AcDbEntity
  8
RACCORDO
100
AcDbLine
 62
7
  6
CONTINUOUS
 10
174.8674584861
 20
137.3788448271
 11
178.5286473
 21
112.51317785
  0
LINE
  5
703
100
AcDbEntity
  8
RACCORDO
100
AcDbLine
 62
253
  6
CONTINUOUS
 10
175.9954603365
 20
137.3021361423
 11
179.5150926536
 21
113.3978773001
  0
LWPOLYLINE
  5
704
100
AcDbEntity
  8
0
100
AcDbPolyline
 62
253
  6
CONTINUOUS
 90
10
 70
0
 10
186.4380468966
 20
72.9380592088
 10
186.5509327035
 20
72.1421096078
 10
186.6557515355
 20
71.3488566421
 10
186.7525033928
 20
70.5583003115
 10
186.8411899023
 20
69.770428712
 10
186.9218094369
 20
68.9852537477
 10
186.9943571153
 20
68.2028111312
 10
187.0588313101
 20
67.4231127667
 10
187.1152336486
 20
66.64614675
 10
187.1635641307
 20
65.8719130812
  0
LWPOLYLINE
  5
705
100
AcDbEntity
  8
0
100
AcDbPolyline
 62
7
  6
CONTINUOUS
 90
10
 70
0
 10
178.6285586164
 20
140.1981720652
 10
178.7398707063
 20
139.3715731404
 10
178.8471985625
 20
138.5389815941
 10
178.9505421848
 20
137.7003974262
 10
179.0499066331
 20
136.8557755138
 10
179.1452868475
 20
136.0051609799
 10
179.2366676492
 20
135.1486891931
 10
179.3240439784
 20
134.2864052764
 10
179.4074208948
 20
133.4182641069
 10
179.4867983983
 20
132.5442656845
  0
LINE
  5
706
100
AcDbEntity
  8
DRAFT
100
AcDbLine
 62
7
  6
CONTINUOUS
 10
184.1259314973
 20
75.311469307
 11
183.9417774165
 21
76.6858216396
  0
LWPOLYLINE
  5
707
100
AcDbEntity
  8
ASSI
100
AcDbPolyline
 62
7
  6
CONTINUOUS
 90
7
 70
0
 10
184.9340710293
 20
76.8114770612
 10
184.927182792
 20
76.8727508819
 10
184.9255673538
 20
77.0099423857
 10
184.9426862476
 20
77.1462717681
 10
184.9785568545
 20
77.2802629434
 10
185.0331617934
 20
77.4133919974
 10
185.1065010644
 20
77.54565893
  0
LWPOLYLINE
  5
708
100
AcDbEntity
  8
DRAFT
100
AcDbPolyline
 62
7
  6
CONTINUOUS
 90
7
 70
0
 10
189.3829071919
 20
77.486810073
 10
189.4011180565
 20
77.2761089946
 10
189.3922688925
 20
77.0788172203
 10
189.3591710549
 20
76.8834410323
 10
189.3018674383
 20
76.6919907454
 10
189.220315148
 20
76.5024560448
 10
189.1145141839
 20
76.3148369305
  0
LWPOLYLINE
  5
709
100
AcDbEntity
  8
DRAFT
100
AcDbPolyline
 62
7
  6
CONTINUOUS
 90
3
 70
0
 10
190.6017362402
 20
87.1137763675
 10
190.5891010814
 20
87.2861841618
 10
190.597359785
 20
87.4703116453
  0
LWPOLYLINE
  5
70A
100
AcDbEntity
  8
RACCORDO
100
AcDbPolyline
 62
253
  6
CONTINUOUS
 90
7
 70
0
 10
187.4318539134
 20
52.5681999139
 10
187.322689262
 20
54.7394843644
 10
187.1847665512
 20
56.9211146914
 10
187.018085781
 20
59.1130908948
 10
186.8226469514
 20
61.3154129748
 10
186.5984500625
 20
63.5280809312
 10
186.3454951142
 20
65.751094764
  0
LWPOLYLINE
  5
70B
100
AcDbEntity
  8
RACCORDO
100
AcDbPolyline
 62
253
  6
CONTINUOUS
 90
7
 70
0
 10
190.1079083944
 20
53.3205155575
 10
190.0045525647
 20
55.3926057826
 10
189.8751578063
 20
57.47411361
 10
189.7197322489
 20
59.5648746416
 10
189.5382860381
 20
61.6647237611
 10
189.3308313347
 20
63.7734951474
 10
189.1600987193
 20
65.3221456611
  0
LWPOLYLINE
  5
70C
100
AcDbEntity
  8
0
100
AcDbPolyline
 62
7
  6
CONTINUOUS
 90
7
 70
0
 10
179.7451588518
 20
76.9538979842
 10
179.735601109
 20
76.9075861834
 10
179.7188449175
 20
76.8606732422
 10
179.697541134
 20
76.8157135782
 10
179.6724730412
 20
76.7727277577
 10
179.6428573566
 20
76.7316952144
 10
179.6114945093
 20
76.6978091703
  0
LINE
  5
70D
100
AcDbEntity
  8
0
100
AcDbLine
 62
7
  6
CONTINUOUS
 10
180.0032543691
 20
77.058329182
 11
179.9856778615
 21
76.982453563
  0
LWPOLYLINE
  5
70E
100
AcDbEntity
  8
0
100
AcDbPolyline
 62
7
  6
CONTINUOUS
 90
8
 70
0
 10
180.0832162168
 20
77.7056922828
 10
180.0712593118
 20
77.663350508
 10
180.0511555393
 20
77.6213705168
 10
180.0240229239
 20
77.5824908784
 10
179.9890190774
 20
77.5466289013
 10
179.946986388
 20
77.5138672769
 10
179.9015700456
 20
77.4871926485
 10
179.85341994
 20
77.4672830718
  0
LWPOLYLINE
  5
70F
100
AcDbEntity
  8
0
100
AcDbPolyline
 62
7
  6
CONTINUOUS
 90
3
 70
0
 10
178.6343654253
 20
77.1051274058
 10
178.6093589066
 20
77.0358589201
 10
178.6026349939
 20
77.0076201537
  0
LINE
  5
710
100
AcDbEntity
  8
0
100
AcDbLine
 62
7
  6
CONTINUOUS
 10
179.9856778615
 20
76.982453563
 11
179.9569717015
 21
76.9099021785
  0
LWPOLYLINE
  5
711
100
AcDbEntity
  8
0
100
AcDbPolyline
 62
7
  6
CONTINUOUS
 90
10
 70
0
 10
178.6150815572
 20
77.2375075135
 10
178.6503665593
 20
77.3089887039
 10
178.6948366427
 20
77.3757677338
 10
178.7466911047
 20
77.4353606759
 10
178.8060219187
 20
77.4875343172
 10
178.8727371113
 20
77.5325218708
 10
178.9447600601
 20
77.5685390483
 10
179.0213985576
 20
77.5949910869
 10
179.1033448114
 20
77.6124727494
 10
179.1905988214
 20
77.6209840357
  0
LINE
  5
712
100
AcDbEntity
  8
ASSI
100
AcDbLine
 62
7
  6
CONTINUOUS
 10
178.447440239
 20
82.5371643063
 11
178.2459275307
 21
82.1535189761
  0
LINE
  5
713
100
AcDbEntity
  8
ASSI
100
AcDbLine
 62
7
  6
CONTINUOUS
 10
180.0954419065
 20
85.6443073543
 11
179.8928209703
 21
85.2585521499
  0
LINE
  5
714
100
AcDbEntity
  8
ASSI
100
AcDbLine
 62
7
  6
CONTINUOUS
 10
178.4673168715
 20
82.4021683396
 11
178.3170809282
 21
82.116145098
  0
LINE
  5
715
100
AcDbEntity
  8
ASSI
100
AcDbLine
 62
7
  6
CONTINUOUS
 10
180.115318539
 20
85.5093113876
 11
179.9639743677
 21
85.2211782717
  0
LINE
  5
716
100
AcDbEntity
  8
0
100
AcDbLine
 62
7
  6
CONTINUOUS
 10
176.911477069
 20
78.870222425
 11
176.7270096753
 21
78.5190284245
  0
LINE
  5
717
100
AcDbEntity
  8
ASSI
100
AcDbLine
 62
7
  6
CONTINUOUS
 10
180.2518213774
 20
85.1483066029
 11
179.7380303497
 21
84.1701373841
  0
LINE
  5
718
100
AcDbEntity
  8
ASSI
100
AcDbLine
 62
7
  6
CONTINUOUS
 10
179.4883048188
 20
83.6947031817
 11
178.8201756618
 21
82.422700869
  0
LINE
  5
719
100
AcDbEntity
  8
0
100
AcDbLine
 62
7
  6
CONTINUOUS
 10
176.9313537015
 20
78.7352264583
 11
176.7468863077
 21
78.3840324579
  0
LINE
  5
71A
100
AcDbEntity
  8
ASSI
100
AcDbLine
 62
7
  6
CONTINUOUS
 10
180.2716980099
 20
85.0133106362
 11
179.7579069821
 21
84.0351414175
  0
LINE
  5
71B
100
AcDbEntity
  8
ASSI
100
AcDbLine
 62
7
  6
CONTINUOUS
 10
179.5081814512
 20
83.5597072151
 11
178.8400522942
 21
82.2877049023
  0
LINE
  5
71C
100
AcDbEntity
  8
0
100
AcDbLine
 62
7
  6
CONTINUOUS
 10
176.7883511926
 20
78.1024157289
 11
177.3300534756
 21
79.1337231484
  0
LINE
  5
71D
100
AcDbEntity
  8
ASSI
100
AcDbLine
 62
7
  6
CONTINUOUS
 10
179.2682385738
 20
82.2851050895
 11
179.9386208858
 21
83.5613970195
  0
LINE
  5
71E
100
AcDbEntity
  8
ASSI
100
AcDbLine
 62
7
  6
CONTINUOUS
 10
180.1860932617
 20
84.0325416047
 11
180.6998842894
 21
85.0107108234
  0
LINE
  5
71F
100
AcDbEntity
  8
0
100
AcDbLine
 62
7
  6
CONTINUOUS
 10
176.920918667
 20
77.7375013954
 11
177.0222214539
 21
77.9303643739
  0
LINE
  5
720
100
AcDbEntity
  8
0
100
AcDbLine
 62
7
  6
CONTINUOUS
 10
177.782125988
 20
78.9575675362
 11
177.6678355548
 21
78.7399783265
  0
LINE
  5
721
100
AcDbEntity
  8
0
100
AcDbLine
 62
7
  6
CONTINUOUS
 10
177.8020026204
 20
78.8225715696
 11
177.7389889523
 21
78.7026044484
  0
LINE
  5
722
100
AcDbEntity
  8
ASSI
100
AcDbLine
 62
7
  6
CONTINUOUS
 10
181.0587395174
 20
84.9005098595
 11
181.2613604536
 21
85.2862650638
  0
LINE
  5
723
100
AcDbEntity
  8
ASSI
100
AcDbLine
 62
7
  6
CONTINUOUS
 10
179.4393169998
 20
81.7870406317
 11
179.6408297081
 21
82.1706859618
  0
LINE
  5
724
100
AcDbEntity
  8
0
100
AcDbLine
 62
7
  6
CONTINUOUS
 10
179.0004114677
 20
78.3642722989
 11
179.0995429776
 21
78.5530015418
  0
LWPOLYLINE
  5
725
100
AcDbEntity
  8
ASSI
100
AcDbPolyline
 62
7
  6
CONTINUOUS
 90
6
 70
0
 10
189.0018499986
 20
104.1200943127
 10
188.9357707401
 20
103.9954908371
 10
188.89152306
 20
103.8711809959
 10
188.8691069583
 20
103.7471647889
 10
188.868881843
 20
103.6213543343
 10
188.8742501201
 20
103.5754788949
  0
LWPOLYLINE
  5
726
100
AcDbEntity
  8
ASSI
100
AcDbPolyline
 62
7
  6
CONTINUOUS
 90
6
 70
0
 10
193.7151453619
 20
107.1631339795
 10
193.7812246204
 20
107.287737455
 10
193.8254723005
 20
107.4120472963
 10
193.8478884022
 20
107.5360635033
 10
193.8481135176
 20
107.6618739579
 10
193.8427452404
 20
107.7077493973
  0
LWPOLYLINE
  5
727
100
AcDbEntity
  8
0
100
AcDbPolyline
 62
7
  6
CONTINUOUS
 90
3
 70
0
 10
179.153723248
 20
77.9483920795
 10
179.1206106345
 20
77.8891158132
 10
179.0980338777
 20
77.8291408569
  0
LWPOLYLINE
  5
728
100
AcDbEntity
  8
0
100
AcDbPolyline
 62
7
  6
CONTINUOUS
 90
4
 70
0
 10
189.8130354475
 20
105.1642064168
 10
189.7428387331
 20
105.0401214879
 10
189.6879113379
 20
104.9149842056
 10
189.6785580968
 20
104.8852227494
  0
LWPOLYLINE
  5
729
100
AcDbEntity
  8
0
100
AcDbPolyline
 62
7
  6
CONTINUOUS
 90
8
 70
0
 10
193.1975798596
 20
104.1248456172
 10
193.267776574
 20
104.2489305461
 10
193.3227039692
 20
104.3740678284
 10
193.3623620451
 20
104.5002574641
 10
193.3867976138
 20
104.6285074577
 10
193.3959638633
 20
104.7578098046
 10
193.3897203571
 20
104.8851404915
 10
193.3850948827
 20
104.9208561488
  0
LWPOLYLINE
  5
72A
100
AcDbEntity
  8
ASSI
100
AcDbPolyline
 62
7
  6
CONTINUOUS
 90
7
 70
0
 10
193.8619553352
 20
106.1660458504
 10
193.8965515467
 20
106.2252467648
 10
193.9260489956
 20
106.2845702911
 10
193.9504476817
 20
106.3440164294
 10
193.9697476052
 20
106.4035851797
 10
193.9839487661
 20
106.463276542
 10
193.9930511642
 20
106.5230905162
  0
LINE
  5
72B
100
AcDbEntity
  8
0
100
AcDbLine
 62
7
  6
CONTINUOUS
 10
191.3994044484
 20
107.8742755793
 11
190.8158399822
 21
106.9605083081
  0
LINE
  5
72C
100
AcDbEntity
  8
0
100
AcDbLine
 62
7
  6
CONTINUOUS
 10
189.5854144648
 20
105.0338615838
 11
189.0018499986
 21
104.1200943127
  0
LINE
  5
72D
100
AcDbEntity
  8
0
100
AcDbLine
 62
7
  6
CONTINUOUS
 10
206.6846504489
 20
131.5824180991
 11
204.2427613029
 21
127.7588158917
  0
LINE
  5
72E
100
AcDbEntity
  8
0
100
AcDbLine
 62
7
  6
CONTINUOUS
 10
175.1613138097
 20
82.2219875654
 11
172.9414896219
 21
78.7461030525
  0
LINE
  5
72F
100
AcDbEntity
  8
0
100
AcDbLine
 62
7
  6
CONTINUOUS
 10
174.0102931205
 20
78.4178838526
 11
176.2301173083
 21
81.8937683655
  0
LINE
  5
730
100
AcDbEntity
  8
0
100
AcDbLine
 62
7
  6
CONTINUOUS
 10
205.3115648015
 20
127.4305966918
 11
207.7534539474
 21
131.2541988993
  0
LINE
  5
731
100
AcDbEntity
  8
0
100
AcDbLine
 62
7
  6
CONTINUOUS
 10
191.3175909121
 20
103.4089527129
 11
191.9011553784
 21
104.3227199841
  0
LINE
  5
732
100
AcDbEntity
  8
0
100
AcDbLine
 62
7
  6
CONTINUOUS
 10
193.1315808957
 20
106.2493667084
 11
193.7151453619
 21
107.1631339795
  0
LINE
  5
733
100
AcDbEntity
  8
0
100
AcDbLine
 62
7
  6
CONTINUOUS
 10
191.4644008854
 20
102.4118645838
 11
192.0479653516
 21
103.325631855
  0
LINE
  5
734
100
AcDbEntity
  8
0
100
AcDbLine
 62
7
  6
CONTINUOUS
 10
193.278390869
 20
105.2522785793
 11
193.8619553352
 21
106.1660458504
  0
LWPOLYLINE
  5
735
100
AcDbEntity
  8
0
100
AcDbPolyline
 62
7
  6
CONTINUOUS
 90
20
 70
0
 10
179.1147661027
 20
78.0513005326
 10
179.1539567704
 20
78.1120850319
 10
179.2017665442
 20
78.1680641848
 10
179.2583806755
 20
78.2193940973
 10
179.323613913
 20
78.2659186634
 10
179.3943682395
 20
78.3043824978
 10
179.4712596524
 20
78.3342509026
 10
179.5536721544
 20
78.3560585756
 10
179.636659737
 20
78.3681542253
 10
179.7196620771
 20
78.3689569375
 10
179.8032394977
 20
78.3600476262
 10
179.884126959
 20
78.3445177423
 10
179.9626154944
 20
78.3230964966
 10
180.0384140706
 20
78.2950546781
 10
180.1073845479
 20
78.2612961053
 10
180.1690928243
 20
78.2217437385
 10
180.2239730018
 20
78.1764746172
 10
180.2691892463
 20
78.1266236788
 10
180.3040062501
 20
78.0712789914
 10
180.3291593209
 20
78.0113524869
  0
LWPOLYLINE
  5
736
100
AcDbEntity
  8
0
100
AcDbPolyline
 62
7
  6
CONTINUOUS
 90
9
 70
0
 10
177.3453383104
 20
77.3937237846
 10
177.46567812
 20
77.5247260187
 10
177.6291203974
 20
77.6842309482
 10
177.8010007639
 20
77.8327122133
 10
177.9798353114
 20
77.9703450534
 10
178.1611723161
 20
78.0976551876
 10
178.3435278698
 20
78.2148178556
 10
178.5283858806
 20
78.3216578177
 10
178.7157463486
 20
78.4181750739
  0
LWPOLYLINE
  5
737
100
AcDbEntity
  8
0
100
AcDbPolyline
 62
7
  6
CONTINUOUS
 90
3
 70
0
 10
179.31004453
 20
78.1091471435
 10
179.2484401958
 20
78.0584077446
 10
179.1963482268
 20
78.0045892826
  0
LWPOLYLINE
  5
738
100
AcDbEntity
  8
0
100
AcDbPolyline
 62
7
  6
CONTINUOUS
 90
12
 70
0
 10
178.3185428375
 20
77.9635468486
 10
178.2520207816
 20
77.9142166204
 10
178.1845040934
 20
77.8620471801
 10
178.116096587
 20
77.807162775
 10
178.0469975614
 20
77.7495418333
 10
177.976890869
 20
77.6893983648
 10
177.9060926574
 20
77.6265183598
 10
177.8357506681
 20
77.5602382169
 10
177.7663577637
 20
77.4902405526
 10
177.6974210816
 20
77.4168427504
 10
177.6286097749
 20
77.3403333596
 10
177.6056442015
 20
77.3137863673
  0
LWPOLYLINE
  5
739
100
AcDbEntity
  8
0
100
AcDbPolyline
 62
7
  6
CONTINUOUS
 90
9
 70
0
 10
179.9154367606
 20
77.6406311031
 10
179.9589446414
 20
77.6718686432
 10
179.9958544718
 20
77.7084824931
 10
180.0251390449
 20
77.746645518
 10
180.0463416253
 20
77.7856648917
 10
180.0599189484
 20
77.8262334404
 10
180.0662140135
 20
77.866602507
 10
180.0651080131
 20
77.9071273167
 10
180.064580392
 20
77.911251481
  0
LINE
  5
73A
100
AcDbEntity
  8
ASSI
100
AcDbLine
 62
7
  6
CONTINUOUS
 10
177.9567566636
 20
82.4426766716
 11
178.3156261
 21
82.6978606982
  0
LWPOLYLINE
  5
73B
100
AcDbEntity
  8
0
100
AcDbPolyline
 62
7
  6
CONTINUOUS
 90
4
 70
0
 10
178.513163696
 20
78.0963634492
 10
178.4490266387
 20
78.0544567234
 10
178.3841740753
 20
78.0101621118
 10
178.3185428375
 20
77.9635468486
  0
LINE
  5
73C
100
AcDbEntity
  8
0
100
AcDbLine
 62
7
  6
CONTINUOUS
 10
178.9131166815
 20
77.4093767654
 11
178.83592388
 21
77.3607047081
  0
LWPOLYLINE
  5
73D
100
AcDbEntity
  8
0
100
AcDbPolyline
 62
7
  6
CONTINUOUS
 90
4
 70
0
 10
178.7004781218
 20
78.2102087307
 10
178.6390244267
 20
78.1738109614
 10
178.576522079
 20
78.1359495233
 10
178.513163696
 20
78.0963634492
  0
LINE
  5
73E
100
AcDbEntity
  8
ASSI
100
AcDbLine
 62
7
  6
CONTINUOUS
 10
179.7232614476
 20
80.2853067084
 11
180.0918119778
 21
80.5017176186
  0
LINE
  5
73F
100
AcDbEntity
  8
0
100
AcDbLine
 62
7
  6
CONTINUOUS
 10
176.6939356352
 20
78.7436571197
 11
176.911477069
 21
78.870222425
  0
LINE
  5
740
100
AcDbEntity
  8
0
100
AcDbLine
 62
7
  6
CONTINUOUS
 10
180.4139001293
 20
76.8888127111
 11
181.4329807974
 21
77.4817124341
  0
LWPOLYLINE
  5
741
100
AcDbEntity
  8
0
100
AcDbPolyline
 62
7
  6
CONTINUOUS
 90
7
 70
0
 10
178.5472836326
 20
78.1865141081
 10
178.3605494757
 20
78.0784120515
 10
178.1754205101
 20
77.9588729374
 10
177.9888901801
 20
77.8265369559
 10
177.8039650415
 20
77.682763917
 10
177.6296647616
 20
77.5316332508
 10
177.468995896
 20
77.3745047673
  0
LINE
  5
742
100
AcDbEntity
  8
0
100
AcDbLine
 62
7
  6
CONTINUOUS
 10
177.1286116269
 20
79.1955839885
 11
176.6663995759
 21
78.9306735552
  0
LINE
  5
743
100
AcDbEntity
  8
0
100
AcDbLine
 62
7
  6
CONTINUOUS
 10
177.1484882593
 20
79.0605880219
 11
176.6862762083
 21
78.7956775885
  0
LINE
  5
744
100
AcDbEntity
  8
0
100
AcDbLine
 62
7
  6
CONTINUOUS
 10
181.6501153552
 20
77.8070739977
 11
180.2057934615
 21
76.9792809145
  0
LINE
  5
745
100
AcDbEntity
  8
0
100
AcDbLine
 62
7
  6
CONTINUOUS
 10
181.6699919877
 20
77.672078031
 11
180.2256700939
 21
76.8442849478
  0
LINE
  5
746
100
AcDbEntity
  8
0
100
AcDbLine
 62
7
  6
CONTINUOUS
 10
178.735622981
 20
78.2831791072
 11
178.5472836326
 21
78.1865141081
  0
LWPOLYLINE
  5
747
100
AcDbEntity
  8
0
100
AcDbPolyline
 62
7
  6
CONTINUOUS
 90
6
 70
0
 10
179.0004114677
 20
78.3642722989
 10
178.9410691552
 20
78.337307546
 10
178.8813712983
 20
78.3084312718
 10
178.821317897
 20
78.2776434762
 10
178.7610757816
 20
78.2448818641
 10
178.7004781218
 20
78.2102087307
  0
LWPOLYLINE
  5
748
100
AcDbEntity
  8
0
100
AcDbPolyline
 62
7
  6
CONTINUOUS
 90
3
 70
0
 10
179.4607430281
 20
78.1879563381
 10
179.3802738639
 20
78.1523261404
 10
179.31004453
 20
78.1091471435
  0
LWPOLYLINE
  5
749
100
AcDbEntity
  8
0
100
AcDbPolyline
 62
7
  6
CONTINUOUS
 90
5
 70
0
 10
179.1713340323
 20
77.4255101898
 10
179.1167603196
 20
77.4079524162
 10
179.0661840973
 20
77.3833688013
 10
179.0190128825
 20
77.3523648321
 10
178.977137102
 20
77.316857374
  0
LWPOLYLINE
  5
74A
100
AcDbEntity
  8
0
100
AcDbPolyline
 62
7
  6
CONTINUOUS
 90
12
 70
0
 10
179.4532386993
 20
76.7464079964
 10
179.4574337022
 20
76.7476881198
 10
179.5080386221
 20
76.7720350483
 10
179.5558959382
 20
76.8033433576
 10
179.5980155566
 20
76.8389693215
 10
179.6332804929
 20
76.8790043987
 10
179.6628077315
 20
76.9233571304
 10
179.6869581318
 20
76.9691094134
 10
179.7066791395
 20
77.0161846558
 10
179.7210233088
 20
77.0646594495
 10
179.7275091617
 20
77.1118454666
 10
179.7244370921
 20
77.1619310213
  0
LINE
  5
74B
100
AcDbEntity
  8
0
100
AcDbLine
 62
7
  6
CONTINUOUS
 10
180.0082624261
 20
77.4517350813
 11
179.937692584
 21
77.4312751507
  0
LWPOLYLINE
  5
74C
100
AcDbEntity
  8
0
100
AcDbPolyline
 62
7
  6
CONTINUOUS
 90
16
 70
0
 10
99.4926281168
 20
164.5000496856
 10
99.3951594821
 20
164.5250094509
 10
99.2960905339
 20
164.5418450777
 10
99.1954212723
 20
164.5505565661
 10
99.0920158362
 20
164.5510604258
 10
98.9870100866
 20
164.5434401471
 10
98.8838116071
 20
164.5279462006
 10
98.7824775977
 20
164.5043136984
 10
98.6829508584
 20
164.4728075284
 10
98.588467372
 20
164.4344728248
 10
98.499212671
 20
164.3890942236
 10
98.4150012229
 20
164.3368870887
 10
98.3385124127
 20
164.2795426465
 10
98.2706393687
 20
164.2176246389
 10
98.2104889626
 20
164.1505693239
 10
98.1580611943
 20
164.0783767015
  0
LINE
  5
74D
100
AcDbEntity
  8
0
100
AcDbLine
 62
7
  6
CONTINUOUS
 10
100.3804627862
 20
165.8906492598
 11
221.9571582952
 21
128.5556238988
  0
LWPOLYLINE
  5
74E
100
AcDbEntity
  8
0
100
AcDbPolyline
 62
7
  6
CONTINUOUS
 90
15
 70
0
 10
221.9571582952
 20
128.5556238988
 10
222.1540565081
 20
128.4879967225
 10
222.3406299623
 20
128.4099719634
 10
222.516878658
 20
128.3215496214
 10
222.6837464401
 20
128.2220977446
 10
222.8402894637
 20
128.1122482849
 10
222.9836761932
 20
127.9938970986
 10
223.1136110352
 20
127.8669247384
 10
223.2303895832
 20
127.7314506516
 10
223.3320670821
 20
127.5897290367
 10
223.4183907347
 20
127.4416552115
 10
223.4896133382
 20
127.2873338582
 10
223.5445485289
 20
127.1293332212
 10
223.5829236177
 20
126.9675916164
 10
223.5982242645
 20
126.8680364904
  0
LWPOLYLINE
  5
74F
100
AcDbEntity
  8
0
100
AcDbPolyline
 62
7
  6
CONTINUOUS
 90
12
 70
0
 10
193.1315808957
 20
106.2493667084
 10
193.0549332576
 20
106.3768028344
 10
192.963278281
 20
106.4946092398
 10
192.8566159657
 20
106.6027859244
 10
192.7335771314
 20
106.702223359
 10
192.5955309585
 20
106.7920310728
 10
192.4465849883
 20
106.8695376544
 10
192.2864118843
 20
106.9343736173
 10
192.115338983
 20
106.9869084479
 10
191.9384558359
 20
107.0255791944
 10
191.7555878825
 20
107.0499694541
 10
191.5669096832
 20
107.0604956297
  0
LWPOLYLINE
  5
750
100
AcDbEntity
  8
RACCORDO
100
AcDbPolyline
 62
7
  6
CONTINUOUS
 90
8
 70
0
 10
193.6301767926
 20
95.6928946902
 10
193.6395574502
 20
95.6481628514
 10
193.6647315897
 20
95.5866064565
 10
193.7026963876
 20
95.5282923801
 10
193.7511145789
 20
95.4765318497
 10
193.8092070752
 20
95.4324286078
 10
193.8777529649
 20
95.3948789119
 10
193.956752248
 20
95.3638827619
  0
LWPOLYLINE
  5
751
100
AcDbEntity
  8
ASSI
100
AcDbPolyline
 62
7
  6
CONTINUOUS
 90
21
 70
0
 10
188.8742501201
 20
103.5754788949
 10
188.890488306
 20
103.4958375139
 10
188.9328481235
 20
103.3768779735
 10
188.9970144657
 20
103.2648084751
 10
189.0819341623
 20
103.1592962567
 10
189.1833694796
 20
103.0656066774
 10
189.3021585354
 20
102.9843397005
 10
189.4374632117
 20
102.9148953628
 10
189.5825314211
 20
102.8607391338
 10
189.7378586335
 20
102.8226468389
 10
189.9029493791
 20
102.7998426528
 10
190.0695651609
 20
102.7934645691
 10
190.2377833699
 20
102.8043461628
 10
190.4075266152
 20
102.8316538589
 10
190.5703242269
 20
102.8740249259
 10
190.7258237352
 20
102.9322237842
 10
190.8743776099
 20
103.0054860134
 10
191.0085725909
 20
103.0901556202
 10
191.1259375916
 20
103.1850139401
 10
191.2289436987
 20
103.2912796377
 10
191.3175909121
 20
103.4089527129
  0
LWPOLYLINE
  5
752
100
AcDbEntity
  8
DRAFT
100
AcDbPolyline
 62
7
  6
CONTINUOUS
 90
5
 70
0
 10
190.7802483157
 20
85.7815679802
 10
190.8043603481
 20
85.6476344281
 10
190.8375112421
 20
85.5255048466
 10
190.8809511885
 20
85.4053395014
 10
190.9111682135
 20
85.3390214344
  0
LWPOLYLINE
  5
753
100
AcDbEntity
  8
ASSI
100
AcDbPolyline
 62
7
  6
CONTINUOUS
 90
6
 70
0
 10
188.1419946839
 20
104.1488310238
 10
188.1458628435
 20
104.123576182
 10
188.1946630372
 20
103.9041768885
 10
188.2704089648
 20
103.6907882697
 10
188.3724748391
 20
103.483272367
 10
188.4984630547
 20
103.2865405987
  0
LINE
  5
754
100
AcDbEntity
  8
ASSI
100
AcDbLine
 62
7
  6
CONTINUOUS
 10
191.7563974527
 20
79.5984847266
 11
188.1415737473
 21
104.1492541644
  0
LINE
  5
755
100
AcDbEntity
  8
ASSI
100
AcDbLine
 62
7
  6
CONTINUOUS
 10
192.1944781975
 20
81.0206838453
 11
188.873586903
 21
103.5751548633
  0
LINE
  5
756
100
AcDbEntity
  8
0
100
AcDbLine
 62
7
  6
CONTINUOUS
 10
193.1631422761
 20
81.8012188764
 11
193.1187479891
 21
82.1027312024
  0
LINE
  5
757
100
AcDbEntity
  8
ASSI
100
AcDbLine
 62
7
  6
CONTINUOUS
 10
193.9737849754
 20
83.0705538173
 11
191.1712381081
 21
102.1045891078
  0
LINE
  5
758
100
AcDbEntity
  8
ASSI
100
AcDbLine
 62
253
  6
CONTINUOUS
 10
191.3175909121
 20
103.4089527129
 11
191.4644008854
 21
102.4118645838
  0
LINE
  5
759
100
AcDbEntity
  8
0
100
AcDbLine
 62
7
  6
CONTINUOUS
 10
190.9626499555
 20
105.963420179
 11
190.8158399822
 21
106.9605083081
  0
LWPOLYLINE
  5
75A
100
AcDbEntity
  8
0
100
AcDbPolyline
 62
253
  6
CONTINUOUS
 90
10
 70
0
 10
190.4415977973
 20
74.2031680106
 10
190.5554453352
 20
73.3984295127
 10
190.6612036331
 20
72.5963098525
 10
190.7588684884
 20
71.7968522526
 10
190.8484329818
 20
71.0001345365
 10
190.9298976144
 20
70.2061646387
 10
191.0032668504
 20
69.4148817737
 10
191.068537212
 20
68.6262952368
 10
191.1257007374
 20
67.8404832305
 10
191.1747526979
 20
67.0574891944
  0
LINE
  5
75B
100
AcDbEntity
  8
DRAFT
100
AcDbLine
 62
7
  6
CONTINUOUS
 10
190.780112638
 20
85.7822327915
 11
190.6016508883
 21
87.1141029357
  0
LWPOLYLINE
  5
75C
100
AcDbEntity
  8
ASSI
100
AcDbPolyline
 62
7
  6
CONTINUOUS
 90
7
 70
0
 10
188.3962746368
 20
77.3225347992
 10
188.4031628742
 20
77.2612609785
 10
188.4047783124
 20
77.1240694747
 10
188.3876594185
 20
76.9877400923
 10
188.3517888116
 20
76.8537489169
 10
188.2971838727
 20
76.7206198629
 10
188.2238446018
 20
76.5883529304
  0
LINE
  5
75D
100
AcDbEntity
  8
0
100
AcDbLine
 62
7
  6
CONTINUOUS
 10
192.228078407
 20
82.3762472023
 11
192.1754923125
 21
80.2547192792
  0
LINE
  5
75E
100
AcDbEntity
  8
0
100
AcDbLine
 62
7
  6
CONTINUOUS
 10
193.1187479891
 20
82.1027312024
 11
193.1091800377
 21
81.7167227665
  0
LWPOLYLINE
  5
75F
100
AcDbEntity
  8
RACCORDO
100
AcDbPolyline
 62
253
  6
CONTINUOUS
 90
5
 70
0
 10
191.1747526979
 20
67.0574891944
 10
191.1715806129
 20
66.9331664336
 10
191.1507018895
 20
66.816494765
 10
191.1123232939
 20
66.7086296104
 10
191.0691937134
 20
66.6292794531
  0
LWPOLYLINE
  5
760
100
AcDbEntity
  8
ASSI
100
AcDbPolyline
 62
7
  6
CONTINUOUS
 90
17
 70
0
 10
190.1193714492
 20
85.0101623553
 10
190.0733422332
 20
84.5938228282
 10
190.0108787361
 20
84.1715700653
 10
189.9319809577
 20
83.7434040667
 10
189.8357999214
 20
83.3059826514
 10
189.723184604
 20
82.8626480005
 10
189.5966819353
 20
82.4234266565
 10
189.4559754505
 20
81.9884123537
 10
189.3013816145
 20
81.5575113578
 10
189.1363967515
 20
81.1404690099
 10
188.960784071
 20
80.7376011205
 10
188.7747803635
 20
80.3485918789
 10
188.5825923251
 20
79.982239194
 10
188.3840790274
 20
79.6390593629
 10
188.1793813987
 20
79.3185360885
 10
187.9731289205
 20
79.0279183875
 10
187.9223482359
 20
78.9643870239
  0
LWPOLYLINE
  5
761
100
AcDbEntity
  8
ASSI
100
AcDbPolyline
 62
7
  6
CONTINUOUS
 90
17
 70
0
 10
191.0056753373
 20
84.697158153
 10
190.9640118154
 20
84.3203068283
 10
190.9015483182
 20
83.8980540654
 10
190.8226505398
 20
83.4698880668
 10
190.7264695035
 20
83.0324666515
 10
190.6138541861
 20
82.5891320006
 10
190.4873515174
 20
82.1499106566
 10
190.3466450326
 20
81.7148963538
 10
190.1920511966
 20
81.2839953579
 10
190.0270663337
 20
80.86695301
 10
189.8514536531
 20
80.4640851206
 10
189.6654499456
 20
80.075075879
 10
189.4732619072
 20
79.7087231941
 10
189.2747486095
 20
79.365543363
 10
189.0700509808
 20
79.0450200886
 10
188.8637985027
 20
78.7544023876
 10
188.7081493703
 20
78.559670834
  0
LINE
  5
762
100
AcDbEntity
  8
0
100
AcDbLine
 62
7
  6
CONTINUOUS
 10
191.0488352207
 20
84.4040295156
 11
189.7692878218
 21
76.486993452
  0
LINE
  5
763
100
AcDbEntity
  8
0
100
AcDbLine
 62
7
  6
CONTINUOUS
 10
180.2057934615
 20
76.9792809145
 11
180.0924772618
 21
76.7635464768
  0
LINE
  5
764
100
AcDbEntity
  8
0
100
AcDbLine
 62
7
  6
CONTINUOUS
 10
180.2256700939
 20
76.8442849478
 11
180.1636306593
 21
76.7261725986
  0
LINE
  5
765
100
AcDbEntity
  8
0
100
AcDbLine
 62
7
  6
CONTINUOUS
 10
181.4329807974
 20
77.4817124341
 11
181.0232641932
 21
76.7016829105
  0
LINE
  5
766
100
AcDbEntity
  8
0
100
AcDbLine
 62
7
  6
CONTINUOUS
 10
180.9246717139
 20
76.5079876228
 11
180.82813149
 21
76.3241917403
  0
LINE
  5
767
100
AcDbEntity
  8
0
100
AcDbLine
 62
7
  6
CONTINUOUS
 10
181.4528574298
 20
77.3467164675
 11
181.0431408257
 21
76.5666869439
  0
LINE
  5
768
100
AcDbEntity
  8
0
100
AcDbLine
 62
7
  6
CONTINUOUS
 10
180.9445483463
 20
76.3729916562
 11
180.9063061176
 21
76.3001850695
  0
LINE
  5
769
100
AcDbEntity
  8
0
100
AcDbLine
 62
7
  6
CONTINUOUS
 10
181.0666759615
 20
76.2509370441
 11
181.1632161854
 21
76.4347329267
  0
LINE
  5
76A
100
AcDbEntity
  8
0
100
AcDbLine
 62
7
  6
CONTINUOUS
 10
181.2645189723
 20
76.6275959051
 11
181.8515563133
 21
77.745213431
  0
LINE
  5
76B
100
AcDbEntity
  8
0
100
AcDbLine
 62
7
  6
CONTINUOUS
 10
181.4424223953
 20
76.3489914045
 11
181.5437251822
 21
76.541854383
  0
LWPOLYLINE
  5
76C
100
AcDbEntity
  8
ASSI
100
AcDbPolyline
 62
7
  6
CONTINUOUS
 90
3
 70
0
 10
185.2533110376
 20
76.5485708009
 10
185.1728722151
 20
76.4006956716
 10
185.1466119374
 20
76.3326572121
  0
LWPOLYLINE
  5
76D
100
AcDbEntity
  8
0
100
AcDbPolyline
 62
7
  6
CONTINUOUS
 90
5
 70
0
 10
185.6095788705
 20
76.439164401
 10
185.5475260645
 20
76.3250893012
 10
185.5033630148
 20
76.2106660684
 10
185.4770897215
 20
76.0958947025
 10
185.4731928962
 20
76.0408289152
  0
LINE
  5
76E
100
AcDbEntity
  8
0
100
AcDbLine
 62
7
  6
CONTINUOUS
 10
179.9569717015
 20
76.9099021785
 11
179.9166310987
 21
76.839804402
  0
LINE
  5
76F
100
AcDbEntity
  8
0
100
AcDbLine
 62
7
  6
CONTINUOUS
 10
208.6116937336
 20
123.6002924878
 11
207.6964495623
 21
122.1671686133
  0
LINE
  5
770
100
AcDbEntity
  8
DRAFT
100
AcDbLine
 62
7
  6
CONTINUOUS
 10
190.7510345417
 20
85.9992442711
 11
190.1193714492
 21
85.0101623553
  0
LINE
  5
771
100
AcDbEntity
  8
0
100
AcDbLine
 62
7
  6
CONTINUOUS
 10
197.6236008634
 20
95.2357061899
 11
197.0908109856
 21
94.4014436862
  0
LINE
  5
772
100
AcDbEntity
  8
0
100
AcDbLine
 62
7
  6
CONTINUOUS
 10
206.6810287849
 20
109.4181687526
 11
207.2138186627
 21
110.2524312563
  0
LWPOLYLINE
  5
773
100
AcDbEntity
  8
0
100
AcDbPolyline
 62
7
  6
CONTINUOUS
 90
3
 70
0
 10
178.7138671402
 20
77.2388833447
 10
178.6688528768
 20
77.1738126532
 10
178.6343654253
 20
77.1051274058
  0
LWPOLYLINE
  5
774
100
AcDbEntity
  8
DRAFT
100
AcDbPolyline
 62
7
  6
CONTINUOUS
 90
28
 70
0
 10
184.2158314822
 20
77.8191749299
 10
184.3450737852
 20
77.9995954362
 10
184.4926585591
 20
78.1688522008
 10
184.658585804
 20
78.3269452238
 10
184.8449733992
 20
78.4752476123
 10
185.0497034654
 20
78.6123862592
 10
185.2664223639
 20
78.734241843
 10
185.4946694398
 20
78.8400906646
 10
185.734905348
 20
78.9306564231
 10
185.9821584144
 20
79.003990894
 10
186.2377507314
 20
79.0598650275
 10
186.5003602067
 20
79.0985078733
 10
186.7610488894
 20
79.1186583561
 10
187.0184119567
 20
79.1197969469
 10
187.2738542314
 20
79.1024431746
 10
187.5226522305
 20
79.0668945503
 10
187.7660046556
 20
79.0123986228
 10
188.0027128051
 20
78.9397078433
 10
188.2244570914
 20
78.8513770766
 10
188.4296283953
 20
78.7475161259
 10
188.6198358361
 20
78.628015188
 10
188.7915871845
 20
78.4950997174
 10
188.945271809
 20
78.3476992065
 10
189.0805003411
 20
78.1868841628
 10
189.1926124459
 20
78.0180915636
 10
189.2804749889
 20
77.8418463357
 10
189.3452211046
 20
77.6576235523
 10
189.3829071919
 20
77.486810073
  0
LWPOLYLINE
  5
775
100
AcDbEntity
  8
ASSI
100
AcDbPolyline
 62
7
  6
CONTINUOUS
 90
26
 70
0
 10
185.1065010644
 20
77.54565893
 10
185.1984524047
 20
77.6722102764
 10
185.3039152278
 20
77.7897213668
 10
185.4228895337
 20
77.8981922013
 10
185.5569632368
 20
77.9986058949
 10
185.7045484227
 20
78.0899793325
 10
185.8608813479
 20
78.1693631692
 10
186.0262474424
 20
78.2363661967
 10
186.2003612763
 20
78.2913796233
 10
186.3776028165
 20
78.33262773
 10
186.5580741169
 20
78.3596613682
 10
186.7416731236
 20
78.3729296864
 10
186.9224736419
 20
78.3720044109
 10
187.1003843599
 20
78.356422419
 10
187.2754965895
 20
78.3266468334
 10
187.4421580714
 20
78.2836387481
 10
187.6000930664
 20
78.2269664
 10
187.7495773137
 20
78.1570615523
 10
187.8857857723
 20
78.0761805882
 10
188.0082852665
 20
77.9839653683
 10
188.1175089719
 20
77.880774032
 10
188.2099313741
 20
77.7699373815
 10
188.2850042635
 20
77.6512059579
 10
188.3432758498
 20
77.5248292201
 10
188.382865247
 20
77.3948863467
 10
188.3962746368
 20
77.3225347992
  0
LWPOLYLINE
  5
776
100
AcDbEntity
  8
0
100
AcDbPolyline
 62
7
  6
CONTINUOUS
 90
5
 70
0
 10
179.9166310987
 20
76.839804402
 10
179.8681937731
 20
76.7746928096
 10
179.8123242865
 20
76.7145876444
 10
179.7483580771
 20
76.6594686633
 10
179.7446051243
 20
76.65693219
  0
LINE
  5
777
100
AcDbEntity
  8
0
100
AcDbLine
 62
7
  6
CONTINUOUS
 10
179.1963482268
 20
78.0045892826
 11
179.153723248
 21
77.9483920795
  0
LWPOLYLINE
  5
778
100
AcDbEntity
  8
0
100
AcDbPolyline
 62
7
  6
CONTINUOUS
 90
7
 70
0
 10
195.2962697303
 20
96.000055537
 10
195.4115777276
 20
96.1311575977
 10
195.5162818511
 20
96.2654363343
 10
195.6103821009
 20
96.402891747
 10
195.693878477
 20
96.5435238356
 10
195.7667709794
 20
96.6873326001
 10
195.829059608
 20
96.8343180407
  0
LWPOLYLINE
  5
779
100
AcDbEntity
  8
0
100
AcDbPolyline
 62
7
  6
CONTINUOUS
 90
6
 70
0
 10
178.977137102
 20
77.316857374
 10
178.9408322823
 20
77.2764011399
 10
178.909822897
 20
77.2314414168
 10
178.8851727926
 20
77.1852309303
 10
178.8668203504
 20
77.1382250647
 10
178.8548271891
 20
77.0899684356
  0
LWPOLYLINE
  5
77A
100
AcDbEntity
  8
0
100
AcDbPolyline
 62
7
  6
CONTINUOUS
 90
3
 70
0
 10
178.83592388
 20
77.3607047081
 10
178.7696321041
 20
77.3016013044
 10
178.7138671402
 20
77.2388833447
  0
LWPOLYLINE
  5
77B
100
AcDbEntity
  8
0
100
AcDbPolyline
 62
7
  6
CONTINUOUS
 90
4
 70
0
 10
180.1839586385
 20
77.5576504091
 10
180.1313954533
 20
77.5149227105
 10
180.0727567838
 20
77.4793021816
 10
180.0082624261
 20
77.4517350813
  0
LINE
  5
77C
100
AcDbEntity
  8
ASSI
100
AcDbLine
 62
7
  6
CONTINUOUS
 10
187.7733824293
 20
76.1354059655
 11
187.6257972435
 21
76.0440325279
  0
LWPOLYLINE
  5
77D
100
AcDbEntity
  8
ASSI
100
AcDbPolyline
 62
7
  6
CONTINUOUS
 90
11
 70
0
 10
187.6257972435
 20
76.0440325279
 10
187.4694643182
 20
75.9646486911
 10
187.3040982237
 20
75.8976456637
 10
187.1299843899
 20
75.842632237
 10
186.9527428497
 20
75.8013841303
 10
186.7722715493
 20
75.7743504921
 10
186.5886725425
 20
75.7610821739
 10
186.4078720242
 20
75.7620074494
 10
186.2299613062
 20
75.7775894413
 10
186.0548490766
 20
75.807365027
 10
185.8881875947
 20
75.8503731123
  0
LWPOLYLINE
  5
77E
100
AcDbEntity
  8
DRAFT
100
AcDbPolyline
 62
7
  6
CONTINUOUS
 90
22
 70
0
 10
187.8356762264
 20
75.2939211957
 10
187.5954403182
 20
75.2033554372
 10
187.3481872517
 20
75.1300209664
 10
187.0925949347
 20
75.0741468329
 10
186.8299854594
 20
75.035503987
 10
186.5692967768
 20
75.0153535043
 10
186.3119337094
 20
75.0142149135
 10
186.0564914347
 20
75.0315686858
 10
185.8076934356
 20
75.0671173101
 10
185.5643410105
 20
75.1216132375
 10
185.3276328611
 20
75.194304017
 10
185.1058885747
 20
75.2826347838
 10
184.9007172708
 20
75.3864957344
 10
184.71050983
 20
75.5059966723
 10
184.5387584817
 20
75.638912143
 10
184.3850738572
 20
75.7863126539
 10
184.2498453251
 20
75.9471276976
 10
184.1377332202
 20
76.1159202967
 10
184.0498706772
 20
76.2921655246
 10
183.9851245615
 20
76.476388308
 10
183.9447558039
 20
76.6647264498
 10
183.9418627684
 20
76.6854950714
  0
LINE
  5
77F
100
AcDbEntity
  8
0
100
AcDbLine
 62
7
  6
CONTINUOUS
 10
197.354506196
 20
93.3684612332
 11
197.0908109856
 21
94.4014436862
  0
LINE
  5
780
100
AcDbEntity
  8
0
100
AcDbLine
 62
7
  6
CONTINUOUS
 10
197.8872960737
 20
94.2027237369
 11
197.6236008634
 21
95.2357061899
  0
LWPOLYLINE
  5
781
100
AcDbEntity
  8
ASSI
100
AcDbPolyline
 62
7
  6
CONTINUOUS
 90
21
 70
0
 10
193.8427452404
 20
107.7077493973
 10
193.8265070546
 20
107.7873907783
 10
193.784147237
 20
107.9063503187
 10
193.7199808949
 20
108.0184198171
 10
193.6350611982
 20
108.1239320355
 10
193.5336258809
 20
108.2176216148
 10
193.4148368252
 20
108.2988885917
 10
193.2795321489
 20
108.3683329294
 10
193.1344639394
 20
108.4224891584
 10
192.979136727
 20
108.4605814533
 10
192.8140459815
 20
108.4833856394
 10
192.6474301997
 20
108.4897637231
 10
192.4792119906
 20
108.4788821294
 10
192.3094687453
 20
108.4515744332
 10
192.1466711336
 20
108.4092033663
 10
191.9911716253
 20
108.3510045079
 10
191.8426177507
 20
108.2777422788
 10
191.7084227696
 20
108.193072672
 10
191.5910577689
 20
108.098214352
 10
191.4880516618
 20
107.9919486545
 10
191.3994044484
 20
107.8742755793
  0
LWPOLYLINE
  5
782
100
AcDbEntity
  8
0
100
AcDbPolyline
 62
7
  6
CONTINUOUS
 90
4
 70
0
 10
193.3850948827
 20
104.9208561488
 10
193.3680202833
 20
105.0094915141
 10
193.3309104539
 20
105.1318708767
 10
193.278390869
 20
105.2522785793
  0
LWPOLYLINE
  5
783
100
AcDbEntity
  8
ASSI
100
AcDbPolyline
 62
7
  6
CONTINUOUS
 90
8
 70
0
 10
194.8686206232
 20
105.1402210102
 10
194.8647524636
 20
105.165475852
 10
194.8159522699
 20
105.3848751456
 10
194.7402063423
 20
105.5982637644
 10
194.638140468
 20
105.805779667
 10
194.5121522524
 20
106.0025114353
 10
194.3630408976
 20
106.1868219299
 10
194.1900072015
 20
106.3603482902
  0
LINE
  5
784
100
AcDbEntity
  8
0
100
AcDbLine
 62
7
  6
CONTINUOUS
 10
192.0479653516
 20
103.325631855
 11
191.9011553784
 21
104.3227199841
  0
LINE
  5
785
100
AcDbEntity
  8
RACCORDO
100
AcDbLine
 62
7
  6
CONTINUOUS
 10
193.6295470857
 20
95.6936130986
 11
195.204423906
 21
84.9975347121
  0
LINE
  5
786
100
AcDbEntity
  8
RACCORDO
100
AcDbLine
 62
253
  6
CONTINUOUS
 10
193.956752248
 20
95.3638827619
 11
195.4308719604
 21
85.3521156242
  0
LINE
  5
787
100
AcDbEntity
  8
0
100
AcDbLine
 62
7
  6
CONTINUOUS
 10
193.278390869
 20
105.2522785793
 11
193.1315808957
 21
106.2493667084
  0
LINE
  5
788
100
AcDbEntity
  8
0
100
AcDbLine
 62
7
  6
CONTINUOUS
 10
195.3039260992
 20
95.9480558371
 11
195.2962697303
 21
96.000055537
  0
LINE
  5
789
100
AcDbEntity
  8
ASSI
100
AcDbLine
 62
253
  6
CONTINUOUS
 10
193.7151453619
 20
107.1631339795
 11
193.8619553352
 21
106.1660458504
  0
LINE
  5
78A
100
AcDbEntity
  8
ASSI
100
AcDbLine
 62
7
  6
CONTINUOUS
 10
194.0173568875
 20
106.5266692596
 11
193.8434084576
 21
107.7080734289
  0
LINE
  5
78B
100
AcDbEntity
  8
ASSI
100
AcDbLine
 62
7
  6
CONTINUOUS
 10
196.1043784248
 20
96.7497702994
 11
194.8690415598
 21
105.1397978696
  0
LWPOLYLINE
  5
78C
100
AcDbEntity
  8
0
100
AcDbPolyline
 62
7
  6
CONTINUOUS
 90
7
 70
0
 10
221.5155488046
 20
126.1964873385
 10
221.5574040831
 20
126.27192667
 10
221.5885833161
 20
126.3478787516
 10
221.6090865034
 20
126.4243435833
 10
221.6189153863
 20
126.5021586434
 10
221.6180682236
 20
126.5804864536
 10
221.6158880985
 20
126.6024115815
  0
LINE
  5
78D
100
AcDbEntity
  8
0
100
AcDbLine
 62
7
  6
CONTINUOUS
 10
197.8872960737
 20
94.2027237369
 11
197.354506196
 21
93.3684612332
  0
LINE
  5
78E
100
AcDbEntity
  8
0
100
AcDbLine
 62
7
  6
CONTINUOUS
 10
206.9447239953
 20
108.3851862996
 11
207.477513873
 21
109.2194488033
  0
LINE
  5
78F
100
AcDbEntity
  8
0
100
AcDbLine
 62
7
  6
CONTINUOUS
 10
221.5155488046
 20
126.1964873385
 11
210.1493978628
 21
108.3989391151
  0
LINE
  5
790
100
AcDbEntity
  8
0
100
AcDbLine
 62
7
  6
CONTINUOUS
 10
209.6166079851
 20
107.5646766114
 11
200.5591800635
 21
93.3822140487
  0
LINE
  5
791
100
AcDbEntity
  8
0
100
AcDbLine
 62
7
  6
CONTINUOUS
 10
200.0263901858
 20
92.547951545
 11
188.6603152827
 21
74.7505223859
  0
LINE
  5
792
100
AcDbEntity
  8
0
100
AcDbLine
 62
7
  6
CONTINUOUS
 10
223.2971188676
 20
125.6495832291
 11
190.4416024201
 21
74.2031752603
  0
LWPOLYLINE
  5
793
100
AcDbEntity
  8
0
100
AcDbPolyline
 62
7
  6
CONTINUOUS
 90
22
 70
0
 10
190.4416024201
 20
74.2031752603
 10
190.3334798914
 20
74.0484241841
 10
190.2124376896
 20
73.9006594742
 10
190.0784758145
 20
73.7598811307
 10
189.9306891017
 20
73.6253600222
 10
189.7699827156
 20
73.49782528
 10
189.5990721502
 20
73.3794642984
 10
189.4178005288
 20
73.2704523834
 10
189.226324728
 20
73.170614229
 10
189.0278308719
 20
73.0816113116
 10
188.8222012785
 20
73.0036249081
 10
188.6095536298
 20
72.9364737416
 10
188.3934270957
 20
72.8812754583
 10
188.1737631503
 20
72.8382302414
 10
187.9506203195
 20
72.8071379076
 10
187.7277133509
 20
72.7885155537
 10
187.5049696508
 20
72.7825957668
 10
187.282461813
 20
72.7891459596
 10
187.0641223659
 20
72.8079854668
 10
186.8512621521
 20
72.8390540665
 10
186.642570329
 20
72.8824119805
 10
186.4380468966
 20
72.9380592088
  0
LWPOLYLINE
  5
794
100
AcDbEntity
  8
DRAFT
100
AcDbPolyline
 62
7
  6
CONTINUOUS
 90
8
 70
0
 10
189.1145141839
 20
76.3148369305
 10
188.9852718809
 20
76.1344164242
 10
188.837687107
 20
75.9651596596
 10
188.6717598622
 20
75.8070666366
 10
188.4853722669
 20
75.658764248
 10
188.2806422007
 20
75.5216256011
 10
188.0639233023
 20
75.3997700174
 10
187.8356762264
 20
75.2939211957
  0
LWPOLYLINE
  5
795
100
AcDbEntity
  8
ASSI
100
AcDbPolyline
 62
7
  6
CONTINUOUS
 90
5
 70
0
 10
188.2238446018
 20
76.5883529304
 10
188.1318932614
 20
76.461801584
 10
188.0264304383
 20
76.3442904935
 10
187.9074561324
 20
76.235819659
 10
187.7733824293
 20
76.1354059655
  0
LWPOLYLINE
  5
796
100
AcDbEntity
  8
RACCORDO
100
AcDbPolyline
 62
7
  6
CONTINUOUS
 90
8
 70
0
 10
203.2203945919
 20
110.7096197566
 10
203.2297752495
 20
110.6648879177
 10
203.254949389
 20
110.6033315229
 10
203.2929141869
 20
110.5450174465
 10
203.3413323782
 20
110.4932569161
 10
203.3994248745
 20
110.4491536742
 10
203.4679707642
 20
110.4116039783
 10
203.5469700473
 20
110.3806078283
  0
LINE
  5
797
100
AcDbEntity
  8
RACCORDO
100
AcDbLine
 62
7
  6
CONTINUOUS
 10
203.219764885
 20
110.710338165
 11
204.7946417053
 21
100.0142597785
  0
LINE
  5
798
100
AcDbEntity
  8
RACCORDO
100
AcDbLine
 62
253
  6
CONTINUOUS
 10
203.5469700473
 20
110.3806078283
 11
205.0210897597
 21
100.3688406906
  0
LWPOLYLINE
  5
799
100
AcDbEntity
  8
0
100
AcDbPolyline
 62
7
  6
CONTINUOUS
 90
9
 70
0
 10
207.6964495623
 20
122.1671686133
 10
207.8884822912
 20
120.3577775278
 10
208.0587012489
 20
118.5189606975
 10
208.2071064355
 20
116.6507181225
 10
208.333707483
 20
114.7527875585
 10
208.4384947594
 20
112.8254312498
 10
208.5214393687
 20
110.869435929
 10
208.582531679
 20
108.8850638402
 10
208.5826288794
 20
108.8800786911
  0
LWPOLYLINE
  5
79A
100
AcDbEntity
  8
RACCORDO
100
AcDbPolyline
 62
7
  6
CONTINUOUS
 90
8
 70
0
 10
223.6229112915
 20
117.6032320503
 10
223.7426470599
 20
117.8101519231
 10
223.8426013521
 20
118.0241826468
 10
223.9226433928
 20
118.2446129623
 10
223.9824322065
 20
118.470018108
 10
224.0215948525
 20
118.6983853044
 10
224.0399914297
 20
118.9278296067
 10
224.0414641676
 20
118.9955004312
  0
LWPOLYLINE
  5
79B
100
AcDbEntity
  8
RACCORDO
100
AcDbPolyline
 62
253
  6
CONTINUOUS
 90
8
 70
0
 10
223.7281138134
 20
118.0308943598
 10
223.8201346657
 20
118.1812965772
 10
223.8967318168
 20
118.3360277556
 10
223.9573763588
 20
118.49413106
 10
224.0018102484
 20
118.6546580311
 10
224.0298312549
 20
118.8167452132
 10
224.0412432346
 20
118.9796069227
 10
224.0414676544
 20
118.9959304572
  0
LINE
  5
79C
100
AcDbEntity
  8
RACCORDO
100
AcDbLine
 62
253
  6
CONTINUOUS
 10
191.1747526979
 20
67.0574891944
 11
223.7281773884
 21
118.0308708022
  0
LINE
  5
79D
100
AcDbEntity
  8
RACCORDO
100
AcDbLine
 62
7
  6
CONTINUOUS
 10
223.6229621973
 20
117.6031996615
 11
191.0685612366
 21
66.6282910984
  0
LWPOLYLINE
  5
79E
100
AcDbEntity
  8
RACCORDO
100
AcDbPolyline
 62
253
  6
CONTINUOUS
 90
5
 70
0
 10
190.6636368952
 20
66.477591353
 10
190.8115192705
 20
66.611826726
 10
190.9465082542
 20
66.7537595836
 10
191.0677885655
 20
66.9026298538
 10
191.1746891897
 20
67.05751234
  0
LINE
  5
79F
100
AcDbEntity
  8
0
100
AcDbLine
 62
7
  6
CONTINUOUS
 10
206.9447239953
 20
108.3851862996
 11
206.6810287849
 21
109.4181687526
  0
LINE
  5
7A0
100
AcDbEntity
  8
0
100
AcDbLine
 62
7
  6
CONTINUOUS
 10
207.477513873
 20
109.2194488033
 11
207.2138186627
 21
110.2524312563
  0
LINE
  5
7A1
100
AcDbEntity
  8
0
100
AcDbLine
 62
7
  6
CONTINUOUS
 10
204.2427613029
 20
127.7588158917
 11
206.8017467832
 21
110.3789745383
  0
LINE
  5
7A2
100
AcDbEntity
  8
0
100
AcDbLine
 62
7
  6
CONTINUOUS
 10
205.3115648015
 20
127.4305966918
 11
208.017360255
 21
109.0536672094
  0
LWPOLYLINE
  5
7A3
100
AcDbEntity
  8
0
100
AcDbPolyline
 62
7
  6
CONTINUOUS
 90
10
 70
0
 10
207.7534539474
 20
131.2541988993
 10
207.864766038
 20
130.4275999713
 10
207.9720938947
 20
129.5950084217
 10
208.0754375176
 20
128.7564242505
 10
208.1748019663
 20
127.9118023347
 10
208.2701821812
 20
127.0611877973
 10
208.3615629833
 20
126.2047160071
 10
208.4489393129
 20
125.3424320869
 10
208.5323162297
 20
124.4742909138
 10
208.6116937336
 20
123.6002924878
  0
LINE
  5
7A4
100
AcDbEntity
  8
RACCORDO
100
AcDbLine
 62
253
  6
CONTINUOUS
 10
209.4985659258
 20
64.6828663653
 11
208.7564655524
 21
64.205119099
  0
LWPOLYLINE
  5
7A5
100
AcDbEntity
  8
RACCORDO
100
AcDbPolyline
 62
253
  6
CONTINUOUS
 90
18
 70
0
 10
208.7564655524
 20
64.205119099
 10
207.9782960972
 20
63.7082508
 10
207.1635201508
 20
63.1924785698
 10
206.311599827
 20
62.6580893232
 10
205.4219325534
 20
62.105249271
 10
204.493853099
 20
61.534002775
 10
203.526736813
 20
60.9445799828
 10
202.5199420101
 20
60.3372355925
 10
201.4727489824
 20
59.7120569659
 10
200.3844728335
 20
59.0692899865
 10
199.2544065087
 20
58.4091994769
 10
198.0817678245
 20
57.7319060231
 10
196.8658109403
 20
57.0376641917
 10
195.6057646094
 20
56.3267494667
 10
194.3007784603
 20
55.5993173192
 10
192.9500216573
 20
54.8556005259
 10
191.552682499
 20
54.0959089109
 10
190.1079083944
 20
53.3205155575
  0
LWPOLYLINE
  5
7A6
100
AcDbEntity
  8
RACCORDO
100
AcDbPolyline
 62
253
  6
CONTINUOUS
 90
9
 70
0
 10
189.2647172632
 20
52.2208145257
 10
189.3783590572
 20
52.2880874548
 10
189.5250560953
 20
52.39500845
 10
189.659371982
 20
52.5175437194
 10
189.7800502868
 20
52.6545929023
 10
189.8865833883
 20
52.8052604832
 10
189.9777768891
 20
52.9679438731
 10
190.0519251591
 20
53.1404244722
 10
190.107911203
 20
53.3205403241
  0
LWPOLYLINE
  5
7A7
100
AcDbEntity
  8
RACCORDO
100
AcDbPolyline
 62
7
  6
CONTINUOUS
 90
10
 70
0
 10
189.2646220775
 20
52.2207631517
 10
191.4672858008
 20
53.418707311
 10
193.7702665123
 20
54.6968644181
 10
196.0390169278
 20
55.9827775998
 10
198.2735075634
 20
57.2763976899
 10
200.4737196775
 20
58.5776856193
 10
202.639643558
 20
59.88661306
 10
204.7712479438
 20
61.2031441413
 10
206.8684809688
 20
62.5272345472
 10
208.8020950254
 20
63.7745651951
  0
LINE
  5
7A8
100
AcDbEntity
  8
0
100
AcDbLine
 62
253
  6
CONTINUOUS
 10
221.2064414045
 20
125.9286844865
 11
221.2242426583
 21
125.7403491776
  0
LWPOLYLINE
  5
7A9
100
AcDbEntity
  8
RACCORDO
100
AcDbPolyline
 62
253
  6
CONTINUOUS
 90
15
 70
0
 10
221.5758829909
 20
114.3978051689
 10
221.5827167844
 20
114.2494376354
 10
221.6283526751
 20
111.8722324453
 10
221.6121897499
 20
109.4541760306
 10
221.5344813199
 20
106.9954105001
 10
221.3953228142
 20
104.4959974611
 10
221.1946612368
 20
101.9559146165
 10
220.9326661778
 20
99.3744438934
 10
220.6095271106
 20
96.7524895997
 10
220.2253243274
 20
94.0924204562
 10
219.7800138953
 20
91.3927528736
 10
219.2741841575
 20
88.6550697491
 10
218.7091654588
 20
85.8862163759
 10
218.0858213741
 20
83.0884034503
 10
217.4043176528
 20
80.2592988184
  0
LWPOLYLINE
  5
7AA
100
AcDbEntity
  8
RACCORDO
100
AcDbPolyline
 62
7
  6
CONTINUOUS
 90
13
 70
0
 10
216.8078775078
 20
77.6400473323
 10
217.672801576
 20
80.9966383753
 10
218.5252534039
 20
84.6066152233
 10
219.2830965106
 20
88.1677170109
 10
219.9448172248
 20
91.6767524732
 10
220.5091724743
 20
95.1315650828
 10
220.9752910907
 20
98.5308119297
 10
221.3421490433
 20
101.8715926331
 10
221.6088376752
 20
105.1510395294
 10
221.7748911439
 20
108.3678178108
 10
221.8397504075
 20
111.5196536185
 10
221.8030718012
 20
114.6031840491
 10
221.7968553924
 20
114.7438120971
  0
LINE
  5
7AB
100
AcDbEntity
  8
RACCORDO
100
AcDbLine
 62
253
  6
CONTINUOUS
 10
217.4043176528
 20
80.2592988184
 11
216.665143269
 21
77.3988432812
  0
LINE
  5
7AC
100
AcDbEntity
  8
RACCORDO
100
AcDbLine
 62
7
  6
CONTINUOUS
 10
216.8079393073
 20
77.6401469714
 11
216.8079100014
 21
77.6400374753
  0
LWPOLYLINE
  5
7AD
100
AcDbEntity
  8
RACCORDO
100
AcDbPolyline
 62
7
  6
CONTINUOUS
 90
3
 70
0
 10
216.8079393073
 20
77.6401469714
 10
216.7486722487
 20
77.4551208089
 10
216.6721603541
 20
77.2775898295
  0
LINE
  5
7AE
100
AcDbEntity
  8
RACCORDO
100
AcDbLine
 62
253
  6
CONTINUOUS
 10
216.8079100014
 20
77.6400374753
 11
216.7831951106
 21
77.5695751599
  0
LINE
  5
7AF
100
AcDbEntity
  8
RACCORDO
100
AcDbLine
 62
253
  6
CONTINUOUS
 10
209.4347750821
 20
64.5179382175
 11
209.4984801219
 21
64.6827155485
  0
LWPOLYLINE
  5
7B0
100
AcDbEntity
  8
RACCORDO
100
AcDbPolyline
 62
253
  6
CONTINUOUS
 90
4
 70
0
 10
216.619306503
 20
77.1769741895
 10
216.6463875178
 20
77.2370650541
 10
216.6646061536
 20
77.3164360206
 10
216.665163094
 20
77.3988775479
  0
LWPOLYLINE
  5
7B1
100
AcDbEntity
  8
RACCORDO
100
AcDbPolyline
 62
253
  6
CONTINUOUS
 90
4
 70
0
 10
209.4514182966
 20
64.4664740652
 10
209.475722516
 20
64.5193530307
 10
209.494877996
 20
64.5973188414
 10
209.4984801219
 20
64.6827155485
  0
LINE
  5
7B2
100
AcDbEntity
  8
RACCORDO
100
AcDbLine
 62
7
  6
CONTINUOUS
 10
216.6721603541
 20
77.2775898295
 11
216.619306503
 21
77.1769741895
  0
LWPOLYLINE
  5
7B3
100
AcDbEntity
  8
RACCORDO
100
AcDbPolyline
 62
253
  6
CONTINUOUS
 90
3
 70
0
 10
216.7831951106
 20
77.5695751599
 10
216.7335056725
 20
77.4808332039
 10
216.665163094
 20
77.3988775479
  0
LINE
  5
7B4
100
AcDbEntity
  8
RACCORDO
100
AcDbLine
 62
7
  6
CONTINUOUS
 10
216.619079127
 20
77.1765696016
 11
216.619306503
 21
77.1769741895
  0
LINE
  5
7B5
100
AcDbEntity
  8
RACCORDO
100
AcDbLine
 62
253
  6
CONTINUOUS
 10
216.665143269
 20
77.3988432812
 11
214.2774081012
 21
73.1576803297
  0
LINE
  5
7B6
100
AcDbEntity
  8
RACCORDO
100
AcDbLine
 62
253
  6
CONTINUOUS
 10
214.2774081012
 20
73.1576803297
 11
211.8885488724
 21
68.9190201337
  0
LINE
  5
7B7
100
AcDbEntity
  8
RACCORDO
100
AcDbLine
 62
7
  6
CONTINUOUS
 10
212.6261094968
 20
70.0910458534
 11
216.6187665491
 21
77.1760139695
  0
LINE
  5
7B8
100
AcDbEntity
  8
RACCORDO
100
AcDbLine
 62
253
  6
CONTINUOUS
 10
211.8885488724
 20
68.9190201337
 11
209.4985659258
 21
64.6828663653
  0
LINE
  5
7B9
100
AcDbEntity
  8
RACCORDO
100
AcDbLine
 62
7
  6
CONTINUOUS
 10
209.4514182975
 20
64.4664740644
 11
212.6261094968
 21
70.0910458534
  0
LINE
  5
7BA
100
AcDbEntity
  8
RACCORDO
100
AcDbLine
 62
7
  6
CONTINUOUS
 10
209.4514182972
 20
64.4664740662
 11
209.3604086895
 21
64.320403746
  0
LWPOLYLINE
  5
7BB
100
AcDbEntity
  8
RACCORDO
100
AcDbPolyline
 62
7
  6
CONTINUOUS
 90
6
 70
0
 10
209.3604086895
 20
64.320403746
 10
209.2571373184
 20
64.1826476338
 10
209.142459927
 20
64.0543439657
 10
209.0176900692
 20
63.9368161325
 10
208.883619646
 20
63.8306238842
 10
208.7993546726
 20
63.7727822807
  0
LWPOLYLINE
  5
7BC
100
AcDbEntity
  8
RACCORDO
100
AcDbPolyline
 62
253
  6
CONTINUOUS
 90
4
 70
0
 10
209.1452703466
 20
64.0706493394
 10
209.2560418492
 20
64.2089376701
 10
209.3534517075
 20
64.3590834378
 10
209.4347750821
 20
64.5179382175
  0
LWPOLYLINE
  5
7BD
100
AcDbEntity
  8
RACCORDO
100
AcDbPolyline
 62
253
  6
CONTINUOUS
 90
4
 70
0
 10
208.8016929679
 20
63.7743034676
 10
208.8868593168
 20
63.8335864882
 10
209.0224199699
 20
63.9455852861
 10
209.1452703466
 20
64.0706493394
  0
LWPOLYLINE
  5
7BE
100
AcDbEntity
  8
0
100
AcDbPolyline
 62
253
  6
CONTINUOUS
 90
3
 70
0
 10
221.0689025248
 20
127.1651536404
 10
221.1410350819
 20
126.5477957482
 10
221.2064414045
 20
125.9286844865
  0
LWPOLYLINE
  5
7BF
100
AcDbEntity
  8
0
100
AcDbPolyline
 62
7
  6
CONTINUOUS
 90
9
 70
0
 10
223.5982242645
 20
126.8680364904
 10
223.6050112937
 20
126.8021707279
 10
223.610443261
 20
126.635823852
 10
223.598926744
 20
126.4685139477
 10
223.5707545183
 20
126.3002780561
 10
223.5264366147
 20
126.1339805965
 10
223.4661430435
 20
125.9705763753
 10
223.3897037945
 20
125.8091105862
 10
223.2971188676
 20
125.6495832291
  0
LWPOLYLINE
  5
7C0
100
AcDbEntity
  8
0
100
AcDbPolyline
 62
253
  6
CONTINUOUS
 90
10
 70
0
 10
223.7281773574
 20
118.0308707537
 10
223.7285026368
 20
118.8885565119
 10
223.7168133159
 20
119.743531053
 10
223.6930955028
 20
120.595757816
 10
223.6573468426
 20
121.445189966
 10
223.6095436799
 20
122.2918000931
 10
223.549638638
 20
123.1355810348
 10
223.4776055396
 20
123.9765058738
 10
223.3934418328
 20
124.8145271188
 10
223.2971340574
 20
125.6496069769
  0
LWPOLYLINE
  5
7C1
100
AcDbEntity
  8
RACCORDO
100
AcDbPolyline
 62
7
  6
CONTINUOUS
 90
10
 70
0
 10
224.0415073301
 20
118.9975250646
 10
224.0432248241
 20
119.6769710366
 10
224.0333560065
 20
120.6246770065
 10
224.0091811245
 20
121.5681179185
 10
223.9707269222
 20
122.5070127378
 10
223.9180213238
 20
123.4414102655
 10
223.8510603253
 20
124.3716674906
 10
223.7698411863
 20
125.2978271201
 10
223.6743882728
 20
126.2196219198
 10
223.5983990801
 20
126.8680599072
  0
LINE
  5
7C2
100
AcDbEntity
  8
RACCORDO
100
AcDbLine
 62
7
  6
CONTINUOUS
 10
224.0414676544
 20
118.9959304572
 11
224.0414807229
 21
118.9975381631
  0
LWPOLYLINE
  5
7C3
100
AcDbEntity
  8
RACCORDO
100
AcDbPolyline
 62
253
  6
CONTINUOUS
 90
5
 70
0
 10
223.7281773884
 20
118.0308708022
 10
223.7250052721
 20
117.9065463786
 10
223.704126016
 20
117.7898734416
 10
223.6657464798
 20
117.6820074199
 10
223.6229621973
 20
117.6031996615
  0
LWPOLYLINE
  5
7C4
100
AcDbEntity
  8
0
100
AcDbPolyline
 62
7
  6
CONTINUOUS
 90
11
 70
0
 10
221.6158880985
 20
126.6024115815
 10
221.6065397916
 20
126.6568145786
 10
221.5839754229
 20
126.7310935445
 10
221.550729785
 20
126.8033728253
 10
221.5078616567
 20
126.8712884069
 10
221.4550497358
 20
126.934691636
 10
221.3926153246
 20
126.9937311659
 10
221.3225811092
 20
127.0464889429
 10
221.2456213184
 20
127.0923256156
 10
221.1610617234
 20
127.1318805354
 10
221.0689023243
 20
127.1651537022
  0
ELLIPSE
  5
7C5
100
AcDbEntity
  8
0
100
AcDbEllipse
 62
7
  6
CONTINUOUS
 10
-372.1934165382
 20
163.0958403289
 30
0.0
 11
529.2095905161
 21
74.00877947
 31
0.0
 40
0.7391210567
 41
-0.3711062759
 42
-0.37104668
  0
ELLIPSE
  5
7C6
100
AcDbEntity
  8
0
100
AcDbEllipse
 62
7
  6
CONTINUOUS
 10
-358.8333728064
 20
158.9931003305
 30
0.0
 11
529.2095905161
 21
74.00877947
 31
0.0
 40
0.7391210567
 41
-0.3711062759
 42
-0.37104668
  0
ELLIPSE
  5
7C7
100
AcDbEntity
  8
ASSI
100
AcDbEllipse
 62
7
  6
CONTINUOUS
 10
138.0372311535
 20
96.9870185864
 30
0.0
 11
1.6995871557
 21
0.6286598839
 31
0.0
 40
0.8291120854
 41
0.7708370497
 42
2.187346951
  0
ELLIPSE
  5
7C8
100
AcDbEntity
  8
ASSI
100
AcDbEllipse
 62
7
  6
CONTINUOUS
 10
177.2895695944
 20
79.1966528265
 30
0.0
 11
2.503008968
 21
0.9258373847
 31
0.0
 40
0.8291120854
 41
6.363151533
 42
7.0083979242
  0
ELLIPSE
  5
7C9
100
AcDbEntity
  8
ASSI
100
AcDbEllipse
 62
7
  6
CONTINUOUS
 10
179.7617622284
 20
83.7261742339
 30
0.0
 11
1.6898023368
 21
0.6250405796
 31
0.0
 40
0.8291120854
 41
-1.803717519
 42
-0.1863359968
  0
ELLIPSE
  5
7CA
100
AcDbEntity
  8
ASSI
100
AcDbEllipse
 62
7
  6
CONTINUOUS
 10
177.6586177803
 20
79.48843501
 30
0.0
 11
2.4729704451
 21
0.9147264427
 31
0.0
 40
0.8291120854
 41
0.0486137176
 42
0.4348720074
  0
ELLIPSE
  5
7CB
100
AcDbEntity
  8
0
100
AcDbEllipse
 62
7
  6
CONTINUOUS
 10
149.4538961043
 20
29.1970061381
 30
0.0
 11
107.0130613428
 21
108.7636892892
 31
0.0
 40
0.3798609749
 41
1.2636298257
 42
1.2669881126
  0
ELLIPSE
  5
7CC
100
AcDbEntity
  8
DRAFT
100
AcDbEllipse
 62
7
  6
CONTINUOUS
 10
122.9363948392
 20
103.4862613603
 30
0.0
 11
2.6572065932
 21
0.9828829616
 31
0.0
 40
0.8291121659
 41
-2.8773305085
 42
-2.5338806446
  0
ELLIPSE
  5
7CD
100
AcDbEntity
  8
0
100
AcDbEllipse
 62
7
  6
CONTINUOUS
 10
47.3972047499
 20
60.5376273322
 30
0.0
 11
132.8385256708
 21
-130.7003599673
 31
0.0
 40
0.6529570375
 41
1.1710503175
 42
1.1744085924
  0
ELLIPSE
  5
7CE
100
AcDbEntity
  8
DRAFT
100
AcDbEllipse
 62
7
  6
CONTINUOUS
 10
122.9363948392
 20
103.4862613603
 30
0.0
 11
2.6572065932
 21
0.9828829616
 31
0.0
 40
0.8291121659
 41
5.0617554579
 42
6.1207291761
  0
ELLIPSE
  5
7CF
100
AcDbEntity
  8
0
100
AcDbEllipse
 62
7
  6
CONTINUOUS
 10
580.9663086845
 20
293.8075006275
 30
0.0
 11
913.5102651787
 21
1714.1268061679
 31
0.0
 40
0.1757479325
 41
-4.5131635323
 42
-4.5114099366
  0
ELLIPSE
  5
7D0
100
AcDbEntity
  8
0
100
AcDbEllipse
 62
7
  6
CONTINUOUS
 10
192.7678812523
 20
86.0506985519
 30
0.0
 11
0.0028389122
 21
4.144092547
 31
0.0
 40
0.2804910712
 41
-3.622099098
 42
-2.8325168586
  0
ELLIPSE
  5
7D1
100
AcDbEntity
  8
0
100
AcDbEllipse
 62
7
  6
CONTINUOUS
 10
96.5755663835
 20
115.5904265411
 30
0.0
 11
0.0028389122
 21
4.144092547
 31
0.0
 40
0.2804910712
 41
-3.622099098
 42
-2.8325168586
  0
ELLIPSE
  5
7D2
100
AcDbEntity
  8
ASSI
100
AcDbEllipse
 62
7
  6
CONTINUOUS
 10
179.7617622284
 20
83.7261742339
 30
0.0
 11
2.8076944296
 21
1.0385374167
 31
0.0
 40
0.8291120854
 41
4.353531536
 42
10.3110608784
  0
ELLIPSE
  5
7D3
100
AcDbEntity
  8
ASSI
100
AcDbEllipse
 62
7
  6
CONTINUOUS
 10
179.7816388609
 20
83.5911782673
 30
0.0
 11
2.8076944296
 21
1.0385374167
 31
0.0
 40
0.8291120854
 41
6.2443293001
 42
9.1236192447
  0
ELLIPSE
  5
7D4
100
AcDbEntity
  8
ASSI
100
AcDbEllipse
 62
7
  6
CONTINUOUS
 10
179.7617622284
 20
83.7261742339
 30
0.0
 11
1.6898032221
 21
0.625040907
 31
0.0
 40
0.8291120854
 41
8.1223636796
 42
9.7397452769
  0
ELLIPSE
  5
7D5
100
AcDbEntity
  8
ASSI
100
AcDbEllipse
 62
7
  6
CONTINUOUS
 10
179.7617622284
 20
83.7261742339
 30
0.0
 11
2.1091408392
 21
0.7801495973
 31
0.0
 40
0.8291120854
 41
4.4794676271
 42
6.324134639
  0
ELLIPSE
  5
7D6
100
AcDbEntity
  8
ASSI
100
AcDbEllipse
 62
7
  6
CONTINUOUS
 10
138.0372311535
 20
96.9870185864
 30
0.0
 11
1.6995842817
 21
0.6286588208
 31
0.0
 40
0.8291120854
 41
8.8902738207
 42
10.3067834558
  0
ELLIPSE
  5
7D7
100
AcDbEntity
  8
ASSI
100
AcDbEllipse
 62
7
  6
CONTINUOUS
 10
134.1315470623
 20
98.1864163327
 30
0.0
 11
1.6995871557
 21
0.6286598839
 31
0.0
 40
0.8291120854
 41
7.0540223569
 42
10.3067833617
  0
ELLIPSE
  5
7D8
100
AcDbEntity
  8
ASSI
100
AcDbEllipse
 62
7
  6
CONTINUOUS
 10
117.4145595207
 20
104.5284368308
 30
0.0
 11
1.0714385765
 21
0.3963141571
 31
0.0
 40
0.8291120854
 41
6.225583269
 42
7.1096065325
  0
ELLIPSE
  5
7D9
100
AcDbEntity
  8
ASSI
100
AcDbEllipse
 62
7
  6
CONTINUOUS
 10
117.3230752853
 20
104.5565307532
 30
0.0
 11
0.4250932035
 21
0.1572376227
 31
0.0
 40
0.8291120854
 41
-2.3151714282
 42
-0.1725956906
  0
ELLIPSE
  5
7DA
100
AcDbEntity
  8
ASSI
100
AcDbEllipse
 62
7
  6
CONTINUOUS
 10
134.1315470623
 20
98.1864163327
 30
0.0
 11
2.4077471928
 21
0.8906010295
 31
0.0
 40
0.8291120854
 41
0.7871954582
 42
4.0072396461
  0
ELLIPSE
  5
7DB
100
AcDbEntity
  8
ASSI
100
AcDbEllipse
 62
7
  6
CONTINUOUS
 10
138.0372311535
 20
96.9870185864
 30
0.0
 11
2.4077473039
 21
0.8906010706
 31
0.0
 40
0.8291120854
 41
0.78719546
 42
4.0072396443
  0
ELLIPSE
  5
7DC
100
AcDbEntity
  8
ASSI
100
AcDbEllipse
 62
7
  6
CONTINUOUS
 10
179.7617622284
 20
83.7261742339
 30
0.0
 11
2.3582669778
 21
0.8722988047
 31
0.0
 40
0.8291120854
 41
0.0
 42
6.2831853072
  0
ELLIPSE
  5
7DD
100
AcDbEntity
  8
ASSI
100
AcDbEllipse
 62
7
  6
CONTINUOUS
 10
134.1514236947
 20
98.051420366
 30
0.0
 11
2.4077471928
 21
0.8906010295
 31
0.0
 40
0.8291120854
 41
7.1048051613
 42
9.2189636654
  0
ELLIPSE
  5
7DE
100
AcDbEntity
  8
ASSI
100
AcDbEllipse
 62
7
  6
CONTINUOUS
 10
134.1514236947
 20
98.051420366
 30
0.0
 11
1.6995871557
 21
0.6286598839
 31
0.0
 40
0.8291120854
 41
2.9689242859
 42
3.9748190923
  0
ELLIPSE
  5
7DF
100
AcDbEntity
  8
ASSI
100
AcDbEllipse
 62
7
  6
CONTINUOUS
 10
138.057107786
 20
96.8520226197
 30
0.0
 11
1.6995842817
 21
0.6286588208
 31
0.0
 40
0.8291120854
 41
2.9682369342
 42
3.9748100969
  0
ELLIPSE
  5
7E0
100
AcDbEntity
  8
ASSI
100
AcDbEllipse
 62
7
  6
CONTINUOUS
 10
138.057107786
 20
96.8520226197
 30
0.0
 11
2.4077473039
 21
0.8906010706
 31
0.0
 40
0.8291120854
 41
7.1048051615
 42
9.2189636542
  0
ELLIPSE
  5
7E1
100
AcDbEntity
  8
ASSI
100
AcDbEllipse
 62
7
  6
CONTINUOUS
 10
179.7816388609
 20
83.5911782673
 30
0.0
 11
2.3582669778
 21
0.8722988047
 31
0.0
 40
0.8291120854
 41
3.0283484785
 42
6.0655555231
  0
ELLIPSE
  5
7E2
100
AcDbEntity
  8
ASSI
100
AcDbEllipse
 62
7
  6
CONTINUOUS
 10
179.7816388609
 20
83.5911782673
 30
0.0
 11
1.6898023368
 21
0.6250405796
 31
0.0
 40
0.8291120854
 41
-1.803717519
 42
-0.3217962187
  0
ELLIPSE
  5
7E3
100
AcDbEntity
  8
ASSI
100
AcDbEllipse
 62
7
  6
CONTINUOUS
 10
179.7816388609
 20
83.5911782673
 30
0.0
 11
1.6898032221
 21
0.625040907
 31
0.0
 40
0.8291120854
 41
2.9682759714
 42
3.3763059298
  0
ELLIPSE
  5
7E4
100
AcDbEntity
  8
ASSI
100
AcDbEllipse
 62
7
  6
CONTINUOUS
 10
179.7816388609
 20
83.5911782673
 30
0.0
 11
2.1091406989
 21
0.7801495454
 31
0.0
 40
0.8291120854
 41
7.8932639542
 42
9.2129467501
  0
ELLIPSE
  5
7E5
100
AcDbEntity
  8
ASSI
100
AcDbEllipse
 62
7
  6
CONTINUOUS
 10
177.6784944128
 20
79.3534390433
 30
0.0
 11
2.4729704451
 21
0.9147264427
 31
0.0
 40
0.8291120854
 41
6.3897549037
 42
6.7180573146
  0
ELLIPSE
  5
7E6
100
AcDbEntity
  8
ASSI
100
AcDbEllipse
 62
7
  6
CONTINUOUS
 10
179.7617622284
 20
83.7261742339
 30
0.0
 11
2.1091406989
 21
0.7801495454
 31
0.0
 40
0.8291120854
 41
1.610078647
 42
3.4565601308
  0
ENDSEC
  0
SECTION
  2
OBJECTS
  0
DICTIONARY
  5
C
100
AcDbDictionary
280
0
281
1
  3
ACAD_GROUP
350
D
  3
ACAD_MLINESTYLE
350
17
  3
ACAD_LAYOUT
350
1A
  3
ACAD_PLOTSETTINGS
350
19
  3
ACAD_PLOTSTYLENAME
350
E
  0
DICTIONARY
  5
D
102
{ACAD_REACTORS
330
C
102
}
100
AcDbDictionary
280
0
281
1
  0
ACDBDICTIONARYWDFLT
  5
E
102
{ACAD_REACTORS
330
C
102
}
100
AcDbDictionary
281
1
  3
Normal
350
F
100
AcDbDictionaryWithDefault
340
F
  0
DICTIONARY
  5
17
102
{ACAD_REACTORS
330
C
102
}
100
AcDbDictionary
280
0
281
1
  3
Standard
350
18
  0
DICTIONARY
  5
19
102
{ACAD_REACTORS
330
C
102
}
100
AcDbDictionary
281
1
  0
DICTIONARY
  5
1A
102
{ACAD_REACTORS
330
C
102
}
100
AcDbDictionary
281
1
  3
Model
350
7E7
  3
Layout1
350
7E8
  0
ACDBPLACEHOLDER
  5
F
102
{ACAD_REACTORS
330
E
102
}
  0
MLINESTYLE
  5
18
102
{ACAD_REACTORS
330
17
102
}
100
AcDbMlineStyle
  2
STANDARD
 70
0
  3

 62
256
 51
90.0
 52
90.0
 71
2
 49
0.5
 62
256
  6
BYLAYER
 49
-0.5
 62
256
  6
BYLAYER
  0
LAYOUT
  5
7E7
102
{ACAD_REACTORS
330
1A
102
}
100
AcDbPlotSettings
  1

  2
none_device
  4
ISO_A4_(297.00_x_210.00_MM)
  6

 40
0.0
 41
0.0
 42
0.0
 43
0.0
 44
297.0
 45
210.0
 46
0.0
 47
0.0
 48
0.0
 49
0.0
140
0.0
141
0.0
142
1.0
143
1.0
 70
1024
 72
1
 73
0
 74
0
  7

 75
0
147
1.0
148
0.0
149
0.0
100
AcDbLayout
  1
Model
 70
0
 71
0
 10
0.0
 20
0.0
 11
297.0
 21
210.0
 12
0.0
 22
0.0
 32
0.0
 14
0.0
 24
0.0
 34
0.0
 15
0.0
 25
0.0
 35
0.0
146
0.0
 13
0.0
 23
0.0
 33
0.0
 16
1.0
 26
0.0
 36
0.0
 17
0.0
 27
1.0
 37
0.0
 76
0
330
214
345
0
346
0
  0
LAYOUT
  5
7E8
102
{ACAD_REACTORS
330
1A
102
}
100
AcDbPlotSettings
  1

  2
none_device
  4
ISO_A4_(297.00_x_210.00_MM)
  6

 40
0.0
 41
0.0
 42
0.0
 43
0.0
 44
297.0
 45
210.0
 46
0.0
 47
0.0
 48
0.0
 49
0.0
140
0.0
141
0.0
142
1.0
143
1.0
 70
0
 72
1
 73
0
 74
0
  7

 75
0
147
1.0
148
0.0
149
0.0
100
AcDbLayout
  1
Layout1
 70
0
 71
1
 10
0.0
 20
0.0
 11
297.0
 21
210.0
 12
0.0
 22
0.0
 32
0.0
 14
0.0
 24
0.0
 34
0.0
 15
0.0
 25
0.0
 35
0.0
146
0.0
 13
0.0
 23
0.0
 33
0.0
 16
1.0
 26
0.0
 36
0.0
 17
0.0
 27
1.0
 37
0.0
 76
0
330
215
345
0
346
0
  0
ENDSEC
  0
EOF
