0
SECTION
2
HEADER
9
$ACADVER
1
AC1014
9
$HANDSEED
5
       3FD
9
$EXTMAX
10
297.0000000000
20
210.0000000000
9
$EXTMIN
10
0.0000000000
20
0.0000000000
9
$LIMMIN
10
0.0000000000
20
0.0000000000
9
$LIMMAX
10
297.0000000000
20
210.0000000000
9
$VIEWCTR
10
148.5000000000
20
105.0000000000
9
$VIEWSIZE
40
210.0000000000
9
$CLAYER
8
0
9
$LTSCALE
40
16.3350000000
9
$CELTYPE
6
BYLAYER
9
$DIMSCALE
40
1
9
$DIMASZ
40
3.0000000000
9
$DIMEXO
40
1.8562500000
9
$DIMDLI
40
11.2860000000
9
$DIMEXE
40
5.3460000000
9
$DIMCEN
40
2.6730000000
9
$DIMLFAC
40
1.0000000000
9
$DIMTXT
40
3.0000000000
9
$DIMTOL
70
1
9
$DIMLIM
70
0
9
$DIMTFAC
40
1.0000000000
9
$DIMTP
40
0.0100000000
9
$DIMTM
40
0.0100000000
9
$MEASUREMENT
70
1
0
ENDSEC
0
SECTION
2
CLASSES
0
ENDSEC
0
SECTION
2
TABLES
0
TABLE
2
VPORT
5
8
100
AcDbSymbolTable
70
2
0
VPORT
5
1F4
100
AcDbSymbolTableRecord
100
AcDbViewportTableRecord
2
*ACTIVE
70
0
10
0.0
20
0.0
11
1.0
21
1.0
12
148.5000000000
22
105.0000000000
13
0.0
23
0.0
14
1.0
24
1.0
15
0.0
25
0.0
16
0.0
26
0.0
36
1.0
17
0.0
27
0.0
37
0.0
40
210.0000000000
41
1.4142857143
42
50.0
43
0.0
44
0.0
50
0.0
51
0.0
71
0
72
100
73
1
74
1
75
0
76
0
77
0
78
0
0
ENDTAB
0
TABLE
2
LTYPE
5
5
100
AcDbSymbolTable
70
6
0
LTYPE
5
14
100
AcDbSymbolTableRecord
100
AcDbLinetypeTableRecord
2
BYBLOCK
70
0
3

72
65
73
0
40
0.0
0
LTYPE
5
15
100
AcDbSymbolTableRecord
100
AcDbLinetypeTableRecord
2
BYLAYER
70
0
3

72
65
73
0
40
0.0
0
LTYPE
5
16
100
AcDbSymbolTableRecord
100
AcDbLinetypeTableRecord
2
CONTINUOUS
70
64
3
Solid line
72
65
73
0
40
0
0
LTYPE
5
1F5
100
AcDbSymbolTableRecord
100
AcDbLinetypeTableRecord
2
CENTER
70
64
3
____ _ ____ _ ____ _ ____ _ ____ _ ____ _ ____
72
65
73
4
40
0.6
49
0.375
74
0
49
-0.075
74
0
49
0.075
74
0
49
-0.075
74
0
0
LTYPE
5
1F6
100
AcDbSymbolTableRecord
100
AcDbLinetypeTableRecord
2
HIDDEN
70
64
3
- - - - - - - - - - - - - - - - - - - -
72
65
73
2
40
0.2
49
0.1
74
0
49
-0.1
74
0
0
LTYPE
5
1F7
100
AcDbSymbolTableRecord
100
AcDbLinetypeTableRecord
2
PHANTOM
70
64
3
_____ _ _ _____ _ _ _____ _ _ _____
72
65
73
6
40
0.8
49
0.45
74
0
49
-0.05
74
0
49
0.1
74
0
49
-0.05
74
0
49
0.1
74
0
49
-0.05
74
0
0
LTYPE
5
1F8
100
AcDbSymbolTableRecord
100
AcDbLinetypeTableRecord
2
DOT
70
64
3
. . . . . . . . . . . . . . . . . . . .
72
65
73
2
40
0.2
49
0.1
74
0
49
-0.1
74
0
0
LTYPE
5
1F9
100
AcDbSymbolTableRecord
100
AcDbLinetypeTableRecord
2
DASHED
70
64
3
- - - - - - - - - - - - - - - - - - - -
72
65
73
2
40
0.2
49
0.1
74
0
49
-0.1
74
0
0
ENDTAB
0
TABLE
2
LAYER
5
2
100
AcDbSymbolTable
70
36
0
LAYER
5
10
100
AcDbSymbolTableRecord
100
AcDbLayerTableRecord
2
0
70
0
62
7
6
CONTINUOUS
0
LAYER
5
1FA
100
AcDbSymbolTableRecord
100
AcDbLayerTableRecord
2
DEFAULT_1
70
0
62
7
6
CENTER
0
LAYER
5
1FB
100
AcDbSymbolTableRecord
100
AcDbLayerTableRecord
2
DEFAULT_2
70
0
62
8
6
HIDDEN
0
LAYER
5
1FC
100
AcDbSymbolTableRecord
100
AcDbLayerTableRecord
2
DEFAULT_3
70
0
62
7
6
PHANTOM
0
LAYER
5
1FD
100
AcDbSymbolTableRecord
100
AcDbLayerTableRecord
2
_BLACK_HOLE
70
0
62
7
6
CONTINUOUS
0
LAYER
5
1FE
100
AcDbSymbolTableRecord
100
AcDbLayerTableRecord
2
218160210_GEN
70
0
62
7
6
CONTINUOUS
0
LAYER
5
1FF
100
AcDbSymbolTableRecord
100
AcDbLayerTableRecord
2
224160210_GEN
70
0
62
7
6
CONTINUOUS
0
LAYER
5
200
100
AcDbSymbolTableRecord
100
AcDbLayerTableRecord
2
268160210
70
0
62
7
6
CONTINUOUS
0
LAYER
5
201
100
AcDbSymbolTableRecord
100
AcDbLayerTableRecord
2
284160010
70
0
62
7
6
CONTINUOUS
0
LAYER
5
202
100
AcDbSymbolTableRecord
100
AcDbLayerTableRecord
2
290160210
70
0
62
7
6
CONTINUOUS
0
LAYER
5
203
100
AcDbSymbolTableRecord
100
AcDbLayerTableRecord
2
32016001
70
0
62
7
6
CONTINUOUS
0
LAYER
5
204
100
AcDbSymbolTableRecord
100
AcDbLayerTableRecord
2
341160050
70
0
62
7
6
CONTINUOUS
0
LAYER
5
205
100
AcDbSymbolTableRecord
100
AcDbLayerTableRecord
2
349160010
70
0
62
7
6
CONTINUOUS
0
LAYER
5
206
100
AcDbSymbolTableRecord
100
AcDbLayerTableRecord
2
712160050
70
0
62
7
6
CONTINUOUS
0
LAYER
5
207
100
AcDbSymbolTableRecord
100
AcDbLayerTableRecord
2
715160050
70
0
62
7
6
CONTINUOUS
0
LAYER
5
208
100
AcDbSymbolTableRecord
100
AcDbLayerTableRecord
2
ASSI
70
0
62
7
6
CONTINUOUS
0
LAYER
5
209
100
AcDbSymbolTableRecord
100
AcDbLayerTableRecord
2
COLOR2
70
0
62
7
6
CONTINUOUS
0
LAYER
5
20A
100
AcDbSymbolTableRecord
100
AcDbLayerTableRecord
2
COORDINATE
70
0
62
7
6
CONTINUOUS
0
LAYER
5
20B
100
AcDbSymbolTableRecord
100
AcDbLayerTableRecord
2
COORD_ORIGINE
70
0
62
7
6
CONTINUOUS
0
LAYER
5
20C
100
AcDbSymbolTableRecord
100
AcDbLayerTableRecord
2
COSMETICHE
70
0
62
7
6
CONTINUOUS
0
LAYER
5
20D
100
AcDbSymbolTableRecord
100
AcDbLayerTableRecord
2
COSMETICI
70
0
62
7
6
CONTINUOUS
0
LAYER
5
20E
100
AcDbSymbolTableRecord
100
AcDbLayerTableRecord
2
CURVE
70
0
62
7
6
CONTINUOUS
0
LAYER
5
20F
100
AcDbSymbolTableRecord
100
AcDbLayerTableRecord
2
DRAFT
70
0
62
7
6
CONTINUOUS
0
LAYER
5
210
100
AcDbSymbolTableRecord
100
AcDbLayerTableRecord
2
ESTENSIONE
70
0
62
7
6
CONTINUOUS
0
LAYER
5
211
100
AcDbSymbolTableRecord
100
AcDbLayerTableRecord
2
IMPORT
70
0
62
7
6
CONTINUOUS
0
LAYER
5
212
100
AcDbSymbolTableRecord
100
AcDbLayerTableRecord
2
INCISIONI_LASER
70
0
62
7
6
CONTINUOUS
0
LAYER
5
213
100
AcDbSymbolTableRecord
100
AcDbLayerTableRecord
2
INTF_1
70
0
62
7
6
CONTINUOUS
0
LAYER
5
214
100
AcDbSymbolTableRecord
100
AcDbLayerTableRecord
2
INTF_YELLOW
70
0
62
7
6
CONTINUOUS
0
LAYER
5
215
100
AcDbSymbolTableRecord
100
AcDbLayerTableRecord
2
NOTE
70
0
62
7
6
CONTINUOUS
0
LAYER
5
216
100
AcDbSymbolTableRecord
100
AcDbLayerTableRecord
2
PIANI
70
0
62
7
6
CONTINUOUS
0
LAYER
5
217
100
AcDbSymbolTableRecord
100
AcDbLayerTableRecord
2
PIANI_CENTRAGGIO
70
0
62
7
6
CONTINUOUS
0
LAYER
5
218
100
AcDbSymbolTableRecord
100
AcDbLayerTableRecord
2
PIANI_DI_RIFERIMENTO
70
0
62
7
6
CONTINUOUS
0
LAYER
5
219
100
AcDbSymbolTableRecord
100
AcDbLayerTableRecord
2
PIANI_ORIGINE
70
0
62
7
6
CONTINUOUS
0
LAYER
5
21A
100
AcDbSymbolTableRecord
100
AcDbLayerTableRecord
2
PUNTI
70
0
62
7
6
CONTINUOUS
0
LAYER
5
21B
100
AcDbSymbolTableRecord
100
AcDbLayerTableRecord
2
RACCORDO
70
0
62
7
6
CONTINUOUS
0
LAYER
5
21C
100
AcDbSymbolTableRecord
100
AcDbLayerTableRecord
2
RGB____0____0____0__
70
0
62
7
6
CONTINUOUS
0
LAYER
5
21D
100
AcDbSymbolTableRecord
100
AcDbLayerTableRecord
2
SMUSSO
70
0
62
7
6
CONTINUOUS
0
LAYER
5
21E
100
AcDbSymbolTableRecord
100
AcDbLayerTableRecord
2
SUPERFICI
70
0
62
7
6
CONTINUOUS
0
LAYER
5
21F
100
AcDbSymbolTableRecord
100
AcDbLayerTableRecord
2
TRASH
70
0
62
7
6
CONTINUOUS
0
LAYER
5
220
100
AcDbSymbolTableRecord
100
AcDbLayerTableRecord
2
XSEC_DATUMS
70
0
62
7
6
CONTINUOUS
0
ENDTAB
0
TABLE
2
STYLE
5
3
100
AcDbSymbolTable
70
1
0
STYLE
5
11
100
AcDbSymbolTableRecord
100
AcDbTextStyleTableRecord
2
STANDARD
70
0
40
0.0
41
0.8000000000
50
0.0
71
0
42
0.2
3
txt
4

0
ENDTAB
0
TABLE
2
VIEW
5
6
100
AcDbSymbolTable
70
0
0
ENDTAB
0
TABLE
2
UCS
5
7
100
AcDbSymbolTable
70
0
0
ENDTAB
0
TABLE
2
APPID
5
9
100
AcDbSymbolTable
70
1
0
APPID
5
221
100
AcDbSymbolTableRecord
100
AcDbRegAppTableRecord
2
ACAD
70
0
0
ENDTAB
0
TABLE
2
DIMSTYLE
5
A
100
AcDbSymbolTable
70
1
0
DIMSTYLE
105
222
100
AcDbSymbolTableRecord
100
AcDbDimStyleTableRecord
2
STANDARD
70
0
3

4

5

6

7

40
1.0
41
3.0000000000
42
0.0625
43
0.38
44
0.18
45
0.0
46
0.0
47
0.0100000000
48
0.0100000000
140
3.0000000000
141
0.09
142
0.0
143
25.4
144
1.0000000000
145
0.0
146
1.0000000000
147
0.09
71
1
72
0
73
0
74
0
75
0
76
0
77
1
78
8
170
0
171
2
172
0
173
0
174
0
175
0
176
0
177
0
178
0
270
2
271
2
272
2
273
2
274
2
340
11
275
0
280
0
281
0
282
0
283
1
284
8
285
0
286
0
287
3
288
0
0
ENDTAB
0
TABLE
2
BLOCK_RECORD
5
1
100
AcDbSymbolTable
70
0
0
BLOCK_RECORD
5
1B
100
AcDbSymbolTableRecord
100
AcDbBlockTableRecord
2
*MODEL_SPACE
0
BLOCK_RECORD
5
1C
100
AcDbSymbolTableRecord
100
AcDbBlockTableRecord
2
*PAPER_SPACE
0
ENDTAB
0
ENDSEC
0
SECTION
2
BLOCKS
0
BLOCK
5
1E
100
AcDbEntity
8
0
100
AcDbBlockBegin
2
*MODEL_SPACE
70
0
10
0.0
20
0.0
30
0.0
3
*MODEL_SPACE
1

0
ENDBLK
5
1F
100
AcDbEntity
8
0
100
AcDbBlockEnd
0
BLOCK
5
20
100
AcDbEntity
8
0
100
AcDbBlockBegin
2
*PAPER_SPACE
70
0
10
0.0
20
0.0
30
0.0
3
*PAPER_SPACE
1

0
ENDBLK
5
21
100
AcDbEntity
8
0
100
AcDbBlockEnd
0
ENDSEC
0
SECTION
2
ENTITIES
0
LINE
5
223
100
AcDbEntity
8
0
100
AcDbLine
62
7
6
CONTINUOUS
10
7.2839375442
20
-27.1281172483
11
1.5054441624
21
-27.1649987636
0
LINE
5
224
100
AcDbEntity
8
0
100
AcDbLine
62
9
6
CONTINUOUS
10
7.4196329484
20
-26.9605070557
11
1.6415170915
21
-26.9973861615
0
LINE
5
225
100
AcDbEntity
8
0
100
AcDbLine
62
7
6
CONTINUOUS
10
-3.6912363521
20
-27.1955673984
11
-3.3157412570
21
-27.2035089741
0
LINE
5
226
100
AcDbEntity
8
0
100
AcDbLine
62
7
6
CONTINUOUS
10
-3.6426040236
20
-26.8008787001
11
-3.2671089286
21
-26.8088202758
0
LINE
5
227
100
AcDbEntity
8
0
100
AcDbLine
62
9
6
CONTINUOUS
10
-3.8252208671
20
-26.5002284848
11
-4.1173423202
21
-26.4940502293
0
LINE
5
228
100
AcDbEntity
8
0
100
AcDbLine
62
7
6
CONTINUOUS
10
-3.7887466208
20
-26.2042119611
11
-4.0808680739
21
-26.1980337056
0
LINE
5
229
100
AcDbEntity
8
0
100
AcDbLine
62
7
6
CONTINUOUS
10
1.4725008794
20
-27.1574932979
11
-0.0405754958
21
-27.1026066205
0
LINE
5
22A
100
AcDbEntity
8
0
100
AcDbLine
62
9
6
CONTINUOUS
10
1.6475963641
20
-26.9480481951
11
0.1333293477
21
-26.8931183274
0
LINE
5
22B
100
AcDbEntity
8
0
100
AcDbLine
62
7
6
CONTINUOUS
10
-3.7698276339
20
-27.1854523701
11
-11.8364228224
21
-25.2452475968
0
LINE
5
22C
100
AcDbEntity
8
0
100
AcDbLine
62
9
6
CONTINUOUS
10
-3.7081139037
20
-26.7851220421
11
-3.6426040236
21
-26.8008787001
0
LINE
5
22D
100
AcDbEntity
8
0
100
AcDbLine
62
9
6
CONTINUOUS
10
-3.8024844683
20
-26.6800499392
11
-3.2671089286
21
-26.8088202758
0
LINE
5
22E
100
AcDbEntity
8
0
100
AcDbLine
62
9
6
CONTINUOUS
10
-3.8144215843
20
-26.6474090931
11
-3.1976208818
21
-26.7957640854
0
LINE
5
22F
100
AcDbEntity
8
0
100
AcDbLine
62
9
6
CONTINUOUS
10
-12.1839375087
20
-24.5538454560
11
-4.1173423202
21
-26.4940502293
0
LINE
5
230
100
AcDbEntity
8
0
100
AcDbLine
62
9
6
CONTINUOUS
10
-5.4701601278
20
-25.8638764792
11
-5.1780386746
21
-25.8700547347
0
LINE
5
231
100
AcDbEntity
8
0
100
AcDbLine
62
9
6
CONTINUOUS
10
-5.5818949129
20
-25.6515181283
11
-5.2897734597
21
-25.6576963838
0
LINE
5
232
100
AcDbEntity
8
0
100
AcDbLine
62
9
6
CONTINUOUS
10
-10.7581712085
20
-24.5919861587
11
-10.7380097385
21
-24.5924125659
0
LINE
5
233
100
AcDbEntity
8
0
100
AcDbLine
62
7
6
CONTINUOUS
10
-11.8553418093
20
-24.2640071878
11
-12.1474632624
21
-24.2578289323
0
LINE
5
234
100
AcDbEntity
8
0
100
AcDbLine
62
7
6
CONTINUOUS
10
-1.3590202875
20
-25.6793330537
11
-3.6223277843
21
-25.6009214682
0
LINE
5
235
100
AcDbEntity
8
0
100
AcDbLine
62
7
6
CONTINUOUS
10
-13.8538383902
20
-23.4711118212
11
-15.3500755470
21
-23.4192751494
0
LINE
5
236
100
AcDbEntity
8
0
100
AcDbLine
62
7
6
CONTINUOUS
10
-3.7127753708
20
-25.4299380441
11
-0.3019299049
21
-25.5536660843
0
LINE
5
237
100
AcDbEntity
8
0
100
AcDbLine
62
9
6
CONTINUOUS
10
-3.5388705273
20
-25.2204497510
11
0.3221727999
21
-25.3605086686
0
LINE
5
238
100
AcDbEntity
8
0
100
AcDbLine
62
7
6
CONTINUOUS
10
-12.1474632624
20
-24.2578289323
11
-10.7581712085
21
-24.5919861587
0
LINE
5
239
100
AcDbEntity
8
0
100
AcDbLine
62
7
6
CONTINUOUS
10
-5.4701601278
20
-25.8638764792
11
-4.0808680739
21
-26.1980337056
0
LINE
5
23A
100
AcDbEntity
8
0
100
AcDbLine
62
7
6
CONTINUOUS
10
-11.8553418093
20
-24.2640071878
11
-10.6525685036
21
-24.5533022936
0
LINE
5
23B
100
AcDbEntity
8
0
100
AcDbLine
62
7
6
CONTINUOUS
10
-5.1780386746
20
-25.8700547347
11
-3.7887466208
21
-26.2042119611
0
LINE
5
23C
100
AcDbEntity
8
0
100
AcDbLine
62
7
6
CONTINUOUS
10
1.4827818539
20
-27.1623686329
11
1.4607381476
21
-27.1570666061
0
LINE
5
23D
100
AcDbEntity
8
0
100
AcDbLine
62
7
6
CONTINUOUS
10
-19.9268432983
20
-21.5351898406
11
-3.7621761295
21
-25.4231702917
0
LINE
5
23E
100
AcDbEntity
8
0
100
AcDbLine
62
7
6
CONTINUOUS
10
-2.1581480108
20
-25.7414705187
11
-2.5944388906
21
-25.6365323598
0
LINE
5
23F
100
AcDbEntity
8
0
100
AcDbLine
62
9
6
CONTINUOUS
10
-20.0509556863
20
-21.2882605046
11
-3.8862885175
21
-25.1762409557
0
LINE
5
240
100
AcDbEntity
8
0
100
AcDbLine
62
7
6
CONTINUOUS
10
14.8897001729
20
-22.3937326419
11
8.6039897411
21
-22.4338514947
0
LINE
5
241
100
AcDbEntity
8
0
100
AcDbLine
62
9
6
CONTINUOUS
10
8.5947965900
20
-22.0170498954
11
15.2289386834
21
-21.9747071605
0
LINE
5
242
100
AcDbEntity
8
0
100
AcDbLine
62
7
6
CONTINUOUS
10
-11.9002344121
20
-23.4657769731
11
-13.8378710142
21
-23.4704797650
0
LINE
5
243
100
AcDbEntity
8
0
100
AcDbLine
62
9
6
CONTINUOUS
10
-13.2411516827
20
-23.3016939428
11
-13.6865405211
21
-23.3027749355
0
LINE
5
244
100
AcDbEntity
8
0
100
AcDbLine
62
7
6
CONTINUOUS
10
-3.1335824655
20
-21.9312258411
11
-3.0251174913
21
-21.9338960855
0
LINE
5
245
100
AcDbEntity
8
0
100
AcDbLine
62
7
6
CONTINUOUS
10
-12.4678021915
20
-23.3292636501
11
-13.1677987573
21
-23.3050124864
0
LINE
5
246
100
AcDbEntity
8
0
100
AcDbLine
62
9
6
CONTINUOUS
10
-13.6789321794
20
-23.2616403412
11
-15.1749651554
21
-23.2098107433
0
LINE
5
247
100
AcDbEntity
8
0
100
AcDbLine
62
7
6
CONTINUOUS
10
-3.4810004557
20
-21.8870170459
11
-19.6456676245
21
-17.9990365947
0
LINE
5
248
100
AcDbEntity
8
0
100
AcDbLine
62
7
6
CONTINUOUS
10
-8.0169769068
20
-20.2268091756
11
-1.7405168986
21
-21.4303471491
0
LINE
5
249
100
AcDbEntity
8
0
100
AcDbLine
62
9
6
CONTINUOUS
10
-7.7625819554
20
-19.9800543353
11
-1.4862309509
21
-21.1835714068
0
LINE
5
24A
100
AcDbEntity
8
0
100
AcDbLine
62
9
6
CONTINUOUS
10
-3.0251174913
20
-21.9338960855
11
-19.5292716959
21
-17.9642610313
0
LINE
5
24B
100
AcDbEntity
8
0
100
AcDbLine
62
7
6
CONTINUOUS
10
-8.0479321337
20
-20.2201202337
11
-8.0478469306
21
-20.2201407348
0
LINE
5
24C
100
AcDbEntity
8
0
100
AcDbLine
62
7
6
CONTINUOUS
10
-23.9764973866
20
-16.3889278221
11
-8.0478390674
21
-20.2201426260
0
LINE
5
24D
100
AcDbEntity
8
0
100
AcDbLine
62
9
6
CONTINUOUS
10
-24.4556109877
20
-15.3383535122
11
-8.5425196924
21
-19.1658240830
0
LINE
5
24E
100
AcDbEntity
8
0
100
AcDbLine
62
9
6
CONTINUOUS
10
1.3198607085
20
-20.9382098218
11
-1.3094986980
21
-20.3057873991
0
LINE
5
24F
100
AcDbEntity
8
0
100
AcDbLine
62
7
6
CONTINUOUS
10
16.9495457946
20
-18.1027257783
11
15.1315843192
21
-18.0925893667
0
LINE
5
250
100
AcDbEntity
8
0
100
AcDbLine
62
9
6
CONTINUOUS
10
17.1427360148
20
-17.8680694243
11
15.1606107379
21
-17.8570176842
0
LINE
5
251
100
AcDbEntity
8
0
100
AcDbLine
62
7
6
CONTINUOUS
10
-19.6343065762
20
-17.9624158370
11
-19.5292716959
21
-17.9642610313
0
LINE
5
252
100
AcDbEntity
8
0
100
AcDbLine
62
9
6
CONTINUOUS
10
9.0373566532
20
-18.4253350660
11
15.6482011521
21
-18.5414707023
0
LINE
5
253
100
AcDbEntity
8
0
100
AcDbLine
62
9
6
CONTINUOUS
10
9.1257781982
20
-18.1991373965
11
15.5355454283
21
-18.3117406193
0
LINE
5
254
100
AcDbEntity
8
0
100
AcDbLine
62
7
6
CONTINUOUS
10
9.1468381664
20
-18.0282195788
11
14.7672869695
21
-18.1269564949
0
LINE
5
255
100
AcDbEntity
8
0
100
AcDbLine
62
7
6
CONTINUOUS
10
-0.8096191409
20
-17.8230131800
11
0.0154867197
21
-17.8404638491
0
LINE
5
256
100
AcDbEntity
8
0
100
AcDbLine
62
9
6
CONTINUOUS
10
1.7216276819
20
-20.3067574459
11
-1.1696774531
21
-19.6113309502
0
LINE
5
257
100
AcDbEntity
8
0
100
AcDbLine
62
7
6
CONTINUOUS
10
1.8127144738
20
-19.5675181689
11
0.5472371475
21
-19.2631412798
0
LINE
5
258
100
AcDbEntity
8
0
100
AcDbLine
62
7
6
CONTINUOUS
10
-20.1165033167
20
-21.2615488943
11
-19.7112152550
21
-17.9723249845
0
LINE
5
259
100
AcDbEntity
8
0
100
AcDbLine
62
7
6
CONTINUOUS
10
-15.1397763811
20
19.1284126519
11
-14.7344883193
21
22.4176365618
0
LINE
5
25A
100
AcDbEntity
8
0
100
AcDbLine
62
9
6
CONTINUOUS
10
-20.0509556863
20
-21.2882605046
11
-19.6456676245
21
-17.9990365947
0
LINE
5
25B
100
AcDbEntity
8
0
100
AcDbLine
62
9
6
CONTINUOUS
10
-15.0742287506
20
19.1017010417
11
-14.6689406888
21
22.3909249516
0
LINE
5
25C
100
AcDbEntity
8
0
100
AcDbLine
62
9
6
CONTINUOUS
10
-0.6386538136
20
-16.9738720200
11
0.6202711909
21
-17.0004977959
0
LINE
5
25D
100
AcDbEntity
8
0
100
AcDbLine
62
7
6
CONTINUOUS
10
-0.0340299871
20
-17.8394165900
11
0.5883603807
21
-17.9891160275
0
LINE
5
25E
100
AcDbEntity
8
0
100
AcDbLine
62
7
6
CONTINUOUS
10
-16.7121018920
20
-22.3084103228
11
-16.7885773624
21
-22.9290675029
0
LINE
5
25F
100
AcDbEntity
8
0
100
AcDbLine
62
7
6
CONTINUOUS
10
-11.1775443960
20
22.6087746725
11
-11.0189049576
21
23.8962555606
0
LINE
5
260
100
AcDbEntity
8
0
100
AcDbLine
62
7
6
CONTINUOUS
10
15.5891342605
20
-18.3183528429
11
15.5891758472
21
-18.3183628378
0
LINE
5
261
100
AcDbEntity
8
0
100
AcDbLine
62
9
6
CONTINUOUS
10
14.7672869695
20
-18.1269564949
11
15.5355454283
21
-18.3117406193
0
LINE
5
262
100
AcDbEntity
8
0
100
AcDbLine
62
7
6
CONTINUOUS
10
14.8225107683
20
-18.1339619579
11
15.5890005292
21
-18.3183206691
0
LINE
5
263
100
AcDbEntity
8
0
100
AcDbLine
62
7
6
CONTINUOUS
10
-10.8086736258
20
17.1115537836
11
-10.7829096620
21
17.3206481379
0
LINE
5
264
100
AcDbEntity
8
0
100
AcDbLine
62
9
6
CONTINUOUS
10
-15.1113384744
20
-22.6934313572
11
-15.1749651554
21
-23.2098107433
0
LINE
5
265
100
AcDbEntity
8
0
100
AcDbLine
62
9
6
CONTINUOUS
10
-9.5626418414
20
22.3385035946
11
-9.4041924371
21
23.6244422099
0
LINE
5
266
100
AcDbEntity
8
0
100
AcDbLine
62
7
6
CONTINUOUS
10
-14.4973941470
20
-22.8410993245
11
-14.5252912226
21
-23.0675055199
0
LINE
5
267
100
AcDbEntity
8
0
100
AcDbLine
62
7
6
CONTINUOUS
10
-8.9839238634
20
21.9049467450
11
-8.8822606442
21
22.7300218535
0
LINE
5
268
100
AcDbEntity
8
0
100
AcDbLine
62
7
6
CONTINUOUS
10
9.9765661587
20
-11.2943396341
11
16.4074143937
21
-11.4073131963
0
LINE
5
269
100
AcDbEntity
8
0
100
AcDbLine
62
9
6
CONTINUOUS
10
9.9370547295
20
-11.1235941482
11
16.5478992283
21
-11.2397297845
0
LINE
5
26A
100
AcDbEntity
8
0
100
AcDbLine
62
9
6
CONTINUOUS
10
17.9198794127
20
-11.5609538524
11
15.9435990030
21
-11.5024665248
0
LINE
5
26B
100
AcDbEntity
8
0
100
AcDbLine
62
9
6
CONTINUOUS
10
17.7641323757
20
-11.2393855551
11
16.6978615238
21
-11.2078296421
0
LINE
5
26C
100
AcDbEntity
8
0
100
AcDbLine
62
7
6
CONTINUOUS
10
-8.0094625848
20
22.7504599557
11
-7.9038408618
21
23.6076613628
0
LINE
5
26D
100
AcDbEntity
8
0
100
AcDbLine
62
9
6
CONTINUOUS
10
-13.1505525447
20
-23.1650462246
11
-13.1677987573
21
-23.3050124864
0
LINE
5
26E
100
AcDbEntity
8
0
100
AcDbLine
62
9
6
CONTINUOUS
10
-7.6251860598
20
21.6775466557
11
-7.5241455097
21
22.4975683256
0
LINE
5
26F
100
AcDbEntity
8
0
100
AcDbLine
62
7
6
CONTINUOUS
10
-12.1474632624
20
-24.2578289323
11
-12.1839375087
21
-24.5538454560
0
LINE
5
270
100
AcDbEntity
8
0
100
AcDbLine
62
7
6
CONTINUOUS
10
-6.2925558475
20
23.2592417044
11
-6.2560816012
21
23.5552582281
0
LINE
5
271
100
AcDbEntity
8
0
100
AcDbLine
62
9
6
CONTINUOUS
10
16.7336280241
20
-10.9915251611
11
17.7641323757
21
-11.2393855551
0
LINE
5
272
100
AcDbEntity
8
0
100
AcDbLine
62
7
6
CONTINUOUS
10
16.7339629489
20
-10.9888069895
11
17.7906085929
21
-11.2429549756
0
LINE
5
273
100
AcDbEntity
8
0
100
AcDbLine
62
7
6
CONTINUOUS
10
-4.7915290086
20
22.7127261270
11
-4.8872721773
21
21.1860902161
0
LINE
5
274
100
AcDbEntity
8
0
100
AcDbLine
62
7
6
CONTINUOUS
10
-2.8120332461
20
15.2633847130
11
-2.8210336425
21
15.1903395834
0
LINE
5
275
100
AcDbEntity
8
0
100
AcDbLine
62
7
6
CONTINUOUS
10
-10.4837835980
20
-23.8064665164
11
-10.6020426817
21
-24.4440551980
0
LINE
5
276
100
AcDbEntity
8
0
100
AcDbLine
62
9
6
CONTINUOUS
10
2.1819015205
20
21.8037692343
11
2.0985567693
21
21.5757768973
0
LINE
5
277
100
AcDbEntity
8
0
100
AcDbLine
62
9
6
CONTINUOUS
10
2.7996131650
20
21.8763964862
11
2.9361357513
21
22.2498585587
0
LINE
5
278
100
AcDbEntity
8
0
100
AcDbLine
62
9
6
CONTINUOUS
10
-3.1976208818
20
-26.7957640854
11
-3.1536024813
21
-27.1730445297
0
LINE
5
279
100
AcDbEntity
8
0
100
AcDbLine
62
7
6
CONTINUOUS
10
-5.5818949129
20
-25.6515181283
11
-5.5407453018
21
-24.9953828155
0
LINE
5
27A
100
AcDbEntity
8
0
100
AcDbLine
62
7
6
CONTINUOUS
10
-5.2897734597
20
-25.6576963838
11
-5.2525831477
21
-25.0646925519
0
LINE
5
27B
100
AcDbEntity
8
0
100
AcDbLine
62
9
6
CONTINUOUS
10
-1.7504801192
20
14.9650728697
11
-1.7453362713
21
15.0068191468
0
LINE
5
27C
100
AcDbEntity
8
0
100
AcDbLine
62
7
6
CONTINUOUS
10
-1.5973075409
20
14.9282312828
11
-1.5921636930
21
14.9699775599
0
LINE
5
27D
100
AcDbEntity
8
0
100
AcDbLine
62
7
6
CONTINUOUS
10
-1.4569922396
20
14.9374656645
11
-1.4612008945
21
14.9033091977
0
LINE
5
27E
100
AcDbEntity
8
0
100
AcDbLine
62
7
6
CONTINUOUS
10
-0.7493380483
20
14.7242747908
11
-0.7441942004
21
14.7660210679
0
LINE
5
27F
100
AcDbEntity
8
0
100
AcDbLine
62
7
6
CONTINUOUS
10
-0.0465357093
20
20.0217798990
11
0.2286187602
21
21.5052631967
0
LINE
5
280
100
AcDbEntity
8
0
100
AcDbLine
62
7
6
CONTINUOUS
10
0.2438632512
20
20.0063148995
11
0.5207402133
21
21.4990849412
0
LINE
5
281
100
AcDbEntity
8
0
100
AcDbLine
62
9
6
CONTINUOUS
10
4.0216424487
20
21.0348360525
11
4.0110986797
21
21.0059932219
0
LINE
5
282
100
AcDbEntity
8
0
100
AcDbLine
62
7
6
CONTINUOUS
10
2.3090327034
20
-3.4585750422
11
2.0929674238
21
-3.4066062899
0
LINE
5
283
100
AcDbEntity
8
0
100
AcDbLine
62
7
6
CONTINUOUS
10
-4.9519231740
20
-25.1370083063
11
-4.9798202496
21
-25.3634145017
0
LINE
5
284
100
AcDbEntity
8
0
100
AcDbLine
62
7
6
CONTINUOUS
10
0.5615471096
20
19.6090377632
11
0.6632103288
21
20.4341128717
0
LINE
5
285
100
AcDbEntity
8
0
100
AcDbLine
62
7
6
CONTINUOUS
10
-4.0808680739
20
-26.1980337056
11
-4.1173423202
21
-26.4940502293
0
LINE
5
286
100
AcDbEntity
8
0
100
AcDbLine
62
7
6
CONTINUOUS
10
1.7740393409
20
21.3190369310
11
1.8105135872
21
21.6150534547
0
LINE
5
287
100
AcDbEntity
8
0
100
AcDbLine
62
9
6
CONTINUOUS
10
1.4957264799
20
18.5029445004
11
1.0904384182
21
15.2137205906
0
LINE
5
288
100
AcDbEntity
8
0
100
AcDbLine
62
9
6
CONTINUOUS
10
-3.4810004557
20
-21.8870170459
11
-3.8862885175
21
-25.1762409557
0
LINE
5
289
100
AcDbEntity
8
0
100
AcDbLine
62
7
6
CONTINUOUS
10
-3.7887466208
20
-26.2042119611
11
-3.8252208671
21
-26.5002284848
0
LINE
5
28A
100
AcDbEntity
8
0
100
AcDbLine
62
7
6
CONTINUOUS
10
2.0661607940
20
21.3128586755
11
2.1026350404
21
21.6088751992
0
LINE
5
28B
100
AcDbEntity
8
0
100
AcDbLine
62
9
6
CONTINUOUS
10
2.0183876218
20
20.6444978952
11
1.9938899358
21
20.4456803572
0
LINE
5
28C
100
AcDbEntity
8
0
100
AcDbLine
62
9
6
CONTINUOUS
10
-3.6017559535
20
-25.4339652611
11
-3.6223277843
21
-25.6009214682
0
LINE
5
28D
100
AcDbEntity
8
0
100
AcDbLine
62
9
6
CONTINUOUS
10
1.9202849132
20
19.3816376740
11
2.0213254633
21
20.2016593438
0
LINE
5
28E
100
AcDbEntity
8
0
100
AcDbLine
62
9
6
CONTINUOUS
10
1.8431444702
20
18.4587357051
11
1.4378564084
21
15.1695117953
0
LINE
5
28F
100
AcDbEntity
8
0
100
AcDbLine
62
9
6
CONTINUOUS
10
-3.1335824655
20
-21.9312258411
11
-3.5388705273
21
-25.2204497510
0
LINE
5
290
100
AcDbEntity
8
0
100
AcDbLine
62
9
6
CONTINUOUS
10
-3.6426040236
20
-26.8008787001
11
-3.6912363521
21
-27.1955673984
0
LINE
5
291
100
AcDbEntity
8
0
100
AcDbLine
62
9
6
CONTINUOUS
10
2.3582003765
20
21.9002580313
11
2.4068327050
21
22.2949467296
0
LINE
5
292
100
AcDbEntity
8
0
100
AcDbLine
62
7
6
CONTINUOUS
10
2.3127912828
20
20.4739003131
11
2.3085629499
21
20.4395841437
0
LINE
5
293
100
AcDbEntity
8
0
100
AcDbLine
62
9
6
CONTINUOUS
10
-3.2671089286
20
-26.8088202758
11
-3.3157412570
21
-27.2035089741
0
LINE
5
294
100
AcDbEntity
8
0
100
AcDbLine
62
9
6
CONTINUOUS
10
2.7336954716
20
21.8923164556
11
2.7823278000
21
22.2870051538
0
LINE
5
295
100
AcDbEntity
8
0
100
AcDbLine
62
7
6
CONTINUOUS
10
1.8127144738
20
-19.5675181689
11
2.3090327034
21
-3.4585750422
0
LINE
5
296
100
AcDbEntity
8
0
100
AcDbLine
62
7
6
CONTINUOUS
10
0.5472371475
20
-19.2631412798
11
0.5883603807
21
-17.9891160275
0
LINE
5
297
100
AcDbEntity
8
0
100
AcDbLine
62
7
6
CONTINUOUS
10
0.6202711909
20
-17.0004977959
11
0.8616567338
21
-9.5222123257
0
LINE
5
298
100
AcDbEntity
8
0
100
AcDbLine
62
7
6
CONTINUOUS
10
-1.3389010602
20
-25.5160500709
11
-1.4740118281
21
-26.6125777265
0
LINE
5
299
100
AcDbEntity
8
0
100
AcDbLine
62
7
6
CONTINUOUS
10
4.1370206698
20
18.9252606465
11
4.2956603599
21
20.2127435780
0
LINE
5
29A
100
AcDbEntity
8
0
100
AcDbLine
62
7
6
CONTINUOUS
10
5.3781672924
20
12.9101432599
11
-1.4862309509
21
-21.1835714068
0
LINE
5
29B
100
AcDbEntity
8
0
100
AcDbLine
62
9
6
CONTINUOUS
10
0.3221727999
20
-25.3605086686
11
0.1333293477
21
-26.8931183274
0
LINE
5
29C
100
AcDbEntity
8
0
100
AcDbLine
62
9
6
CONTINUOUS
10
5.7152452194
20
18.4084162602
11
5.9040886715
21
19.9410259190
0
LINE
5
29D
100
AcDbEntity
8
0
100
AcDbLine
62
7
6
CONTINUOUS
10
6.1701339565
20
20.6918269727
11
6.1683669009
21
20.6774859595
0
LINE
5
29E
100
AcDbEntity
8
0
100
AcDbLine
62
7
6
CONTINUOUS
10
1.7216276819
20
-20.3067574459
11
1.8127144738
21
-19.5675181689
0
LINE
5
29F
100
AcDbEntity
8
0
100
AcDbLine
62
7
6
CONTINUOUS
10
5.7734997784
20
12.5772967294
11
5.8645865703
21
13.3165360064
0
LINE
5
2A0
100
AcDbEntity
8
0
100
AcDbLine
62
7
6
CONTINUOUS
10
2.3090327034
20
-3.4585750422
11
5.7734997784
21
12.5772967294
0
LINE
5
2A1
100
AcDbEntity
8
0
100
AcDbLine
62
7
6
CONTINUOUS
10
1.6415170915
20
-26.9973861615
11
7.4287715835
21
19.9706290444
0
LINE
5
2A2
100
AcDbEntity
8
0
100
AcDbLine
62
7
6
CONTINUOUS
10
-15.1587183301
20
8.5310182679
11
-15.6601668212
21
8.6142902552
0
LINE
5
2A3
100
AcDbEntity
8
0
100
AcDbLine
62
7
6
CONTINUOUS
10
-15.5017065446
20
8.5372911497
11
-15.5021704085
21
8.5373682650
0
LINE
5
2A4
100
AcDbEntity
8
0
100
AcDbLine
62
9
6
CONTINUOUS
10
8.5947965900
20
-22.0170498954
11
8.0817062135
21
-26.1811723887
0
LINE
5
2A5
100
AcDbEntity
8
0
100
AcDbLine
62
9
6
CONTINUOUS
10
9.0373566532
20
-18.4253350660
11
9.9370547295
21
-11.1235941482
0
LINE
5
2A6
100
AcDbEntity
8
0
100
AcDbLine
62
9
6
CONTINUOUS
10
13.0195548361
20
13.8932617861
11
13.6404317264
21
18.9321546262
0
LINE
5
2A7
100
AcDbEntity
8
0
100
AcDbLine
62
7
6
CONTINUOUS
10
8.6277331716
20
-22.2411553191
11
8.1432331565
21
-26.1732450708
0
LINE
5
2A8
100
AcDbEntity
8
0
100
AcDbLine
62
7
6
CONTINUOUS
10
9.1162499006
20
-18.2764668494
11
9.9812153681
21
-11.2566077289
0
LINE
5
2A9
100
AcDbEntity
8
0
100
AcDbLine
62
7
6
CONTINUOUS
10
13.1096721405
20
14.1332218457
11
13.7019586694
21
18.9400819442
0
LINE
5
2AA
100
AcDbEntity
8
0
100
AcDbLine
62
7
6
CONTINUOUS
10
-14.1597424908
20
13.8390766691
11
-14.7755418469
21
13.9413380919
0
LINE
5
2AB
100
AcDbEntity
8
0
100
AcDbLine
62
7
6
CONTINUOUS
10
-14.4850299107
20
13.9437795634
11
-14.4848726894
21
13.9437534641
0
LINE
5
2AC
100
AcDbEntity
8
0
100
AcDbLine
62
9
6
CONTINUOUS
10
-14.7755418444
20
13.9413380915
11
-14.6852731118
21
13.9230092277
0
LINE
5
2AD
100
AcDbEntity
8
0
100
AcDbLine
62
9
6
CONTINUOUS
10
2.1625275097
20
14.0239030326
11
2.0156255243
21
14.0270099526
0
LINE
5
2AE
100
AcDbEntity
8
0
100
AcDbLine
62
9
6
CONTINUOUS
10
19.6146262063
20
13.6185155929
11
13.0195548361
21
13.8932617861
0
LINE
5
2AF
100
AcDbEntity
8
0
100
AcDbLine
62
9
6
CONTINUOUS
10
5.3781672924
20
12.9101432599
11
-0.9580542091
21
13.8162988484
0
LINE
5
2B0
100
AcDbEntity
8
0
100
AcDbLine
62
9
6
CONTINUOUS
10
5.2356998060
20
13.2525067892
11
-1.1005216955
21
14.1586623777
0
LINE
5
2B1
100
AcDbEntity
8
0
100
AcDbLine
62
9
6
CONTINUOUS
10
-17.9117972002
20
17.1630999577
11
-1.9987059048
21
13.3356293870
0
LINE
5
2B2
100
AcDbEntity
8
0
100
AcDbLine
62
9
6
CONTINUOUS
10
-17.0297407937
20
17.9900120621
11
-1.1005216955
21
14.1586623777
0
LINE
5
2B3
100
AcDbEntity
8
0
100
AcDbLine
62
7
6
CONTINUOUS
10
5.7734997784
20
12.5772967294
11
5.3325080692
21
12.6833655477
0
LINE
5
2B4
100
AcDbEntity
8
0
100
AcDbLine
62
7
6
CONTINUOUS
10
5.2356998060
20
13.2525067892
11
-10.8975519999
21
17.1329311110
0
LINE
5
2B5
100
AcDbEntity
8
0
100
AcDbLine
62
7
6
CONTINUOUS
10
-2.1060457775
20
15.0505947251
11
2.1625275097
21
14.0239030326
0
LINE
5
2B6
100
AcDbEntity
8
0
100
AcDbLine
62
7
6
CONTINUOUS
10
-1.3807498248
20
14.8836540114
11
-1.0548157404
21
14.7977493191
0
LINE
5
2B7
100
AcDbEntity
8
0
100
AcDbLine
62
7
6
CONTINUOUS
10
-2.1060457775
20
15.0505947251
11
-2.2529477630
21
15.0537016452
0
LINE
5
2B8
100
AcDbEntity
8
0
100
AcDbLine
62
7
6
CONTINUOUS
10
1.5463213826
20
15.1668415509
11
1.4378564084
21
15.1695117953
0
LINE
5
2B9
100
AcDbEntity
8
0
100
AcDbLine
62
9
6
CONTINUOUS
10
19.3393504163
20
14.1926308775
11
13.1487694173
21
14.4505262766
0
LINE
5
2BA
100
AcDbEntity
8
0
100
AcDbLine
62
9
6
CONTINUOUS
10
-17.0297407937
20
17.9900120621
11
-10.8975519999
21
17.1329311110
0
LINE
5
2BB
100
AcDbEntity
8
0
100
AcDbLine
62
7
6
CONTINUOUS
10
-17.0439744739
20
17.9926835397
11
-10.9112338768
21
17.1355258427
0
LINE
5
2BC
100
AcDbEntity
8
0
100
AcDbLine
62
7
6
CONTINUOUS
10
-10.9113142116
20
17.1355234377
11
-10.8975519999
21
17.1329311110
0
LINE
5
2BD
100
AcDbEntity
8
0
100
AcDbLine
62
9
6
CONTINUOUS
10
-17.0436446773
20
17.9926378232
11
-17.0297407937
21
17.9900120621
0
LINE
5
2BE
100
AcDbEntity
8
0
100
AcDbLine
62
7
6
CONTINUOUS
10
-1.5963723479
20
14.9358210931
11
-1.4086540659
21
14.8906704566
0
LINE
5
2BF
100
AcDbEntity
8
0
100
AcDbLine
62
7
6
CONTINUOUS
10
2.2760325690
20
14.0395859044
11
-2.8120332461
21
15.2633847130
0
LINE
5
2C0
100
AcDbEntity
8
0
100
AcDbLine
62
9
6
CONTINUOUS
10
5.8645865703
20
13.3165360064
11
-10.7829096620
21
17.3206481379
0
LINE
5
2C1
100
AcDbEntity
8
0
100
AcDbLine
62
9
6
CONTINUOUS
10
5.6203903139
20
13.9638910243
11
-11.0168915246
21
17.9655463552
0
LINE
5
2C2
100
AcDbEntity
8
0
100
AcDbLine
62
7
6
CONTINUOUS
10
1.0904384182
20
15.2137205906
11
-15.0742287506
21
19.1017010417
0
LINE
5
2C3
100
AcDbEntity
8
0
100
AcDbLine
62
7
6
CONTINUOUS
10
15.7943658020
20
-18.6143594332
11
15.7943619249
21
-18.6143909758
0
LINE
5
2C4
100
AcDbEntity
8
0
100
AcDbLine
62
7
6
CONTINUOUS
10
15.9562999889
20
-11.3993882695
11
15.9435990030
21
-11.5024665248
0
LINE
5
2C5
100
AcDbEntity
8
0
100
AcDbLine
62
7
6
CONTINUOUS
10
15.1606107379
20
-17.8570176842
11
15.1177370272
21
-18.2049707767
0
LINE
5
2C6
100
AcDbEntity
8
0
100
AcDbLine
62
9
6
CONTINUOUS
10
19.6146262063
20
13.6185155929
11
16.5516670165
21
-11.2397507926
0
LINE
5
2C7
100
AcDbEntity
8
0
100
AcDbLine
62
9
6
CONTINUOUS
10
15.6519578298
20
-18.5415818799
11
15.2289386834
21
-21.9747071605
0
LINE
5
2C8
100
AcDbEntity
8
0
100
AcDbLine
62
7
6
CONTINUOUS
10
19.7684435639
20
13.6383338879
11
16.7169240016
21
-11.1270911338
0
LINE
5
2C9
100
AcDbEntity
8
0
100
AcDbLine
62
7
6
CONTINUOUS
10
15.7943355331
20
-18.6146051657
11
15.3827560409
21
-21.9548888656
0
LINE
5
2CA
100
AcDbEntity
8
0
100
AcDbLine
62
7
6
CONTINUOUS
10
16.7168910874
20
-11.1273581800
11
16.7168993579
21
-11.1272911298
0
LINE
5
2CB
100
AcDbEntity
8
0
100
AcDbLine
62
9
6
CONTINUOUS
10
5.7152452194
20
18.4084162602
11
1.8431444702
21
18.4587357051
0
LINE
5
2CC
100
AcDbEntity
8
0
100
AcDbLine
62
9
6
CONTINUOUS
10
5.0969517156
20
18.7017354399
11
1.7071031809
21
18.7457878310
0
LINE
5
2CD
100
AcDbEntity
8
0
100
AcDbLine
62
9
6
CONTINUOUS
10
13.2960936340
20
15.6461754500
11
19.3393504163
21
14.1926308775
0
LINE
5
2CE
100
AcDbEntity
8
0
100
AcDbLine
62
7
6
CONTINUOUS
10
13.2966867799
20
15.6509892844
11
19.3891235269
21
14.1856157803
0
LINE
5
2CF
100
AcDbEntity
8
0
100
AcDbLine
62
9
6
CONTINUOUS
10
-14.6689406888
20
22.3909249516
11
1.4957264799
21
18.5029445004
0
LINE
5
2D0
100
AcDbEntity
8
0
100
AcDbLine
62
9
6
CONTINUOUS
10
-14.4575639878
20
22.6337682822
11
1.7071031809
21
18.7457878310
0
LINE
5
2D1
100
AcDbEntity
8
0
100
AcDbLine
62
9
6
CONTINUOUS
10
17.9198794127
20
-11.5609538524
11
17.1427360148
21
-17.8680694243
0
LINE
5
2D2
100
AcDbEntity
8
0
100
AcDbLine
62
7
6
CONTINUOUS
10
17.9967880914
20
-11.5510447049
11
17.2196446936
21
-17.8581602770
0
LINE
5
2D3
100
AcDbEntity
8
0
100
AcDbLine
62
7
6
CONTINUOUS
10
-4.8939514052
20
-25.4130524703
11
-5.2841308057
21
-25.5677236111
0
LINE
5
2D4
100
AcDbEntity
8
0
100
AcDbLine
62
7
6
CONTINUOUS
10
-4.2296889966
20
-25.5444617892
11
-5.0989995955
21
-25.8890654815
0
LINE
5
2D5
100
AcDbEntity
8
0
100
AcDbLine
62
7
6
CONTINUOUS
10
-3.8125367701
20
-26.3972872955
11
-1.9497685815
21
-25.6588667625
0
LINE
5
2D6
100
AcDbEntity
8
0
100
AcDbLine
62
9
6
CONTINUOUS
10
6.2766991803
20
20.4508914056
11
4.8002249954
21
20.4619291819
0
LINE
5
2D7
100
AcDbEntity
8
0
100
AcDbLine
62
7
6
CONTINUOUS
10
6.2499956193
20
20.4541779727
11
4.7732930919
21
20.4652174560
0
LINE
5
2D8
100
AcDbEntity
8
0
100
AcDbLine
62
7
6
CONTINUOUS
10
0.6100766936
20
20.0028926120
11
0.0086217246
21
20.0085132463
0
LINE
5
2D9
100
AcDbEntity
8
0
100
AcDbLine
62
7
6
CONTINUOUS
10
0.5562217404
20
21.2466105135
11
0.4740540211
21
21.2473783760
0
LINE
5
2DA
100
AcDbEntity
8
0
100
AcDbLine
62
7
6
CONTINUOUS
10
-4.8802904253
20
21.2974150606
11
-5.3691084011
21
21.3019830952
0
LINE
5
2DB
100
AcDbEntity
8
0
100
AcDbLine
62
7
6
CONTINUOUS
10
4.1901259012
20
19.3562503880
11
1.9202849132
21
19.3816376740
0
LINE
5
2DC
100
AcDbEntity
8
0
100
AcDbLine
62
9
6
CONTINUOUS
10
5.9040886715
20
19.9410259190
11
7.4226923109
21
19.9212910781
0
LINE
5
2DD
100
AcDbEntity
8
0
100
AcDbLine
62
9
6
CONTINUOUS
10
5.7680473823
20
20.2280780449
11
7.2850299768
21
20.2083642701
0
LINE
5
2DE
100
AcDbEntity
8
0
100
AcDbLine
62
7
6
CONTINUOUS
10
0.9203113842
20
20.4664789762
11
4.4107628105
21
20.3988578700
0
LINE
5
2DF
100
AcDbEntity
8
0
100
AcDbLine
62
7
6
CONTINUOUS
10
6.1701339565
20
20.6918269727
11
6.5827924068
21
20.6830994065
0
LINE
5
2E0
100
AcDbEntity
8
0
100
AcDbLine
62
7
6
CONTINUOUS
10
2.0661607940
20
21.3128586755
11
1.7740393409
21
21.3190369310
0
LINE
5
2E1
100
AcDbEntity
8
0
100
AcDbLine
62
7
6
CONTINUOUS
10
4.2878997057
20
20.1497599081
11
2.0213254633
21
20.2016593438
0
LINE
5
2E2
100
AcDbEntity
8
0
100
AcDbLine
62
9
6
CONTINUOUS
10
13.1728581473
20
19.7313343002
11
7.4287715835
21
19.9706290444
0
LINE
5
2E3
100
AcDbEntity
8
0
100
AcDbLine
62
9
6
CONTINUOUS
10
13.0627478313
20
19.9609804140
11
7.3186612674
21
20.2002751582
0
LINE
5
2E4
100
AcDbEntity
8
0
100
AcDbLine
62
9
6
CONTINUOUS
10
0.6008488630
20
20.3685125296
11
0.3134348239
21
20.3814069937
0
LINE
5
2E5
100
AcDbEntity
8
0
100
AcDbLine
62
7
6
CONTINUOUS
10
0.5829510195
20
20.3710511776
11
0.3137540995
21
20.3831283540
0
LINE
5
2E6
100
AcDbEntity
8
0
100
AcDbLine
62
9
6
CONTINUOUS
10
12.1148655508
20
20.1889682679
11
6.2767055792
21
20.4508898665
0
LINE
5
2E7
100
AcDbEntity
8
0
100
AcDbLine
62
7
6
CONTINUOUS
10
12.0969677074
20
20.1915069159
11
6.2633549545
21
20.4532245094
0
LINE
5
2E8
100
AcDbEntity
8
0
100
AcDbLine
62
7
6
CONTINUOUS
10
0.0086217246
20
20.0085132463
11
-5.3691084011
21
21.3019830952
0
LINE
5
2E9
100
AcDbEntity
8
0
100
AcDbLine
62
7
6
CONTINUOUS
10
0.2566580514
20
20.0752975057
11
0.5555709161
21
20.0034019719
0
LINE
5
2EA
100
AcDbEntity
8
0
100
AcDbLine
62
7
6
CONTINUOUS
10
0.2727362683
20
20.1619825097
11
0.6194051903
21
20.0786005274
0
LINE
5
2EB
100
AcDbEntity
8
0
100
AcDbLine
62
9
6
CONTINUOUS
10
2.6961225102
20
20.4320758867
11
2.2192913675
21
20.5467649268
0
LINE
5
2EC
100
AcDbEntity
8
0
100
AcDbLine
62
9
6
CONTINUOUS
10
0.4774267952
20
21.2655625404
11
0.5562217404
21
21.2466105135
0
LINE
5
2ED
100
AcDbEntity
8
0
100
AcDbLine
62
7
6
CONTINUOUS
10
0.4868778502
20
21.3165174904
11
0.6492868389
21
21.2774543308
0
LINE
5
2EE
100
AcDbEntity
8
0
100
AcDbLine
62
7
6
CONTINUOUS
10
2.2192913675
20
20.5467649268
11
0.9151279898
21
21.1811968919
0
LINE
5
2EF
100
AcDbEntity
8
0
100
AcDbLine
62
7
6
CONTINUOUS
10
-3.1976208818
20
-26.7957640854
11
-1.4092305246
21
-26.0868276923
0
LINE
5
2F0
100
AcDbEntity
8
0
100
AcDbLine
62
7
6
CONTINUOUS
10
-3.1536024813
20
-27.1730445297
11
-1.4603655808
21
-26.5018279489
0
LINE
5
2F1
100
AcDbEntity
8
0
100
AcDbLine
62
9
6
CONTINUOUS
10
-11.1767187694
20
22.6154752665
11
-14.4575639878
21
22.6337682822
0
LINE
5
2F2
100
AcDbEntity
8
0
100
AcDbLine
62
7
6
CONTINUOUS
10
-14.4849708768
20
22.6370596559
11
-11.1763323110
21
22.6186116728
0
LINE
5
2F3
100
AcDbEntity
8
0
100
AcDbLine
62
9
6
CONTINUOUS
10
-14.4849705830
20
22.6370596543
11
-14.4849133029
21
22.6370593212
0
LINE
5
2F4
100
AcDbEntity
8
0
100
AcDbLine
62
7
6
CONTINUOUS
10
-4.8583911755
20
21.6466011343
11
-7.6251860598
21
21.6775466557
0
LINE
5
2F5
100
AcDbEntity
8
0
100
AcDbLine
62
7
6
CONTINUOUS
10
-8.9313722944
20
22.3314430910
11
-9.5626418414
21
22.3385035946
0
LINE
5
2F6
100
AcDbEntity
8
0
100
AcDbLine
62
9
6
CONTINUOUS
10
-9.4041924371
20
23.6244422099
11
-7.9038408618
21
23.6076613628
0
LINE
5
2F7
100
AcDbEntity
8
0
100
AcDbLine
62
7
6
CONTINUOUS
10
-8.6251595888
20
22.7623879579
11
-4.7930704136
21
22.6881482459
0
LINE
5
2F8
100
AcDbEntity
8
0
100
AcDbLine
62
9
6
CONTINUOUS
10
0.2286187602
20
21.5052631967
11
0.5207402133
21
21.4990849412
0
LINE
5
2F9
100
AcDbEntity
8
0
100
AcDbLine
62
9
6
CONTINUOUS
10
2.1026350404
20
21.6088751992
11
1.8105135872
21
21.6150534547
0
LINE
5
2FA
100
AcDbEntity
8
0
100
AcDbLine
62
7
6
CONTINUOUS
10
2.3582003765
20
21.9002580313
11
2.7336954716
21
21.8923164556
0
LINE
5
2FB
100
AcDbEntity
8
0
100
AcDbLine
62
7
6
CONTINUOUS
10
2.4068327050
20
22.2949467296
11
2.7823278000
21
22.2870051538
0
LINE
5
2FC
100
AcDbEntity
8
0
100
AcDbLine
62
7
6
CONTINUOUS
10
-4.8089218141
20
22.4353958298
11
-7.5241455097
21
22.4975683256
0
LINE
5
2FD
100
AcDbEntity
8
0
100
AcDbLine
62
9
6
CONTINUOUS
10
-6.2506750373
20
23.5896396112
11
-7.9013487427
21
23.6636949811
0
LINE
5
2FE
100
AcDbEntity
8
0
100
AcDbLine
62
9
6
CONTINUOUS
10
-2.2033409087
20
23.6328317406
11
-2.9079760074
21
23.6644442953
0
LINE
5
2FF
100
AcDbEntity
8
0
100
AcDbLine
62
9
6
CONTINUOUS
10
-6.1871274201
20
23.8115592397
11
-8.0415008803
21
23.8947533392
0
LINE
5
300
100
AcDbEntity
8
0
100
AcDbLine
62
7
6
CONTINUOUS
10
1.7740393409
20
21.3190369310
11
0.3847472871
21
21.6531941574
0
LINE
5
301
100
AcDbEntity
8
0
100
AcDbLine
62
7
6
CONTINUOUS
10
-4.9032637937
20
22.9250844780
11
-6.2925558475
21
23.2592417044
0
LINE
5
302
100
AcDbEntity
8
0
100
AcDbLine
62
7
6
CONTINUOUS
10
-9.0834565685
20
24.1453680474
11
-8.0415008803
21
23.8947533392
0
LINE
5
303
100
AcDbEntity
8
0
100
AcDbLine
62
7
6
CONTINUOUS
10
6.2767055792
20
20.4508898665
11
7.3186612674
21
20.2002751582
0
LINE
5
304
100
AcDbEntity
8
0
100
AcDbLine
62
7
6
CONTINUOUS
10
2.0854202454
20
21.4691639157
11
4.0110986797
21
21.0059932219
0
LINE
5
305
100
AcDbEntity
8
0
100
AcDbLine
62
9
6
CONTINUOUS
10
1.8105135872
20
21.6150534547
11
-6.2560816012
21
23.5552582281
0
LINE
5
306
100
AcDbEntity
8
0
100
AcDbLine
62
7
6
CONTINUOUS
10
7.3682359169
20
20.4036554346
11
6.1701339565
21
20.6918269727
0
LINE
5
307
100
AcDbEntity
8
0
100
AcDbLine
62
7
6
CONTINUOUS
10
7.8309089110
20
20.3828982011
11
6.5827924068
21
20.6830994065
0
LINE
5
308
100
AcDbEntity
8
0
100
AcDbLine
62
7
6
CONTINUOUS
10
2.2191371066
20
21.8433008306
11
2.4935390763
21
21.7773007402
0
LINE
5
309
100
AcDbEntity
8
0
100
AcDbLine
62
9
6
CONTINUOUS
10
2.7996131650
20
21.8763964862
11
2.7336806419
21
21.8922547998
0
LINE
5
30A
100
AcDbEntity
8
0
100
AcDbLine
62
9
6
CONTINUOUS
10
2.4068327050
20
22.2949467296
11
-5.6597624835
21
24.2351515029
0
LINE
5
30B
100
AcDbEntity
8
0
100
AcDbLine
62
9
6
CONTINUOUS
10
2.7823278000
20
22.2870051538
11
-5.2842673884
21
24.2272099272
0
LINE
5
30C
100
AcDbEntity
8
0
100
AcDbLine
62
7
6
CONTINUOUS
10
-5.2056761066
20
24.2170948989
11
2.7843259279
21
22.2953125702
0
LINE
5
30D
100
AcDbEntity
8
0
100
AcDbLine
62
9
6
CONTINUOUS
10
-3.1512231892
20
23.8608195944
11
-2.2033409087
21
23.6328317406
0
LINE
5
30E
100
AcDbEntity
8
0
100
AcDbLine
62
9
6
CONTINUOUS
10
12.1148655508
20
20.1889682679
11
13.0627478313
21
19.9609804140
0
LINE
5
30F
100
AcDbEntity
8
0
100
AcDbLine
62
7
6
CONTINUOUS
10
-3.0503795841
20
23.8464773490
11
-2.1037946874
21
23.6188015462
0
LINE
5
310
100
AcDbEntity
8
0
100
AcDbLine
62
7
6
CONTINUOUS
10
12.2144117721
20
20.1749380736
11
13.1609966692
21
19.9472622707
0
LINE
5
311
100
AcDbEntity
8
0
100
AcDbLine
62
7
6
CONTINUOUS
10
4.0141440350
20
21.0375771684
11
2.2779822360
21
21.8821619502
0
LINE
5
312
100
AcDbEntity
8
0
100
AcDbLine
62
7
6
CONTINUOUS
10
2.7996131650
20
21.8763964862
11
5.7149594949
21
20.4581777778
0
LINE
5
313
100
AcDbEntity
8
0
100
AcDbLine
62
7
6
CONTINUOUS
10
2.9361357513
20
22.2498585587
11
6.6665518737
21
20.4351355940
0
LINE
5
314
100
AcDbEntity
8
0
100
AcDbLine
62
9
6
CONTINUOUS
10
-9.0498252779
20
24.1372789356
11
-10.5189013273
21
24.1454700661
0
LINE
5
315
100
AcDbEntity
8
0
100
AcDbLine
62
7
6
CONTINUOUS
10
-9.0767562398
20
24.1405676557
11
-10.5463082163
21
24.1487614398
0
LINE
5
316
100
AcDbEntity
8
0
100
AcDbLine
62
9
6
CONTINUOUS
10
-9.5418460566
20
23.9115326471
11
-8.0414944813
21
23.8947518001
0
LINE
5
317
100
AcDbEntity
8
0
100
AcDbLine
62
7
6
CONTINUOUS
10
-5.6597624835
20
24.2351515029
11
-5.2842673884
21
24.2272099272
0
LINE
5
318
100
AcDbEntity
8
0
100
AcDbLine
62
9
6
CONTINUOUS
10
-3.1512231892
20
23.8608195944
11
-3.8672124517
21
23.8951630911
0
LINE
5
319
100
AcDbEntity
8
0
100
AcDbLine
62
9
6
CONTINUOUS
10
-6.0780640567
20
24.0012098973
11
-9.0834565685
21
24.1453680474
0
LINE
5
31A
100
AcDbEntity
8
0
100
AcDbLine
62
7
6
CONTINUOUS
10
-3.1685024788
20
23.8633295323
11
-3.8759429152
21
23.8972629717
0
LINE
5
31B
100
AcDbEntity
8
0
100
AcDbLine
62
7
6
CONTINUOUS
10
-6.0767504058
20
24.0028279970
11
-9.0833761166
21
24.1470452993
0
SPLINE
5
31C
100
AcDbEntity
8
0
100
AcDbSpline
62
7
6
CONTINUOUS
70
0
71
3
72
10
73
6
74
4
42
0.0000001000
43
0.0000001000
44
0.0000000001
12
0.1004695153
22
-0.0241652678
32
0.0000000000
13
0.1019387953
23
-0.0169282513
33
0.0000000000
40
0.0000000000
40
0.0000000000
40
0.0000000000
40
0.0000000000
40
0.3335394207
40
0.6668311596
40
1.0000000000
40
1.0000000000
40
1.0000000000
40
1.0000000000
10
-15.7614160921
20
8.6348481699
30
0.0000000000
10
-15.7502459108
20
8.6321614801
30
0.0000000000
10
-15.7278489876
20
8.6270555489
30
0.0000000000
10
-15.6940899621
20
8.6202010505
30
0.0000000000
10
-15.6714877676
20
8.6161702443
30
0.0000000000
10
-15.6601668242
20
8.6142902557
30
0.0000000000
11
-15.7614160921
21
8.6348481699
31
0.0000000000
11
-15.7278119857
21
8.6271875363
31
0.0000000000
11
-15.6940600200
21
8.6203346194
31
0.0000000000
11
-15.6601668242
21
8.6142902557
31
0.0000000000
0
SPLINE
5
31D
100
AcDbEntity
8
0
100
AcDbSpline
62
7
6
CONTINUOUS
70
0
71
3
72
28
73
24
74
22
42
0.0000001000
43
0.0000001000
44
0.0000000001
12
-7.1610556032
22
1.1891856189
32
0.0000000000
13
7.0578407529
23
-1.6975757425
33
0.0000000000
40
0.0000000000
40
0.0000000000
40
0.0000000000
40
0.0000000000
40
0.0390614430
40
0.0794023556
40
0.1213770808
40
0.1656024528
40
0.2118229729
40
0.2605077493
40
0.3114164278
40
0.3638933806
40
0.4177824573
40
0.4723068436
40
0.5270543797
40
0.5815800682
40
0.6354448482
40
0.6879002688
40
0.7388154470
40
0.7875546845
40
0.8339098415
40
0.8782847993
40
0.9203732205
40
0.9608186330
40
1.0000000000
40
1.0000000000
40
1.0000000000
40
1.0000000000
10
-14.7755418444
20
13.9413380915
30
0.0000000000
10
-14.8687822328
20
13.9568218603
30
0.0000000000
10
-15.0619451013
20
13.9695792339
30
0.0000000000
10
-15.3548964690
20
13.9312330743
30
0.0000000000
10
-15.6472775604
20
13.8346018092
30
0.0000000000
10
-15.9303466498
20
13.6811830256
30
0.0000000000
10
-16.1975570592
20
13.4742128355
30
0.0000000000
10
-16.4425761469
20
13.2187242127
30
0.0000000000
10
-16.6600525428
20
12.9206489146
30
0.0000000000
10
-16.8454038587
20
12.5872659460
30
0.0000000000
10
-16.9947979314
20
12.2268901937
30
0.0000000000
10
-17.1057358761
20
11.8472139893
30
0.0000000000
10
-17.1763454346
20
11.4564720576
30
0.0000000000
10
-17.2054869503
20
11.0620643800
30
0.0000000000
10
-17.1924383433
20
10.6723056326
30
0.0000000000
10
-17.1372357313
20
10.2950216355
30
0.0000000000
10
-17.0408130411
20
9.9388373834
30
0.0000000000
10
-16.9049509842
20
9.6115439334
30
0.0000000000
10
-16.7323949290
20
9.3200932295
30
0.0000000000
10
-16.5269165258
20
9.0711250427
30
0.0000000000
10
-16.2928843319
20
8.8698095860
30
0.0000000000
10
-16.0369364157
20
8.7207678449
30
0.0000000000
10
-15.8535947082
20
8.6570192826
30
0.0000000000
10
-15.7614160921
20
8.6348481699
30
0.0000000000
11
-14.7755418444
21
13.9413380915
31
0.0000000000
11
-15.0584646247
21
13.9602154437
31
0.0000000000
11
-15.3489168323
21
13.9228979601
31
0.0000000000
11
-15.6385430659
21
13.8282482371
31
0.0000000000
11
-15.9213873942
21
13.6763794359
31
0.0000000000
11
-16.1874169333
21
13.4719233824
31
0.0000000000
11
-16.4328835329
21
13.2176716483
31
0.0000000000
11
-16.6515029912
21
12.9197211294
31
0.0000000000
11
-16.8372677824
21
12.5871490128
31
0.0000000000
11
-16.9875484244
21
12.2259795568
31
0.0000000000
11
-17.0988137741
21
11.8461413178
31
0.0000000000
11
-17.1695166128
21
11.4550619314
31
0.0000000000
11
-17.1984801421
21
11.0603143376
31
0.0000000000
11
-17.1849570243
21
10.6695371454
31
0.0000000000
11
-17.1291667564
21
10.2928659943
31
0.0000000000
11
-17.0317181373
21
9.9363444372
31
0.0000000000
11
-16.8950702571
21
9.6099937936
31
0.0000000000
11
-16.7226071612
21
9.3210521590
31
0.0000000000
11
-16.5166143392
21
9.0734024311
31
0.0000000000
11
-16.2843009817
21
8.8749683911
31
0.0000000000
11
-16.0301763490
21
8.7279289085
31
0.0000000000
11
-15.7614160921
21
8.6348481699
31
0.0000000000
0
SPLINE
5
31E
100
AcDbEntity
8
0
100
AcDbSpline
62
9
6
CONTINUOUS
70
0
71
3
72
18
73
14
74
12
42
0.0000001000
43
0.0000001000
44
0.0000000001
12
3.4373471457
22
-0.5700611746
32
0.0000000000
13
0.6865658047
23
3.4099971791
33
0.0000000000
40
0.0000000000
40
0.0000000000
40
0.0000000000
40
0.0000000000
40
0.0500234235
40
0.1276098546
40
0.2078396833
40
0.2918788856
40
0.3805056416
40
0.4739850170
40
0.5722432975
40
0.6747845733
40
0.7809219341
40
0.8896804977
40
1.0000000000
40
1.0000000000
40
1.0000000000
40
1.0000000000
10
-15.6601636427
20
8.6143094049
30
0.0000000000
10
-15.6028476854
20
8.6048039344
30
0.0000000000
10
-15.4548331688
20
8.5903845299
30
0.0000000000
10
-15.2129495175
20
8.6084233528
30
0.0000000000
10
-14.9411006102
20
8.6838256299
30
0.0000000000
10
-14.6758858261
20
8.8122059210
30
0.0000000000
10
-14.4225108210
20
8.9904732374
30
0.0000000000
10
-14.1858129630
20
9.2147884732
30
0.0000000000
10
-13.9703482951
20
9.4805012316
30
0.0000000000
10
-13.7802504949
20
9.7822786787
30
0.0000000000
10
-13.6192510425
20
10.1140470301
30
0.0000000000
10
-13.4905201179
20
10.4691332975
30
0.0000000000
10
-13.4281176175
20
10.7158717026
30
0.0000000000
10
-13.4028704182
20
10.8412680998
30
0.0000000000
11
-15.6601636427
21
8.6143094049
31
0.0000000000
11
-15.4867269843
21
8.5974167476
31
0.0000000000
11
-15.2175434475
21
8.6167752028
31
0.0000000000
11
-14.9483330888
21
8.6903133003
31
0.0000000000
11
-14.6846519520
21
8.8165103939
31
0.0000000000
11
-14.4317788536
21
8.9928418862
31
0.0000000000
11
-14.1949552256
21
9.2156520191
31
0.0000000000
11
-13.9789096990
21
9.4804931001
31
0.0000000000
11
-13.7881287602
21
9.7818648240
31
0.0000000000
11
-13.6264177252
21
10.1137557239
31
0.0000000000
11
-13.4971306164
21
10.4692867661
31
0.0000000000
11
-13.4028704182
21
10.8412680998
31
0.0000000000
0
SPLINE
5
31F
100
AcDbEntity
8
0
100
AcDbSpline
62
9
6
CONTINUOUS
70
0
71
3
72
28
73
24
74
22
42
0.0000001000
43
0.0000001000
44
0.0000000001
12
1.3064485133
22
6.4887964333
32
0.0000000000
13
-1.3064483000
23
-6.4887964762
33
0.0000000000
40
0.0000000000
40
0.0000000000
40
0.0000000000
40
0.0000000000
40
0.0558570626
40
0.1112821924
40
0.1656447950
40
0.2183780384
40
0.2690152022
40
0.3172264883
40
0.3628644130
40
0.4060040003
40
0.4469756622
40
0.4863698586
40
0.5249972233
40
0.5637841741
40
0.6036328449
40
0.6452870625
40
0.6892513372
40
0.7357667129
40
0.7848285228
40
0.8362219455
40
0.8895671810
40
0.9443580824
40
1.0000000000
40
1.0000000000
40
1.0000000000
40
1.0000000000
10
-13.7620609228
20
10.9122170650
30
0.0000000000
10
-13.7377361307
20
11.0330321011
30
0.0000000000
10
-13.7016638329
20
11.2764142319
30
0.0000000000
10
-13.6856391832
20
11.6421649686
30
0.0000000000
10
-13.7080311587
20
12.0007555928
30
0.0000000000
10
-13.7683970366
20
12.3442738834
30
0.0000000000
10
-13.8654879297
20
12.6652222741
30
0.0000000000
10
-13.9973198134
20
12.9565820563
30
0.0000000000
10
-14.1612380349
20
13.2119388718
30
0.0000000000
10
-14.3539767851
20
13.4255327755
30
0.0000000000
10
-14.5716362782
20
13.5922642093
30
0.0000000000
10
-14.8095362064
20
13.7077705342
30
0.0000000000
10
-15.0620469563
20
13.7687469933
30
0.0000000000
10
-15.3227470779
20
13.7734851732
30
0.0000000000
10
-15.5850201748
20
13.7221639432
30
0.0000000000
10
-15.8426484181
20
13.6165902127
30
0.0000000000
10
-16.0899776178
20
13.4597292225
30
0.0000000000
10
-16.3218102498
20
13.2554322817
30
0.0000000000
10
-16.5333141318
20
13.0083730254
30
0.0000000000
10
-16.7200433264
20
12.7240385644
30
0.0000000000
10
-16.8780251188
20
12.4086658579
30
0.0000000000
10
-17.0038469167
20
12.0692286319
30
0.0000000000
10
-17.0642608590
20
11.8326510673
30
0.0000000000
10
-17.0884919552
20
11.7123013744
30
0.0000000000
11
-13.7620609228
21
10.9122170650
31
0.0000000000
11
-13.7078997152
21
11.2779468557
31
0.0000000000
11
-13.6920984436
21
11.6444658648
31
0.0000000000
11
-13.7150144605
21
12.0035619891
31
0.0000000000
11
-13.7761346245
21
12.3472108381
31
0.0000000000
11
-13.8740947870
21
12.6677436857
31
0.0000000000
11
-14.0067055710
21
12.9579956203
31
0.0000000000
11
-14.1710051984
21
13.2114846034
31
0.0000000000
11
-14.3633232528
21
13.4225476794
31
0.0000000000
11
-14.5793652071
21
13.5864710666
31
0.0000000000
11
-14.8143010851
21
13.6995904202
31
0.0000000000
11
-15.0628865312
21
13.7593811167
31
0.0000000000
11
-15.3195665551
21
13.7645067906
31
0.0000000000
11
-15.5786093053
21
13.7148527721
31
0.0000000000
11
-15.8342260331
21
13.6115284938
31
0.0000000000
11
-16.0807074066
21
13.4568420219
31
0.0000000000
11
-16.3125472134
21
13.2542490379
31
0.0000000000
11
-16.5245676424
21
13.0082738647
31
0.0000000000
11
-16.7120298150
21
12.7244147789
31
0.0000000000
11
-16.8707499469
21
12.4090066014
31
0.0000000000
11
-16.9971804777
21
12.0690967857
31
0.0000000000
11
-17.0884919552
21
11.7123013744
31
0.0000000000
0
SPLINE
5
320
100
AcDbEntity
8
0
100
AcDbSpline
62
9
6
CONTINUOUS
70
0
71
3
72
18
73
14
74
12
42
0.0000001000
43
0.0000001000
44
0.0000000001
12
-0.6607527695
22
-3.2817909764
32
0.0000000000
13
3.2548232994
23
-0.7828611148
33
0.0000000000
40
0.0000000000
40
0.0000000000
40
0.0000000000
40
0.0000000000
40
0.1054282192
40
0.2101284530
40
0.3130385958
40
0.4131147133
40
0.5095784720
40
0.6017516286
40
0.6893477359
40
0.7723268142
40
0.8511455768
40
0.9266163441
40
1.0000000000
40
1.0000000000
40
1.0000000000
40
1.0000000000
10
-17.0884919552
20
11.7123013744
30
0.0000000000
10
-17.1117126178
20
11.5969702483
30
0.0000000000
10
-17.1466967763
20
11.3646629278
30
0.0000000000
10
-17.1644766453
20
11.0152507919
30
0.0000000000
10
-17.1472233374
20
10.6717255751
30
0.0000000000
10
-17.0952390945
20
10.3409756611
30
0.0000000000
10
-17.0095222405
20
10.0296507840
30
0.0000000000
10
-16.8916705549
20
9.7439105489
30
0.0000000000
10
-16.7438948308
20
9.4895306645
30
0.0000000000
10
-16.5688960982
20
9.2716481887
30
0.0000000000
10
-16.3698902209
20
9.0948997403
30
0.0000000000
10
-16.1508083419
20
8.9633143303
30
0.0000000000
10
-15.9929403104
20
8.9074043919
30
0.0000000000
10
-15.9133233661
20
8.8882546550
30
0.0000000000
11
-17.0884919552
21
11.7123013744
31
0.0000000000
11
-17.1410156450
21
11.3632949670
31
0.0000000000
11
-17.1586185077
21
11.0132377591
31
0.0000000000
11
-17.1409327472
21
10.6691851007
31
0.0000000000
11
-17.0883292155
21
10.3383210779
31
0.0000000000
11
-17.0018481729
21
10.0271897869
31
0.0000000000
11
-16.8833006417
21
9.7423077497
31
0.0000000000
11
-16.7350331156
21
9.4893117441
31
0.0000000000
11
-16.5601448694
21
9.2734913097
31
0.0000000000
11
-16.3621083323
21
9.0991287835
31
0.0000000000
11
-16.1450390325
21
8.9698511144
31
0.0000000000
11
-15.9133233661
21
8.8882546550
31
0.0000000000
0
SPLINE
5
321
100
AcDbEntity
8
0
100
AcDbSpline
62
9
6
CONTINUOUS
70
0
71
3
72
18
73
14
74
12
42
0.0000001000
43
0.0000001000
44
0.0000000001
12
0.7210465992
22
3.5812544876
32
0.0000000000
13
-3.5518260018
23
0.8542973464
33
0.0000000000
40
0.0000000000
40
0.0000000000
40
0.0000000000
40
0.0000000000
40
0.1054282436
40
0.2101285037
40
0.3130386267
40
0.4131147484
40
0.5095784993
40
0.6017516525
40
0.6893477576
40
0.7723268294
40
0.8511456229
40
0.9266163182
40
1.0000000000
40
1.0000000000
40
1.0000000000
40
1.0000000000
10
-13.4028704182
20
10.8412680998
30
0.0000000000
10
-13.3775308593
20
10.9671232233
30
0.0000000000
10
-13.3393549793
20
11.2206287203
30
0.0000000000
10
-13.3199515655
20
11.6019247037
30
0.0000000000
10
-13.3387799202
20
11.9767966139
30
0.0000000000
10
-13.3955074748
20
12.3377274545
30
0.0000000000
10
-13.4890461055
20
12.6774607148
30
0.0000000000
10
-13.6176517464
20
12.9892747255
30
0.0000000000
10
-13.7789119636
20
13.2668668265
30
0.0000000000
10
-13.9698794993
20
13.5046309148
30
0.0000000000
10
-14.1870442169
20
13.6975082081
30
0.0000000000
10
-14.4261179556
20
13.8410996345
30
0.0000000000
10
-14.5983910887
20
13.9021120661
30
0.0000000000
10
-14.6852731118
20
13.9230092277
30
0.0000000000
11
-13.4028704182
21
10.8412680998
31
0.0000000000
11
-13.3455541776
21
11.2221214794
31
0.0000000000
11
-13.3263445596
21
11.6041214902
31
0.0000000000
11
-13.3456443710
21
11.9795688813
31
0.0000000000
11
-13.4030479426
21
12.3406242781
31
0.0000000000
11
-13.4974204107
21
12.6801462726
31
0.0000000000
11
-13.6267854078
21
12.9910237915
31
0.0000000000
11
-13.7885823455
21
13.2671056845
31
0.0000000000
11
-13.9794291516
21
13.5026197092
31
0.0000000000
11
-14.1955364809
21
13.6928930472
31
0.0000000000
11
-14.4324134233
21
13.8339666899
31
0.0000000000
11
-14.6852731118
21
13.9230092277
31
0.0000000000
0
SPLINE
5
322
100
AcDbEntity
8
0
100
AcDbSpline
62
9
6
CONTINUOUS
70
0
71
3
72
18
73
14
74
12
42
0.0000001000
43
0.0000001000
44
0.0000000001
12
3.1811855615
22
-0.7651495169
32
0.0000000000
13
0.6458038793
23
3.2075430955
33
0.0000000000
40
0.0000000000
40
0.0000000000
40
0.0000000000
40
0.0000000000
40
0.0745133541
40
0.1500996446
40
0.2282611838
40
0.3101338981
40
0.3964759010
40
0.4875454245
40
0.5832706575
40
0.6831684643
40
0.7865696672
40
0.8925244618
40
1.0000000000
40
1.0000000000
40
1.0000000000
40
1.0000000000
10
-15.9133233661
20
8.8882546550
30
0.0000000000
10
-15.8343097640
20
8.8692500361
30
0.0000000000
10
-15.6706600691
20
8.8474465260
30
0.0000000000
10
-15.4207817862
20
8.8660824795
30
0.0000000000
10
-15.1716647399
20
8.9351791761
30
0.0000000000
10
-14.9286271634
20
9.0528244891
30
0.0000000000
10
-14.6964393119
20
9.2161851256
30
0.0000000000
10
-14.4795340245
20
9.4217431811
30
0.0000000000
10
-14.2820866028
20
9.6652372085
30
0.0000000000
10
-14.1078843735
20
9.9417799469
30
0.0000000000
10
-13.9603486105
20
10.2458063209
30
0.0000000000
10
-13.8423804848
20
10.5711997874
30
0.0000000000
10
-13.7851969626
20
10.7973062582
30
0.0000000000
10
-13.7620609228
20
10.9122170650
30
0.0000000000
11
-15.9133233661
21
8.8882546550
31
0.0000000000
11
-15.6716660091
21
8.8559956177
31
0.0000000000
11
-15.4249915508
21
8.8737357182
31
0.0000000000
11
-15.1782924620
21
8.9411244520
31
0.0000000000
11
-14.9366602661
21
9.0567689940
31
0.0000000000
11
-14.7049323467
21
9.2183557116
31
0.0000000000
11
-14.4879118447
21
9.4225345322
31
0.0000000000
11
-14.2899320181
21
9.6652297200
31
0.0000000000
11
-14.1151040816
21
9.9414007797
31
0.0000000000
11
-13.9669155710
21
10.2455392435
31
0.0000000000
11
-13.8484387312
21
10.5713405435
31
0.0000000000
11
-13.7620609228
21
10.9122170650
31
0.0000000000
0
SPLINE
5
323
100
AcDbEntity
8
0
100
AcDbSpline
62
7
6
CONTINUOUS
70
0
71
3
72
8
73
4
74
2
42
0.0000001000
43
0.0000001000
44
0.0000000001
12
0.0778610438
22
-0.0187963635
32
0.0000000000
13
0.0795211566
23
-0.0016818416
33
0.0000000000
40
0.0000000000
40
0.0000000000
40
0.0000000000
40
0.0000000000
40
1.0000000000
40
1.0000000000
40
1.0000000000
40
1.0000000000
10
-3.7703054824
20
-27.1852720963
30
0.0000000000
10
-3.7443518012
20
-27.1915375508
30
0.0000000000
10
-3.7177434043
20
-27.1950067845
30
0.0000000000
10
-3.6912363521
20
-27.1955673984
30
0.0000000000
11
-3.7703054824
21
-27.1852720963
31
0.0000000000
11
-3.6912363521
21
-27.1955673984
31
0.0000000000
0
SPLINE
5
324
100
AcDbEntity
8
0
100
AcDbSpline
62
7
6
CONTINUOUS
70
0
71
3
72
10
73
6
74
4
42
0.0000001000
43
0.0000001000
44
0.0000000001
12
0.1659181461
22
-0.0035091045
32
0.0000000000
13
0.1542758076
23
0.0611565222
33
0.0000000000
40
0.0000000000
40
0.0000000000
40
0.0000000000
40
0.0000000000
40
0.3251946687
40
0.6577756201
40
1.0000000000
40
1.0000000000
40
1.0000000000
40
1.0000000000
10
-3.3157412570
20
-27.2035089741
30
0.0000000000
10
-3.2977560248
20
-27.2038893548
30
0.0000000000
10
-3.2612734366
20
-27.2020463681
30
0.0000000000
10
-3.2067781073
20
-27.1917078091
30
0.0000000000
10
-3.1712014621
20
-27.1800209474
30
0.0000000000
10
-3.1536024813
20
-27.1730445297
30
0.0000000000
11
-3.3157412570
21
-27.2035089741
31
0.0000000000
11
-3.2618387728
21
-27.2008553748
31
0.0000000000
11
-3.2075944100
21
-27.1906633380
31
0.0000000000
11
-3.1536024813
21
-27.1730445297
31
0.0000000000
0
SPLINE
5
325
100
AcDbEntity
8
0
100
AcDbSpline
62
7
6
CONTINUOUS
70
0
71
3
72
13
73
9
74
7
42
0.0000001000
43
0.0000001000
44
0.0000000001
12
-0.1028156120
22
-0.8344276607
32
0.0000000000
13
0.8230025075
23
-0.1986802844
33
0.0000000000
40
0.0000000000
40
0.0000000000
40
0.0000000000
40
0.0000000000
40
0.2131404898
40
0.4158487321
40
0.6039317230
40
0.7765991792
40
0.9375254263
40
1.0000000000
40
1.0000000000
40
1.0000000000
40
1.0000000000
10
-12.1839375087
20
-24.5538454560
30
0.0000000000
10
-12.1912422320
20
-24.6131288961
30
0.0000000000
10
-12.1946820232
20
-24.7304887876
30
0.0000000000
10
-12.1652763827
20
-24.8984334376
30
0.0000000000
10
-12.1026720137
20
-25.0451884458
30
0.0000000000
10
-12.0097418777
20
-25.1609041537
30
0.0000000000
10
-11.9143051140
20
-25.2217743709
30
0.0000000000
10
-11.8540395812
20
-25.2409298343
30
0.0000000000
10
-11.8369006709
20
-25.2450673229
30
0.0000000000
11
-12.1839375087
21
-24.5538454560
31
0.0000000000
11
-12.1885455661
21
-24.7329815301
31
0.0000000000
11
-12.1580013021
21
-24.9006465932
31
0.0000000000
11
-12.0943862576
21
-25.0454145482
31
0.0000000000
11
-12.0020356930
21
-25.1574196983
31
0.0000000000
11
-11.8872431465
21
-25.2290290775
31
0.0000000000
11
-11.8369006709
21
-25.2450673229
31
0.0000000000
0
SPLINE
5
326
100
AcDbEntity
8
0
100
AcDbSpline
62
7
6
CONTINUOUS
70
0
71
3
72
15
73
11
74
9
42
0.0000001000
43
0.0000001000
44
0.0000000001
12
-0.0400312962
22
-0.2158269839
32
0.0000000000
13
-0.2203267829
23
0.0047249690
33
0.0000000000
40
0.0000000000
40
0.0000000000
40
0.0000000000
40
0.0000000000
40
0.1639819045
40
0.3214687838
40
0.4703971988
40
0.6096069077
40
0.7391519916
40
0.8605630180
40
0.9768946660
40
1.0000000000
40
1.0000000000
40
1.0000000000
40
1.0000000000
10
-10.6020426817
20
-24.4440551980
30
0.0000000000
10
-10.6042308177
20
-24.4558524379
30
0.0000000000
10
-10.6100086157
20
-24.4787380892
30
0.0000000000
10
-10.6229849665
20
-24.5107404403
30
0.0000000000
10
-10.6397387819
20
-24.5388786145
30
0.0000000000
10
-10.6597552812
20
-24.5622022069
30
0.0000000000
10
-10.6824344924
20
-24.5798976947
30
0.0000000000
10
-10.7070898694
20
-24.5912633863
30
0.0000000000
10
-10.7261134663
20
-24.5945720589
30
0.0000000000
10
-10.7363589923
20
-24.5946316085
30
0.0000000000
10
-10.7380559003
20
-24.5945952178
30
0.0000000000
11
-10.6020426817
21
-24.4440551980
31
0.0000000000
11
-10.6109294402
21
-24.4789362933
31
0.0000000000
11
-10.6240313197
21
-24.5109269295
31
0.0000000000
11
-10.6408990566
21
-24.5389301469
31
0.0000000000
11
-10.6609542558
21
-24.5619857148
31
0.0000000000
11
-10.6835092243
21
-24.5793030574
31
0.0000000000
11
-10.7077905518
21
-24.5902883627
31
0.0000000000
11
-10.7329656312
21
-24.5945649445
31
0.0000000000
11
-10.7380559003
21
-24.5945952178
31
0.0000000000
0
SPLINE
5
327
100
AcDbEntity
8
0
100
AcDbSpline
62
7
6
CONTINUOUS
70
0
71
3
72
15
73
11
74
9
42
0.0000001000
43
0.0000001000
44
0.0000000001
12
-0.2510611283
22
0.0603860722
32
0.0000000000
13
0.0161626194
23
0.2577148377
33
0.0000000000
40
0.0000000000
40
0.0000000000
40
0.0000000000
40
0.0000000000
40
0.1010847571
40
0.2081819984
40
0.3231288154
40
0.4464575184
40
0.5775674965
40
0.7149833376
40
0.8566151480
40
1.0000000000
40
1.0000000000
40
1.0000000000
40
1.0000000000
10
-5.4701601278
20
-25.8638764792
30
0.0000000000
10
-5.4786196121
20
-25.8618417754
30
0.0000000000
10
-5.4955308020
20
-25.8552450937
30
0.0000000000
10
-5.5184187079
20
-25.8390490674
30
0.0000000000
10
-5.5386797615
20
-25.8170314075
30
0.0000000000
10
-5.5556893181
20
-25.7899898852
30
0.0000000000
10
-5.5689434670
20
-25.7588369880
30
0.0000000000
10
-5.5780282273
20
-25.7246067940
30
0.0000000000
10
-5.5826553318
20
-25.6884452358
30
0.0000000000
10
-5.5826674045
20
-25.6638355963
30
0.0000000000
10
-5.5818949129
20
-25.6515181283
30
0.0000000000
11
-5.4701601278
21
-25.8638764792
31
0.0000000000
11
-5.4945319034
21
-25.8545307524
31
0.0000000000
11
-5.5172341689
21
-25.8387385496
31
0.0000000000
11
-5.5374884630
21
-25.8170413858
31
0.0000000000
11
-5.5546002656
21
-25.7901832572
31
0.0000000000
11
-5.5679828129
21
-25.7590851293
31
0.0000000000
11
-5.5771772170
21
-25.7248133576
31
0.0000000000
11
-5.5818682016
21
-25.6885431216
31
0.0000000000
11
-5.5818949129
21
-25.6515181283
31
0.0000000000
0
SPLINE
5
328
100
AcDbEntity
8
0
100
AcDbSpline
62
7
6
CONTINUOUS
70
0
71
3
72
8
73
4
74
2
42
0.0000001000
43
0.0000001000
44
0.0000000001
12
-0.0203409298
22
0.0004362169
32
0.0000000000
13
-0.0197034212
23
0.0047391336
33
0.0000000000
40
0.0000000000
40
0.0000000000
40
0.0000000000
40
0.0000000000
40
1.0000000000
40
1.0000000000
40
1.0000000000
40
1.0000000000
10
-10.7380559003
20
-24.5945952178
30
0.0000000000
10
-10.7448362103
20
-24.5944498122
30
0.0000000000
10
-10.7516034014
20
-24.5935658698
30
0.0000000000
10
-10.7581712085
20
-24.5919861587
30
0.0000000000
11
-10.7380559003
21
-24.5945952178
31
0.0000000000
11
-10.7581712085
21
-24.5919861587
31
0.0000000000
0
SPLINE
5
329
100
AcDbEntity
8
0
100
AcDbSpline
62
7
6
CONTINUOUS
70
0
71
3
72
13
73
9
74
7
42
0.0000001000
43
0.0000001000
44
0.0000000001
12
-0.1028156120
22
-0.8344276607
32
0.0000000000
13
0.8230025075
23
-0.1986802844
33
0.0000000000
40
0.0000000000
40
0.0000000000
40
0.0000000000
40
0.0000000000
40
0.2131404898
40
0.4158487321
40
0.6039317230
40
0.7765991792
40
0.9375254263
40
1.0000000000
40
1.0000000000
40
1.0000000000
40
1.0000000000
10
-4.1173423202
20
-26.4940502293
30
0.0000000000
10
-4.1246470435
20
-26.5533336694
30
0.0000000000
10
-4.1280868348
20
-26.6706935610
30
0.0000000000
10
-4.0986811942
20
-26.8386382109
30
0.0000000000
10
-4.0360768253
20
-26.9853932192
30
0.0000000000
10
-3.9431466892
20
-27.1011089270
30
0.0000000000
10
-3.8477099255
20
-27.1619791442
30
0.0000000000
10
-3.7874443927
20
-27.1811346076
30
0.0000000000
10
-3.7703054824
20
-27.1852720963
30
0.0000000000
11
-4.1173423202
21
-26.4940502293
31
0.0000000000
11
-4.1219503777
21
-26.6731863035
31
0.0000000000
11
-4.0914061136
21
-26.8408513665
31
0.0000000000
11
-4.0277910692
21
-26.9856193215
31
0.0000000000
11
-3.9354405046
21
-27.0976244716
31
0.0000000000
11
-3.8206479581
21
-27.1692338508
31
0.0000000000
11
-3.7703054824
21
-27.1852720963
31
0.0000000000
0
SPLINE
5
32A
100
AcDbEntity
8
0
100
AcDbSpline
62
7
6
CONTINUOUS
70
0
71
3
72
8
73
4
74
2
42
0.0000001000
43
0.0000001000
44
0.0000000001
12
0.0203409298
22
-0.0004362169
32
0.0000000000
13
0.0197034212
23
-0.0047391336
33
0.0000000000
40
0.0000000000
40
0.0000000000
40
0.0000000000
40
0.0000000000
40
1.0000000000
40
1.0000000000
40
1.0000000000
40
1.0000000000
10
0.3646319789
20
21.6558032166
30
0.0000000000
10
0.3714122888
20
21.6556578109
30
0.0000000000
10
0.3781794800
20
21.6547738686
30
0.0000000000
10
0.3847472871
20
21.6531941574
30
0.0000000000
11
0.3646319789
21
21.6558032166
31
0.0000000000
11
0.3847472871
21
21.6531941574
31
0.0000000000
0
SPLINE
5
32B
100
AcDbEntity
8
0
100
AcDbSpline
62
7
6
CONTINUOUS
70
0
71
3
72
9
73
5
74
3
42
0.0000001000
43
0.0000001000
44
0.0000000001
12
0.0778585383
22
-0.0187268314
32
0.0000000000
13
0.0719526324
23
-0.0350025547
33
0.0000000000
40
0.0000000000
40
0.0000000000
40
0.0000000000
40
0.0000000000
40
0.3350694349
40
1.0000000000
40
1.0000000000
40
1.0000000000
40
1.0000000000
10
2.8609186937
20
22.2768898482
30
0.0000000000
10
2.8696146991
20
22.2747982519
30
0.0000000000
10
2.8953385714
20
22.2676043117
30
0.0000000000
10
2.9201879164
20
22.2576166481
30
0.0000000000
10
2.9361357513
20
22.2498585587
30
0.0000000000
11
2.8609186937
21
22.2768898482
31
0.0000000000
11
2.8867550813
21
22.2696636573
31
0.0000000000
11
2.9361357513
21
22.2498585587
31
0.0000000000
0
SPLINE
5
32C
100
AcDbEntity
8
0
100
AcDbSpline
62
7
6
CONTINUOUS
70
0
71
3
72
15
73
11
74
9
42
0.0000001000
43
0.0000001000
44
0.0000000001
12
0.2510611283
22
-0.0603860722
32
0.0000000000
13
-0.0161626194
23
-0.2577148377
33
0.0000000000
40
0.0000000000
40
0.0000000000
40
0.0000000000
40
0.0000000000
40
0.1010847571
40
0.2081819984
40
0.3231288154
40
0.4464575184
40
0.5775674965
40
0.7149833376
40
0.8566151480
40
1.0000000000
40
1.0000000000
40
1.0000000000
40
1.0000000000
10
-4.9032637937
20
22.9250844780
30
0.0000000000
10
-4.8948043093
20
22.9230497742
30
0.0000000000
10
-4.8778931194
20
22.9164530924
30
0.0000000000
10
-4.8550052136
20
22.9002570662
30
0.0000000000
10
-4.8347441599
20
22.8782394063
30
0.0000000000
10
-4.8177346033
20
22.8511978839
30
0.0000000000
10
-4.8044804545
20
22.8200449867
30
0.0000000000
10
-4.7953956942
20
22.7858147927
30
0.0000000000
10
-4.7907685897
20
22.7496532345
30
0.0000000000
10
-4.7907565170
20
22.7250435950
30
0.0000000000
10
-4.7915290086
20
22.7127261270
30
0.0000000000
11
-4.9032637937
21
22.9250844780
31
0.0000000000
11
-4.8788920180
21
22.9157387511
31
0.0000000000
11
-4.8561897526
21
22.8999465483
31
0.0000000000
11
-4.8359354585
21
22.8782493846
31
0.0000000000
11
-4.8188236558
21
22.8513912559
31
0.0000000000
11
-4.8054411086
21
22.8202931281
31
0.0000000000
11
-4.7962467045
21
22.7860213563
31
0.0000000000
11
-4.7915557198
21
22.7497511203
31
0.0000000000
11
-4.7915290086
21
22.7127261270
31
0.0000000000
0
SPLINE
5
32D
100
AcDbEntity
8
0
100
AcDbSpline
62
7
6
CONTINUOUS
70
0
71
3
72
9
73
5
74
3
42
0.0000001000
43
0.0000001000
44
0.0000000001
12
0.0793059304
22
-0.0016772897
32
0.0000000000
13
0.0771860772
23
-0.0185650885
33
0.0000000000
40
0.0000000000
40
0.0000000000
40
0.0000000000
40
0.0000000000
40
0.6706381574
40
1.0000000000
40
1.0000000000
40
1.0000000000
40
1.0000000000
10
-5.2842673884
20
24.2272099272
30
0.0000000000
10
-5.2665388608
20
24.2268349757
30
0.0000000000
10
-5.2401004391
20
24.2244018316
30
0.0000000000
10
-5.2141505443
20
24.2191328321
30
0.0000000000
10
-5.2056764948
20
24.2170946215
30
0.0000000000
11
-5.2842673884
21
24.2272099272
31
0.0000000000
11
-5.2312973496
21
24.2222960155
31
0.0000000000
11
-5.2056764948
21
24.2170946215
31
0.0000000000
0
SPLINE
5
32E
100
AcDbEntity
8
0
100
AcDbSpline
62
7
6
CONTINUOUS
70
0
71
3
72
13
73
9
74
7
42
0.0000001000
43
0.0000001000
44
0.0000000001
12
0.1199153277
22
0.9732049872
32
0.0000000000
13
0.9803457232
23
-0.0207339320
33
0.0000000000
40
0.0000000000
40
0.0000000000
40
0.0000000000
40
0.0000000000
40
0.1863295871
40
0.3702309120
40
0.5461295036
40
0.7099955924
40
0.8604963363
40
1.0000000000
40
1.0000000000
40
1.0000000000
40
1.0000000000
10
-6.2560816012
20
23.5552582281
30
0.0000000000
10
-6.2486336767
20
23.6157038559
30
0.0000000000
10
-6.2223021900
20
23.7346843105
30
0.0000000000
10
-6.1514632921
20
23.8996683095
30
0.0000000000
10
-6.0535294755
20
24.0415783256
30
0.0000000000
10
-5.9343433638
20
24.1510434022
30
0.0000000000
10
-5.8010326563
20
24.2204631125
30
0.0000000000
10
-5.7053497568
20
24.2361156560
30
0.0000000000
10
-5.6597624835
20
24.2351515029
30
0.0000000000
11
-6.2560816012
21
23.5552582281
31
0.0000000000
11
-6.2166352538
21
23.7336574859
31
0.0000000000
11
-6.1450388198
21
23.8991623128
31
0.0000000000
11
-6.0461714779
21
24.0404938283
31
0.0000000000
11
-5.9267708739
21
24.1480205232
31
0.0000000000
11
-5.7949739619
21
24.2144146310
31
0.0000000000
11
-5.6597624835
21
24.2351515029
31
0.0000000000
0
SPLINE
5
32F
100
AcDbEntity
8
0
100
AcDbSpline
62
7
6
CONTINUOUS
70
0
71
3
72
15
73
11
74
9
42
0.0000001000
43
0.0000001000
44
0.0000000001
12
0.0400312962
22
0.2158269839
32
0.0000000000
13
0.2203267829
23
-0.0047249689
33
0.0000000000
40
0.0000000000
40
0.0000000000
40
0.0000000000
40
0.0000000000
40
0.1639819045
40
0.3214687838
40
0.4703971988
40
0.6096069077
40
0.7391519916
40
0.8605630180
40
0.9768946660
40
1.0000000000
40
1.0000000000
40
1.0000000000
40
1.0000000000
10
0.2286187602
20
21.5052631967
30
0.0000000000
10
0.2308068963
20
21.5170604367
30
0.0000000000
10
0.2365846942
20
21.5399460880
30
0.0000000000
10
0.2495610450
20
21.5719484391
30
0.0000000000
10
0.2663148605
20
21.6000866133
30
0.0000000000
10
0.2863313597
20
21.6234102057
30
0.0000000000
10
0.3090105710
20
21.6411056934
30
0.0000000000
10
0.3336659479
20
21.6524713850
30
0.0000000000
10
0.3526895449
20
21.6557800577
30
0.0000000000
10
0.3629350709
20
21.6558396072
30
0.0000000000
10
0.3646319789
20
21.6558032166
30
0.0000000000
11
0.2286187602
21
21.5052631967
31
0.0000000000
11
0.2375055187
21
21.5401442921
31
0.0000000000
11
0.2506073982
21
21.5721349282
31
0.0000000000
11
0.2674751351
21
21.6001381456
31
0.0000000000
11
0.2875303343
21
21.6231937135
31
0.0000000000
11
0.3100853028
21
21.6405110561
31
0.0000000000
11
0.3343666303
21
21.6514963615
31
0.0000000000
11
0.3595417097
21
21.6557729433
31
0.0000000000
11
0.3646319789
21
21.6558032166
31
0.0000000000
0
SPLINE
5
330
100
AcDbEntity
8
0
100
AcDbSpline
62
7
6
CONTINUOUS
70
0
71
3
72
9
73
5
74
3
42
0.0000001000
43
0.0000001000
44
0.0000000001
12
0.0793059304
22
-0.0016772897
32
0.0000000000
13
0.0771860772
23
-0.0185650885
33
0.0000000000
40
0.0000000000
40
0.0000000000
40
0.0000000000
40
0.0000000000
40
0.6706381574
40
1.0000000000
40
1.0000000000
40
1.0000000000
40
1.0000000000
10
2.7823278000
20
22.2870051538
30
0.0000000000
10
2.8000563277
20
22.2866302024
30
0.0000000000
10
2.8264947494
20
22.2841970583
30
0.0000000000
10
2.8524446441
20
22.2789280587
30
0.0000000000
10
2.8609186937
20
22.2768898482
30
0.0000000000
11
2.7823278000
21
22.2870051538
31
0.0000000000
11
2.8352978388
21
22.2820912421
31
0.0000000000
11
2.8609186937
21
22.2768898482
31
0.0000000000
0
SPLINE
5
331
100
AcDbEntity
8
0
100
AcDbSpline
62
7
6
CONTINUOUS
70
0
71
3
72
13
73
9
74
7
42
0.0000001000
43
0.0000001000
44
0.0000000001
12
0.1199153277
22
0.9732049872
32
0.0000000000
13
0.9803457232
23
-0.0207339320
33
0.0000000000
40
0.0000000000
40
0.0000000000
40
0.0000000000
40
0.0000000000
40
0.1863295871
40
0.3702309120
40
0.5461295036
40
0.7099955924
40
0.8604963363
40
1.0000000000
40
1.0000000000
40
1.0000000000
40
1.0000000000
10
1.8105135872
20
21.6150534547
30
0.0000000000
10
1.8179615117
20
21.6754990825
30
0.0000000000
10
1.8442929985
20
21.7944795371
30
0.0000000000
10
1.9151318963
20
21.9594635361
30
0.0000000000
10
2.0130657130
20
22.1013735523
30
0.0000000000
10
2.1322518247
20
22.2108386289
30
0.0000000000
10
2.2655625321
20
22.2802583392
30
0.0000000000
10
2.3612454316
20
22.2959108827
30
0.0000000000
10
2.4068327050
20
22.2949467296
30
0.0000000000
11
1.8105135872
21
21.6150534547
31
0.0000000000
11
1.8499599347
21
21.7934527126
31
0.0000000000
11
1.9215563687
21
21.9589575395
31
0.0000000000
11
2.0204237106
21
22.1002890550
31
0.0000000000
11
2.1398243145
21
22.2078157499
31
0.0000000000
11
2.2716212265
21
22.2742098577
31
0.0000000000
11
2.4068327050
21
22.2949467296
31
0.0000000000
0
SPLINE
5
332
100
AcDbEntity
8
0
100
AcDbSpline
62
7
6
CONTINUOUS
70
0
71
3
72
15
73
11
74
9
42
0.0000001000
43
0.0000001000
44
0.0000000001
12
3.6919798821
22
-0.6165957230
32
0.0000000000
13
-0.8072114873
23
-3.6388886751
33
0.0000000000
40
0.0000000000
40
0.0000000000
40
0.0000000000
40
0.0000000000
40
0.0853139900
40
0.1917924356
40
0.3056125225
40
0.4302952736
40
0.5661187027
40
0.7111822341
40
0.8627534179
40
1.0000000000
40
1.0000000000
40
1.0000000000
40
1.0000000000
10
-14.4849153298
20
13.9437058708
30
0.0000000000
10
-14.3799228182
20
13.9261711237
30
0.0000000000
10
-14.1492576556
20
13.8548404476
30
0.0000000000
10
-13.8298608477
20
13.6392730570
30
0.0000000000
10
-13.5497255335
20
13.3093565485
30
0.0000000000
10
-13.3339740588
20
12.8938080604
30
0.0000000000
10
-13.1894834758
20
12.4085258048
30
0.0000000000
10
-13.1223420186
20
11.8733831784
30
0.0000000000
10
-13.1352471545
20
11.3328502778
30
0.0000000000
10
-13.1913310208
20
10.9773326438
30
0.0000000000
10
-13.2282600267
20
10.8108576327
30
0.0000000000
11
-14.4849153298
21
13.9437058708
31
0.0000000000
11
-14.1806917750
21
13.8500576605
31
0.0000000000
11
-13.8495287389
21
13.6315354124
31
0.0000000000
11
-13.5713468166
21
13.3113911656
31
0.0000000000
11
-13.3535302016
21
12.9010184007
31
0.0000000000
11
-13.2059772993
21
12.4168958396
31
0.0000000000
11
-13.1364762865
21
11.8808426495
31
0.0000000000
11
-13.1487535555
21
11.3161871758
31
0.0000000000
11
-13.2282600267
21
10.8108576327
31
0.0000000000
0
SPLINE
5
333
100
AcDbEntity
8
0
100
AcDbSpline
62
7
6
CONTINUOUS
70
0
71
3
72
15
73
11
74
9
42
0.0000001000
43
0.0000001000
44
0.0000000001
12
-0.7593185204
22
-3.4234188060
32
0.0000000000
13
-3.4642090652
23
0.5736937270
33
0.0000000000
40
0.0000000000
40
0.0000000000
40
0.0000000000
40
0.0000000000
40
0.1343373845
40
0.2843708872
40
0.4277621653
40
0.5628437109
40
0.6883651810
40
0.8040149259
40
0.9114242974
40
1.0000000000
40
1.0000000000
40
1.0000000000
40
1.0000000000
10
-13.2282648775
20
10.8108589213
30
0.0000000000
10
-13.2622664989
20
10.6575612118
30
0.0000000000
10
-13.3528053124
20
10.3368575787
30
0.0000000000
10
-13.5476988705
20
9.8749841410
30
0.0000000000
10
-13.8058241058
20
9.4438277605
30
0.0000000000
10
-14.1091184181
20
9.0793059503
30
0.0000000000
10
-14.4474647202
20
8.7943921544
30
0.0000000000
10
-14.8098876981
20
8.6007541545
30
0.0000000000
10
-15.1676738708
20
8.5128482458
30
0.0000000000
10
-15.4000023971
20
8.5204807500
30
0.0000000000
10
-15.5022839811
20
8.5374191917
30
0.0000000000
11
-13.2282648775
21
10.8108589213
31
0.0000000000
11
-13.3565166688
21
10.3576066407
31
0.0000000000
11
-13.5619847282
21
9.8734553243
31
0.0000000000
11
-13.8217835821
21
9.4431373581
31
0.0000000000
11
-14.1266942337
21
9.0808364088
31
0.0000000000
11
-14.4655179762
21
8.8000962446
31
0.0000000000
11
-14.8249540999
21
8.6125714112
31
0.0000000000
11
-15.1914950669
21
8.5264329184
31
0.0000000000
11
-15.5022839811
21
8.5374191917
31
0.0000000000
0
SPLINE
5
334
100
AcDbEntity
8
0
100
AcDbSpline
62
7
6
CONTINUOUS
70
0
71
3
72
8
73
4
74
2
42
0.0000001000
43
0.0000001000
44
0.0000000001
12
0.0307695087
22
-0.0074030867
32
0.0000000000
13
0.0310811170
23
-0.0059650059
33
0.0000000000
40
0.0000000000
40
0.0000000000
40
0.0000000000
40
0.0000000000
40
1.0000000000
40
1.0000000000
40
1.0000000000
40
1.0000000000
10
-8.0479466104
20
-20.2200972063
30
0.0000000000
10
-8.0376901075
20
-20.2225649019
30
0.0000000000
10
-8.0273749298
20
-20.2247939182
30
0.0000000000
10
-8.0170145575
20
-20.2267822535
30
0.0000000000
11
-8.0479466104
21
-20.2200972063
31
0.0000000000
11
-8.0170145575
21
-20.2267822535
31
0.0000000000
0
SPLINE
5
335
100
AcDbEntity
8
0
100
AcDbSpline
62
7
6
CONTINUOUS
70
0
71
3
72
8
73
4
74
2
42
0.0000001000
43
0.0000001000
44
0.0000000001
12
-0.0353972889
22
0.0048992358
32
0.0000000000
13
-0.0356733424
23
0.0029778937
33
0.0000000000
40
0.0000000000
40
0.0000000000
40
0.0000000000
40
0.0000000000
40
1.0000000000
40
1.0000000000
40
1.0000000000
40
1.0000000000
10
-17.0439777639
20
17.9926595381
30
0.0000000000
10
-17.0557768602
20
17.9942926167
30
0.0000000000
10
-17.0676322740
20
17.9956046315
30
0.0000000000
10
-17.0795233881
20
17.9965972628
30
0.0000000000
11
-17.0439777639
21
17.9926595381
31
0.0000000000
11
-17.0795233881
21
17.9965972628
31
0.0000000000
0
SPLINE
5
336
100
AcDbEntity
8
0
100
AcDbSpline
62
7
6
CONTINUOUS
70
0
71
3
72
13
73
9
74
7
42
0.0000001000
43
0.0000001000
44
0.0000000001
12
-1.3076115842
22
0.1091551296
32
0.0000000000
13
-0.3127217113
23
-1.2715433484
33
0.0000000000
40
0.0000000000
40
0.0000000000
40
0.0000000000
40
0.0000000000
40
0.1081248592
40
0.2800116876
40
0.4636068196
40
0.6587120260
40
0.8625261337
40
1.0000000000
40
1.0000000000
40
1.0000000000
40
1.0000000000
10
-17.0795233881
20
17.9965972628
30
0.0000000000
10
-17.1266518276
20
18.0005313905
30
0.0000000000
10
-17.2501529291
20
17.9977273817
30
0.0000000000
10
-17.4466045081
20
17.9385395058
30
0.0000000000
10
-17.6487309084
20
17.8034560277
30
0.0000000000
10
-17.8176003204
20
17.6105130123
30
0.0000000000
10
-17.9280692780
20
17.4024741546
30
0.0000000000
10
-17.9738137356
20
17.2601348038
30
0.0000000000
10
-17.9881440898
20
17.2018668104
30
0.0000000000
11
-17.0795233881
21
17.9965972628
31
0.0000000000
11
-17.2213075103
21
17.9934536091
31
0.0000000000
11
-17.4369360310
21
17.9302538974
31
0.0000000000
11
-17.6376328792
21
17.7986359927
31
0.0000000000
11
-17.8070649128
21
17.6079944567
31
0.0000000000
11
-17.9329789467
21
17.3731880035
31
0.0000000000
11
-17.9881440898
21
17.2018668104
31
0.0000000000
0
SPLINE
5
337
100
AcDbEntity
8
0
100
AcDbSpline
62
7
6
CONTINUOUS
70
0
71
3
72
8
73
4
74
2
42
0.0000001000
43
0.0000001000
44
0.0000000001
12
-0.0045205945
22
-0.0183809813
32
0.0000000000
13
-0.0042484677
23
-0.0184404486
33
0.0000000000
40
0.0000000000
40
0.0000000000
40
0.0000000000
40
0.0000000000
40
1.0000000000
40
1.0000000000
40
1.0000000000
40
1.0000000000
10
-17.9881440898
20
17.2018668104
30
0.0000000000
10
-17.9896509546
20
17.1957398166
30
0.0000000000
10
-17.9911125311
20
17.1896025131
30
0.0000000000
10
-17.9925286870
20
17.1834556969
30
0.0000000000
11
-17.9881440898
21
17.2018668104
31
0.0000000000
11
-17.9925286870
21
17.1834556969
31
0.0000000000
0
SPLINE
5
338
100
AcDbEntity
8
0
100
AcDbSpline
62
7
6
CONTINUOUS
70
0
71
3
72
10
73
6
74
4
42
0.0000001000
43
0.0000001000
44
0.0000000001
12
-7.4424259361
22
-32.3045030768
32
0.0000000000
13
-5.6372187532
23
-32.6679115728
33
0.0000000000
40
0.0000000000
40
0.0000000000
40
0.0000000000
40
0.0000000000
40
0.3329349360
40
0.6676782563
40
1.0000000000
40
1.0000000000
40
1.0000000000
40
1.0000000000
10
-17.9925336448
20
17.1834562836
30
0.0000000000
10
-18.8184815125
20
13.5983570617
30
0.0000000000
10
-20.4085640856
20
6.3932179391
30
0.0000000000
10
-22.5897663755
20
-4.4401925713
30
0.0000000000
10
-23.9105601691
20
-11.6926389088
30
0.0000000000
10
-24.5350169576
20
-15.3113913539
30
0.0000000000
11
-17.9925336448
21
17.1834562836
31
0.0000000000
11
-20.3710029638
21
6.4057474321
31
0.0000000000
11
-22.5612517647
21
-4.4729376885
31
0.0000000000
11
-24.5350169576
21
-15.3113913539
31
0.0000000000
0
SPLINE
5
339
100
AcDbEntity
8
0
100
AcDbSpline
62
7
6
CONTINUOUS
70
0
71
3
72
8
73
4
74
2
42
0.0000001000
43
0.0000001000
44
0.0000000001
12
-0.0040310988
22
-0.0233571632
32
0.0000000000
13
-0.0035981672
23
-0.0234360328
33
0.0000000000
40
0.0000000000
40
0.0000000000
40
0.0000000000
40
0.0000000000
40
1.0000000000
40
1.0000000000
40
1.0000000000
40
1.0000000000
10
-24.5350167552
20
-15.3113870438
30
0.0000000000
10
-24.5363604548
20
-15.3191727648
30
0.0000000000
10
-24.5376322917
20
-15.3269724111
30
0.0000000000
10
-24.5388316808
20
-15.3347844221
30
0.0000000000
11
-24.5350167552
21
-15.3113870438
31
0.0000000000
11
-24.5388316808
21
-15.3347844221
31
0.0000000000
0
SPLINE
5
33A
100
AcDbEntity
8
0
100
AcDbSpline
62
7
6
CONTINUOUS
70
0
71
3
72
13
73
9
74
7
42
0.0000001000
43
0.0000001000
44
0.0000000001
12
-0.1989086077
22
-1.2955564384
32
0.0000000000
13
1.2744497169
23
-0.3057005537
33
0.0000000000
40
0.0000000000
40
0.0000000000
40
0.0000000000
40
0.0000000000
40
0.1345448229
40
0.3315857018
40
0.5189653699
40
0.6956338577
40
0.8621311176
40
1.0000000000
40
1.0000000000
40
1.0000000000
40
1.0000000000
10
-24.5388316808
20
-15.3347844221
30
0.0000000000
10
-24.5477523886
20
-15.3928878926
30
0.0000000000
10
-24.5598603020
20
-15.5377696214
30
0.0000000000
10
-24.5384238311
20
-15.7649225705
30
0.0000000000
10
-24.4585011546
20
-15.9989733695
30
0.0000000000
10
-24.3265473230
20
-16.1929483094
30
0.0000000000
10
-24.1599288275
20
-16.3258531875
30
0.0000000000
10
-24.0342660205
20
-16.3750421135
30
0.0000000000
10
-23.9756970345
20
-16.3890909781
30
0.0000000000
11
-24.5388316808
21
-15.3347844221
31
0.0000000000
11
-24.5533297337
21
-15.5105047444
31
0.0000000000
11
-24.5278103984
21
-15.7670741390
31
0.0000000000
11
-24.4467259278
21
-15.9984722403
31
0.0000000000
11
-24.3151350317
21
-16.1885427684
31
0.0000000000
11
-24.1439566491
21
-16.3233181094
31
0.0000000000
11
-23.9756970345
21
-16.3890909781
31
0.0000000000
0
SPLINE
5
33B
100
AcDbEntity
8
0
100
AcDbSpline
62
7
6
CONTINUOUS
70
0
71
3
72
15
73
11
74
9
42
0.0000001000
43
0.0000001000
44
0.0000000001
12
0.3943074601
22
-0.0948401647
32
0.0000000000
13
-0.0800472913
23
-0.3975744723
33
0.0000000000
40
0.0000000000
40
0.0000000000
40
0.0000000000
40
0.0000000000
40
0.1012926197
40
0.2074657908
40
0.3211870733
40
0.4436075982
40
0.5744614178
40
0.7123561327
40
0.8550976466
40
1.0000000000
40
1.0000000000
40
1.0000000000
40
1.0000000000
10
5.2356998060
20
13.2525067892
30
0.0000000000
10
5.2490132846
20
13.2493045862
30
0.0000000000
10
5.2754539834
20
13.2387226580
30
0.0000000000
10
5.3103396590
20
13.2121327513
30
0.0000000000
10
5.3397781937
20
13.1759401269
30
0.0000000000
10
5.3627903041
20
13.1316578198
30
0.0000000000
10
5.3786615922
20
13.0809648396
30
0.0000000000
10
5.3868683486
20
13.0257374208
30
0.0000000000
10
5.3871415469
20
12.9680358170
30
0.0000000000
10
5.3820336394
20
12.9293464187
30
0.0000000000
10
5.3781672924
20
12.9101432599
30
0.0000000000
11
5.2356998060
21
13.2525067892
31
0.0000000000
11
5.2739006793
21
13.2373998831
31
0.0000000000
11
5.3083604058
21
13.2115814919
31
0.0000000000
11
5.3377543364
21
13.1760420877
31
0.0000000000
11
5.3609520195
21
13.1321468781
31
0.0000000000
11
5.3770615206
21
13.0815829586
31
0.0000000000
11
5.3854638470
21
13.0262941917
31
0.0000000000
11
5.3858368203
21
12.9684061803
31
0.0000000000
11
5.3781672924
21
12.9101432599
31
0.0000000000
0
SPLINE
5
33C
100
AcDbEntity
8
0
100
AcDbSpline
62
7
6
CONTINUOUS
70
0
71
3
72
15
73
11
74
9
42
0.0000001000
43
0.0000001000
44
0.0000000001
12
-0.0769013180
22
-0.3819492255
32
0.0000000000
13
-0.3833887880
23
0.0730589618
33
0.0000000000
40
0.0000000000
40
0.0000000000
40
0.0000000000
40
0.0000000000
40
0.1500682253
40
0.2964352452
40
0.4365250601
40
0.5684315799
40
0.6912527099
40
0.8054228951
40
0.9129443457
40
1.0000000000
40
1.0000000000
40
1.0000000000
40
1.0000000000
10
-1.4862309509
20
-21.1835714068
30
0.0000000000
10
-1.4900777656
20
-21.2026775543
30
0.0000000000
10
-1.5002258932
20
-21.2399607367
30
0.0000000000
10
-1.5226101463
20
-21.2922475692
30
0.0000000000
10
-1.5512656566
20
-21.3386714592
30
0.0000000000
10
-1.5851746461
20
-21.3774852838
30
0.0000000000
10
-1.6231648023
20
-21.4072116704
30
0.0000000000
10
-1.6639532691
20
-21.4266122440
30
0.0000000000
10
-1.7037874212
20
-21.4342678914
30
0.0000000000
10
-1.7293165817
20
-21.4324786300
30
0.0000000000
10
-1.7404419690
20
-21.4303585648
30
0.0000000000
11
-1.4862309509
21
-21.1835714068
31
0.0000000000
11
-1.5016474794
21
-21.2399710198
31
0.0000000000
11
-1.5242195696
21
-21.2923402613
31
0.0000000000
11
-1.5530809603
21
-21.3386662765
31
0.0000000000
11
-1.5871228114
21
-21.3771676228
31
0.0000000000
11
-1.6250366958
21
-21.4063640300
31
0.0000000000
11
-1.6653651034
21
-21.4251335316
31
0.0000000000
11
-1.7065576938
21
-21.4327557431
31
0.0000000000
11
-1.7404419690
21
-21.4303585648
31
0.0000000000
0
SPLINE
5
33D
100
AcDbEntity
8
0
100
AcDbSpline
62
9
6
CONTINUOUS
70
0
71
3
72
9
73
5
74
3
42
0.0000001000
43
0.0000001000
44
0.0000000001
12
0.0072659324
22
-0.0303694197
32
0.0000000000
13
0.0812737884
23
-0.0196326306
33
0.0000000000
40
0.0000000000
40
0.0000000000
40
0.0000000000
40
0.0000000000
40
0.2524202268
40
1.0000000000
40
1.0000000000
40
1.0000000000
40
1.0000000000
10
-24.5349031204
20
-15.3113641184
30
0.0000000000
10
-24.5342917643
20
-15.3139194037
30
0.0000000000
10
-24.4953138021
20
-15.3312408879
30
0.0000000000
10
-24.4758638657
20
-15.3334611933
30
0.0000000000
10
-24.4556109856
20
-15.3383535125
30
0.0000000000
11
-24.5349031204
21
-15.3113641184
31
0.0000000000
11
-24.5158583593
21
-15.3217018033
31
0.0000000000
11
-24.4556109856
21
-15.3383535125
31
0.0000000000
0
SPLINE
5
33E
100
AcDbEntity
8
0
100
AcDbSpline
62
9
6
CONTINUOUS
70
0
71
3
72
8
73
4
74
2
42
0.0000001000
43
0.0000001000
44
0.0000000001
12
0.0788698731
22
0.0087329627
32
0.0000000000
13
0.0792526479
23
0.0042440353
33
0.0000000000
40
0.0000000000
40
0.0000000000
40
0.0000000000
40
0.0000000000
40
1.0000000000
40
1.0000000000
40
1.0000000000
40
1.0000000000
10
-14.8562633473
20
13.9531909105
30
0.0000000000
10
-14.8299733896
20
13.9561018981
30
0.0000000000
10
-14.8036028848
20
13.9582799678
30
0.0000000000
10
-14.7771853355
20
13.9596946462
30
0.0000000000
11
-14.8562633473
21
13.9531909105
31
0.0000000000
11
-14.7771853355
21
13.9596946462
31
0.0000000000
0
SPLINE
5
33F
100
AcDbEntity
8
0
100
AcDbSpline
62
9
6
CONTINUOUS
70
0
71
3
72
8
73
4
74
2
42
0.0000001000
43
0.0000001000
44
0.0000000001
12
0.0121177230
22
0.0006489126
32
0.0000000000
13
0.0121239627
23
0.0005415047
33
0.0000000000
40
0.0000000000
40
0.0000000000
40
0.0000000000
40
0.0000000000
40
1.0000000000
40
1.0000000000
40
1.0000000000
40
1.0000000000
10
-14.7771853355
20
13.9596946462
30
0.0000000000
10
-14.7731460945
20
13.9599109505
30
0.0000000000
10
-14.7691057537
20
13.9601094078
30
0.0000000000
10
-14.7650644328
20
13.9602899094
30
0.0000000000
11
-14.7771853355
21
13.9596946462
31
0.0000000000
11
-14.7650644328
21
13.9602899094
31
0.0000000000
0
SPLINE
5
340
100
AcDbEntity
8
0
100
AcDbSpline
62
9
6
CONTINUOUS
70
0
71
3
72
8
73
4
74
2
42
0.0000001000
43
0.0000001000
44
0.0000000001
12
0.2806390490
22
0.0125344635
32
0.0000000000
13
0.2772315092
23
-0.0458498983
33
0.0000000000
40
0.0000000000
40
0.0000000000
40
0.0000000000
40
0.0000000000
40
1.0000000000
40
1.0000000000
40
1.0000000000
40
1.0000000000
10
-14.7650644328
20
13.9602899094
30
0.0000000000
10
-14.6715180831
20
13.9644680639
30
0.0000000000
10
-14.5774466073
20
13.9590254136
30
0.0000000000
10
-14.4850361042
20
13.9437421142
30
0.0000000000
11
-14.7650644328
21
13.9602899094
31
0.0000000000
11
-14.4850361042
21
13.9437421142
31
0.0000000000
0
SPLINE
5
341
100
AcDbEntity
8
0
100
AcDbSpline
62
9
6
CONTINUOUS
70
0
71
3
72
23
73
19
74
17
42
0.0000001000
43
0.0000001000
44
0.0000000001
12
1.7387955481
22
7.8381790192
32
0.0000000000
13
-1.7382697275
23
-7.8382956470
33
0.0000000000
40
0.0000000000
40
0.0000000000
40
0.0000000000
40
0.0000000000
40
0.0730413782
40
0.1444285611
40
0.2130058969
40
0.2777794732
40
0.3382178677
40
0.3943486687
40
0.4470148570
40
0.4978013804
40
0.5487694564
40
0.6019408043
40
0.6588009601
40
0.7200708132
40
0.7856569168
40
0.8549220521
40
0.9267787850
40
1.0000000000
40
1.0000000000
40
1.0000000000
40
1.0000000000
10
-17.1944882433
20
11.7630733917
30
0.0000000000
10
-17.1521535689
20
11.9539105244
30
0.0000000000
10
-17.0427527153
20
12.3261213186
30
0.0000000000
10
-16.8071095973
20
12.8472160281
30
0.0000000000
10
-16.5092388519
20
13.3097218394
30
0.0000000000
10
-16.1597465870
20
13.6963898892
30
0.0000000000
10
-15.7710509976
20
13.9923115567
30
0.0000000000
10
-15.3568110821
20
14.1852370982
30
0.0000000000
10
-14.9322420410
20
14.2655278424
30
0.0000000000
10
-14.5150496698
20
14.2272007382
30
0.0000000000
10
-14.1249347416
20
14.0709809176
30
0.0000000000
10
-13.7794589932
20
13.8054652354
30
0.0000000000
10
-13.4913537311
20
13.4439019591
30
0.0000000000
10
-13.2697626790
20
13.0015890010
30
0.0000000000
10
-13.1214189060
20
12.4955693904
30
0.0000000000
10
-13.0508349963
20
11.9447844457
30
0.0000000000
10
-13.0599633368
20
11.3694660064
30
0.0000000000
10
-13.1187645753
20
10.9842808487
30
0.0000000000
10
-13.1611906491
20
10.7929710050
30
0.0000000000
11
-17.1944882433
21
11.7630733917
31
0.0000000000
11
-17.0286153444
21
12.3255549507
31
0.0000000000
11
-16.7913081283
21
12.8472676713
31
0.0000000000
11
-16.4914115909
21
13.3090143626
31
0.0000000000
11
-16.1405366501
21
13.6928608502
31
0.0000000000
11
-15.7522829521
21
13.9839282055
31
0.0000000000
11
-15.3421691421
21
14.1707438806
31
0.0000000000
11
-14.9261371936
21
14.2463293404
31
0.0000000000
11
-14.5201936889
21
14.2079774900
31
0.0000000000
11
-14.1397686169
21
14.0572174543
31
0.0000000000
11
-13.7992955579
21
13.7996903511
31
0.0000000000
11
-13.5117896290
21
13.4450835365
31
0.0000000000
11
-13.2882786658
21
13.0068745812
31
0.0000000000
11
-13.1374370224
21
12.5023690288
31
0.0000000000
11
-13.0647764690
21
11.9510254427
31
0.0000000000
11
-13.0728146099
21
11.3741633379
31
0.0000000000
11
-13.1611906491
21
10.7929710050
31
0.0000000000
0
SPLINE
5
342
100
AcDbEntity
8
0
100
AcDbSpline
62
9
6
CONTINUOUS
70
0
71
3
72
9
73
5
74
3
42
0.0000001000
43
0.0000001000
44
0.0000000001
12
0.0041599265
22
-0.0049474780
32
0.0000000000
13
0.0809736240
23
-0.0193916675
33
0.0000000000
40
0.0000000000
40
0.0000000000
40
0.0000000000
40
0.0000000000
40
0.2505749913
40
1.0000000000
40
1.0000000000
40
1.0000000000
40
1.0000000000
10
-17.9924902875
20
17.1834809500
30
0.0000000000
10
-17.9921428296
20
17.1830677119
30
0.0000000000
10
-17.9496446164
20
17.1718076024
30
0.0000000000
10
-17.9320130303
20
17.1679414784
30
0.0000000000
10
-17.9117851440
20
17.1630972782
30
0.0000000000
11
-17.9924902875
21
17.1834809500
31
0.0000000000
11
-17.9724061723
21
17.1778889605
31
0.0000000000
11
-17.9117851440
21
17.1630972782
31
0.0000000000
0
SPLINE
5
343
100
AcDbEntity
8
0
100
AcDbSpline
62
9
6
CONTINUOUS
70
0
71
3
72
23
73
19
74
17
42
0.0000001000
43
0.0000001000
44
0.0000000001
12
-1.7388716945
22
-7.8367743032
32
0.0000000000
13
1.7374176793
23
7.8370967875
33
0.0000000000
40
0.0000000000
40
0.0000000000
40
0.0000000000
40
0.0000000000
40
0.0734383424
40
0.1450825727
40
0.2135064882
40
0.2778789904
40
0.3378490307
40
0.3935943974
40
0.4460079996
40
0.4966990952
40
0.5477132239
40
0.6010039420
40
0.6579581179
40
0.7192207873
40
0.7847661618
40
0.8541051021
40
0.9263236219
40
1.0000000000
40
1.0000000000
40
1.0000000000
40
1.0000000000
10
-13.1611906491
20
10.7929710050
30
0.0000000000
10
-13.2037572673
20
10.6011311003
30
0.0000000000
10
-13.3133569334
20
10.2272441146
30
0.0000000000
10
-13.5485633428
20
9.7046093283
30
0.0000000000
10
-13.8446362584
20
9.2420422287
30
0.0000000000
10
-14.1908808819
20
8.8562872277
30
0.0000000000
10
-14.5757992744
20
8.5611081964
30
0.0000000000
10
-14.9868061967
20
8.3683905359
30
0.0000000000
10
-15.4093349790
20
8.2880594106
30
0.0000000000
10
-15.8256522582
20
8.3264130395
30
0.0000000000
10
-16.2158565024
20
8.4825916613
30
0.0000000000
10
-16.5623444917
20
8.7476745073
30
0.0000000000
10
-16.8523612177
20
9.1082268185
30
0.0000000000
10
-17.0767317961
20
9.5491399955
30
0.0000000000
10
-17.2285156068
20
10.0541220997
30
0.0000000000
10
-17.3025495012
20
10.6054672131
30
0.0000000000
10
-17.2957648979
20
11.1831777235
30
0.0000000000
10
-17.2371571239
20
11.5706037563
30
0.0000000000
10
-17.1944882433
20
11.7630733917
30
0.0000000000
11
-13.1611906491
21
10.7929710050
31
0.0000000000
11
-13.3275818710
21
10.2274233451
31
0.0000000000
11
-13.5648113959
21
9.7035156114
31
0.0000000000
11
-13.8627717470
21
9.2420929857
31
0.0000000000
11
-14.2101594537
21
8.8595434866
31
0.0000000000
11
-14.5943767832
21
8.5695007714
31
0.0000000000
11
-15.0011376952
21
8.3829751741
31
0.0000000000
11
-15.4150185378
21
8.3072933405
31
0.0000000000
11
-15.8201369014
21
8.3455030817
31
0.0000000000
11
-16.2009217245
21
8.4961711628
31
0.0000000000
11
-16.5426838074
21
8.7534612748
31
0.0000000000
11
-16.8321791342
21
9.1073218734
31
0.0000000000
11
-17.0582682818
21
9.5440478177
31
0.0000000000
11
-17.2123188031
21
10.0471479636
31
0.0000000000
11
-17.2883081778
21
10.5985459494
31
0.0000000000
11
-17.2825771284
21
11.1782425670
31
0.0000000000
11
-17.1944882433
21
11.7630733917
31
0.0000000000
0
SPLINE
5
344
100
AcDbEntity
8
0
100
AcDbSpline
62
9
6
CONTINUOUS
70
0
71
3
72
9
73
5
74
3
42
0.0000001000
43
0.0000001000
44
0.0000000001
12
-0.1712618518
22
0.0284058957
32
0.0000000000
13
-0.1659589977
23
0.0508510155
33
0.0000000000
40
0.0000000000
40
0.0000000000
40
0.0000000000
40
0.0000000000
40
0.5375974428
40
1.0000000000
40
1.0000000000
40
1.0000000000
40
1.0000000000
10
-15.5021639400
20
8.5374072641
30
0.0000000000
10
-15.5328539179
20
8.5424975764
30
0.0000000000
10
-15.5895988649
20
8.5539880578
30
0.0000000000
10
-15.6454284114
20
8.5692582427
30
0.0000000000
10
-15.6710083664
20
8.5770961226
30
0.0000000000
11
-15.5021639400
21
8.5374072641
31
0.0000000000
11
-15.5936012339
21
8.5559444592
31
0.0000000000
11
-15.6710083664
21
8.5770961226
31
0.0000000000
0
SPLINE
5
345
100
AcDbEntity
8
0
100
AcDbSpline
62
9
6
CONTINUOUS
70
0
71
3
72
8
73
4
74
2
42
0.0000001000
43
0.0000001000
44
0.0000000001
12
-0.0422690521
22
0.0129515378
32
0.0000000000
13
-0.0418197941
23
0.0143501100
33
0.0000000000
40
0.0000000000
40
0.0000000000
40
0.0000000000
40
0.0000000000
40
1.0000000000
40
1.0000000000
40
1.0000000000
40
1.0000000000
10
-15.6710083664
20
8.5770961226
30
0.0000000000
10
-15.6850980504
20
8.5814133018
30
0.0000000000
10
-15.6991162039
20
8.5859661879
30
0.0000000000
10
-15.7130561353
20
8.5907495579
30
0.0000000000
11
-15.6710083664
21
8.5770961226
31
0.0000000000
11
-15.7130561353
21
8.5907495579
31
0.0000000000
0
SPLINE
5
346
100
AcDbEntity
8
0
100
AcDbSpline
62
9
6
CONTINUOUS
70
0
71
3
72
8
73
4
74
2
42
0.0000001000
43
0.0000001000
44
0.0000000001
12
-0.0578959154
22
0.0198664956
32
0.0000000000
13
-0.0569431254
23
0.0224753970
33
0.0000000000
40
0.0000000000
40
0.0000000000
40
0.0000000000
40
0.0000000000
40
1.0000000000
40
1.0000000000
40
1.0000000000
40
1.0000000000
10
-15.7130561353
20
8.5907495579
30
0.0000000000
10
-15.7323547737
20
8.5973717231
30
0.0000000000
10
-15.7515034915
20
8.6044356344
30
0.0000000000
10
-15.7704845333
20
8.6119274334
30
0.0000000000
11
-15.7130561353
21
8.5907495579
31
0.0000000000
11
-15.7704845333
21
8.6119274334
31
0.0000000000
0
SPLINE
5
347
100
AcDbEntity
8
0
100
AcDbSpline
62
9
6
CONTINUOUS
70
0
71
3
72
8
73
4
74
2
42
0.0000001000
43
0.0000001000
44
0.0000000001
12
-0.1583713446
22
0.0625090179
32
0.0000000000
13
-0.1494434046
23
0.0814733447
33
0.0000000000
40
0.0000000000
40
0.0000000000
40
0.0000000000
40
0.0000000000
40
1.0000000000
40
1.0000000000
40
1.0000000000
40
1.0000000000
10
-15.7704845333
20
8.6119274334
30
0.0000000000
10
-15.8232749815
20
8.6327637727
30
0.0000000000
10
-15.8747684256
20
8.6569099020
30
0.0000000000
10
-15.9245828938
20
8.6840676836
30
0.0000000000
11
-15.7704845333
21
8.6119274334
31
0.0000000000
11
-15.9245828938
21
8.6840676836
31
0.0000000000
0
SPLINE
5
348
100
AcDbEntity
8
0
100
AcDbSpline
62
9
6
CONTINUOUS
70
0
71
3
72
8
73
4
74
2
42
0.0000001000
43
0.0000001000
44
0.0000000001
12
-0.0285670058
22
0.0068966616
32
0.0000000000
13
-0.0281727510
23
0.0085418144
33
0.0000000000
40
0.0000000000
40
0.0000000000
40
0.0000000000
40
0.0000000000
40
1.0000000000
40
1.0000000000
40
1.0000000000
40
1.0000000000
10
-23.9764942319
20
-16.3889147547
30
0.0000000000
10
-23.9860165672
20
-16.3866158675
30
0.0000000000
10
-23.9954818861
20
-16.3840385330
30
0.0000000000
10
-24.0048728031
20
-16.3811912615
30
0.0000000000
11
-23.9764942319
21
-16.3889147547
31
0.0000000000
11
-24.0048728031
21
-16.3811912615
31
0.0000000000
0
SPLINE
5
349
100
AcDbEntity
8
0
100
AcDbSpline
62
9
6
CONTINUOUS
70
0
71
3
72
14
73
10
74
8
42
0.0000001000
43
0.0000001000
44
0.0000000001
12
-1.1843565270
22
0.3590900179
32
0.0000000000
13
0.2094383859
23
1.2152428266
33
0.0000000000
40
0.0000000000
40
0.0000000000
40
0.0000000000
40
0.0000000000
40
0.0817782654
40
0.2116411563
40
0.3501466700
40
0.4991194618
40
0.6586149236
40
0.8265664518
40
1.0000000000
40
1.0000000000
40
1.0000000000
40
1.0000000000
10
-24.0048728031
20
-16.3811912615
30
0.0000000000
10
-24.0371576772
20
-16.3714026753
30
0.0000000000
10
-24.1184347689
20
-16.3378132265
30
0.0000000000
10
-24.2353307039
20
-16.2507209358
30
0.0000000000
10
-24.3423027697
20
-16.1143587671
30
0.0000000000
10
-24.4205980291
20
-15.9466452782
30
0.0000000000
10
-24.4674072709
20
-15.7553333974
30
0.0000000000
10
-24.4810115849
20
-15.5489843522
30
0.0000000000
10
-24.4677188685
20
-15.4086081374
30
0.0000000000
10
-24.4556109877
20
-15.3383535122
30
0.0000000000
11
-24.0048728031
21
-16.3811912615
31
0.0000000000
11
-24.0983829332
21
-16.3426001074
31
0.0000000000
11
-24.2275733336
21
-16.2479684852
31
0.0000000000
11
-24.3342045427
21
-16.1145437369
31
0.0000000000
11
-24.4132210879
21
-15.9486984356
31
0.0000000000
11
-24.4610534820
21
-15.7579202163
31
0.0000000000
11
-24.4754011589
21
-15.5513069515
31
0.0000000000
11
-24.4556109877
21
-15.3383535122
31
0.0000000000
0
SPLINE
5
34A
100
AcDbEntity
8
0
100
AcDbSpline
62
9
6
CONTINUOUS
70
0
71
3
72
11
73
7
74
5
42
0.0000001000
43
0.0000001000
44
0.0000000001
12
0.0743851690
22
0.3956368324
32
0.0000000000
13
-0.3912384479
23
0.0948374050
33
0.0000000000
40
0.0000000000
40
0.0000000000
40
0.0000000000
40
0.0000000000
40
0.2893471895
40
0.5596098175
40
0.7955666458
40
1.0000000000
40
1.0000000000
40
1.0000000000
40
1.0000000000
10
-0.9580542091
20
13.8162988484
30
0.0000000000
10
-0.9508798292
20
13.8544576502
30
0.0000000000
10
-0.9465542595
20
13.9304731556
30
0.0000000000
10
-0.9697598212
20
14.0361696293
30
0.0000000000
10
-1.0204724811
20
14.1197443046
30
0.0000000000
10
-1.0738609642
20
14.1521997345
30
0.0000000000
10
-1.1005216936
20
14.1586623774
30
0.0000000000
11
-0.9580542091
21
13.8162988484
31
0.0000000000
11
-0.9519269905
21
13.9326197414
31
0.0000000000
11
-0.9768483243
21
14.0385263819
31
0.0000000000
11
-1.0290266624
21
14.1179008426
31
0.0000000000
11
-1.1005216936
21
14.1586623774
31
0.0000000000
0
SPLINE
5
34B
100
AcDbEntity
8
0
100
AcDbSpline
62
9
6
CONTINUOUS
70
0
71
3
72
14
73
10
74
8
42
0.0000001000
43
0.0000001000
44
0.0000000001
12
-1.3141967847
22
0.1871388794
32
0.0000000000
13
-0.2991094912
23
-1.2933165356
33
0.0000000000
40
0.0000000000
40
0.0000000000
40
0.0000000000
40
0.0000000000
40
0.1205213785
40
0.2468097663
40
0.3816975203
40
0.5258654943
40
0.6786424740
40
0.8376826340
40
1.0000000000
40
1.0000000000
40
1.0000000000
40
1.0000000000
10
-1.1005216955
20
14.1586623777
30
0.0000000000
10
-1.1533179648
20
14.1661804563
30
0.0000000000
10
-1.2643380619
20
14.1652130742
30
0.0000000000
10
-1.4280094622
20
14.1165483178
30
0.0000000000
10
-1.5836996514
20
14.0243280847
30
0.0000000000
10
-1.7246545436
20
13.8934652099
30
0.0000000000
10
-1.8449849605
20
13.7301710811
30
0.0000000000
10
-1.9395369052
20
13.5418829006
30
0.0000000000
10
-1.9825223499
20
13.4056052982
30
0.0000000000
10
-1.9987059048
20
13.3356293870
30
0.0000000000
11
-1.1005216955
21
14.1586623777
31
0.0000000000
11
-1.2605067536
21
14.1579629027
31
0.0000000000
11
-1.4215921584
21
14.1115372472
31
0.0000000000
11
-1.5763741884
21
14.0215148260
31
0.0000000000
11
-1.7174684536
21
13.8922193595
31
0.0000000000
11
-1.8385062397
21
13.7294941777
31
0.0000000000
11
-1.9337154780
21
13.5410632322
31
0.0000000000
11
-1.9987059048
21
13.3356293870
31
0.0000000000
0
SPLINE
5
34C
100
AcDbEntity
8
0
100
AcDbSpline
62
9
6
CONTINUOUS
70
0
71
3
72
14
73
10
74
8
42
0.0000001000
43
0.0000001000
44
0.0000000001
12
-0.9215779719
22
0.1315290046
32
0.0000000000
13
-0.2099244957
23
-0.9069385555
33
0.0000000000
40
0.0000000000
40
0.0000000000
40
0.0000000000
40
0.0000000000
40
0.1204333889
40
0.2471310479
40
0.3823778929
40
0.5267807070
40
0.6796234605
40
0.8385886839
40
1.0000000000
40
1.0000000000
40
1.0000000000
40
1.0000000000
10
-0.9580542091
20
13.8162988484
30
0.0000000000
10
-0.9950504618
20
13.8215790096
30
0.0000000000
10
-1.0729871589
20
13.8210518481
30
0.0000000000
10
-1.1880748502
20
13.7872082681
30
0.0000000000
10
-1.2977207386
20
13.7226983803
30
0.0000000000
10
-1.3969414322
20
13.6310140427
30
0.0000000000
10
-1.4815476006
20
13.5165671977
30
0.0000000000
10
-1.5478364094
20
13.3848260686
30
0.0000000000
10
-1.5779075964
20
13.2895543373
30
0.0000000000
10
-1.5892023261
20
13.2407576220
30
0.0000000000
11
-0.9580542091
21
13.8162988484
31
0.0000000000
11
-1.0701672483
21
13.8159958293
31
0.0000000000
11
-1.1835930581
21
13.7836600938
31
0.0000000000
11
-1.2926065125
21
13.7206698674
31
0.0000000000
11
-1.3919211876
21
13.6300762147
31
0.0000000000
11
-1.4770127374
21
13.5160405764
31
0.0000000000
11
-1.5438482390
21
13.3840099165
31
0.0000000000
11
-1.5892023261
21
13.2407576220
31
0.0000000000
0
SPLINE
5
34D
100
AcDbEntity
8
0
100
AcDbSpline
62
9
6
CONTINUOUS
70
0
71
3
72
11
73
7
74
5
42
0.0000001000
43
0.0000001000
44
0.0000000001
12
-0.4103279842
22
0.0912584479
32
0.0000000000
13
-0.4086008703
23
0.0987040410
33
0.0000000000
40
0.0000000000
40
0.0000000000
40
0.0000000000
40
0.0000000000
40
0.2345464924
40
0.5062907107
40
0.7747679017
40
1.0000000000
40
1.0000000000
40
1.0000000000
40
1.0000000000
10
-1.5892023261
20
13.2407576220
30
0.0000000000
10
-1.6212826559
20
13.2478924049
30
0.0000000000
10
-1.6904782807
20
13.2635305988
30
0.0000000000
10
-1.7962783557
20
13.2878493464
30
0.0000000000
10
-1.9007232442
20
13.3122349339
30
0.0000000000
10
-1.9680292246
20
13.3282189469
30
0.0000000000
10
-1.9987059017
20
13.3356293863
30
0.0000000000
11
-1.5892023261
21
13.2407576220
31
0.0000000000
11
-1.6853819509
21
13.2624360434
31
0.0000000000
11
-1.7967096267
21
13.2880160395
31
0.0000000000
11
-1.9066062682
21
13.3136881990
31
0.0000000000
11
-1.9987059017
21
13.3356293863
31
0.0000000000
0
SPLINE
5
34E
100
AcDbEntity
8
0
100
AcDbSpline
62
9
6
CONTINUOUS
70
0
71
3
72
10
73
6
74
4
42
0.0000001000
43
0.0000001000
44
0.0000000001
12
-7.4744207551
22
-32.3042965557
32
0.0000000000
13
-5.6076419621
23
-32.6800993452
33
0.0000000000
40
0.0000000000
40
0.0000000000
40
0.0000000000
40
0.0000000000
40
0.3335263369
40
0.6668942117
40
1.0000000000
40
1.0000000000
40
1.0000000000
40
1.0000000000
10
-1.9987059048
20
13.3356293870
30
0.0000000000
10
-2.8296779630
20
9.7441848219
30
0.0000000000
10
-4.4226373613
20
2.5469242477
30
0.0000000000
10
-6.6043603683
20
-8.2887991120
30
0.0000000000
10
-7.9198736935
20
-15.5371806645
30
0.0000000000
10
-8.5425196924
20
-19.1658240830
30
0.0000000000
11
-1.9987059048
21
13.3356293870
31
0.0000000000
11
-4.3885042343
21
2.5379554906
31
0.0000000000
11
-6.5702680217
21
-8.2983085787
31
0.0000000000
11
-8.5425196924
21
-19.1658240830
31
0.0000000000
0
SPLINE
5
34F
100
AcDbEntity
8
0
100
AcDbSpline
62
9
6
CONTINUOUS
70
0
71
3
72
10
73
6
74
4
42
0.0000001000
43
0.0000001000
44
0.0000000001
12
-7.4691547718
22
-32.2814912874
32
0.0000000000
13
-5.6036733931
23
-32.6570328910
33
0.0000000000
40
0.0000000000
40
0.0000000000
40
0.0000000000
40
0.0000000000
40
0.3335259101
40
0.6668943437
40
1.0000000000
40
1.0000000000
40
1.0000000000
40
1.0000000000
10
-1.5892023261
20
13.2407576220
30
0.0000000000
10
-2.4195878736
20
9.6518530354
30
0.0000000000
10
-4.0114249471
20
2.4596718245
30
0.0000000000
10
-6.1916079977
20
-8.3684028244
30
0.0000000000
10
-7.5061918498
20
-15.6116728540
30
0.0000000000
10
-8.1283969509
20
-19.2377536455
30
0.0000000000
11
-1.5892023261
21
13.2407576220
31
0.0000000000
11
-3.9773132202
21
2.4507199501
31
0.0000000000
11
-6.1575406850
21
-8.3779131572
31
0.0000000000
11
-8.1283969509
21
-19.2377536455
31
0.0000000000
0
SPLINE
5
350
100
AcDbEntity
8
0
100
AcDbSpline
62
9
6
CONTINUOUS
70
0
71
3
72
11
73
7
74
5
42
0.0000001000
43
0.0000001000
44
0.0000000001
12
-0.4178204884
22
0.0473366447
32
0.0000000000
13
-0.4089301429
23
0.0979329191
33
0.0000000000
40
0.0000000000
40
0.0000000000
40
0.0000000000
40
0.0000000000
40
0.2349280197
40
0.5066807424
40
0.7749619625
40
1.0000000000
40
1.0000000000
40
1.0000000000
40
1.0000000000
10
-8.1283969510
20
-19.2377536455
30
0.0000000000
10
-8.1611161977
20
-19.2340467441
30
0.0000000000
10
-8.2314978634
20
-19.2244371070
30
0.0000000000
10
-8.3387344358
20
-19.2070928393
30
0.0000000000
10
-8.4441769915
20
-19.1875259505
30
0.0000000000
10
-8.5118358194
20
-19.1731712841
30
0.0000000000
10
-8.5425107650
20
-19.1658250735
30
0.0000000000
11
-8.1283969510
21
-19.2377536455
31
0.0000000000
11
-8.2263248283
21
-19.2247635407
31
0.0000000000
11
-8.3391387605
21
-19.2065783069
31
0.0000000000
11
-8.4500389967
21
-19.1859060084
31
0.0000000000
11
-8.5425107650
21
-19.1658250735
31
0.0000000000
0
SPLINE
5
351
100
AcDbEntity
8
0
100
AcDbSpline
62
9
6
CONTINUOUS
70
0
71
3
72
14
73
10
74
8
42
0.0000001000
43
0.0000001000
44
0.0000000001
12
-0.2155578586
22
-1.2557389251
32
0.0000000000
13
1.2406907120
23
-0.2996635594
33
0.0000000000
40
0.0000000000
40
0.0000000000
40
0.0000000000
40
0.0000000000
40
0.1679202417
40
0.3307830439
40
0.4858858568
40
0.6313666994
40
0.7673472186
40
0.8955288646
40
1.0000000000
40
1.0000000000
40
1.0000000000
40
1.0000000000
10
-8.5425196924
20
-19.1658240830
30
0.0000000000
10
-8.5545852016
20
-19.2361120776
30
0.0000000000
10
-8.5675440191
20
-19.3767098784
30
0.0000000000
10
-8.5526499141
20
-19.5834792951
30
0.0000000000
10
-8.5038259376
20
-19.7753530483
30
0.0000000000
10
-8.4228821341
20
-19.9437056119
30
0.0000000000
10
-8.3127939175
20
-20.0807053300
30
0.0000000000
10
-8.1848474539
20
-20.1742590817
30
0.0000000000
10
-8.0911346097
20
-20.2096724990
30
0.0000000000
10
-8.0479291539
20
-20.2201078964
30
0.0000000000
11
-8.5425196924
21
-19.1658240830
31
0.0000000000
11
-8.5617896013
21
-19.3789026574
31
0.0000000000
11
-8.5461809749
21
-19.5858192101
31
0.0000000000
11
-8.4964046519
21
-19.7770649897
31
0.0000000000
11
-8.4148545516
21
-19.9435196703
31
0.0000000000
11
-8.3052143245
21
-20.0776681578
31
0.0000000000
11
-8.1726829838
21
-20.1731033543
31
0.0000000000
11
-8.0479291539
21
-20.2201078964
31
0.0000000000
0
SPLINE
5
352
100
AcDbEntity
8
0
100
AcDbSpline
62
9
6
CONTINUOUS
70
0
71
3
72
14
73
10
74
8
42
0.0000001000
43
0.0000001000
44
0.0000000001
12
-0.1539780429
22
-0.8981868987
32
0.0000000000
13
0.8949572225
23
-0.1717571327
33
0.0000000000
40
0.0000000000
40
0.0000000000
40
0.0000000000
40
0.0000000000
40
0.1637795155
40
0.3234802036
40
0.4757321364
40
0.6186351956
40
0.7522794350
40
0.8783552015
40
1.0000000000
40
1.0000000000
40
1.0000000000
40
1.0000000000
10
-8.1283969509
20
-19.2377536455
30
0.0000000000
10
-8.1368031007
20
-19.2867885172
30
0.0000000000
10
-8.1458488763
20
-19.3851313302
30
0.0000000000
10
-8.1352947029
20
-19.5299299370
30
0.0000000000
10
-8.1007905850
20
-19.6645699223
30
0.0000000000
10
-8.0436245294
20
-19.7827035921
30
0.0000000000
10
-7.9659409681
20
-19.8787754531
30
0.0000000000
10
-7.8710838600
20
-19.9477406515
30
0.0000000000
10
-7.7988709190
20
-19.9730898813
30
0.0000000000
10
-7.7625819554
20
-19.9800543353
30
0.0000000000
11
-8.1283969509
21
-19.2377536455
31
0.0000000000
11
-8.1418044614
21
-19.3864008003
31
0.0000000000
11
-8.1307413759
21
-19.5315132920
31
0.0000000000
11
-8.0955687104
21
-19.6657266697
31
0.0000000000
11
-8.0379870916
21
-19.7825307414
31
0.0000000000
11
-7.9606442432
21
-19.8766081133
31
0.0000000000
11
-7.8672368064
21
-19.9435044424
31
0.0000000000
11
-7.7625819554
21
-19.9800543353
31
0.0000000000
0
SPLINE
5
353
100
AcDbEntity
8
0
100
AcDbSpline
62
9
6
CONTINUOUS
70
0
71
3
72
11
73
7
74
5
42
0.0000001000
43
0.0000001000
44
0.0000000001
12
-0.0811840973
22
-0.3780890973
32
0.0000000000
13
-0.3809601227
23
0.0714910968
33
0.0000000000
40
0.0000000000
40
0.0000000000
40
0.0000000000
40
0.0000000000
40
0.2984034145
40
0.5719465101
40
0.8084710676
40
1.0000000000
40
1.0000000000
40
1.0000000000
40
1.0000000000
10
-7.7625819554
20
-19.9800543353
30
0.0000000000
10
-7.7706571593
20
-20.0176620278
30
0.0000000000
10
-7.7955445290
20
-20.0881869077
30
0.0000000000
10
-7.8572312520
20
-20.1741305116
30
0.0000000000
10
-7.9345937473
20
-20.2261617097
30
0.0000000000
10
-7.9926526946
20
-20.2313596123
30
0.0000000000
10
-8.0169743231
20
-20.2267954078
30
0.0000000000
11
-7.7625819554
21
-19.9800543353
31
0.0000000000
11
-7.8017307970
21
-20.0886052234
31
0.0000000000
11
-7.8650385053
21
-20.1733504552
31
0.0000000000
11
-7.9428707448
21
-20.2213932760
31
0.0000000000
11
-8.0169743231
21
-20.2267954078
31
0.0000000000
0
SPLINE
5
354
100
AcDbEntity
8
0
100
AcDbSpline
62
9
6
CONTINUOUS
70
0
71
3
72
14
73
10
74
8
42
0.0000001000
43
0.0000001000
44
0.0000000001
12
0.2724123941
22
1.1814487386
32
0.0000000000
13
1.2163466968
23
0.0707705593
33
0.0000000000
40
0.0000000000
40
0.0000000000
40
0.0000000000
40
0.0000000000
40
0.1776834335
40
0.3515666262
40
0.5181947599
40
0.6748468780
40
0.8206946557
40
0.9565051798
40
1.0000000000
40
1.0000000000
40
1.0000000000
40
1.0000000000
10
-17.9117972002
20
17.1630999577
30
0.0000000000
10
-17.8956628103
20
17.2330745805
30
0.0000000000
10
-17.8530610693
20
17.3693229920
30
0.0000000000
10
-17.7598372466
20
17.5578171614
30
0.0000000000
10
-17.6415436908
20
17.7215111544
30
0.0000000000
10
-17.5032351788
20
17.8529782666
30
0.0000000000
10
-17.3506386913
20
17.9460095769
30
0.0000000000
10
-17.2236896064
20
17.9853028722
30
0.0000000000
10
-17.1511727688
20
17.9930390804
30
0.0000000000
10
-17.1335378418
20
17.9940651313
30
0.0000000000
11
-17.9117972002
21
17.1630999577
31
0.0000000000
11
-17.8473270088
21
17.3686589317
31
0.0000000000
11
-17.7533788199
21
17.5573931891
31
0.0000000000
11
-17.6342845917
21
17.7205858420
31
0.0000000000
11
-17.4957237864
21
17.8504906649
31
0.0000000000
11
-17.3439510371
21
17.9412368884
31
0.0000000000
11
-17.1862064253
21
17.9884660828
31
0.0000000000
11
-17.1335378418
21
17.9940651313
31
0.0000000000
0
SPLINE
5
355
100
AcDbEntity
8
0
100
AcDbSpline
62
9
6
CONTINUOUS
70
0
71
3
72
8
73
4
74
2
42
0.0000001000
43
0.0000001000
44
0.0000000001
12
0.0899522140
22
0.0052336793
32
0.0000000000
13
0.0891928023
23
-0.0099731182
33
0.0000000000
40
0.0000000000
40
0.0000000000
40
0.0000000000
40
0.0000000000
40
1.0000000000
40
1.0000000000
40
1.0000000000
40
1.0000000000
10
-17.1335378418
20
17.9940651313
30
0.0000000000
10
-17.1035537705
20
17.9958096911
30
0.0000000000
10
-17.0734418479
20
17.9950953847
30
0.0000000000
10
-17.0437109138
20
17.9917710119
30
0.0000000000
11
-17.1335378418
21
17.9940651313
31
0.0000000000
11
-17.0437109138
21
17.9917710119
31
0.0000000000
0
SPLINE
5
356
100
AcDbEntity
8
0
100
AcDbSpline
62
9
6
CONTINUOUS
70
0
71
3
72
8
73
4
74
2
42
0.0000001000
43
0.0000001000
44
0.0000000001
12
0.0140002488
22
-0.0015654417
32
0.0000000000
13
0.0139380236
23
-0.0019530426
33
0.0000000000
40
0.0000000000
40
0.0000000000
40
0.0000000000
40
0.0000000000
40
1.0000000000
40
1.0000000000
40
1.0000000000
40
1.0000000000
10
-17.0437109138
20
17.9917710119
30
0.0000000000
10
-17.0390441642
20
17.9912491980
30
0.0000000000
10
-17.0343868016
20
17.9906630763
30
0.0000000000
10
-17.0297407937
20
17.9900120621
30
0.0000000000
11
-17.0437109138
21
17.9917710119
31
0.0000000000
11
-17.0297407937
21
17.9900120621
31
0.0000000000
0
SPLINE
5
357
100
AcDbEntity
8
0
100
AcDbSpline
62
9
6
CONTINUOUS
70
0
71
3
72
10
73
6
74
4
42
0.0000001000
43
0.0000001000
44
0.0000000001
12
5.6383529354
22
32.6745496237
32
0.0000000000
13
7.4439489546
23
32.3110637537
33
0.0000000000
40
0.0000000000
40
0.0000000000
40
0.0000000000
40
0.0000000000
40
0.3330966523
40
0.6664671537
40
1.0000000000
40
1.0000000000
40
1.0000000000
40
1.0000000000
10
-24.4556109877
20
-15.3383535122
30
0.0000000000
10
-23.8295721585
20
-11.7104258134
30
0.0000000000
10
-22.5095386478
20
-4.4630336530
30
0.0000000000
10
-20.3278403613
20
6.3725658688
30
0.0000000000
10
-18.7393976943
20
13.5708329379
30
0.0000000000
10
-17.9117972002
20
17.1630999577
30
0.0000000000
11
-24.4556109877
21
-15.3383535122
31
0.0000000000
11
-22.4766093846
21
-4.4724615246
31
0.0000000000
11
-20.2948455971
21
6.3638025447
31
0.0000000000
11
-17.9117972002
21
17.1630999577
31
0.0000000000
0
SPLINE
5
358
100
AcDbEntity
8
0
100
AcDbSpline
62
7
6
CONTINUOUS
70
0
71
3
72
20
73
16
74
14
42
0.0000001000
43
0.0000001000
44
0.0000000001
12
0.0484377687
22
0.3931468855
32
0.0000000000
13
-0.3852042362
23
0.0925794101
33
0.0000000000
40
0.0000000000
40
0.0000000000
40
0.0000000000
40
0.0000000000
40
0.0524680934
40
0.1387736682
40
0.2227359934
40
0.3037305460
40
0.3827562908
40
0.4615236845
40
0.5401900439
40
0.6190126927
40
0.6987643062
40
0.7803615533
40
0.8646898072
40
0.9526225503
40
1.0000000000
40
1.0000000000
40
1.0000000000
40
1.0000000000
10
15.7943623775
20
-18.6143857775
30
0.0000000000
10
15.7952095233
20
-18.6075098883
30
0.0000000000
10
15.7968477268
20
-18.5892497843
30
0.0000000000
10
15.7967748647
20
-18.5597870241
30
0.0000000000
10
15.7927212401
20
-18.5267950537
30
0.0000000000
10
15.7849430649
20
-18.4954696293
30
0.0000000000
10
15.7736899583
20
-18.4659530226
30
0.0000000000
10
15.7590912963
20
-18.4382857179
30
0.0000000000
10
15.7412497533
20
-18.4126220339
30
0.0000000000
10
15.7203296976
20
-18.3892248892
30
0.0000000000
10
15.6964302846
20
-18.3682874671
30
0.0000000000
10
15.6695618868
20
-18.3499995956
30
0.0000000000
10
15.6397103361
20
-18.3346109013
30
0.0000000000
10
15.6124700881
20
-18.3245112757
30
0.0000000000
10
15.5952182028
20
-18.3198156912
30
0.0000000000
10
15.5891348713
20
-18.3183536324
30
0.0000000000
11
15.7943623775
21
-18.6143857775
31
0.0000000000
11
15.7962076139
21
-18.5936884038
31
0.0000000000
11
15.7960826425
21
-18.5595195793
31
0.0000000000
11
15.7920003896
21
-18.5265298530
31
0.0000000000
11
15.7842552832
21
-18.4954128817
31
0.0000000000
11
15.7730994545
21
-18.4661824471
31
0.0000000000
11
15.7585420352
21
-18.4386041482
31
0.0000000000
11
15.7407639727
21
-18.4130321257
31
0.0000000000
11
15.7199677381
21
-18.3897649273
31
0.0000000000
11
15.6962254663
21
-18.3689505041
31
0.0000000000
11
15.6695304471
21
-18.3507574208
31
0.0000000000
11
15.6398686800
21
-18.3354336157
31
0.0000000000
11
15.6072416808
21
-18.3232910414
31
0.0000000000
11
15.5891348713
21
-18.3183536324
31
0.0000000000
0
SPLINE
5
359
100
AcDbEntity
8
0
100
AcDbSpline
62
7
6
CONTINUOUS
70
0
71
3
72
9
73
5
74
3
42
0.0000001000
43
0.0000001000
44
0.0000000001
12
0.0085562785
22
-0.0001503147
32
0.0000000000
13
0.0085574387
23
0.0000546212
33
0.0000000000
40
0.0000000000
40
0.0000000000
40
0.0000000000
40
0.0000000000
40
0.9524441286
40
1.0000000000
40
1.0000000000
40
1.0000000000
40
1.0000000000
10
16.4074143704
20
-11.4073131959
30
0.0000000000
10
16.4101308295
20
-11.4073609180
30
0.0000000000
10
16.4129834579
20
-11.4073784366
30
0.0000000000
10
16.4158359463
20
-11.4073618511
30
0.0000000000
10
16.4159715985
20
-11.4073609852
30
0.0000000000
11
16.4074143704
21
-11.4073131959
31
0.0000000000
11
16.4155646409
21
-11.4073633514
31
0.0000000000
11
16.4159715985
21
-11.4073609852
31
0.0000000000
0
SPLINE
5
35A
100
AcDbEntity
8
0
100
AcDbSpline
62
7
6
CONTINUOUS
70
0
71
3
72
20
73
16
74
14
42
0.0000001000
43
0.0000001000
44
0.0000000001
12
0.4514538428
22
0.0029334518
32
0.0000000000
13
0.0551947537
23
0.4480212654
33
0.0000000000
40
0.0000000000
40
0.0000000000
40
0.0000000000
40
0.0000000000
40
0.0632875308
40
0.1424336824
40
0.2196119985
40
0.2954311485
40
0.3705070047
40
0.4453723481
40
0.5205698409
40
0.5967118746
40
0.6744251982
40
0.7543795683
40
0.8372353604
40
0.9236212830
40
1.0000000000
40
1.0000000000
40
1.0000000000
40
1.0000000000
10
16.4159943741
20
-11.4073606176
30
0.0000000000
10
16.4255181737
20
-11.4072987340
30
0.0000000000
10
16.4469569596
20
-11.4062452667
30
0.0000000000
10
16.4796929794
20
-11.4013117481
30
0.0000000000
10
16.5134732677
20
-11.3921481412
30
0.0000000000
10
16.5453893382
20
-11.3793472659
30
0.0000000000
10
16.5752854127
20
-11.3630708790
30
0.0000000000
10
16.6029914532
20
-11.3434567701
30
0.0000000000
10
16.6283262578
20
-11.3206223799
30
0.0000000000
10
16.6511007290
20
-11.2946604579
30
0.0000000000
10
16.6711058266
20
-11.2656350012
30
0.0000000000
10
16.6881047539
20
-11.2336045389
30
0.0000000000
10
16.7018346580
20
-11.1986363652
30
0.0000000000
10
16.7114672474
20
-11.1628920683
30
0.0000000000
10
16.7154939247
20
-11.1386983598
30
0.0000000000
10
16.7168991596
20
-11.1272919300
30
0.0000000000
11
16.4159943741
21
-11.4073606176
31
0.0000000000
11
16.4445290504
21
-11.4059388256
31
0.0000000000
11
16.4798441231
21
-11.4005859631
31
0.0000000000
11
16.5134539285
21
-11.3914461840
31
0.0000000000
11
16.5452071041
21
-11.3786971601
31
0.0000000000
11
16.5749613723
21
-11.3624909307
31
0.0000000000
11
16.6025373875
21
-11.3429693270
31
0.0000000000
11
16.6277507851
21
-11.3202544475
31
0.0000000000
11
16.6504219413
21
-11.2944317126
31
0.0000000000
11
16.6703438525
21
-11.2655673793
31
0.0000000000
11
16.6872880335
21
-11.2337100152
31
0.0000000000
11
16.7009960304
21
-11.1989206886
31
0.0000000000
11
16.7111959028
21
-11.1612929024
31
0.0000000000
11
16.7168991596
21
-11.1272919300
31
0.0000000000
0
SPLINE
5
35B
100
AcDbEntity
8
0
100
AcDbSpline
62
7
6
CONTINUOUS
70
0
71
3
72
9
73
5
74
3
42
0.0000001000
43
0.0000001000
44
0.0000000001
12
-0.0446574053
22
0.0037509715
32
0.0000000000
13
-0.0447291352
23
0.0027767224
33
0.0000000000
40
0.0000000000
40
0.0000000000
40
0.0000000000
40
0.0000000000
40
0.2739159950
40
1.0000000000
40
1.0000000000
40
1.0000000000
40
1.0000000000
10
0.6548546628
20
20.3663010426
30
0.0000000000
10
0.6507772036
20
20.3666435263
30
0.0000000000
10
0.6358881334
20
20.3678548344
30
0.0000000000
10
0.6209871505
20
20.3689154377
30
0.0000000000
10
0.6101614473
20
20.3695874823
30
0.0000000000
11
0.6548546628
21
20.3663010426
31
0.0000000000
11
0.6426196008
21
20.3672958122
31
0.0000000000
11
0.6101614473
21
20.3695874823
31
0.0000000000
0
SPLINE
5
35C
100
AcDbEntity
8
0
100
AcDbSpline
62
7
6
CONTINUOUS
70
0
71
3
72
8
73
4
74
2
42
0.0000001000
43
0.0000001000
44
0.0000000001
12
-0.0105879237
22
0.0006572835
32
0.0000000000
13
-0.0105918415
23
0.0005915081
33
0.0000000000
40
0.0000000000
40
0.0000000000
40
0.0000000000
40
0.0000000000
40
1.0000000000
40
1.0000000000
40
1.0000000000
40
1.0000000000
10
0.6101614473
20
20.3695874823
30
0.0000000000
10
0.6066321394
20
20.3698065768
30
0.0000000000
10
0.6031021578
20
20.3700152510
30
0.0000000000
10
0.5995715440
20
20.3702124204
30
0.0000000000
11
0.6101614473
21
20.3695874823
31
0.0000000000
11
0.5995715440
21
20.3702124204
31
0.0000000000
0
SPLINE
5
35D
100
AcDbEntity
8
0
100
AcDbSpline
62
7
6
CONTINUOUS
70
0
71
3
72
8
73
4
74
2
42
0.0000001000
43
0.0000001000
44
0.0000000001
12
-0.0166244889
22
0.0009284050
32
0.0000000000
13
-0.0166333558
23
0.0007457717
33
0.0000000000
40
0.0000000000
40
0.0000000000
40
0.0000000000
40
0.0000000000
40
1.0000000000
40
1.0000000000
40
1.0000000000
40
1.0000000000
10
0.5995715440
20
20.3702124204
30
0.0000000000
10
0.5940300477
20
20.3705218887
30
0.0000000000
10
0.5884869937
20
20.3708030148
30
0.0000000000
10
0.5829425418
20
20.3710516054
30
0.0000000000
11
0.5995715440
21
20.3702124204
31
0.0000000000
11
0.5829425418
21
20.3710516054
31
0.0000000000
0
SPLINE
5
35E
100
AcDbEntity
8
0
100
AcDbSpline
62
7
6
CONTINUOUS
70
0
71
3
72
25
73
21
74
19
42
0.0000001000
43
0.0000001000
44
0.0000000001
12
0.1527962209
22
1.2400613387
32
0.0000000000
13
-1.2153924287
23
0.2922326398
33
0.0000000000
40
0.0000000000
40
0.0000000000
40
0.0000000000
40
0.0000000000
40
0.0592627262
40
0.1244663701
40
0.1891622146
40
0.2531577105
40
0.3162833319
40
0.3784055233
40
0.4394077997
40
0.4991428358
40
0.5574857779
40
0.6143537678
40
0.6697522141
40
0.7237218913
40
0.7763111570
40
0.8277003750
40
0.8781495332
40
0.9279019067
40
0.9771952805
40
1.0000000000
40
1.0000000000
40
1.0000000000
40
1.0000000000
10
13.7019586535
20
18.9400818585
30
0.0000000000
10
13.7049770270
20
18.9645783304
30
0.0000000000
10
13.7098599437
20
19.0162185147
30
0.0000000000
10
13.7125114080
20
19.0950039324
30
0.0000000000
10
13.7099637499
20
19.1757723691
30
0.0000000000
10
13.7020907321
20
19.2553292674
30
0.0000000000
10
13.6888958341
20
19.3330954925
30
0.0000000000
10
13.6704235171
20
19.4085013706
30
0.0000000000
10
13.6467694122
20
19.4809669843
30
0.0000000000
10
13.6180967401
20
19.5499015007
30
0.0000000000
10
13.5846494080
20
19.6147243274
30
0.0000000000
10
13.5467364633
20
19.6749224830
30
0.0000000000
10
13.5047189139
20
19.7300634961
30
0.0000000000
10
13.4590037756
20
19.7797902818
30
0.0000000000
10
13.4100175312
20
19.8238419317
30
0.0000000000
10
13.3581636533
20
19.8620598907
30
0.0000000000
10
13.3037978011
20
19.8943571809
30
0.0000000000
10
13.2472543277
20
19.9206688678
30
0.0000000000
10
13.1992368236
20
19.9373387943
30
0.0000000000
10
13.1701899911
20
19.9450511677
30
0.0000000000
10
13.1609510966
20
19.9472725955
30
0.0000000000
11
13.7019586535
21
18.9400818585
31
0.0000000000
11
13.7089154146
21
19.0137989295
31
0.0000000000
11
13.7116297215
21
19.0952174271
31
0.0000000000
11
13.7090469647
21
19.1760054510
31
0.0000000000
11
13.7011310508
21
19.2555669275
31
0.0000000000
11
13.6878887185
21
19.3333147479
31
0.0000000000
11
13.6693666018
21
19.4086860941
31
0.0000000000
11
13.6456576080
21
19.4811192122
31
0.0000000000
11
13.6169347482
21
19.5500020276
31
0.0000000000
11
13.5834505162
21
19.6147482353
31
0.0000000000
11
13.5455302312
21
19.6748320647
31
0.0000000000
11
13.5035297485
21
19.7298452475
31
0.0000000000
11
13.4578521899
21
19.7794450149
31
0.0000000000
11
13.4089633770
21
19.8233409629
31
0.0000000000
11
13.3572553378
21
19.8613998224
31
0.0000000000
11
13.3030502114
21
19.8935645169
31
0.0000000000
11
13.2466848803
21
19.9197700510
31
0.0000000000
11
13.1885015422
21
19.9399570896
31
0.0000000000
11
13.1609510966
21
19.9472725955
31
0.0000000000
0
SPLINE
5
35F
100
AcDbEntity
8
0
100
AcDbSpline
62
7
6
CONTINUOUS
70
0
71
3
72
10
73
6
74
4
42
0.0000001000
43
0.0000001000
44
0.0000000001
12
-0.0992704068
22
0.0238831323
32
0.0000000000
13
-0.1018072617
23
0.0076629982
33
0.0000000000
40
0.0000000000
40
0.0000000000
40
0.0000000000
40
0.0000000000
40
0.1580048422
40
0.6954705068
40
1.0000000000
40
1.0000000000
40
1.0000000000
40
1.0000000000
10
-3.0503507263
20
23.8464701228
30
0.0000000000
10
-3.0555791279
20
23.8477280063
30
0.0000000000
10
-3.0786632395
20
23.8529709445
30
0.0000000000
10
-3.1122475147
20
23.8586350553
30
0.0000000000
10
-3.1407727053
20
23.8614798937
30
0.0000000000
10
-3.1511071432
20
23.8622577634
30
0.0000000000
11
-3.0503507263
21
23.8464701228
31
0.0000000000
11
-3.0660822250
21
23.8500430136
31
0.0000000000
11
-3.1201713095
21
23.8591703549
31
0.0000000000
11
-3.1511071432
21
23.8622577634
31
0.0000000000
0
SPLINE
5
360
100
AcDbEntity
8
0
100
AcDbSpline
62
7
6
CONTINUOUS
70
0
71
3
72
8
73
4
74
2
42
0.0000001000
43
0.0000001000
44
0.0000000001
12
-0.0173785576
22
0.0013080782
32
0.0000000000
13
-0.0174038398
23
0.0008351700
33
0.0000000000
40
0.0000000000
40
0.0000000000
40
0.0000000000
40
0.0000000000
40
1.0000000000
40
1.0000000000
40
1.0000000000
40
1.0000000000
10
-3.1511071432
20
23.8622577634
30
0.0000000000
10
-3.1568999958
20
23.8626937894
30
0.0000000000
10
-3.1626983655
20
23.8630509377
30
0.0000000000
10
-3.1684996455
20
23.8633293277
30
0.0000000000
11
-3.1511071432
21
23.8622577634
31
0.0000000000
11
-3.1684996455
21
23.8633293277
31
0.0000000000
0
SPLINE
5
361
100
AcDbEntity
8
0
100
AcDbSpline
62
7
6
CONTINUOUS
70
0
71
3
72
10
73
6
74
4
42
0.0000001000
43
0.0000001000
44
0.0000000001
12
-0.0413376923
22
0.0019825457
32
0.0000000000
13
-0.0384472993
23
-0.0152709670
33
0.0000000000
40
0.0000000000
40
0.0000000000
40
0.0000000000
40
0.0000000000
40
0.3703604509
40
0.7745228410
40
1.0000000000
40
1.0000000000
40
1.0000000000
40
1.0000000000
10
-9.1010454676
20
24.1478928374
30
0.0000000000
10
-9.1061487498
20
24.1481375895
30
0.0000000000
10
-9.1168589941
20
24.1477689539
30
0.0000000000
10
-9.1304150904
20
24.1449610159
30
0.0000000000
10
-9.1386250444
20
24.1421111246
30
0.0000000000
10
-9.1415147070
20
24.1409633731
30
0.0000000000
11
-9.1010454676
21
24.1478928374
31
0.0000000000
11
-9.1163433884
21
24.1473720507
31
0.0000000000
11
-9.1327032490
21
24.1440135036
31
0.0000000000
11
-9.1415147070
21
24.1409633731
31
0.0000000000
0
SPLINE
5
362
100
AcDbEntity
8
0
100
AcDbSpline
62
7
6
CONTINUOUS
70
0
71
3
72
14
73
10
74
8
42
0.0000001000
43
0.0000001000
44
0.0000000001
12
-0.2735735547
22
0.3411126472
32
0.0000000000
13
-0.4249858854
23
0.1022190434
33
0.0000000000
40
0.0000000000
40
0.0000000000
40
0.0000000000
40
0.0000000000
40
0.0993569680
40
0.2564899288
40
0.4095720661
40
0.5597619389
40
0.7078959945
40
0.8542312583
40
1.0000000000
40
1.0000000000
40
1.0000000000
40
1.0000000000
10
-1.7440226837
20
23.3845199561
30
0.0000000000
10
-1.7530831634
20
23.3958172622
30
0.0000000000
10
-1.7773042177
20
23.4243139838
30
0.0000000000
10
-1.8193688989
20
23.4667720639
30
0.0000000000
10
-1.8710613547
20
23.5096943167
30
0.0000000000
10
-1.9256624522
20
23.5465577981
30
0.0000000000
10
-1.9828386416
20
23.5772665426
30
0.0000000000
10
-2.0422479754
20
23.6017340727
30
0.0000000000
10
-2.0831448015
20
23.6138347658
30
0.0000000000
10
-2.1037946874
20
23.6188015462
30
0.0000000000
11
-1.7440226837
21
23.3845199561
31
0.0000000000
11
-1.7721666138
21
23.4176086333
31
0.0000000000
11
-1.8205467995
21
23.4663612589
31
0.0000000000
11
-1.8720569360
21
23.5090704317
31
0.0000000000
11
-1.9264877752
21
23.5457727874
31
0.0000000000
11
-1.9835441727
21
23.5763859971
31
0.0000000000
11
-2.0426953402
21
23.6007280839
31
0.0000000000
11
-2.1037946874
21
23.6188015462
31
0.0000000000
0
SPLINE
5
363
100
AcDbEntity
8
0
100
AcDbSpline
62
7
6
CONTINUOUS
70
0
71
3
72
10
73
6
74
4
42
0.0000001000
43
0.0000001000
44
0.0000000001
12
-0.0896874465
22
0.0215719282
32
0.0000000000
13
-0.0919154888
23
0.0080335508
33
0.0000000000
40
0.0000000000
40
0.0000000000
40
0.0000000000
40
0.0000000000
40
0.4277796276
40
0.8566236399
40
1.0000000000
40
1.0000000000
40
1.0000000000
40
1.0000000000
10
12.2144117721
20
20.1749380736
30
0.0000000000
10
12.2016229513
20
20.1780140840
30
0.0000000000
10
12.1758086843
20
20.1833565986
30
0.0000000000
10
12.1453433293
20
20.1876559410
30
0.0000000000
10
12.1278274030
20
20.1893739577
30
0.0000000000
10
12.1234345669
20
20.1897578981
30
0.0000000000
11
12.2144117721
21
20.1749380736
31
0.0000000000
11
12.1757701661
21
20.1829360917
31
0.0000000000
11
12.1365998217
21
20.1884664270
31
0.0000000000
11
12.1234345669
21
20.1897578981
31
0.0000000000
0
SPLINE
5
364
100
AcDbEntity
8
0
100
AcDbSpline
62
7
6
CONTINUOUS
70
0
71
3
72
8
73
4
74
2
42
0.0000001000
43
0.0000001000
44
0.0000000001
12
-0.0132012700
22
0.0011538107
32
0.0000000000
13
-0.0132218803
23
0.0008738714
33
0.0000000000
40
0.0000000000
40
0.0000000000
40
0.0000000000
40
0.0000000000
40
1.0000000000
40
1.0000000000
40
1.0000000000
40
1.0000000000
10
12.1234345669
20
20.1897578981
30
0.0000000000
10
12.1190341436
20
20.1901425017
30
0.0000000000
10
12.1146296860
20
20.1904804161
30
0.0000000000
10
12.1102223925
20
20.1907717066
30
0.0000000000
11
12.1234345669
21
20.1897578981
31
0.0000000000
11
12.1102223925
21
20.1907717066
31
0.0000000000
0
SPLINE
5
365
100
AcDbEntity
8
0
100
AcDbSpline
62
7
6
CONTINUOUS
70
0
71
3
72
8
73
4
74
2
42
0.0000001000
43
0.0000001000
44
0.0000000001
12
-0.0132473503
22
0.0008755548
32
0.0000000000
13
-0.0132608146
23
0.0005949295
33
0.0000000000
40
0.0000000000
40
0.0000000000
40
0.0000000000
40
0.0000000000
40
1.0000000000
40
1.0000000000
40
1.0000000000
40
1.0000000000
10
12.1102223925
20
20.1907717066
30
0.0000000000
10
12.1058066091
20
20.1910635582
30
0.0000000000
10
12.1013879789
20
20.1913086061
30
0.0000000000
10
12.0969677074
20
20.1915069159
30
0.0000000000
11
12.1102223925
21
20.1907717066
31
0.0000000000
11
12.0969677074
21
20.1915069159
31
0.0000000000
0
SPLINE
5
366
100
AcDbEntity
8
0
100
AcDbSpline
62
7
6
CONTINUOUS
70
0
71
3
72
26
73
22
74
20
42
0.0000001000
43
0.0000001000
44
0.0000000001
12
1.3956268015
22
0.0089450370
32
0.0000000000
13
0.1706639808
23
1.3850635763
33
0.0000000000
40
0.0000000000
40
0.0000000000
40
0.0000000000
40
0.0000000000
40
0.0396666025
40
0.0848807659
40
0.1311016433
40
0.1784436294
40
0.2270112985
40
0.2769159655
40
0.3281543860
40
0.3805744820
40
0.4341073512
40
0.4886703881
40
0.5441558127
40
0.6004472872
40
0.6574040120
40
0.7148746803
40
0.7727398601
40
0.8308771446
40
0.8891522750
40
0.9474314680
40
1.0000000000
40
1.0000000000
40
1.0000000000
40
1.0000000000
10
7.2839417373
20
-27.1281171422
30
0.0000000000
10
7.3023949952
20
-27.1279988692
30
0.0000000000
10
7.3418920643
20
-27.1259844412
30
0.0000000000
10
7.4023340084
20
-27.1172156896
30
0.0000000000
10
7.4651227742
20
-27.1018022480
30
0.0000000000
10
7.5276451996
20
-27.0800188263
30
0.0000000000
10
7.5894607247
20
-27.0518787799
30
0.0000000000
10
7.6501030014
20
-27.0174625347
30
0.0000000000
10
7.7090446892
20
-26.9769615509
30
0.0000000000
10
7.7657563733
20
-26.9306828722
30
0.0000000000
10
7.8197589482
20
-26.8790139956
30
0.0000000000
10
7.8706604081
20
-26.8223622336
30
0.0000000000
10
7.9181162937
20
-26.7611679484
30
0.0000000000
10
7.9618215137
20
-26.6959012679
30
0.0000000000
10
8.0015099379
20
-26.6270527333
30
0.0000000000
10
8.0369587529
20
-26.5551144023
30
0.0000000000
10
8.0679833658
20
-26.4805672015
30
0.0000000000
10
8.0944274536
20
-26.4038805753
30
0.0000000000
10
8.1161527807
20
-26.3255259811
30
0.0000000000
10
8.1324985789
20
-26.2485263668
30
0.0000000000
10
8.1402426337
20
-26.1975152984
30
0.0000000000
10
8.1432331520
20
-26.1732450455
30
0.0000000000
11
7.2839417373
21
-27.1281171422
31
0.0000000000
11
7.3392310713
21
-27.1253161745
31
0.0000000000
11
7.4016778776
21
-27.1162952152
31
0.0000000000
11
7.4643289954
21
-27.1009632534
31
0.0000000000
11
7.5267330383
21
-27.0792784360
31
0.0000000000
11
7.5884419072
21
-27.0512529073
31
0.0000000000
11
7.6490398477
21
-27.0169354841
31
0.0000000000
11
7.7080074450
21
-26.9764964677
31
0.0000000000
11
7.7647233934
21
-26.9302977282
31
0.0000000000
11
7.8187426389
21
-26.8786979447
31
0.0000000000
11
7.8696734098
21
-26.8220982755
31
0.0000000000
11
7.9171626331
21
-26.7609434829
31
0.0000000000
11
7.9609065795
21
-26.6956973883
31
0.0000000000
11
8.0006326363
21
-26.6268560099
31
0.0000000000
11
8.0361071356
21
-26.5549298238
31
0.0000000000
11
8.0671522232
21
-26.4803870489
31
0.0000000000
11
8.0936118257
21
-26.4036942885
31
0.0000000000
11
8.1153448013
21
-26.3253309251
31
0.0000000000
11
8.1322297003
21
-26.2457761564
31
0.0000000000
11
8.1432331520
21
-26.1732450455
31
0.0000000000
0
SPLINE
5
367
100
AcDbEntity
8
0
100
AcDbSpline
62
7
6
CONTINUOUS
70
0
71
3
72
22
73
18
74
16
42
0.0000001000
43
0.0000001000
44
0.0000000001
12
-0.0881264020
22
-0.7152134392
32
0.0000000000
13
-0.7209201061
23
-0.0046027016
33
0.0000000000
40
0.0000000000
40
0.0000000000
40
0.0000000000
40
0.0000000000
40
0.0676002334
40
0.1352058267
40
0.2028155226
40
0.2704172782
40
0.3380664512
40
0.4056861674
40
0.4733708829
40
0.5410014356
40
0.6087073577
40
0.6763446814
40
0.7440561513
40
0.8116936329
40
0.8793937895
40
0.9470253919
40
1.0000000000
40
1.0000000000
40
1.0000000000
40
1.0000000000
10
15.3827560409
20
-21.9548888656
30
0.0000000000
10
15.3807702525
20
-21.9710050641
30
0.0000000000
10
15.3752230709
20
-22.0030670289
30
0.0000000000
10
15.3622646536
20
-22.0501060242
30
0.0000000000
10
15.3447886678
20
-22.0956656073
30
0.0000000000
10
15.3229573336
20
-22.1393162348
30
0.0000000000
10
15.2969789146
20
-22.1806367739
30
0.0000000000
10
15.2670887432
20
-22.2192472945
30
0.0000000000
10
15.2335833980
20
-22.2547602693
30
0.0000000000
10
15.1967630627
20
-22.2868546426
30
0.0000000000
10
15.1570005889
20
-22.3152032245
30
0.0000000000
10
15.1146489681
20
-22.3395530856
30
0.0000000000
10
15.0701414519
20
-22.3596545880
30
0.0000000000
10
15.0238731887
20
-22.3753293372
30
0.0000000000
10
14.9763169128
20
-22.3864182218
30
0.0000000000
10
14.9314029203
20
-22.3923592447
30
0.0000000000
10
14.9024304759
20
-22.3936513978
30
0.0000000000
10
14.8897003225
20
-22.3937326732
30
0.0000000000
11
15.3827560409
21
-21.9548888656
31
0.0000000000
11
15.3744504835
21
-22.0028898510
31
0.0000000000
11
15.3615120277
21
-22.0498584529
31
0.0000000000
11
15.3440627883
21
-22.0953476310
31
0.0000000000
11
15.3222719003
21
-22.1389175858
31
0.0000000000
11
15.2963248323
21
-22.1801882024
31
0.0000000000
11
15.2664958449
21
-22.2187197019
31
0.0000000000
11
15.2330240198
21
-22.2541971444
31
0.0000000000
11
15.1962854157
21
-22.2862202770
31
0.0000000000
11
15.1565579173
21
-22.3145439220
31
0.0000000000
11
15.1143030684
21
-22.3388381480
31
0.0000000000
11
15.0698337857
21
-22.3589223713
31
0.0000000000
11
15.0236699300
21
-22.3745617827
31
0.0000000000
11
14.9761581794
21
-22.3856401912
31
0.0000000000
11
14.9278422246
21
-22.3920314586
31
0.0000000000
11
14.8897003225
21
-22.3937326732
31
0.0000000000
0
SPLINE
5
368
100
AcDbEntity
8
0
100
AcDbSpline
62
7
6
CONTINUOUS
70
0
71
3
72
22
73
18
74
16
42
0.0000001000
43
0.0000001000
44
0.0000000001
12
0.0890763996
22
0.7229233993
32
0.0000000000
13
-0.7085432045
23
0.1704147388
33
0.0000000000
40
0.0000000000
40
0.0000000000
40
0.0000000000
40
0.0000000000
40
0.0667064888
40
0.1334084325
40
0.2001866897
40
0.2669190808
40
0.3337241933
40
0.4004613114
40
0.4672735292
40
0.5340132292
40
0.6008171391
40
0.6675521555
40
0.7343322201
40
0.8010574650
40
0.8678017046
40
0.9345136752
40
1.0000000000
40
1.0000000000
40
1.0000000000
40
1.0000000000
10
19.7684435639
20
13.6383338879
30
0.0000000000
10
19.7704242218
20
13.6544084484
30
0.0000000000
10
19.7728236180
20
13.6867711552
30
0.0000000000
10
19.7716928723
20
13.7354355975
30
0.0000000000
10
19.7658410586
20
13.7837714495
30
0.0000000000
10
19.7553164756
20
13.8313333950
30
0.0000000000
10
19.7402239632
20
13.8776389187
30
0.0000000000
10
19.7206963113
20
13.9222765330
30
0.0000000000
10
19.6969316564
20
13.9647919880
30
0.0000000000
10
19.6691393965
20
14.0048103716
30
0.0000000000
10
19.6376025762
20
14.0419250906
30
0.0000000000
10
19.6026022252
20
14.0758069944
30
0.0000000000
10
19.5644911014
20
14.1061170704
30
0.0000000000
10
19.5236143588
20
14.1325832716
30
0.0000000000
10
19.4803758169
20
14.1549475400
30
0.0000000000
10
19.4354487508
20
14.1728963017
30
0.0000000000
10
19.4045901484
20
14.1818958460
30
0.0000000000
10
19.3891235182
20
14.1856157910
30
0.0000000000
11
19.7684435639
21
13.6383338879
31
0.0000000000
11
19.7720354091
21
13.6867893227
31
0.0000000000
11
19.7709073522
21
13.7353612932
31
0.0000000000
11
19.7650610844
21
13.7836493286
31
0.0000000000
11
19.7545593237
21
13.8311085462
31
0.0000000000
11
19.7394800516
21
13.8773733501
31
0.0000000000
11
19.7199970730
21
13.9219088707
31
0.0000000000
11
19.6962524712
21
13.9643884436
31
0.0000000000
11
19.6685229120
21
14.0043165469
31
0.0000000000
11
19.6370149679
21
14.0413972796
31
0.0000000000
11
19.6020896106
21
14.0752065924
31
0.0000000000
11
19.5640196261
21
14.1054839365
31
0.0000000000
11
19.5232223540
21
14.1318987222
31
0.0000000000
11
19.4800406321
21
14.1542334995
31
0.0000000000
11
19.4349162003
21
14.1722613727
31
0.0000000000
11
19.3891235182
21
14.1856157910
31
0.0000000000
0
SPLINE
5
369
100
AcDbEntity
8
0
100
AcDbSpline
62
7
6
CONTINUOUS
70
0
71
3
72
20
73
16
74
14
42
0.0000001000
43
0.0000001000
44
0.0000000001
12
0.3988041699
22
-0.0022477204
32
0.0000000000
13
0.0487708743
23
0.3957392891
33
0.0000000000
40
0.0000000000
40
0.0000000000
40
0.0000000000
40
0.0000000000
40
0.0500870489
40
0.1285830697
40
0.2072138748
40
0.2860796524
40
0.3652910177
40
0.4448824796
40
0.5249418204
40
0.6056327995
40
0.6869916166
40
0.7691347237
40
0.8520055547
40
0.9354189048
40
1.0000000000
40
1.0000000000
40
1.0000000000
40
1.0000000000
10
16.9495231913
20
-18.1027253464
30
0.0000000000
10
16.9561814993
20
-18.1027628736
30
0.0000000000
10
16.9732842885
20
-18.1022131356
30
0.0000000000
10
17.0006461446
20
-18.0986553366
30
0.0000000000
10
17.0311151903
20
-18.0909481616
30
0.0000000000
10
17.0605479595
20
-18.0796612698
30
0.0000000000
10
17.0885556095
20
-18.0649185057
30
0.0000000000
10
17.1147598611
20
-18.0468858061
30
0.0000000000
10
17.1388083548
20
-18.0257656918
30
0.0000000000
10
17.1603701990
20
-18.0017955158
30
0.0000000000
10
17.1791425759
20
-17.9752435056
30
0.0000000000
10
17.1948375831
20
-17.9464342022
30
0.0000000000
10
17.2071969722
20
-17.9157487668
30
0.0000000000
10
17.2153299979
20
-17.8861069392
30
0.0000000000
10
17.2185946020
20
-17.8666801686
30
0.0000000000
10
17.2196444942
20
-17.8581610763
30
0.0000000000
11
16.9495231913
21
-18.1027253464
31
0.0000000000
11
16.9694868286
21
-18.1020830197
31
0.0000000000
11
17.0005132027
21
-18.0980502657
31
0.0000000000
11
17.0308976749
21
-18.0903660331
31
0.0000000000
11
17.0602492808
21
-18.0791132028
31
0.0000000000
11
17.0881892464
21
-18.0644101323
31
0.0000000000
11
17.1143258307
21
-18.0464298545
31
0.0000000000
11
17.1383065094
21
-18.0253774044
31
0.0000000000
11
17.1598212121
21
-18.0014707686
31
0.0000000000
11
17.1785490698
21
-17.9749968111
31
0.0000000000
11
17.1942206478
21
-17.9462500352
31
0.0000000000
11
17.2065702164
21
-17.9156144105
31
0.0000000000
11
17.2153742810
21
-17.8835539387
31
0.0000000000
11
17.2196444942
21
-17.8581610763
31
0.0000000000
0
SPLINE
5
36A
100
AcDbEntity
8
0
100
AcDbSpline
62
7
6
CONTINUOUS
70
0
71
3
72
21
73
17
74
15
42
0.0000001000
43
0.0000001000
44
0.0000000001
12
0.0496010612
22
0.4025889220
32
0.0000000000
13
-0.3944909549
23
0.0949163322
33
0.0000000000
40
0.0000000000
40
0.0000000000
40
0.0000000000
40
0.0000000000
40
0.0602488725
40
0.1379355000
40
0.2155117948
40
0.2927398407
40
0.3695084635
40
0.4456267125
40
0.5209910724
40
0.5958306094
40
0.6701864558
40
0.7439714723
40
0.8172757301
40
0.8902379950
40
0.9629566940
40
1.0000000000
40
1.0000000000
40
1.0000000000
40
1.0000000000
10
17.9967880434
20
-11.5510448521
30
0.0000000000
10
17.9977841794
20
-11.5429596759
30
0.0000000000
10
17.9992940200
20
-11.5243455918
30
0.0000000000
10
17.9988777585
20
-11.4951651827
30
0.0000000000
10
17.9950595454
20
-11.4639107853
30
0.0000000000
10
17.9879286843
20
-11.4333701409
30
0.0000000000
10
17.9775984944
20
-11.4039662379
30
0.0000000000
10
17.9642346878
20
-11.3760900736
30
0.0000000000
10
17.9480371148
20
-11.3500660193
30
0.0000000000
10
17.9292227669
20
-11.3261683579
30
0.0000000000
10
17.9080324352
20
-11.3046483270
30
0.0000000000
10
17.8847494980
20
-11.2857395945
30
0.0000000000
10
17.8596725658
20
-11.2696311392
30
0.0000000000
10
17.8330919490
20
-11.2564675105
30
0.0000000000
10
17.8098335148
20
-11.2480142381
30
0.0000000000
10
17.7954961998
20
-11.2441312707
30
0.0000000000
10
17.7906251167
20
-11.2429592658
30
0.0000000000
11
17.9967880434
21
-11.5510448521
31
0.0000000000
11
17.9987642609
21
-11.5266868621
31
0.0000000000
11
17.9983142453
21
-11.4951878622
31
0.0000000000
11
17.9944951830
21
-11.4639630733
31
0.0000000000
11
17.9873685215
21
-11.4334685050
31
0.0000000000
11
17.9770428447
21
-11.4041009240
31
0.0000000000
11
17.9636925531
21
-11.3762711929
31
0.0000000000
11
17.9475376729
21
-11.3503296121
31
0.0000000000
11
17.9287599421
21
-11.3264888855
31
0.0000000000
11
17.9076009220
21
-11.3050083581
31
0.0000000000
11
17.8843725519
21
-11.2861495404
31
0.0000000000
11
17.8593609423
21
-11.2700870447
31
0.0000000000
11
17.8328465602
21
-11.2569589594
31
0.0000000000
11
17.8051318390
21
-11.2468882723
31
0.0000000000
11
17.7906251167
21
-11.2429592658
31
0.0000000000
0
SPLINE
5
36B
100
AcDbEntity
8
0
100
AcDbSpline
62
7
6
CONTINUOUS
70
0
71
3
72
9
73
5
74
3
42
0.0000001000
43
0.0000001000
44
0.0000000001
12
0.0222001993
22
-0.0053396671
32
0.0000000000
13
0.0228628741
23
0.0001469317
33
0.0000000000
40
0.0000000000
40
0.0000000000
40
0.0000000000
40
0.0000000000
40
0.7254645871
40
1.0000000000
40
1.0000000000
40
1.0000000000
40
1.0000000000
10
1.4827818539
20
-27.1623686329
30
0.0000000000
10
1.4881503401
20
-27.1636598794
30
0.0000000000
10
1.4957216154
20
-27.1648051577
30
0.0000000000
10
1.5033448955
20
-27.1650118457
30
0.0000000000
10
1.5054371184
20
-27.1649983997
30
0.0000000000
11
1.4827818539
21
-27.1623686329
31
0.0000000000
11
1.4991630944
21
-27.1648276181
31
0.0000000000
11
1.5054371184
21
-27.1649983997
31
0.0000000000
0
SPLINE
5
36C
100
AcDbEntity
8
0
100
AcDbSpline
62
9
6
CONTINUOUS
70
0
71
3
72
14
73
10
74
8
42
0.0000001000
43
0.0000001000
44
0.0000000001
12
-0.0020800193
22
-0.0605356756
32
0.0000000000
13
-0.0634291644
23
0.0011142883
33
0.0000000000
40
0.0000000000
40
0.0000000000
40
0.0000000000
40
0.0000000000
40
0.0069543144
40
0.0625359664
40
0.1590395288
40
0.3022959646
40
0.4919551476
40
0.7256812695
40
1.0000000000
40
1.0000000000
40
1.0000000000
40
1.0000000000
10
8.1431977166
20
-26.1732438531
30
0.0000000000
10
8.1431928949
20
-26.1733841811
30
0.0000000000
10
8.1430386166
20
-26.1746207191
30
0.0000000000
10
8.1397967537
20
-26.1769229005
30
0.0000000000
10
8.1340224912
20
-26.1784972456
30
0.0000000000
10
8.1249215452
20
-26.1799974134
30
0.0000000000
10
8.1130152054
20
-26.1808875308
30
0.0000000000
10
8.0982464419
20
-26.1813352296
30
0.0000000000
10
8.0875061494
20
-26.1812742788
30
0.0000000000
10
8.0817062135
20
-26.1811723887
30
0.0000000000
11
8.1431977166
21
-26.1732438531
31
0.0000000000
11
8.1431447257
21
-26.1736551026
31
0.0000000000
11
8.1406478245
21
-26.1761447722
31
0.0000000000
11
8.1348727638
21
-26.1781766669
31
0.0000000000
11
8.1259161761
21
-26.1797167876
31
0.0000000000
11
8.1139279294
21
-26.1807393641
31
0.0000000000
11
8.0991086195
21
-26.1812272858
31
0.0000000000
11
8.0817062135
21
-26.1811723887
31
0.0000000000
0
SPLINE
5
36D
100
AcDbEntity
8
0
100
AcDbSpline
62
9
6
CONTINUOUS
70
0
71
3
72
18
73
14
74
12
42
0.0000001000
43
0.0000001000
44
0.0000000001
12
0.2350360673
22
0.0015371064
32
0.0000000000
13
0.0257712258
23
0.2332561426
33
0.0000000000
40
0.0000000000
40
0.0000000000
40
0.0000000000
40
0.0000000000
40
0.0561274024
40
0.1344762543
40
0.2151353094
40
0.2991391073
40
0.3871918684
40
0.4796493067
40
0.5765396695
40
0.6776050099
40
0.7823497452
40
0.8900898310
40
1.0000000000
40
1.0000000000
40
1.0000000000
40
1.0000000000
10
7.2839417355
20
-27.1281168638
30
0.0000000000
10
7.2883390568
20
-27.1280881058
30
0.0000000000
10
7.2988674876
20
-27.1272972659
30
0.0000000000
10
7.3153178673
20
-27.1233129853
30
0.0000000000
10
7.3327810570
20
-27.1155640335
30
0.0000000000
10
7.3493352487
20
-27.1046049764
30
0.0000000000
10
7.3647067079
20
-27.0906452422
30
0.0000000000
10
7.3786483168
20
-27.0739352210
30
0.0000000000
10
7.3909366967
20
-27.0547635888
30
0.0000000000
10
7.4013736780
20
-27.0334560692
30
0.0000000000
10
7.4097893791
20
-27.0103714489
30
0.0000000000
10
7.4160452279
20
-26.9859014274
30
0.0000000000
10
7.4186887751
20
-26.9690527964
30
0.0000000000
10
7.4196329484
20
-26.9605070557
30
0.0000000000
11
7.2839417355
21
-27.1281168638
31
0.0000000000
11
7.2970849269
21
-27.1271318626
31
0.0000000000
11
7.3149634878
21
-27.1228397229
31
0.0000000000
11
7.3322895593
21
-27.1152171875
31
0.0000000000
11
7.3487668022
21
-27.1043946295
31
0.0000000000
11
7.3641133955
21
-27.0905571543
31
0.0000000000
11
7.3780668564
21
-27.0739414332
31
0.0000000000
11
7.3903885298
21
-27.0548316556
31
0.0000000000
11
7.4008676701
21
-27.0335546686
31
0.0000000000
11
7.4093250457
21
-27.0104743864
31
0.0000000000
11
7.4156160046
21
-26.9859855660
31
0.0000000000
11
7.4196329484
21
-26.9605070557
31
0.0000000000
0
SPLINE
5
36E
100
AcDbEntity
8
0
100
AcDbSpline
62
7
6
CONTINUOUS
70
0
71
3
72
19
73
15
74
13
42
0.0000001000
43
0.0000001000
44
0.0000000001
12
0.2347207592
22
0.0015084682
32
0.0000000000
13
0.0286673952
23
0.2326579303
33
0.0000000000
40
0.0000000000
40
0.0000000000
40
0.0000000000
40
0.0000000000
40
0.0436968008
40
0.1149416915
40
0.1882618157
40
0.2642734195
40
0.3439200998
40
0.4272074815
40
0.5146281361
40
0.6056725488
40
0.7004006446
40
0.7980073350
40
0.8981643222
40
1.0000000000
40
1.0000000000
40
1.0000000000
40
1.0000000000
10
1.5054371184
20
-27.1649983997
30
0.0000000000
10
1.5088559672
20
-27.1649764280
30
0.0000000000
10
1.5178445565
20
-27.1644256384
30
0.0000000000
10
1.5323222394
20
-27.1614268078
30
0.0000000000
10
1.5484424428
20
-27.1551127620
30
0.0000000000
10
1.5639289282
20
-27.1460164423
30
0.0000000000
10
1.5785414078
20
-27.1342985036
30
0.0000000000
10
1.5920981854
20
-27.1201241528
30
0.0000000000
10
1.6043933965
20
-27.1037232030
30
0.0000000000
10
1.6152743283
20
-27.0853119242
30
0.0000000000
10
1.6245756326
20
-27.0651785976
30
0.0000000000
10
1.6321767756
20
-27.0435904846
30
0.0000000000
10
1.6379636464
20
-27.0208773170
30
0.0000000000
10
1.6405439703
20
-27.0052837875
30
0.0000000000
10
1.6415170915
20
-26.9973861615
30
0.0000000000
11
1.5054371184
21
-27.1649983997
31
0.0000000000
11
1.5156686738
21
-27.1643726362
31
0.0000000000
11
1.5320285345
21
-27.1610140891
31
0.0000000000
11
1.5480495780
21
-27.1547901962
31
0.0000000000
11
1.5634425893
21
-27.1458151095
31
0.0000000000
11
1.5780460856
21
-27.1341820494
31
0.0000000000
11
1.5915827026
21
-27.1201126810
31
0.0000000000
11
1.6039172548
21
-27.1037475104
31
0.0000000000
11
1.6148150122
21
-27.0853971206
31
0.0000000000
11
1.6241622481
21
-27.0652543321
31
0.0000000000
11
1.6317890741
21
-27.0436821649
31
0.0000000000
11
1.6376063797
21
-27.0209357153
31
0.0000000000
11
1.6415170915
21
-26.9973861615
31
0.0000000000
0
SPLINE
5
36F
100
AcDbEntity
8
0
100
AcDbSpline
62
9
6
CONTINUOUS
70
0
71
3
72
9
73
5
74
3
42
0.0000001000
43
0.0000001000
44
0.0000000001
12
-0.0978874249
22
0.0235423147
32
0.0000000000
13
-0.1005285009
23
0.0045100829
33
0.0000000000
40
0.0000000000
40
0.0000000000
40
0.0000000000
40
0.0000000000
40
0.4106128855
40
1.0000000000
40
1.0000000000
40
1.0000000000
40
1.0000000000
10
-2.1037947850
20
23.6188013159
30
0.0000000000
10
-2.1171927310
20
23.6220235752
30
0.0000000000
10
-2.1501332637
20
23.6285797897
30
0.0000000000
10
-2.1835908410
20
23.6319456790
30
0.0000000000
10
-2.2033409087
20
23.6328317406
30
0.0000000000
11
-2.1037947850
21
23.6188013159
31
0.0000000000
11
-2.1443315206
21
23.6268698093
31
0.0000000000
11
-2.2033409087
21
23.6328317406
31
0.0000000000
0
SPLINE
5
370
100
AcDbEntity
8
0
100
AcDbSpline
62
9
6
CONTINUOUS
70
0
71
3
72
9
73
5
74
3
42
0.0000001000
43
0.0000001000
44
0.0000000001
12
-0.0991780144
22
0.0238528956
32
0.0000000000
13
-0.1018435553
23
0.0048231778
33
0.0000000000
40
0.0000000000
40
0.0000000000
40
0.0000000000
40
0.0000000000
40
0.4105972676
40
1.0000000000
40
1.0000000000
40
1.0000000000
40
1.0000000000
10
-3.0503786285
20
23.8464768882
30
0.0000000000
10
-3.0639527024
20
23.8497415328
30
0.0000000000
10
-3.0973234027
20
23.8564013172
30
0.0000000000
10
-3.1312142326
20
23.8598719964
30
0.0000000000
10
-3.1512231892
20
23.8608195944
30
0.0000000000
11
-3.0503786285
21
23.8464768882
31
0.0000000000
11
-3.0914442278
21
23.8546728597
31
0.0000000000
11
-3.1512231892
21
23.8608195944
31
0.0000000000
0
SPLINE
5
371
100
AcDbEntity
8
0
100
AcDbSpline
62
9
6
CONTINUOUS
70
0
71
3
72
9
73
5
74
3
42
0.0000001000
43
0.0000001000
44
0.0000000001
12
-0.0978874286
22
0.0235423164
32
0.0000000000
13
-0.1005285050
23
0.0045100831
33
0.0000000000
40
0.0000000000
40
0.0000000000
40
0.0000000000
40
0.0000000000
40
0.4106119241
40
1.0000000000
40
1.0000000000
40
1.0000000000
40
1.0000000000
10
12.2144116786
20
20.1749378423
30
0.0000000000
10
12.2010137635
20
20.1781600942
30
0.0000000000
10
12.1680732302
20
20.1847163122
30
0.0000000000
10
12.1346156515
20
20.1880822048
30
0.0000000000
10
12.1148655508
20
20.1889682679
30
0.0000000000
11
12.2144116786
21
20.1749378423
31
0.0000000000
11
12.1738750370
21
20.1830063211
31
0.0000000000
11
12.1148655508
21
20.1889682679
31
0.0000000000
0
SPLINE
5
372
100
AcDbEntity
8
0
100
AcDbSpline
62
9
6
CONTINUOUS
70
0
71
3
72
22
73
18
74
16
42
0.0000001000
43
0.0000001000
44
0.0000000001
12
0.5873316609
22
0.0037254044
32
0.0000000000
13
0.0644506378
23
0.5833446678
33
0.0000000000
40
0.0000000000
40
0.0000000000
40
0.0000000000
40
0.0000000000
40
0.0174463465
40
0.0756071592
40
0.1345349781
40
0.1947650176
40
0.2567507289
40
0.3208440668
40
0.3872867570
40
0.4562104227
40
0.5276427381
40
0.6015171115
40
0.6776838676
40
0.7559223586
40
0.8359508702
40
0.9174415617
40
1.0000000000
40
1.0000000000
40
1.0000000000
40
1.0000000000
10
14.8897003202
20
-22.3937323161
30
0.0000000000
10
14.8931159175
20
-22.3937106512
30
0.0000000000
10
14.9079157961
20
-22.3933016401
30
0.0000000000
10
14.9341333965
20
-22.3901379496
30
0.0000000000
10
14.9677640375
20
-22.3812002104
30
0.0000000000
10
15.0005748008
20
-22.3675433936
30
0.0000000000
10
15.0322454193
20
-22.3493162336
30
0.0000000000
10
15.0624745917
20
-22.3267094764
30
0.0000000000
10
15.0909790707
20
-22.2999515920
30
0.0000000000
10
15.1174939080
20
-22.2693063391
30
0.0000000000
10
15.1417730299
20
-22.2350710115
30
0.0000000000
10
15.1635906346
20
-22.1975747561
30
0.0000000000
10
15.1827430773
20
-22.1571763145
30
0.0000000000
10
15.1990507293
20
-22.1142619211
30
0.0000000000
10
15.2123602759
20
-22.0692404954
30
0.0000000000
10
15.2225446330
20
-22.0225502566
30
0.0000000000
10
15.2271650354
20
-21.9907605021
30
0.0000000000
10
15.2289386834
20
-21.9747071605
30
0.0000000000
11
14.8897003202
21
-22.3937323161
31
0.0000000000
11
14.8999425515
21
-22.3934490023
31
0.0000000000
11
14.9338333062
21
-22.3893791596
31
0.0000000000
11
14.9672684490
21
-22.3805376719
31
0.0000000000
11
14.9999260842
21
-22.3670096641
31
0.0000000000
11
15.0314918038
21
-22.3489253817
31
0.0000000000
11
15.0616617117
21
-22.3264589382
31
0.0000000000
11
15.0901453510
21
-22.2998266385
31
0.0000000000
11
15.1166685025
21
-22.2692848946
31
0.0000000000
11
15.1409758249
21
-22.2351277551
31
0.0000000000
11
15.1628333254
21
-22.1976840489
31
0.0000000000
11
15.1820305788
21
-22.1573142666
31
0.0000000000
11
15.1983828268
21
-22.1144069107
31
0.0000000000
11
15.2117324402
21
-22.0693757361
31
0.0000000000
11
15.2219511233
21
-22.0226537395
31
0.0000000000
11
15.2289386834
21
-21.9747071605
31
0.0000000000
0
SPLINE
5
373
100
AcDbEntity
8
0
100
AcDbSpline
62
9
6
CONTINUOUS
70
0
71
3
72
16
73
12
74
10
42
0.0000001000
43
0.0000001000
44
0.0000000001
12
-0.0118483628
22
-0.1574358711
32
0.0000000000
13
-0.1586466450
23
0.0027870160
33
0.0000000000
40
0.0000000000
40
0.0000000000
40
0.0000000000
40
0.0000000000
40
0.0066838213
40
0.0455508784
40
0.1053764723
40
0.1907624931
40
0.3025934613
40
0.4405400852
40
0.6036809208
40
0.7907051392
40
1.0000000000
40
1.0000000000
40
1.0000000000
40
1.0000000000
10
15.3827070988
20
-21.9548851823
30
0.0000000000
10
15.3826807014
20
-21.9552359401
30
0.0000000000
10
15.3822976718
20
-21.9575831411
30
0.0000000000
10
15.3778303546
20
-21.9618503818
30
0.0000000000
10
15.3689342516
20
-21.9655038259
30
0.0000000000
10
15.3556449783
20
-21.9688356031
30
0.0000000000
10
15.3381197673
20
-21.9714187968
30
0.0000000000
10
15.3163497597
20
-21.9733695035
30
0.0000000000
10
15.2905597420
20
-21.9745866682
30
0.0000000000
10
15.2609691538
20
-21.9750710441
30
0.0000000000
10
15.2400066592
20
-21.9749015966
30
0.0000000000
10
15.2289386834
20
-21.9747071605
30
0.0000000000
11
15.3827070988
21
-21.9548851823
31
0.0000000000
11
15.3825349647
21
-21.9559139427
31
0.0000000000
11
15.3786280413
21
-21.9606856112
31
0.0000000000
11
15.3700863942
21
-21.9648268199
31
0.0000000000
11
15.3569904677
21
-21.9682985672
31
0.0000000000
11
15.3394635978
21
-21.9710681568
31
0.0000000000
11
15.3176708508
21
-21.9731095048
31
0.0000000000
11
15.2918174682
21
-21.9744033862
31
0.0000000000
11
15.2621469345
21
-21.9749376152
31
0.0000000000
11
15.2289386834
21
-21.9747071605
31
0.0000000000
0
SPLINE
5
374
100
AcDbEntity
8
0
100
AcDbSpline
62
9
6
CONTINUOUS
70
0
71
3
72
16
73
12
74
10
42
0.0000001000
43
0.0000001000
44
0.0000000001
12
-0.0118483628
22
-0.1574358711
32
0.0000000000
13
-0.1586466450
23
0.0027870160
33
0.0000000000
40
0.0000000000
40
0.0000000000
40
0.0000000000
40
0.0000000000
40
0.0066838213
40
0.0455508784
40
0.1053764723
40
0.1907624931
40
0.3025934613
40
0.4405400852
40
0.6036809208
40
0.7907051392
40
1.0000000000
40
1.0000000000
40
1.0000000000
40
1.0000000000
10
19.7683946217
20
13.6383375712
30
0.0000000000
10
19.7683682243
20
13.6379868134
30
0.0000000000
10
19.7679851947
20
13.6356396124
30
0.0000000000
10
19.7635178775
20
13.6313723716
30
0.0000000000
10
19.7546217745
20
13.6277189276
30
0.0000000000
10
19.7413325012
20
13.6243871504
30
0.0000000000
10
19.7238072902
20
13.6218039566
30
0.0000000000
10
19.7020372826
20
13.6198532500
30
0.0000000000
10
19.6762472649
20
13.6186360852
30
0.0000000000
10
19.6466566767
20
13.6181517094
30
0.0000000000
10
19.6256941822
20
13.6183211569
30
0.0000000000
10
19.6146262063
20
13.6185155929
30
0.0000000000
11
19.7683946217
21
13.6383375712
31
0.0000000000
11
19.7682224876
21
13.6373088108
31
0.0000000000
11
19.7643155642
21
13.6325371423
31
0.0000000000
11
19.7557739171
21
13.6283959336
31
0.0000000000
11
19.7426779906
21
13.6249241862
31
0.0000000000
11
19.7251511208
21
13.6221545967
31
0.0000000000
11
19.7033583737
21
13.6201132486
31
0.0000000000
11
19.6775049911
21
13.6188193673
31
0.0000000000
11
19.6478344574
21
13.6182851383
31
0.0000000000
11
19.6146262063
21
13.6185155929
31
0.0000000000
0
SPLINE
5
375
100
AcDbEntity
8
0
100
AcDbSpline
62
9
6
CONTINUOUS
70
0
71
3
72
9
73
5
74
3
42
0.0000001000
43
0.0000001000
44
0.0000000001
12
-0.0489445289
22
0.0117731345
32
0.0000000000
13
-0.0502527179
23
0.0022545241
33
0.0000000000
40
0.0000000000
40
0.0000000000
40
0.0000000000
40
0.0000000000
40
0.3004739389
40
1.0000000000
40
1.0000000000
40
1.0000000000
40
1.0000000000
10
19.3891234354
20
14.1856154465
30
0.0000000000
10
19.3842212503
20
14.1867946199
30
0.0000000000
10
19.3677918527
20
14.1902471032
30
0.0000000000
10
19.3510681115
20
14.1921051780
30
0.0000000000
10
19.3393504163
20
14.1926308775
30
0.0000000000
11
19.3891234354
21
14.1856154465
31
0.0000000000
11
19.3743214640
21
14.1887254319
31
0.0000000000
11
19.3393504163
21
14.1926308775
31
0.0000000000
0
SPLINE
5
376
100
AcDbEntity
8
0
100
AcDbSpline
62
7
6
CONTINUOUS
70
0
71
3
72
20
73
16
74
14
42
0.0000001000
43
0.0000001000
44
0.0000000001
12
0.0173722707
22
0.1413250932
32
0.0000000000
13
-0.0729734652
23
0.1221779357
33
0.0000000000
40
0.0000000000
40
0.0000000000
40
0.0000000000
40
0.0000000000
40
0.0342465492
40
0.0961722004
40
0.1619976795
40
0.2317138855
40
0.3052165357
40
0.3823340478
40
0.4628446730
40
0.5464885047
40
0.6329679537
40
0.7219494166
40
0.8130619178
40
0.9058953533
40
1.0000000000
40
1.0000000000
40
1.0000000000
40
1.0000000000
10
9.9812078860
20
-11.2566699643
30
0.0000000000
10
9.9814061995
20
-11.2550566654
30
0.0000000000
10
9.9818029013
20
-11.2505062724
30
0.0000000000
10
9.9818190086
20
-11.2428097698
30
0.0000000000
10
9.9810145177
20
-11.2334669979
30
0.0000000000
10
9.9794348646
20
-11.2236694240
30
0.0000000000
10
9.9771234577
20
-11.2134699956
30
0.0000000000
10
9.9741209601
20
-11.2029200389
30
0.0000000000
10
9.9704664872
20
-11.1920698782
30
0.0000000000
10
9.9661986075
20
-11.1809695659
30
0.0000000000
10
9.9613562532
20
-11.1696695643
30
0.0000000000
10
9.9559796663
20
-11.1582215302
30
0.0000000000
10
9.9501112267
20
-11.1466788057
30
0.0000000000
10
9.9437963346
20
-11.1350969495
30
0.0000000000
10
9.9393437769
20
-11.1274266520
30
0.0000000000
10
9.9370547295
20
-11.1235941482
30
0.0000000000
11
9.9812078860
21
-11.2566699643
31
0.0000000000
11
9.9816396364
21
-11.2518135338
31
0.0000000000
11
9.9816933430
21
-11.2430009627
31
0.0000000000
11
9.9809190402
21
-11.2336652927
31
0.0000000000
11
9.9793639138
21
-11.2238665086
31
0.0000000000
11
9.9770717015
21
-11.2136604749
31
0.0000000000
11
9.9740836866
21
-11.2031003580
31
0.0000000000
11
9.9704396444
21
-11.1922376994
31
0.0000000000
11
9.9661786077
21
-11.1811230036
31
0.0000000000
11
9.9613399108
21
-11.1698070926
31
0.0000000000
11
9.9559640618
21
-11.1583417503
31
0.0000000000
11
9.9500936464
21
-11.1467804042
31
0.0000000000
11
9.9437741693
21
-11.1351786007
31
0.0000000000
11
9.9370547295
21
-11.1235941482
31
0.0000000000
0
SPLINE
5
377
100
AcDbEntity
8
0
100
AcDbSpline
62
7
6
CONTINUOUS
70
0
71
3
72
20
73
16
74
14
42
0.0000001000
43
0.0000001000
44
0.0000000001
12
-0.0209207914
22
-0.1694739215
32
0.0000000000
13
-0.1114857093
23
-0.1292772603
33
0.0000000000
40
0.0000000000
40
0.0000000000
40
0.0000000000
40
0.0000000000
40
0.0387501558
40
0.1075144560
40
0.1788932569
40
0.2528023155
40
0.3291112142
40
0.4076528517
40
0.4882296636
40
0.5706192696
40
0.6545714817
40
0.7398084307
40
0.8260228020
40
0.9128763581
40
1.0000000000
40
1.0000000000
40
1.0000000000
40
1.0000000000
10
9.1162565643
20
-18.2764136155
30
0.0000000000
10
9.1159863363
20
-18.2786026625
30
0.0000000000
10
9.1150806189
20
-18.2846571380
30
0.0000000000
10
9.1129350789
20
-18.2946176292
30
0.0000000000
10
9.1095456019
20
-18.3063257180
30
0.0000000000
10
9.1053012116
20
-18.3182068794
30
0.0000000000
10
9.1002580515
20
-18.3302136482
30
0.0000000000
10
9.0944692026
20
-18.3423002748
30
0.0000000000
10
9.0879858894
20
-18.3544220795
30
0.0000000000
10
9.0808586189
20
-18.3665347688
30
0.0000000000
10
9.0731382450
20
-18.3785938878
30
0.0000000000
10
9.0648771060
20
-18.3905542210
30
0.0000000000
10
9.0561299479
20
-18.4023695713
30
0.0000000000
10
9.0469549515
20
-18.4139924798
30
0.0000000000
10
9.0405943336
20
-18.4215806974
30
0.0000000000
10
9.0373566532
20
-18.4253350660
30
0.0000000000
11
9.1162565643
21
-18.2764136155
31
0.0000000000
11
9.1152836132
21
-18.2829580829
31
0.0000000000
11
9.1128368238
21
-18.2944389569
31
0.0000000000
11
9.1094692832
21
-18.3061494031
31
0.0000000000
11
9.1052420118
21
-18.3180371276
31
0.0000000000
11
9.1002116457
21
-18.3300533159
31
0.0000000000
11
9.0944317661
21
-18.3421513249
31
0.0000000000
11
9.0879540874
21
-18.3542858033
31
0.0000000000
11
9.0808293370
21
-18.3664123438
31
0.0000000000
11
9.0731086137
21
-18.3784862904
31
0.0000000000
11
9.0648443841
21
-18.3904623750
31
0.0000000000
11
9.0560915188
21
-18.4022943237
31
0.0000000000
11
9.0469082123
21
-18.4139346960
31
0.0000000000
11
9.0373566532
21
-18.4253350660
31
0.0000000000
0
SPLINE
5
378
100
AcDbEntity
8
0
100
AcDbSpline
62
9
6
CONTINUOUS
70
0
71
3
72
14
73
10
74
8
42
0.0000001000
43
0.0000001000
44
0.0000000001
12
-0.0150159259
22
-0.0793355170
32
0.0000000000
13
-0.0792043440
23
0.0013914180
33
0.0000000000
40
0.0000000000
40
0.0000000000
40
0.0000000000
40
0.0000000000
40
0.0274089062
40
0.0932706854
40
0.1972517185
40
0.3413175828
40
0.5246244067
40
0.7451264338
40
1.0000000000
40
1.0000000000
40
1.0000000000
40
1.0000000000
10
17.2195340959
20
-17.8581401746
30
0.0000000000
10
17.2193969059
20
-17.8588650078
30
0.0000000000
10
17.2182419287
20
-17.8613209686
30
0.0000000000
10
17.2130973496
20
-17.8632997751
30
0.0000000000
10
17.2052156385
20
-17.8654000244
30
0.0000000000
10
17.1938253116
20
-17.8668260883
30
0.0000000000
10
17.1794189805
20
-17.8678329551
30
0.0000000000
10
17.1620159876
20
-17.8682618644
30
0.0000000000
10
17.1494650461
20
-17.8681876362
30
0.0000000000
10
17.1427360149
20
-17.8680694243
30
0.0000000000
11
17.2195340959
21
-17.8581401746
31
0.0000000000
11
17.2186077610
21
-17.8601771598
31
0.0000000000
11
17.2141163991
21
-17.8628320319
31
0.0000000000
11
17.2061655347
21
-17.8649843000
31
0.0000000000
11
17.1948685497
21
-17.8666032718
31
0.0000000000
11
17.1803865431
21
-17.8676658601
31
0.0000000000
11
17.1629260337
21
-17.8681569118
31
0.0000000000
11
17.1427360149
21
-17.8680694243
31
0.0000000000
0
SPLINE
5
379
100
AcDbEntity
8
0
100
AcDbSpline
62
9
6
CONTINUOUS
70
0
71
3
72
14
73
10
74
8
42
0.0000001000
43
0.0000001000
44
0.0000000001
12
-0.0150031305
22
-0.0793363284
32
0.0000000000
13
-0.0792049782
23
0.0013914290
33
0.0000000000
40
0.0000000000
40
0.0000000000
40
0.0000000000
40
0.0000000000
40
0.0274167420
40
0.0932780241
40
0.1972582495
40
0.3413229696
40
0.5246283136
40
0.7451285381
40
1.0000000000
40
1.0000000000
40
1.0000000000
40
1.0000000000
10
17.9966776143
20
-11.5510239672
30
0.0000000000
10
17.9965405020
20
-11.5517490150
30
0.0000000000
10
17.9953855319
20
-11.5542053188
30
0.0000000000
10
17.9902407420
20
-11.5561842047
30
0.0000000000
10
17.9823590284
20
-11.5582844538
30
0.0000000000
10
17.9709687011
20
-11.5597105170
30
0.0000000000
10
17.9565623709
20
-11.5607173833
30
0.0000000000
10
17.9391593810
20
-11.5611462923
30
0.0000000000
10
17.9266084422
20
-11.5610720642
30
0.0000000000
10
17.9198794127
20
-11.5609538524
30
0.0000000000
11
17.9966776143
21
-11.5510239672
31
0.0000000000
11
17.9957511561
21
-11.5530615905
31
0.0000000000
11
17.9912597911
21
-11.5557164621
31
0.0000000000
11
17.9833089245
21
-11.5578687295
31
0.0000000000
11
17.9720119386
21
-11.5594877007
31
0.0000000000
11
17.9575299330
21
-11.5605502885
31
0.0000000000
11
17.9400694265
21
-11.5610413399
31
0.0000000000
11
17.9198794127
21
-11.5609538524
31
0.0000000000
0
SPLINE
5
37A
100
AcDbEntity
8
0
100
AcDbSpline
62
9
6
CONTINUOUS
70
0
71
3
72
9
73
5
74
3
42
0.0000001000
43
0.0000001000
44
0.0000000001
12
-0.0260210337
22
0.0062606164
32
0.0000000000
13
-0.0267159719
23
0.0008813202
33
0.0000000000
40
0.0000000000
40
0.0000000000
40
0.0000000000
40
0.0000000000
40
0.1857198214
40
1.0000000000
40
1.0000000000
40
1.0000000000
40
1.0000000000
10
17.7906085531
20
-11.2429551411
30
0.0000000000
10
17.7889976792
20
-11.2425675676
30
0.0000000000
10
17.7802836480
20
-11.2406457839
30
0.0000000000
10
17.7713838045
20
-11.2396247690
30
0.0000000000
10
17.7641323757
20
-11.2393855551
30
0.0000000000
11
17.7906085531
21
-11.2429551411
31
0.0000000000
11
17.7857545336
21
-11.2418848101
31
0.0000000000
11
17.7641323757
21
-11.2393855551
31
0.0000000000
0
SPLINE
5
37B
100
AcDbEntity
8
0
100
AcDbSpline
62
7
6
CONTINUOUS
70
0
71
3
72
15
73
11
74
9
42
0.0000001000
43
0.0000001000
44
0.0000000001
12
-0.0315877398
22
-0.2562032457
32
0.0000000000
13
-0.1317441103
23
-0.2219223370
33
0.0000000000
40
0.0000000000
40
0.0000000000
40
0.0000000000
40
0.0000000000
40
0.1100976163
40
0.2319585191
40
0.3558204580
40
0.4816232606
40
0.6092122287
40
0.7383599839
40
0.8687551827
40
1.0000000000
40
1.0000000000
40
1.0000000000
40
1.0000000000
10
13.1096742974
20
14.1332392427
30
0.0000000000
10
13.1085150524
20
14.1238367872
30
0.0000000000
10
13.1053663559
20
14.1041160417
30
0.0000000000
10
13.0985441173
20
14.0742535980
30
0.0000000000
10
13.0895154606
20
14.0435752088
30
0.0000000000
10
13.0786394609
20
14.0129819371
30
0.0000000000
10
13.0660731063
20
13.9825534122
30
0.0000000000
10
13.0519652503
20
13.9523735243
30
0.0000000000
10
13.0364624728
20
13.9225332475
30
0.0000000000
10
13.0253184134
20
13.9029705050
30
0.0000000000
10
13.0195548361
20
13.8932617861
30
0.0000000000
11
13.1096742974
21
14.1332392427
31
0.0000000000
11
13.1052334547
21
14.1051732453
31
0.0000000000
11
13.0982725581
21
14.0745032138
31
0.0000000000
11
13.0892843934
21
14.0438263819
31
0.0000000000
11
13.0784398478
21
14.0132236710
31
0.0000000000
11
13.0658965431
21
13.9827779576
31
0.0000000000
11
13.0518032288
21
13.9525734871
31
0.0000000000
11
13.0363062551
21
13.9227014254
31
0.0000000000
11
13.0195548361
21
13.8932617861
31
0.0000000000
0
SPLINE
5
37C
100
AcDbEntity
8
0
100
AcDbSpline
62
9
6
CONTINUOUS
70
0
71
3
72
9
73
5
74
3
42
0.0000001000
43
0.0000001000
44
0.0000000001
12
-0.0965537219
22
0.0232120722
32
0.0000000000
13
-0.0991662502
23
0.0041961701
33
0.0000000000
40
0.0000000000
40
0.0000000000
40
0.0000000000
40
0.0000000000
40
0.4102780837
40
1.0000000000
40
1.0000000000
40
1.0000000000
40
1.0000000000
10
13.1609500586
20
19.9472732184
30
0.0000000000
10
13.1477454333
20
19.9504476865
30
0.0000000000
10
13.1152501091
20
19.9568960551
30
0.0000000000
10
13.0822413350
20
19.9601555562
30
0.0000000000
10
13.0627478313
20
19.9609804140
30
0.0000000000
11
13.1609500586
21
19.9472732184
31
0.0000000000
11
13.1209947666
21
19.9552021591
31
0.0000000000
11
13.0627478313
21
19.9609804140
31
0.0000000000
0
SPLINE
5
37D
100
AcDbEntity
8
0
100
AcDbSpline
62
9
6
CONTINUOUS
70
0
71
3
72
9
73
5
74
3
42
0.0000001000
43
0.0000001000
44
0.0000000001
12
0.0339575925
22
-0.0080508671
32
0.0000000000
13
0.0311340720
23
-0.0158236742
33
0.0000000000
40
0.0000000000
40
0.0000000000
40
0.0000000000
40
0.0000000000
40
0.5952012254
40
1.0000000000
40
1.0000000000
40
1.0000000000
40
1.0000000000
10
17.7641323757
20
-11.2393855551
30
0.0000000000
10
17.7708695759
20
-11.2409828504
30
0.0000000000
10
17.7820037321
20
-11.2445166101
30
0.0000000000
10
17.7926194936
20
-11.2493241497
30
0.0000000000
10
17.7968205050
20
-11.2514592843
30
0.0000000000
11
17.7641323757
21
-11.2393855551
31
0.0000000000
11
17.7839400539
21
-11.2456407016
31
0.0000000000
11
17.7968205050
21
-11.2514592843
31
0.0000000000
0
SPLINE
5
37E
100
AcDbEntity
8
0
100
AcDbSpline
62
9
6
CONTINUOUS
70
0
71
3
72
21
73
17
74
15
42
0.0000001000
43
0.0000001000
44
0.0000000001
12
0.3146499705
22
-0.1599186450
32
0.0000000000
13
-0.0450883267
23
-0.3498047323
33
0.0000000000
40
0.0000000000
40
0.0000000000
40
0.0000000000
40
0.0000000000
40
0.0203246943
40
0.0826739731
40
0.1473489241
40
0.2145736860
40
0.2844439894
40
0.3569336365
40
0.4319121172
40
0.5091571143
40
0.5883709949
40
0.6691927233
40
0.7512169230
40
0.8340025744
40
0.9170851387
40
1.0000000000
40
1.0000000000
40
1.0000000000
40
1.0000000000
10
17.7968205050
20
-11.2514592843
30
0.0000000000
10
17.7989522265
20
-11.2525427168
30
0.0000000000
10
17.8075225535
20
-11.2571477562
30
0.0000000000
10
17.8220231200
20
-11.2667149282
30
0.0000000000
10
17.8394138536
20
-11.2816008823
30
0.0000000000
10
17.8555710007
20
-11.2990354499
30
0.0000000000
10
17.8703244614
20
-11.3188244230
30
0.0000000000
10
17.8835194068
20
-11.3407506926
30
0.0000000000
10
17.8950165890
20
-11.3645752657
30
0.0000000000
10
17.9046942032
20
-11.3900394899
30
0.0000000000
10
17.9124491472
20
-11.4168669606
30
0.0000000000
10
17.9181985531
20
-11.4447667242
30
0.0000000000
10
17.9218808046
20
-11.4734358258
30
0.0000000000
10
17.9234562748
20
-11.5025633583
30
0.0000000000
10
17.9229083815
20
-11.5318311369
30
0.0000000000
10
17.9211255768
20
-11.5512858487
30
0.0000000000
10
17.9198794127
20
-11.5609538524
30
0.0000000000
11
17.7968205050
21
-11.2514592843
31
0.0000000000
11
17.8031398562
21
-11.2548530430
31
0.0000000000
11
17.8215224378
21
-11.2669221338
31
0.0000000000
11
17.8388858605
21
-11.2817154621
31
0.0000000000
11
17.8550399568
21
-11.2990709529
31
0.0000000000
11
17.8698080481
21
-11.3187988203
31
0.0000000000
11
17.8830280919
21
-11.3406826456
31
0.0000000000
11
17.8945553734
21
-11.3644828459
31
0.0000000000
11
17.9042635858
21
-11.3899386352
31
0.0000000000
11
17.9120464392
21
-11.4167713387
31
0.0000000000
11
17.9178185646
21
-11.4446865341
31
0.0000000000
11
17.9215168663
21
-11.4733789915
31
0.0000000000
11
17.9231007923
21
-11.5025343822
31
0.0000000000
11
17.9225529885
21
-11.5318323661
31
0.0000000000
11
17.9198794127
21
-11.5609538524
31
0.0000000000
0
SPLINE
5
37F
100
AcDbEntity
8
0
100
AcDbSpline
62
9
6
CONTINUOUS
70
0
71
3
72
21
73
17
74
15
42
0.0000001000
43
0.0000001000
44
0.0000000001
12
-0.0382011337
22
-0.3250043949
32
0.0000000000
13
-0.3274459314
23
-0.0073278573
33
0.0000000000
40
0.0000000000
40
0.0000000000
40
0.0000000000
40
0.0000000000
40
0.0885372007
40
0.1758318735
40
0.2614421021
40
0.3449678704
40
0.4260764707
40
0.5045165134
40
0.5801301804
40
0.6528741773
40
0.7228321389
40
0.7902278068
40
0.8554277273
40
0.9189393850
40
0.9813859423
40
1.0000000000
40
1.0000000000
40
1.0000000000
40
1.0000000000
10
17.1427360148
20
-17.8680694243
30
0.0000000000
10
17.1416086077
20
-17.8776610841
30
0.0000000000
10
17.1386727951
20
-17.8966359074
30
0.0000000000
10
17.1322054138
20
-17.9244382175
30
0.0000000000
10
17.1237662811
20
-17.9511374445
30
0.0000000000
10
17.1134459143
20
-17.9764420734
30
0.0000000000
10
17.1013544478
20
-18.0000779281
30
0.0000000000
10
17.0876203246
20
-18.0217881899
30
0.0000000000
10
17.0723886686
20
-18.0413364190
30
0.0000000000
10
17.0558199020
20
-18.0585080393
30
0.0000000000
10
17.0380881784
20
-18.0731120538
30
0.0000000000
10
17.0193809815
20
-18.0849819184
30
0.0000000000
10
16.9998986959
20
-18.0939772575
30
0.0000000000
10
16.9798558242
20
-18.0999865382
30
0.0000000000
10
16.9641886457
20
-18.1022502572
30
0.0000000000
10
16.9553456634
20
-18.1026483231
30
0.0000000000
10
16.9533139642
20
-18.1026937901
30
0.0000000000
11
17.1427360148
21
-17.8680694243
31
0.0000000000
11
17.1382935861
21
-17.8966998921
31
0.0000000000
11
17.1318035552
21
-17.9245193525
31
0.0000000000
11
17.1233366720
21
-17.9512245162
31
0.0000000000
11
17.1129859137
21
-17.9765219729
31
0.0000000000
11
17.1008646764
21
-18.0001346790
31
0.0000000000
11
17.0871055090
21
-18.0218043733
31
0.0000000000
11
17.0718593513
21
-18.0412932878
31
0.0000000000
11
17.0552931168
21
-18.0583880810
31
0.0000000000
11
17.0375883269
21
-18.0729014388
31
0.0000000000
11
17.0189388004
21
-18.0846744587
31
0.0000000000
11
16.9995491707
21
-18.0935780001
31
0.0000000000
11
16.9796314394
21
-18.0995147364
31
0.0000000000
11
16.9594038299
21
-18.1024195682
31
0.0000000000
11
16.9533139642
21
-18.1026937901
31
0.0000000000
0
SPLINE
5
380
100
AcDbEntity
8
0
100
AcDbSpline
62
9
6
CONTINUOUS
70
0
71
3
72
8
73
4
74
2
42
0.0000001000
43
0.0000001000
44
0.0000000001
12
-0.0037677379
22
-0.0000843176
32
0.0000000000
13
-0.0037687728
23
0.0000210155
33
0.0000000000
40
0.0000000000
40
0.0000000000
40
0.0000000000
40
0.0000000000
40
1.0000000000
40
1.0000000000
40
1.0000000000
40
1.0000000000
10
16.9533139642
20
-18.1026937901
30
0.0000000000
10
16.9520580516
20
-18.1027218960
30
0.0000000000
10
16.9508017288
20
-18.1027324467
30
0.0000000000
10
16.9495454712
20
-18.1027254416
30
0.0000000000
11
16.9533139642
21
-18.1026937901
31
0.0000000000
11
16.9495454712
21
-18.1027254416
31
0.0000000000
0
SPLINE
5
381
100
AcDbEntity
8
0
100
AcDbSpline
62
9
6
CONTINUOUS
70
0
71
3
72
23
73
19
74
17
42
0.0000001000
43
0.0000001000
44
0.0000000001
12
0.0931491295
22
0.6851473839
32
0.0000000000
13
-0.6728290226
23
0.1593888466
33
0.0000000000
40
0.0000000000
40
0.0000000000
40
0.0000000000
40
0.0000000000
40
0.0707960163
40
0.1417430668
40
0.2124666648
40
0.2826224900
40
0.3518779934
40
0.4199242057
40
0.4864829742
40
0.5513163794
40
0.6142361090
40
0.6751132595
40
0.7338881698
40
0.7905798288
40
0.8452939175
40
0.8982279876
40
0.9496717341
40
1.0000000000
40
1.0000000000
40
1.0000000000
40
1.0000000000
10
19.6146262063
20
13.6185155929
30
0.0000000000
10
19.6168244021
20
13.6346841614
30
0.0000000000
10
19.6201073053
20
13.6672187499
30
0.0000000000
10
19.6216863350
20
13.7161995553
30
0.0000000000
10
19.6199178709
20
13.7650290212
30
0.0000000000
10
19.6148179174
20
13.8132318892
30
0.0000000000
10
19.6064347319
20
13.8603484468
30
0.0000000000
10
19.5948474721
20
13.9059283004
30
0.0000000000
10
19.5801653282
20
13.9495364078
30
0.0000000000
10
19.5625262577
20
13.9907564862
30
0.0000000000
10
19.5420954147
20
14.0291948913
30
0.0000000000
10
19.5190633152
20
14.0644839044
30
0.0000000000
10
19.4936440107
20
14.0962845296
30
0.0000000000
10
19.4660729714
20
14.1242888209
30
0.0000000000
10
19.4366068572
20
14.1482214526
30
0.0000000000
10
19.4055187851
20
14.1678424184
30
0.0000000000
10
19.3731127584
20
14.1829462644
30
0.0000000000
10
19.3506378556
20
14.1899569560
30
0.0000000000
10
19.3393504163
20
14.1926308775
30
0.0000000000
11
19.6146262063
21
13.6185155929
31
0.0000000000
11
19.6195476235
21
13.6672195116
31
0.0000000000
11
19.6211273214
21
13.7162504391
31
0.0000000000
11
19.6193478576
21
13.7651199147
31
0.0000000000
11
19.6142262789
21
13.8133580660
31
0.0000000000
11
19.6058119205
21
13.8604997586
31
0.0000000000
11
19.5941857698
21
13.9060913144
31
0.0000000000
11
19.5794597498
21
13.9496938031
31
0.0000000000
11
19.5617756154
21
13.9908874718
31
0.0000000000
11
19.5413036089
21
14.0292757256
31
0.0000000000
11
19.5182408156
21
14.0644889758
31
0.0000000000
11
19.4928092666
21
14.0961881999
31
0.0000000000
11
19.4652537999
21
14.1240682081
31
0.0000000000
11
19.4358397014
21
14.1478605830
31
0.0000000000
11
19.4048501534
21
14.1673362606
31
0.0000000000
11
19.3725835037
21
14.1823077394
31
0.0000000000
11
19.3393504163
21
14.1926308775
31
0.0000000000
0
SPLINE
5
382
100
AcDbEntity
8
0
100
AcDbSpline
62
7
6
CONTINUOUS
70
0
71
3
72
9
73
5
74
3
42
0.0000001000
43
0.0000001000
44
0.0000000001
12
0.0557256950
22
-0.0009789580
32
0.0000000000
13
0.0542293984
23
-0.0130429982
33
0.0000000000
40
0.0000000000
40
0.0000000000
40
0.0000000000
40
0.0000000000
40
0.6289621327
40
1.0000000000
40
1.0000000000
40
1.0000000000
40
1.0000000000
10
14.7672869695
20
-18.1269564949
30
0.0000000000
10
14.7789700868
20
-18.1271617374
30
0.0000000000
10
14.7975496796
20
-18.1287414684
30
0.0000000000
10
14.8158050999
20
-18.1323495486
30
0.0000000000
10
14.8225121534
20
-18.1339626973
30
0.0000000000
11
14.7672869695
21
-18.1269564949
31
0.0000000000
11
14.8022135670
21
-18.1299513208
31
0.0000000000
11
14.8225121534
21
-18.1339626973
31
0.0000000000
0
SPLINE
5
383
100
AcDbEntity
8
0
100
AcDbSpline
62
9
6
CONTINUOUS
70
0
71
3
72
19
73
15
74
13
42
0.0000001000
43
0.0000001000
44
0.0000000001
12
0.2690569918
22
-0.0637381349
32
0.0000000000
13
-0.0372491897
23
-0.2739830516
33
0.0000000000
40
0.0000000000
40
0.0000000000
40
0.0000000000
40
0.0000000000
40
0.0673089143
40
0.1368338109
40
0.2093638650
40
0.2854039948
40
0.3651703031
40
0.4486133825
40
0.5354550380
40
0.6252292933
40
0.7173232428
40
0.8110161976
40
0.9055170038
40
1.0000000000
40
1.0000000000
40
1.0000000000
40
1.0000000000
10
15.5418474838
20
-18.3119359864
30
0.0000000000
10
15.5478841285
20
-18.3133660347
30
0.0000000000
10
15.5599087170
20
-18.3174316482
30
0.0000000000
10
15.5769008820
20
-18.3267591316
30
0.0000000000
10
15.5927912557
20
-18.3392036398
30
0.0000000000
10
15.6073123362
20
-18.3545321508
30
0.0000000000
10
15.6202340694
20
-18.3724748119
30
0.0000000000
10
15.6313489390
20
-18.3927239147
30
0.0000000000
10
15.6404778254
20
-18.4149367419
30
0.0000000000
10
15.6474719707
20
-18.4387389161
30
0.0000000000
10
15.6522165668
20
-18.4637292359
30
0.0000000000
10
15.6546331683
20
-18.4894871309
30
0.0000000000
10
15.6546822115
20
-18.5155750658
30
0.0000000000
10
15.6531305098
20
-18.5329528583
30
0.0000000000
10
15.6519573714
20
-18.5415817715
30
0.0000000000
11
15.5418474838
21
-18.3119359864
31
0.0000000000
11
15.5594916064
21
-18.3178571339
31
0.0000000000
11
15.5763745194
21
-18.3270508736
31
0.0000000000
11
15.5922074636
21
-18.3393599591
31
0.0000000000
11
15.6067196384
21
-18.3545738607
31
0.0000000000
11
15.6196628331
21
-18.3724323653
31
0.0000000000
11
15.6308156720
21
-18.3926300279
31
0.0000000000
11
15.6399874012
21
-18.4148213954
31
0.0000000000
11
15.6470211508
21
-18.4386269148
31
0.0000000000
11
15.6517966184
21
-18.4636394257
31
0.0000000000
11
15.6542321259
21
-18.4894311234
31
0.0000000000
11
15.6542860175
21
-18.5155608765
31
0.0000000000
11
15.6519573714
21
-18.5415817715
31
0.0000000000
0
SPLINE
5
384
100
AcDbEntity
8
0
100
AcDbSpline
62
9
6
CONTINUOUS
70
0
71
3
72
16
73
12
74
10
42
0.0000001000
43
0.0000001000
44
0.0000000001
12
0.1775524296
22
-0.0056810647
32
0.0000000000
13
-0.0217391908
23
-0.1771632361
33
0.0000000000
40
0.0000000000
40
0.0000000000
40
0.0000000000
40
0.0000000000
40
0.1704518558
40
0.3231274073
40
0.4600937489
40
0.5810132837
40
0.6862581410
40
0.7783614998
40
0.8612054798
40
0.9421278960
40
1.0000000000
40
1.0000000000
40
1.0000000000
40
1.0000000000
10
15.6519578298
20
-18.5415818799
30
0.0000000000
10
15.6620458769
20
-18.5419046626
30
0.0000000000
10
15.6811608202
20
-18.5430209585
30
0.0000000000
10
15.7082149134
20
-18.5464319284
30
0.0000000000
10
15.7320309890
20
-18.5514909617
30
0.0000000000
10
15.7525044644
20
-18.5582451982
30
0.0000000000
10
15.7694219880
20
-18.5667542376
30
0.0000000000
10
15.7825525417
20
-18.5771515056
30
0.0000000000
10
15.7914934426
20
-18.5897079205
30
0.0000000000
10
15.7949983562
20
-18.6026540126
30
0.0000000000
10
15.7947827581
20
-18.6109415346
30
0.0000000000
10
15.7943633939
20
-18.6143591377
30
0.0000000000
11
15.6519578298
21
-18.5415818799
31
0.0000000000
11
15.6821804951
21
-18.5434383392
31
0.0000000000
11
15.7090748393
21
-18.5469434248
31
0.0000000000
11
15.7328434056
21
-18.5521453682
31
0.0000000000
11
15.7531796845
21
-18.5590627052
31
0.0000000000
11
15.7697673571
21
-18.5676877353
31
0.0000000000
11
15.7824084960
21
-18.5780753110
31
0.0000000000
11
15.7907589078
21
-18.5901935295
31
0.0000000000
11
15.7945434762
21
-18.6040617304
31
0.0000000000
11
15.7943633939
21
-18.6143591377
31
0.0000000000
0
SPLINE
5
385
100
AcDbEntity
8
0
100
AcDbSpline
62
9
6
CONTINUOUS
70
0
71
3
72
9
73
5
74
3
42
0.0000001000
43
0.0000001000
44
0.0000000001
12
0.0477188872
22
-0.0020504560
32
0.0000000000
13
0.0464731060
23
-0.0111645162
33
0.0000000000
40
0.0000000000
40
0.0000000000
40
0.0000000000
40
0.0000000000
40
0.6486291655
40
1.0000000000
40
1.0000000000
40
1.0000000000
40
1.0000000000
10
15.5418475138
20
-18.3119357661
30
0.0000000000
10
15.5521648011
20
-18.3123790946
30
0.0000000000
10
15.5680544042
20
-18.3139244431
30
0.0000000000
10
15.5836912070
20
-18.3170450292
30
0.0000000000
10
15.5891343050
20
-18.3183526577
30
0.0000000000
11
15.5418475138
21
-18.3119357661
31
0.0000000000
11
15.5726713630
21
-18.3150465445
31
0.0000000000
11
15.5891343050
21
-18.3183526577
31
0.0000000000
0
SPLINE
5
386
100
AcDbEntity
8
0
100
AcDbSpline
62
9
6
CONTINUOUS
70
0
71
3
72
19
73
15
74
13
42
0.0000001000
43
0.0000001000
44
0.0000000001
12
0.2698823024
22
-0.0638111700
32
0.0000000000
13
-0.0339144673
23
-0.2752419508
33
0.0000000000
40
0.0000000000
40
0.0000000000
40
0.0000000000
40
0.0000000000
40
0.0671932383
40
0.1367265387
40
0.2093572819
40
0.2855541156
40
0.3654972775
40
0.4491047915
40
0.5360705170
40
0.6259055626
40
0.7179791141
40
0.8115574103
40
0.9058408849
40
1.0000000000
40
1.0000000000
40
1.0000000000
40
1.0000000000
10
15.5355454283
20
-18.3117406193
30
0.0000000000
10
15.5415901836
20
-18.3131698457
30
0.0000000000
10
15.5536425820
20
-18.3172373621
30
0.0000000000
10
15.5706994660
20
-18.3265618425
30
0.0000000000
10
15.5866966039
20
-18.3390040545
30
0.0000000000
10
15.6013651482
20
-18.3543318827
30
0.0000000000
10
15.6144724025
20
-18.3722761715
30
0.0000000000
10
15.6258072838
20
-18.3925295244
30
0.0000000000
10
15.6351865074
20
-18.4147491937
30
0.0000000000
10
15.6424567227
20
-18.4385605518
30
0.0000000000
10
15.6474981956
20
-18.4635620262
30
0.0000000000
10
15.6502273025
20
-18.4893326280
30
0.0000000000
10
15.6505990564
20
-18.5154343757
30
0.0000000000
10
15.6492656041
20
-18.5328318562
30
0.0000000000
10
15.6482011521
20
-18.5414707023
30
0.0000000000
11
15.5355454283
21
-18.3117406193
31
0.0000000000
11
15.5532158192
21
-18.3176561141
31
0.0000000000
11
15.5701678084
21
-18.3268470097
31
0.0000000000
11
15.5861113428
21
-18.3391560473
31
0.0000000000
11
15.6007736241
21
-18.3543726158
31
0.0000000000
11
15.6139037765
21
-18.3722363556
31
0.0000000000
11
15.6252771395
21
-18.3924416130
31
0.0000000000
11
15.6346991118
21
-18.4146426707
31
0.0000000000
11
15.6420084808
21
-18.4384596622
31
0.0000000000
11
15.6470801811
21
-18.4634850723
31
0.0000000000
11
15.6498274346
21
-18.4892907092
31
0.0000000000
11
15.6502032349
21
-18.5154350315
31
0.0000000000
11
15.6482011521
21
-18.5414707023
31
0.0000000000
0
SPLINE
5
387
100
AcDbEntity
8
0
100
AcDbSpline
62
9
6
CONTINUOUS
70
0
71
3
72
9
73
5
74
3
42
0.0000001000
43
0.0000001000
44
0.0000000001
12
0.0037578108
22
-0.0000660146
32
0.0000000000
13
0.0037551335
23
-0.0001564364
33
0.0000000000
40
0.0000000000
40
0.0000000000
40
0.0000000000
40
0.0000000000
40
0.5003004392
40
1.0000000000
40
1.0000000000
40
1.0000000000
40
1.0000000000
10
15.6482011521
20
-18.5414707023
30
0.0000000000
10
15.6488278302
20
-18.5414817114
30
0.0000000000
10
15.6500803131
20
-18.5415112312
30
0.0000000000
10
15.6513323503
20
-18.5415558228
30
0.0000000000
10
15.6519578298
20
-18.5415818799
30
0.0000000000
11
15.6482011521
21
-18.5414707023
31
0.0000000000
11
15.6500809542
21
-18.5415150214
31
0.0000000000
11
15.6519578298
21
-18.5415818799
31
0.0000000000
0
SPLINE
5
388
100
AcDbEntity
8
0
100
AcDbSpline
62
9
6
CONTINUOUS
70
0
71
3
72
9
73
5
74
3
42
0.0000001000
43
0.0000001000
44
0.0000000001
12
0.0063040794
22
-0.0001198669
32
0.0000000000
13
0.0062994103
23
-0.0002705824
33
0.0000000000
40
0.0000000000
40
0.0000000000
40
0.0000000000
40
0.0000000000
40
0.5003067161
40
1.0000000000
40
1.0000000000
40
1.0000000000
40
1.0000000000
10
15.5355454283
20
-18.3117406193
30
0.0000000000
10
15.5365967528
20
-18.3117606094
30
0.0000000000
10
15.5386978932
20
-18.3118130923
30
0.0000000000
10
15.5407982561
20
-18.3118906967
30
0.0000000000
10
15.5418475138
20
-18.3119357661
30
0.0000000000
11
15.5355454283
21
-18.3117406193
31
0.0000000000
11
15.5386989875
21
-18.3118194126
31
0.0000000000
11
15.5418475138
21
-18.3119357661
31
0.0000000000
0
SPLINE
5
389
100
AcDbEntity
8
0
100
AcDbSpline
62
9
6
CONTINUOUS
70
0
71
3
72
17
73
13
74
11
42
0.0000001000
43
0.0000001000
44
0.0000000001
12
-0.0272421027
22
-0.2210905871
32
0.0000000000
13
-0.2208117548
23
-0.0315370302
33
0.0000000000
40
0.0000000000
40
0.0000000000
40
0.0000000000
40
0.0000000000
40
0.1160403548
40
0.2299240352
40
0.3407708909
40
0.4478431620
40
0.5505947352
40
0.6487224653
40
0.7422172064
40
0.8314081951
40
0.9169881549
40
1.0000000000
40
1.0000000000
40
1.0000000000
40
1.0000000000
10
16.5478992283
20
-11.2397297845
30
0.0000000000
10
16.5468455006
20
-11.2482815946
30
0.0000000000
10
16.5439819682
20
-11.2651420501
30
0.0000000000
10
16.5374011746
20
-11.2896138338
30
0.0000000000
10
16.5286708801
20
-11.3126989258
30
0.0000000000
10
16.5179352805
20
-11.3340053433
30
0.0000000000
10
16.5053697007
20
-11.3531741132
30
0.0000000000
10
16.4911775468
20
-11.3698795217
30
0.0000000000
10
16.4755870371
20
-11.3838332701
30
0.0000000000
10
16.4588493761
20
-11.3947858302
30
0.0000000000
10
16.4412411184
20
-11.4025289592
30
0.0000000000
10
16.4290006596
20
-11.4054734498
30
0.0000000000
10
16.4228906626
20
-11.4063460989
30
0.0000000000
11
16.5478992283
21
-11.2397297845
31
0.0000000000
11
16.5435535185
21
-11.2652113265
31
0.0000000000
11
16.5369385380
21
-11.2897027434
31
0.0000000000
11
16.5281674710
21
-11.3127849802
31
0.0000000000
11
16.5173903928
21
-11.3340630935
31
0.0000000000
11
16.5047917023
21
-11.3531730088
31
0.0000000000
11
16.4905869665
21
-11.3697877502
31
0.0000000000
11
16.4750192325
21
-11.3836230349
31
0.0000000000
11
16.4583548684
21
-11.3944421372
31
0.0000000000
11
16.4408790061
21
-11.4020599395
31
0.0000000000
11
16.4228906626
21
-11.4063460989
31
0.0000000000
0
SPLINE
5
38A
100
AcDbEntity
8
0
100
AcDbSpline
62
9
6
CONTINUOUS
70
0
71
3
72
8
73
4
74
2
42
0.0000001000
43
0.0000001000
44
0.0000000001
12
-0.0068798312
22
-0.0009825992
32
0.0000000000
13
-0.0069328226
23
-0.0004918360
33
0.0000000000
40
0.0000000000
40
0.0000000000
40
0.0000000000
40
0.0000000000
40
1.0000000000
40
1.0000000000
40
1.0000000000
40
1.0000000000
10
16.4228906626
20
-11.4063460989
30
0.0000000000
10
16.4205973855
20
-11.4066736319
30
0.0000000000
10
16.4182924165
20
-11.4069198567
30
0.0000000000
10
16.4159814757
20
-11.4070838020
30
0.0000000000
11
16.4228906626
21
-11.4063460989
31
0.0000000000
11
16.4159814757
21
-11.4070838020
31
0.0000000000
0
SPLINE
5
38B
100
AcDbEntity
8
0
100
AcDbSpline
62
9
6
CONTINUOUS
70
0
71
3
72
8
73
4
74
2
42
0.0000001000
43
0.0000001000
44
0.0000000001
12
-0.0052082853
22
-0.0003694919
32
0.0000000000
13
-0.0052212321
23
-0.0000896369
33
0.0000000000
40
0.0000000000
40
0.0000000000
40
0.0000000000
40
0.0000000000
40
1.0000000000
40
1.0000000000
40
1.0000000000
40
1.0000000000
10
16.4159814757
20
-11.4070838020
30
0.0000000000
10
16.4142453806
20
-11.4072069660
30
0.0000000000
10
16.4125059151
20
-11.4072836933
30
0.0000000000
10
16.4107655044
20
-11.4073135723
30
0.0000000000
11
16.4159814757
21
-11.4070838020
31
0.0000000000
11
16.4107655044
21
-11.4073135723
31
0.0000000000
0
SPLINE
5
38C
100
AcDbEntity
8
0
100
AcDbSpline
62
9
6
CONTINUOUS
70
0
71
3
72
8
73
4
74
2
42
0.0000001000
43
0.0000001000
44
0.0000000001
12
-0.0033505823
22
-0.0000575220
32
0.0000000000
13
-0.0033509950
23
0.0000585597
33
0.0000000000
40
0.0000000000
40
0.0000000000
40
0.0000000000
40
0.0000000000
40
1.0000000000
40
1.0000000000
40
1.0000000000
40
1.0000000000
10
16.4107655044
20
-11.4073135723
30
0.0000000000
10
16.4096486436
20
-11.4073327463
30
0.0000000000
10
16.4085313936
20
-11.4073326278
30
0.0000000000
10
16.4074143953
20
-11.4073131079
30
0.0000000000
11
16.4107655044
21
-11.4073135723
31
0.0000000000
11
16.4074143953
21
-11.4073131079
31
0.0000000000
0
SPLINE
5
38D
100
AcDbEntity
8
0
100
AcDbSpline
62
9
6
CONTINUOUS
70
0
71
3
72
9
73
5
74
3
42
0.0000001000
43
0.0000001000
44
0.0000000001
12
0.0037673330
22
-0.0000661830
32
0.0000000000
13
0.0037678376
23
0.0000240486
33
0.0000000000
40
0.0000000000
40
0.0000000000
40
0.0000000000
40
0.0000000000
40
0.4996668734
40
1.0000000000
40
1.0000000000
40
1.0000000000
40
1.0000000000
10
16.5478992283
20
-11.2397297845
30
0.0000000000
10
16.5485266988
20
-11.2397408077
30
0.0000000000
10
16.5497826202
20
-11.2397553256
30
0.0000000000
10
16.5510386252
20
-11.2397548034
30
0.0000000000
10
16.5516670165
20
-11.2397507926
30
0.0000000000
11
16.5478992283
21
-11.2397297845
31
0.0000000000
11
16.5497818043
21
-11.2397515609
31
0.0000000000
11
16.5516670165
21
-11.2397507926
31
0.0000000000
0
SPLINE
5
38E
100
AcDbEntity
8
0
100
AcDbSpline
62
9
6
CONTINUOUS
70
0
71
3
72
18
73
14
74
12
42
0.0000001000
43
0.0000001000
44
0.0000000001
12
-0.0257692264
22
-0.2332373576
32
0.0000000000
13
-0.2350166926
23
-0.0015823012
33
0.0000000000
40
0.0000000000
40
0.0000000000
40
0.0000000000
40
0.0000000000
40
0.1099188011
40
0.2176673485
40
0.3224203130
40
0.4234935999
40
0.5203915904
40
0.6128563199
40
0.7009160396
40
0.7849264923
40
0.8655919526
40
0.9439470388
40
1.0000000000
40
1.0000000000
40
1.0000000000
40
1.0000000000
10
16.5516669271
20
-11.2397507715
30
0.0000000000
10
16.5507227530
20
-11.2482964950
30
0.0000000000
10
16.5480792050
20
-11.2651450919
30
0.0000000000
10
16.5418233582
20
-11.2896150630
30
0.0000000000
10
16.5334076622
20
-11.3126996347
30
0.0000000000
10
16.5229706887
20
-11.3340071088
30
0.0000000000
10
16.5106823191
20
-11.3531786998
30
0.0000000000
10
16.4967407225
20
-11.3698886848
30
0.0000000000
10
16.4813692774
20
-11.3838483890
30
0.0000000000
10
16.4648151012
20
-11.3948074229
30
0.0000000000
10
16.4473519279
20
-11.4025563588
30
0.0000000000
10
16.4309075973
20
-11.4065391712
30
0.0000000000
10
16.4203854979
20
-11.4073305436
30
0.0000000000
10
16.4159943707
20
-11.4073601079
30
0.0000000000
11
16.5516669271
21
-11.2397507715
31
0.0000000000
11
16.5476499822
21
-11.2652292302
31
0.0000000000
11
16.5413590255
21
-11.2897179998
31
0.0000000000
11
16.5329016552
21
-11.3127982331
31
0.0000000000
11
16.5224225230
21
-11.3340751745
31
0.0000000000
11
16.5101008602
21
-11.3531849107
31
0.0000000000
11
16.4961474120
21
-11.3698005959
31
0.0000000000
11
16.4808008330
21
-11.3836380415
31
0.0000000000
11
16.4643236056
21
-11.3944605768
31
0.0000000000
11
16.4469975501
21
-11.4020830972
31
0.0000000000
11
16.4291190052
21
-11.4063752298
31
0.0000000000
11
16.4159943707
21
-11.4073601079
31
0.0000000000
0
SPLINE
5
38F
100
AcDbEntity
8
0
100
AcDbSpline
62
9
6
CONTINUOUS
70
0
71
3
72
16
73
12
74
10
42
0.0000001000
43
0.0000001000
44
0.0000000001
12
0.2208721294
22
-0.0006991246
32
0.0000000000
13
0.0271267792
23
0.2195396683
33
0.0000000000
40
0.0000000000
40
0.0000000000
40
0.0000000000
40
0.0000000000
40
0.1386613605
40
0.2664294870
40
0.3856617897
40
0.4974895293
40
0.6036847614
40
0.7074987227
40
0.8120774062
40
0.9216345062
40
1.0000000000
40
1.0000000000
40
1.0000000000
40
1.0000000000
10
16.5516670165
20
-11.2397507926
30
0.0000000000
10
16.5618758265
20
-11.2397831065
30
0.0000000000
10
16.5815124897
20
-11.2389788360
30
0.0000000000
10
16.6096562103
20
-11.2347802388
30
0.0000000000
10
16.6351668739
20
-11.2275999211
30
0.0000000000
10
16.6578948756
20
-11.2173334778
30
0.0000000000
10
16.6775686647
20
-11.2038801880
30
0.0000000000
10
16.6938401420
20
-11.1871630320
30
0.0000000000
10
16.7063335999
20
-11.1671535048
30
0.0000000000
10
16.7136703048
20
-11.1467432032
30
0.0000000000
10
16.7161820618
20
-11.1330929057
30
0.0000000000
10
16.7168906630
20
-11.1273581275
30
0.0000000000
11
16.5516670165
21
-11.2397507926
31
0.0000000000
11
16.5822628246
21
-11.2383781533
31
0.0000000000
11
16.6101548104
21
-11.2340843082
31
0.0000000000
11
16.6354654464
21
-11.2268099866
31
0.0000000000
11
16.6579153120
21
-11.2165104032
31
0.0000000000
11
16.6772091035
21
-11.2031717846
31
0.0000000000
11
16.6931577861
21
-11.1866972030
31
0.0000000000
11
16.7054121622
21
-11.1671171857
31
0.0000000000
11
16.7137043164
21
-11.1443840696
31
0.0000000000
11
16.7168906630
21
-11.1273581275
31
0.0000000000
0
SPLINE
5
390
100
AcDbEntity
8
0
100
AcDbSpline
62
9
6
CONTINUOUS
70
0
71
3
72
8
73
4
74
2
42
0.0000001000
43
0.0000001000
44
0.0000000001
12
-0.0175760647
22
0.0042274546
32
0.0000000000
13
-0.0180922345
23
0.0008126134
33
0.0000000000
40
0.0000000000
40
0.0000000000
40
0.0000000000
40
0.0000000000
40
1.0000000000
40
1.0000000000
40
1.0000000000
40
1.0000000000
10
0.6008488630
20
20.3685125296
30
0.0000000000
10
0.5949901747
20
20.3699216811
30
0.0000000000
10
0.5889817647
20
20.3707803132
30
0.0000000000
10
0.5829510198
20
20.3710511844
30
0.0000000000
11
0.6008488630
21
20.3685125296
31
0.0000000000
11
0.5829510198
21
20.3710511844
31
0.0000000000
0
SPLINE
5
391
100
AcDbEntity
8
0
100
AcDbSpline
62
9
6
CONTINUOUS
70
0
71
3
72
10
73
6
74
4
42
0.0000001000
43
0.0000001000
44
0.0000000001
12
-0.0538006129
22
0.0042504570
32
0.0000000000
13
-0.0539136973
23
0.0024189374
33
0.0000000000
40
0.0000000000
40
0.0000000000
40
0.0000000000
40
0.0000000000
40
0.1370979189
40
0.5849022548
40
1.0000000000
40
1.0000000000
40
1.0000000000
40
1.0000000000
10
0.6547067492
20
20.3651004943
30
0.0000000000
10
0.6522480985
20
20.3652947372
30
0.0000000000
10
0.6417572076
20
20.3661041132
30
0.0000000000
10
0.6238099156
20
20.3673405388
30
0.0000000000
10
0.6083086810
20
20.3681778311
30
0.0000000000
10
0.6008488630
20
20.3685125296
30
0.0000000000
11
0.6547067492
21
20.3651004943
31
0.0000000000
11
0.6473297243
21
20.3656694287
31
0.0000000000
11
0.6232190216
21
20.3673191384
31
0.0000000000
11
0.6008488630
21
20.3685125296
31
0.0000000000
0
SPLINE
5
392
100
AcDbEntity
8
0
100
AcDbSpline
62
9
6
CONTINUOUS
70
0
71
3
72
26
73
22
74
20
42
0.0000001000
43
0.0000001000
44
0.0000000001
12
-0.1354071331
22
-1.0988791262
32
0.0000000000
13
-1.1071677009
23
-0.0070786774
33
0.0000000000
40
0.0000000000
40
0.0000000000
40
0.0000000000
40
0.0000000000
40
0.0588533505
40
0.1178918210
40
0.1769086628
40
0.2357075996
40
0.2940978982
40
0.3518967929
40
0.4089300153
40
0.4650381195
40
0.5200785358
40
0.5739304047
40
0.6264962556
40
0.6777081496
40
0.7275294626
40
0.7759595338
40
0.8230355414
40
0.8688372291
40
0.9134856802
40
0.9571421698
40
1.0000000000
40
1.0000000000
40
1.0000000000
40
1.0000000000
10
8.0817062135
20
-26.1811723887
30
0.0000000000
10
8.0790498257
20
-26.2027299615
30
0.0000000000
10
8.0724565309
20
-26.2457667062
30
0.0000000000
10
8.0588271360
20
-26.3096544316
30
0.0000000000
10
8.0415215966
20
-26.3726274973
30
0.0000000000
10
8.0206558610
20
-26.4342594277
30
0.0000000000
10
7.9963684087
20
-26.4941411547
30
0.0000000000
10
7.9688201100
20
-26.5518745302
30
0.0000000000
10
7.9381932481
20
-26.6070759769
30
0.0000000000
10
7.9046905127
20
-26.6593782249
30
0.0000000000
10
7.8685330985
20
-26.7084336286
30
0.0000000000
10
7.8299595791
20
-26.7539156296
30
0.0000000000
10
7.7892239357
20
-26.7955212574
30
0.0000000000
10
7.7465942327
20
-26.8329724970
30
0.0000000000
10
7.7023504633
20
-26.8660182438
30
0.0000000000
10
7.6567835734
20
-26.8944351835
30
0.0000000000
10
7.6101930010
20
-26.9180294464
30
0.0000000000
10
7.5628867071
20
-26.9366374866
30
0.0000000000
10
7.5151764894
20
-26.9501269080
30
0.0000000000
10
7.4673930878
20
-26.9583983197
30
0.0000000000
10
7.4354498835
20
-26.9604059302
30
0.0000000000
10
7.4196329484
20
-26.9605070557
30
0.0000000000
11
8.0817062135
21
-26.1811723887
31
0.0000000000
11
8.0718465056
21
-26.2455839889
31
0.0000000000
11
8.0582110619
21
-26.3095128266
31
0.0000000000
11
8.0408923206
21
-26.3725188003
31
0.0000000000
11
8.0200062743
21
-26.4341791054
31
0.0000000000
11
7.9956924248
21
-26.4940819637
31
0.0000000000
11
7.9681126347
21
-26.5518282666
31
0.0000000000
11
7.9374513962
21
-26.6070313971
31
0.0000000000
11
7.9039133414
21
-26.6593227472
31
0.0000000000
11
7.8677225792
21
-26.7083527251
31
0.0000000000
11
7.8291204192
21
-26.7537941889
31
0.0000000000
11
7.7883651515
21
-26.7953428943
31
0.0000000000
11
7.7457286121
21
-26.8327215580
31
0.0000000000
11
7.7014957940
21
-26.8656801425
31
0.0000000000
11
7.6559620637
21
-26.8939984038
31
0.0000000000
11
7.6094323387
21
-26.9174866569
31
0.0000000000
11
7.5622167365
21
-26.9359883128
31
0.0000000000
11
7.5146307317
21
-26.9493795577
31
0.0000000000
11
7.4669937814
21
-26.9575706525
31
0.0000000000
11
7.4196329484
21
-26.9605070557
31
0.0000000000
0
SPLINE
5
393
100
AcDbEntity
8
0
100
AcDbSpline
62
7
6
CONTINUOUS
70
0
71
3
72
15
73
11
74
9
42
0.0000001000
43
0.0000001000
44
0.0000000001
12
0.0734222173
22
-0.2162129699
32
0.0000000000
13
-0.0279148132
23
-0.2267026329
33
0.0000000000
40
0.0000000000
40
0.0000000000
40
0.0000000000
40
0.0000000000
40
0.1362158908
40
0.2701064099
40
0.4012613155
40
0.5293784680
40
0.6542649108
40
0.7758329468
40
0.8941338622
40
1.0000000000
40
1.0000000000
40
1.0000000000
40
1.0000000000
10
8.5947965900
20
-22.0170498954
30
0.0000000000
10
8.5981303475
20
-22.0268671095
30
0.0000000000
10
8.6044078546
20
-22.0464494412
30
0.0000000000
10
8.6126135930
20
-22.0758759793
30
0.0000000000
10
8.6194178550
20
-22.1050274453
30
0.0000000000
10
8.6246984355
20
-22.1337988432
30
0.0000000000
10
8.6283290071
20
-22.1620922601
30
0.0000000000
10
8.6301738903
20
-22.1898132597
30
0.0000000000
10
8.6300849204
20
-22.2161524777
30
0.0000000000
10
8.6287154598
20
-22.2331781006
30
0.0000000000
10
8.6277303819
20
-22.2411781446
30
0.0000000000
11
8.5947965900
21
-22.0170498954
31
0.0000000000
11
8.6042701722
21
-22.0466754913
31
0.0000000000
11
8.6124569298
21
-22.0761314479
31
0.0000000000
11
8.6192341940
21
-22.1053023437
31
0.0000000000
11
8.6244798839
21
-22.1340823785
31
0.0000000000
11
8.6280678668
21
-22.1623722480
31
0.0000000000
11
8.6298629353
21
-22.1900729160
31
0.0000000000
11
8.6297163850
21
-22.2170852756
31
0.0000000000
11
8.6277303819
21
-22.2411781446
31
0.0000000000
0
SPLINE
5
394
100
AcDbEntity
8
0
100
AcDbSpline
62
9
6
CONTINUOUS
70
0
71
3
72
14
73
10
74
8
42
0.0000001000
43
0.0000001000
44
0.0000000001
12
0.0634290751
22
-0.0011142867
32
0.0000000000
13
0.0020821731
23
0.0605350970
33
0.0000000000
40
0.0000000000
40
0.0000000000
40
0.0000000000
40
0.0000000000
40
0.2743191190
40
0.5080455713
40
0.6977050216
40
0.8409616588
40
0.9374653564
40
0.9930470860
40
1.0000000000
40
1.0000000000
40
1.0000000000
40
1.0000000000
10
13.6404317264
20
18.9321546262
30
0.0000000000
10
13.6462316624
20
18.9320527362
30
0.0000000000
10
13.6569719549
20
18.9319917853
30
0.0000000000
10
13.6717407185
20
18.9324394842
30
0.0000000000
10
13.6836470583
20
18.9333296015
30
0.0000000000
10
13.6927480043
20
18.9348297694
30
0.0000000000
10
13.6985222667
20
18.9364041145
30
0.0000000000
10
13.7017641008
20
18.9387062755
30
0.0000000000
10
13.7019184009
20
18.9399427782
30
0.0000000000
10
13.7019232266
20
18.9400830766
30
0.0000000000
11
13.6404317264
21
18.9321546262
31
0.0000000000
11
13.6578341325
21
18.9320997291
31
0.0000000000
11
13.6726534425
21
18.9325876509
31
0.0000000000
11
13.6846416892
21
18.9336102274
31
0.0000000000
11
13.6935982769
21
18.9351503481
31
0.0000000000
11
13.6993733376
21
18.9371822428
31
0.0000000000
11
13.7018702386
21
18.9396719124
31
0.0000000000
11
13.7019232266
21
18.9400830766
31
0.0000000000
0
SPLINE
5
395
100
AcDbEntity
8
0
100
AcDbSpline
62
9
6
CONTINUOUS
70
0
71
3
72
26
73
22
74
20
42
0.0000001000
43
0.0000001000
44
0.0000000001
12
0.1268255079
22
1.0293361895
32
0.0000000000
13
-1.0362205711
23
0.0431813441
33
0.0000000000
40
0.0000000000
40
0.0000000000
40
0.0000000000
40
0.0000000000
40
0.0624426339
40
0.1243128511
40
0.1854103935
40
0.2455590779
40
0.3046022681
40
0.3624057285
40
0.4188586533
40
0.4738805899
40
0.5274238747
40
0.5794787660
40
0.6300749542
40
0.6792865579
40
0.7272318265
40
0.7740740620
40
0.8200178745
40
0.8653061307
40
0.9102093714
40
0.9550140293
40
1.0000000000
40
1.0000000000
40
1.0000000000
40
1.0000000000
10
13.6404317264
20
18.9321546262
30
0.0000000000
10
13.6430714993
20
18.9535794472
30
0.0000000000
10
13.6470806600
20
18.9963975078
30
0.0000000000
10
13.6492442319
20
19.0604955741
30
0.0000000000
10
13.6475218415
20
19.1238174525
30
0.0000000000
10
13.6419232449
20
19.1859349882
30
0.0000000000
10
13.6324846820
20
19.2464362815
30
0.0000000000
10
13.6192671355
20
19.3049196223
30
0.0000000000
10
13.6023561591
20
19.3609969161
30
0.0000000000
10
13.5818612939
20
19.4142952956
30
0.0000000000
10
13.5579150018
20
19.4644602972
30
0.0000000000
10
13.5306720174
20
19.5111571093
30
0.0000000000
10
13.5003082647
20
19.5540728336
30
0.0000000000
10
13.4670203869
20
19.5929176180
30
0.0000000000
10
13.4310248561
20
19.6274265953
30
0.0000000000
10
13.3925581577
20
19.6573611196
30
0.0000000000
10
13.3518756482
20
19.6825113949
30
0.0000000000
10
13.3092520728
20
19.7026988861
30
0.0000000000
10
13.2649768242
20
19.7177790342
30
0.0000000000
10
13.2193682756
20
19.7276437879
30
0.0000000000
10
13.1883966101
20
19.7306867820
30
0.0000000000
10
13.1728581473
20
19.7313343002
30
0.0000000000
11
13.6404317264
21
18.9321546262
31
0.0000000000
11
13.6464535812
21
18.9966345413
31
0.0000000000
11
13.6485971918
21
19.0607655595
31
0.0000000000
11
13.6468464398
21
19.1241068462
31
0.0000000000
11
13.6412128499
21
19.1862333420
31
0.0000000000
11
13.6317340620
21
19.2467301322
31
0.0000000000
11
13.6184730953
21
19.3051941697
31
0.0000000000
11
13.6015185744
21
19.3612340258
31
0.0000000000
11
13.5809836063
21
19.4144755006
31
0.0000000000
11
13.5570053998
21
19.4645625857
31
0.0000000000
11
13.5297438046
21
19.5111610760
31
0.0000000000
11
13.4993811775
21
19.5539590257
31
0.0000000000
11
13.4661199898
21
19.5926708445
31
0.0000000000
11
13.4301825207
21
19.6270375900
31
0.0000000000
11
13.3918087025
21
19.6568296205
31
0.0000000000
11
13.3512555011
21
19.6818473776
31
0.0000000000
11
13.3087932105
21
19.7019240782
31
0.0000000000
11
13.2647054608
21
19.7169253914
31
0.0000000000
11
13.2192883034
21
19.7267507921
31
0.0000000000
11
13.1728581473
21
19.7313343002
31
0.0000000000
0
SPLINE
5
396
100
AcDbEntity
8
0
100
AcDbSpline
62
9
6
CONTINUOUS
70
0
71
3
72
19
73
15
74
13
42
0.0000001000
43
0.0000001000
44
0.0000000001
12
0.0372494091
22
0.2739836144
32
0.0000000000
13
-0.2690576244
23
0.0637380122
33
0.0000000000
40
0.0000000000
40
0.0000000000
40
0.0000000000
40
0.0000000000
40
0.0944829178
40
0.1889836541
40
0.2826765501
40
0.3747704541
40
0.4645446791
40
0.5513863211
40
0.6348294050
40
0.7145957368
40
0.7906359091
40
0.8631660238
40
0.9326909969
40
1.0000000000
40
1.0000000000
40
1.0000000000
40
1.0000000000
10
13.1728581473
20
19.7313343002
30
0.0000000000
10
13.1740312916
20
19.7399632240
30
0.0000000000
10
13.1755830018
20
19.7573410393
30
0.0000000000
10
13.1755339607
20
19.7834290108
30
0.0000000000
10
13.1731173509
20
19.8091869443
30
0.0000000000
10
13.1683727364
20
19.8341773031
30
0.0000000000
10
13.1613785629
20
19.8579795155
30
0.0000000000
10
13.1522496392
20
19.8801923789
30
0.0000000000
10
13.1411347241
20
19.9004415143
30
0.0000000000
10
13.1282129381
20
19.9183842034
30
0.0000000000
10
13.1136917988
20
19.9337127367
30
0.0000000000
10
13.0978013620
20
19.9461572606
30
0.0000000000
10
13.0808091310
20
19.9554847527
30
0.0000000000
10
13.0687844981
20
19.9595503667
30
0.0000000000
10
13.0627478313
20
19.9609804140
30
0.0000000000
11
13.1728581473
21
19.7313343002
31
0.0000000000
11
13.1751868060
21
19.7573552280
31
0.0000000000
11
13.1751329166
21
19.7834850173
31
0.0000000000
11
13.1726974009
21
19.8092767532
31
0.0000000000
11
13.1679219151
21
19.8342893028
31
0.0000000000
11
13.1608881374
21
19.8580948602
31
0.0000000000
11
13.1517163711
21
19.8802862634
31
0.0000000000
11
13.1405634868
21
19.9004839585
31
0.0000000000
11
13.1276202398
21
19.9183424910
31
0.0000000000
11
13.1131080066
21
19.9335564148
31
0.0000000000
11
13.0972749996
21
19.9458655164
31
0.0000000000
11
13.0803920210
21
19.9550592650
31
0.0000000000
11
13.0627478313
21
19.9609804140
31
0.0000000000
0
SPLINE
5
397
100
AcDbEntity
8
0
100
AcDbSpline
62
7
6
CONTINUOUS
70
0
71
3
72
20
73
16
74
14
42
0.0000001000
43
0.0000001000
44
0.0000000001
12
0.0337239892
22
0.2736960743
32
0.0000000000
13
-0.2681194117
23
0.0644889882
33
0.0000000000
40
0.0000000000
40
0.0000000000
40
0.0000000000
40
0.0000000000
40
0.0873931229
40
0.1749850999
40
0.2619400349
40
0.3478404081
40
0.4317681771
40
0.5135197366
40
0.5922769021
40
0.6680714912
40
0.7403846098
40
0.8095168395
40
0.8754311487
40
0.9387463289
40
1.0000000000
40
1.0000000000
40
1.0000000000
40
1.0000000000
10
7.4287715835
20
19.9706290444
30
0.0000000000
10
7.4297539984
20
19.9786020960
30
0.0000000000
10
7.4310541803
20
19.9946562587
30
0.0000000000
10
7.4310179859
20
20.0187601518
30
0.0000000000
10
7.4290041377
20
20.0426442459
30
0.0000000000
10
7.4250428733
20
20.0659427457
30
0.0000000000
10
7.4191863599
20
20.0883463118
30
0.0000000000
10
7.4115249415
20
20.1095045897
30
0.0000000000
10
7.4021555395
20
20.1291425293
30
0.0000000000
10
7.3912223387
20
20.1469500825
30
0.0000000000
10
7.3788606112
20
20.1626942308
30
0.0000000000
10
7.3652566538
20
20.1761244054
30
0.0000000000
10
7.3505795759
20
20.1870531537
30
0.0000000000
10
7.3350535239
20
20.1952968436
30
0.0000000000
10
7.3241357002
20
20.1989584291
30
0.0000000000
10
7.3186612674
20
20.2002751582
30
0.0000000000
11
7.4287715835
21
19.9706290444
31
0.0000000000
11
7.4307223646
21
19.9946500074
31
0.0000000000
11
7.4306840933
21
20.0188048602
31
0.0000000000
11
7.4286594169
21
20.0426984394
31
0.0000000000
11
7.4246712610
21
20.0660487014
31
0.0000000000
11
7.4187928487
21
20.0884341524
31
0.0000000000
11
7.4110852100
21
20.1096199386
31
0.0000000000
11
7.4016952270
21
20.1292036903
31
0.0000000000
11
7.3907166744
21
20.1469898315
31
0.0000000000
11
7.3783578956
21
20.1626398726
31
0.0000000000
11
7.3647487662
21
20.1759905150
31
0.0000000000
11
7.3501345306
21
20.1867990565
31
0.0000000000
11
7.3346880238
21
20.1949392623
31
0.0000000000
11
7.3186612674
21
20.2002751582
31
0.0000000000
0
SPLINE
5
398
100
AcDbEntity
8
0
100
AcDbSpline
62
9
6
CONTINUOUS
70
0
71
3
72
8
73
4
74
2
42
0.0000001000
43
0.0000001000
44
0.0000000001
12
-0.0169586442
22
0.0041428798
32
0.0000000000
13
-0.0174706737
23
0.0008399780
33
0.0000000000
40
0.0000000000
40
0.0000000000
40
0.0000000000
40
0.0000000000
40
1.0000000000
40
1.0000000000
40
1.0000000000
40
1.0000000000
10
-3.1512231892
20
23.8608195944
30
0.0000000000
10
-3.1568760706
20
23.8622005544
30
0.0000000000
10
-3.1626760849
20
23.8630493915
30
0.0000000000
10
-3.1684996428
20
23.8633293842
30
0.0000000000
11
-3.1512231892
21
23.8608195944
31
0.0000000000
11
-3.1684996428
21
23.8633293842
31
0.0000000000
0
SPLINE
5
399
100
AcDbEntity
8
0
100
AcDbSpline
62
7
6
CONTINUOUS
70
0
71
3
72
9
73
5
74
3
42
0.0000001000
43
0.0000001000
44
0.0000000001
12
-0.0172795632
22
0.0041561390
32
0.0000000000
13
-0.0177788477
23
0.0008526692
33
0.0000000000
40
0.0000000000
40
0.0000000000
40
0.0000000000
40
0.0000000000
40
0.9320524062
40
1.0000000000
40
1.0000000000
40
1.0000000000
40
1.0000000000
10
-9.0834565685
20
24.1453680474
30
0.0000000000
10
-9.0888250546
20
24.1466592939
30
0.0000000000
10
-9.0947181697
20
24.1475507232
30
0.0000000000
10
-9.1006427910
20
24.1478735251
30
0.0000000000
10
-9.1010454676
20
24.1478928374
30
0.0000000000
11
-9.0834565685
21
24.1453680474
31
0.0000000000
11
-9.0998378089
21
24.1478270326
31
0.0000000000
11
-9.1010454676
21
24.1478928374
31
0.0000000000
0
SPLINE
5
39A
100
AcDbEntity
8
0
100
AcDbSpline
62
9
6
CONTINUOUS
70
0
71
3
72
17
73
13
74
11
42
0.0000001000
43
0.0000001000
44
0.0000000001
12
-0.0190932928
22
0.2085517655
32
0.0000000000
13
-0.2035455823
23
0.0489574723
33
0.0000000000
40
0.0000000000
40
0.0000000000
40
0.0000000000
40
0.0000000000
40
0.0597840693
40
0.1812886742
40
0.2996067315
40
0.4138980767
40
0.5235212811
40
0.6280899275
40
0.7275301442
40
0.8221335872
40
0.9125931159
40
1.0000000000
40
1.0000000000
40
1.0000000000
40
1.0000000000
10
-2.0942948726
20
23.4687457881
30
0.0000000000
10
-2.0946753642
20
23.4729018125
30
0.0000000000
10
-2.0961079850
20
23.4854789985
30
0.0000000000
10
-2.0998948220
20
23.5060723296
30
0.0000000000
10
-2.1067021763
20
23.5298700393
30
0.0000000000
10
-2.1156103456
20
23.5520774701
30
0.0000000000
10
-2.1264742542
20
23.5723205754
30
0.0000000000
10
-2.1391192084
20
23.5902571517
30
0.0000000000
10
-2.1533429522
20
23.6055800342
30
0.0000000000
10
-2.1689216750
20
23.6180195850
30
0.0000000000
10
-2.1855944404
20
23.6273419736
30
0.0000000000
10
-2.1974104803
20
23.6314053339
30
0.0000000000
10
-2.2033409087
20
23.6328317406
30
0.0000000000
11
-2.0942948726
21
23.4687457881
31
0.0000000000
11
-2.0957136322
21
23.4811843819
31
0.0000000000
11
-2.1003404221
21
23.5061971069
31
0.0000000000
11
-2.1071891878
21
23.5300014058
31
0.0000000000
11
-2.1161427450
21
23.5521899804
31
0.0000000000
11
-2.1270478959
21
23.5723831781
31
0.0000000000
11
-2.1397180504
21
23.5902354877
31
0.0000000000
11
-2.1539364185
21
23.6054414512
31
0.0000000000
11
-2.1694597202
21
23.6177408903
31
0.0000000000
11
-2.1860223473
21
23.6269233583
31
0.0000000000
11
-2.2033409087
21
23.6328317406
31
0.0000000000
0
SPLINE
5
39B
100
AcDbEntity
8
0
100
AcDbSpline
62
7
6
CONTINUOUS
70
0
71
3
72
8
73
4
74
2
42
0.0000001000
43
0.0000001000
44
0.0000000001
12
-0.0062989414
22
0.0019722663
32
0.0000000000
13
-0.0064098101
23
0.0015417092
33
0.0000000000
40
0.0000000000
40
0.0000000000
40
0.0000000000
40
0.0000000000
40
1.0000000000
40
1.0000000000
40
1.0000000000
40
1.0000000000
10
-8.0351441569
20
23.8929943992
30
0.0000000000
10
-8.0372438041
20
23.8936518213
30
0.0000000000
10
-8.0393642769
20
23.8942394361
30
0.0000000000
10
-8.0415008803
20
23.8947533392
30
0.0000000000
11
-8.0351441569
21
23.8929943992
31
0.0000000000
11
-8.0415008803
21
23.8947533392
31
0.0000000000
0
SPLINE
5
39C
100
AcDbEntity
8
0
100
AcDbSpline
62
9
6
CONTINUOUS
70
0
71
3
72
8
73
4
74
2
42
0.0000001000
43
0.0000001000
44
0.0000000001
12
-0.0175760647
22
0.0042274546
32
0.0000000000
13
-0.0180922345
23
0.0008126134
33
0.0000000000
40
0.0000000000
40
0.0000000000
40
0.0000000000
40
0.0000000000
40
1.0000000000
40
1.0000000000
40
1.0000000000
40
1.0000000000
10
12.1148655508
20
20.1889682679
30
0.0000000000
10
12.1090068626
20
20.1903774194
30
0.0000000000
10
12.1029984525
20
20.1912360516
30
0.0000000000
10
12.0969677077
20
20.1915069227
30
0.0000000000
11
12.1148655508
21
20.1889682679
31
0.0000000000
11
12.0969677077
21
20.1915069227
31
0.0000000000
0
SPLINE
5
39D
100
AcDbEntity
8
0
100
AcDbSpline
62
7
6
CONTINUOUS
70
0
71
3
72
8
73
4
74
2
42
0.0000001000
43
0.0000001000
44
0.0000000001
12
-0.0063482559
22
0.0015264432
32
0.0000000000
13
-0.0064462356
23
0.0010909719
33
0.0000000000
40
0.0000000000
40
0.0000000000
40
0.0000000000
40
0.0000000000
40
1.0000000000
40
1.0000000000
40
1.0000000000
40
1.0000000000
10
6.2766991802
20
20.4508914054
30
0.0000000000
10
6.2745830949
20
20.4514002198
30
0.0000000000
10
6.2724477129
20
20.4518374829
30
0.0000000000
10
6.2702989676
20
20.4522011402
30
0.0000000000
11
6.2766991802
21
20.4508914054
31
0.0000000000
11
6.2702989676
21
20.4522011402
31
0.0000000000
0
SPLINE
5
39E
100
AcDbEntity
8
0
100
AcDbSpline
62
7
6
CONTINUOUS
70
0
71
3
72
8
73
4
74
2
42
0.0000001000
43
0.0000001000
44
0.0000000001
12
-0.4707237118
22
0.2925665826
32
0.0000000000
13
-0.4898698864
23
0.2596020031
33
0.0000000000
40
0.0000000000
40
0.0000000000
40
0.0000000000
40
0.0000000000
40
1.0000000000
40
1.0000000000
40
1.0000000000
40
1.0000000000
10
-11.0168915246
20
17.9655463552
30
0.0000000000
10
-11.1737994285
20
18.0630685494
30
0.0000000000
10
-11.3340766299
20
18.1553062811
30
0.0000000000
10
-11.4973665920
20
18.2418402821
30
0.0000000000
11
-11.0168915246
21
17.9655463552
31
0.0000000000
11
-11.4973665920
21
18.2418402821
31
0.0000000000
0
SPLINE
5
39F
100
AcDbEntity
8
0
100
AcDbSpline
62
7
6
CONTINUOUS
70
0
71
3
72
16
73
12
74
10
42
0.0000001000
43
0.0000001000
44
0.0000000001
12
0.0882736294
22
0.7164083028
32
0.0000000000
13
-0.6130629563
23
0.3810339900
33
0.0000000000
40
0.0000000000
40
0.0000000000
40
0.0000000000
40
0.0000000000
40
0.1258342859
40
0.2495253912
40
0.3697699351
40
0.4863759717
40
0.5981381224
40
0.7054312182
40
0.8076691967
40
0.9057151432
40
1.0000000000
40
1.0000000000
40
1.0000000000
40
1.0000000000
10
-10.7829096620
20
17.3206481379
30
0.0000000000
10
-10.7792070457
20
17.3506977137
30
0.0000000000
10
-10.7746532141
20
17.4106705066
30
0.0000000000
10
-10.7765337890
20
17.4997594010
30
0.0000000000
10
-10.7871381589
20
17.5860173973
30
0.0000000000
10
-10.8062850783
20
17.6678603809
30
0.0000000000
10
-10.8337022577
20
17.7440344787
30
0.0000000000
10
-10.8689044403
20
17.8131107606
30
0.0000000000
10
-10.9114046123
20
17.8740145467
30
0.0000000000
10
-10.9604430664
20
17.9255722683
30
0.0000000000
10
-10.9976240069
20
17.9535711102
30
0.0000000000
10
-11.0168915246
20
17.9655463552
30
0.0000000000
11
-10.7829096620
21
17.3206481379
31
0.0000000000
11
-10.7760949317
21
17.4112226199
31
0.0000000000
11
-10.7780770621
21
17.5004840979
31
0.0000000000
11
-10.7888025081
21
17.5866145349
31
0.0000000000
11
-10.8081442772
21
17.6685313591
31
0.0000000000
11
-10.8356572122
21
17.7443676779
31
0.0000000000
11
-10.8710303372
21
17.8132645220
31
0.0000000000
11
-10.9134607018
21
17.8736451219
31
0.0000000000
11
-10.9624108155
21
17.9247585393
31
0.0000000000
11
-11.0168915246
21
17.9655463552
31
0.0000000000
0
SPLINE
5
3A0
100
AcDbEntity
8
0
100
AcDbSpline
62
7
6
CONTINUOUS
70
0
71
3
72
10
73
6
74
4
42
0.0000001000
43
0.0000001000
44
0.0000000001
12
1.5792274165
22
-0.0277429590
32
0.0000000000
13
1.5553743494
23
0.2768641946
33
0.0000000000
40
0.0000000000
40
0.0000000000
40
0.0000000000
40
0.0000000000
40
0.3797418225
40
0.7636183887
40
1.0000000000
40
1.0000000000
40
1.0000000000
40
1.0000000000
10
-19.5292716959
20
-17.9642610313
30
0.0000000000
10
-19.3293721301
20
-17.9677727519
30
0.0000000000
10
-18.9269667809
20
-17.9594294600
30
0.0000000000
10
-18.4024276607
20
-17.9091129930
30
0.0000000000
10
-18.0796032544
20
-17.8588863206
30
0.0000000000
10
-17.9570492894
20
-17.8370711192
30
0.0000000000
11
-19.5292716959
21
-17.9642610313
31
0.0000000000
11
-18.9296050664
21
-17.9520360286
31
0.0000000000
11
-18.3260280540
21
-17.8944072147
31
0.0000000000
11
-17.9570492894
21
-17.8370711192
31
0.0000000000
0
SPLINE
5
3A1
100
AcDbEntity
8
0
100
AcDbSpline
62
7
6
CONTINUOUS
70
0
71
3
72
9
73
5
74
3
42
0.0000001000
43
0.0000001000
44
0.0000000001
12
0.1509997999
22
-0.0363189829
32
0.0000000000
13
0.1326702457
23
-0.0810399872
33
0.0000000000
40
0.0000000000
40
0.0000000000
40
0.0000000000
40
0.0000000000
40
0.5376005787
40
1.0000000000
40
1.0000000000
40
1.0000000000
40
1.0000000000
10
2.1625275097
20
14.0239030326
30
0.0000000000
10
2.1895867030
20
14.0173946639
30
0.0000000000
10
2.2389091685
20
14.0006556868
30
0.0000000000
10
2.2848994642
20
13.9765241460
30
0.0000000000
10
2.3053483458
20
13.9640331983
30
0.0000000000
11
2.1625275097
21
14.0239030326
31
0.0000000000
11
2.2416552300
21
13.9972603391
31
0.0000000000
11
2.3053483458
21
13.9640331983
31
0.0000000000
0
SPLINE
5
3A2
100
AcDbEntity
8
0
100
AcDbSpline
62
7
6
CONTINUOUS
70
0
71
3
72
37
73
33
74
31
42
0.0000001000
43
0.0000001000
44
0.0000000001
12
-0.2004722515
22
-1.6274802390
32
0.0000000000
13
1.6367235650
23
-0.0593034665
33
0.0000000000
40
0.0000000000
40
0.0000000000
40
0.0000000000
40
0.0000000000
40
0.0163233666
40
0.0430400646
40
0.0695748358
40
0.0956139301
40
0.1206661267
40
0.1442301338
40
0.1659934525
40
0.1858059604
40
0.2040514046
40
0.2215723367
40
0.2392153353
40
0.2577778019
40
0.2778397048
40
0.2998945187
40
0.3243953821
40
0.3516702393
40
0.3819571817
40
0.4154067058
40
0.4520716916
40
0.4919070859
40
0.5347938932
40
0.5806882552
40
0.6295163048
40
0.6810915968
40
0.7350047611
40
0.7904530293
40
0.8464410579
40
0.9018579231
40
0.9555262871
40
1.0000000000
40
1.0000000000
40
1.0000000000
40
1.0000000000
10
-1.4740092628
20
-26.6125676861
30
0.0000000000
10
-1.4751000568
20
-26.6214230050
30
0.0000000000
10
-1.4767667888
20
-26.6449362665
30
0.0000000000
10
-1.4742328072
20
-26.6830097870
30
0.0000000000
10
-1.4640895789
20
-26.7253042407
30
0.0000000000
10
-1.4474680181
20
-26.7644918496
30
0.0000000000
10
-1.4257248931
20
-26.7991565186
30
0.0000000000
10
-1.4006496344
20
-26.8284366251
30
0.0000000000
10
-1.3740848715
20
-26.8522143916
30
0.0000000000
10
-1.3474014849
20
-26.8711420007
30
0.0000000000
10
-1.3211176840
20
-26.8863674412
30
0.0000000000
10
-1.2948778243
20
-26.8991257633
30
0.0000000000
10
-1.2678070682
20
-26.9104468859
30
0.0000000000
10
-1.2389625311
20
-26.9210332005
30
0.0000000000
10
-1.2074754606
20
-26.9313431673
30
0.0000000000
10
-1.1725976894
20
-26.9416633485
30
0.0000000000
10
-1.1336822019
20
-26.9521723734
30
0.0000000000
10
-1.0901994233
20
-26.9629688824
30
0.0000000000
10
-1.0417709682
20
-26.9740858194
30
0.0000000000
10
-0.9881603362
20
-26.9855089674
30
0.0000000000
10
-0.9292801143
20
-26.9971848739
30
0.0000000000
10
-0.8651865971
20
-27.0090289808
30
0.0000000000
10
-0.7959880486
20
-27.0209461058
30
0.0000000000
10
-0.7218079493
20
-27.0328336527
30
0.0000000000
10
-0.6428055361
20
-27.0445735344
30
0.0000000000
10
-0.5593371089
20
-27.0560063830
30
0.0000000000
10
-0.4721541504
20
-27.0669103084
30
0.0000000000
10
-0.3824492704
20
-27.0770095567
30
0.0000000000
10
-0.2918007188
20
-27.0859966108
30
0.0000000000
10
-0.2019964772
20
-27.0935608931
30
0.0000000000
10
-0.1183479114
20
-27.0991722248
30
0.0000000000
10
-0.0648251579
20
-27.1017282047
30
0.0000000000
10
-0.0405614333
20
-27.1026073532
30
0.0000000000
11
-1.4740092628
21
-26.6125676861
31
0.0000000000
11
-1.4758990916
21
-26.6392639716
31
0.0000000000
11
-1.4729996651
21
-26.6829240965
31
0.0000000000
11
-1.4628717562
21
-26.7251858093
31
0.0000000000
11
-1.4462331919
21
-26.7644526400
31
0.0000000000
11
-1.4244518345
21
-26.7992240239
31
0.0000000000
11
-1.3993768889
21
-26.8285609529
31
0.0000000000
11
-1.3728536638
21
-26.8523725544
31
0.0000000000
11
-1.3464254756
21
-26.8711998874
31
0.0000000000
11
-1.3206039172
21
-26.8862395485
31
0.0000000000
11
-1.2948280903
21
-26.8988507670
31
0.0000000000
11
-1.2681949523
21
-26.9100590494
31
0.0000000000
11
-1.2396751949
21
-26.9205884313
31
0.0000000000
11
-1.2084652479
21
-26.9308612784
31
0.0000000000
11
-1.1738413377
21
-26.9411530100
31
0.0000000000
11
-1.1351121109
21
-26.9516525902
31
0.0000000000
11
-1.0917664737
21
-26.9624509187
31
0.0000000000
11
-1.0434272261
21
-26.9735789912
31
0.0000000000
11
-0.9898524439
21
-26.9850221412
31
0.0000000000
11
-0.9309544568
21
-26.9967254454
31
0.0000000000
11
-0.8668023587
21
-27.0086005842
31
0.0000000000
11
-0.7975846051
21
-27.0205375426
31
0.0000000000
11
-0.7233683160
21
-27.0324436961
31
0.0000000000
11
-0.6442681859
21
-27.0442068140
31
0.0000000000
11
-0.5605806925
21
-27.0556734546
31
0.0000000000
11
-0.4729646215
21
-27.0666289001
31
0.0000000000
11
-0.3827209527
21
-27.0767774966
31
0.0000000000
11
-0.2914695034
21
-27.0858011979
31
0.0000000000
11
-0.2010253693
21
-27.0933797064
31
0.0000000000
11
-0.1133208756
21
-27.0992001112
31
0.0000000000
11
-0.0405614333
21
-27.1026073532
31
0.0000000000
0
SPLINE
5
3A3
100
AcDbEntity
8
0
100
AcDbSpline
62
7
6
CONTINUOUS
70
0
71
3
72
37
73
33
74
31
42
0.0000001000
43
0.0000001000
44
0.0000000001
12
-0.2010919728
22
-1.6325248080
32
0.0000000000
13
1.6418826767
23
-0.0568104611
33
0.0000000000
40
0.0000000000
40
0.0000000000
40
0.0000000000
40
0.0000000000
40
0.0163557560
40
0.0430444059
40
0.0695393574
40
0.0955378181
40
0.1205604668
40
0.1441110860
40
0.1658701919
40
0.1856745566
40
0.2039030988
40
0.2214140058
40
0.2390570416
40
0.2576369752
40
0.2777317681
40
0.2998288146
40
0.3243789078
40
0.3517095597
40
0.3820583874
40
0.4155753870
40
0.4523130056
40
0.4922259228
40
0.5351903279
40
0.5811536763
40
0.6300396302
40
0.6816582677
40
0.7355976722
40
0.7910415627
40
0.8469758790
40
0.9022733390
40
0.9557447836
40
1.0000000000
40
1.0000000000
40
1.0000000000
40
1.0000000000
10
-16.7885745497
20
-22.9290565583
30
0.0000000000
10
-16.7896708867
20
-22.9379569508
30
0.0000000000
10
-16.7913367860
20
-22.9615464003
30
0.0000000000
10
-16.7887694934
20
-22.9997171337
30
0.0000000000
10
-16.7785661081
20
-23.0420748096
30
0.0000000000
10
-16.7618672030
20
-23.0813075033
30
0.0000000000
10
-16.7400285133
20
-23.1160080529
30
0.0000000000
10
-16.7148397063
20
-23.1453144477
30
0.0000000000
10
-16.6881544490
20
-23.1691021780
30
0.0000000000
10
-16.6613604059
20
-23.1880209038
30
0.0000000000
10
-16.6349804267
20
-23.2032289802
30
0.0000000000
10
-16.6086493051
20
-23.2159718710
30
0.0000000000
10
-16.5814734211
20
-23.2272871081
30
0.0000000000
10
-16.5524999082
20
-23.2378777094
30
0.0000000000
10
-16.5208558162
20
-23.2482002698
30
0.0000000000
10
-16.4857950045
20
-23.2585383081
30
0.0000000000
10
-16.4466725699
20
-23.2690685500
30
0.0000000000
10
-16.4029586283
20
-23.2798884933
30
0.0000000000
10
-16.3542741509
20
-23.2910303614
30
0.0000000000
10
-16.3003825028
20
-23.3024791841
30
0.0000000000
10
-16.2411965124
20
-23.3141806114
30
0.0000000000
10
-16.1767755208
20
-23.3260486960
30
0.0000000000
10
-16.1072354831
20
-23.3379860859
30
0.0000000000
10
-16.0327088680
20
-23.3498879928
30
0.0000000000
10
-15.9533633242
20
-23.3616342709
30
0.0000000000
10
-15.8695608787
20
-23.3730638404
30
0.0000000000
10
-15.7820659949
20
-23.3839520564
30
0.0000000000
10
-15.6920939979
20
-23.3940194404
30
0.0000000000
10
-15.6012547154
20
-23.4029544403
30
0.0000000000
10
-15.5113676120
20
-23.4104433777
30
0.0000000000
10
-15.4277461929
20
-23.4159596861
30
0.0000000000
10
-15.3742813804
20
-23.4184378400
30
0.0000000000
10
-15.3500607560
20
-23.4192758930
30
0.0000000000
11
-16.7885745497
21
-22.9290565583
31
0.0000000000
11
-16.7904669206
21
-22.9558891909
31
0.0000000000
11
-16.7875309800
21
-22.9996363834
31
0.0000000000
11
-16.7773445124
21
-23.0419550410
31
0.0000000000
11
-16.7606312114
21
-23.0812609751
31
0.0000000000
11
-16.7387558701
21
-23.1160659522
31
0.0000000000
11
-16.7135654421
21
-23.1454322454
31
0.0000000000
11
-16.6869170935
21
-23.1692590906
31
0.0000000000
11
-16.6603776748
21
-23.1880801388
31
0.0000000000
11
-16.6344693231
21
-23.2030991919
31
0.0000000000
11
-16.6086054846
21
-23.2156949654
31
0.0000000000
11
-16.5818723626
21
-23.2268962225
31
0.0000000000
11
-16.5532235615
21
-23.2374304465
31
0.0000000000
11
-16.5218542259
21
-23.2477169752
31
0.0000000000
11
-16.4870467789
21
-23.2580269492
31
0.0000000000
11
-16.4481108820
21
-23.2685477422
31
0.0000000000
11
-16.4045341969
21
-23.2793695215
31
0.0000000000
11
-16.3559388841
21
-23.2905225421
31
0.0000000000
11
-16.3020829149
21
-23.3019913603
31
0.0000000000
11
-16.2428789169
21
-23.3137201672
31
0.0000000000
11
-16.1783965298
21
-23.3256197064
31
0.0000000000
11
-16.1088325086
21
-23.3375776594
31
0.0000000000
11
-16.0342682243
21
-23.3494982655
31
0.0000000000
11
-15.9548227427
21
-23.3612678752
31
0.0000000000
11
-15.8707991269
21
-23.3727311314
31
0.0000000000
11
-15.7828623867
21
-23.3836712848
31
0.0000000000
11
-15.6923396803
21
-23.3937883683
31
0.0000000000
11
-15.6008866507
21
-23.4027596855
31
0.0000000000
11
-15.5103511812
21
-23.4102615632
31
0.0000000000
11
-15.4226915820
21
-23.4159791426
31
0.0000000000
11
-15.3500607560
21
-23.4192758930
31
0.0000000000
0
SPLINE
5
3A4
100
AcDbEntity
8
0
100
AcDbSpline
62
7
6
CONTINUOUS
70
0
71
3
72
8
73
4
74
2
42
0.0000001000
43
0.0000001000
44
0.0000000001
12
0.0134019792
22
-0.0001014837
32
0.0000000000
13
0.0133024293
23
-0.0016329202
33
0.0000000000
40
0.0000000000
40
0.0000000000
40
0.0000000000
40
0.0000000000
40
1.0000000000
40
1.0000000000
40
1.0000000000
40
1.0000000000
10
6.2499960131
20
20.4541779756
30
0.0000000000
10
6.2544633394
20
20.4541441477
30
0.0000000000
10
6.2589308206
20
20.4538503552
30
0.0000000000
10
6.2633649637
20
20.4533060484
30
0.0000000000
11
6.2499960131
21
20.4541779756
31
0.0000000000
11
6.2633649637
21
20.4533060484
31
0.0000000000
0
SPLINE
5
3A5
100
AcDbEntity
8
0
100
AcDbSpline
62
7
6
CONTINUOUS
70
0
71
3
72
8
73
4
74
2
42
0.0000001000
43
0.0000001000
44
0.0000000001
12
0.0044851329
22
-0.0005505659
32
0.0000000000
13
0.0044585420
23
-0.0007203514
33
0.0000000000
40
0.0000000000
40
0.0000000000
40
0.0000000000
40
0.0000000000
40
1.0000000000
40
1.0000000000
40
1.0000000000
40
1.0000000000
10
6.2633649637
20
20.4533060484
30
0.0000000000
10
6.2648600081
20
20.4531225264
30
0.0000000000
10
6.2663512624
20
20.4529105257
30
0.0000000000
10
6.2678374431
20
20.4526704086
30
0.0000000000
11
6.2633649637
21
20.4533060484
31
0.0000000000
11
6.2678374431
21
20.4526704086
31
0.0000000000
0
SPLINE
5
3A6
100
AcDbEntity
8
0
100
AcDbSpline
62
7
6
CONTINUOUS
70
0
71
3
72
8
73
4
74
2
42
0.0000001000
43
0.0000001000
44
0.0000000001
12
0.0089331674
22
-0.0014433014
32
0.0000000000
13
0.0087799809
23
-0.0021117907
33
0.0000000000
40
0.0000000000
40
0.0000000000
40
0.0000000000
40
0.0000000000
40
1.0000000000
40
1.0000000000
40
1.0000000000
40
1.0000000000
10
6.2678374431
20
20.4526704086
30
0.0000000000
10
6.2708151656
20
20.4521893081
30
0.0000000000
10
6.2737725199
20
20.4515953358
30
0.0000000000
10
6.2766991803
20
20.4508914056
30
0.0000000000
11
6.2678374431
21
20.4526704086
31
0.0000000000
11
6.2766991803
21
20.4508914056
31
0.0000000000
0
SPLINE
5
3A7
100
AcDbEntity
8
0
100
AcDbSpline
62
7
6
CONTINUOUS
70
0
71
3
72
23
73
19
74
17
42
0.0000001000
43
0.0000001000
44
0.0000000001
12
-0.5994222496
22
0.0044899655
32
0.0000000000
13
-0.0734074089
23
-0.5956542508
33
0.0000000000
40
0.0000000000
40
0.0000000000
40
0.0000000000
40
0.0000000000
40
0.0666281083
40
0.1419986479
40
0.2096673835
40
0.2709200464
40
0.3271631669
40
0.3800853002
40
0.4320287528
40
0.4854959484
40
0.5428121976
40
0.6048418448
40
0.6710177124
40
0.7400843982
40
0.8109711461
40
0.8828679138
40
0.9553732983
40
1.0000000000
40
1.0000000000
40
1.0000000000
40
1.0000000000
10
4.7732995075
20
20.4652174942
30
0.0000000000
10
4.7599867174
20
20.4653172135
30
0.0000000000
10
4.7316122804
20
20.4653183339
30
0.0000000000
10
4.6897225427
20
20.4645223384
30
0.0000000000
10
4.6489371231
20
20.4627337459
30
0.0000000000
10
4.6120323063
20
20.4600233437
30
0.0000000000
10
4.5781749420
20
20.4563119314
30
0.0000000000
10
4.5463507428
20
20.4513780993
30
0.0000000000
10
4.5153916150
20
20.4447642347
30
0.0000000000
10
4.4841385328
20
20.4356656424
30
0.0000000000
10
4.4519681929
20
20.4229515653
30
0.0000000000
10
4.4191969824
20
20.4054196348
30
0.0000000000
10
4.3871313333
20
20.3822669934
30
0.0000000000
10
4.3575546118
20
20.3533696859
30
0.0000000000
10
4.3321883620
20
20.3192535218
30
0.0000000000
10
4.3123829015
20
20.2808434674
30
0.0000000000
10
4.3008180722
20
20.2447106511
30
0.0000000000
10
4.2967516268
20
20.2215868087
30
0.0000000000
10
4.2956596500
20
20.2127261139
30
0.0000000000
11
4.7732995075
21
20.4652174942
31
0.0000000000
11
4.7333601627
21
20.4651993293
31
0.0000000000
11
4.6881896887
21
20.4642961705
31
0.0000000000
11
4.6476680836
21
20.4624686288
31
0.0000000000
11
4.6110541621
21
20.4597220039
31
0.0000000000
11
4.5775481898
21
20.4559832765
31
0.0000000000
11
4.5462108495
21
20.4510503955
31
0.0000000000
11
4.5157784649
21
20.4444659183
31
0.0000000000
11
4.4850300668
21
20.4354251951
31
0.0000000000
11
4.4531074920
21
20.4227222266
31
0.0000000000
11
4.4203525000
21
20.4051252878
31
0.0000000000
11
4.3882183634
21
20.3818671413
31
0.0000000000
11
4.3586252504
21
20.3529142219
31
0.0000000000
11
4.3332856104
21
20.3188047870
31
0.0000000000
11
4.3135419564
21
20.2804960690
31
0.0000000000
11
4.3003001612
21
20.2391003745
31
0.0000000000
11
4.2956596500
21
20.2127261139
31
0.0000000000
0
SPLINE
5
3A8
100
AcDbEntity
8
0
100
AcDbSpline
62
7
6
CONTINUOUS
70
0
71
3
72
9
73
5
74
3
42
0.0000001000
43
0.0000001000
44
0.0000000001
12
0.0272003233
22
-0.0001539400
32
0.0000000000
13
0.0263780700
23
-0.0063445427
33
0.0000000000
40
0.0000000000
40
0.0000000000
40
0.0000000000
40
0.0000000000
40
0.0103896996
40
1.0000000000
40
1.0000000000
40
1.0000000000
40
1.0000000000
10
-9.0767544100
20
24.1405676695
30
0.0000000000
10
-9.0766602090
20
24.1405671364
30
0.0000000000
10
-9.0675934100
20
24.1405047097
30
0.0000000000
10
-9.0585266144
20
24.1393718105
30
0.0000000000
10
-9.0498252779
20
24.1372789356
30
0.0000000000
11
-9.0767544100
21
24.1405676695
31
0.0000000000
11
-9.0764718063
21
24.1405657237
31
0.0000000000
11
-9.0498252779
21
24.1372789356
31
0.0000000000
0
SPLINE
5
3A9
100
AcDbEntity
8
0
100
AcDbSpline
62
7
6
CONTINUOUS
70
0
71
3
72
23
73
19
74
17
42
0.0000001000
43
0.0000001000
44
0.0000000001
12
-0.5943973473
22
0.0033230245
32
0.0000000000
13
-0.0727890620
23
-0.5906441796
33
0.0000000000
40
0.0000000000
40
0.0000000000
40
0.0000000000
40
0.0000000000
40
0.0660286162
40
0.1409322789
40
0.2082292509
40
0.2692149392
40
0.3253015018
40
0.3781847343
40
0.4302041029
40
0.4838221122
40
0.5413372391
40
0.6035799437
40
0.6700137032
40
0.7393965698
40
0.8106518050
40
0.8829549150
40
0.9556653488
40
1.0000000000
40
1.0000000000
40
1.0000000000
40
1.0000000000
10
-10.5463015966
20
24.1487614892
30
0.0000000000
10
-10.5593840080
20
24.1488346274
30
0.0000000000
10
-10.5873089001
20
24.1487816336
30
0.0000000000
10
-10.6285603896
20
24.1479124703
30
0.0000000000
10
-10.6687804652
20
24.1460563057
30
0.0000000000
10
-10.7052113540
20
24.1432859596
30
0.0000000000
10
-10.7386825555
20
24.1395167171
30
0.0000000000
10
-10.7701995400
20
24.1345202911
30
0.0000000000
10
-10.8009095682
20
24.1278338273
30
0.0000000000
10
-10.8319417274
20
24.1186519170
30
0.0000000000
10
-10.8638873146
20
24.1058560346
30
0.0000000000
10
-10.8964210786
20
24.0882613021
30
0.0000000000
10
-10.9282478358
20
24.0650797928
30
0.0000000000
10
-10.9576044171
20
24.0361875532
30
0.0000000000
10
-10.9827791653
20
24.0021048522
30
0.0000000000
10
-11.0024041113
20
23.9637917858
30
0.0000000000
10
-11.0138184756
20
23.9278804687
30
0.0000000000
10
-11.0178299350
20
23.9049664453
30
0.0000000000
10
-11.0189056275
20
23.8962377774
30
0.0000000000
11
-10.5463015966
21
24.1487614892
31
0.0000000000
11
-10.5855491893
21
24.1486674773
31
0.0000000000
11
-10.6300610342
21
24.1476849736
31
0.0000000000
11
-10.6700174313
21
24.1457906821
31
0.0000000000
11
-10.7061585537
21
24.1429851420
31
0.0000000000
11
-10.7392796431
21
24.1391899654
31
0.0000000000
11
-10.7703142232
21
24.1341963720
31
0.0000000000
11
-10.8005095547
21
24.1275401315
31
0.0000000000
11
-10.8310466373
21
24.1184178555
31
0.0000000000
11
-10.8627531660
21
24.1056333421
31
0.0000000000
11
-10.8952660616
21
24.0879785621
31
0.0000000000
11
-10.9271590194
21
24.0646943235
31
0.0000000000
11
-10.9565329991
21
24.0357460925
31
0.0000000000
11
-10.9816833589
21
24.0016678569
31
0.0000000000
11
-11.0012690332
21
23.9634132228
31
0.0000000000
11
-11.0143542074
21
23.9222226530
31
0.0000000000
11
-11.0189056275
21
23.8962377774
31
0.0000000000
0
SPLINE
5
3AA
100
AcDbEntity
8
0
100
AcDbSpline
62
7
6
CONTINUOUS
70
0
71
3
72
10
73
6
74
4
42
0.0000001000
43
0.0000001000
44
0.0000000001
12
0.0485532962
22
-0.0116782031
32
0.0000000000
13
0.0499133821
23
-0.0018100546
33
0.0000000000
40
0.0000000000
40
0.0000000000
40
0.0000000000
40
0.0000000000
40
0.3668407850
40
0.7349278479
40
1.0000000000
40
1.0000000000
40
1.0000000000
40
1.0000000000
10
-3.7621761295
20
-25.4231702917
30
0.0000000000
10
-3.7562390198
20
-25.4245983055
30
0.0000000000
10
-3.7442349572
20
-25.4270241117
30
0.0000000000
10
-3.7277073375
20
-25.4291172494
30
0.0000000000
10
-3.7171811330
20
-25.4297782506
30
0.0000000000
10
-3.7127709172
20
-25.4299381823
30
0.0000000000
11
-3.7621761295
21
-25.4231702917
31
0.0000000000
11
-3.7442197979
21
-25.4267988746
31
0.0000000000
11
-3.7259839309
21
-25.4291083658
31
0.0000000000
11
-3.7127709172
21
-25.4299381823
31
0.0000000000
0
SPLINE
5
3AB
100
AcDbEntity
8
0
100
AcDbSpline
62
7
6
CONTINUOUS
70
0
71
3
72
16
73
12
74
10
42
0.0000001000
43
0.0000001000
44
0.0000000001
12
-0.3538453444
22
0.0851080797
32
0.0000000000
13
0.0445487114
23
0.3616348423
33
0.0000000000
40
0.0000000000
40
0.0000000000
40
0.0000000000
40
0.0000000000
40
0.1089861312
40
0.2143251653
40
0.3214872945
40
0.4300988034
40
0.5402025214
40
0.6527659722
40
0.7678118730
40
0.8846737874
40
1.0000000000
40
1.0000000000
40
1.0000000000
40
1.0000000000
10
-19.9268432983
20
-21.5351898406
30
0.0000000000
10
-19.9396980433
20
-21.5320979738
30
0.0000000000
10
-19.9645397965
20
-21.5239923057
30
0.0000000000
10
-19.9994104628
20
-21.5062062035
30
0.0000000000
10
-20.0310997049
20
-21.4832748189
30
0.0000000000
10
-20.0592188862
20
-21.4552529949
30
0.0000000000
10
-20.0829248739
20
-21.4225875730
30
0.0000000000
10
-20.1013981880
20
-21.3858140064
30
0.0000000000
10
-20.1137921792
20
-21.3457000316
30
0.0000000000
10
-20.1193073927
20
-21.3037331134
30
0.0000000000
10
-20.1182159359
20
-21.2754516540
30
0.0000000000
10
-20.1165033912
20
-21.2615496617
30
0.0000000000
11
-19.9268432983
21
-21.5351898406
31
0.0000000000
11
-19.9645501847
21
-21.5228842441
31
0.0000000000
11
-19.9987019789
21
-21.5054669961
31
0.0000000000
11
-20.0302968294
21
-21.4826025392
31
0.0000000000
11
-20.0582957380
21
-21.4547009047
31
0.0000000000
11
-20.0818310543
21
-21.4222701092
31
0.0000000000
11
-20.1002202111
21
-21.3856634217
31
0.0000000000
11
-20.1125798832
21
-21.3456598321
31
0.0000000000
11
-20.1181210858
21
-21.3034920158
31
0.0000000000
11
-20.1165033912
21
-21.2615496617
31
0.0000000000
0
SPLINE
5
3AC
100
AcDbEntity
8
0
100
AcDbSpline
62
7
6
CONTINUOUS
70
0
71
3
72
17
73
13
74
11
42
0.0000001000
43
0.0000001000
44
0.0000000001
12
-0.3632445318
22
0.0020911291
32
0.0000000000
13
-0.0444525122
23
-0.3607743518
33
0.0000000000
40
0.0000000000
40
0.0000000000
40
0.0000000000
40
0.0000000000
40
0.0929128739
40
0.1980014710
40
0.3033729563
40
0.4099550656
40
0.5177623143
40
0.6272812667
40
0.7386515131
40
0.8513067919
40
0.9658081014
40
1.0000000000
40
1.0000000000
40
1.0000000000
40
1.0000000000
10
-14.4849133036
20
22.6370592015
30
0.0000000000
10
-14.4961633347
20
22.6371239658
30
0.0000000000
10
-14.5201775004
20
22.6356412420
30
0.0000000000
10
-14.5562563974
20
22.6281122135
30
0.0000000000
10
-14.5923313690
20
22.6145887818
30
0.0000000000
10
-14.6261921757
20
22.5955254781
30
0.0000000000
10
-14.6570823957
20
22.5711225425
30
0.0000000000
10
-14.6841460533
20
22.5417315177
30
0.0000000000
10
-14.7064898719
20
22.5078941021
30
0.0000000000
10
-14.7233001697
20
22.4703258524
30
0.0000000000
10
-14.7313338947
20
22.4395762190
30
0.0000000000
10
-14.7339815262
20
22.4217497486
30
0.0000000000
10
-14.7344881648
20
22.4176378953
30
0.0000000000
11
-14.4849133036
21
22.6370592015
31
0.0000000000
11
-14.5185980358
21
22.6349768680
31
0.0000000000
11
-14.5559530476
21
22.6271832477
31
0.0000000000
11
-14.5917802030
21
22.6137518493
31
0.0000000000
11
-14.6255046521
21
22.5947654826
31
0.0000000000
11
-14.6562222777
21
22.5704986276
31
0.0000000000
11
-14.6831602579
21
22.5412437616
31
0.0000000000
11
-14.7054442007
21
22.5074969579
31
0.0000000000
11
-14.7221515715
21
22.4701574000
31
0.0000000000
11
-14.7326621957
21
22.4299305841
31
0.0000000000
11
-14.7344881648
21
22.4176378953
31
0.0000000000
0
SPLINE
5
3AD
100
AcDbEntity
8
0
100
AcDbSpline
62
7
6
CONTINUOUS
70
0
71
3
72
8
73
4
74
2
42
0.0000001000
43
0.0000001000
44
0.0000000001
12
-0.0302032720
22
0.0834892638
32
0.0000000000
13
-0.0338011256
23
0.0820659675
33
0.0000000000
40
0.0000000000
40
0.0000000000
40
0.0000000000
40
0.0000000000
40
1.0000000000
40
1.0000000000
40
1.0000000000
40
1.0000000000
10
2.3080275810
20
13.9567885764
30
0.0000000000
10
2.2979598237
20
13.9846183310
30
0.0000000000
10
2.2872996109
20
14.0122305819
30
0.0000000000
10
2.2760325690
20
14.0395859044
30
0.0000000000
11
2.3080275810
21
13.9567885764
31
0.0000000000
11
2.2760325690
21
14.0395859044
31
0.0000000000
0
SPLINE
5
3AE
100
AcDbEntity
8
0
100
AcDbSpline
62
7
6
CONTINUOUS
70
0
71
3
72
10
73
6
74
4
42
0.0000001000
43
0.0000001000
44
0.0000000001
12
-1.6813309785
22
0.4043854724
32
0.0000000000
13
-1.7283360964
23
0.0425490322
33
0.0000000000
40
0.0000000000
40
0.0000000000
40
0.0000000000
40
0.0000000000
40
0.2904848498
40
0.6444297484
40
1.0000000000
40
1.0000000000
40
1.0000000000
40
1.0000000000
10
3.2578478766
20
14.9434932470
30
0.0000000000
10
3.0950474843
20
14.9826491981
30
0.0000000000
10
2.7311825164
20
15.0583015493
30
0.0000000000
10
2.1597268145
20
15.1366674107
30
0.0000000000
10
1.7511696828
20
15.1617984943
30
0.0000000000
10
1.5463213826
20
15.1668415509
30
0.0000000000
11
3.2578478766
21
14.9434932470
31
0.0000000000
11
2.7661203890
21
15.0457413371
31
0.0000000000
11
2.1598840157
21
15.1289572290
31
0.0000000000
11
1.5463213826
21
15.1668415509
31
0.0000000000
0
SPLINE
5
3AF
100
AcDbEntity
8
0
100
AcDbSpline
62
7
6
CONTINUOUS
70
0
71
3
72
10
73
6
74
4
42
0.0000001000
43
0.0000001000
44
0.0000000001
12
0.0279755167
22
-0.0067287659
32
0.0000000000
13
0.0278231896
23
-0.0073332083
33
0.0000000000
40
0.0000000000
40
0.0000000000
40
0.0000000000
40
0.0000000000
40
0.3441895714
40
0.6776119056
40
1.0000000000
40
1.0000000000
40
1.0000000000
40
1.0000000000
10
-1.4086540659
20
14.8906704566
30
0.0000000000
10
-1.4054444389
20
14.8898984663
30
0.0000000000
10
-1.3991304645
20
14.8883582657
30
0.0000000000
10
-1.3898285436
20
14.8860204846
30
0.0000000000
10
-1.3837397799
20
14.8844420578
30
0.0000000000
10
-1.3807498248
20
14.8836540114
30
0.0000000000
11
-1.4086540659
21
14.8906704566
31
0.0000000000
11
-1.3990329432
21
14.8883224634
31
0.0000000000
11
-1.3897288851
21
14.8859829834
31
0.0000000000
11
-1.3807498248
21
14.8836540114
31
0.0000000000
0
SPLINE
5
3B0
100
AcDbEntity
8
0
100
AcDbSpline
62
7
6
CONTINUOUS
70
0
71
3
72
15
73
11
74
9
42
0.0000001000
43
0.0000001000
44
0.0000000001
12
-0.0304918852
22
-0.2474650684
32
0.0000000000
13
-0.2333995898
23
-0.0891483468
33
0.0000000000
40
0.0000000000
40
0.0000000000
40
0.0000000000
40
0.0000000000
40
0.1550689989
40
0.3067392968
40
0.4520564682
40
0.5912977787
40
0.7224626568
40
0.8458876469
40
0.9626282309
40
1.0000000000
40
1.0000000000
40
1.0000000000
40
1.0000000000
10
1.6475963641
20
-26.9480481951
30
0.0000000000
10
1.6460202487
20
-26.9608395819
30
0.0000000000
10
1.6415417647
20
-26.9859981806
30
0.0000000000
10
1.6308354112
20
-27.0220955733
30
0.0000000000
10
1.6164272311
20
-27.0554672441
30
0.0000000000
10
1.5986820257
20
-27.0852398593
30
0.0000000000
10
1.5779644529
20
-27.1107460338
30
0.0000000000
10
1.5547630193
20
-27.1313304692
30
0.0000000000
10
1.5348615920
20
-27.1432832433
30
0.0000000000
10
1.5230336146
20
-27.1482879800
30
0.0000000000
10
1.5201260961
20
-27.1493985238
30
0.0000000000
11
1.6475963641
21
-26.9480481951
31
0.0000000000
11
1.6407800647
21
-26.9861069853
31
0.0000000000
11
1.6299610840
21
-27.0223433106
31
0.0000000000
11
1.6155099672
21
-27.0555696100
31
0.0000000000
11
1.5976260115
21
-27.0853269628
31
0.0000000000
11
1.5768898648
21
-27.1106168184
31
0.0000000000
11
1.5537602030
21
-27.1309165734
31
0.0000000000
11
1.5287244185
21
-27.1457647172
31
0.0000000000
11
1.5201260961
21
-27.1493985238
31
0.0000000000
0
SPLINE
5
3B1
100
AcDbEntity
8
0
100
AcDbSpline
62
7
6
CONTINUOUS
70
0
71
3
72
9
73
5
74
3
42
0.0000001000
43
0.0000001000
44
0.0000000001
12
-0.0423542098
22
-0.0161774397
32
0.0000000000
13
-0.0453630567
23
0.0003679787
33
0.0000000000
40
0.0000000000
40
0.0000000000
40
0.0000000000
40
0.0000000000
40
0.4038565669
40
1.0000000000
40
1.0000000000
40
1.0000000000
40
1.0000000000
10
1.5201260961
20
-27.1493985238
30
0.0000000000
10
1.5144244208
20
-27.1515763122
30
0.0000000000
10
1.4999324125
20
-27.1559871647
30
0.0000000000
10
1.4848113879
20
-27.1576394319
30
0.0000000000
10
1.4757970918
20
-27.1575663092
30
0.0000000000
11
1.5201260961
21
-27.1493985238
31
0.0000000000
11
1.5026164427
21
-27.1546890901
31
0.0000000000
11
1.4757970918
21
-27.1575663092
31
0.0000000000
0
SPLINE
5
3B2
100
AcDbEntity
8
0
100
AcDbSpline
62
7
6
CONTINUOUS
70
0
71
3
72
8
73
4
74
2
42
0.0000001000
43
0.0000001000
44
0.0000000001
12
-0.0032851665
22
0.0000266488
32
0.0000000000
13
-0.0032836870
23
0.0001199206
33
0.0000000000
40
0.0000000000
40
0.0000000000
40
0.0000000000
40
0.0000000000
40
1.0000000000
40
1.0000000000
40
1.0000000000
40
1.0000000000
10
1.4757970918
20
-27.1575663092
30
0.0000000000
10
1.4747020363
20
-27.1575574262
30
0.0000000000
10
1.4736069808
20
-27.1575329284
30
0.0000000000
10
1.4725124185
20
-27.1574929548
30
0.0000000000
11
1.4757970918
21
-27.1575663092
31
0.0000000000
11
1.4725124185
21
-27.1574929548
31
0.0000000000
0
SPLINE
5
3B3
100
AcDbEntity
8
0
100
AcDbSpline
62
7
6
CONTINUOUS
70
0
71
3
72
16
73
12
74
10
42
0.0000001000
43
0.0000001000
44
0.0000000001
12
-0.0344541270
22
-0.2796217036
32
0.0000000000
13
-0.2808706341
23
-0.0287806823
33
0.0000000000
40
0.0000000000
40
0.0000000000
40
0.0000000000
40
0.0000000000
40
0.1372491932
40
0.2714917360
40
0.4001115332
40
0.5233520416
40
0.6394407453
40
0.7486759628
40
0.8519902312
40
0.9499172610
40
1.0000000000
40
1.0000000000
40
1.0000000000
40
1.0000000000
10
-13.6789321794
20
-23.2616403412
30
0.0000000000
10
-13.6805084465
20
-23.2744329590
30
0.0000000000
10
-13.6849873598
20
-23.2995941171
30
0.0000000000
10
-13.6956946190
20
-23.3356953348
30
0.0000000000
10
-13.7101039182
20
-23.3690706758
30
0.0000000000
10
-13.7278502152
20
-23.3988463619
30
0.0000000000
10
-13.7485685612
20
-23.4243548116
30
0.0000000000
10
-13.7717701088
20
-23.4449406601
30
0.0000000000
10
-13.7969259786
20
-23.4600504451
30
0.0000000000
10
-13.8194019600
20
-23.4678429236
30
0.0000000000
10
-13.8331729266
20
-23.4700887247
30
0.0000000000
10
-13.8378618502
20
-23.4705691965
30
0.0000000000
11
-13.6789321794
21
-23.2616403412
31
0.0000000000
11
-13.6857490742
21
-23.2997028047
31
0.0000000000
11
-13.6965689922
21
-23.3359430855
31
0.0000000000
11
-13.7110213096
21
-23.3691732171
31
0.0000000000
11
-13.7289064749
21
-23.3989337931
31
0.0000000000
11
-13.7496434032
21
-23.4242258687
31
0.0000000000
11
-13.7727733363
21
-23.4445270925
31
0.0000000000
11
-13.7978083713
21
-23.4593758977
31
0.0000000000
11
-13.8239146259
21
-23.4683005739
31
0.0000000000
11
-13.8378618502
21
-23.4705691965
31
0.0000000000
0
SPLINE
5
3B4
100
AcDbEntity
8
0
100
AcDbSpline
62
7
6
CONTINUOUS
70
0
71
3
72
8
73
4
74
2
42
0.0000001000
43
0.0000001000
44
0.0000000001
12
-0.0039106618
22
-0.0004007237
32
0.0000000000
13
-0.0039221295
23
-0.0002704166
33
0.0000000000
40
0.0000000000
40
0.0000000000
40
0.0000000000
40
0.0000000000
40
1.0000000000
40
1.0000000000
40
1.0000000000
40
1.0000000000
10
-13.8378618502
20
-23.4705691965
30
0.0000000000
10
-13.8391654041
20
-23.4707027710
30
0.0000000000
10
-13.8404712132
20
-23.4708147475
30
0.0000000000
10
-13.8417785897
20
-23.4709048863
30
0.0000000000
11
-13.8378618502
21
-23.4705691965
31
0.0000000000
11
-13.8417785897
21
-23.4709048863
31
0.0000000000
0
SPLINE
5
3B5
100
AcDbEntity
8
0
100
AcDbSpline
62
7
6
CONTINUOUS
70
0
71
3
72
9
73
5
74
3
42
0.0000001000
43
0.0000001000
44
0.0000000001
12
-0.0120248745
22
-0.0008290716
32
0.0000000000
13
-0.0120529062
23
0.0004205089
33
0.0000000000
40
0.0000000000
40
0.0000000000
40
0.0000000000
40
0.0000000000
40
0.7431595332
40
1.0000000000
40
1.0000000000
40
1.0000000000
40
1.0000000000
10
-13.8417785897
20
-23.4709048863
30
0.0000000000
10
-13.8447573897
20
-23.4711102638
30
0.0000000000
10
-13.8487766303
20
-23.4712340742
30
0.0000000000
10
-13.8527958740
20
-23.4711474886
30
0.0000000000
10
-13.8538277653
20
-23.4711114874
30
0.0000000000
11
-13.8417785897
21
-23.4709048863
31
0.0000000000
11
-13.8507312654
21
-23.4711780868
31
0.0000000000
11
-13.8538277653
21
-23.4711114874
31
0.0000000000
0
SPLINE
5
3B6
100
AcDbEntity
8
0
100
AcDbSpline
62
7
6
CONTINUOUS
70
0
71
3
72
17
73
13
74
11
42
0.0000001000
43
0.0000001000
44
0.0000000001
12
0.3350533884
22
-0.0805881749
32
0.0000000000
13
-0.0421429272
23
-0.3420222225
33
0.0000000000
40
0.0000000000
40
0.0000000000
40
0.0000000000
40
0.0000000000
40
0.0799047279
40
0.1638485988
40
0.2523219089
40
0.3468709543
40
0.4466873276
40
0.5515433273
40
0.6608798301
40
0.7725561159
40
0.8864084777
40
1.0000000000
40
1.0000000000
40
1.0000000000
40
1.0000000000
10
7.2850299768
20
20.2083642701
30
0.0000000000
10
7.2939540934
20
20.2062178113
30
0.0000000000
10
7.3117980093
20
20.1996951404
30
0.0000000000
10
7.3364997574
20
20.1841895011
30
0.0000000000
10
7.3591056520
20
20.1632318506
30
0.0000000000
10
7.3790471732
20
20.1374164680
30
0.0000000000
10
7.3959153326
20
20.1073431043
30
0.0000000000
10
7.4093224456
20
20.0737555455
30
0.0000000000
10
7.4189434713
20
20.0374932243
30
0.0000000000
10
7.4245762068
20
19.9993630380
30
0.0000000000
10
7.4260765873
20
19.9603659016
30
0.0000000000
10
7.4242880040
20
19.9342413530
30
0.0000000000
10
7.4226923109
20
19.9212910781
30
0.0000000000
11
7.2850299768
21
20.2083642701
31
0.0000000000
11
7.3109292060
21
20.1990125747
31
0.0000000000
11
7.3355160115
21
20.1837709729
31
0.0000000000
11
7.3579850641
21
20.1631626887
31
0.0000000000
11
7.3780258492
21
20.1374725759
31
0.0000000000
11
7.3949654494
21
20.1075352264
31
0.0000000000
11
7.4084549882
21
20.0740132931
31
0.0000000000
11
7.4181872745
21
20.0376135883
31
0.0000000000
11
7.4238540805
21
19.9995484580
31
0.0000000000
11
7.4253774201
21
19.9603435161
31
0.0000000000
11
7.4226923109
21
19.9212910781
31
0.0000000000
0
SPLINE
5
3B7
100
AcDbEntity
8
0
100
AcDbSpline
62
7
6
CONTINUOUS
70
0
71
3
72
17
73
13
74
11
42
0.0000001000
43
0.0000001000
44
0.0000000001
12
0.3350636883
22
-0.0805906522
32
0.0000000000
13
-0.0421442227
23
-0.3420327366
33
0.0000000000
40
0.0000000000
40
0.0000000000
40
0.0000000000
40
0.0000000000
40
0.0798906382
40
0.1638239395
40
0.2522898891
40
0.3468351101
40
0.4466520941
40
0.5515117076
40
0.6608552257
40
0.7725401456
40
0.8864010791
40
1.0000000000
40
1.0000000000
40
1.0000000000
40
1.0000000000
10
-8.0414944813
20
23.8947518001
30
0.0000000000
10
-8.0325716640
20
23.8926056538
30
0.0000000000
10
-8.0147299280
20
23.8860835860
30
0.0000000000
10
-7.9900308723
20
23.8705789009
30
0.0000000000
10
-7.9674266920
20
23.8496216950
30
0.0000000000
10
-7.9474860211
20
23.8238059332
30
0.0000000000
10
-7.9306180816
20
23.7937311835
30
0.0000000000
10
-7.9172107788
20
23.7601411182
30
0.0000000000
10
-7.9075894571
20
23.7238753950
30
0.0000000000
10
-7.9019565434
20
23.6857412261
30
0.0000000000
10
-7.9004562240
20
23.6467400595
30
0.0000000000
10
-7.9022450157
20
23.6206128794
30
0.0000000000
10
-7.9038408618
20
23.6076613628
30
0.0000000000
11
-8.0414944813
21
23.8947518001
31
0.0000000000
11
-8.0155990924
21
23.8854012738
31
0.0000000000
11
-7.9910149125
21
23.8701606619
31
0.0000000000
11
-7.9685475548
21
23.8495528960
31
0.0000000000
11
-7.9485076343
21
23.8238625100
31
0.0000000000
11
-7.9315681300
21
23.7939236495
31
0.0000000000
11
-7.9180783859
21
23.7603992589
31
0.0000000000
11
-7.9083457310
21
23.7239959513
31
0.0000000000
11
-7.9026787108
21
23.6859266485
31
0.0000000000
11
-7.9011554346
21
23.6467175408
31
0.0000000000
11
-7.9038408618
21
23.6076613628
31
0.0000000000
0
SPLINE
5
3B8
100
AcDbEntity
8
0
100
AcDbSpline
62
7
6
CONTINUOUS
70
0
71
3
72
14
73
10
74
8
42
0.0000001000
43
0.0000001000
44
0.0000000001
12
-0.2647657062
22
0.0051293508
32
0.0000000000
13
-0.0257040971
23
-0.2734913736
33
0.0000000000
40
0.0000000000
40
0.0000000000
40
0.0000000000
40
0.0000000000
40
0.2629113998
40
0.4890495294
40
0.6752614465
40
0.8192508861
40
0.9204206093
40
0.9816686123
40
1.0000000000
40
1.0000000000
40
1.0000000000
40
1.0000000000
10
-8.6251595888
20
22.7623879579
30
0.0000000000
10
-8.6483628963
20
22.7628374795
30
0.0000000000
10
-8.6915177840
20
22.7631639258
30
0.0000000000
10
-8.7511937202
20
22.7616967690
30
0.0000000000
10
-8.8000042093
20
22.7582570476
30
0.0000000000
10
-8.8382837366
20
22.7531066604
30
0.0000000000
10
-8.8634149686
20
22.7461488260
30
0.0000000000
10
-8.8797119101
20
22.7386915143
30
0.0000000000
10
-8.8815717947
20
22.7316438442
30
0.0000000000
10
-8.8817288586
20
22.7299726854
30
0.0000000000
11
-8.6251595888
21
22.7623879579
31
0.0000000000
11
-8.6947814293
21
22.7627870327
31
0.0000000000
11
-8.7546428748
21
22.7611127056
31
0.0000000000
11
-8.8038140464
21
22.7573914664
31
0.0000000000
11
-8.8415152068
21
22.7516847486
31
0.0000000000
11
-8.8672025493
21
22.7440732992
31
0.0000000000
11
-8.8804328910
21
22.7346910053
31
0.0000000000
11
-8.8817288586
21
22.7299726854
31
0.0000000000
0
SPLINE
5
3B9
100
AcDbEntity
8
0
100
AcDbSpline
62
7
6
CONTINUOUS
70
0
71
3
72
16
73
12
74
10
42
0.0000001000
43
0.0000001000
44
0.0000000001
12
-0.3505934476
22
0.0086310828
32
0.0000000000
13
-0.3409753697
23
0.0820125498
33
0.0000000000
40
0.0000000000
40
0.0000000000
40
0.0000000000
40
0.0000000000
40
0.0978515240
40
0.2071287082
40
0.3240351540
40
0.4460983720
40
0.5685632129
40
0.6890862185
40
0.8029731419
40
0.9078231404
40
1.0000000000
40
1.0000000000
40
1.0000000000
40
1.0000000000
10
1.4378564084
20
15.1695117953
30
0.0000000000
10
1.4264210407
20
15.1697933168
30
0.0000000000
10
1.4022250730
20
15.1708145057
30
0.0000000000
10
1.3644287049
20
15.1733687754
30
0.0000000000
10
1.3238764308
20
15.1769815624
30
0.0000000000
10
1.2818690234
20
15.1815407474
30
0.0000000000
10
1.2395332511
20
15.1869254962
30
0.0000000000
10
1.1982507795
20
15.1929596279
30
0.0000000000
10
1.1591276764
20
15.1994790242
30
0.0000000000
10
1.1234186651
20
15.2062696166
30
0.0000000000
10
1.1009150978
20
15.2112007041
30
0.0000000000
10
1.0904384182
20
15.2137205906
30
0.0000000000
11
1.4378564084
21
15.1695117953
31
0.0000000000
11
1.4035677850
21
15.1708946587
31
0.0000000000
11
1.3653289448
21
15.1734401776
31
0.0000000000
11
1.3244896635
21
15.1770561705
31
0.0000000000
11
1.2819310520
21
15.1816658632
31
0.0000000000
11
1.2393262255
21
15.1870873097
31
0.0000000000
11
1.1975053658
21
15.1932148697
31
0.0000000000
11
1.1581132478
21
15.1998082891
31
0.0000000000
11
1.1219986234
21
15.2067242179
31
0.0000000000
11
1.0904384182
21
15.2137205906
31
0.0000000000
0
SPLINE
5
3BA
100
AcDbEntity
8
0
100
AcDbSpline
62
7
6
CONTINUOUS
70
0
71
3
72
14
73
10
74
8
42
0.0000001000
43
0.0000001000
44
0.0000000001
12
-0.2647657062
22
0.0051293508
32
0.0000000000
13
-0.0257040971
23
-0.2734913736
33
0.0000000000
40
0.0000000000
40
0.0000000000
40
0.0000000000
40
0.0000000000
40
0.2629113998
40
0.4890495294
40
0.6752614465
40
0.8192508861
40
0.9204206093
40
0.9816686123
40
1.0000000000
40
1.0000000000
40
1.0000000000
40
1.0000000000
10
0.9203113842
20
20.4664789762
30
0.0000000000
10
0.8971080767
20
20.4669284978
30
0.0000000000
10
0.8539531890
20
20.4672549441
30
0.0000000000
10
0.7942772528
20
20.4657877872
30
0.0000000000
10
0.7454667637
20
20.4623480658
30
0.0000000000
10
0.7071872364
20
20.4571976786
30
0.0000000000
10
0.6820560044
20
20.4502398442
30
0.0000000000
10
0.6657590629
20
20.4427825325
30
0.0000000000
10
0.6638991783
20
20.4357348624
30
0.0000000000
10
0.6637421144
20
20.4340637036
30
0.0000000000
11
0.9203113842
21
20.4664789762
31
0.0000000000
11
0.8506895437
21
20.4668780509
31
0.0000000000
11
0.7908280982
21
20.4652037238
31
0.0000000000
11
0.7416569266
21
20.4614824846
31
0.0000000000
11
0.7039557662
21
20.4557757668
31
0.0000000000
11
0.6782684237
21
20.4481643174
31
0.0000000000
11
0.6650380820
21
20.4387820235
31
0.0000000000
11
0.6637421144
21
20.4340637036
31
0.0000000000
0
SPLINE
5
3BB
100
AcDbEntity
8
0
100
AcDbSpline
62
7
6
CONTINUOUS
70
0
71
3
72
12
73
8
74
6
42
0.0000001000
43
0.0000001000
44
0.0000000001
12
-0.0703268148
22
0.0169152435
32
0.0000000000
13
0.0162864867
23
0.0727756571
33
0.0000000000
40
0.0000000000
40
0.0000000000
40
0.0000000000
40
0.0000000000
40
0.3736920700
40
0.6643998733
40
0.8641160664
40
0.9752211549
40
1.0000000000
40
1.0000000000
40
1.0000000000
40
1.0000000000
10
-15.0742287506
20
19.1017010417
30
0.0000000000
10
-15.0829889416
20
19.1038080725
30
0.0000000000
10
-15.0983211824
20
19.1078150957
30
0.0000000000
10
-15.1188046091
20
19.1141250944
30
0.0000000000
10
-15.1308992297
20
19.1198014138
30
0.0000000000
10
-15.1396979794
20
19.1244264711
30
0.0000000000
10
-15.1394961515
20
19.1277179291
30
0.0000000000
10
-15.1393616314
20
19.1283190281
30
0.0000000000
11
-15.0742287506
21
19.1017010417
31
0.0000000000
11
-15.1003681193
21
19.1085827658
31
0.0000000000
11
-15.1203414982
21
19.1151573134
31
0.0000000000
11
-15.1334651514
21
19.1211951650
31
0.0000000000
11
-15.1394445823
21
19.1265646927
31
0.0000000000
11
-15.1393616314
21
19.1283190281
31
0.0000000000
0
SPLINE
5
3BC
100
AcDbEntity
8
0
100
AcDbSpline
62
7
6
CONTINUOUS
70
0
71
3
72
26
73
22
74
20
42
0.0000001000
43
0.0000001000
44
0.0000000001
12
-1.3893688792
22
0.0481342534
32
0.0000000000
13
0.1296809203
23
1.4380783500
33
0.0000000000
40
0.0000000000
40
0.0000000000
40
0.0000000000
40
0.0000000000
40
0.0571029120
40
0.1195019840
40
0.1862443470
40
0.2562713951
40
0.3285971912
40
0.4019693024
40
0.4754421659
40
0.5476672863
40
0.6177664412
40
0.6844148556
40
0.7468328505
40
0.8038257289
40
0.8547524569
40
0.8986517194
40
0.9350690202
40
0.9633996937
40
0.9835356840
40
0.9957827284
40
1.0000000000
40
1.0000000000
40
1.0000000000
40
1.0000000000
10
-3.6223277843
20
-25.6009214682
30
0.0000000000
10
-3.6487734539
20
-25.6000052662
30
0.0000000000
10
-3.7040950463
20
-25.5974134613
30
0.0000000000
10
-3.7902185016
20
-25.5917468146
30
0.0000000000
10
-3.8822072653
20
-25.5841909055
30
0.0000000000
10
-3.9786547274
20
-25.5748580285
30
0.0000000000
10
-4.0780216964
20
-25.5638943413
30
0.0000000000
10
-4.1788245985
20
-25.5514623038
30
0.0000000000
10
-4.2794162113
20
-25.5377643957
30
0.0000000000
10
-4.3783239862
20
-25.5230014195
30
0.0000000000
10
-4.4739033155
20
-25.5074199933
30
0.0000000000
10
-4.5647732066
20
-25.4912479353
30
0.0000000000
10
-4.6494042703
20
-25.4747602656
30
0.0000000000
10
-4.7265959830
20
-25.4582032168
30
0.0000000000
10
-4.7950086154
20
-25.4418574640
30
0.0000000000
10
-4.8538052553
20
-25.4260055357
30
0.0000000000
10
-4.9016488430
20
-25.4108563252
30
0.0000000000
10
-4.9389551904
20
-25.3969252743
30
0.0000000000
10
-4.9629431938
20
-25.3839124496
30
0.0000000000
10
-4.9784814942
20
-25.3736764327
30
0.0000000000
10
-4.9794248297
20
-25.3654774920
30
0.0000000000
10
-4.9792425298
20
-25.3634559030
30
0.0000000000
11
-3.6223277843
21
-25.6009214682
31
0.0000000000
11
-3.7016292826
21
-25.5972899145
31
0.0000000000
11
-3.7881932514
21
-25.5916524926
31
0.0000000000
11
-3.8806705455
21
-25.5840973879
31
0.0000000000
11
-3.9775722822
21
-25.5747474691
31
0.0000000000
11
-4.0775149632
21
-25.5637356695
31
0.0000000000
11
-4.1787506497
21
-25.5512552225
31
0.0000000000
11
-4.2799580718
21
-25.5374683747
31
0.0000000000
11
-4.3792632198
21
-25.5226305454
31
0.0000000000
11
-4.4754412116
21
-25.5069242033
31
0.0000000000
11
-4.5666554305
21
-25.4906491941
31
0.0000000000
11
-4.6518167454
21
-25.4739993760
31
0.0000000000
11
-4.7292682578
21
-25.4572986076
31
0.0000000000
11
-4.7981035980
21
-25.4407420986
31
0.0000000000
11
-4.8569738335
21
-25.4246542989
31
0.0000000000
11
-4.9051922528
21
-25.4092231719
31
0.0000000000
11
-4.9418214922
21
-25.3947488399
31
0.0000000000
11
-4.9664287265
21
-25.3814035107
31
0.0000000000
11
-4.9785448548
21
-25.3694419175
31
0.0000000000
11
-4.9792425298
21
-25.3634559030
31
0.0000000000
0
SPLINE
5
3BD
100
AcDbEntity
8
0
100
AcDbSpline
62
7
6
CONTINUOUS
70
0
71
3
72
26
73
22
74
20
42
0.0000001000
43
0.0000001000
44
0.0000000001
12
-1.3893688792
22
0.0481342534
32
0.0000000000
13
0.1296809203
23
1.4380783500
33
0.0000000000
40
0.0000000000
40
0.0000000000
40
0.0000000000
40
0.0000000000
40
0.0571029120
40
0.1195019840
40
0.1862443470
40
0.2562713951
40
0.3285971912
40
0.4019693024
40
0.4754421659
40
0.5476672863
40
0.6177664412
40
0.6844148556
40
0.7468328505
40
0.8038257289
40
0.8547524569
40
0.8986517194
40
0.9350690202
40
0.9633996937
40
0.9835356840
40
0.9957827284
40
1.0000000000
40
1.0000000000
40
1.0000000000
40
1.0000000000
10
-13.1677987573
20
-23.3050124864
30
0.0000000000
10
-13.1942444269
20
-23.3040962844
30
0.0000000000
10
-13.2495660193
20
-23.3015044795
30
0.0000000000
10
-13.3356894747
20
-23.2958378329
30
0.0000000000
10
-13.4276782383
20
-23.2882819237
30
0.0000000000
10
-13.5241257004
20
-23.2789490467
30
0.0000000000
10
-13.6234926694
20
-23.2679853595
30
0.0000000000
10
-13.7242955715
20
-23.2555533220
30
0.0000000000
10
-13.8248871843
20
-23.2418554139
30
0.0000000000
10
-13.9237949592
20
-23.2270924377
30
0.0000000000
10
-14.0193742886
20
-23.2115110116
30
0.0000000000
10
-14.1102441796
20
-23.1953389535
30
0.0000000000
10
-14.1948752433
20
-23.1788512838
30
0.0000000000
10
-14.2720669560
20
-23.1622942351
30
0.0000000000
10
-14.3404795884
20
-23.1459484822
30
0.0000000000
10
-14.3992762283
20
-23.1300965539
30
0.0000000000
10
-14.4471198160
20
-23.1149473434
30
0.0000000000
10
-14.4844261634
20
-23.1010162926
30
0.0000000000
10
-14.5084141668
20
-23.0880034678
30
0.0000000000
10
-14.5239524672
20
-23.0777674510
30
0.0000000000
10
-14.5248958027
20
-23.0695685102
30
0.0000000000
10
-14.5247135028
20
-23.0675469212
30
0.0000000000
11
-13.1677987573
21
-23.3050124864
31
0.0000000000
11
-13.2471002556
21
-23.3013809327
31
0.0000000000
11
-13.3336642244
21
-23.2957435108
31
0.0000000000
11
-13.4261415185
21
-23.2881884062
31
0.0000000000
11
-13.5230432552
21
-23.2788384873
31
0.0000000000
11
-13.6229859362
21
-23.2678266877
31
0.0000000000
11
-13.7242216227
21
-23.2553462407
31
0.0000000000
11
-13.8254290448
21
-23.2415593929
31
0.0000000000
11
-13.9247341929
21
-23.2267215636
31
0.0000000000
11
-14.0209121846
21
-23.2110152216
31
0.0000000000
11
-14.1121264035
21
-23.1947402123
31
0.0000000000
11
-14.1972877184
21
-23.1780903942
31
0.0000000000
11
-14.2747392308
21
-23.1613896258
31
0.0000000000
11
-14.3435745710
21
-23.1448331168
31
0.0000000000
11
-14.4024448065
21
-23.1287453171
31
0.0000000000
11
-14.4506632259
21
-23.1133141901
31
0.0000000000
11
-14.4872924652
21
-23.0988398582
31
0.0000000000
11
-14.5118996995
21
-23.0854945289
31
0.0000000000
11
-14.5240158278
21
-23.0735329357
31
0.0000000000
11
-14.5247135028
21
-23.0675469212
31
0.0000000000
0
SPLINE
5
3BE
100
AcDbEntity
8
0
100
AcDbSpline
62
7
6
CONTINUOUS
70
0
71
3
72
12
73
8
74
6
42
0.0000001000
43
0.0000001000
44
0.0000000001
12
-0.0789856518
22
0.0013875760
32
0.0000000000
13
-0.0177872709
23
-0.0794818644
33
0.0000000000
40
0.0000000000
40
0.0000000000
40
0.0000000000
40
0.0000000000
40
0.3581462344
40
0.6422097815
40
0.8438871264
40
0.9631668273
40
1.0000000000
40
1.0000000000
40
1.0000000000
40
1.0000000000
10
-19.6343065762
20
-17.9624158370
30
0.0000000000
10
-19.6437360475
20
-17.9622501853
30
0.0000000000
10
-19.6605518781
20
-17.9623187468
30
0.0000000000
10
-19.6831031577
20
-17.9630361601
30
0.0000000000
10
-19.6981762429
20
-17.9658517564
30
0.0000000000
10
-19.7085649546
20
-17.9672967446
30
0.0000000000
10
-19.7105821181
20
-17.9714427520
30
0.0000000000
10
-19.7108005053
20
-17.9724186084
30
0.0000000000
11
-19.6343065762
21
-17.9624158370
31
0.0000000000
11
-19.6625992926
21
-17.9624751294
31
0.0000000000
11
-19.6850041325
21
-17.9637380579
31
0.0000000000
11
-19.7007514633
21
-17.9661572659
31
0.0000000000
11
-19.7094902195
21
-17.9696820392
31
0.0000000000
11
-19.7108005053
21
-17.9724186084
31
0.0000000000
0
SPLINE
5
3BF
100
AcDbEntity
8
0
100
AcDbSpline
62
9
6
CONTINUOUS
70
0
71
3
72
27
73
23
74
21
42
0.0000001000
43
0.0000001000
44
0.0000000001
12
-0.2955625298
22
-1.6663617386
32
0.0000000000
13
1.6546883372
23
-0.0234847368
33
0.0000000000
40
0.0000000000
40
0.0000000000
40
0.0000000000
40
0.0000000000
40
0.0028229635
40
0.0134647350
40
0.0307759660
40
0.0555258110
40
0.0876814118
40
0.1269226829
40
0.1727629807
40
0.2245920753
40
0.2816991017
40
0.3432893849
40
0.4084989523
40
0.4764084459
40
0.5460582267
40
0.6164638171
40
0.6866282426
40
0.7555556106
40
0.8222723838
40
0.8858398079
40
0.9453560731
40
1.0000000000
40
1.0000000000
40
1.0000000000
40
1.0000000000
10
-11.0184788608
20
23.8961633192
30
0.0000000000
10
-11.0187569816
20
23.8945952931
30
0.0000000000
10
-11.0190187872
20
23.8870900664
30
0.0000000000
10
-11.0054569463
20
23.8736476527
30
0.0000000000
10
-10.9813377757
20
23.8590968503
30
0.0000000000
10
-10.9432868352
20
23.8426080902
30
0.0000000000
10
-10.8932982213
20
23.8253557037
30
0.0000000000
10
-10.8311267868
20
23.8072486868
30
0.0000000000
10
-10.7579195899
20
23.7887352366
30
0.0000000000
10
-10.6745956522
20
23.7700514435
30
0.0000000000
10
-10.5823741592
20
23.7514965046
30
0.0000000000
10
-10.4825599848
20
23.7333396849
30
0.0000000000
10
-10.3765843558
20
23.7158485921
30
0.0000000000
10
-10.2659638123
20
23.6992770863
30
0.0000000000
10
-10.1522830068
20
23.6838649938
30
0.0000000000
10
-10.0371703783
20
23.6698342761
30
0.0000000000
10
-9.9222766421
20
23.6573864125
30
0.0000000000
10
-9.8092493097
20
23.6466991957
30
0.0000000000
10
-9.6997074862
20
23.6379240142
30
0.0000000000
10
-9.5952224416
20
23.6311836564
30
0.0000000000
10
-9.4972881934
20
23.6265700638
30
0.0000000000
10
-9.4343319933
20
23.6248699760
30
0.0000000000
10
-9.4041924371
20
23.6244422099
30
0.0000000000
11
-11.0184788608
21
23.8961633192
31
0.0000000000
11
-11.0185944448
21
23.8915196471
31
0.0000000000
11
-11.0083271362
21
23.8772117748
31
0.0000000000
11
-10.9843497503
21
23.8615347653
31
0.0000000000
11
-10.9470060579
21
23.8447134214
31
0.0000000000
11
-10.8968318112
21
23.8269890583
31
0.0000000000
11
-10.8345465936
21
23.8086158399
31
0.0000000000
11
-10.7610434773
21
23.7898571975
31
0.0000000000
11
-10.6773765047
21
23.7709821318
31
0.0000000000
11
-10.5847454724
21
23.7522613145
31
0.0000000000
11
-10.4844784643
21
23.7339631605
31
0.0000000000
11
-10.3780131656
21
23.7163500562
31
0.0000000000
11
-10.2668768625
21
23.6996746737
31
0.0000000000
11
-10.1526633374
21
23.6841761431
31
0.0000000000
11
-10.0370085801
21
23.6700764946
31
0.0000000000
11
-9.9215712700
21
23.6575780051
31
0.0000000000
11
-9.8080111093
21
23.6468603474
31
0.0000000000
11
-9.6979544614
21
23.6380769409
31
0.0000000000
11
-9.5929746774
21
23.6313534470
31
0.0000000000
11
-9.4945898077
21
23.6267869624
31
0.0000000000
11
-9.4041924371
21
23.6244422099
31
0.0000000000
0
SPLINE
5
3C0
100
AcDbEntity
8
0
100
AcDbSpline
62
7
6
CONTINUOUS
70
0
71
3
72
26
73
22
74
20
42
0.0000001000
43
0.0000001000
44
0.0000000001
12
-0.1350437579
22
-1.4368644285
32
0.0000000000
13
1.3909180907
23
-0.0318488857
33
0.0000000000
40
0.0000000000
40
0.0000000000
40
0.0000000000
40
0.0000000000
40
0.0044513442
40
0.0169193753
40
0.0371532652
40
0.0655213992
40
0.1019405162
40
0.1458179764
40
0.1967062891
40
0.2536492174
40
0.3160092448
40
0.3825950603
40
0.4526294862
40
0.5247905635
40
0.5982022517
40
0.6715186619
40
0.7437963490
40
0.8137854019
40
0.8805021046
40
0.9428904105
40
1.0000000000
40
1.0000000000
40
1.0000000000
40
1.0000000000
10
-8.8817288586
20
22.7299726854
30
0.0000000000
10
-8.8819292340
20
22.7278406927
30
0.0000000000
10
-8.8810121027
20
22.7194419687
30
0.0000000000
10
-8.8656896366
20
22.7085516759
30
0.0000000000
10
-8.8415706735
20
22.6952137579
30
0.0000000000
10
-8.8043356591
20
22.6809331854
30
0.0000000000
10
-8.7564825461
20
22.6655938146
30
0.0000000000
10
-8.6976992912
20
22.6496345304
30
0.0000000000
10
-8.6292779557
20
22.6332962022
30
0.0000000000
10
-8.5520688991
20
22.6168517473
30
0.0000000000
10
-8.4674068616
20
22.6005837790
30
0.0000000000
10
-8.3764941523
20
22.5847346337
30
0.0000000000
10
-8.2808603725
20
22.5695744396
30
0.0000000000
10
-8.1818874686
20
22.5553249358
30
0.0000000000
10
-8.0812210589
20
22.5422242758
30
0.0000000000
10
-7.9803347691
20
22.5304645018
30
0.0000000000
10
-7.8808770030
20
22.5202370375
30
0.0000000000
10
-7.7843325174
20
22.5116932533
30
0.0000000000
10
-7.6922416571
20
22.5049665293
30
0.0000000000
10
-7.6060123122
20
22.5001562911
30
0.0000000000
10
-7.5506237634
20
22.4981746179
30
0.0000000000
10
-7.5241455097
20
22.4975683256
30
0.0000000000
11
-8.8817288586
21
22.7299726854
31
0.0000000000
11
-8.8810271557
21
22.7236594885
31
0.0000000000
11
-8.8689754330
21
22.7111831520
31
0.0000000000
11
-8.8444208946
21
22.6974151871
31
0.0000000000
11
-8.8078314790
21
22.6826183949
31
0.0000000000
11
-8.7596394745
21
22.6669688803
31
0.0000000000
11
-8.7007816989
21
22.6507710318
31
0.0000000000
11
-8.6319448350
21
22.6342141564
31
0.0000000000
11
-8.5544779336
21
22.6176227321
31
0.0000000000
11
-8.4692877902
21
22.6011907212
31
0.0000000000
11
-8.3780320212
21
22.5852377569
31
0.0000000000
11
-8.2818005065
21
22.5699538516
31
0.0000000000
11
-8.1824310037
21
22.5556307779
31
0.0000000000
11
-8.0811493586
21
22.5424446252
31
0.0000000000
11
-7.9798309067
21
22.5306396687
31
0.0000000000
11
-7.8797980611
21
22.5203692861
31
0.0000000000
11
-7.7828000878
21
22.5118137338
31
0.0000000000
11
-7.6902218087
21
22.5050945486
31
0.0000000000
11
-7.6035533899
21
22.5003211717
31
0.0000000000
11
-7.5241455097
21
22.4975683256
31
0.0000000000
0
SPLINE
5
3C1
100
AcDbEntity
8
0
100
AcDbSpline
62
7
6
CONTINUOUS
70
0
71
3
72
26
73
22
74
20
42
0.0000001000
43
0.0000001000
44
0.0000000001
12
-0.1350437579
22
-1.4368644285
32
0.0000000000
13
1.3909180907
23
-0.0318488857
33
0.0000000000
40
0.0000000000
40
0.0000000000
40
0.0000000000
40
0.0000000000
40
0.0044513442
40
0.0169193753
40
0.0371532652
40
0.0655213992
40
0.1019405162
40
0.1458179764
40
0.1967062891
40
0.2536492174
40
0.3160092448
40
0.3825950603
40
0.4526294862
40
0.5247905635
40
0.5982022517
40
0.6715186619
40
0.7437963490
40
0.8137854019
40
0.8805021046
40
0.9428904105
40
1.0000000000
40
1.0000000000
40
1.0000000000
40
1.0000000000
10
0.6637421144
20
20.4340637036
30
0.0000000000
10
0.6635417390
20
20.4319317109
30
0.0000000000
10
0.6644588703
20
20.4235329870
30
0.0000000000
10
0.6797813364
20
20.4126426942
30
0.0000000000
10
0.7039002995
20
20.3993047761
30
0.0000000000
10
0.7411353139
20
20.3850242036
30
0.0000000000
10
0.7889884269
20
20.3696848329
30
0.0000000000
10
0.8477716818
20
20.3537255487
30
0.0000000000
10
0.9161930173
20
20.3373872205
30
0.0000000000
10
0.9934020739
20
20.3209427655
30
0.0000000000
10
1.0780641114
20
20.3046747973
30
0.0000000000
10
1.1689768207
20
20.2888256519
30
0.0000000000
10
1.2646106005
20
20.2736654578
30
0.0000000000
10
1.3635835044
20
20.2594159540
30
0.0000000000
10
1.4642499141
20
20.2463152940
30
0.0000000000
10
1.5651362039
20
20.2345555201
30
0.0000000000
10
1.6645939700
20
20.2243280557
30
0.0000000000
10
1.7611384556
20
20.2157842715
30
0.0000000000
10
1.8532293159
20
20.2090575476
30
0.0000000000
10
1.9394586608
20
20.2042473094
30
0.0000000000
10
1.9948472096
20
20.2022656361
30
0.0000000000
10
2.0213254633
20
20.2016593438
30
0.0000000000
11
0.6637421144
21
20.4340637036
31
0.0000000000
11
0.6644438173
21
20.4277505068
31
0.0000000000
11
0.6764955401
21
20.4152741703
31
0.0000000000
11
0.7010500784
21
20.4015062053
31
0.0000000000
11
0.7376394940
21
20.3867094131
31
0.0000000000
11
0.7858314985
21
20.3710598985
31
0.0000000000
11
0.8446892741
21
20.3548620501
31
0.0000000000
11
0.9135261380
21
20.3383051746
31
0.0000000000
11
0.9909930394
21
20.3217137504
31
0.0000000000
11
1.0761831828
21
20.3052817394
31
0.0000000000
11
1.1674389518
21
20.2893287751
31
0.0000000000
11
1.2636704665
21
20.2740448699
31
0.0000000000
11
1.3630399693
21
20.2597217961
31
0.0000000000
11
1.4643216144
21
20.2465356434
31
0.0000000000
11
1.5656400663
21
20.2347306869
31
0.0000000000
11
1.6656729119
21
20.2244603043
31
0.0000000000
11
1.7626708852
21
20.2159047520
31
0.0000000000
11
1.8552491643
21
20.2091855668
31
0.0000000000
11
1.9419175831
21
20.2044121900
31
0.0000000000
11
2.0213254633
21
20.2016593438
31
0.0000000000
0
SPLINE
5
3C2
100
AcDbEntity
8
0
100
AcDbSpline
62
7
6
CONTINUOUS
70
0
71
3
72
16
73
12
74
10
42
0.0000001000
43
0.0000001000
44
0.0000000001
12
0.6615248641
22
-0.0228527930
32
0.0000000000
13
0.5694980995
23
0.3358210729
33
0.0000000000
40
0.0000000000
40
0.0000000000
40
0.0000000000
40
0.0000000000
40
0.0475217342
40
0.1747790226
40
0.3002575237
40
0.4238608170
40
0.5453073980
40
0.6641970638
40
0.7800293616
40
0.8921940393
40
1.0000000000
40
1.0000000000
40
1.0000000000
40
1.0000000000
10
-0.3017468384
20
-25.5536729542
30
0.0000000000
10
-0.2912679022
20
-25.5540349557
30
0.0000000000
10
-0.2526876109
20
-25.5543982133
30
0.0000000000
10
-0.1865872539
20
-25.5494813746
30
0.0000000000
10
-0.1047506902
20
-25.5353616977
30
0.0000000000
10
-0.0255631057
20
-25.5151508343
30
0.0000000000
10
0.0507072244
20
-25.4901743811
30
0.0000000000
10
0.1238073557
20
-25.4614804318
30
0.0000000000
10
0.1934816237
20
-25.4299502096
30
0.0000000000
10
0.2594535143
20
-25.3963693964
30
0.0000000000
10
0.3017077033
20
-25.3725765064
30
0.0000000000
10
0.3221727999
20
-25.3605086686
30
0.0000000000
11
-0.3017468384
21
-25.5536729542
31
0.0000000000
11
-0.2702958900
21
-25.5539940514
31
0.0000000000
11
-0.1863681054
21
-25.5480974716
31
0.0000000000
11
-0.1045792680
21
-25.5342150035
31
0.0000000000
11
-0.0253607068
21
-25.5141552459
31
0.0000000000
11
0.0509774426
21
-25.4892664738
31
0.0000000000
11
0.1241708341
21
-25.4606119346
31
0.0000000000
11
0.1939595995
21
-25.4290809348
31
0.0000000000
11
0.2600598921
21
-25.3954666815
31
0.0000000000
11
0.3221727999
21
-25.3605086686
31
0.0000000000
0
SPLINE
5
3C3
100
AcDbEntity
8
0
100
AcDbSpline
62
7
6
CONTINUOUS
70
0
71
3
72
12
73
8
74
6
42
0.0000001000
43
0.0000001000
44
0.0000000001
12
-0.0162864867
22
-0.0727756571
32
0.0000000000
13
0.0703268148
23
-0.0169152435
33
0.0000000000
40
0.0000000000
40
0.0000000000
40
0.0000000000
40
0.0000000000
40
0.0247788451
40
0.1358839336
40
0.3356001267
40
0.6263079300
40
1.0000000000
40
1.0000000000
40
1.0000000000
40
1.0000000000
10
-19.7108005053
20
-17.9724186084
30
0.0000000000
10
-19.7109350255
20
-17.9730197073
30
0.0000000000
10
-19.7111368533
20
-17.9763111653
30
0.0000000000
10
-19.7023381036
20
-17.9809362226
30
0.0000000000
10
-19.6902434830
20
-17.9866125420
30
0.0000000000
10
-19.6697600563
20
-17.9929225407
30
0.0000000000
10
-19.6544278155
20
-17.9969295639
30
0.0000000000
10
-19.6456676245
20
-17.9990365947
30
0.0000000000
11
-19.7108005053
21
-17.9724186084
31
0.0000000000
11
-19.7108834562
21
-17.9741729437
31
0.0000000000
11
-19.7049040253
21
-17.9795424714
31
0.0000000000
11
-19.6917803721
21
-17.9855803230
31
0.0000000000
11
-19.6718069932
21
-17.9921548706
31
0.0000000000
11
-19.6456676245
21
-17.9990365947
31
0.0000000000
0
SPLINE
5
3C4
100
AcDbEntity
8
0
100
AcDbSpline
62
9
6
CONTINUOUS
70
0
71
3
72
12
73
8
74
6
42
0.0000001000
43
0.0000001000
44
0.0000000001
12
-0.0002155382
22
-0.0658975964
32
0.0000000000
13
0.0702215938
23
-0.0168899354
33
0.0000000000
40
0.0000000000
40
0.0000000000
40
0.0000000000
40
0.0000000000
40
0.0578268294
40
0.1850735662
40
0.3862876226
40
0.6599400102
40
1.0000000000
40
1.0000000000
40
1.0000000000
40
1.0000000000
10
-20.1164443996
20
-21.2615498523
30
0.0000000000
10
-20.1164485543
20
-21.2628200687
30
0.0000000000
10
-20.1137908946
20
-21.2674904762
30
0.0000000000
10
-20.1053994706
20
-21.2712405751
30
0.0000000000
10
-20.0920319104
20
-21.2770301652
30
0.0000000000
10
-20.0732129658
20
-21.2826117081
30
0.0000000000
10
-20.0589155377
20
-21.2863459741
30
0.0000000000
10
-20.0509556863
20
-21.2882605046
30
0.0000000000
11
-20.1164443996
21
-21.2615498523
31
0.0000000000
11
-20.1146547254
21
-21.2654580851
31
0.0000000000
11
-20.1069827268
21
-21.2705179321
31
0.0000000000
11
-20.0935640897
21
-21.2760977821
31
0.0000000000
11
-20.0747216349
21
-21.2820635982
31
0.0000000000
11
-20.0509556863
21
-21.2882605046
31
0.0000000000
0
SPLINE
5
3C5
100
AcDbEntity
8
0
100
AcDbSpline
62
9
6
CONTINUOUS
70
0
71
3
72
12
73
8
74
6
42
0.0000001000
43
0.0000001000
44
0.0000000001
12
-0.0002325171
22
-0.0658944968
32
0.0000000000
13
0.0702223899
23
-0.0168901269
33
0.0000000000
40
0.0000000000
40
0.0000000000
40
0.0000000000
40
0.0000000000
40
0.0578375098
40
0.1850828042
40
0.3862945796
40
0.6599438651
40
1.0000000000
40
1.0000000000
40
1.0000000000
40
1.0000000000
10
-14.7344293997
20
22.4176363508
30
0.0000000000
10
-14.7344338824
20
22.4163659596
30
0.0000000000
10
-14.7317761434
20
22.4116950900
30
0.0000000000
10
-14.7233844731
20
22.4079448811
30
0.0000000000
10
-14.7100169130
20
22.4021552909
30
0.0000000000
10
-14.6911979684
20
22.3965737480
30
0.0000000000
10
-14.6769005403
20
22.3928394820
30
0.0000000000
10
-14.6689406888
20
22.3909249516
30
0.0000000000
11
-14.7344293997
21
22.4176363508
31
0.0000000000
11
-14.7326397280
21
22.4137273710
31
0.0000000000
11
-14.7249677294
21
22.4086675240
31
0.0000000000
11
-14.7115490922
21
22.4030876741
31
0.0000000000
11
-14.6927066375
21
22.3971218579
31
0.0000000000
11
-14.6689406888
21
22.3909249516
31
0.0000000000
0
SPLINE
5
3C6
100
AcDbEntity
8
0
100
AcDbSpline
62
9
6
CONTINUOUS
70
0
71
3
72
8
73
4
74
2
42
0.0000001000
43
0.0000001000
44
0.0000000001
12
0.0276162847
22
-0.0001689911
32
0.0000000000
13
0.0268098180
23
-0.0063328875
33
0.0000000000
40
0.0000000000
40
0.0000000000
40
0.0000000000
40
0.0000000000
40
1.0000000000
40
1.0000000000
40
1.0000000000
40
1.0000000000
10
-14.4849133028
20
22.6370593416
30
0.0000000000
10
-14.4757078745
20
22.6370030112
30
0.0000000000
10
-14.4665005938
20
22.6358792447
30
0.0000000000
10
-14.4575639878
20
22.6337682822
30
0.0000000000
11
-14.4849133028
21
22.6370593416
31
0.0000000000
11
-14.4575639878
21
22.6337682822
31
0.0000000000
0
SPLINE
5
3C7
100
AcDbEntity
8
0
100
AcDbSpline
62
7
6
CONTINUOUS
70
0
71
3
72
8
73
4
74
2
42
0.0000001000
43
0.0000001000
44
0.0000000001
12
-0.0025369679
22
-0.0020543934
32
0.0000000000
13
-0.0025744023
23
-0.0020072579
33
0.0000000000
40
0.0000000000
40
0.0000000000
40
0.0000000000
40
0.0000000000
40
1.0000000000
40
1.0000000000
40
1.0000000000
40
1.0000000000
10
0.6415720715
20
21.2792789281
30
0.0000000000
10
0.6407264156
20
21.2785941303
30
0.0000000000
10
0.6398745009
20
21.2779170513
30
0.0000000000
10
0.6390163668
20
21.2772479653
30
0.0000000000
11
0.6415720715
21
21.2792789281
31
0.0000000000
11
0.6390163668
21
21.2772479653
31
0.0000000000
0
SPLINE
5
3C8
100
AcDbEntity
8
0
100
AcDbSpline
62
7
6
CONTINUOUS
70
0
71
3
72
8
73
4
74
2
42
0.0000001000
43
0.0000001000
44
0.0000000001
12
-0.0137977121
22
-0.0107580567
32
0.0000000000
13
-0.0148514977
23
-0.0092537417
33
0.0000000000
40
0.0000000000
40
0.0000000000
40
0.0000000000
40
0.0000000000
40
1.0000000000
40
1.0000000000
40
1.0000000000
40
1.0000000000
10
0.6390163668
20
21.2772479653
30
0.0000000000
10
0.6344171295
20
21.2736619464
30
0.0000000000
10
0.6296392382
20
21.2703055297
30
0.0000000000
10
0.6246887389
20
21.2672209491
30
0.0000000000
11
0.6390163668
21
21.2772479653
31
0.0000000000
11
0.6246887389
21
21.2672209491
31
0.0000000000
0
SPLINE
5
3C9
100
AcDbEntity
8
0
100
AcDbSpline
62
7
6
CONTINUOUS
70
0
71
3
72
10
73
6
74
4
42
0.0000001000
43
0.0000001000
44
0.0000000001
12
-0.0614885877
22
-0.0383126010
32
0.0000000000
13
-0.0723609735
23
0.0006762178
33
0.0000000000
40
0.0000000000
40
0.0000000000
40
0.0000000000
40
0.0000000000
40
0.3487481441
40
0.6820504362
40
1.0000000000
40
1.0000000000
40
1.0000000000
40
1.0000000000
10
0.6246887389
20
21.2672209491
30
0.0000000000
10
0.6175407287
20
21.2627671330
30
0.0000000000
10
0.6028575079
20
21.2551651261
30
0.0000000000
10
0.5796553832
20
21.2480784802
30
0.0000000000
10
0.5638907870
20
21.2465388458
30
0.0000000000
10
0.5562217404
20
21.2466105135
30
0.0000000000
11
0.6246887389
21
21.2672209491
31
0.0000000000
11
0.6022264640
21
21.2557168124
31
0.0000000000
11
0.5791278233
21
21.2487752492
31
0.0000000000
11
0.5562217404
21
21.2466105135
31
0.0000000000
0
SPLINE
5
3CA
100
AcDbEntity
8
0
100
AcDbSpline
62
9
6
CONTINUOUS
70
0
71
3
72
27
73
23
74
21
42
0.0000001000
43
0.0000001000
44
0.0000000001
12
-1.6457876937
22
0.0547717429
32
0.0000000000
13
0.3420582857
23
1.6181787295
33
0.0000000000
40
0.0000000000
40
0.0000000000
40
0.0000000000
40
0.0000000000
40
0.0552198774
40
0.1152956939
40
0.1793957642
40
0.2466076919
40
0.3159831987
40
0.3865404688
40
0.4572760242
40
0.5271861871
40
0.5952808630
40
0.6605957768
40
0.7222078179
40
0.7792500943
40
0.8309256915
40
0.8765218470
40
0.9154261659
40
0.9471484097
40
0.9713611586
40
0.9880171216
40
0.9978890106
40
1.0000000000
40
1.0000000000
40
1.0000000000
40
1.0000000000
10
0.1333293477
20
-26.8931183274
30
0.0000000000
10
0.1030359495
20
-26.8921101644
30
0.0000000000
10
0.0398087685
20
-26.8892683969
30
0.0000000000
10
-0.0584689690
20
-26.8830464210
30
0.0000000000
10
-0.1631973805
20
-26.8747471064
30
0.0000000000
10
-0.2728790298
20
-26.8644852335
30
0.0000000000
10
-0.3859402798
20
-26.8524051902
30
0.0000000000
10
-0.5007614126
20
-26.8386785467
30
0.0000000000
10
-0.6156958666
20
-26.8235015343
30
0.0000000000
10
-0.7290953009
20
-26.8070921382
30
0.0000000000
10
-0.8393351740
20
-26.7896865802
30
0.0000000000
10
-0.9448360935
20
-26.7715366529
30
0.0000000000
10
-1.0440883505
20
-26.7529052398
30
0.0000000000
10
-1.1356676911
20
-26.7340675231
30
0.0000000000
10
-1.2182803706
20
-26.7152934098
30
0.0000000000
10
-1.2907089626
20
-26.6968929383
30
0.0000000000
10
-1.3520663060
20
-26.6790710691
30
0.0000000000
10
-1.4011525803
20
-26.6623554098
30
0.0000000000
10
-1.4383750122
20
-26.6464394885
30
0.0000000000
10
-1.4614380631
20
-26.6329905257
30
0.0000000000
10
-1.4743894502
20
-26.6202517464
30
0.0000000000
10
-1.4738739256
20
-26.6137896705
30
0.0000000000
10
-1.4736332318
20
-26.6126510178
30
0.0000000000
11
0.1333293477
21
-26.8931183274
31
0.0000000000
11
0.0424866699
21
-26.8891226796
31
0.0000000000
11
-0.0562463220
21
-26.8829336884
31
0.0000000000
11
-0.1614734134
21
-26.8746389298
31
0.0000000000
11
-0.2716727081
21
-26.8643582860
31
0.0000000000
11
-0.3852685958
21
-26.8522388234
31
0.0000000000
11
-0.5006345324
21
-26.8384540160
31
0.0000000000
11
-0.6161118197
21
-26.8232020289
31
0.0000000000
11
-0.7300441661
21
-26.8067016814
31
0.0000000000
11
-0.8407996376
21
-26.7891893489
31
0.0000000000
11
-0.9467899757
21
-26.7709161551
31
0.0000000000
11
-1.0464946993
21
-26.7521442416
31
0.0000000000
11
-1.1384841674
21
-26.7331427898
31
0.0000000000
11
-1.2214394985
21
-26.7141842367
31
0.0000000000
11
-1.2941711050
21
-26.6955404498
31
0.0000000000
11
-1.3556360016
21
-26.6774787842
31
0.0000000000
11
-1.4049528746
21
-26.6602582058
31
0.0000000000
11
-1.4414144409
21
-26.6441256532
31
0.0000000000
11
-1.4644975968
21
-26.6293125608
31
0.0000000000
11
-1.4738713843
21
-26.6160313500
31
0.0000000000
11
-1.4736332318
21
-26.6126510178
31
0.0000000000
0
SPLINE
5
3CB
100
AcDbEntity
8
0
100
AcDbSpline
62
9
6
CONTINUOUS
70
0
71
3
72
27
73
23
74
21
42
0.0000001000
43
0.0000001000
44
0.0000000001
12
-1.6520916327
22
0.0522498558
32
0.0000000000
13
0.3154638284
23
1.6626174727
33
0.0000000000
40
0.0000000000
40
0.0000000000
40
0.0000000000
40
0.0000000000
40
0.0546283751
40
0.1141529340
40
0.1777500129
40
0.2445146237
40
0.3135049432
40
0.3837446925
40
0.4542349420
40
0.5239754777
40
0.5919785441
40
0.6572810441
40
0.7189598431
40
0.7761467877
40
0.8280424145
40
0.8739300192
40
0.9131916078
40
0.9453289330
40
0.9700016480
40
0.9871338722
40
0.9973879362
40
1.0000000000
40
1.0000000000
40
1.0000000000
40
1.0000000000
10
-15.1749651554
20
-23.2098107433
30
0.0000000000
10
-15.2050488492
20
-23.2088593017
30
0.0000000000
10
-15.2678899718
20
-23.2061268636
30
0.0000000000
10
-15.3656415434
20
-23.2000597940
30
0.0000000000
10
-15.4699497185
20
-23.1919082536
30
0.0000000000
10
-15.5793230850
20
-23.1817847820
30
0.0000000000
10
-15.6921924682
20
-23.1698316697
30
0.0000000000
10
-15.8069409005
20
-23.1562185940
30
0.0000000000
10
-15.9219228606
20
-23.1411400959
30
0.0000000000
10
-16.0354893124
20
-23.1248126806
30
0.0000000000
10
-16.1460133025
20
-23.1074713548
30
0.0000000000
10
-16.2519112998
20
-23.0893668187
30
0.0000000000
10
-16.3516679285
20
-23.0707615012
30
0.0000000000
10
-16.4438512626
20
-23.0519289979
30
0.0000000000
10
-16.5271597518
20
-23.0331422370
30
0.0000000000
10
-16.6003619662
20
-23.0147003759
30
0.0000000000
10
-16.6625696561
20
-22.9968397435
30
0.0000000000
10
-16.7125339096
20
-22.9799977126
30
0.0000000000
10
-16.7507335830
20
-22.9640997731
30
0.0000000000
10
-16.7745598797
20
-22.9502936624
30
0.0000000000
10
-16.7886646786
20
-22.9377517021
30
0.0000000000
10
-16.7883588073
20
-22.9306011213
30
0.0000000000
10
-16.7880841368
20
-22.9291535003
30
0.0000000000
11
-15.1749651554
21
-23.2098107433
31
0.0000000000
11
-15.2651799613
21
-23.2059775126
31
0.0000000000
11
-15.3633840883
21
-23.1999456715
31
0.0000000000
11
-15.4681887943
21
-23.1918005741
31
0.0000000000
11
-15.5780783003
21
-23.1816599369
31
0.0000000000
11
-15.6914814173
21
-23.1696688254
31
0.0000000000
11
-15.8067743649
21
-23.1559988750
31
0.0000000000
11
-15.9222994947
21
-23.1408465996
31
0.0000000000
11
-16.0363998216
21
-23.1244293888
31
0.0000000000
11
-16.1474410013
21
-23.1069824283
31
0.0000000000
11
-16.2538306773
21
-23.0887559043
31
0.0000000000
11
-16.3540426382
21
-23.0700112894
31
0.0000000000
11
-16.4466399686
21
-23.0510173740
31
0.0000000000
11
-16.5302950719
21
-23.0320464871
31
0.0000000000
11
-16.6038083271
21
-23.0133706733
31
0.0000000000
11
-16.6661255415
21
-22.9952577468
31
0.0000000000
11
-16.7163531837
21
-22.9779674081
31
0.0000000000
11
-16.7537709133
21
-22.9617475958
31
0.0000000000
11
-16.7778419122
21
-22.9468309954
31
0.0000000000
11
-16.7882210571
21
-22.9334315126
31
0.0000000000
11
-16.7880841368
21
-22.9291535003
31
0.0000000000
0
SPLINE
5
3CC
100
AcDbEntity
8
0
100
AcDbSpline
62
9
6
CONTINUOUS
70
0
71
3
72
8
73
4
74
2
42
0.0000001000
43
0.0000001000
44
0.0000000001
12
-0.0263748066
22
0.0062864144
32
0.0000000000
13
-0.0272031060
23
0.0002158520
33
0.0000000000
40
0.0000000000
40
0.0000000000
40
0.0000000000
40
0.0000000000
40
1.0000000000
40
1.0000000000
40
1.0000000000
40
1.0000000000
10
4.8002249954
20
20.4619291819
30
0.0000000000
10
4.7914333932
20
20.4640246534
30
0.0000000000
10
4.7823672020
20
20.4651445889
30
0.0000000000
10
4.7732995000
20
20.4652165396
30
0.0000000000
11
4.8002249954
21
20.4619291819
31
0.0000000000
11
4.7732995000
21
20.4652165396
31
0.0000000000
0
SPLINE
5
3CD
100
AcDbEntity
8
0
100
AcDbSpline
62
9
6
CONTINUOUS
70
0
71
3
72
8
73
4
74
2
42
0.0000001000
43
0.0000001000
44
0.0000000001
12
-0.0205983508
22
0.0001538597
32
0.0000000000
13
-0.0205983349
23
-0.0000315189
33
0.0000000000
40
0.0000000000
40
0.0000000000
40
0.0000000000
40
0.0000000000
40
1.0000000000
40
1.0000000000
40
1.0000000000
40
1.0000000000
10
4.8002249954
20
20.4619291819
30
0.0000000000
10
4.7933588785
20
20.4619804685
30
0.0000000000
10
4.7864927891
20
20.4620028958
30
0.0000000000
10
4.7796266775
20
20.4619923895
30
0.0000000000
11
4.8002249954
21
20.4619291819
31
0.0000000000
11
4.7796266775
21
20.4619923895
31
0.0000000000
0
SPLINE
5
3CE
100
AcDbEntity
8
0
100
AcDbSpline
62
9
6
CONTINUOUS
70
0
71
3
72
8
73
4
74
2
42
0.0000001000
43
0.0000001000
44
0.0000000001
12
-0.0197260170
22
-0.0000301841
32
0.0000000000
13
-0.0197262710
23
-0.0002221390
33
0.0000000000
40
0.0000000000
40
0.0000000000
40
0.0000000000
40
0.0000000000
40
1.0000000000
40
1.0000000000
40
1.0000000000
40
1.0000000000
10
4.7796266775
20
20.4619923895
30
0.0000000000
10
4.7730513385
20
20.4619823281
30
0.0000000000
10
4.7664759791
20
20.4619420634
30
0.0000000000
10
4.7599005554
20
20.4618680171
30
0.0000000000
11
4.7796266775
21
20.4619923895
31
0.0000000000
11
4.7599005554
21
20.4618680171
31
0.0000000000
0
SPLINE
5
3CF
100
AcDbEntity
8
0
100
AcDbSpline
62
9
6
CONTINUOUS
70
0
71
3
72
33
73
29
74
27
42
0.0000001000
43
0.0000001000
44
0.0000000001
12
-1.4203581309
22
-0.0159947604
32
0.0000000000
13
1.4202605279
23
-0.0184657875
33
0.0000000000
40
0.0000000000
40
0.0000000000
40
0.0000000000
40
0.0000000000
40
0.0132739361
40
0.0494398172
40
0.0796197496
40
0.1034740414
40
0.1208660659
40
0.1321062647
40
0.1392245238
40
0.1481580149
40
0.1627212057
40
0.1836961313
40
0.2110888097
40
0.2446383508
40
0.2839339183
40
0.3284551423
40
0.3775929814
40
0.4306646604
40
0.4869263778
40
0.5455854035
40
0.6058131707
40
0.6667586523
40
0.7275590524
40
0.7873515662
40
0.8452918468
40
0.9005646907
40
0.9523862632
40
1.0000000000
40
1.0000000000
40
1.0000000000
40
1.0000000000
10
4.7599005554
20
20.4618680171
30
0.0000000000
10
4.7536159744
20
20.4617972460
30
0.0000000000
10
4.7302083404
20
20.4614187153
30
0.0000000000
10
4.6925096375
20
20.4600498961
30
0.0000000000
10
4.6499956591
20
20.4565389234
30
0.0000000000
10
4.6163107018
20
20.4518129554
30
0.0000000000
10
4.5926137222
20
20.4451924405
30
0.0000000000
10
4.5763126435
20
20.4384871692
30
0.0000000000
10
4.5704594164
20
20.4248236374
30
0.0000000000
10
4.5814266088
20
20.4125910655
30
0.0000000000
10
4.5988250245
20
20.4018892140
30
0.0000000000
10
4.6263593005
20
20.3895545334
30
0.0000000000
10
4.6628623903
20
20.3767546321
30
0.0000000000
10
4.7084317131
20
20.3632864979
30
0.0000000000
10
4.7622659317
20
20.3495364629
30
0.0000000000
10
4.8236782413
20
20.3356622497
30
0.0000000000
10
4.8917746455
20
20.3218927167
30
0.0000000000
10
4.9655904979
20
20.3084260360
30
0.0000000000
10
5.0440677582
20
20.2954615148
30
0.0000000000
10
5.1260832145
20
20.2831872844
30
0.0000000000
10
5.2104619227
20
20.2717811408
30
0.0000000000
10
5.2959950658
20
20.2614074203
30
0.0000000000
10
5.3814559834
20
20.2522151495
30
0.0000000000
10
5.4656191088
20
20.2443356853
30
0.0000000000
10
5.5472786827
20
20.2378806383
30
0.0000000000
10
5.6252633542
20
20.2329404865
30
0.0000000000
10
5.6984383359
20
20.2295832594
30
0.0000000000
10
5.7455060786
20
20.2283711199
30
0.0000000000
10
5.7680473823
20
20.2280780449
30
0.0000000000
11
4.7599005554
21
20.4618680171
31
0.0000000000
11
4.7410465982
21
20.4615600015
31
0.0000000000
11
4.6897178640
21
20.4595185455
31
0.0000000000
11
4.6470095595
21
20.4558335069
31
0.0000000000
11
4.6135406067
21
20.4505580149
31
0.0000000000
11
4.5897889130
21
20.4437675983
31
0.0000000000
11
4.5760951688
21
20.4355594262
31
0.0000000000
11
4.5726565236
21
20.4260514981
31
0.0000000000
11
4.5795219503
21
20.4153802493
31
0.0000000000
11
4.5965929480
21
20.4036985727
31
0.0000000000
11
4.6236247943
21
20.3911739973
31
0.0000000000
11
4.6602296738
21
20.3779862209
31
0.0000000000
11
4.7058824358
21
20.3643244198
31
0.0000000000
11
4.7599283006
21
20.3503845203
31
0.0000000000
11
4.8215920842
21
20.3363664512
31
0.0000000000
11
4.8899893531
21
20.3224712615
31
0.0000000000
11
4.9641393039
21
20.3088982024
31
0.0000000000
11
5.0429785660
21
20.2958419275
31
0.0000000000
11
5.1253759954
21
20.2834897580
31
0.0000000000
11
5.2101497894
21
20.2720188444
31
0.0000000000
11
5.2960855023
21
20.2615935323
31
0.0000000000
11
5.3819505332
21
20.2523633970
31
0.0000000000
11
5.4665102200
21
20.2444611371
31
0.0000000000
11
5.5485534348
21
20.2379998663
31
0.0000000000
11
5.6269071015
21
20.2330720572
31
0.0000000000
11
5.7004383964
21
20.2297487910
31
0.0000000000
11
5.7680473823
21
20.2280780449
31
0.0000000000
0
SPLINE
5
3D0
100
AcDbEntity
8
0
100
AcDbSpline
62
9
6
CONTINUOUS
70
0
71
3
72
16
73
12
74
10
42
0.0000001000
43
0.0000001000
44
0.0000000001
12
0.3332129776
22
-0.0816366196
32
0.0000000000
13
-0.0397450436
23
-0.3407576229
33
0.0000000000
40
0.0000000000
40
0.0000000000
40
0.0000000000
40
0.0000000000
40
0.0879344919
40
0.1810789185
40
0.2809860630
40
0.3881853911
40
0.5023104761
40
0.6222900879
40
0.7465403719
40
0.8731414476
40
1.0000000000
40
1.0000000000
40
1.0000000000
40
1.0000000000
10
5.7680473823
20
20.2280780449
30
0.0000000000
10
5.7778143536
20
20.2256851533
30
0.0000000000
10
5.7973481339
20
20.2181032164
30
0.0000000000
10
5.8240061949
20
20.1997402379
30
0.0000000000
10
5.8479407975
20
20.1748362676
30
0.0000000000
10
5.8684932059
20
20.1441950775
30
0.0000000000
10
5.8851205808
20
20.1087356268
30
0.0000000000
10
5.8973608157
20
20.0695059432
30
0.0000000000
10
5.9048670818
20
20.0276619687
30
0.0000000000
10
5.9074237399
20
19.9844508567
30
0.0000000000
10
5.9057693378
20
19.9554352586
30
0.0000000000
10
5.9040886715
20
19.9410259190
30
0.0000000000
11
5.7680473823
21
20.2280780449
31
0.0000000000
11
5.7962309369
21
20.2173186689
31
0.0000000000
11
5.8226833859
21
20.1993915991
31
0.0000000000
11
5.8466011403
21
20.1748414349
31
0.0000000000
11
5.8672576120
21
20.1444139764
31
0.0000000000
11
5.8840252858
21
20.1090335677
31
0.0000000000
11
5.8963947829
21
20.0697750168
31
0.0000000000
11
5.9039903353
21
20.0278309441
31
0.0000000000
11
5.9065812005
21
19.9844755525
31
0.0000000000
11
5.9040886715
21
19.9410259190
31
0.0000000000
0
SPLINE
5
3D1
100
AcDbEntity
8
0
100
AcDbSpline
62
9
6
CONTINUOUS
70
0
71
3
72
8
73
4
74
2
42
0.0000001000
43
0.0000001000
44
0.0000000001
12
-0.0268473628
22
0.0063417561
32
0.0000000000
13
-0.0276757893
23
0.0001663253
33
0.0000000000
40
0.0000000000
40
0.0000000000
40
0.0000000000
40
0.0000000000
40
1.0000000000
40
1.0000000000
40
1.0000000000
40
1.0000000000
10
-10.5189013273
20
24.1454700661
30
0.0000000000
10
-10.5278504483
20
24.1475839848
30
0.0000000000
10
-10.5370763385
20
24.1487052021
30
0.0000000000
10
-10.5463016016
20
24.1487606438
30
0.0000000000
11
-10.5189013273
21
24.1454700661
31
0.0000000000
11
-10.5463016016
21
24.1487606438
31
0.0000000000
0
SPLINE
5
3D2
100
AcDbEntity
8
0
100
AcDbSpline
62
9
6
CONTINUOUS
70
0
71
3
72
8
73
4
74
2
42
0.0000001000
43
0.0000001000
44
0.0000000001
12
-0.0204229315
22
0.0001137424
32
0.0000000000
13
-0.0204222098
23
-0.0000730585
33
0.0000000000
40
0.0000000000
40
0.0000000000
40
0.0000000000
40
0.0000000000
40
1.0000000000
40
1.0000000000
40
1.0000000000
40
1.0000000000
10
-10.5189013273
20
24.1454700661
30
0.0000000000
10
-10.5257089711
20
24.1455079802
30
0.0000000000
10
-10.5325164140
20
24.1455168893
30
0.0000000000
10
-10.5393238173
20
24.1454925364
30
0.0000000000
11
-10.5189013273
21
24.1454700661
31
0.0000000000
11
-10.5393238173
21
24.1454925364
31
0.0000000000
0
SPLINE
5
3D3
100
AcDbEntity
8
0
100
AcDbSpline
62
9
6
CONTINUOUS
70
0
71
3
72
8
73
4
74
2
42
0.0000001000
43
0.0000001000
44
0.0000000001
12
-0.0195438278
22
-0.0000699162
32
0.0000000000
13
-0.0195440349
23
-0.0002638821
33
0.0000000000
40
0.0000000000
40
0.0000000000
40
0.0000000000
40
0.0000000000
40
1.0000000000
40
1.0000000000
40
1.0000000000
40
1.0000000000
10
-10.5393238173
20
24.1454925364
30
0.0000000000
10
-10.5458384265
20
24.1454692311
30
0.0000000000
10
-10.5523529995
20
24.1454154635
30
0.0000000000
10
-10.5588676779
20
24.1453275028
30
0.0000000000
11
-10.5393238173
21
24.1454925364
31
0.0000000000
11
-10.5588676779
21
24.1453275028
31
0.0000000000
0
SPLINE
5
3D4
100
AcDbEntity
8
0
100
AcDbSpline
62
9
6
CONTINUOUS
70
0
71
3
72
33
73
29
74
27
42
0.0000001000
43
0.0000001000
44
0.0000000001
12
-1.4207885699
22
-0.0191833778
32
0.0000000000
13
1.4207567866
23
-0.0158997079
33
0.0000000000
40
0.0000000000
40
0.0000000000
40
0.0000000000
40
0.0000000000
40
0.0131369669
40
0.0488693035
40
0.0785884214
40
0.1019659425
40
0.1188852091
40
0.1297145930
40
0.1367293037
40
0.1460007387
40
0.1610151385
40
0.1824546649
40
0.2102975738
40
0.2442697859
40
0.2839516461
40
0.3288159120
40
0.3782479014
40
0.4315601998
40
0.4880052963
40
0.5467876682
40
0.6070768818
40
0.6680209762
40
0.7287571575
40
0.7884235661
40
0.8461777255
40
0.9012072003
40
0.9527318683
40
1.0000000000
40
1.0000000000
40
1.0000000000
40
1.0000000000
10
-10.5588676779
20
24.1453275028
30
0.0000000000
10
-10.5650892953
20
24.1452434990
30
0.0000000000
10
-10.5882339685
20
24.1448149949
30
0.0000000000
10
-10.6254585994
20
24.1433595773
30
0.0000000000
10
-10.6673068533
20
24.1397476502
30
0.0000000000
10
-10.7003646757
20
24.1348952391
30
0.0000000000
10
-10.7232733258
20
24.1282496128
30
0.0000000000
10
-10.7392357411
20
24.1212692615
30
0.0000000000
10
-10.7437690785
20
24.1072313475
30
0.0000000000
10
-10.7320605744
20
24.0954124644
30
0.0000000000
10
-10.7141024552
20
24.0845009168
30
0.0000000000
10
-10.6858406933
20
24.0721706681
30
0.0000000000
10
-10.6486862159
20
24.0592954842
30
0.0000000000
10
-10.6024834638
20
24.0458064516
30
0.0000000000
10
-10.5480733739
20
24.0320377396
30
0.0000000000
10
-10.4861426195
20
24.0181649281
30
0.0000000000
10
-10.4175960787
20
24.0044103743
30
0.0000000000
10
-10.3434041106
20
23.9909737649
30
0.0000000000
10
-10.2646305334
20
23.9780532366
30
0.0000000000
10
-10.1824027815
20
23.9658363777
30
0.0000000000
10
-10.0978988996
20
23.9545000432
30
0.0000000000
10
-10.0123295122
20
23.9442075308
30
0.0000000000
10
-9.9269218107
20
23.9351066493
30
0.0000000000
10
-9.8429005984
20
23.9273273945
30
0.0000000000
10
-9.7614695976
20
23.9209798808
30
0.0000000000
10
-9.6837968434
20
23.9161529552
30
0.0000000000
10
-9.6110124926
20
23.9129128892
30
0.0000000000
10
-9.5642315630
20
23.9117831636
30
0.0000000000
10
-9.5418460566
20
23.9115326471
30
0.0000000000
11
-10.5588676779
21
24.1453275028
31
0.0000000000
11
-10.5775329416
21
24.1449786838
31
0.0000000000
11
-10.6282570085
21
24.1428162767
31
0.0000000000
11
-10.6703116941
21
24.1390133372
31
0.0000000000
11
-10.7030875295
21
24.1336247006
31
0.0000000000
11
-10.7261165210
21
24.1267275136
31
0.0000000000
11
-10.7390683280
21
24.1184204744
31
0.0000000000
11
-10.7417564700
21
24.1088230043
31
0.0000000000
11
-10.7341427406
21
24.0980728228
31
0.0000000000
11
-10.7163363601
21
24.0863239530
31
0.0000000000
11
-10.6885925970
21
24.0737448874
31
0.0000000000
11
-10.6513094799
21
24.0605161057
31
0.0000000000
11
-10.6050218865
21
24.0468273719
31
0.0000000000
11
-10.5503936986
21
24.0328749982
31
0.0000000000
11
-10.4882084503
21
24.0188590923
31
0.0000000000
11
-10.4193580526
21
24.0049806720
31
0.0000000000
11
-10.3448298060
21
23.9914387482
31
0.0000000000
11
-10.2656925067
21
23.9784275283
31
0.0000000000
11
-10.1830815751
21
23.9661336872
31
0.0000000000
11
-10.0981818764
21
23.9547335390
31
0.0000000000
11
-10.0122096627
21
23.9443904158
31
0.0000000000
11
-9.9263980630
21
23.9352527147
31
0.0000000000
11
-9.8419809712
21
23.9274518052
31
0.0000000000
11
-9.7601674688
21
23.9210993487
31
0.0000000000
11
-9.6821273549
21
23.9162862627
31
0.0000000000
11
-9.6089889078
21
23.9130819681
31
0.0000000000
11
-9.5418460566
21
23.9115326471
31
0.0000000000
0
SPLINE
5
3D5
100
AcDbEntity
8
0
100
AcDbSpline
62
9
6
CONTINUOUS
70
0
71
3
72
16
73
12
74
10
42
0.0000001000
43
0.0000001000
44
0.0000000001
12
0.3343460931
22
-0.0811589144
32
0.0000000000
13
-0.0398769426
23
-0.3417366074
33
0.0000000000
40
0.0000000000
40
0.0000000000
40
0.0000000000
40
0.0000000000
40
0.0884515997
40
0.1819939691
40
0.2821450851
40
0.3894275086
40
0.5034870849
40
0.6232766447
40
0.7472434591
40
0.8735030416
40
1.0000000000
40
1.0000000000
40
1.0000000000
40
1.0000000000
10
-9.5418460566
20
23.9115326471
30
0.0000000000
10
-9.5319882410
20
23.9091397685
30
0.0000000000
10
-9.5122771904
20
23.9015655212
30
0.0000000000
10
-9.4853438710
20
23.8832060669
30
0.0000000000
10
-9.4611479941
20
23.8583003502
30
0.0000000000
10
-9.4403592409
20
23.8276530196
30
0.0000000000
10
-9.4235289211
20
23.7921849828
30
0.0000000000
10
-9.4111252838
20
23.7529458171
30
0.0000000000
10
-9.4034998060
20
23.7110923835
30
0.0000000000
10
-9.4008714245
20
23.6678725438
30
0.0000000000
10
-9.4025109998
20
23.6388517570
30
0.0000000000
10
-9.4041924371
20
23.6244422099
30
0.0000000000
11
-9.5418460566
21
23.9115326471
31
0.0000000000
11
-9.5133808255
21
23.9007691819
31
0.0000000000
11
-9.4866554253
21
23.8828374537
31
0.0000000000
11
-9.4624818151
21
23.8582822564
31
0.0000000000
11
-9.4415944270
21
23.8278496151
31
0.0000000000
11
-9.4246278521
21
23.7924641206
31
0.0000000000
11
-9.4120975616
21
23.7532008395
31
0.0000000000
11
-9.4043842450
21
23.7112526512
31
0.0000000000
11
-9.4017222449
21
23.6678940070
31
0.0000000000
11
-9.4041924371
21
23.6244422099
31
0.0000000000
0
SPLINE
5
3D6
100
AcDbEntity
8
0
100
AcDbSpline
62
7
6
CONTINUOUS
70
0
71
3
72
27
73
23
74
21
42
0.0000001000
43
0.0000001000
44
0.0000000001
12
-1.6549143563
22
0.0185095715
32
0.0000000000
13
0.1901754381
23
1.7211177807
33
0.0000000000
40
0.0000000000
40
0.0000000000
40
0.0000000000
40
0.0000000000
40
0.0543191636
40
0.1134640420
40
0.1766041800
40
0.2428717418
40
0.3113502634
40
0.3810641971
40
0.4510701546
40
0.5203532625
40
0.5879767042
40
0.6529726138
40
0.7144431096
40
0.7715414494
40
0.8234639959
40
0.8695306157
40
0.9091119562
40
0.9417393221
40
0.9670743845
40
0.9850575432
40
0.9963226906
40
1.0000000000
40
1.0000000000
40
1.0000000000
40
1.0000000000
10
-9.5626418414
20
22.3385035946
30
0.0000000000
10
-9.5926063626
20
22.3388387361
30
0.0000000000
10
-9.6551895701
20
22.3403462767
30
0.0000000000
10
-9.7525266574
20
22.3446638984
30
0.0000000000
10
-9.8563520298
20
22.3510919115
30
0.0000000000
10
-9.9651968569
20
22.3595433826
30
0.0000000000
10
-10.0775189757
20
22.3699016949
30
0.0000000000
10
-10.1917385099
20
22.3820228182
30
0.0000000000
10
-10.3062250495
20
22.3957345861
30
0.0000000000
10
-10.4193721452
20
22.4108445355
30
0.0000000000
10
-10.5295623345
20
22.4271356283
30
0.0000000000
10
-10.6352434989
20
22.4443763229
30
0.0000000000
10
-10.7349147634
20
22.4623179083
30
0.0000000000
10
-10.8271611771
20
22.4807001453
30
0.0000000000
10
-10.9106960045
20
22.4992555550
30
0.0000000000
10
-10.9843089032
20
22.5177048349
30
0.0000000000
10
-11.0470741188
20
22.5357699979
30
0.0000000000
10
-11.0978983944
20
22.5531494126
30
0.0000000000
10
-11.1368554258
20
22.5695627175
30
0.0000000000
10
-11.1622309202
20
22.5847233799
30
0.0000000000
10
-11.1768180555
20
22.5977824727
30
0.0000000000
10
-11.1774686594
20
22.6066085452
30
0.0000000000
10
-11.1772355481
20
22.6087182394
30
0.0000000000
11
-9.5626418414
21
22.3385035946
31
0.0000000000
11
-9.6525172199
21
22.3405724089
31
0.0000000000
11
-9.7503098867
21
22.3448420821
31
0.0000000000
11
-9.8546112409
21
22.3512507701
31
0.0000000000
11
-9.9639586632
21
22.3597081464
31
0.0000000000
11
-10.0768148140
21
22.3700955497
31
0.0000000000
11
-10.1915492781
21
22.3822627499
31
0.0000000000
11
-10.3065879639
21
22.3960430856
31
0.0000000000
11
-10.4202419856
21
22.4112343803
31
0.0000000000
11
-10.5309527703
21
22.4276283355
31
0.0000000000
11
-10.6371122983
21
22.4449871552
31
0.0000000000
11
-10.7372277417
21
22.4630664562
31
0.0000000000
11
-10.8298888819
21
22.4816118347
31
0.0000000000
11
-10.9137528404
21
22.5003541039
31
0.0000000000
11
-10.9876695659
21
22.5190361745
31
0.0000000000
11
-11.0505554560
21
22.5373839276
31
0.0000000000
11
-11.1015495659
21
22.5551456585
31
0.0000000000
11
-11.1399144483
21
22.5720648513
31
0.0000000000
11
-11.1651123689
21
22.5879036697
31
0.0000000000
11
-11.1767869026
21
22.6024399949
31
0.0000000000
11
-11.1772355481
21
22.6087182394
31
0.0000000000
0
SPLINE
5
3D7
100
AcDbEntity
8
0
100
AcDbSpline
62
7
6
CONTINUOUS
70
0
71
3
72
21
73
17
74
15
42
0.0000001000
43
0.0000001000
44
0.0000000001
12
-0.9917184768
22
0.1150691740
32
0.0000000000
13
0.1903548719
23
0.9763994584
33
0.0000000000
40
0.0000000000
40
0.0000000000
40
0.0000000000
40
0.0000000000
40
0.1159140397
40
0.2302951278
40
0.3415201813
40
0.4480569514
40
0.5484337896
40
0.6412352238
40
0.7252283143
40
0.7992366310
40
0.8623285950
40
0.9137235061
40
0.9529592380
40
0.9800910485
40
0.9967181869
40
1.0000000000
40
1.0000000000
40
1.0000000000
40
1.0000000000
10
5.0969517156
20
18.7017354399
30
0.0000000000
10
5.0586336839
20
18.7061814841
30
0.0000000000
10
4.9825628210
20
18.7155274745
30
0.0000000000
10
4.8699522136
20
18.7309232911
30
0.0000000000
10
4.7606564020
20
18.7474488235
30
0.0000000000
10
4.6562211695
20
18.7648673470
30
0.0000000000
10
4.5581218962
20
18.7829293623
30
0.0000000000
10
4.4677394007
20
18.8013717201
30
0.0000000000
10
4.3863491735
20
18.8199314065
30
0.0000000000
10
4.3151081668
20
18.8383038239
30
0.0000000000
10
4.2549342902
20
18.8562899923
30
0.0000000000
10
4.2068345763
20
18.8733454458
30
0.0000000000
10
4.1707542195
20
18.8898283554
30
0.0000000000
10
4.1479719440
20
18.9040053773
30
0.0000000000
10
4.1365378145
20
18.9176470248
30
0.0000000000
10
4.1370619838
20
18.9241329759
30
0.0000000000
10
4.1372702202
20
18.9252010960
30
0.0000000000
11
5.0969517156
21
18.7017354399
31
0.0000000000
11
4.9820906257
21
18.7158520877
31
0.0000000000
11
4.8689504629
21
18.7313366156
31
0.0000000000
11
4.7591587170
21
18.7479659686
31
0.0000000000
11
4.6542517701
21
18.7655070011
31
0.0000000000
11
4.5557060128
21
18.7837131051
31
0.0000000000
11
4.4649435817
21
18.8023213662
31
0.0000000000
11
4.3832115071
21
18.8210764718
31
0.0000000000
11
4.3117100733
21
18.8397032125
31
0.0000000000
11
4.2514204163
21
18.8579460774
31
0.0000000000
11
4.2032199117
21
18.8755402301
31
0.0000000000
11
4.1677852616
21
18.8922381213
31
0.0000000000
11
4.1456171853
21
18.9078046394
31
0.0000000000
11
4.1370349122
21
18.9220140320
31
0.0000000000
11
4.1372702202
21
18.9252010960
31
0.0000000000
0
SPLINE
5
3D8
100
AcDbEntity
8
0
100
AcDbSpline
62
7
6
CONTINUOUS
70
0
71
3
72
16
73
12
74
10
42
0.0000001000
43
0.0000001000
44
0.0000000001
12
-0.5536777967
22
0.4142116261
32
0.0000000000
13
-0.6868615764
23
0.0796966035
33
0.0000000000
40
0.0000000000
40
0.0000000000
40
0.0000000000
40
0.0000000000
40
0.0949034862
40
0.1950987498
40
0.2999519992
40
0.4088870299
40
0.5214104123
40
0.6370966917
40
0.7555899929
40
0.8766344711
40
1.0000000000
40
1.0000000000
40
1.0000000000
40
1.0000000000
10
5.7152452194
20
18.4084162602
30
0.0000000000
10
5.6977299016
20
18.4215196359
30
0.0000000000
10
5.6613871557
20
18.4480126118
30
0.0000000000
10
5.6043895712
20
18.4871592114
30
0.0000000000
10
5.5434204753
20
18.5261763958
30
0.0000000000
10
5.4785675508
20
18.5643075027
30
0.0000000000
10
5.4098777413
20
18.6007077720
30
0.0000000000
10
5.3373578241
20
18.6343770191
30
0.0000000000
10
5.2609719914
20
18.6640535051
30
0.0000000000
10
5.1807309506
20
18.6880209289
30
0.0000000000
10
5.1251967295
20
18.6984581687
30
0.0000000000
10
5.0969517156
20
18.7017354399
30
0.0000000000
11
5.7152452194
21
18.4084162602
31
0.0000000000
11
5.6622000778
21
18.4470501347
31
0.0000000000
11
5.6050711715
21
18.4862455723
31
0.0000000000
11
5.5439782592
21
18.5252880990
31
0.0000000000
11
5.4790130887
21
18.5634118933
31
0.0000000000
11
5.4102208650
21
18.5997641042
31
0.0000000000
11
5.3376097589
21
18.6333289188
31
0.0000000000
11
5.2611646152
21
18.6628146302
31
0.0000000000
11
5.1808779437
21
18.6864684799
31
0.0000000000
11
5.0969517156
21
18.7017354399
31
0.0000000000
0
SPLINE
5
3D9
100
AcDbEntity
8
0
100
AcDbSpline
62
7
6
CONTINUOUS
70
0
71
3
72
16
73
12
74
10
42
0.0000001000
43
0.0000001000
44
0.0000000001
12
0.6995770653
22
0.3400621328
32
0.0000000000
13
0.0951248707
23
0.7720113881
33
0.0000000000
40
0.0000000000
40
0.0000000000
40
0.0000000000
40
0.0000000000
40
0.0982977232
40
0.2008116147
40
0.3071364638
40
0.4174514666
40
0.5305968845
40
0.6465436996
40
0.7638177523
40
0.8820732798
40
1.0000000000
40
1.0000000000
40
1.0000000000
40
1.0000000000
10
1.3198607085
20
-20.9382098218
30
0.0000000000
10
1.3427829861
20
-20.9270673773
30
0.0000000000
10
1.3879730488
20
-20.9008015789
30
0.0000000000
10
1.4510311218
20
-20.8518302646
30
0.0000000000
10
1.5097972563
20
-20.7932897761
30
0.0000000000
10
1.5631921105
20
-20.7262787953
30
0.0000000000
10
1.6104201595
20
-20.6518326505
30
0.0000000000
10
1.6506051987
20
-20.5713494429
30
0.0000000000
10
1.6831366095
20
-20.4860655414
30
0.0000000000
10
1.7074197523
20
-20.3975559670
30
0.0000000000
10
1.7178884272
20
-20.3371043696
30
0.0000000000
10
1.7216276819
20
-20.3067574459
30
0.0000000000
11
1.3198607085
21
-20.9382098218
31
0.0000000000
11
1.3860750289
21
-20.8999746589
31
0.0000000000
11
1.4491829590
21
-20.8512312257
31
0.0000000000
11
1.5079028672
21
-20.7929899149
31
0.0000000000
11
1.5614943971
21
-20.7259746387
31
0.0000000000
11
1.6087378393
21
-20.6517193884
31
0.0000000000
11
1.6490987566
21
-20.5710652528
31
0.0000000000
11
1.6816528399
21
-20.4858501611
31
0.0000000000
11
1.7059989540
21
-20.3971455152
31
0.0000000000
11
1.7216276819
21
-20.3067574459
31
0.0000000000
0
SPLINE
5
3DA
100
AcDbEntity
8
0
100
AcDbSpline
62
7
6
CONTINUOUS
70
0
71
3
72
19
73
15
74
13
42
0.0000001000
43
0.0000001000
44
0.0000000001
12
-0.0368774643
22
-1.1424884932
32
0.0000000000
13
-1.1445156291
23
0.0241404790
33
0.0000000000
40
0.0000000000
40
0.0000000000
40
0.0000000000
40
0.0000000000
40
0.1039417952
40
0.2053231668
40
0.3032872843
40
0.3975102026
40
0.4872950125
40
0.5728128544
40
0.6537727345
40
0.7309091581
40
0.8045320493
40
0.8759146055
40
0.9459674234
40
1.0000000000
40
1.0000000000
40
1.0000000000
40
1.0000000000
10
0.6202711909
20
-17.0004977959
30
0.0000000000
10
0.6189934877
20
-17.0400818975
30
0.0000000000
10
0.6132573855
20
-17.1182150599
30
0.0000000000
10
0.5948640577
20
-17.2324498843
30
0.0000000000
10
0.5670330731
20
-17.3409637023
30
0.0000000000
10
0.5301955838
20
-17.4420899791
30
0.0000000000
10
0.4848496118
20
-17.5344718389
30
0.0000000000
10
0.4316957515
20
-17.6166770892
30
0.0000000000
10
0.3714036991
20
-17.6876351624
30
0.0000000000
10
0.3048909048
20
-17.7462143210
30
0.0000000000
10
0.2329893232
20
-17.7916024989
30
0.0000000000
10
0.1568395184
20
-17.8230081746
30
0.0000000000
10
0.0835889198
20
-17.8386346551
30
0.0000000000
10
0.0361907907
20
-17.8408991565
30
0.0000000000
10
0.0155770813
20
-17.8404643657
30
0.0000000000
11
0.6202711909
21
-17.0004977959
31
0.0000000000
11
0.6114647088
21
-17.1189851309
31
0.0000000000
11
0.5928957505
21
-17.2333751531
31
0.0000000000
11
0.5648887051
21
-17.3417974164
31
0.0000000000
11
0.5278016036
21
-17.4429153748
31
0.0000000000
11
0.4823302141
21
-17.5349239875
31
0.0000000000
11
0.4289900643
21
-17.6168427259
31
0.0000000000
11
0.3688177087
21
-17.6871539038
31
0.0000000000
11
0.3024365561
21
-17.7451891206
31
0.0000000000
11
0.2311272653
21
-17.7898814542
31
0.0000000000
11
0.1556245157
21
-17.8208213692
31
0.0000000000
11
0.0772992792
21
-17.8374754520
31
0.0000000000
11
0.0155770813
21
-17.8404643657
31
0.0000000000
0
SPLINE
5
3DB
100
AcDbEntity
8
0
100
AcDbSpline
62
7
6
CONTINUOUS
70
0
71
3
72
16
73
12
74
10
42
0.0000001000
43
0.0000001000
44
0.0000000001
12
0.0891489344
22
0.7235120752
32
0.0000000000
13
-0.6227201519
23
0.3789945485
33
0.0000000000
40
0.0000000000
40
0.0000000000
40
0.0000000000
40
0.0000000000
40
0.1246309610
40
0.2472613847
40
0.3666743855
40
0.4827522110
40
0.5943604265
40
0.7019260432
40
0.8048918421
40
0.9041218697
40
1.0000000000
40
1.0000000000
40
1.0000000000
40
1.0000000000
10
5.8645865703
20
13.3165360064
30
0.0000000000
10
5.8682901428
20
13.3465933415
30
0.0000000000
10
5.8727524095
20
13.4066256991
30
0.0000000000
10
5.8704460450
20
13.4958436723
30
0.0000000000
10
5.8591366891
20
13.5822960226
30
0.0000000000
10
5.8390174672
20
13.6643925689
30
0.0000000000
10
5.8103755159
20
13.7408729087
30
0.0000000000
10
5.7737200562
20
13.8102983560
30
0.0000000000
10
5.7295652694
20
13.8715842031
30
0.0000000000
10
5.6787082987
20
13.9235485075
30
0.0000000000
10
5.6402920619
20
13.9517785947
30
0.0000000000
10
5.6203903139
20
13.9638910243
30
0.0000000000
11
5.8645865703
21
13.3165360064
31
0.0000000000
11
5.8712596887
21
13.4071445494
31
0.0000000000
11
5.8688545500
21
13.4965077708
31
0.0000000000
11
5.8574337442
21
13.5828054580
31
0.0000000000
11
5.8371327491
21
13.6649529986
31
0.0000000000
11
5.8084187250
21
13.7410782074
31
0.0000000000
11
5.7716162305
21
13.8103188483
31
0.0000000000
11
5.7275607135
21
13.8710903353
31
0.0000000000
11
5.6768101954
21
13.9226367921
31
0.0000000000
11
5.6203903139
21
13.9638910243
31
0.0000000000
0
SPLINE
5
3DC
100
AcDbEntity
8
0
100
AcDbSpline
62
7
6
CONTINUOUS
70
0
71
3
72
12
73
8
74
6
42
0.0000001000
43
0.0000001000
44
0.0000000001
12
-2.1931075269
22
1.3347501190
32
0.0000000000
13
-2.4967685158
23
0.6005105054
33
0.0000000000
40
0.0000000000
40
0.0000000000
40
0.0000000000
40
0.0000000000
40
0.2416945526
40
0.4815694238
40
0.7200277133
40
0.9579260790
40
1.0000000000
40
1.0000000000
40
1.0000000000
40
1.0000000000
10
5.6203903139
20
13.9638910243
30
0.0000000000
10
5.4437029331
20
14.0714249686
30
0.0000000000
10
5.0838023582
20
14.2730921342
30
0.0000000000
10
4.5250546777
20
14.5341535941
30
0.0000000000
10
3.9513949261
20
14.7516892205
30
0.0000000000
10
3.5254983777
20
14.8774731431
30
0.0000000000
10
3.2928641570
20
14.9350713032
30
0.0000000000
10
3.2578478766
20
14.9434932470
30
0.0000000000
11
5.6203903139
21
13.9638910243
31
0.0000000000
11
5.0789659389
21
14.2670369688
31
0.0000000000
11
4.5209561179
21
14.5275881159
31
0.0000000000
11
3.9484910969
21
14.7445660492
31
0.0000000000
11
3.3627246942
21
14.9175264405
31
0.0000000000
11
3.2578478766
21
14.9434932470
31
0.0000000000
0
SPLINE
5
3DD
100
AcDbEntity
8
0
100
AcDbSpline
62
9
6
CONTINUOUS
70
0
71
3
72
16
73
12
74
10
42
0.0000001000
43
0.0000001000
44
0.0000000001
12
0.2973846026
22
-0.0109076300
32
0.0000000000
13
0.0381652385
23
0.2940340623
33
0.0000000000
40
0.0000000000
40
0.0000000000
40
0.0000000000
40
0.0000000000
40
0.0207395827
40
0.1202892007
40
0.2239983762
40
0.3344194629
40
0.4529457483
40
0.5798268262
40
0.7143502329
40
0.8550655005
40
1.0000000000
40
1.0000000000
40
1.0000000000
40
1.0000000000
10
-0.0405613265
20
-27.1026044374
30
0.0000000000
10
-0.0385054490
20
-27.1026798440
30
0.0000000000
10
-0.0265703868
20
-27.1027909930
30
0.0000000000
10
-0.0044497565
20
-27.0994224739
30
0.0000000000
10
0.0243713019
20
-27.0872266140
30
0.0000000000
10
0.0512684023
20
-27.0679151915
30
0.0000000000
10
0.0755098556
20
-27.0421788103
30
0.0000000000
10
0.0964460621
20
-27.0108247077
30
0.0000000000
10
0.1135063871
20
-26.9747875621
30
0.0000000000
10
0.1262104957
20
-26.9351393565
30
0.0000000000
10
0.1314855278
20
-26.9073235540
30
0.0000000000
10
0.1333293478
20
-26.8931183274
30
0.0000000000
11
-0.0405613265
21
-27.1026044374
31
0.0000000000
11
-0.0343915644
21
-27.1026610938
31
0.0000000000
11
-0.0051956312
21
-27.0983225896
31
0.0000000000
11
0.0232008305
21
-27.0865245695
31
0.0000000000
11
0.0499351750
21
-27.0676254372
31
0.0000000000
11
0.0741952485
21
-27.0421993191
31
0.0000000000
11
0.0952440618
21
-27.0110186237
31
0.0000000000
11
0.1124421789
21
-26.9750305766
31
0.0000000000
11
0.1252671429
21
-26.9353284453
31
0.0000000000
11
0.1333293478
21
-26.8931183274
31
0.0000000000
0
SPLINE
5
3DE
100
AcDbEntity
8
0
100
AcDbSpline
62
9
6
CONTINUOUS
70
0
71
3
72
16
73
12
74
10
42
0.0000001000
43
0.0000001000
44
0.0000000001
12
0.2982465518
22
-0.0104469207
32
0.0000000000
13
0.0382611319
23
0.2948910132
33
0.0000000000
40
0.0000000000
40
0.0000000000
40
0.0000000000
40
0.0000000000
40
0.0202562940
40
0.1204192570
40
0.2246121814
40
0.3353360989
40
0.4539708337
40
0.5807800804
40
0.7150818445
40
0.8554648594
40
1.0000000000
40
1.0000000000
40
1.0000000000
40
1.0000000000
10
-15.3500606595
20
-23.4192731352
30
0.0000000000
10
-15.3480468696
20
-23.4193436739
30
0.0000000000
10
-15.3360652620
20
-23.4194481073
30
0.0000000000
10
-15.3138175588
20
-23.4161015387
30
0.0000000000
10
-15.2847420449
20
-23.4039228281
30
0.0000000000
10
-15.2576091818
20
-23.3846230467
30
0.0000000000
10
-15.2331624192
20
-23.3588915344
30
0.0000000000
10
-15.2120599183
20
-23.3275371398
30
0.0000000000
10
-15.1948778448
20
-23.2914962432
30
0.0000000000
10
-15.1820999648
20
-23.2518421177
30
0.0000000000
10
-15.1768085148
20
-23.2240181146
30
0.0000000000
10
-15.1749651554
20
-23.2098107433
30
0.0000000000
11
-15.3500606595
21
-23.4192731352
31
0.0000000000
11
-15.3440174358
21
-23.4193250852
31
0.0000000000
11
-15.3145490682
21
-23.4149954333
31
0.0000000000
11
-15.2858970624
21
-23.4032049747
31
0.0000000000
11
-15.2589319114
21
-23.3843119181
31
0.0000000000
11
-15.2344728598
21
-23.3588902608
31
0.0000000000
11
-15.2132630134
21
-23.3277123503
31
0.0000000000
11
-15.1959467624
21
-23.2917254194
31
0.0000000000
11
-15.1830502034
21
-23.2520228075
31
0.0000000000
11
-15.1749651554
21
-23.2098107433
31
0.0000000000
0
SPLINE
5
3DF
100
AcDbEntity
8
0
100
AcDbSpline
62
7
6
CONTINUOUS
70
0
71
3
72
26
73
22
74
20
42
0.0000001000
43
0.0000001000
44
0.0000000001
12
-1.3923473431
22
0.0155728619
32
0.0000000000
13
0.1396877819
23
1.4356607352
33
0.0000000000
40
0.0000000000
40
0.0000000000
40
0.0000000000
40
0.0000000000
40
0.0571230540
40
0.1195065209
40
0.1862025196
40
0.2561570984
40
0.3283887176
40
0.4016496744
40
0.4749987962
40
0.5470928311
40
0.6170582764
40
0.6835763285
40
0.7458728392
40
0.8027603462
40
0.8536054413
40
0.8974574259
40
0.9338763952
40
0.9622823143
40
0.9826176033
40
0.9953133633
40
1.0000000000
40
1.0000000000
40
1.0000000000
40
1.0000000000
10
-7.6251860598
20
21.6775466557
30
0.0000000000
10
-7.6516977706
20
21.6778431789
30
0.0000000000
10
-7.7071552853
20
21.6792149441
30
0.0000000000
10
-7.7934945717
20
21.6831690248
30
0.0000000000
10
-7.8856913712
20
21.6890669425
30
0.0000000000
10
-7.9823361415
20
21.6968220755
30
0.0000000000
10
-8.0818869219
20
21.7063137344
30
0.0000000000
10
-8.1828575840
20
21.7174015713
30
0.0000000000
10
-8.2835983761
20
21.7299051494
30
0.0000000000
10
-8.3826347246
20
21.7436411534
30
0.0000000000
10
-8.4783201887
20
21.7583798790
30
0.0000000000
10
-8.5692722800
20
21.7739056736
30
0.0000000000
10
-8.6539615676
20
21.7899533907
30
0.0000000000
10
-8.7311845708
20
21.8062844958
30
0.0000000000
10
-8.7996115878
20
21.8226150684
30
0.0000000000
10
-8.8583802924
20
21.8386802761
30
0.0000000000
10
-8.9062407176
20
21.8542122642
30
0.0000000000
10
-8.9434094086
20
21.8688365392
30
0.0000000000
10
-8.9676521625
20
21.8825164961
30
0.0000000000
10
-8.9827622824
20
21.8940442062
30
0.0000000000
10
-8.9836530802
20
21.9026472627
30
0.0000000000
10
-8.9834348582
20
21.9048900695
30
0.0000000000
11
-7.6251860598
21
21.6775466557
31
0.0000000000
11
-7.7047040804
21
21.6794209646
31
0.0000000000
11
-7.7914809390
21
21.6833306229
31
0.0000000000
11
-7.8841641767
21
21.6892143363
31
0.0000000000
11
-7.9812616127
21
21.6969760057
31
0.0000000000
11
-8.0813869465
21
21.7065054369
31
0.0000000000
11
-8.1827890541
21
21.7176352493
31
0.0000000000
11
-8.2841444844
21
21.7302208969
31
0.0000000000
11
-8.3835764891
21
21.7440291871
31
0.0000000000
11
-8.4798586135
21
21.7588904125
31
0.0000000000
11
-8.5711522514
21
21.7745208753
31
0.0000000000
11
-8.6563673168
21
21.7907344670
31
0.0000000000
11
-8.7338458642
21
21.8072158253
31
0.0000000000
11
-8.8026812045
21
21.8237723343
31
0.0000000000
11
-8.8615244049
21
21.8400795441
31
0.0000000000
11
-8.9096890738
21
21.8559468975
31
0.0000000000
11
-8.9462388941
21
21.8710657759
31
0.0000000000
11
-8.9707419957
21
21.8852562218
31
0.0000000000
11
-8.9827312673
21
21.8982473541
31
0.0000000000
11
-8.9834348582
21
21.9048900695
31
0.0000000000
0
SPLINE
5
3E0
100
AcDbEntity
8
0
100
AcDbSpline
62
9
6
CONTINUOUS
70
0
71
3
72
17
73
13
74
11
42
0.0000001000
43
0.0000001000
44
0.0000000001
12
0.0397531885
22
0.3408274550
32
0.0000000000
13
-0.3332812635
23
0.0816533496
33
0.0000000000
40
0.0000000000
40
0.0000000000
40
0.0000000000
40
0.0000000000
40
0.1141637413
40
0.2282915915
40
0.3408446379
40
0.4503777920
40
0.5556339499
40
0.6556437563
40
0.7498401765
40
0.8381601327
40
0.9211795734
40
1.0000000000
40
1.0000000000
40
1.0000000000
40
1.0000000000
10
1.8431444702
20
18.4587357051
30
0.0000000000
10
1.8446572611
20
18.4717057509
30
0.0000000000
10
1.8463002240
20
18.4978231248
30
0.0000000000
10
1.8446699983
20
18.5368427055
30
0.0000000000
10
1.8389968922
20
18.5749543556
30
0.0000000000
10
1.8294144648
20
18.6112320856
30
0.0000000000
10
1.8161477358
20
18.6448034707
30
0.0000000000
10
1.7995023419
20
18.6748610509
30
0.0000000000
10
1.7798563680
20
18.7006781277
30
0.0000000000
10
1.7576386882
20
18.7216183679
30
0.0000000000
10
1.7333736421
20
18.7371170666
30
0.0000000000
10
1.7158596380
20
18.7436425137
30
0.0000000000
10
1.7071031809
20
18.7457878310
30
0.0000000000
11
1.8431444702
21
18.4587357051
31
0.0000000000
11
1.8456165526
21
18.4978315416
31
0.0000000000
11
1.8439677362
21
18.5369584157
31
0.0000000000
11
1.8382386230
21
18.5751523450
31
0.0000000000
11
1.8285703778
21
18.6114725338
31
0.0000000000
11
1.8152011945
21
18.6450244403
31
0.0000000000
11
1.7984606274
21
18.6749814270
31
0.0000000000
11
1.7787606038
21
18.7006065046
31
0.0000000000
11
1.7565884594
21
18.7212667434
31
0.0000000000
11
1.7324885254
21
18.7364558626
31
0.0000000000
11
1.7071031809
21
18.7457878310
31
0.0000000000
0
SPLINE
5
3E1
100
AcDbEntity
8
0
100
AcDbSpline
62
9
6
CONTINUOUS
70
0
71
3
72
17
73
13
74
11
42
0.0000001000
43
0.0000001000
44
0.0000000001
12
-0.3505949654
22
0.0086311201
32
0.0000000000
13
-0.3409768459
23
0.0820129049
33
0.0000000000
40
0.0000000000
40
0.0000000000
40
0.0000000000
40
0.0000000000
40
0.0875688027
40
0.1844790945
40
0.2884420677
40
0.3969904842
40
0.5075421792
40
0.6174639896
40
0.7241424302
40
0.8250343531
40
0.9177590084
40
1.0000000000
40
1.0000000000
40
1.0000000000
40
1.0000000000
10
1.8431444702
20
18.4587357051
30
0.0000000000
10
1.8329107430
20
18.4589876441
30
0.0000000000
10
1.8113595750
20
18.4598590157
30
0.0000000000
10
1.7777069007
20
18.4620083313
30
0.0000000000
10
1.7416597024
20
18.4650311283
30
0.0000000000
10
1.7040859499
20
18.4688570744
30
0.0000000000
10
1.6658900794
20
18.4733956174
30
0.0000000000
10
1.6279913327
20
18.4785377375
30
0.0000000000
10
1.5913025591
20
18.4841588286
30
0.0000000000
10
1.5567055901
20
18.4901214489
30
0.0000000000
10
1.5250479258
20
18.4962758626
30
0.0000000000
10
1.5050739046
20
18.5006962262
30
0.0000000000
10
1.4957264799
20
18.5029445004
30
0.0000000000
11
1.8431444702
21
18.4587357051
31
0.0000000000
11
1.8124571513
21
18.4599282895
31
0.0000000000
11
1.7785377756
21
18.4620641409
31
0.0000000000
11
1.7422037633
21
18.4650917922
31
0.0000000000
11
1.7043305328
21
18.4689382883
31
0.0000000000
11
1.6658305189
21
18.4735109490
31
0.0000000000
11
1.6276315848
21
18.4786995491
31
0.0000000000
11
1.5906529659
21
18.4843792198
31
0.0000000000
11
1.5557882469
21
18.4904126460
31
0.0000000000
11
1.5238743557
21
18.4966549180
31
0.0000000000
11
1.4957264799
21
18.5029445004
31
0.0000000000
0
SPLINE
5
3E2
100
AcDbEntity
8
0
100
AcDbSpline
62
9
6
CONTINUOUS
70
0
71
3
72
17
73
13
74
11
42
0.0000001000
43
0.0000001000
44
0.0000000001
12
-0.3491587272
22
0.0032629102
32
0.0000000000
13
-0.0427012113
23
-0.3465531271
33
0.0000000000
40
0.0000000000
40
0.0000000000
40
0.0000000000
40
0.0000000000
40
0.0828369648
40
0.1689666956
40
0.2593888397
40
0.3545838859
40
0.4545356760
40
0.5588001879
40
0.6665917310
40
0.7768719989
40
0.8884368192
40
1.0000000000
40
1.0000000000
40
1.0000000000
40
1.0000000000
10
1.7071031809
20
18.7457878310
30
0.0000000000
10
1.6974620978
20
18.7458779275
30
0.0000000000
10
1.6777255501
20
18.7439380604
30
0.0000000000
10
1.6486940817
20
18.7350457411
30
0.0000000000
10
1.6204736007
20
18.7204148213
30
0.0000000000
10
1.5937399465
20
18.7004431874
30
0.0000000000
10
1.5691028547
20
18.6756347550
30
0.0000000000
10
1.5471321970
20
18.6465934978
30
0.0000000000
10
1.5283390038
20
18.6140177688
30
0.0000000000
10
1.5131645043
20
18.5786855071
30
0.0000000000
10
1.5019684455
20
18.5414483547
30
0.0000000000
10
1.4973144409
20
18.5158320235
30
0.0000000000
10
1.4957264799
20
18.5029445004
30
0.0000000000
11
1.7071031809
21
18.7457878310
31
0.0000000000
11
1.6783085453
21
18.7430498830
31
0.0000000000
11
1.6495137597
21
18.7343710896
31
0.0000000000
11
1.6214200072
21
18.7199627884
31
0.0000000000
11
1.5947113999
21
18.7001758365
31
0.0000000000
11
1.5700383203
21
18.6754920669
31
0.0000000000
11
1.5480015834
21
18.6465125550
31
0.0000000000
11
1.5291378068
21
18.6139429821
31
0.0000000000
11
1.5139063431
21
18.5785764512
31
0.0000000000
11
1.5026780943
21
18.5412741742
31
0.0000000000
11
1.4957264799
21
18.5029445004
31
0.0000000000
0
SPLINE
5
3E3
100
AcDbEntity
8
0
100
AcDbSpline
62
9
6
CONTINUOUS
70
0
71
3
72
17
73
13
74
11
42
0.0000001000
43
0.0000001000
44
0.0000000001
12
-0.3491587272
22
0.0032629102
32
0.0000000000
13
-0.0427012113
23
-0.3465531271
33
0.0000000000
40
0.0000000000
40
0.0000000000
40
0.0000000000
40
0.0000000000
40
0.0828369648
40
0.1689666956
40
0.2593888397
40
0.3545838859
40
0.4545356760
40
0.5588001879
40
0.6665917310
40
0.7768719989
40
0.8884368192
40
1.0000000000
40
1.0000000000
40
1.0000000000
40
1.0000000000
10
-14.4575639878
20
22.6337682822
30
0.0000000000
10
-14.4672050709
20
22.6338583787
30
0.0000000000
10
-14.4869416186
20
22.6319185116
30
0.0000000000
10
-14.5159730871
20
22.6230261923
30
0.0000000000
10
-14.5441935681
20
22.6083952724
30
0.0000000000
10
-14.5709272222
20
22.5884236385
30
0.0000000000
10
-14.5955643141
20
22.5636152062
30
0.0000000000
10
-14.6175349718
20
22.5345739489
30
0.0000000000
10
-14.6363281650
20
22.5019982200
30
0.0000000000
10
-14.6515026644
20
22.4666659583
30
0.0000000000
10
-14.6626987232
20
22.4294288059
30
0.0000000000
10
-14.6673527278
20
22.4038124746
30
0.0000000000
10
-14.6689406888
20
22.3909249516
30
0.0000000000
11
-14.4575639878
21
22.6337682822
31
0.0000000000
11
-14.4863586235
21
22.6310303342
31
0.0000000000
11
-14.5151534091
21
22.6223515408
31
0.0000000000
11
-14.5432471616
21
22.6079432396
31
0.0000000000
11
-14.5699557688
21
22.5881562877
31
0.0000000000
11
-14.5946288485
21
22.5634725180
31
0.0000000000
11
-14.6166655854
21
22.5344930061
31
0.0000000000
11
-14.6355293620
21
22.5019234332
31
0.0000000000
11
-14.6507608257
21
22.4665569023
31
0.0000000000
11
-14.6619890745
21
22.4292546254
31
0.0000000000
11
-14.6689406888
21
22.3909249516
31
0.0000000000
0
SPLINE
5
3E4
100
AcDbEntity
8
0
100
AcDbSpline
62
7
6
CONTINUOUS
70
0
71
3
72
14
73
10
74
8
42
0.0000001000
43
0.0000001000
44
0.0000000001
12
4.4981261274
22
-0.1107370920
32
0.0000000000
13
4.0467186387
23
1.9670967492
33
0.0000000000
40
0.0000000000
40
0.0000000000
40
0.0000000000
40
0.0000000000
40
0.1376167651
40
0.2765794604
40
0.4170761009
40
0.5595169818
40
0.7039696159
40
0.8507804605
40
1.0000000000
40
1.0000000000
40
1.0000000000
40
1.0000000000
10
-3.0251174913
20
-21.9338960855
30
0.0000000000
10
-2.8187783025
20
-21.9389758456
30
0.0000000000
10
-2.4035480356
20
-21.9337960092
30
0.0000000000
10
-1.7797621459
20
-21.8805353209
30
0.0000000000
10
-1.1541777925
20
-21.7819330822
30
0.0000000000
10
-0.5289445681
20
-21.6383396336
30
0.0000000000
10
0.0942331200
20
-21.4501692047
30
0.0000000000
10
0.7132419637
20
-21.2180841398
30
0.0000000000
10
1.1185775447
20
-21.0360529121
30
0.0000000000
10
1.3198607085
20
-20.9382098218
30
0.0000000000
11
-3.0251174913
21
-21.9338960855
31
0.0000000000
11
-2.4059582360
21
-21.9263595201
31
0.0000000000
11
-1.7829434789
21
-21.8734059401
31
0.0000000000
11
-1.1584467889
21
-21.7752527112
31
0.0000000000
11
-0.5337289917
21
-21.6320926182
31
0.0000000000
11
0.0885824844
21
-21.4445282832
31
0.0000000000
11
0.7072316334
21
-21.2129447081
31
0.0000000000
11
1.3198607085
21
-20.9382098218
31
0.0000000000
0
SPLINE
5
3E5
100
AcDbEntity
8
0
100
AcDbSpline
62
7
6
CONTINUOUS
70
0
71
3
72
26
73
22
74
20
42
0.0000001000
43
0.0000001000
44
0.0000000001
12
-1.3923473431
22
0.0155728619
32
0.0000000000
13
0.1396877819
23
1.4356607352
33
0.0000000000
40
0.0000000000
40
0.0000000000
40
0.0000000000
40
0.0000000000
40
0.0571230540
40
0.1195065209
40
0.1862025196
40
0.2561570984
40
0.3283887176
40
0.4016496744
40
0.4749987962
40
0.5470928311
40
0.6170582764
40
0.6835763285
40
0.7458728392
40
0.8027603462
40
0.8536054413
40
0.8974574259
40
0.9338763952
40
0.9622823143
40
0.9826176033
40
0.9953133633
40
1.0000000000
40
1.0000000000
40
1.0000000000
40
1.0000000000
10
1.9202849132
20
19.3816376740
30
0.0000000000
10
1.8937732024
20
19.3819341971
30
0.0000000000
10
1.8383156878
20
19.3833059623
30
0.0000000000
10
1.7519764013
20
19.3872600430
30
0.0000000000
10
1.6597796018
20
19.3931579607
30
0.0000000000
10
1.5631348315
20
19.4009130937
30
0.0000000000
10
1.4635840511
20
19.4104047527
30
0.0000000000
10
1.3626133890
20
19.4214925895
30
0.0000000000
10
1.2618725969
20
19.4339961676
30
0.0000000000
10
1.1628362484
20
19.4477321716
30
0.0000000000
10
1.0671507843
20
19.4624708973
30
0.0000000000
10
0.9761986930
20
19.4779966918
30
0.0000000000
10
0.8915094054
20
19.4940444090
30
0.0000000000
10
0.8142864022
20
19.5103755140
30
0.0000000000
10
0.7458593852
20
19.5267060866
30
0.0000000000
10
0.6870906806
20
19.5427712943
30
0.0000000000
10
0.6392302554
20
19.5583032824
30
0.0000000000
10
0.6020615644
20
19.5729275574
30
0.0000000000
10
0.5778188105
20
19.5866075143
30
0.0000000000
10
0.5627086906
20
19.5981352244
30
0.0000000000
10
0.5618178928
20
19.6067382810
30
0.0000000000
10
0.5620361148
20
19.6089810877
30
0.0000000000
11
1.9202849132
21
19.3816376740
31
0.0000000000
11
1.8407668926
21
19.3835119828
31
0.0000000000
11
1.7539900341
21
19.3874216411
31
0.0000000000
11
1.6613067963
21
19.3933053545
31
0.0000000000
11
1.5642093603
21
19.4010670239
31
0.0000000000
11
1.4640840265
21
19.4105964551
31
0.0000000000
11
1.3626819189
21
19.4217262675
31
0.0000000000
11
1.2613264887
21
19.4343119152
31
0.0000000000
11
1.1618944840
21
19.4481202053
31
0.0000000000
11
1.0656123595
21
19.4629814307
31
0.0000000000
11
0.9743187216
21
19.4786118935
31
0.0000000000
11
0.8891036562
21
19.4948254852
31
0.0000000000
11
0.8116251088
21
19.5113068435
31
0.0000000000
11
0.7427897685
21
19.5278633525
31
0.0000000000
11
0.6839465681
21
19.5441705623
31
0.0000000000
11
0.6357818992
21
19.5600379157
31
0.0000000000
11
0.5992320789
21
19.5751567941
31
0.0000000000
11
0.5747289773
21
19.5893472400
31
0.0000000000
11
0.5627397057
21
19.6023383723
31
0.0000000000
11
0.5620361148
21
19.6089810877
31
0.0000000000
0
SPLINE
5
3E6
100
AcDbEntity
8
0
100
AcDbSpline
62
9
6
CONTINUOUS
70
0
71
3
72
27
73
23
74
21
42
0.0000001000
43
0.0000001000
44
0.0000000001
12
-0.3163042247
22
-1.6282202297
32
0.0000000000
13
1.6484050914
23
-0.0263423466
33
0.0000000000
40
0.0000000000
40
0.0000000000
40
0.0000000000
40
0.0000000000
40
0.0022754869
40
0.0125585353
40
0.0294047732
40
0.0537006918
40
0.0854449956
40
0.1243315965
40
0.1698823127
40
0.2214927342
40
0.2784560570
40
0.3399802259
40
0.4052025745
40
0.4732038000
40
0.5430231076
40
0.6136736981
40
0.6841551476
40
0.7534670259
40
0.8206302642
40
0.8846996558
40
0.9447659778
40
1.0000000000
40
1.0000000000
40
1.0000000000
40
1.0000000000
10
4.2959841408
20
20.2126644834
30
0.0000000000
10
4.2957442255
20
20.2114294854
30
0.0000000000
10
4.2952775990
20
20.2046082496
30
0.0000000000
10
4.3076583222
20
20.1910481022
30
0.0000000000
10
4.3310231922
20
20.1767900367
30
0.0000000000
10
4.3680953886
20
20.1602938471
30
0.0000000000
10
4.4172073964
20
20.1431463368
30
0.0000000000
10
4.4785268042
20
20.1250690535
30
0.0000000000
10
4.5509593438
20
20.1065831164
30
0.0000000000
10
4.6335859529
20
20.0878995868
30
0.0000000000
10
4.7252020093
20
20.0693266973
30
0.0000000000
10
4.8245103373
20
20.0511315383
30
0.0000000000
10
4.9300874706
20
20.0335832916
30
0.0000000000
10
5.0404225490
20
20.0169365078
30
0.0000000000
10
5.1539350875
20
20.0014322530
30
0.0000000000
10
5.2689990771
20
19.9872938593
30
0.0000000000
10
5.3839645154
20
19.9747244206
30
0.0000000000
10
5.4971828634
20
19.9639035402
30
0.0000000000
10
5.6070322752
20
19.9549846013
30
0.0000000000
10
5.7119370223
20
19.9480925734
30
0.0000000000
10
5.8103970613
20
19.9433217037
30
0.0000000000
10
5.8737393237
20
19.9415109169
30
0.0000000000
10
5.9040886715
20
19.9410259190
30
0.0000000000
11
4.2959841408
21
20.2126644834
31
0.0000000000
11
4.2957640435
21
20.2089914082
31
0.0000000000
11
4.3050247264
21
20.1947915152
31
0.0000000000
11
4.3280128932
21
20.1792068418
31
0.0000000000
11
4.3643989574
21
20.1624608670
31
0.0000000000
11
4.4136609025
21
20.1447938252
31
0.0000000000
11
4.4750922244
21
20.1264590588
31
0.0000000000
11
4.5478120914
21
20.1077194480
31
0.0000000000
11
4.6307776911
21
20.0888437208
31
0.0000000000
11
4.7227992834
21
20.0701025582
31
0.0000000000
11
4.8225575222
21
20.0517646666
31
0.0000000000
11
4.9286220187
21
20.0340930017
31
0.0000000000
11
5.0394712378
21
20.0173410756
31
0.0000000000
11
5.1535155148
21
20.0017491154
31
0.0000000000
11
5.2691212887
21
19.9875404893
31
0.0000000000
11
5.3846305897
21
19.9749190360
31
0.0000000000
11
5.4983826805
21
19.9640661965
31
0.0000000000
11
5.6087484454
21
19.9551373268
31
0.0000000000
11
5.7141501219
21
19.9482601670
31
0.0000000000
11
5.8130635511
21
19.9435340369
31
0.0000000000
11
5.9040886715
21
19.9410259190
31
0.0000000000
0
SPLINE
5
3E7
100
AcDbEntity
8
0
100
AcDbSpline
62
9
6
CONTINUOUS
70
0
71
3
72
17
73
13
74
11
42
0.0000001000
43
0.0000001000
44
0.0000000001
12
-0.0381765765
22
-0.2941214183
32
0.0000000000
13
-0.2972468167
23
0.0108751319
33
0.0000000000
40
0.0000000000
40
0.0000000000
40
0.0000000000
40
0.0000000000
40
0.1305999883
40
0.2579562750
40
0.3805823793
40
0.4973082776
40
0.6074049797
40
0.7107161394
40
0.8077892601
40
0.8999384599
40
0.9892263293
40
1.0000000000
40
1.0000000000
40
1.0000000000
40
1.0000000000
10
-3.5388705273
20
-25.2204497510
30
0.0000000000
10
-3.5405324808
20
-25.2332538356
30
0.0000000000
10
-3.5451514648
20
-25.2583936115
30
0.0000000000
10
-3.5559921444
20
-25.2945036963
30
0.0000000000
10
-3.5704351746
20
-25.3278552131
30
0.0000000000
10
-3.5881441249
20
-25.3576397329
30
0.0000000000
10
-3.6087153118
20
-25.3831388118
30
0.0000000000
10
-3.6316896409
20
-25.4037229060
30
0.0000000000
10
-3.6565537552
20
-25.4188517495
30
0.0000000000
10
-3.6827336639
20
-25.4280734959
30
0.0000000000
10
-3.7017846257
20
-25.4301975375
30
0.0000000000
10
-3.7117034083
20
-25.4299764428
30
0.0000000000
10
-3.7127708881
20
-25.4299373878
30
0.0000000000
11
-3.5388705273
21
-25.2204497510
31
0.0000000000
11
-3.5459090008
21
-25.2585393813
31
0.0000000000
11
-3.5568341819
21
-25.2946973313
31
0.0000000000
11
-3.5713769222
21
-25.3280327554
31
0.0000000000
11
-3.5891789616
21
-25.3577245542
31
0.0000000000
11
-3.6098017806
21
-25.3830414728
31
0.0000000000
11
-3.6327371230
21
-25.4033598446
31
0.0000000000
11
-3.6574206648
21
-25.4181798452
31
0.0000000000
11
-3.6832420236
21
-25.4271357840
31
0.0000000000
11
-3.7095675026
21
-25.4300086717
31
0.0000000000
11
-3.7127708881
21
-25.4299373878
31
0.0000000000
0
SPLINE
5
3E8
100
AcDbEntity
8
0
100
AcDbSpline
62
9
6
CONTINUOUS
70
0
71
3
72
17
73
13
74
11
42
0.0000001000
43
0.0000001000
44
0.0000000001
12
-0.0368168298
22
-0.2987968515
32
0.0000000000
13
0.2934318178
23
-0.0705173708
33
0.0000000000
40
0.0000000000
40
0.0000000000
40
0.0000000000
40
0.0000000000
40
0.1279006210
40
0.2529114262
40
0.3738287691
40
0.4897422526
40
0.6001380169
40
0.7049986884
40
0.8048830697
40
0.9009520579
40
0.9948947153
40
1.0000000000
40
1.0000000000
40
1.0000000000
40
1.0000000000
10
-3.8862885175
20
-25.1762409557
30
0.0000000000
10
-3.8878581493
20
-25.1889797233
30
0.0000000000
10
-3.8895401052
20
-25.2143708826
30
0.0000000000
10
-3.8876042243
20
-25.2519227007
30
0.0000000000
10
-3.8812318017
20
-25.2877740674
30
0.0000000000
10
-3.8705603726
20
-25.3210646902
30
0.0000000000
10
-3.8558219787
20
-25.3509997779
30
0.0000000000
10
-3.8373349766
20
-25.3768509563
30
0.0000000000
10
-3.8155057008
20
-25.3979641379
30
0.0000000000
10
-3.7908316334
20
-25.4137678454
30
0.0000000000
10
-3.7723491655
20
-25.4206643790
30
0.0000000000
10
-3.7626754279
20
-25.4230500692
30
0.0000000000
10
-3.7621760769
20
-25.4231700730
30
0.0000000000
11
-3.8862885175
21
-25.1762409557
31
0.0000000000
11
-3.8887942184
21
-25.2146646589
31
0.0000000000
11
-3.8867929893
21
-25.2522467342
31
0.0000000000
11
-3.8803335624
21
-25.2880720190
31
0.0000000000
11
-3.8695732313
21
-25.3212681303
31
0.0000000000
11
-3.8547740213
21
-25.3510267082
31
0.0000000000
11
-3.8362963087
21
-25.3766231004
31
0.0000000000
11
-3.8145900449
21
-25.3974340080
31
0.0000000000
11
-3.7901838001
21
-25.4129526638
31
0.0000000000
11
-3.7636718917
21
-25.4228011724
31
0.0000000000
11
-3.7621760769
21
-25.4231700730
31
0.0000000000
0
SPLINE
5
3E9
100
AcDbEntity
8
0
100
AcDbSpline
62
9
6
CONTINUOUS
70
0
71
3
72
16
73
12
74
10
42
0.0000001000
43
0.0000001000
44
0.0000000001
12
-0.0364437309
22
-0.2957688675
32
0.0000000000
13
0.2886782435
23
-0.0766346434
33
0.0000000000
40
0.0000000000
40
0.0000000000
40
0.0000000000
40
0.0000000000
40
0.1292100253
40
0.2555006499
40
0.3776559046
40
0.4947560720
40
0.6062820318
40
0.7122162322
40
0.8131231968
40
0.9101757076
40
1.0000000000
40
1.0000000000
40
1.0000000000
40
1.0000000000
10
-20.0509556863
20
-21.2882605046
30
0.0000000000
10
-20.0525253180
20
-21.3009992722
30
0.0000000000
10
-20.0542072740
20
-21.3263904314
30
0.0000000000
10
-20.0522713931
20
-21.3639422495
30
0.0000000000
10
-20.0458989704
20
-21.3997936162
30
0.0000000000
10
-20.0352275413
20
-21.4330842391
30
0.0000000000
10
-20.0204891475
20
-21.4630193268
30
0.0000000000
10
-20.0020021454
20
-21.4888705052
30
0.0000000000
10
-19.9801728696
20
-21.5099836867
30
0.0000000000
10
-19.9559268071
20
-21.5255132577
30
0.0000000000
10
-19.9384513298
20
-21.5321454463
30
0.0000000000
10
-19.9298078902
20
-21.5344399972
30
0.0000000000
11
-20.0509556863
21
-21.2882605046
31
0.0000000000
11
-20.0534613871
21
-21.3266842077
31
0.0000000000
11
-20.0514601581
21
-21.3642662830
31
0.0000000000
11
-20.0450007311
21
-21.4000915678
31
0.0000000000
11
-20.0342404000
21
-21.4332876791
31
0.0000000000
11
-20.0194411901
21
-21.4630462570
31
0.0000000000
11
-20.0009634774
21
-21.4886426492
31
0.0000000000
11
-19.9792572136
21
-21.5094535568
31
0.0000000000
11
-19.9548509688
21
-21.5249722126
31
0.0000000000
11
-19.9298078902
21
-21.5344399972
31
0.0000000000
0
SPLINE
5
3EA
100
AcDbEntity
8
0
100
AcDbSpline
62
9
6
CONTINUOUS
70
0
71
3
72
9
73
5
74
3
42
0.0000001000
43
0.0000001000
44
0.0000000001
12
0.0029553925
22
-0.0007845602
32
0.0000000000
13
0.0029736152
23
-0.0007146175
33
0.0000000000
40
0.0000000000
40
0.0000000000
40
0.0000000000
40
0.0000000000
40
0.4962182809
40
1.0000000000
40
1.0000000000
40
1.0000000000
40
1.0000000000
10
-19.9298078902
20
-21.5344399972
30
0.0000000000
10
-19.9293190502
20
-21.5345697682
30
0.0000000000
10
-19.9283323487
20
-21.5348255302
30
0.0000000000
10
-19.9273425967
20
-21.5350696181
30
0.0000000000
10
-19.9268432457
20
-21.5351896218
30
0.0000000000
11
-19.9298078902
21
-21.5344399972
31
0.0000000000
11
-19.9283390604
21
-21.5348207212
31
0.0000000000
11
-19.9268432457
21
-21.5351896218
31
0.0000000000
0
SPLINE
5
3EB
100
AcDbEntity
8
0
100
AcDbSpline
62
9
6
CONTINUOUS
70
0
71
3
72
17
73
13
74
11
42
0.0000001000
43
0.0000001000
44
0.0000000001
12
-0.3505949654
22
0.0086311201
32
0.0000000000
13
-0.3409768459
23
0.0820129049
33
0.0000000000
40
0.0000000000
40
0.0000000000
40
0.0000000000
40
0.0000000000
40
0.0875688027
40
0.1844790945
40
0.2884420677
40
0.3969904842
40
0.5075421792
40
0.6174639896
40
0.7241424302
40
0.8250343531
40
0.9177590084
40
1.0000000000
40
1.0000000000
40
1.0000000000
40
1.0000000000
10
-3.5388705273
20
-25.2204497510
30
0.0000000000
10
-3.5491042544
20
-25.2201978120
30
0.0000000000
10
-3.5706554224
20
-25.2193264404
30
0.0000000000
10
-3.6043080968
20
-25.2171771248
30
0.0000000000
10
-3.6403552950
20
-25.2141543278
30
0.0000000000
10
-3.6779290475
20
-25.2103283818
30
0.0000000000
10
-3.7161249180
20
-25.2057898387
30
0.0000000000
10
-3.7540236647
20
-25.2006477186
30
0.0000000000
10
-3.7907124383
20
-25.1950266275
30
0.0000000000
10
-3.8253094073
20
-25.1890640073
30
0.0000000000
10
-3.8569670716
20
-25.1829095935
30
0.0000000000
10
-3.8769410929
20
-25.1784892299
30
0.0000000000
10
-3.8862885175
20
-25.1762409557
30
0.0000000000
11
-3.5388705273
21
-25.2204497510
31
0.0000000000
11
-3.5695578461
21
-25.2192571667
31
0.0000000000
11
-3.6034772218
21
-25.2171213152
31
0.0000000000
11
-3.6398112342
21
-25.2140936640
31
0.0000000000
11
-3.6776844646
21
-25.2102471678
31
0.0000000000
11
-3.7161844785
21
-25.2056745071
31
0.0000000000
11
-3.7543834126
21
-25.2004859070
31
0.0000000000
11
-3.7913620316
21
-25.1948062363
31
0.0000000000
11
-3.8262267505
21
-25.1887728101
31
0.0000000000
11
-3.8581406417
21
-25.1825305381
31
0.0000000000
11
-3.8862885175
21
-25.1762409557
31
0.0000000000
0
SPLINE
5
3EC
100
AcDbEntity
8
0
100
AcDbSpline
62
7
6
CONTINUOUS
70
0
71
3
72
16
73
12
74
10
42
0.0000001000
43
0.0000001000
44
0.0000000001
12
0.3409753697
22
-0.0820125498
32
0.0000000000
13
0.3505934476
23
-0.0086310828
33
0.0000000000
40
0.0000000000
40
0.0000000000
40
0.0000000000
40
0.0000000000
40
0.0921768596
40
0.1970268581
40
0.3109137815
40
0.4314367871
40
0.5539016280
40
0.6759648460
40
0.7928712918
40
0.9021484760
40
1.0000000000
40
1.0000000000
40
1.0000000000
40
1.0000000000
10
-3.4810004557
20
-21.8870170459
30
0.0000000000
10
-3.4705237761
20
-21.8895369323
30
0.0000000000
10
-3.4480202088
20
-21.8944680198
30
0.0000000000
10
-3.4123111975
20
-21.9012586122
30
0.0000000000
10
-3.3731880944
20
-21.9077780086
30
0.0000000000
10
-3.3319056228
20
-21.9138121402
30
0.0000000000
10
-3.2895698505
20
-21.9191968890
30
0.0000000000
10
-3.2475624431
20
-21.9237560740
30
0.0000000000
10
-3.2070101691
20
-21.9273688610
30
0.0000000000
10
-3.1692138009
20
-21.9299231307
30
0.0000000000
10
-3.1450178332
20
-21.9309443196
30
0.0000000000
10
-3.1335824655
20
-21.9312258411
30
0.0000000000
11
-3.4810004557
21
-21.8870170459
31
0.0000000000
11
-3.4494402505
21
-21.8940134186
31
0.0000000000
11
-3.4133256261
21
-21.9009293473
31
0.0000000000
11
-3.3739335082
21
-21.9075227667
31
0.0000000000
11
-3.3321126484
21
-21.9136503267
31
0.0000000000
11
-3.2895078219
21
-21.9190717732
31
0.0000000000
11
-3.2469492104
21
-21.9236814660
31
0.0000000000
11
-3.2061099291
21
-21.9272974588
31
0.0000000000
11
-3.1678710889
21
-21.9298429777
31
0.0000000000
11
-3.1335824655
21
-21.9312258411
31
0.0000000000
0
SPLINE
5
3ED
100
AcDbEntity
8
0
100
AcDbSpline
62
7
6
CONTINUOUS
70
0
71
3
72
12
73
8
74
6
42
0.0000001000
43
0.0000001000
44
0.0000000001
12
-0.0439765512
22
-0.3569034900
32
0.0000000000
13
0.3527409521
23
-0.0859725854
33
0.0000000000
40
0.0000000000
40
0.0000000000
40
0.0000000000
40
0.0000000000
40
0.2550108380
40
0.4935418154
40
0.7099525087
40
0.9066352540
40
1.0000000000
40
1.0000000000
40
1.0000000000
40
1.0000000000
10
-3.8252208671
20
-26.5002284848
30
0.0000000000
10
-3.8289590329
20
-26.5305665708
30
0.0000000000
10
-3.8296530834
20
-26.5903633398
30
0.0000000000
10
-3.8095984689
20
-26.6740599562
30
0.0000000000
10
-3.7695353535
20
-26.7427514463
30
0.0000000000
10
-3.7209490816
20
-26.7817998911
30
0.0000000000
10
-3.6876528264
20
-26.7937087315
30
0.0000000000
10
-3.6766749699
20
-26.7963843344
30
0.0000000000
11
-3.8252208671
21
-26.5002284848
31
0.0000000000
11
-3.8257689479
21
-26.5919294103
31
0.0000000000
11
-3.8048172164
21
-26.6751075882
31
0.0000000000
11
-3.7644165740
21
-26.7416209591
31
0.0000000000
11
-3.7085217170
21
-26.7849587308
31
0.0000000000
11
-3.6766749699
21
-26.7963843344
31
0.0000000000
0
SPLINE
5
3EE
100
AcDbEntity
8
0
100
AcDbSpline
62
7
6
CONTINUOUS
70
0
71
3
72
15
73
11
74
9
42
0.0000001000
43
0.0000001000
44
0.0000000001
12
-0.0161626194
22
-0.2577148377
32
0.0000000000
13
0.2510611283
23
-0.0603860722
33
0.0000000000
40
0.0000000000
40
0.0000000000
40
0.0000000000
40
0.0000000000
40
0.1433848520
40
0.2850166624
40
0.4224325035
40
0.5535424816
40
0.6768711846
40
0.7918180016
40
0.8989152429
40
1.0000000000
40
1.0000000000
40
1.0000000000
40
1.0000000000
10
-5.2897734597
20
-25.6576963838
30
0.0000000000
10
-5.2905459513
20
-25.6700138518
30
0.0000000000
10
-5.2905338786
20
-25.6946234913
30
0.0000000000
10
-5.2859067742
20
-25.7307850495
30
0.0000000000
10
-5.2768220139
20
-25.7650152435
30
0.0000000000
10
-5.2635678650
20
-25.7961681407
30
0.0000000000
10
-5.2465583084
20
-25.8232096630
30
0.0000000000
10
-5.2262972548
20
-25.8452273229
30
0.0000000000
10
-5.2034093489
20
-25.8614233492
30
0.0000000000
10
-5.1864981590
20
-25.8680200309
30
0.0000000000
10
-5.1780386746
20
-25.8700547347
30
0.0000000000
11
-5.2897734597
21
-25.6576963838
31
0.0000000000
11
-5.2897467485
21
-25.6947213771
31
0.0000000000
11
-5.2850557639
21
-25.7309916131
31
0.0000000000
11
-5.2758613598
21
-25.7652633848
31
0.0000000000
11
-5.2624788125
21
-25.7963615127
31
0.0000000000
11
-5.2453670098
21
-25.8232196413
31
0.0000000000
11
-5.2251127158
21
-25.8449168051
31
0.0000000000
11
-5.2024104503
21
-25.8607090079
31
0.0000000000
11
-5.1780386746
21
-25.8700547347
31
0.0000000000
0
SPLINE
5
3EF
100
AcDbEntity
8
0
100
AcDbSpline
62
7
6
CONTINUOUS
70
0
71
3
72
8
73
4
74
2
42
0.0000001000
43
0.0000001000
44
0.0000000001
12
0.0335853651
22
-0.0081856690
32
0.0000000000
13
0.0342310261
23
-0.0007239729
33
0.0000000000
40
0.0000000000
40
0.0000000000
40
0.0000000000
40
0.0000000000
40
1.0000000000
40
1.0000000000
40
1.0000000000
40
1.0000000000
10
-3.6766749699
20
-26.7963843344
30
0.0000000000
10
-3.6654798483
20
-26.7991128907
30
0.0000000000
10
-3.6540143657
20
-26.8006373758
30
0.0000000000
10
-3.6426040236
20
-26.8008787001
30
0.0000000000
11
-3.6766749699
21
-26.7963843344
31
0.0000000000
11
-3.6426040236
21
-26.8008787001
31
0.0000000000
0
SPLINE
5
3F0
100
AcDbEntity
8
0
100
AcDbSpline
62
7
6
CONTINUOUS
70
0
71
3
72
10
73
6
74
4
42
0.0000001000
43
0.0000001000
44
0.0000000001
12
0.0711077769
22
-0.0015039019
32
0.0000000000
13
0.0661182033
23
0.0262099381
33
0.0000000000
40
0.0000000000
40
0.0000000000
40
0.0000000000
40
0.0000000000
40
0.3251946687
40
0.6577756201
40
1.0000000000
40
1.0000000000
40
1.0000000000
40
1.0000000000
10
-3.2671089286
20
-26.8088202758
30
0.0000000000
10
-3.2594009719
20
-26.8089832961
30
0.0000000000
10
-3.2437655770
20
-26.8081934447
30
0.0000000000
10
-3.2204104359
20
-26.8037626337
30
0.0000000000
10
-3.2051633022
20
-26.7987539787
30
0.0000000000
10
-3.1976208818
20
-26.7957640854
30
0.0000000000
11
-3.2671089286
21
-26.8088202758
31
0.0000000000
11
-3.2440078639
21
-26.8076830190
31
0.0000000000
11
-3.2207602799
21
-26.8033150032
31
0.0000000000
11
-3.1976208818
21
-26.7957640854
31
0.0000000000
0
SPLINE
5
3F1
100
AcDbEntity
8
0
100
AcDbSpline
62
7
6
CONTINUOUS
70
0
71
3
72
11
73
7
74
5
42
0.0000001000
43
0.0000001000
44
0.0000000001
12
-0.0816738234
22
-0.0905208424
32
0.0000000000
13
-0.0222041083
23
-0.1197124795
33
0.0000000000
40
0.0000000000
40
0.0000000000
40
0.0000000000
40
0.0000000000
40
0.1519312848
40
0.4204310332
40
0.7043606479
40
1.0000000000
40
1.0000000000
40
1.0000000000
40
1.0000000000
10
0.5712235335
20
21.6083703848
30
0.0000000000
10
0.5670872638
20
21.6037860688
30
0.0000000000
10
0.5563708459
20
21.5904393873
30
0.0000000000
10
0.5416824981
20
21.5657701836
30
0.0000000000
10
0.5287061473
20
21.5337678325
30
0.0000000000
10
0.5229283494
20
21.5108821812
30
0.0000000000
10
0.5207402133
20
21.4990849412
30
0.0000000000
11
0.5712235335
21
21.6083703848
31
0.0000000000
11
0.5595965882
21
21.5939598901
31
0.0000000000
11
0.5427288514
21
21.5659566727
31
0.0000000000
11
0.5296269718
21
21.5339660366
31
0.0000000000
11
0.5207402133
21
21.4990849412
31
0.0000000000
0
SPLINE
5
3F2
100
AcDbEntity
8
0
100
AcDbSpline
62
7
6
CONTINUOUS
70
0
71
3
72
15
73
11
74
9
42
0.0000001000
43
0.0000001000
44
0.0000000001
12
0.2752831328
22
-0.0662120307
32
0.0000000000
13
0.2546059754
23
-0.1238573112
33
0.0000000000
40
0.0000000000
40
0.0000000000
40
0.0000000000
40
0.0000000000
40
0.1049846325
40
0.2254484315
40
0.3568595372
40
0.4942423847
40
0.6323823818
40
0.7660347498
40
0.8901340067
40
1.0000000000
40
1.0000000000
40
1.0000000000
40
1.0000000000
10
0.6492868389
20
21.2774543308
30
0.0000000000
10
0.6589203384
20
21.2751372489
30
0.0000000000
10
0.6794916496
20
21.2696782182
30
0.0000000000
10
0.7117687194
20
21.2600480609
30
0.0000000000
10
0.7467028462
20
21.2486682471
30
0.0000000000
10
0.7829518416
20
21.2359709878
30
0.0000000000
10
0.8191241208
20
21.2224407188
30
0.0000000000
10
0.8538323519
20
21.2085982097
30
0.0000000000
10
0.8857457555
20
21.1949782839
30
0.0000000000
10
0.9058038103
20
21.1857327941
30
0.0000000000
10
0.9151279898
20
21.1811968919
30
0.0000000000
11
0.6492868389
21
21.2774543308
31
0.0000000000
11
0.6780401902
21
21.2699175264
31
0.0000000000
11
0.7107381139
21
21.2602139208
31
0.0000000000
11
0.7461240470
21
21.2487164181
31
0.0000000000
11
0.7828381281
21
21.2358668609
31
0.0000000000
11
0.8194694555
21
21.2221590504
31
0.0000000000
11
0.8546103080
21
21.2081197702
31
0.0000000000
11
0.8869102422
21
21.1942885419
31
0.0000000000
11
0.9151279898
21
21.1811968919
31
0.0000000000
0
SPLINE
5
3F3
100
AcDbEntity
8
0
100
AcDbSpline
62
7
6
CONTINUOUS
70
0
71
3
72
9
73
5
74
3
42
0.0000001000
43
0.0000001000
44
0.0000000001
12
-0.0611365855
22
0.0904528369
32
0.0000000000
13
-0.0870479675
23
0.0656120538
33
0.0000000000
40
0.0000000000
40
0.0000000000
40
0.0000000000
40
0.0000000000
40
0.3486721168
40
1.0000000000
40
1.0000000000
40
1.0000000000
40
1.0000000000
10
2.3397184012
20
20.4391102799
30
0.0000000000
10
2.3326128603
20
20.4496230739
30
0.0000000000
10
2.3107082019
20
20.4787445394
30
0.0000000000
10
2.2842831934
20
20.5042158209
30
0.0000000000
10
2.2653842706
20
20.5184608076
30
0.0000000000
11
2.3397184012
21
20.4391102799
31
0.0000000000
11
2.3167882240
21
20.4694869989
31
0.0000000000
11
2.2653842706
21
20.5184608076
31
0.0000000000
0
SPLINE
5
3F4
100
AcDbEntity
8
0
100
AcDbSpline
62
7
6
CONTINUOUS
70
0
71
3
72
12
73
8
74
6
42
0.0000001000
43
0.0000001000
44
0.0000000001
12
0.0593418917
22
-0.0288678501
32
0.0000000000
13
-0.0301156220
23
-0.0492036952
33
0.0000000000
40
0.0000000000
40
0.0000000000
40
0.0000000000
40
0.0000000000
40
0.3927539042
40
0.6927790479
40
0.8909124416
40
0.9894435367
40
1.0000000000
40
1.0000000000
40
1.0000000000
40
1.0000000000
10
4.0141440350
20
21.0375771684
30
0.0000000000
10
4.0219129549
20
21.0337978481
30
0.0000000000
10
4.0353487144
20
21.0270655526
30
0.0000000000
10
4.0528195606
20
21.0166623941
30
0.0000000000
10
4.0624610652
20
21.0100404710
30
0.0000000000
10
4.0683923355
20
21.0033327214
30
0.0000000000
10
4.0675419668
20
21.0014874706
30
0.0000000000
10
4.0674359953
20
21.0013143316
30
0.0000000000
11
4.0141440350
21
21.0375771684
31
0.0000000000
11
4.0371952038
21
21.0257282013
31
0.0000000000
11
4.0541939503
21
21.0155772665
31
0.0000000000
11
4.0644870221
21
21.0075144586
31
0.0000000000
11
4.0676788624
21
21.0018496268
31
0.0000000000
11
4.0674359953
21
21.0013143316
31
0.0000000000
0
SPLINE
5
3F5
100
AcDbEntity
8
0
100
AcDbSpline
62
7
6
CONTINUOUS
70
0
71
3
72
9
73
5
74
3
42
0.0000001000
43
0.0000001000
44
0.0000000001
12
-0.0432443242
22
0.0325952346
32
0.0000000000
13
-0.0486964380
23
0.0236891921
33
0.0000000000
40
0.0000000000
40
0.0000000000
40
0.0000000000
40
0.0000000000
40
0.5023459530
40
1.0000000000
40
1.0000000000
40
1.0000000000
40
1.0000000000
10
2.2653842706
20
20.5184608076
30
0.0000000000
10
2.2581430668
20
20.5239188357
30
0.0000000000
10
2.2432158002
20
20.5341220519
30
0.0000000000
10
2.2273693606
20
20.5428352527
30
0.0000000000
10
2.2192913675
20
20.5467649268
30
0.0000000000
11
2.2653842706
21
20.5184608076
31
0.0000000000
11
2.2429138082
21
20.5337939169
31
0.0000000000
11
2.2192913675
21
20.5467649268
31
0.0000000000
0
SPLINE
5
3F6
100
AcDbEntity
8
0
100
AcDbSpline
62
7
6
CONTINUOUS
70
0
71
3
72
9
73
5
74
3
42
0.0000001000
43
0.0000001000
44
0.0000000001
12
0.0339882559
22
-0.0007188384
32
0.0000000000
13
0.0330797474
23
-0.0079564665
33
0.0000000000
40
0.0000000000
40
0.0000000000
40
0.0000000000
40
0.0000000000
40
0.6706381574
40
1.0000000000
40
1.0000000000
40
1.0000000000
40
1.0000000000
10
2.7336954716
20
21.8923164556
30
0.0000000000
10
2.7412934120
20
21.8921557621
30
0.0000000000
10
2.7526241642
20
21.8911129861
30
0.0000000000
10
2.7637455476
20
21.8888548434
30
0.0000000000
10
2.7673772831
20
21.8879813246
30
0.0000000000
11
2.7336954716
21
21.8923164556
31
0.0000000000
11
2.7563969168
21
21.8902104934
31
0.0000000000
11
2.7673772831
21
21.8879813246
31
0.0000000000
0
SPLINE
5
3F7
100
AcDbEntity
8
0
100
AcDbSpline
62
7
6
CONTINUOUS
70
0
71
3
72
12
73
8
74
6
42
0.0000001000
43
0.0000001000
44
0.0000000001
12
0.0513358737
22
0.4166300449
32
0.0000000000
13
0.4196870012
23
-0.0088762174
33
0.0000000000
40
0.0000000000
40
0.0000000000
40
0.0000000000
40
0.0000000000
40
0.2235944486
40
0.4420044203
40
0.6462653080
40
0.8315693084
40
1.0000000000
40
1.0000000000
40
1.0000000000
40
1.0000000000
10
2.1026350404
20
21.6088751992
30
0.0000000000
10
2.1064611792
20
21.6399272543
30
0.0000000000
10
2.1210897785
20
21.7006587584
30
0.0000000000
10
2.1617217976
20
21.7823218889
30
0.0000000000
10
2.2177522290
20
21.8476971508
30
0.0000000000
10
2.2845807137
20
21.8905673026
30
0.0000000000
10
2.3346376526
20
21.9007563738
30
0.0000000000
10
2.3582003765
20
21.9002580313
30
0.0000000000
11
2.1026350404
21
21.6088751992
31
0.0000000000
11
2.1246292835
21
21.7001225467
31
0.0000000000
11
2.1659167393
21
21.7819843899
31
0.0000000000
11
2.2224559038
21
21.8464475215
31
0.0000000000
11
2.2887123298
21
21.8872018408
31
0.0000000000
11
2.3582003765
21
21.9002580313
31
0.0000000000
0
SPLINE
5
3F8
100
AcDbEntity
8
0
100
AcDbSpline
62
7
6
CONTINUOUS
70
0
71
3
72
9
73
5
74
3
42
0.0000001000
43
0.0000001000
44
0.0000000001
12
0.0333679450
22
-0.0080257849
32
0.0000000000
13
0.0308368425
23
-0.0150010949
33
0.0000000000
40
0.0000000000
40
0.0000000000
40
0.0000000000
40
0.0000000000
40
0.3350694349
40
1.0000000000
40
1.0000000000
40
1.0000000000
40
1.0000000000
10
2.7673772831
20
21.8879813246
30
0.0000000000
10
2.7711041426
20
21.8870849262
30
0.0000000000
10
2.7821286593
20
21.8840018089
30
0.0000000000
10
2.7927783786
20
21.8797213817
30
0.0000000000
10
2.7996131650
20
21.8763964862
30
0.0000000000
11
2.7673772831
21
21.8879813246
31
0.0000000000
11
2.7784500207
21
21.8848843857
31
0.0000000000
11
2.7996131650
21
21.8763964862
31
0.0000000000
0
ENDSEC
0
SECTION
2
OBJECTS
0
DICTIONARY
5
3F9
100
AcDbDictionary
3
ACAD_GROUP
350
3FA
3
ACAD_MLINESTYLE
350
3FB
0
DICTIONARY
5
3FA
102
{ACAD_REACTORS
330
3F9
102
}
100
AcDbDictionary
0
DICTIONARY
5
3FB
102
{ACAD_REACTORS
330
3F9
102
}
100
AcDbDictionary
3
STANDARD
350
3FC
0
MLINESTYLE
5
3FC
102
{ACAD_REACTORS
330
3FB
102
}
100
AcDbMlineStyle
2
STANDARD
70
0
3

62
256
51
90.0
52
90.0
71
2
49
0.5
62
256
6
BYLAYER
49
-0.5
62
256
6
BYLAYER
0
ENDSEC
0
EOF
