0
SECTION
2
HEADER
9
$ACADVER
1
AC1015
9
$DWGCODEPAGE
3
ANSI_1252
9
$EXTMAX
10
297.0000000000
20
210.0000000000
30
0.0000000000
9
$EXTMIN
10
0.0000000000
20
0.0000000000
30
0.0000000000
9
$LIMMIN
10
0.0000000000
20
0.0000000000
9
$LIMMAX
10
297.0000000000
20
210.0000000000
9
$VIEWCTR
10
148.5000000000
20
105.0000000000
9
$VIEWSIZE
40
210.0000000000
9
$CLAYER
8
0
9
$LTSCALE
40
16.3350000000
9
$CELTYPE
6
BYLAYER
9
$DIMSCALE
40
1
9
$DIMASZ
40
3.0000000000
9
$DIMEXO
40
1.8562500000
9
$DIMDLI
40
11.2860000000
9
$DIMEXE
40
5.3460000000
9
$DIMCEN
40
2.6730000000
9
$DIMLFAC
40
1.0000000000
9
$DIMBLK
1
_FILLED
9
$DIMTXT
40
3.0000000000
9
$DIMTOL
70
1
9
$DIMLIM
70
0
9
$DIMTFAC
40
1.0000000000
9
$DIMTP
40
0.0100000000
9
$DIMTM
40
0.0100000000
9
$PDMODE
70
3
9
$PDSIZE
40
3.0000000000
9
$HANDSEED
5
3E7
9
$MEASUREMENT
70
1
9
$INSUNITS
70
4
0
ENDSEC
0
SECTION
2
CLASSES
0
CLASS
1
ACDBDICTIONARYWDFLT
2
AcDbDictionaryWithDefault
3
AutoCAD 2000
90
0
280
0
281
0
0
CLASS
1
ACDBPLACEHOLDER
2
AcDbPlaceHolder
3
AutoCAD 2000
90
0
280
0
281
0
0
CLASS
1
LAYOUT
2
AcDbLayout
3
AutoCAD 2000
90
0
280
0
281
0
0
ENDSEC
0
SECTION
2
TABLES
0
TABLE
2
VPORT
5
8
100
AcDbSymbolTable
70
2
0
VPORT
5
1F4
100
AcDbSymbolTableRecord
100
AcDbViewportTableRecord
2
*ACTIVE
70
0
10
0.0
20
0.0
11
1.0
21
1.0
12
148.5000000000
22
105.0000000000
13
0.0
23
0.0
14
1.0
24
1.0
15
0.0
25
0.0
16
0.0
26
0.0
36
1.0
17
0.0
27
0.0
37
0.0
40
210.0000000000
41
1.4142857143
42
50.0
43
0.0
44
0.0
50
0.0
51
0.0
71
0
72
100
73
1
74
1
75
0
76
0
77
0
78
0
0
ENDTAB
0
TABLE
2
LTYPE
5
5
100
AcDbSymbolTable
70
6
0
LTYPE
5
14
100
AcDbSymbolTableRecord
100
AcDbLinetypeTableRecord
2
BYBLOCK
70
0
3

72
65
73
0
40
0.0
0
LTYPE
5
15
100
AcDbSymbolTableRecord
100
AcDbLinetypeTableRecord
2
BYLAYER
70
0
3

72
65
73
0
40
0.0
0
LTYPE
5
16
100
AcDbSymbolTableRecord
100
AcDbLinetypeTableRecord
2
CONTINUOUS
70
64
3
Solid line
72
65
73
0
40
0
0
LTYPE
5
1F5
100
AcDbSymbolTableRecord
100
AcDbLinetypeTableRecord
2
CENTER
70
64
3
____ _ ____ _ ____ _ ____ _ ____ _ ____ _ ____
72
65
73
4
40
0.6
49
0.375
74
0
49
-0.075
74
0
49
0.075
74
0
49
-0.075
74
0
0
LTYPE
5
1F6
100
AcDbSymbolTableRecord
100
AcDbLinetypeTableRecord
2
HIDDEN
70
64
3
- - - - - - - - - - - - - - - - - - - -
72
65
73
2
40
0.2
49
0.1
74
0
49
-0.1
74
0
0
LTYPE
5
1F7
100
AcDbSymbolTableRecord
100
AcDbLinetypeTableRecord
2
PHANTOM
70
64
3
_____ _ _ _____ _ _ _____ _ _ _____
72
65
73
6
40
0.8
49
0.45
74
0
49
-0.05
74
0
49
0.1
74
0
49
-0.05
74
0
49
0.1
74
0
49
-0.05
74
0
0
LTYPE
5
1F8
100
AcDbSymbolTableRecord
100
AcDbLinetypeTableRecord
2
DOT
70
64
3
. . . . . . . . . . . . . . . . . . . .
72
65
73
2
40
0.2
49
0.1
74
0
49
-0.1
74
0
0
LTYPE
5
1F9
100
AcDbSymbolTableRecord
100
AcDbLinetypeTableRecord
2
DASHED
70
64
3
- - - - - - - - - - - - - - - - - - - -
72
65
73
2
40
0.2
49
0.1
74
0
49
-0.1
74
0
0
ENDTAB
0
TABLE
2
LAYER
5
2
100
AcDbSymbolTable
70
36
0
LAYER
5
10
100
AcDbSymbolTableRecord
100
AcDbLayerTableRecord
2
0
70
0
62
7
6
CONTINUOUS
370
-3
390
F
0
LAYER
5
1FA
100
AcDbSymbolTableRecord
100
AcDbLayerTableRecord
2
DEFAULT_1
70
0
62
7
6
CENTER
370
-3
390
F
0
LAYER
5
1FB
100
AcDbSymbolTableRecord
100
AcDbLayerTableRecord
2
DEFAULT_2
70
0
62
8
6
HIDDEN
370
-3
390
F
0
LAYER
5
1FC
100
AcDbSymbolTableRecord
100
AcDbLayerTableRecord
2
DEFAULT_3
70
0
62
7
6
PHANTOM
370
-3
390
F
0
LAYER
5
1FD
100
AcDbSymbolTableRecord
100
AcDbLayerTableRecord
2
_2D_DELETED_OBJS
70
0
62
7
6
CONTINUOUS
370
-3
390
F
0
LAYER
5
1FE
100
AcDbSymbolTableRecord
100
AcDbLayerTableRecord
2
_BLACK_HOLE
70
0
62
7
6
CONTINUOUS
370
-3
390
F
0
LAYER
5
1FF
100
AcDbSymbolTableRecord
100
AcDbLayerTableRecord
2
218160210_GEN
70
0
62
7
6
CONTINUOUS
370
-3
390
F
0
LAYER
5
200
100
AcDbSymbolTableRecord
100
AcDbLayerTableRecord
2
218160920
70
0
62
7
6
CONTINUOUS
370
-3
390
F
0
LAYER
5
201
100
AcDbSymbolTableRecord
100
AcDbLayerTableRecord
2
224160210_GEN
70
0
62
7
6
CONTINUOUS
370
-3
390
F
0
LAYER
5
202
100
AcDbSymbolTableRecord
100
AcDbLayerTableRecord
2
268160210
70
0
62
7
6
CONTINUOUS
370
-3
390
F
0
LAYER
5
203
100
AcDbSymbolTableRecord
100
AcDbLayerTableRecord
2
284160010
70
0
62
7
6
CONTINUOUS
370
-3
390
F
0
LAYER
5
204
100
AcDbSymbolTableRecord
100
AcDbLayerTableRecord
2
290160210
70
0
62
7
6
CONTINUOUS
370
-3
390
F
0
LAYER
5
205
100
AcDbSymbolTableRecord
100
AcDbLayerTableRecord
2
32016001
70
0
62
7
6
CONTINUOUS
370
-3
390
F
0
LAYER
5
206
100
AcDbSymbolTableRecord
100
AcDbLayerTableRecord
2
341160050
70
0
62
7
6
CONTINUOUS
370
-3
390
F
0
LAYER
5
207
100
AcDbSymbolTableRecord
100
AcDbLayerTableRecord
2
349160010
70
0
62
7
6
CONTINUOUS
370
-3
390
F
0
LAYER
5
208
100
AcDbSymbolTableRecord
100
AcDbLayerTableRecord
2
712160010
70
0
62
7
6
CONTINUOUS
370
-3
390
F
0
LAYER
5
209
100
AcDbSymbolTableRecord
100
AcDbLayerTableRecord
2
715160050
70
0
62
7
6
CONTINUOUS
370
-3
390
F
0
LAYER
5
20A
100
AcDbSymbolTableRecord
100
AcDbLayerTableRecord
2
ASSI
70
0
62
7
6
CONTINUOUS
370
-3
390
F
0
LAYER
5
20B
100
AcDbSymbolTableRecord
100
AcDbLayerTableRecord
2
COLOR2
70
0
62
7
6
CONTINUOUS
370
-3
390
F
0
LAYER
5
20C
100
AcDbSymbolTableRecord
100
AcDbLayerTableRecord
2
COORDINATE
70
0
62
7
6
CONTINUOUS
370
-3
390
F
0
LAYER
5
20D
100
AcDbSymbolTableRecord
100
AcDbLayerTableRecord
2
COORD_ORIGINE
70
0
62
7
6
CONTINUOUS
370
-3
390
F
0
LAYER
5
20E
100
AcDbSymbolTableRecord
100
AcDbLayerTableRecord
2
COSMETICHE
70
0
62
7
6
CONTINUOUS
370
-3
390
F
0
LAYER
5
20F
100
AcDbSymbolTableRecord
100
AcDbLayerTableRecord
2
COSMETICI
70
0
62
7
6
CONTINUOUS
370
-3
390
F
0
LAYER
5
210
100
AcDbSymbolTableRecord
100
AcDbLayerTableRecord
2
CURVE
70
0
62
7
6
CONTINUOUS
370
-3
390
F
0
LAYER
5
211
100
AcDbSymbolTableRecord
100
AcDbLayerTableRecord
2
DRAFT
70
0
62
7
6
CONTINUOUS
370
-3
390
F
0
LAYER
5
212
100
AcDbSymbolTableRecord
100
AcDbLayerTableRecord
2
ESTENSIONE
70
0
62
7
6
CONTINUOUS
370
-3
390
F
0
LAYER
5
213
100
AcDbSymbolTableRecord
100
AcDbLayerTableRecord
2
IMPORT
70
0
62
7
6
CONTINUOUS
370
-3
390
F
0
LAYER
5
214
100
AcDbSymbolTableRecord
100
AcDbLayerTableRecord
2
INCISIONI_LASER
70
0
62
7
6
CONTINUOUS
370
-3
390
F
0
LAYER
5
215
100
AcDbSymbolTableRecord
100
AcDbLayerTableRecord
2
INTF_1
70
0
62
7
6
CONTINUOUS
370
-3
390
F
0
LAYER
5
216
100
AcDbSymbolTableRecord
100
AcDbLayerTableRecord
2
INTF_YELLOW
70
0
62
7
6
CONTINUOUS
370
-3
390
F
0
LAYER
5
217
100
AcDbSymbolTableRecord
100
AcDbLayerTableRecord
2
NOTE
70
0
62
7
6
CONTINUOUS
370
-3
390
F
0
LAYER
5
218
100
AcDbSymbolTableRecord
100
AcDbLayerTableRecord
2
PIANI
70
0
62
7
6
CONTINUOUS
370
-3
390
F
0
LAYER
5
219
100
AcDbSymbolTableRecord
100
AcDbLayerTableRecord
2
PIANI_CENTRAGGIO
70
0
62
7
6
CONTINUOUS
370
-3
390
F
0
LAYER
5
21A
100
AcDbSymbolTableRecord
100
AcDbLayerTableRecord
2
PIANI_DI_RIFERIMENTO
70
0
62
7
6
CONTINUOUS
370
-3
390
F
0
LAYER
5
21B
100
AcDbSymbolTableRecord
100
AcDbLayerTableRecord
2
PIANI_ORIGINE
70
0
62
7
6
CONTINUOUS
370
-3
390
F
0
LAYER
5
21C
100
AcDbSymbolTableRecord
100
AcDbLayerTableRecord
2
PUNTI
70
0
62
7
6
CONTINUOUS
370
-3
390
F
0
LAYER
5
21D
100
AcDbSymbolTableRecord
100
AcDbLayerTableRecord
2
RACCORDO
70
0
62
7
6
CONTINUOUS
370
-3
390
F
0
LAYER
5
21E
100
AcDbSymbolTableRecord
100
AcDbLayerTableRecord
2
RGB____0____0____0__
70
0
62
7
6
CONTINUOUS
370
-3
390
F
0
LAYER
5
21F
100
AcDbSymbolTableRecord
100
AcDbLayerTableRecord
2
SMUSSO
70
0
62
7
6
CONTINUOUS
370
-3
390
F
0
LAYER
5
220
100
AcDbSymbolTableRecord
100
AcDbLayerTableRecord
2
SNAPLINE
70
0
62
7
6
CONTINUOUS
370
-3
390
F
0
LAYER
5
221
100
AcDbSymbolTableRecord
100
AcDbLayerTableRecord
2
SUPERFICI
70
0
62
7
6
CONTINUOUS
370
-3
390
F
0
LAYER
5
222
100
AcDbSymbolTableRecord
100
AcDbLayerTableRecord
2
TRASH
70
0
62
7
6
CONTINUOUS
370
-3
390
F
0
LAYER
5
223
100
AcDbSymbolTableRecord
100
AcDbLayerTableRecord
2
XSEC_DATUMS
70
0
62
7
6
CONTINUOUS
370
-3
390
F
0
ENDTAB
0
TABLE
2
STYLE
5
3
100
AcDbSymbolTable
70
1
0
STYLE
5
11
100
AcDbSymbolTableRecord
100
AcDbTextStyleTableRecord
2
STANDARD
70
0
40
0.0
41
0.8000000000
50
0.0
71
0
42
0.2
3
txt
4

0
ENDTAB
0
TABLE
2
VIEW
5
6
100
AcDbSymbolTable
70
0
0
ENDTAB
0
TABLE
2
UCS
5
7
100
AcDbSymbolTable
70
0
0
ENDTAB
0
TABLE
2
APPID
5
9
100
AcDbSymbolTable
70
1
0
APPID
5
224
100
AcDbSymbolTableRecord
100
AcDbRegAppTableRecord
2
ACAD
70
0
0
ENDTAB
0
TABLE
2
BLOCK_RECORD
5
1
100
AcDbSymbolTable
70
0
0
BLOCK_RECORD
5
1F
100
AcDbSymbolTableRecord
100
AcDbBlockTableRecord
2
*MODEL_SPACE
0
BLOCK_RECORD
5
1B
100
AcDbSymbolTableRecord
100
AcDbBlockTableRecord
2
*PAPER_SPACE
0
ENDTAB
0
TABLE
2
DIMSTYLE
5
A
100
AcDbSymbolTable
70
1
100
AcDbDimStyleTable
71
0
0
DIMSTYLE
105
225
100
AcDbSymbolTableRecord
100
AcDbDimStyleTableRecord
2
STANDARD
70
0
3

4

40
1.0
41
3.0000000000
42
0.0625
43
0.38
44
0.18
45
0.0
46
0.0
47
0.0100000000
48
0.0100000000
140
3.0000000000
141
0.09
142
0.0
143
25.4
144
1.0000000000
145
0.0
146
1.0000000000
147
0.09
71
1
72
0
73
0
74
0
75
0
76
0
77
1
78
8
170
0
171
2
172
0
173
0
174
0
175
0
176
0
177
0
178
0
270
2
271
2
272
2
273
2
274
2
275
0
280
0
281
0
282
0
283
1
284
8
285
0
286
0
287
3
288
0
340
11
0
ENDTAB
0
ENDSEC
0
SECTION
2
BLOCKS
0
BLOCK
5
20
100
AcDbEntity
8
0
100
AcDbBlockBegin
2
*MODEL_SPACE
70
0
10
0.0
20
0.0
30
0.0
3
*MODEL_SPACE
1

0
ENDBLK
5
21
100
AcDbEntity
8
0
100
AcDbBlockEnd
0
BLOCK
5
1C
100
AcDbEntity
8
0
100
AcDbBlockBegin
2
*PAPER_SPACE
70
0
10
0.0
20
0.0
30
0.0
3
*PAPER_SPACE
1

0
ENDBLK
5
1D
100
AcDbEntity
8
0
100
AcDbBlockEnd
0
ENDSEC
0
SECTION
2
ENTITIES
0
LWPOLYLINE
5
226
100
AcDbEntity
8
0
100
AcDbPolyline
62
7
6
CONTINUOUS
90
30
70
0
10
-22.5727460520
20
45.6519239354
10
-22.5853772230
20
45.6476219458
10
-22.6087799812
20
45.6391923617
10
-22.6314549447
20
45.6304053054
10
-22.6534114415
20
45.6212494747
10
-22.6746488501
20
45.6117162237
10
-22.6951672965
20
45.6017955014
10
-22.7149793909
20
45.5914683402
10
-22.7340966139
20
45.5807127012
10
-22.7525314350
20
45.5695025336
10
-22.7703015240
20
45.5578025658
10
-22.7873989951
20
45.5455882340
10
-22.8038040661
20
45.5328420266
10
-22.8195322897
20
45.5195151750
10
-22.8345502553
20
45.5055927881
10
-22.8487703045
20
45.4911178118
10
-22.8621875467
20
45.4760597987
10
-22.8747669757
20
45.4604180107
10
-22.8863923465
20
45.4443119561
10
-22.8970454440
20
45.4277591252
10
-22.9067119689
20
45.4107718791
10
-22.9153120293
20
45.3935022295
10
-22.9228263211
20
45.3760391133
10
-22.9292813386
20
45.3583780086
10
-22.9346827935
20
45.3405539232
10
-22.9390312083
20
45.3226265972
10
-22.9423361809
20
45.3046340793
10
-22.9446109275
20
45.2865844494
10
-22.9458615778
20
45.2685141099
10
-22.9461306928
20
45.2545848181
0
LINE
5
227
100
AcDbEntity
8
0
100
AcDbLine
62
7
6
CONTINUOUS
10
-21.1546350084
20
46.1256448860
11
-22.5727688555
21
45.6519164416
0
LINE
5
228
100
AcDbEntity
8
0
100
AcDbLine
62
9
6
CONTINUOUS
10
-21.0786319872
20
46.1254503493
11
-22.4956158653
21
45.6521060527
0
LWPOLYLINE
5
229
100
AcDbEntity
8
0
100
AcDbPolyline
62
7
6
CONTINUOUS
90
24
70
0
10
-26.1863533445
20
42.9663029226
10
-26.1989310794
20
42.9617274810
10
-26.2111155858
20
42.9565450633
10
-26.2230093587
20
42.9507244263
10
-26.2345965191
20
42.9442713858
10
-26.2458390805
20
42.9372036437
10
-26.2566996021
20
42.9295420964
10
-26.2671618278
20
42.9212940256
10
-26.2771902289
20
42.9124814053
10
-26.2867512511
20
42.9031281004
10
-26.2958291034
20
42.8932415024
10
-26.3043948341
20
42.8828414613
10
-26.3124116660
20
42.8719608115
10
-26.3198512074
20
42.8606265659
10
-26.3266830383
20
42.8488732933
10
-26.3328821321
20
42.8367319425
10
-26.3384286542
20
42.8242258502
10
-26.3432996194
20
42.8113866523
10
-26.3474701419
20
42.7982580824
10
-26.3509194428
20
42.7848837830
10
-26.3536297951
20
42.7713105675
10
-26.3555881526
20
42.7575788967
10
-26.3567839370
20
42.7437252904
10
-26.3572079216
20
42.7286191140
0
LINE
5
22A
100
AcDbEntity
8
0
100
AcDbLine
62
7
6
CONTINUOUS
10
-26.1864185025
20
42.9662811779
11
-22.9435178551
21
44.0495740437
0
LINE
5
22B
100
AcDbEntity
8
0
100
AcDbLine
62
9
6
CONTINUOUS
10
-22.9428740586
20
44.0242057137
11
-26.1092655125
21
42.9664707890
0
LINE
5
22C
100
AcDbEntity
8
0
100
AcDbLine
62
9
6
CONTINUOUS
10
-26.1864183727
20
42.9662812213
11
-26.1863533445
21
42.9663029226
0
LINE
5
22D
100
AcDbEntity
8
0
100
AcDbLine
62
9
6
CONTINUOUS
10
-21.4673501831
20
45.3401665745
11
-20.0170376851
21
45.8005045755
0
LINE
5
22E
100
AcDbEntity
8
0
100
AcDbLine
62
9
6
CONTINUOUS
10
-21.2899099479
20
45.0482224932
11
-19.8395974499
21
45.5085604943
0
LINE
5
22F
100
AcDbEntity
8
0
100
AcDbLine
62
7
6
CONTINUOUS
10
-15.4897855277
20
45.6487296375
11
-15.8381061613
21
45.5381705515
0
LINE
5
230
100
AcDbEntity
8
0
100
AcDbLine
62
7
6
CONTINUOUS
10
-18.0648452689
20
44.8313900259
11
-21.2872214570
21
43.8085882401
0
LINE
5
231
100
AcDbEntity
8
0
100
AcDbLine
62
7
6
CONTINUOUS
10
-20.3350558222
20
43.7947681058
11
-18.0687405842
21
44.5121527502
0
LINE
5
232
100
AcDbEntity
8
0
100
AcDbLine
62
7
6
CONTINUOUS
10
-15.1155731999
20
45.4469551548
11
-13.8304675739
21
45.8537454490
0
LINE
5
233
100
AcDbEntity
8
0
100
AcDbLine
62
7
6
CONTINUOUS
10
-17.5761496778
20
45.5644678936
11
-17.2129012598
21
45.6774741553
0
LINE
5
234
100
AcDbEntity
8
0
100
AcDbLine
62
7
6
CONTINUOUS
10
-13.8304675739
20
45.8537454490
11
-12.3018093250
21
46.3211331290
0
LINE
5
235
100
AcDbEntity
8
0
100
AcDbLine
62
7
6
CONTINUOUS
10
-14.1294758442
20
46.0487899974
11
-15.4897855277
21
45.6487296375
0
LINE
5
236
100
AcDbEntity
8
0
100
AcDbLine
62
9
6
CONTINUOUS
10
-14.3525461399
20
47.4295225721
11
-20.0170444221
21
45.8005066377
0
LINE
5
237
100
AcDbEntity
8
0
100
AcDbLine
62
9
6
CONTINUOUS
10
-14.2130545818
20
47.1952202260
11
-19.8464305739
21
45.5751545470
0
LWPOLYLINE
5
238
100
AcDbEntity
8
0
100
AcDbPolyline
62
7
6
CONTINUOUS
90
12
70
0
10
-9.0705205492
20
-4.8255094062
10
-9.0573945322
20
-4.8291392338
10
-9.0439174128
20
-4.8320817797
10
-9.0301365697
20
-4.8342979657
10
-9.0160555195
20
-4.8357565132
10
-9.0017838187
20
-4.8364180501
10
-8.9875232431
20
-4.8362642466
10
-8.9733627037
20
-4.8353040901
10
-8.9593109008
20
-4.8335467207
10
-8.9454241163
20
-4.8310056520
10
-8.9317085113
20
-4.8276862920
10
-8.9279385959
20
-4.8266286955
0
LINE
5
239
100
AcDbEntity
8
0
100
AcDbLine
62
7
6
CONTINUOUS
10
-26.0890611108
20
0.3837337307
11
-9.0705205492
21
-4.8255094062
0
LWPOLYLINE
5
23A
100
AcDbEntity
8
0
100
AcDbPolyline
62
7
6
CONTINUOUS
90
25
70
0
10
-26.0890611108
20
0.3837337307
10
-26.1016481093
20
0.3879551696
10
-26.1139908127
20
0.3928377879
10
-26.1260445923
20
0.3983625298
10
-26.1377775529
20
0.4045124806
10
-26.1491397825
20
0.4112573318
10
-26.1600652296
20
0.4185475050
10
-26.1704488833
20
0.4262881899
10
-26.1803431692
20
0.4344910934
10
-26.1899019518
20
0.4432877088
10
-26.1991474384
20
0.4527375174
10
-26.2079575970
20
0.4627553996
10
-26.2162539868
20
0.4732734313
10
-26.2239556223
20
0.4841915796
10
-26.2310812300
20
0.4955365101
10
-26.2376868230
20
0.5074350121
10
-26.2437666331
20
0.5199662350
10
-26.2492054688
20
0.5329887835
10
-26.2539007750
20
0.5462974108
10
-26.2578172472
20
0.5597715049
10
-26.2609671170
20
0.5734219081
10
-26.2633485290
20
0.5872350171
10
-26.2649487568
20
0.6011221671
10
-26.2657698425
20
0.6150632580
10
-26.2658885359
20
0.6222340137
0
LINE
5
23B
100
AcDbEntity
8
0
100
AcDbLine
62
7
6
CONTINUOUS
10
-11.0318254369
20
45.9324009208
11
-12.1285182612
21
45.5791745806
0
LINE
5
23C
100
AcDbEntity
8
0
100
AcDbLine
62
7
6
CONTINUOUS
10
-16.4461286538
20
43.5153562309
11
-19.1741679814
21
42.6494599689
0
LINE
5
23D
100
AcDbEntity
8
0
100
AcDbLine
62
7
6
CONTINUOUS
10
-10.6003676978
20
45.1114195574
11
-10.9995673977
21
44.9872288837
0
LINE
5
23E
100
AcDbEntity
8
0
100
AcDbLine
62
7
6
CONTINUOUS
10
-12.5565624946
20
45.4638129946
11
-13.3434188800
21
45.2232314384
0
LINE
5
23F
100
AcDbEntity
8
0
100
AcDbLine
62
7
6
CONTINUOUS
10
-16.9557132747
20
44.1187714338
11
-19.1758823874
21
43.4399541171
0
LWPOLYLINE
5
240
100
AcDbEntity
8
0
100
AcDbPolyline
62
7
6
CONTINUOUS
90
6
70
0
10
-13.9825889123
20
-1.3253810012
10
-13.9431928731
20
-1.3360487576
10
-13.8841932272
20
-1.3470582998
10
-13.8241258708
20
-1.3524641159
10
-13.7634742643
20
-1.3522244462
10
-13.7054762673
20
-1.3467846543
0
LINE
5
241
100
AcDbEntity
8
0
100
AcDbLine
62
9
6
CONTINUOUS
10
-26.1925103878
20
0.5678390290
11
-9.1739698261
21
-4.6414041080
0
LINE
5
242
100
AcDbEntity
8
0
100
AcDbLine
62
7
6
CONTINUOUS
10
-13.9826504182
20
-1.3253635318
11
-13.9825647813
21
-1.3253897355
0
LINE
5
243
100
AcDbEntity
8
0
100
AcDbLine
62
7
6
CONTINUOUS
10
-30.7480965281
20
3.8064093584
11
-13.9826348082
21
-1.3253683099
0
LINE
5
244
100
AcDbEntity
8
0
100
AcDbLine
62
7
6
CONTINUOUS
10
-30.7480155873
20
3.8063845887
11
-30.7480808799
21
3.8064045687
0
LWPOLYLINE
5
245
100
AcDbEntity
8
0
100
AcDbPolyline
62
7
6
CONTINUOUS
90
16
70
0
10
-31.2435837797
20
4.6427047106
10
-31.2430561328
20
4.5579340839
10
-31.2365655522
20
4.4747409674
10
-31.2239752516
20
4.3931503918
10
-31.2052661935
20
4.3140784878
10
-31.1808281722
20
4.2392421827
10
-31.1510914617
20
4.1693113444
10
-31.1161714500
20
4.1041703635
10
-31.0763513430
20
4.0441921274
10
-31.0319837759
20
3.9897021696
10
-30.9833924345
20
3.9409654531
10
-30.9309833571
20
3.8982834359
10
-30.8752840269
20
3.8619263521
10
-30.8168346187
20
3.8320993479
10
-30.7562188780
20
3.8089593827
10
-30.7480382624
20
3.8063928766
0
LINE
5
246
100
AcDbEntity
8
0
100
AcDbLine
62
7
6
CONTINUOUS
10
-31.2427499384
20
4.6649702915
11
-31.2435837797
21
4.6427047106
0
LINE
5
247
100
AcDbEntity
8
0
100
AcDbLine
62
7
6
CONTINUOUS
10
-31.2427578040
20
4.6649706568
11
-31.2427598080
21
4.6649284707
0
LINE
5
248
100
AcDbEntity
8
0
100
AcDbLine
62
7
6
CONTINUOUS
10
-16.3815227353
20
42.5357339144
11
-16.8616959947
21
42.3807066383
0
LINE
5
249
100
AcDbEntity
8
0
100
AcDbLine
62
7
6
CONTINUOUS
10
-9.0834491491
20
42.9649181976
11
-8.7202007312
21
43.0779244593
0
LINE
5
24A
100
AcDbEntity
8
0
100
AcDbLine
62
9
6
CONTINUOUS
10
-11.1792347086
20
42.1770935073
11
-10.8966407225
21
42.2650082465
0
LINE
5
24B
100
AcDbEntity
8
0
100
AcDbLine
62
3
6
CONTINUOUS
10
-9.0826239799
20
42.5844415373
11
-8.7193755619
21
42.6974477990
0
LINE
5
24C
100
AcDbEntity
8
0
100
AcDbLine
62
9
6
CONTINUOUS
10
-13.5375807210
20
-1.1151786651
11
-7.3303870343
21
-0.2591131241
0
LINE
5
24D
100
AcDbEntity
8
0
100
AcDbLine
62
7
6
CONTINUOUS
10
-7.4970495760
20
-0.4905655110
11
-13.7054740621
21
-1.3468005291
0
LINE
5
24E
100
AcDbEntity
8
0
100
AcDbLine
62
9
6
CONTINUOUS
10
-31.1546126444
20
4.6039305765
11
-14.4009370603
21
-0.5242394472
0
LINE
5
24F
100
AcDbEntity
8
0
100
AcDbLine
62
7
6
CONTINUOUS
10
-9.1808465531
20
-1.4706193002
11
-10.8651269845
21
-0.9550741367
0
LINE
5
250
100
AcDbEntity
8
0
100
AcDbLine
62
9
6
CONTINUOUS
10
-8.7253295106
20
-1.4392066368
11
-10.4803520028
21
-0.9020078688
0
LWPOLYLINE
5
251
100
AcDbEntity
8
0
100
AcDbPolyline
62
7
6
CONTINUOUS
90
10
70
0
10
-28.8614071490
20
36.8035023607
10
-29.2095510616
20
33.2669768506
10
-29.5419785787
20
29.6697442513
10
-29.8521997143
20
26.0757833731
10
-30.1401866261
20
22.4854028120
10
-30.4059193886
20
18.8988595032
10
-30.6493803090
20
15.3163908270
10
-30.8705510573
20
11.7382537182
10
-31.0694136711
20
8.1647553057
10
-31.2427598080
20
4.6649284707
0
LINE
5
252
100
AcDbEntity
8
0
100
AcDbLine
62
9
6
CONTINUOUS
10
-9.0814605495
20
41.5471239113
11
-9.4409601163
21
41.4268291788
0
LINE
5
253
100
AcDbEntity
8
0
100
AcDbLine
62
7
6
CONTINUOUS
10
-5.9057488195
20
42.3569256274
11
-11.1998956423
21
40.6476735076
0
LINE
5
254
100
AcDbEntity
8
0
100
AcDbLine
62
7
6
CONTINUOUS
10
-10.2853601967
20
40.7186342989
11
-3.7807719484
21
42.7776116421
0
LINE
5
255
100
AcDbEntity
8
0
100
AcDbLine
62
7
6
CONTINUOUS
10
-1.0047046164
20
42.8631770864
11
-2.5068668691
21
42.3876791877
0
LINE
5
256
100
AcDbEntity
8
0
100
AcDbLine
62
9
6
CONTINUOUS
10
-9.2939505926
20
42.2331479876
11
-9.5765445788
21
42.1452332484
0
LINE
5
257
100
AcDbEntity
8
0
100
AcDbLine
62
7
6
CONTINUOUS
10
-5.3377670453
20
43.2541957530
11
-4.9385673454
21
43.3783864268
0
LINE
5
258
100
AcDbEntity
8
0
100
AcDbLine
62
7
6
CONTINUOUS
10
-9.2933317156
20
41.9477904924
11
-9.5759257018
21
41.8598757531
0
LINE
5
259
100
AcDbEntity
8
0
100
AcDbLine
62
7
6
CONTINUOUS
10
-2.5068668691
20
42.3876791877
11
-9.1261867619
21
40.3638203102
0
LINE
5
25A
100
AcDbEntity
8
0
100
AcDbLine
62
7
6
CONTINUOUS
10
-2.2746885045
20
43.2519092946
11
-3.4104167821
21
42.9106314036
0
LINE
5
25B
100
AcDbEntity
8
0
100
AcDbLine
62
9
6
CONTINUOUS
10
-9.0814605495
20
41.5471239113
11
-7.6659525035
21
41.9542005926
0
LINE
5
25C
100
AcDbEntity
8
0
100
AcDbLine
62
9
6
CONTINUOUS
10
-4.6497097274
20
0.8459112872
11
-7.1908740655
21
1.6237419619
0
LINE
5
25D
100
AcDbEntity
8
0
100
AcDbLine
62
7
6
CONTINUOUS
10
-26.2658885585
20
0.6222435479
11
-26.2698214210
21
2.4356441167
0
LINE
5
25E
100
AcDbEntity
8
0
100
AcDbLine
62
7
6
CONTINUOUS
10
-26.3503311949
20
39.5578344245
11
-26.3572079219
21
42.7286192322
0
LINE
5
25F
100
AcDbEntity
8
0
100
AcDbLine
62
9
6
CONTINUOUS
10
-26.1925103878
20
0.5678390290
11
-26.1965125758
21
2.4132048484
0
LINE
5
260
100
AcDbEntity
8
0
100
AcDbLine
62
9
6
CONTINUOUS
10
-26.2769530242
20
39.5034299056
11
-26.2838297512
21
42.6742147133
0
LWPOLYLINE
5
261
100
AcDbEntity
8
0
100
AcDbPolyline
62
7
6
CONTINUOUS
90
30
70
0
10
-6.4436039339
20
40.7184930409
10
-6.4565319752
20
40.7141628482
10
-6.4802776090
20
40.7057457979
10
-6.5032913483
20
40.6969640251
10
-6.5255829285
20
40.6878055782
10
-6.5471491733
20
40.6782623239
10
-6.5679853383
20
40.6683259850
10
-6.5881036451
20
40.6579776228
10
-6.6075159161
20
40.6471949054
10
-6.6262324486
20
40.6359528686
10
-6.6442713101
20
40.6242159315
10
-6.6616252876
20
40.6119587551
10
-6.6782742813
20
40.5991637962
10
-6.6942357545
20
40.5857804577
10
-6.7094754236
20
40.5717935626
10
-6.7239018622
20
40.5572484749
10
-6.7375117752
20
40.5421135219
10
-6.7502699529
20
40.5263878668
10
-6.7620553956
20
40.5101965458
10
-6.7728492582
20
40.4935601562
10
-6.7826403344
20
40.4764888966
10
-6.7913502529
20
40.4591336424
10
-6.7989596550
20
40.4415854335
10
-6.8054965509
20
40.4238392212
10
-6.8109689097
20
40.4059250569
10
-6.8153769666
20
40.3879030621
10
-6.8187300466
20
40.3698122750
10
-6.8210419270
20
40.3516565820
10
-6.8223178184
20
40.3334715113
10
-6.8225971642
20
40.3192923579
0
LINE
5
262
100
AcDbEntity
8
0
100
AcDbLine
62
7
6
CONTINUOUS
10
-5.0179512277
20
41.1866831859
11
-6.4436269641
21
40.7184856003
0
LINE
5
263
100
AcDbEntity
8
0
100
AcDbLine
62
9
6
CONTINUOUS
10
-4.9425077208
20
41.1863079895
11
-6.3676815423
21
40.7182752348
0
LINE
5
264
100
AcDbEntity
8
0
100
AcDbLine
62
7
6
CONTINUOUS
10
-6.8225644897
20
40.3039657083
11
-9.1244723559
21
39.5733261620
0
LINE
5
265
100
AcDbEntity
8
0
100
AcDbLine
62
9
6
CONTINUOUS
10
-5.3483344307
20
40.4034563340
11
-3.8809134188
21
40.8613622156
0
LINE
5
266
100
AcDbEntity
8
0
100
AcDbLine
62
9
6
CONTINUOUS
10
-5.1724555802
20
40.1110389811
11
-3.7034664848
21
40.5694341801
0
LINE
5
267
100
AcDbEntity
8
0
100
AcDbLine
62
9
6
CONTINUOUS
10
1.7199499856
20
42.5098562922
11
-3.8455056075
21
40.8505241595
0
LINE
5
268
100
AcDbEntity
8
0
100
AcDbLine
62
9
6
CONTINUOUS
10
1.8618859582
20
42.2763277067
11
-3.7035696349
21
40.6169955741
0
LINE
5
269
100
AcDbEntity
8
0
100
AcDbLine
62
7
6
CONTINUOUS
10
0.6646675483
20
42.8165549450
11
-4.9832839543
21
41.1922975905
0
LINE
5
26A
100
AcDbEntity
8
0
100
AcDbLine
62
9
6
CONTINUOUS
10
0.7219972984
20
42.8153218618
11
-4.9425009838
21
41.1863059273
0
LINE
5
26B
100
AcDbEntity
8
0
100
AcDbLine
62
9
6
CONTINUOUS
10
-4.3381625171
20
1.5563105070
11
-7.1324940470
21
2.4116336936
0
LINE
5
26C
100
AcDbEntity
8
0
100
AcDbLine
62
7
6
CONTINUOUS
10
-4.3397080326
20
2.2689310926
11
-5.6720322297
21
2.6767451854
0
LWPOLYLINE
5
26D
100
AcDbEntity
8
0
100
AcDbPolyline
62
7
6
CONTINUOUS
90
21
70
0
10
-23.1465234523
20
29.9598502064
10
-23.1567119080
20
29.8643013656
10
-23.1799099629
20
29.7019352306
10
-23.2102407802
20
29.5426075444
10
-23.2476114624
20
29.3871094458
10
-23.2918869594
20
29.2360615048
10
-23.3429272553
20
29.0899961689
10
-23.4005532999
20
28.9495482961
10
-23.4645329381
20
28.8153327164
10
-23.5346195564
20
28.6878852371
10
-23.6105285086
20
28.5677975216
10
-23.6919273079
20
28.4556332303
10
-23.7784500327
20
28.3518635385
10
-23.8697048570
20
28.2569608224
10
-23.9652973599
20
28.1713349647
10
-24.0648298027
20
28.0952862550
10
-24.1678320751
20
28.0291477763
10
-24.2739519075
20
27.9731377354
10
-24.3830128706
20
27.9273318439
10
-24.4946164048
20
27.8919452328
10
-24.6086886624
20
27.8671163238
0
LINE
5
26E
100
AcDbEntity
8
0
100
AcDbLine
62
9
6
CONTINUOUS
10
-5.8116267034
20
38.7804639023
11
-9.0907249509
21
37.7572276520
0
LINE
5
26F
100
AcDbEntity
8
0
100
AcDbLine
62
9
6
CONTINUOUS
10
-5.1692513781
20
38.6336158699
11
-8.9148461004
21
37.4648102991
0
LINE
5
270
100
AcDbEntity
8
0
100
AcDbLine
62
7
6
CONTINUOUS
10
-6.3395671877
20
4.0370578670
11
-5.7864789409
21
3.8677618487
0
LINE
5
271
100
AcDbEntity
8
0
100
AcDbLine
62
7
6
CONTINUOUS
10
-22.9434397589
20
44.0135647285
11
-22.9461313900
21
45.2546468747
0
LINE
5
272
100
AcDbEntity
8
0
100
AcDbLine
62
7
6
CONTINUOUS
10
-8.8028954201
20
34.3255994320
11
-8.9079693734
21
34.2940254914
0
LINE
5
273
100
AcDbEntity
8
0
100
AcDbLine
62
9
6
CONTINUOUS
10
8.4548209667
20
39.3227552529
11
2.4742570475
21
37.5396592033
0
LINE
5
274
100
AcDbEntity
8
0
100
AcDbLine
62
9
6
CONTINUOUS
10
8.8096608982
20
38.7389337892
11
2.4196846267
21
36.8337720686
0
LINE
5
275
100
AcDbEntity
8
0
100
AcDbLine
62
9
6
CONTINUOUS
10
-21.2872214570
20
43.8085882401
11
-21.2899099479
21
45.0482224932
0
LINE
5
276
100
AcDbEntity
8
0
100
AcDbLine
62
7
6
CONTINUOUS
10
-20.5676679106
20
42.8219212736
11
-20.5693925973
21
43.6171557169
0
LINE
5
277
100
AcDbEntity
8
0
100
AcDbLine
62
7
6
CONTINUOUS
10
-19.8369089590
20
44.2689262411
11
-19.8395974499
21
45.5085604943
0
LINE
5
278
100
AcDbEntity
8
0
100
AcDbLine
62
9
6
CONTINUOUS
10
-15.6733168895
20
45.3264421757
11
-15.6785694160
21
45.3028309983
0
LINE
5
279
100
AcDbEntity
8
0
100
AcDbLine
62
9
6
CONTINUOUS
10
-9.4409601163
20
41.4268291788
11
-9.5986877129
21
41.1646346232
0
LINE
5
27A
100
AcDbEntity
8
0
100
AcDbLine
62
9
6
CONTINUOUS
10
-19.1741679814
20
42.6494599689
11
-19.1758823874
21
43.4399541171
0
LINE
5
27B
100
AcDbEntity
8
0
100
AcDbLine
62
7
6
CONTINUOUS
10
-18.0686262304
20
44.4594254491
11
-18.0692451074
21
44.7447829443
0
LINE
5
27C
100
AcDbEntity
8
0
100
AcDbLine
62
9
6
CONTINUOUS
10
-13.7229375253
20
45.0802186303
11
-13.8010338635
21
44.7291596751
0
LINE
5
27D
100
AcDbEntity
8
0
100
AcDbLine
62
9
6
CONTINUOUS
10
-13.4468835948
20
45.0199118679
11
-13.5293976806
21
44.6489942372
0
LINE
5
27E
100
AcDbEntity
8
0
100
AcDbLine
62
9
6
CONTINUOUS
10
7.9200205927
20
8.2161073411
11
8.7288611093
21
7.9685275387
0
LINE
5
27F
100
AcDbEntity
8
0
100
AcDbLine
62
7
6
CONTINUOUS
10
8.0648236379
20
8.2194029112
11
8.8566798102
21
7.9770218847
0
LINE
5
280
100
AcDbEntity
8
0
100
AcDbLine
62
7
6
CONTINUOUS
10
-16.4645639726
20
43.7948917606
11
-16.3611952409
21
42.2275072433
0
LINE
5
281
100
AcDbEntity
8
0
100
AcDbLine
62
9
6
CONTINUOUS
10
-11.6392841384
20
44.0916560701
11
-11.6445366650
21
44.0680448928
0
LINE
5
282
100
AcDbEntity
8
0
100
AcDbLine
62
9
6
CONTINUOUS
10
-11.3944809671
20
44.3916873580
11
-11.3997334937
21
44.3680761806
0
LWPOLYLINE
5
283
100
AcDbEntity
8
0
100
AcDbPolyline
62
7
6
CONTINUOUS
90
43
70
0
10
-13.5976258917
20
46.6509032161
10
-13.5979901044
20
46.6781493088
10
-13.5989649938
20
46.7052370707
10
-13.6005516265
20
46.7321487632
10
-13.6027514217
20
46.7588712886
10
-13.6055650205
20
46.7853819366
10
-13.6089912598
20
46.8116493334
10
-13.6130310746
20
46.8376633429
10
-13.6176832980
20
46.8633997153
10
-13.6229402301
20
46.8888082682
10
-13.6287953802
20
46.9138586756
10
-13.6352487281
20
46.9385504702
10
-13.6423007755
20
46.9628798069
10
-13.6499591925
20
46.9868604834
10
-13.6582132444
20
47.0104461676
10
-13.6670308577
20
47.0335465984
10
-13.6763935894
20
47.0561265883
10
-13.6863018668
20
47.0781988480
10
-13.6967458063
20
47.0997494155
10
-13.7077201006
20
47.1207739689
10
-13.7192122550
20
47.1412544364
10
-13.7311991383
20
47.1611579739
10
-13.7436726374
20
47.1804805854
10
-13.7566177405
20
47.1992078534
10
-13.7699953353
20
47.2172957600
10
-13.7837711213
20
47.2347159060
10
-13.7979466823
20
47.2514875402
10
-13.8125355878
20
47.2676377452
10
-13.8275460578
20
47.2831807291
10
-13.8429429333
20
47.2980850766
10
-13.8586730307
20
47.3123100262
10
-13.8746838933
20
47.3258252011
10
-13.8909890589
20
47.3386587511
10
-13.9076344876
20
47.3508551802
10
-13.9246338850
20
47.3624254748
10
-13.9419435393
20
47.3733409927
10
-13.9595249472
20
47.3835824660
10
-13.9773350662
20
47.3931332041
10
-13.9953793102
20
47.4020045650
10
-14.0136920789
20
47.4102169354
10
-14.0322743966
20
47.4177699449
10
-14.0510914535
20
47.4246488744
10
-14.0701255361
20
47.4308480242
0
LINE
5
284
100
AcDbEntity
8
0
100
AcDbLine
62
9
6
CONTINUOUS
10
-13.6550368434
20
46.1259651408
11
-13.6560804125
21
46.6071436333
0
LINE
5
285
100
AcDbEntity
8
0
100
AcDbLine
62
7
6
CONTINUOUS
10
-13.5964947206
20
46.1293323723
11
-13.5976258917
21
46.6509032161
0
LINE
5
286
100
AcDbEntity
8
0
100
AcDbLine
62
7
6
CONTINUOUS
10
-12.5565624946
20
45.4638129946
11
-12.5558250875
21
45.1238025071
0
LINE
5
287
100
AcDbEntity
8
0
100
AcDbLine
62
7
6
CONTINUOUS
10
-11.2759376403
20
40.6709493729
11
-11.1792347086
21
42.1770935073
0
LINE
5
288
100
AcDbEntity
8
0
100
AcDbLine
62
9
6
CONTINUOUS
10
-9.6889047742
20
43.8454325247
11
-9.7670011124
21
43.4943735695
0
LINE
5
289
100
AcDbEntity
8
0
100
AcDbLine
62
9
6
CONTINUOUS
10
-9.4128508437
20
43.7851257623
11
-9.4953649295
21
43.4142081316
0
LINE
5
28A
100
AcDbEntity
8
0
100
AcDbLine
62
9
6
CONTINUOUS
10
-8.6538505138
20
42.7038567705
11
-8.5673089521
21
43.0928787261
0
LINE
5
28B
100
AcDbEntity
8
0
100
AcDbLine
62
7
6
CONTINUOUS
10
-5.8109870578
20
17.3305885942
11
-6.0222599828
21
17.3952575962
0
LINE
5
28C
100
AcDbEntity
8
0
100
AcDbLine
62
7
6
CONTINUOUS
10
-10.9995673977
20
44.9872288837
11
-10.9988852155
21
44.6726819988
0
LINE
5
28D
100
AcDbEntity
8
0
100
AcDbLine
62
7
6
CONTINUOUS
10
-10.5179722851
20
39.7457874667
11
-10.5196969717
21
40.5410219101
0
LINE
5
28E
100
AcDbEntity
8
0
100
AcDbLine
62
7
6
CONTINUOUS
10
-10.5061985880
20
45.3830451580
11
-10.5059114398
21
45.2506442504
0
LINE
5
28F
100
AcDbEntity
8
0
100
AcDbLine
62
3
6
CONTINUOUS
10
-10.9962615379
20
40.7134181944
11
-10.8966407225
21
42.2650082465
0
LINE
5
290
100
AcDbEntity
8
0
100
AcDbLine
62
9
6
CONTINUOUS
10
-7.3604482160
20
43.1569012524
11
-7.3657007426
21
43.1332900751
0
LINE
5
291
100
AcDbEntity
8
0
100
AcDbLine
62
9
6
CONTINUOUS
10
-5.3795072024
20
42.9768252193
11
-5.3847597290
21
42.9532140419
0
LINE
5
292
100
AcDbEntity
8
0
100
AcDbLine
62
9
6
CONTINUOUS
10
-9.6562436265
20
44.9426571139
11
-9.6552212098
21
44.4712317928
0
LINE
5
293
100
AcDbEntity
8
0
100
AcDbLine
62
7
6
CONTINUOUS
10
-9.5759257018
20
41.8598757531
11
-9.5765445788
21
42.1452332484
0
LINE
5
294
100
AcDbEntity
8
0
100
AcDbLine
62
7
6
CONTINUOUS
10
-9.3633594994
20
44.8794884088
11
-9.3623939070
21
44.4342641249
0
LINE
5
295
100
AcDbEntity
8
0
100
AcDbLine
62
3
6
CONTINUOUS
10
-9.2933317156
20
41.9477904924
11
-9.2939505926
21
42.2331479876
0
LINE
5
296
100
AcDbEntity
8
0
100
AcDbLine
62
9
6
CONTINUOUS
10
-9.2652891896
20
37.4649715764
11
-9.2584124626
21
34.2941867686
0
LINE
5
297
100
AcDbEntity
8
0
100
AcDbLine
62
9
6
CONTINUOUS
10
-9.1808465531
20
-1.4706193002
11
-9.1739698261
21
-4.6414041080
0
LINE
5
298
100
AcDbEntity
8
0
100
AcDbLine
62
9
6
CONTINUOUS
10
-9.1244723559
20
39.5733261620
11
-9.1261867619
21
40.3638203102
0
LINE
5
299
100
AcDbEntity
8
0
100
AcDbLine
62
9
6
CONTINUOUS
10
-9.0826239799
20
42.5844415373
11
-9.0834491491
21
42.9649181976
0
LINE
5
29A
100
AcDbEntity
8
0
100
AcDbLine
62
9
6
CONTINUOUS
10
-8.9148461004
20
37.4648102991
11
-8.9079693734
21
34.2940254914
0
LINE
5
29B
100
AcDbEntity
8
0
100
AcDbLine
62
9
6
CONTINUOUS
10
-8.8304034640
20
-1.4707805775
11
-8.8235267370
21
-4.6415653852
0
LINE
5
29C
100
AcDbEntity
8
0
100
AcDbLine
62
9
6
CONTINUOUS
10
-8.7193755619
20
42.6974477990
11
-8.7202007312
21
43.0779244593
0
LWPOLYLINE
5
29D
100
AcDbEntity
8
0
100
AcDbPolyline
62
7
6
CONTINUOUS
90
10
70
0
10
-25.4946318719
20
27.9378933851
10
-25.4149144615
20
27.9156343473
10
-25.3350780183
20
27.8975953718
10
-25.2552592100
20
27.8837714770
10
-25.1756387549
20
27.8741537873
10
-25.0963083413
20
27.8687123400
10
-25.0172739272
20
27.8674191663
10
-24.9386312396
20
27.8702596916
10
-24.8605619579
20
27.8772095719
10
-24.7832030778
20
27.8882337067
0
LINE
5
29E
100
AcDbEntity
8
0
100
AcDbLine
62
9
6
CONTINUOUS
10
8.9993761390
20
15.9348855542
11
9.9649086366
21
15.6393435529
0
LINE
5
29F
100
AcDbEntity
8
0
100
AcDbLine
62
7
6
CONTINUOUS
10
8.9993265124
20
15.9577678504
11
10.0370550207
21
15.6401272107
0
LINE
5
2A0
100
AcDbEntity
8
0
100
AcDbLine
62
7
6
CONTINUOUS
10
-4.3397080326
20
2.2689310926
11
-5.8109870578
21
17.3305885942
0
LINE
5
2A1
100
AcDbEntity
8
0
100
AcDbLine
62
7
6
CONTINUOUS
10
-5.6720322297
20
2.6767451854
11
-5.7864789409
21
3.8677618487
0
LINE
5
2A2
100
AcDbEntity
8
0
100
AcDbLine
62
7
6
CONTINUOUS
10
-5.8752873103
20
4.7919670678
11
-6.4855468896
21
11.1427771559
0
LWPOLYLINE
5
2A3
100
AcDbEntity
8
0
100
AcDbPolyline
62
7
6
CONTINUOUS
90
63
70
0
10
-6.7247000108
20
-4.8200437155
10
-6.7243381370
20
-4.8345551485
10
-6.7229399478
20
-4.8527532164
10
-6.7204742646
20
-4.8709855062
10
-6.7169284640
20
-4.8891904489
10
-6.7122988087
20
-4.9072953154
10
-6.7065808814
20
-4.9252534569
10
-6.6997767179
20
-4.9430079075
10
-6.6919036537
20
-4.9604812053
10
-6.6829628512
20
-4.9776466983
10
-6.6729704969
20
-4.9944522785
10
-6.6619794208
20
-5.0108061473
10
-6.6500083443
20
-5.0266888454
10
-6.6370689731
20
-5.0420911240
10
-6.6232078006
20
-5.0569680280
10
-6.6084246192
20
-5.0713324527
10
-6.5927234111
20
-5.0851908175
10
-6.5761516031
20
-5.0985156025
10
-6.5587082379
20
-5.1113245956
10
-6.5403619771
20
-5.1236527888
10
-6.5211113528
20
-5.1355110154
10
-6.5009668591
20
-5.1469035716
10
-6.4798535755
20
-5.1578785434
10
-6.4576323184
20
-5.1685015586
10
-6.4342518159
20
-5.1787824096
10
-6.4096579705
20
-5.1887268330
10
-6.3836975416
20
-5.1983715771
10
-6.3562000030
20
-5.2077441381
10
-6.3272115427
20
-5.2167904415
10
-6.2969426121
20
-5.2254206165
10
-6.2652584539
20
-5.2336535505
10
-6.2322541836
20
-5.2414423307
10
-6.1985992706
20
-5.2486328192
10
-6.1644543085
20
-5.2552166934
10
-6.1297734805
20
-5.2612258631
10
-6.0950230094
20
-5.2666089699
10
-6.0605175008
20
-5.2713600302
10
-6.0261087198
20
-5.2755400252
10
-5.9915928769
20
-5.2791995836
10
-5.9570427535
20
-5.2823488971
10
-5.9225054333
20
-5.2850012633
10
-5.8877248724
20
-5.2871855358
10
-5.8526651047
20
-5.2889043024
10
-5.8174613799
20
-5.2901512601
10
-5.7821099608
20
-5.2909262885
10
-5.7466352908
20
-5.2912269378
10
-5.7111158779
20
-5.2910502519
10
-5.6756296862
20
-5.2903942693
10
-5.6402561064
20
-5.2892594261
10
-5.6050198686
20
-5.2876446252
10
-5.5699154160
20
-5.2855451224
10
-5.5350183680
20
-5.2829603657
10
-5.5003584300
20
-5.2798861337
10
-5.4658598521
20
-5.2763053035
10
-5.4315793470
20
-5.2722098335
10
-5.3975753100
20
-5.2675908149
10
-5.3637733732
20
-5.2624182728
10
-5.3302387395
20
-5.2566768197
10
-5.2970382642
20
-5.2503496912
10
-5.2640928746
20
-5.2433872076
10
-5.2314214657
20
-5.2357476914
10
-5.1991540881
20
-5.2274117553
10
-5.1789283781
20
-5.2217473902
0
LINE
5
2A4
100
AcDbEntity
8
0
100
AcDbLine
62
7
6
CONTINUOUS
10
-6.7260660531
20
-4.1904248711
11
-6.7247004147
21
-4.8201060404
0
LINE
5
2A5
100
AcDbEntity
8
0
100
AcDbLine
62
7
6
CONTINUOUS
10
-6.8199062454
20
39.0782778895
11
-6.8225978736
21
40.3193586535
0
LINE
5
2A6
100
AcDbEntity
8
0
100
AcDbLine
62
7
6
CONTINUOUS
10
-4.8318739125
20
33.4606061112
11
-7.3303870343
21
-0.2591131241
0
LINE
5
2A7
100
AcDbEntity
8
0
100
AcDbLine
62
7
6
CONTINUOUS
10
-5.3377670453
20
43.2541957530
11
-5.3370848631
21
42.9396488681
0
LINE
5
2A8
100
AcDbEntity
8
0
100
AcDbLine
62
9
6
CONTINUOUS
10
-5.0777443978
20
-3.5592679283
11
-5.0745401957
21
-5.0366910395
0
LINE
5
2A9
100
AcDbEntity
8
0
100
AcDbLine
62
9
6
CONTINUOUS
10
-5.1692513781
20
38.6336158699
11
-5.1724555802
21
40.1110389811
0
LINE
5
2AA
100
AcDbEntity
8
0
100
AcDbLine
62
7
6
CONTINUOUS
10
-4.3381625171
20
1.5563105070
11
-4.3397080326
21
2.2689310926
0
LINE
5
2AB
100
AcDbEntity
8
0
100
AcDbLine
62
7
6
CONTINUOUS
10
-4.4069126749
20
33.2562683856
11
-4.4084581905
21
33.9688889712
0
LINE
5
2AC
100
AcDbEntity
8
0
100
AcDbLine
62
7
6
CONTINUOUS
10
-3.6053743686
20
-4.6597849509
11
-3.7035696349
21
40.6169955741
0
LINE
5
2AD
100
AcDbEntity
8
0
100
AcDbLine
62
7
6
CONTINUOUS
10
-5.8109870578
20
17.3305885942
11
-4.4069126749
21
33.2562683856
0
LINE
5
2AE
100
AcDbEntity
8
0
100
AcDbLine
62
7
6
CONTINUOUS
10
-2.5068668691
20
42.3876791877
11
-2.5058195581
21
41.9047753382
0
LINE
5
2AF
100
AcDbEntity
8
0
100
AcDbLine
62
7
6
CONTINUOUS
10
-24.2699514020
20
27.9752492019
11
-24.7832030821
21
27.8882337060
0
LINE
5
2B0
100
AcDbEntity
8
0
100
AcDbLine
62
7
6
CONTINUOUS
10
-24.6083302358
20
27.8671677567
11
-24.6087812597
21
27.8670913635
0
LWPOLYLINE
5
2B1
100
AcDbEntity
8
0
100
AcDbPolyline
62
7
6
CONTINUOUS
90
33
70
0
10
-7.3867455827
20
41.8787755228
10
-7.3884007828
20
41.8853187574
10
-7.3909136197
20
41.8938485752
10
-7.3937610282
20
41.9022951897
10
-7.3969392238
20
41.9106450531
10
-7.4004541652
20
41.9189086180
10
-7.4043058206
20
41.9270773366
10
-7.4084908591
20
41.9351366018
10
-7.4130142017
20
41.9430877926
10
-7.4178764512
20
41.9509225821
10
-7.4230747240
20
41.9586276843
10
-7.4286114974
20
41.9661985695
10
-7.4344935793
20
41.9736352466
10
-7.4407136048
20
41.9809196421
10
-7.4472532524
20
41.9880252650
10
-7.4541191412
20
41.9949556632
10
-7.4613032922
20
42.0016992005
10
-7.4687624811
20
42.0082169494
10
-7.4764849578
20
42.0145047877
10
-7.4844793425
20
42.0205751215
10
-7.4927328145
20
42.0264231466
10
-7.5012446923
20
42.0320539946
10
-7.5100228830
20
42.0374777433
10
-7.5190714500
20
42.0427007058
10
-7.5283963977
20
42.0477295064
10
-7.5380109982
20
42.0525737975
10
-7.5479342814
20
42.0572442256
10
-7.5581771438
20
42.0617457359
10
-7.5687578120
20
42.0660854420
10
-7.5797088106
20
42.0702741697
10
-7.5910528066
20
42.0743162579
10
-7.6028007260
20
42.0782108768
10
-7.6098340928
20
42.0804108927
0
LINE
5
2B2
100
AcDbEntity
8
0
100
AcDbLine
62
9
6
CONTINUOUS
10
9.9649086366
20
15.6393435529
11
9.0006656283
21
15.3403159397
0
LINE
5
2B3
100
AcDbEntity
8
0
100
AcDbLine
62
9
6
CONTINUOUS
10
-4.8318739125
20
33.4606061112
11
-11.0608593451
21
32.3104410326
0
LINE
5
2B4
100
AcDbEntity
8
0
100
AcDbLine
62
9
6
CONTINUOUS
10
-5.0226235195
20
33.8162271541
11
-11.2516089521
21
32.6660620754
0
LINE
5
2B5
100
AcDbEntity
8
0
100
AcDbLine
62
9
6
CONTINUOUS
10
-28.7727862941
20
36.7488551311
11
-12.0191107100
21
31.6206851074
0
LINE
5
2B6
100
AcDbEntity
8
0
100
AcDbLine
62
9
6
CONTINUOUS
10
-28.0222642653
20
37.7994294623
11
-11.2516089521
21
32.6660620754
0
LWPOLYLINE
5
2B7
100
AcDbEntity
8
0
100
AcDbPolyline
62
7
6
CONTINUOUS
90
45
70
0
10
2.4651599758
20
41.7342085699
10
2.4649749144
20
41.7530829497
10
2.4642322482
20
41.7793697494
10
2.4629230716
20
41.8055161132
10
2.4610443933
20
41.8315087770
10
2.4585944036
20
41.8573258940
10
2.4555728785
20
41.8829356873
10
2.4519785436
20
41.9083229534
10
2.4478106303
20
41.9334710048
10
2.4430712949
20
41.9583472382
10
2.4377596707
20
41.9829404282
10
2.4318769423
20
42.0072308804
10
2.4254309926
20
42.0311755323
10
2.4184229414
20
42.0547640006
10
2.4108562568
20
42.0779783446
10
2.4027467776
20
42.1007675242
10
2.3940999414
20
42.1231189261
10
2.3849209672
20
42.1450210238
10
2.3752306000
20
42.1664284736
10
2.3650394560
20
42.1873264248
10
2.3543535512
20
42.2077102689
10
2.3431908365
20
42.2275532203
10
2.3315619771
20
42.2468456946
10
2.3194765077
20
42.2655806280
10
2.3069535800
20
42.2837369876
10
2.2940046551
20
42.3013080204
10
2.2806421385
20
42.3182864665
10
2.2668895491
20
42.3346523477
10
2.2527649428
20
42.3503956930
10
2.2382787998
20
42.3655163597
10
2.2234453169
20
42.3800097725
10
2.2082831997
20
42.3938678855
10
2.1928046039
20
42.4070901777
10
2.1770140953
20
42.4196815790
10
2.1609268048
20
42.4316374918
10
2.1445592925
20
42.4429535285
10
2.1279179653
20
42.4536324528
10
2.1110191668
20
42.4636699056
10
2.0938796799
20
42.4730622324
10
2.0765065784
20
42.4818116449
10
2.0589172343
20
42.4899146757
10
2.0411285994
20
42.4973687108
10
2.0231470268
20
42.5041761230
10
2.0049861492
20
42.5103360543
10
1.9983660529
20
42.5124074775
0
LINE
5
2B8
100
AcDbEntity
8
0
100
AcDbLine
62
9
6
CONTINUOUS
10
2.4947617319
20
2.2165268335
11
2.5034675952
21
-1.7976530159
0
LINE
5
2B9
100
AcDbEntity
8
0
100
AcDbLine
62
9
6
CONTINUOUS
10
2.4872525921
20
5.6789104008
11
2.4719869610
21
12.7177286165
0
LINE
5
2BA
100
AcDbEntity
8
0
100
AcDbLine
62
9
6
CONTINUOUS
10
2.4196846267
20
36.8337720686
11
2.4091498953
21
41.6912233407
0
LINE
5
2BB
100
AcDbEntity
8
0
100
AcDbLine
62
7
6
CONTINUOUS
10
2.5512413216
20
2.0430389069
11
2.5594777014
21
-1.7546671938
0
LINE
5
2BC
100
AcDbEntity
8
0
100
AcDbLine
62
7
6
CONTINUOUS
10
2.5429762579
20
5.8539708491
11
2.5282835077
21
12.6286398126
0
LINE
5
2BD
100
AcDbEntity
8
0
100
AcDbLine
62
7
6
CONTINUOUS
10
2.4752252495
20
37.0932316395
11
2.4651600016
21
41.7342091629
0
LWPOLYLINE
5
2BE
100
AcDbEntity
8
0
100
AcDbPolyline
62
7
6
CONTINUOUS
90
36
70
0
10
8.7830584608
20
14.6293225360
10
8.7858456136
20
14.6303017194
10
8.7970424363
20
14.6345313087
10
8.8079913430
20
14.6391431035
10
8.8186678680
20
14.6441190073
10
8.8290729669
20
14.6494518810
10
8.8392293123
20
14.6551473785
10
8.8491233285
20
14.6611925916
10
8.8587452108
20
14.6675762246
10
8.8681171869
20
14.6743105953
10
8.8772246446
20
14.6813851280
10
8.8860562255
20
14.6887890023
10
8.8946315711
20
14.6965390596
10
8.9029352089
20
14.7046245908
10
8.9109534701
20
14.7130352771
10
8.9187012505
20
14.7217922705
10
8.9261621058
20
14.7308841605
10
8.9333219291
20
14.7403002621
10
8.9401918755
20
14.7500654414
10
8.9467542785
20
14.7601685395
10
8.9529933996
20
14.7705976612
10
8.9589153843
20
14.7813787171
10
8.9645033221
20
14.7925012110
10
8.9697398981
20
14.8039506475
10
8.9746242445
20
14.8157485493
10
8.9791396931
20
14.8278818618
10
8.9832713997
20
14.8403378801
10
8.9870158327
20
14.8531400511
10
8.9903576382
20
14.8662775267
10
8.9932825380
20
14.8797364485
10
8.9957834604
20
14.8935372049
10
8.9978459961
20
14.9076688193
10
8.9994573175
20
14.9221200805
10
9.0006079253
20
14.9369122597
10
9.0012844985
20
14.9520463496
10
9.0014757852
20
14.9667449598
0
LINE
5
2BF
100
AcDbEntity
8
0
100
AcDbLine
62
7
6
CONTINUOUS
10
8.7753228091
20
14.6267380414
11
8.7830418219
21
14.6293164107
0
LINE
5
2C0
100
AcDbEntity
8
0
100
AcDbLine
62
9
6
CONTINUOUS
10
2.4719869610
20
12.7177286165
11
8.8579974862
21
14.7745553565
0
LINE
5
2C1
100
AcDbEntity
8
0
100
AcDbLine
62
7
6
CONTINUOUS
10
2.5283137805
20
12.6146813490
11
8.7753228406
21
14.6267380516
0
LINE
5
2C2
100
AcDbEntity
8
0
100
AcDbLine
62
9
6
CONTINUOUS
10
10.1651634675
20
15.3128537516
11
9.0012785776
21
14.9519139079
0
LINE
5
2C3
100
AcDbEntity
8
0
100
AcDbLine
62
7
6
CONTINUOUS
10
-9.2584124626
20
34.2941867686
11
-26.2769530242
21
39.5034299056
0
LINE
5
2C4
100
AcDbEntity
8
0
100
AcDbLine
62
7
6
CONTINUOUS
10
-4.4069126749
20
33.2562683856
11
-4.8372543178
21
33.3879926214
0
LINE
5
2C5
100
AcDbEntity
8
0
100
AcDbLine
62
7
6
CONTINUOUS
10
-5.0226235195
20
33.8162271541
11
-7.5836799277
21
34.6001466370
0
LWPOLYLINE
5
2C6
100
AcDbEntity
8
0
100
AcDbPolyline
62
7
6
CONTINUOUS
90
58
70
0
10
-25.6858263530
20
33.2122614323
10
-25.7787017331
20
33.1934405281
10
-25.8707963106
20
33.1685474775
10
-25.9618469624
20
33.1375598728
10
-26.0516048839
20
33.1004689800
10
-26.1397944977
20
33.0572967820
10
-26.2261246819
20
33.0081009344
10
-26.3103780794
20
32.9529218896
10
-26.3922917110
20
32.8918477801
10
-26.4715415451
20
32.8250524676
10
-26.5479661812
20
32.7526099292
10
-26.6213219795
20
32.6746856798
10
-26.6912230565
20
32.5916653671
10
-26.7573946259
20
32.5039142801
10
-26.8198410248
20
32.4114634465
10
-26.8786050090
20
32.3142061744
10
-26.9336801816
20
32.2120024270
10
-26.9847290049
20
32.1053096481
10
-27.0313414627
20
31.9949616997
10
-27.0733639512
20
31.8814520403
10
-27.1108303989
20
31.7648207308
10
-27.1436907965
20
31.6452975045
10
-27.1719052865
20
31.5230698632
10
-27.1954009453
20
31.3984869848
10
-27.2141062585
20
31.2720454608
10
-27.2280034402
20
31.1441027802
10
-27.2370989125
20
31.0148858682
10
-27.2413951212
20
30.8847171933
10
-27.2409061900
20
30.7539184798
10
-27.2356545214
20
30.6227579404
10
-27.2256642861
20
30.4914837104
10
-27.2109628011
20
30.3603612862
10
-27.1915904081
20
30.2297136774
10
-27.1676018066
20
30.0998759257
10
-27.1390531204
20
29.9711306100
10
-27.1060110480
20
29.8437743149
10
-27.0685681762
20
29.7181560153
10
-27.0268304250
20
29.5946106876
10
-26.9808739593
20
29.4733549261
10
-26.9307509813
20
29.3545541059
10
-26.8764948248
20
29.2383571285
10
-26.8182575579
20
29.1251622515
10
-26.7562920418
20
29.0154818431
10
-26.6908029346
20
28.9096547611
10
-26.6218709225
20
28.8077957824
10
-26.5495835906
20
28.7100498007
10
-26.4739937540
20
28.6165339332
10
-26.3953275237
20
28.5275777136
10
-26.3139496774
20
28.4436022351
10
-26.2300558168
20
28.3647898704
10
-26.1438046460
20
28.2912756443
10
-26.0555428268
20
28.2233281243
10
-25.9655477925
20
28.1611093907
10
-25.8739404917
20
28.1046560902
10
-25.7808461987
20
28.0540194923
10
-25.6864432452
20
28.0092840525
10
-25.5909666082
20
27.9705502742
10
-25.4946318719
20
27.9378933851
0
LINE
5
2C7
100
AcDbEntity
8
0
100
AcDbLine
62
7
6
CONTINUOUS
10
-25.0691765995
20
33.3168067971
11
-25.6858263555
21
33.2122614319
0
LINE
5
2C8
100
AcDbEntity
8
0
100
AcDbLine
62
7
6
CONTINUOUS
10
-25.4199245286
20
33.3080552939
11
-25.4182106887
21
33.3083447223
0
LWPOLYLINE
5
2C9
100
AcDbEntity
8
0
100
AcDbPolyline
62
7
6
CONTINUOUS
90
31
70
0
10
-25.4182961489
20
33.3083208598
10
-25.4018154550
20
33.3109791563
10
-25.2783585467
20
33.3238667267
10
-25.1539321731
20
33.3245730290
10
-25.0289474577
20
33.3131205635
10
-24.9039174844
20
33.2896172398
10
-24.7791493638
20
33.2541000348
10
-24.6551185607
20
33.2066472182
10
-24.5324704013
20
33.1474887159
10
-24.4118431396
20
33.0768866338
10
-24.2938589520
20
32.9951946868
10
-24.1790824876
20
32.9028387821
10
-24.0680673940
20
32.8002546127
10
-23.9613913657
20
32.6880027071
10
-23.8595342435
20
32.5666656190
10
-23.7628703472
20
32.4367009608
10
-23.6718602445
20
32.2987484655
10
-23.5869125300
20
32.1535081772
10
-23.5083083684
20
32.0014681811
10
-23.4364173680
20
31.8433423345
10
-23.3715453722
20
31.6798808448
10
-23.3138926064
20
31.5115645613
10
-23.2637433004
20
31.3391517138
10
-23.2213156717
20
31.1634305245
10
-23.1867556061
20
30.9848846520
10
-23.1602692041
20
30.8043125874
10
-23.1419920908
20
30.6225356639
10
-23.1320271376
20
30.4400656996
10
-23.1305014748
20
30.2576414288
10
-23.1374734783
20
30.0762233810
10
-23.1465164005
20
29.9598569600
0
LINE
5
2CA
100
AcDbEntity
8
0
100
AcDbLine
62
7
6
CONTINUOUS
10
-4.7031028943
20
34.4859058704
11
-4.7226789827
21
34.4912495656
0
LINE
5
2CB
100
AcDbEntity
8
0
100
AcDbLine
62
9
6
CONTINUOUS
10
-4.4084581905
20
33.9688889712
11
-6.7363629084
21
34.6814425319
0
LINE
5
2CC
100
AcDbEntity
8
0
100
AcDbLine
62
9
6
CONTINUOUS
10
-26.2838297512
20
42.6742147133
11
-9.2652891896
21
37.4649715764
0
LINE
5
2CD
100
AcDbEntity
8
0
100
AcDbLine
62
9
6
CONTINUOUS
10
10.1783496516
20
9.2328461923
11
8.2665088296
21
8.5941946429
0
LINE
5
2CE
100
AcDbEntity
8
0
100
AcDbLine
62
7
6
CONTINUOUS
10
10.0655231563
20
9.0268594972
11
8.2668735640
21
8.4260195446
0
LINE
5
2CF
100
AcDbEntity
8
0
100
AcDbLine
62
7
6
CONTINUOUS
10
2.5416102731
20
6.4838117052
11
7.9200205927
21
8.2161073411
0
LINE
5
2D0
100
AcDbEntity
8
0
100
AcDbLine
62
9
6
CONTINUOUS
10
-6.9816221974
20
4.4477872625
11
-5.8752873103
21
4.7919670678
0
LINE
5
2D1
100
AcDbEntity
8
0
100
AcDbLine
62
7
6
CONTINUOUS
10
-7.0279233498
20
3.8229108735
11
-6.2072565993
21
4.0782195741
0
LINE
5
2D2
100
AcDbEntity
8
0
100
AcDbLine
62
9
6
CONTINUOUS
10
-26.1092655125
20
42.9664707890
11
-9.0907249509
21
37.7572276520
0
LWPOLYLINE
5
2D3
100
AcDbEntity
8
0
100
AcDbPolyline
62
7
6
CONTINUOUS
90
32
70
0
10
9.0171040357
20
7.7608355938
10
9.0169592396
20
7.7686482704
10
9.0164392775
20
7.7780976244
10
9.0155446018
20
7.7874676914
10
9.0142750544
20
7.7967698620
10
9.0126313388
20
7.8059946274
10
9.0106160960
20
7.8151245799
10
9.0082308837
20
7.8241509911
10
9.0054738944
20
7.8330748372
10
9.0023453548
20
7.8418863293
10
8.9988495566
20
7.8505656850
10
8.9949905201
20
7.8590972795
10
8.9907720630
20
7.8674676520
10
8.9862003999
20
7.8756601287
10
8.9812853766
20
7.8836543771
10
8.9760350586
20
7.8914358573
10
8.9704579119
20
7.8989909424
10
8.9645669112
20
7.9063018415
10
8.9583748391
20
7.9133536112
10
8.9518910030
20
7.9201367588
10
8.9451242959
20
7.9266426086
10
8.9380892450
20
7.9328579599
10
8.9307960598
20
7.9387747605
10
8.9232462896
20
7.9443915527
10
8.9154519720
20
7.9496983524
10
8.9074262942
20
7.9546854554
10
8.8991707907
20
7.9593505423
10
8.8906957206
20
7.9636856406
10
8.8820163476
20
7.9676811322
10
8.8731400193
20
7.9713319581
10
8.8640771569
20
7.9746319598
10
8.8568373187
20
7.9769735752
0
LWPOLYLINE
5
2D4
100
AcDbEntity
8
0
100
AcDbPolyline
62
7
6
CONTINUOUS
90
40
70
0
10
8.9496861639
20
38.8463983446
10
8.9493894753
20
38.8625701341
10
8.9485695948
20
38.8787279612
10
8.9472271268
20
38.8948534409
10
8.9453645865
20
38.9109193474
10
8.9429834431
20
38.9269163750
10
8.9400812442
20
38.9428527635
10
8.9366544304
20
38.9587293568
10
8.9327079665
20
38.9745078985
10
8.9282537847
20
38.9901385343
10
8.9233068140
20
39.0055780954
10
8.9178668182
20
39.0208359684
10
8.9119225171
20
39.0359409260
10
8.9054640763
20
39.0509047326
10
8.8985074623
20
39.0656784237
10
8.8910809039
20
39.0802005726
10
8.8832111472
20
39.0944266004
10
8.8748935637
20
39.1083722544
10
8.8661098891
20
39.1220670259
10
8.8568465822
20
39.1355231093
10
8.8471299996
20
39.1486938063
10
8.8370022107
20
39.1615214705
10
8.8264982017
20
39.1739681449
10
8.8156099956
20
39.1860493542
10
8.8043160383
20
39.1977887605
10
8.7926011044
20
39.2091960135
10
8.7804992472
20
39.2202319253
10
8.7680631479
20
39.2308484507
10
8.7553327971
20
39.2410169460
10
8.7422978628
20
39.2507508607
10
8.7289362855
20
39.2600669286
10
8.7152320255
20
39.2689718626
10
8.7012241794
20
39.2774357217
10
8.6869735746
20
39.2854221755
10
8.6725225753
20
39.2929125037
10
8.6578591342
20
39.2999176363
10
8.6429630574
20
39.3064478836
10
8.6278194966
20
39.3125065682
10
8.6124688230
20
39.3180741393
10
8.5960311836
20
39.3234180050
0
LINE
5
2D5
100
AcDbEntity
8
0
100
AcDbLine
62
7
6
CONTINUOUS
10
8.2665088296
20
8.5941946429
11
8.2674561863
21
8.1573786613
0
LINE
5
2D6
100
AcDbEntity
8
0
100
AcDbLine
62
9
6
CONTINUOUS
10
8.8096608982
20
38.7389337892
11
8.8616316719
21
14.7757693584
0
LINE
5
2D7
100
AcDbEntity
8
0
100
AcDbLine
62
9
6
CONTINUOUS
10
8.8768974915
20
7.7368642201
11
8.8840750707
21
4.4273596740
0
LINE
5
2D8
100
AcDbEntity
8
0
100
AcDbLine
62
7
6
CONTINUOUS
10
8.9496861639
20
38.8463983446
11
9.0014753674
21
14.9669539573
0
LINE
5
2D9
100
AcDbEntity
8
0
100
AcDbLine
62
7
6
CONTINUOUS
10
9.0171043288
20
7.7606080626
11
9.0241003364
21
4.5348242293
0
LINE
5
2DA
100
AcDbEntity
8
0
100
AcDbLine
62
7
6
CONTINUOUS
10
9.0014760071
20
14.9666540288
11
9.0014758188
21
14.9667455436
0
LWPOLYLINE
5
2DB
100
AcDbEntity
8
0
100
AcDbPolyline
62
7
6
CONTINUOUS
90
39
70
0
10
9.0241003364
20
4.5348242293
10
9.0238754333
20
4.5187056225
10
9.0231308515
20
4.5025995386
10
9.0218671978
20
4.4865241430
10
9.0200872543
20
4.4705089663
10
9.0177923430
20
4.4545605294
10
9.0149786453
20
4.4386628198
10
9.0116406312
20
4.4228092002
10
9.0077833014
20
4.4070436438
10
9.0034204016
20
4.3914253942
10
8.9985681720
20
4.3760014873
10
8.9932254688
20
4.3607580133
10
8.9873800757
20
4.3456628039
10
8.9810210245
20
4.3307015231
10
8.9741646770
20
4.3159253630
10
8.9668406561
20
4.3013994666
10
8.9590764969
20
4.2871698473
10
8.9508668347
20
4.2732185203
10
8.9421926779
20
4.2595140653
10
8.9330397820
20
4.2460429685
10
8.9234346016
20
4.2328526818
10
8.9134196144
20
4.2200020299
10
8.9030295545
20
4.2075289621
10
8.8922561929
20
4.1954173177
10
8.8810785028
20
4.1836435303
10
8.8694812776
20
4.1721975666
10
8.8574979207
20
4.1611182724
10
8.8451806648
20
4.1504538169
10
8.8325685018
20
4.1402323890
10
8.8196513139
20
4.1304405562
10
8.8064085082
20
4.1210622933
10
8.7928248508
20
4.1120909757
10
8.7789379170
20
4.1035556885
10
8.7648065376
20
4.0954920926
10
8.7504708529
20
4.0879182177
10
8.7359200796
20
4.0808238525
10
8.7211373703
20
4.0741999964
10
8.7061102738
20
4.0680437934
10
8.6908760905
20
4.0623734887
0
LWPOLYLINE
5
2DC
100
AcDbEntity
8
0
100
AcDbPolyline
62
7
6
CONTINUOUS
90
36
70
0
10
10.0655046037
20
9.0268533876
10
10.0718135693
20
9.0290496658
10
10.0808087284
20
9.0324965661
10
10.0896702127
20
9.0362689356
10
10.0983872603
20
9.0403620392
10
10.1069560106
20
9.0447742716
10
10.1153626479
20
9.0494989956
10
10.1235933138
20
9.0545286415
10
10.1316437089
20
9.0598612157
10
10.1395006714
20
9.0654888807
10
10.1471511313
20
9.0714025510
10
10.1545905832
20
9.0775994052
10
10.1618061925
20
9.0840698530
10
10.1687863246
20
9.0908040843
10
10.1755279953
20
9.0978000288
10
10.1820199119
20
9.1050474182
10
10.1882508910
20
9.1125349827
10
10.1942178249
20
9.1202605670
10
10.1999106305
20
9.1282129903
10
10.2053194234
20
9.1363801192
10
10.2104412523
20
9.1447600936
10
10.2152685679
20
9.1533438218
10
10.2197913859
20
9.1621164803
10
10.2240037530
20
9.1710697727
10
10.2278991820
20
9.1801933209
10
10.2314708075
20
9.1894740690
10
10.2347135185
20
9.1989027594
10
10.2376233269
20
9.2084729099
10
10.2401942691
20
9.2181705668
10
10.2424204161
20
9.2279794626
10
10.2442997231
20
9.2378975022
10
10.2458276039
20
9.2479116837
10
10.2469984030
20
9.2579946311
10
10.2478104838
20
9.2681366524
10
10.2482622994
20
9.2783426231
10
10.2483622110
20
9.2865765289
0
LINE
5
2DD
100
AcDbEntity
8
0
100
AcDbLine
62
9
6
CONTINUOUS
10
2.5427114463
20
5.9760726258
11
8.7288611093
21
7.9685275387
0
LINE
5
2DE
100
AcDbEntity
8
0
100
AcDbLine
62
9
6
CONTINUOUS
10
2.4872525921
20
5.6789104008
11
8.8732631173
21
7.7357371409
0
LWPOLYLINE
5
2DF
100
AcDbEntity
8
0
100
AcDbPolyline
62
7
6
CONTINUOUS
90
18
70
0
10
-28.0998952385
20
37.8033838780
10
-28.1687372621
20
37.7856552845
10
-28.2355773114
20
37.7610824610
10
-28.3024188100
20
37.7288526691
10
-28.3683812611
20
37.6889908081
10
-28.4320416332
20
37.6421731946
10
-28.4930737372
20
37.5885913839
10
-28.5511395170
20
37.5284768888
10
-28.6050842535
20
37.4630558854
10
-28.6545675515
20
37.3930117064
10
-28.6995585557
20
37.3185950165
10
-28.7395750741
20
37.2407626794
10
-28.7744316072
20
37.1601880943
10
-28.8040307648
20
37.0772546765
10
-28.8281736252
20
36.9926522201
10
-28.8467200099
20
36.9069404652
10
-28.8595502455
20
36.8205684660
10
-28.8613972233
20
36.8034948294
0
LINE
5
2E0
100
AcDbEntity
8
0
100
AcDbLine
62
9
6
CONTINUOUS
10
-28.0222642653
20
37.7994294623
11
-23.6186243325
21
38.6897361318
0
LINE
5
2E1
100
AcDbEntity
8
0
100
AcDbLine
62
7
6
CONTINUOUS
10
-28.0998975185
20
37.8033950414
11
-23.6573076594
21
38.7015767979
0
LINE
5
2E2
100
AcDbEntity
8
0
100
AcDbLine
62
7
6
CONTINUOUS
10
-11.1998956423
20
40.6476735076
11
-16.8616959947
21
42.3807066383
0
LINE
5
2E3
100
AcDbEntity
8
0
100
AcDbLine
62
7
6
CONTINUOUS
10
-10.9213624204
20
41.8799688305
11
-9.4409601163
21
41.4268291788
0
LINE
5
2E4
100
AcDbEntity
8
0
100
AcDbLine
62
7
6
CONTINUOUS
10
-10.9068586722
20
42.1058641046
11
-9.0814605495
21
41.5471239113
0
LINE
5
2E5
100
AcDbEntity
8
0
100
AcDbLine
62
7
6
CONTINUOUS
10
-9.5759257018
20
41.8598757531
11
-11.0386049468
21
42.3075905140
0
LINE
5
2E6
100
AcDbEntity
8
0
100
AcDbLine
62
7
6
CONTINUOUS
10
-16.6059469854
20
44.0117106882
11
-18.0686262304
21
44.4594254491
0
LINE
5
2E7
100
AcDbEntity
8
0
100
AcDbLine
62
9
6
CONTINUOUS
10
-9.5765445788
20
42.1452332484
11
-18.0692451074
21
44.7447829443
0
LWPOLYLINE
5
2E8
100
AcDbEntity
8
0
100
AcDbPolyline
62
7
6
CONTINUOUS
90
36
70
0
10
10.2351760470
20
15.3665878147
10
10.2351508801
20
15.3698196257
10
10.2348086288
20
15.3805397398
10
10.2340703742
20
15.3912378897
10
10.2329331614
20
15.4019453996
10
10.2313956949
20
15.4126432585
10
10.2294676414
20
15.4232632070
10
10.2271470691
20
15.4338202433
10
10.2244303667
20
15.4443204921
10
10.2213369155
20
15.4546882153
10
10.2178647197
20
15.4649356557
10
10.2140078527
20
15.4750746612
10
10.2097935778
20
15.4850332363
10
10.2052199898
20
15.4948201961
10
10.2002804958
20
15.5044465032
10
10.1950098312
20
15.5138449958
10
10.1894128630
20
15.5230128756
10
10.1834815218
20
15.5319642823
10
10.1772444207
20
15.5406569790
10
10.1707065355
20
15.5490876902
10
10.1638650436
20
15.5572603001
10
10.1567485960
20
15.5651421367
10
10.1493675235
20
15.5727248682
10
10.1417228034
20
15.5800096554
10
10.1338385271
20
15.5869755845
10
10.1257316536
20
15.5936112939
10
10.1174058131
20
15.5999172685
10
10.1088713773
20
15.6058875705
10
10.1001419398
20
15.6115147757
10
10.0912298776
20
15.6167930941
10
10.0821477335
20
15.6217168046
10
10.0729138262
20
15.6262782274
10
10.0635404450
20
15.6304738362
10
10.0540337073
20
15.6343025621
10
10.0444075432
20
15.6377601964
10
10.0370768150
20
15.6401204094
0
LINE
5
2E9
100
AcDbEntity
8
0
100
AcDbLine
62
9
6
CONTINUOUS
10
10.1651634675
20
15.3128537516
11
10.1783496516
21
9.2328461923
0
LINE
5
2EA
100
AcDbEntity
8
0
100
AcDbLine
62
7
6
CONTINUOUS
10
10.2351761004
20
15.3665860293
11
10.2483622844
21
9.2865784699
0
LINE
5
2EB
100
AcDbEntity
8
0
100
AcDbLine
62
9
6
CONTINUOUS
10
2.4947617319
20
2.2165268335
11
8.8840750707
21
4.4273596740
0
LINE
5
2EC
100
AcDbEntity
8
0
100
AcDbLine
62
7
6
CONTINUOUS
10
8.6908760905
20
4.0623734887
11
2.5514691263
21
1.9380006114
0
LINE
5
2ED
100
AcDbEntity
8
0
100
AcDbLine
62
7
6
CONTINUOUS
10
-8.8304034640
20
-1.4707805775
11
-8.7253295106
21
-1.4392066368
0
LINE
5
2EE
100
AcDbEntity
8
0
100
AcDbLine
62
9
6
CONTINUOUS
10
-8.5167915688
20
44.1835450601
11
-7.9442053580
21
44.3423698917
0
LINE
5
2EF
100
AcDbEntity
8
0
100
AcDbLine
62
7
6
CONTINUOUS
10
-8.5902505699
20
44.2060302900
11
-8.0829836622
21
44.3467367542
0
LINE
5
2F0
100
AcDbEntity
8
0
100
AcDbLine
62
3
6
CONTINUOUS
10
-8.6538505138
20
42.7038567705
11
-5.3367178924
21
42.2850889299
0
LINE
5
2F1
100
AcDbEntity
8
0
100
AcDbLine
62
7
6
CONTINUOUS
10
-8.5673089521
20
43.0928787261
11
-4.4334664424
21
42.5710062239
0
LINE
5
2F2
100
AcDbEntity
8
0
100
AcDbLine
62
7
6
CONTINUOUS
10
-7.3534121288
20
43.1305563583
11
-9.3037914930
21
43.3767799038
0
LINE
5
2F3
100
AcDbEntity
8
0
100
AcDbLine
62
7
6
CONTINUOUS
10
-5.3371538942
20
42.9714783715
11
-5.3795072024
21
42.9768252193
0
LINE
5
2F4
100
AcDbEntity
8
0
100
AcDbLine
62
7
6
CONTINUOUS
10
-11.6392841384
20
44.0916560701
11
-9.6889047742
21
43.8454325247
0
LINE
5
2F5
100
AcDbEntity
8
0
100
AcDbLine
62
7
6
CONTINUOUS
10
-21.1140397984
20
46.1362884055
11
-20.0170444221
21
45.8005066377
0
LINE
5
2F6
100
AcDbEntity
8
0
100
AcDbLine
62
7
6
CONTINUOUS
10
-4.9425009838
20
41.1863059273
11
-3.8455056075
21
40.8505241595
0
LINE
5
2F7
100
AcDbEntity
8
0
100
AcDbLine
62
9
6
CONTINUOUS
10
-7.6663137246
20
42.0801444559
11
-9.1625047065
21
42.5381168993
0
LINE
5
2F8
100
AcDbEntity
8
0
100
AcDbLine
62
7
6
CONTINUOUS
10
-7.6098296038
20
42.0804095463
11
-9.1469034315
21
42.5508959114
0
LINE
5
2F9
100
AcDbEntity
8
0
100
AcDbLine
62
9
6
CONTINUOUS
10
-6.5243971297
20
42.1571907180
11
-8.0692295361
21
42.6300519239
0
LINE
5
2FA
100
AcDbEntity
8
0
100
AcDbLine
62
9
6
CONTINUOUS
10
-9.0834491491
20
42.9649181976
11
-17.5761496778
21
45.5644678936
0
LINE
5
2FB
100
AcDbEntity
8
0
100
AcDbLine
62
9
6
CONTINUOUS
10
-8.7202007312
20
43.0779244593
11
-17.2129012598
21
45.6774741553
0
LINE
5
2FC
100
AcDbEntity
8
0
100
AcDbLine
62
9
6
CONTINUOUS
10
-8.5673089521
20
43.0928787261
11
-17.0600094807
21
45.6924284220
0
LINE
5
2FD
100
AcDbEntity
8
0
100
AcDbLine
62
7
6
CONTINUOUS
10
-9.5798454235
20
43.4370866662
11
-11.6322480512
21
44.0653111760
0
LINE
5
2FE
100
AcDbEntity
8
0
100
AcDbLine
62
7
6
CONTINUOUS
10
-13.6138781746
20
44.6718727718
11
-15.6662808023
21
45.3000972816
0
LINE
5
2FF
100
AcDbEntity
8
0
100
AcDbLine
62
7
6
CONTINUOUS
10
-13.4468835948
20
45.0199118679
11
-11.3944809671
21
44.3916873580
0
LINE
5
300
100
AcDbEntity
8
0
100
AcDbLine
62
7
6
CONTINUOUS
10
-9.4128508437
20
43.7851257623
11
-7.3604482160
21
43.1569012524
0
LINE
5
301
100
AcDbEntity
8
0
100
AcDbLine
62
7
6
CONTINUOUS
10
-14.9754733676
20
45.4913026783
11
-15.4897855277
21
45.6487296375
0
LINE
5
302
100
AcDbEntity
8
0
100
AcDbLine
62
7
6
CONTINUOUS
10
-12.4143353036
20
45.1059402814
11
-10.9634989633
21
44.6618505417
0
LINE
5
303
100
AcDbEntity
8
0
100
AcDbLine
62
7
6
CONTINUOUS
10
-4.2856235982
20
42.6178047383
11
-5.3724711153
21
42.9504803252
0
LINE
5
304
100
AcDbEntity
8
0
100
AcDbLine
62
9
6
CONTINUOUS
10
-5.3376584433
20
43.2041205481
11
-9.3524038140
21
44.4330029363
0
LINE
5
305
100
AcDbEntity
8
0
100
AcDbLine
62
7
6
CONTINUOUS
10
-9.2837032559
20
44.4182907733
11
-5.3376721516
21
43.2104412886
0
LINE
5
306
100
AcDbEntity
8
0
100
AcDbLine
62
7
6
CONTINUOUS
10
-3.7807719484
20
42.7776116421
11
-5.3377670453
21
43.2541957530
0
LINE
5
307
100
AcDbEntity
8
0
100
AcDbLine
62
7
6
CONTINUOUS
10
-10.9995673977
20
44.9872288837
11
-12.5565624946
21
45.4638129946
0
LINE
5
308
100
AcDbEntity
8
0
100
AcDbLine
62
7
6
CONTINUOUS
10
-11.3874448799
20
44.3653424639
11
-13.3378242441
21
44.6115660093
0
LINE
5
309
100
AcDbEntity
8
0
100
AcDbLine
62
7
6
CONTINUOUS
10
-9.3524038140
20
44.4330029363
11
-10.6874450328
21
44.6015437793
0
LINE
5
30A
100
AcDbEntity
8
0
100
AcDbLine
62
7
6
CONTINUOUS
10
-15.6733168895
20
45.3264421757
11
-13.7229375253
21
45.0802186303
0
LINE
5
30B
100
AcDbEntity
8
0
100
AcDbLine
62
7
6
CONTINUOUS
10
-17.0600094807
20
45.6924284220
11
-12.4143353036
21
45.1059402814
0
LINE
5
30C
100
AcDbEntity
8
0
100
AcDbLine
62
7
6
CONTINUOUS
10
-10.8512029856
20
45.3537457561
11
-12.1285182612
21
45.5791745806
0
LINE
5
30D
100
AcDbEntity
8
0
100
AcDbLine
62
7
6
CONTINUOUS
10
-3.9944432741
20
43.2096239832
11
-4.9385673454
21
43.3783864268
0
LINE
5
30E
100
AcDbEntity
8
0
100
AcDbLine
62
7
6
CONTINUOUS
10
-9.6562436265
20
44.9426571139
11
-10.6003676978
21
45.1114195574
0
LWPOLYLINE
5
30F
100
AcDbEntity
8
0
100
AcDbPolyline
62
7
6
CONTINUOUS
90
19
70
0
10
1.0044179022
20
42.8166473139
10
0.9867346388
20
42.8217447987
10
0.9688614255
20
42.8262683828
10
0.9508116819
20
42.8302120702
10
0.9326059973
20
42.8335693080
10
0.9142513399
20
42.8363369418
10
0.8957404033
20
42.8385129799
10
0.8770870962
20
42.8400918359
10
0.8583048012
20
42.8410685946
10
0.8393845212
20
42.8414389827
10
0.8203362175
20
42.8411969405
10
0.8011769496
20
42.8403369557
10
0.7819075630
20
42.8388530188
10
0.7625382595
20
42.8367392070
10
0.7430856712
20
42.8339907133
10
0.7235595402
20
42.8306023436
10
0.7039717103
20
42.8265693905
10
0.6843366229
20
42.8218880883
10
0.6646675483
20
42.8165549450
0
LWPOLYLINE
5
310
100
AcDbEntity
8
0
100
AcDbPolyline
62
7
6
CONTINUOUS
90
18
70
0
10
-7.8029950561
20
44.3430326178
10
-7.8186154936
20
44.3475375140
10
-7.8345684264
20
44.3515780783
10
-7.8508345484
20
44.3551294499
10
-7.8674352215
20
44.3581747562
10
-7.8843035209
20
44.3606809430
10
-7.9012867743
20
44.3626142259
10
-7.9183326665
20
44.3639662792
10
-7.9354444643
20
44.3647355021
10
-7.9525570996
20
44.3649182408
10
-7.9696303051
20
44.3645166898
10
-7.9866599149
20
44.3635337998
10
-8.0036401009
20
44.3619712400
10
-8.0205652107
20
44.3598294202
10
-8.0374016035
20
44.3571124807
10
-8.0541080703
20
44.3538288311
10
-8.0706756949
20
44.3499826176
10
-8.0829834863
20
44.3467368030
0
LWPOLYLINE
5
311
100
AcDbEntity
8
0
100
AcDbPolyline
62
7
6
CONTINUOUS
90
20
70
0
10
-15.0641109574
20
47.7350992323
10
-15.0805540622
20
47.7398662143
10
-15.0979178889
20
47.7443312164
10
-15.1154820690
20
47.7482682985
10
-15.1332292211
20
47.7516683742
10
-15.1511476194
20
47.7545243151
10
-15.1692253788
20
47.7568297995
10
-15.1874446086
20
47.7585785735
10
-15.2057931358
20
47.7597656913
10
-15.2242586315
20
47.7603866264
10
-15.2428230018
20
47.7604377962
10
-15.2614737020
20
47.7599165020
10
-15.2801985901
20
47.7588202866
10
-15.2989807452
20
47.7571476616
10
-15.3178081206
20
47.7548977878
10
-15.3366695596
20
47.7520699704
10
-15.3555503519
20
47.7486643749
10
-15.3744376621
20
47.7446818581
10
-15.3933203143
20
47.7401235039
10
-15.4060080613
20
47.7367354303
0
LINE
5
312
100
AcDbEntity
8
0
100
AcDbLine
62
7
6
CONTINUOUS
10
-3.4104167821
20
42.9106314036
11
-4.9385673454
21
43.3783864268
0
LINE
5
313
100
AcDbEntity
8
0
100
AcDbLine
62
7
6
CONTINUOUS
10
-10.6003676978
20
45.1114195574
11
-12.1285182612
21
45.5791745806
0
LINE
5
314
100
AcDbEntity
8
0
100
AcDbLine
62
9
6
CONTINUOUS
10
-7.9442053580
20
44.3423698917
11
-4.5931901706
21
43.3166501595
0
LINE
5
315
100
AcDbEntity
8
0
100
AcDbLine
62
9
6
CONTINUOUS
10
2.4664145292
20
41.1557599705
11
8.4548209667
21
39.3227552529
0
LINE
5
316
100
AcDbEntity
8
0
100
AcDbLine
62
7
6
CONTINUOUS
10
-7.8029950561
20
44.3430326178
11
-4.2485582444
21
43.2550471057
0
LINE
5
317
100
AcDbEntity
8
0
100
AcDbLine
62
7
6
CONTINUOUS
10
2.4663192868
20
41.1996752266
11
8.5960312685
21
39.3234179790
0
LINE
5
318
100
AcDbEntity
8
0
100
AcDbLine
62
9
6
CONTINUOUS
10
-10.8512029856
20
45.3537457561
11
-9.3964854330
21
44.9084680075
0
LINE
5
319
100
AcDbEntity
8
0
100
AcDbLine
62
9
6
CONTINUOUS
10
-3.5424036940
20
43.1165790372
11
-3.1374995127
21
42.9926410110
0
LINE
5
31A
100
AcDbEntity
8
0
100
AcDbLine
62
7
6
CONTINUOUS
10
-10.8118847940
20
45.3443003186
11
-9.3957606928
21
44.9108357258
0
LINE
5
31B
100
AcDbEntity
8
0
100
AcDbLine
62
7
6
CONTINUOUS
10
-3.4763379731
20
43.0989463886
11
-3.1332304383
21
42.9939238360
0
LINE
5
31C
100
AcDbEntity
8
0
100
AcDbLine
62
9
6
CONTINUOUS
10
-1.0047046164
20
42.8631770864
11
-2.2746885045
21
43.2519092946
0
LINE
5
31D
100
AcDbEntity
8
0
100
AcDbLine
62
9
6
CONTINUOUS
10
-11.0318254369
20
45.9324009208
11
-12.3018093250
21
46.3211331290
0
LINE
5
31E
100
AcDbEntity
8
0
100
AcDbLine
62
7
6
CONTINUOUS
10
-0.7841084609
20
42.8675584895
11
-2.0482699994
21
43.2545085217
0
LINE
5
31F
100
AcDbEntity
8
0
100
AcDbLine
62
7
6
CONTINUOUS
10
-10.8131702631
20
45.9373764433
11
-12.0773318016
21
46.3243264755
0
LINE
5
320
100
AcDbEntity
8
0
100
AcDbLine
62
9
6
CONTINUOUS
10
-15.3504988270
20
47.7349881417
11
-14.3525461399
21
47.4295225721
0
LINE
5
321
100
AcDbEntity
8
0
100
AcDbLine
62
9
6
CONTINUOUS
10
0.7219972984
20
42.8153218618
11
1.7199499856
21
42.5098562922
0
LINE
5
322
100
AcDbEntity
8
0
100
AcDbLine
62
7
6
CONTINUOUS
10
1.9984225848
20
42.5123901978
11
1.9983684173
21
42.5124067742
0
LINE
5
323
100
AcDbEntity
8
0
100
AcDbLine
62
7
6
CONTINUOUS
10
-15.0641308367
20
47.7351053295
11
-14.0701255361
21
47.4308480242
0
LINE
5
324
100
AcDbEntity
8
0
100
AcDbLine
62
7
6
CONTINUOUS
10
1.0044179022
20
42.8166473139
11
1.9984232033
21
42.5123900085
0
LWPOLYLINE
5
325
100
AcDbEntity
8
0
100
AcDbPolyline
62
7
6
CONTINUOUS
90
55
70
0
10
1.8809158831
20
-2.8806757520
10
1.8956356964
20
-2.8753927806
10
1.9163229204
20
-2.8673234240
10
1.9369606368
20
-2.8585133808
10
1.9575415820
20
-2.8489591147
10
1.9780432241
20
-2.8386649265
10
1.9984277695
20
-2.8276452701
10
2.0186822163
20
-2.8159035272
10
2.0387942992
20
-2.8034433296
10
2.0587290001
20
-2.7902837276
10
2.0784747244
20
-2.7764304044
10
2.0980191988
20
-2.7618902805
10
2.1173278399
20
-2.7466883481
10
2.1363894571
20
-2.7308335387
10
2.1551935593
20
-2.7143349198
10
2.1737079817
20
-2.6972217785
10
2.1919225774
20
-2.6795055360
10
2.2098277607
20
-2.6611977612
10
2.2273935718
20
-2.6423319578
10
2.2446102308
20
-2.6229228038
10
2.2614700265
20
-2.6029832470
10
2.2779475288
20
-2.5825479591
10
2.2940322649
20
-2.5616361853
10
2.3097195947
20
-2.5402600926
10
2.3249939187
20
-2.5184465719
10
2.3398461753
20
-2.4962154611
10
2.3542717783
20
-2.4735801027
10
2.3682622591
20
-2.4505592965
10
2.3818108717
20
-2.4271703007
10
2.3949112362
20
-2.4034295119
10
2.4075557060
20
-2.3793556155
10
2.4197378534
20
-2.3549663209
10
2.4314516364
20
-2.3302780950
10
2.4426905025
20
-2.3053088191
10
2.4534485634
20
-2.2800759677
10
2.4637198272
20
-2.2545966152
10
2.4734982657
20
-2.2288888735
10
2.4827782924
20
-2.2029704827
10
2.4915543013
20
-2.1768585904
10
2.4998209759
20
-2.1505709574
10
2.5075731037
20
-2.1241252407
10
2.5148053967
20
-2.0975389066
10
2.5215130620
20
-2.0708296543
10
2.5276912333
20
-2.0440150339
10
2.5333350123
20
-2.0171128024
10
2.5384399787
20
-1.9901408598
10
2.5430015227
20
-1.9631170443
10
2.5470153086
20
-1.9360589074
10
2.5504774080
20
-1.9089837085
10
2.5533834820
20
-1.8819096217
10
2.5557296130
20
-1.8548536556
10
2.5575121278
20
-1.8278307213
10
2.5587269039
20
-1.8008572570
10
2.5593702522
20
-1.7739536199
10
2.5594776718
20
-1.7546667325
0
LINE
5
326
100
AcDbEntity
8
0
100
AcDbLine
62
9
6
CONTINUOUS
10
1.9595038324
20
-2.7342234974
11
-3.6053743686
21
-4.6597849509
0
LINE
5
327
100
AcDbEntity
8
0
100
AcDbLine
62
7
6
CONTINUOUS
10
1.8809140003
20
-2.8806764388
11
-3.6847734848
21
-4.8065179212
0
LINE
5
328
100
AcDbEntity
8
0
100
AcDbLine
62
9
6
CONTINUOUS
10
-8.8235267370
20
-4.6415653852
11
-5.0777443978
21
-3.5592679283
0
LINE
5
329
100
AcDbEntity
8
0
100
AcDbLine
62
7
6
CONTINUOUS
10
-8.9279528678
20
-4.8266328203
11
-5.5524900134
21
-3.8513345962
0
LINE
5
32A
100
AcDbEntity
8
0
100
AcDbLine
62
9
6
CONTINUOUS
10
-3.6054775187
20
-4.6122235570
11
-5.0745401957
21
-5.0366910395
0
LINE
5
32B
100
AcDbEntity
8
0
100
AcDbLine
62
7
6
CONTINUOUS
10
-3.7103443372
20
-4.7974183233
11
-5.1789663268
21
-5.2217584746
0
LINE
5
32C
100
AcDbEntity
8
0
100
AcDbLine
62
9
6
CONTINUOUS
10
-15.3504988270
20
47.7349881417
11
-21.1140397984
21
46.1362884055
0
LINE
5
32D
100
AcDbEntity
8
0
100
AcDbLine
62
7
6
CONTINUOUS
10
-15.4060101488
20
47.7367348867
11
-21.1703364049
21
46.1378173270
0
SPLINE
5
32E
100
AcDbEntity
8
0
100
AcDbSpline
62
9
6
CONTINUOUS
70
0
71
3
72
16
73
12
74
10
42
0.0000001000
43
0.0000001000
44
0.0000000001
12
2.6944875099
22
0.4571634191
32
0.0000000000
13
0.2015998045
23
2.7207737053
33
0.0000000000
40
0.0000000000
40
0.0000000000
40
0.0000000000
40
0.0000000000
40
0.0625146029
40
0.1628472541
40
0.2663754505
40
0.3745335348
40
0.4883079008
40
0.6080438902
40
0.7336778516
40
0.8646196349
40
1.0000000000
40
1.0000000000
40
1.0000000000
40
1.0000000000
10
-24.7832058874
20
27.8882502439
30
0.0000000000
10
-24.7270576152
20
27.8977767071
30
0.0000000000
10
-24.5823693598
20
27.9319654992
30
0.0000000000
10
-24.3576266828
20
28.0265983311
30
0.0000000000
10
-24.1208893917
20
28.1860185248
30
0.0000000000
10
-23.9077510008
20
28.3934490899
30
0.0000000000
10
-23.7222884618
20
28.6442738961
30
0.0000000000
10
-23.5679113031
20
28.9332811786
30
0.0000000000
10
-23.4474945831
20
29.2545934050
30
0.0000000000
10
-23.3632848764
20
29.6017404605
30
0.0000000000
10
-23.3327546502
20
29.8425691084
30
0.0000000000
10
-23.3236570985
20
29.9653488876
30
0.0000000000
11
-24.7832058874
21
27.8882502439
31
0.0000000000
11
-24.6170450900
21
27.9275132107
31
0.0000000000
11
-24.3645190488
21
28.0331500604
31
0.0000000000
11
-24.1296600937
21
28.1900535257
31
0.0000000000
11
-23.9173361566
21
28.3949705390
31
0.0000000000
11
-23.7317868355
21
28.6438106825
31
0.0000000000
11
-23.5768652534
21
28.9314059332
31
0.0000000000
11
-23.4556614336
21
29.2520195983
31
0.0000000000
11
-23.3706898655
21
29.5990065947
31
0.0000000000
11
-23.3236570985
21
29.9653488876
31
0.0000000000
0
SPLINE
5
32F
100
AcDbEntity
8
0
100
AcDbSpline
62
9
6
CONTINUOUS
70
0
71
3
72
28
73
24
74
22
42
0.0000001000
43
0.0000001000
44
0.0000000001
12
0.4919103736
22
6.6387802972
32
0.0000000000
13
-0.4919101361
23
-6.6387803148
33
0.0000000000
40
0.0000000000
40
0.0000000000
40
0.0000000000
40
0.0000000000
40
0.0545819636
40
0.1099506455
40
0.1654837020
40
0.2205528119
40
0.2745573773
40
0.3269566022
40
0.3773099044
40
0.4253147211
40
0.4708478104
40
0.5140021897
40
0.5551173202
40
0.5947771164
40
0.6337660272
40
0.6729680898
40
0.7132353386
40
0.7552656881
40
0.7995288698
40
0.8462438922
40
0.8953974193
40
0.9467751158
40
1.0000000000
40
1.0000000000
40
1.0000000000
40
1.0000000000
10
-23.6877357674
20
29.9796225262
30
0.0000000000
10
-23.6787859560
20
30.1004084144
30
0.0000000000
10
-23.6743870065
20
30.3449179412
30
0.0000000000
10
-23.7068463980
20
30.7113300516
30
0.0000000000
10
-23.7775559175
20
31.0734607293
30
0.0000000000
10
-23.8849691478
20
31.4232886784
30
0.0000000000
10
-24.0267461230
20
31.7531479982
30
0.0000000000
10
-24.1998217835
20
32.0557954382
30
0.0000000000
10
-24.4004850637
20
32.3245838691
30
0.0000000000
10
-24.6244812277
20
32.5535808210
30
0.0000000000
10
-24.8671072759
20
32.7376444979
30
0.0000000000
10
-25.1232778655
20
32.8724605809
30
0.0000000000
10
-25.3875053018
20
32.9545708813
30
0.0000000000
10
-25.6538075871
20
32.9815139448
30
0.0000000000
10
-25.9156981032
20
32.9521757320
30
0.0000000000
10
-26.1665317491
20
32.8671891995
30
0.0000000000
10
-26.4001190322
20
32.7289655204
30
0.0000000000
10
-26.6111451361
20
32.5412803270
30
0.0000000000
10
-26.7951741393
20
32.3088249473
30
0.0000000000
10
-26.9484923850
20
32.0370020197
30
0.0000000000
10
-27.0680212321
20
31.7318628300
30
0.0000000000
10
-27.1513274050
20
31.4001675624
30
0.0000000000
10
-27.1811530383
20
31.1693844217
30
0.0000000000
10
-27.1898803250
20
31.0516016506
30
0.0000000000
11
-23.6877357674
21
29.9796225262
31
0.0000000000
11
-23.6808173225
21
30.3429076817
31
0.0000000000
11
-23.7131689991
21
30.7100733486
31
0.0000000000
11
-23.7840693204
21
31.0728932017
31
0.0000000000
11
-23.8919328617
21
31.4232595548
31
0.0000000000
11
-24.0343523638
21
31.7533537592
31
0.0000000000
11
-24.2081446517
21
32.0557972044
31
0.0000000000
11
-24.4094282576
21
32.3238355651
31
0.0000000000
11
-24.6337065426
21
32.5514808555
31
0.0000000000
11
-24.8759712076
21
32.7336490040
31
0.0000000000
11
-25.1308060819
21
32.8662677761
31
0.0000000000
11
-25.3925226786
21
32.9463772753
31
0.0000000000
11
-25.6552725390
21
32.9721870824
31
0.0000000000
11
-25.9131882400
21
32.9431206347
31
0.0000000000
11
-26.1605061963
21
32.8598273001
31
0.0000000000
11
-26.3917024684
21
32.7241677445
31
0.0000000000
11
-26.6016123148
21
32.5391726026
31
0.0000000000
11
-26.7855476590
21
32.3089731731
31
0.0000000000
11
-26.9393974161
21
32.0387151307
31
0.0000000000
11
-27.0597279177
21
31.7344297460
31
0.0000000000
11
-27.1438493544
21
31.4029158549
31
0.0000000000
11
-27.1898803250
21
31.0516016506
31
0.0000000000
0
SPLINE
5
330
100
AcDbEntity
8
0
100
AcDbSpline
62
9
6
CONTINUOUS
70
0
71
3
72
18
73
14
74
12
42
0.0000001000
43
0.0000001000
44
0.0000000001
12
-0.2630815681
22
-3.5505280478
32
0.0000000000
13
3.4043505919
23
-1.0420452854
33
0.0000000000
40
0.0000000000
40
0.0000000000
40
0.0000000000
40
0.0000000000
40
0.0973766238
40
0.1961379961
40
0.2953012539
40
0.3937912987
40
0.4906757206
40
0.5849930996
40
0.6760339567
40
0.7631821595
40
0.8461745884
40
0.9249838413
40
1.0000000000
40
1.0000000000
40
1.0000000000
40
1.0000000000
10
-27.1898803250
20
31.0516016506
30
0.0000000000
10
-27.1984196566
20
30.9363555059
30
0.0000000000
10
-27.2032116072
20
30.7031413794
30
0.0000000000
10
-27.1747621614
20
30.3532882039
30
0.0000000000
10
-27.1113410647
20
30.0066784400
30
0.0000000000
10
-27.0142046979
20
29.6702851981
30
0.0000000000
10
-26.8853057992
20
29.3508949545
30
0.0000000000
10
-26.7271717865
20
29.0548529684
30
0.0000000000
10
-26.5429376247
20
28.7881440912
30
0.0000000000
10
-26.3361696321
20
28.5560848749
30
0.0000000000
10
-26.1108532678
20
28.3634135664
30
0.0000000000
10
-25.8714181763
20
28.2141636459
30
0.0000000000
10
-25.7015751399
20
28.1442547015
30
0.0000000000
10
-25.6164480385
20
28.1181979567
30
0.0000000000
11
-27.1898803250
21
31.0516016506
31
0.0000000000
11
-27.1973391082
21
30.7049956596
31
0.0000000000
11
-27.1690045015
21
30.3545228724
31
0.0000000000
11
-27.1054343281
21
30.0072461784
31
0.0000000000
11
-27.0079575550
21
29.6704169696
31
0.0000000000
11
-26.8785019847
21
29.3506973593
31
0.0000000000
11
-26.7197787161
21
29.0547837117
31
0.0000000000
11
-26.5349291931
21
28.7885311532
31
0.0000000000
11
-26.3278175191
21
28.5575063372
31
0.0000000000
11
-26.1025555497
21
28.3662934497
31
0.0000000000
11
-25.8638250644
21
28.2188697163
31
0.0000000000
11
-25.6164480385
21
28.1181979567
31
0.0000000000
0
SPLINE
5
331
100
AcDbEntity
8
0
100
AcDbSpline
62
9
6
CONTINUOUS
70
0
71
3
72
18
73
14
74
12
42
0.0000001000
43
0.0000001000
44
0.0000000001
12
0.2870879082
22
3.8745138356
32
0.0000000000
13
-3.7149976558
23
1.1371320707
33
0.0000000000
40
0.0000000000
40
0.0000000000
40
0.0000000000
40
0.0000000000
40
0.0973766722
40
0.1961380189
40
0.2953012812
40
0.3937913267
40
0.4906757441
40
0.5849931199
40
0.6760339747
40
0.7631821718
40
0.8461746296
40
0.9249838045
40
1.0000000000
40
1.0000000000
40
1.0000000000
40
1.0000000000
10
-23.3236570985
20
29.9653488876
30
0.0000000000
10
-23.3143385435
20
30.0911113088
30
0.0000000000
10
-23.3091099446
20
30.3456062505
30
0.0000000000
10
-23.3401542512
20
30.7273836626
30
0.0000000000
10
-23.4093632064
20
31.1056214582
30
0.0000000000
10
-23.5153630209
20
31.4727106401
30
0.0000000000
10
-23.6560240548
20
31.8212452181
30
0.0000000000
10
-23.8285877829
20
32.1443010246
30
0.0000000000
10
-24.0296332788
20
32.4353471300
30
0.0000000000
10
-24.2552689968
20
32.6885816149
30
0.0000000000
10
-24.5011450868
20
32.8988346322
30
0.0000000000
10
-24.7624291874
20
33.0617026475
30
0.0000000000
10
-24.9477700737
20
33.1379913717
30
0.0000000000
10
-25.0406650705
20
33.1664258123
30
0.0000000000
11
-23.3236570985
21
29.9653488876
31
0.0000000000
11
-23.3155179672
21
30.3435828802
31
0.0000000000
11
-23.3464376004
21
30.7260362615
31
0.0000000000
11
-23.4158087786
21
31.1050019417
31
0.0000000000
11
-23.5221802774
21
31.4725668388
31
0.0000000000
11
-23.6634486968
21
31.8214608450
31
0.0000000000
11
-23.8366554670
21
32.1443766099
31
0.0000000000
11
-24.0383725091
21
32.4349247161
31
0.0000000000
11
-24.2643831280
21
32.6870305253
31
0.0000000000
11
-24.5102002369
21
32.8956917952
31
0.0000000000
11
-24.7707148761
21
33.0565673895
31
0.0000000000
11
-25.0406650705
21
33.1664258123
31
0.0000000000
0
SPLINE
5
332
100
AcDbEntity
8
0
100
AcDbSpline
62
9
6
CONTINUOUS
70
0
71
3
72
18
73
14
74
12
42
0.0000001000
43
0.0000001000
44
0.0000000001
12
2.9616343661
22
-0.9065332859
32
0.0000000000
13
0.2288694328
23
3.0888022759
33
0.0000000000
40
0.0000000000
40
0.0000000000
40
0.0000000000
40
0.0000000000
40
0.0827521388
40
0.1633126033
40
0.2432671878
40
0.3242551265
40
0.4078224909
40
0.4951270738
40
0.5869650889
40
0.6836152839
40
0.7850263126
40
0.8907217149
40
1.0000000000
40
1.0000000000
40
1.0000000000
40
1.0000000000
10
-25.6164480385
20
28.1181979567
30
0.0000000000
10
-25.5347541791
20
28.0931921005
30
0.0000000000
10
-25.3685845664
20
28.0582489097
30
0.0000000000
10
-25.1157969040
20
28.0557541806
30
0.0000000000
10
-24.8694443410
20
28.1043748861
30
0.0000000000
10
-24.6352451217
20
28.2029897374
30
0.0000000000
10
-24.4183037491
20
28.3490792476
30
0.0000000000
10
-24.2229878905
20
28.5391645228
30
0.0000000000
10
-24.0530338418
20
28.7690155180
30
0.0000000000
10
-23.9115652756
20
29.0338559600
30
0.0000000000
10
-23.8012188104
20
29.3283004516
30
0.0000000000
10
-23.7240489167
20
29.6464187394
30
0.0000000000
10
-23.6960725871
20
29.8671095210
30
0.0000000000
10
-23.6877357673
20
29.9796225262
30
0.0000000000
11
-25.6164480385
21
28.1181979567
31
0.0000000000
11
-25.3654470826
21
28.0663217998
31
0.0000000000
11
-25.1159377520
21
28.0643026513
31
0.0000000000
11
-24.8729710352
21
28.1121900491
31
0.0000000000
11
-24.6415611507
21
28.2089935883
31
0.0000000000
11
-24.4263410389
21
28.3527768443
31
0.0000000000
11
-24.2317715716
21
28.5405587626
31
0.0000000000
11
-24.0617378723
21
28.7685910062
31
0.0000000000
11
-23.9197707368
21
29.0321375780
31
0.0000000000
11
-23.8087022672
21
29.3259418064
31
0.0000000000
11
-23.7308352639
21
29.6439135100
31
0.0000000000
11
-23.6877357673
21
29.9796225262
31
0.0000000000
0
SPLINE
5
333
100
AcDbEntity
8
0
100
AcDbSpline
62
9
6
CONTINUOUS
70
0
71
3
72
10
73
6
74
4
42
0.0000001000
43
0.0000001000
44
0.0000000001
12
0.6435669888
22
0.1092575760
32
0.0000000000
13
0.6230296064
23
-0.1907045474
33
0.0000000000
40
0.0000000000
40
0.0000000000
40
0.0000000000
40
0.0000000000
40
0.1134446219
40
0.5506844873
40
1.0000000000
40
1.0000000000
40
1.0000000000
40
1.0000000000
10
-25.6858239511
20
33.2122472844
30
0.0000000000
10
-25.6614875466
20
33.2163788458
30
0.0000000000
10
-25.5428032927
20
33.2331458462
30
0.0000000000
10
-25.3240447699
20
33.2341200612
30
0.0000000000
10
-25.1339773595
20
33.1949879828
30
0.0000000000
10
-25.0406650705
20
33.1664258123
30
0.0000000000
11
-25.6858239511
21
33.2122472844
31
0.0000000000
11
-25.6125124204
21
33.2225982682
31
0.0000000000
11
-25.3276287495
21
33.2243798868
31
0.0000000000
11
-25.0406650705
21
33.1664258123
31
0.0000000000
0
SPLINE
5
334
100
AcDbEntity
8
0
100
AcDbSpline
62
7
6
CONTINUOUS
70
0
71
3
72
10
73
6
74
4
42
0.0000001000
43
0.0000001000
44
0.0000000001
12
0.0572089892
22
0.0178187297
32
0.0000000000
13
0.0571147147
23
-0.0174823707
33
0.0000000000
40
0.0000000000
40
0.0000000000
40
0.0000000000
40
0.0000000000
40
0.1332055791
40
0.5560765999
40
1.0000000000
40
1.0000000000
40
1.0000000000
40
1.0000000000
10
-11.0975917172
20
42.3083238488
30
0.0000000000
10
-11.0950515317
20
42.3091150335
30
0.0000000000
10
-11.0843044046
20
42.3119528424
30
0.0000000000
10
-11.0642101142
20
42.3134248647
30
0.0000000000
10
-11.0470564663
20
42.3101774585
30
0.0000000000
10
-11.0386049468
20
42.3075905140
30
0.0000000000
11
-11.0975917172
21
42.3083238488
31
0.0000000000
11
-11.0898781896
21
42.3103587328
31
0.0000000000
11
-11.0646959729
21
42.3123173020
31
0.0000000000
11
-11.0386049468
21
42.3075905140
31
0.0000000000
0
SPLINE
5
335
100
AcDbEntity
8
0
100
AcDbSpline
62
7
6
CONTINUOUS
70
0
71
3
72
11
73
7
74
5
42
0.0000001000
43
0.0000001000
44
0.0000000001
12
-0.0243832924
22
-0.0420936944
32
0.0000000000
13
-0.0537952998
23
0.0067913298
33
0.0000000000
40
0.0000000000
40
0.0000000000
40
0.0000000000
40
0.0000000000
40
0.0580274448
40
0.2467053638
40
0.5637946316
40
1.0000000000
40
1.0000000000
40
1.0000000000
40
1.0000000000
10
-7.3000011996
20
43.1306104481
30
0.0000000000
10
-7.3004728330
20
43.1297962516
30
0.0000000000
10
-7.3048537984
20
43.1264030200
30
0.0000000000
10
-7.3150262337
20
43.1278999748
30
0.0000000000
10
-7.3320612990
20
43.1276842591
30
0.0000000000
10
-7.3455901960
20
43.1295688868
30
0.0000000000
10
-7.3534121288
20
43.1305563583
30
0.0000000000
11
-7.3000011996
21
43.1306104481
31
0.0000000000
11
-7.3025376111
21
43.1284239754
31
0.0000000000
11
-7.3127122652
21
43.1273560185
31
0.0000000000
11
-7.3298904876
21
43.1280760361
31
0.0000000000
11
-7.3534121288
21
43.1305563583
31
0.0000000000
0
SPLINE
5
336
100
AcDbEntity
8
0
100
AcDbSpline
62
7
6
CONTINUOUS
70
0
71
3
72
11
73
7
74
5
42
0.0000001000
43
0.0000001000
44
0.0000000001
12
-0.0243832924
22
-0.0420936944
32
0.0000000000
13
-0.0537952998
23
0.0067913298
33
0.0000000000
40
0.0000000000
40
0.0000000000
40
0.0000000000
40
0.0000000000
40
0.0580274448
40
0.2467053638
40
0.5637946316
40
1.0000000000
40
1.0000000000
40
1.0000000000
40
1.0000000000
10
-11.3340339507
20
44.3653965536
30
0.0000000000
10
-11.3345055841
20
44.3645823571
30
0.0000000000
10
-11.3388865495
20
44.3611891256
30
0.0000000000
10
-11.3490589848
20
44.3626860804
30
0.0000000000
10
-11.3660940501
20
44.3624703647
30
0.0000000000
10
-11.3796229471
20
44.3643549924
30
0.0000000000
10
-11.3874448799
20
44.3653424639
30
0.0000000000
11
-11.3340339507
21
44.3653965536
31
0.0000000000
11
-11.3365703622
21
44.3632100810
31
0.0000000000
11
-11.3467450163
21
44.3621421241
31
0.0000000000
11
-11.3639232387
21
44.3628621417
31
0.0000000000
11
-11.3874448799
21
44.3653424639
31
0.0000000000
0
SPLINE
5
337
100
AcDbEntity
8
0
100
AcDbSpline
62
7
6
CONTINUOUS
70
0
71
3
72
9
73
5
74
3
42
0.0000001000
43
0.0000001000
44
0.0000000001
12
-0.0672701101
22
0.0205917758
32
0.0000000000
13
-0.0697630307
23
0.0088071588
33
0.0000000000
40
0.0000000000
40
0.0000000000
40
0.0000000000
40
0.0000000000
40
0.3662194975
40
1.0000000000
40
1.0000000000
40
1.0000000000
40
1.0000000000
10
-9.2836930215
20
44.4182871709
30
0.0000000000
10
-9.2919048968
20
44.4208008742
30
0.0000000000
10
-9.3145507931
20
44.4269577600
30
0.0000000000
10
-9.3376656645
20
44.4311423345
30
0.0000000000
10
-9.3524038140
20
44.4330029363
30
0.0000000000
11
-9.2836930215
21
44.4182871709
31
0.0000000000
11
-9.3085545318
21
44.4250458975
31
0.0000000000
11
-9.3524038140
21
44.4330029363
31
0.0000000000
0
SPLINE
5
338
100
AcDbEntity
8
0
100
AcDbSpline
62
7
6
CONTINUOUS
70
0
71
3
72
15
73
11
74
9
42
0.0000001000
43
0.0000001000
44
0.0000000001
12
-0.2805881642
22
0.0354225510
32
0.0000000000
13
-0.2704302320
23
0.0827765945
33
0.0000000000
40
0.0000000000
40
0.0000000000
40
0.0000000000
40
0.0000000000
40
0.1034466744
40
0.2228317706
40
0.3536299578
40
0.4908618955
40
0.6292945069
40
0.7636474975
40
0.8888011727
40
1.0000000000
40
1.0000000000
40
1.0000000000
40
1.0000000000
10
-10.6874450328
20
44.6015437793
30
0.0000000000
10
-10.6971203370
20
44.6027652277
30
0.0000000000
10
-10.7179112732
20
44.6057957339
30
0.0000000000
10
-10.7507735881
20
44.6114159553
30
0.0000000000
10
-10.7866453221
20
44.6182906761
30
0.0000000000
10
-10.8241483595
20
44.6261598767
30
0.0000000000
10
-10.8618425464
20
44.6347240118
30
0.0000000000
10
-10.8982809357
20
44.6436531482
30
0.0000000000
10
-10.9320649360
20
44.6526016859
30
0.0000000000
10
-10.9534751217
20
44.6587823216
30
0.0000000000
10
-10.9634989633
20
44.6618505417
30
0.0000000000
11
-10.6874450328
21
44.6015437793
31
0.0000000000
11
-10.7164061693
21
44.6056890888
31
0.0000000000
11
-10.7496938409
21
44.6113400838
31
0.0000000000
11
-10.7860288210
21
44.6182795995
31
0.0000000000
11
-10.8240147767
21
44.6262409543
31
0.0000000000
11
-10.8621919291
21
44.6349181978
31
0.0000000000
11
-10.8990931515
21
44.6439778684
31
0.0000000000
11
-10.9333003507
21
44.6530718080
31
0.0000000000
11
-10.9634989633
21
44.6618505417
31
0.0000000000
0
SPLINE
5
339
100
AcDbEntity
8
0
100
AcDbSpline
62
7
6
CONTINUOUS
70
0
71
3
72
10
73
6
74
4
42
0.0000001000
43
0.0000001000
44
0.0000000001
12
0.1476897780
22
0.0459461594
32
0.0000000000
13
0.1534536503
23
-0.0193725911
33
0.0000000000
40
0.0000000000
40
0.0000000000
40
0.0000000000
40
0.0000000000
40
0.3437965344
40
0.6760799292
40
1.0000000000
40
1.0000000000
40
1.0000000000
40
1.0000000000
10
-17.2129012598
20
45.6774741553
30
0.0000000000
10
-17.1959761819
20
45.6827395321
30
0.0000000000
10
-17.1619859325
20
45.6910048756
30
0.0000000000
10
-17.1105252273
20
45.6961535296
30
0.0000000000
10
-17.0765783865
20
45.6945201457
30
0.0000000000
10
-17.0600094807
20
45.6924284220
30
0.0000000000
11
-17.2129012598
21
45.6774741553
31
0.0000000000
11
-17.1611998977
21
45.6899084332
31
0.0000000000
11
-17.1100491653
21
45.6949114601
31
0.0000000000
11
-17.0600094807
21
45.6924284220
31
0.0000000000
0
SPLINE
5
33A
100
AcDbEntity
8
0
100
AcDbSpline
62
7
6
CONTINUOUS
70
0
71
3
72
12
73
8
74
6
42
0.0000001000
43
0.0000001000
44
0.0000000001
12
-0.0642995414
22
0.0196815904
32
0.0000000000
13
0.0302391790
23
0.0522029077
33
0.0000000000
40
0.0000000000
40
0.0000000000
40
0.0000000000
40
0.0000000000
40
0.3913432418
40
0.6918873342
40
0.8914348284
40
0.9879553043
40
1.0000000000
40
1.0000000000
40
1.0000000000
40
1.0000000000
10
-5.3724711153
20
42.9504803252
30
0.0000000000
10
-5.3808588456
20
42.9530477443
30
0.0000000000
10
-5.3953182808
20
42.9576828687
30
0.0000000000
10
-5.4150948291
20
42.9649247519
30
0.0000000000
10
-5.4252380510
20
42.9698460975
30
0.0000000000
10
-5.4338000818
20
42.9746627991
30
0.0000000000
10
-5.4330395389
20
42.9765615402
30
0.0000000000
10
-5.4329181317
20
42.9767711296
30
0.0000000000
11
-5.3724711153
21
42.9504803252
31
0.0000000000
11
-5.3975006254
21
42.9586064911
31
0.0000000000
11
-5.4163991631
21
42.9657678052
31
0.0000000000
11
-5.4284404681
21
42.9716890623
31
0.0000000000
11
-5.4331617998
21
42.9761427117
31
0.0000000000
11
-5.4329181317
21
42.9767711296
31
0.0000000000
0
SPLINE
5
33B
100
AcDbEntity
8
0
100
AcDbSpline
62
7
6
CONTINUOUS
70
0
71
3
72
13
73
9
74
7
42
0.0000001000
43
0.0000001000
44
0.0000000001
12
-0.0021969514
22
1.0129906647
32
0.0000000000
13
0.9672665664
23
0.3009157737
33
0.0000000000
40
0.0000000000
40
0.0000000000
40
0.0000000000
40
0.0000000000
40
0.1760483328
40
0.3563721346
40
0.5343011143
40
0.7035614107
40
0.8594270308
40
1.0000000000
40
1.0000000000
40
1.0000000000
40
1.0000000000
10
-18.0692451074
20
44.7447829443
30
0.0000000000
10
-18.0693740306
20
44.8042280502
30
0.0000000000
10
-18.0577252384
20
44.9248134480
30
0.0000000000
10
-18.0089453131
20
45.0993938397
30
0.0000000000
10
-17.9316369627
20
45.2609216678
30
0.0000000000
10
-17.8306180200
20
45.3988763728
30
0.0000000000
10
-17.7122489754
20
45.5043262252
30
0.0000000000
10
-17.6214735222
20
45.5503676857
30
0.0000000000
10
-17.5761496778
20
45.5644678936
30
0.0000000000
11
-18.0692451074
21
44.7447829443
31
0.0000000000
11
-18.0527678300
21
44.9223558433
31
0.0000000000
11
-18.0037114039
21
45.0983121201
31
0.0000000000
11
-17.9254189433
21
45.2606606450
31
0.0000000000
11
-17.8232259502
21
45.3983376346
31
0.0000000000
11
-17.7040967080
21
45.5019606294
31
0.0000000000
11
-17.5761496778
21
45.5644678936
31
0.0000000000
0
SPLINE
5
33C
100
AcDbEntity
8
0
100
AcDbSpline
62
7
6
CONTINUOUS
70
0
71
3
72
15
73
11
74
9
42
0.0000001000
43
0.0000001000
44
0.0000000001
12
0.2610209508
22
-0.0798964865
32
0.0000000000
13
0.0179636342
23
-0.2723833570
33
0.0000000000
40
0.0000000000
40
0.0000000000
40
0.0000000000
40
0.0000000000
40
0.1041344753
40
0.2163658345
40
0.3365858850
40
0.4637173768
40
0.5959749751
40
0.7311083041
40
0.8666246673
40
1.0000000000
40
1.0000000000
40
1.0000000000
40
1.0000000000
10
-16.6059469854
20
44.0117106882
30
0.0000000000
10
-16.5968865588
20
44.0089373620
30
0.0000000000
10
-16.5787056664
20
44.0009346222
30
0.0000000000
10
-16.5534837544
20
43.9832908003
30
0.0000000000
10
-16.5300904886
20
43.9602175858
30
0.0000000000
10
-16.5092877408
20
43.9325012820
30
0.0000000000
10
-16.4917422492
20
43.9010666406
30
0.0000000000
10
-16.4780329019
20
43.8669609356
30
0.0000000000
10
-16.4686154589
20
43.8313324862
30
0.0000000000
10
-16.4653626078
20
43.8070015009
30
0.0000000000
10
-16.4645639726
20
43.7948917606
30
0.0000000000
11
-16.6059469854
21
44.0117106882
31
0.0000000000
11
-16.5798418118
21
44.0004606247
31
0.0000000000
11
-16.5546176376
21
43.9830730506
31
0.0000000000
11
-16.5311394000
21
43.9601441860
31
0.0000000000
11
-16.5102121682
21
43.9324602621
31
0.0000000000
11
-16.4925535374
21
43.9009705612
31
0.0000000000
11
-16.4787690222
21
43.8667548655
31
0.0000000000
11
-16.4693312940
21
43.8309864319
31
0.0000000000
11
-16.4645639726
21
43.7948917606
31
0.0000000000
0
SPLINE
5
33D
100
AcDbEntity
8
0
100
AcDbSpline
62
7
6
CONTINUOUS
70
0
71
3
72
15
73
11
74
9
42
0.0000001000
43
0.0000001000
44
0.0000000001
12
-0.2805881642
22
0.0354225510
32
0.0000000000
13
-0.2704302320
23
0.0827765945
33
0.0000000000
40
0.0000000000
40
0.0000000000
40
0.0000000000
40
0.0000000000
40
0.1034466744
40
0.2228317706
40
0.3536299578
40
0.4908618955
40
0.6292945069
40
0.7636474975
40
0.8888011727
40
1.0000000000
40
1.0000000000
40
1.0000000000
40
1.0000000000
10
-9.3037914930
20
43.3767799038
30
0.0000000000
10
-9.3134667972
20
43.3780013521
30
0.0000000000
10
-9.3342577334
20
43.3810318584
30
0.0000000000
10
-9.3671200482
20
43.3866520798
30
0.0000000000
10
-9.4029917822
20
43.3935268005
30
0.0000000000
10
-9.4404948197
20
43.4013960011
30
0.0000000000
10
-9.4781890066
20
43.4099601363
30
0.0000000000
10
-9.5146273959
20
43.4188892726
30
0.0000000000
10
-9.5484113961
20
43.4278378104
30
0.0000000000
10
-9.5698215819
20
43.4340184461
30
0.0000000000
10
-9.5798454235
20
43.4370866662
30
0.0000000000
11
-9.3037914930
21
43.3767799038
31
0.0000000000
11
-9.3327526295
21
43.3809252133
31
0.0000000000
11
-9.3660403011
21
43.3865762082
31
0.0000000000
11
-9.4023752812
21
43.3935157239
31
0.0000000000
11
-9.4403612369
21
43.4014770788
31
0.0000000000
11
-9.4785383892
21
43.4101543223
31
0.0000000000
11
-9.5154396117
21
43.4192139929
31
0.0000000000
11
-9.5496468109
21
43.4283079325
31
0.0000000000
11
-9.5798454235
21
43.4370866662
31
0.0000000000
0
SPLINE
5
33E
100
AcDbEntity
8
0
100
AcDbSpline
62
7
6
CONTINUOUS
70
0
71
3
72
15
73
11
74
9
42
0.0000001000
43
0.0000001000
44
0.0000000001
12
-0.2805881642
22
0.0354225510
32
0.0000000000
13
-0.2704302320
23
0.0827765945
33
0.0000000000
40
0.0000000000
40
0.0000000000
40
0.0000000000
40
0.0000000000
40
0.1034466744
40
0.2228317706
40
0.3536299578
40
0.4908618955
40
0.6292945069
40
0.7636474975
40
0.8888011727
40
1.0000000000
40
1.0000000000
40
1.0000000000
40
1.0000000000
10
-13.3378242441
20
44.6115660093
30
0.0000000000
10
-13.3474995482
20
44.6127874577
30
0.0000000000
10
-13.3682904845
20
44.6158179640
30
0.0000000000
10
-13.4011527993
20
44.6214381853
30
0.0000000000
10
-13.4370245333
20
44.6283129061
30
0.0000000000
10
-13.4745275708
20
44.6361821067
30
0.0000000000
10
-13.5122217577
20
44.6447462419
30
0.0000000000
10
-13.5486601470
20
44.6536753782
30
0.0000000000
10
-13.5824441472
20
44.6626239160
30
0.0000000000
10
-13.6038543330
20
44.6688045517
30
0.0000000000
10
-13.6138781746
20
44.6718727718
30
0.0000000000
11
-13.3378242441
21
44.6115660093
31
0.0000000000
11
-13.3667853806
21
44.6157113189
31
0.0000000000
11
-13.4000730522
21
44.6213623138
31
0.0000000000
11
-13.4364080323
21
44.6283018295
31
0.0000000000
11
-13.4743939880
21
44.6362631843
31
0.0000000000
11
-13.5125711403
21
44.6449404278
31
0.0000000000
11
-13.5494723628
21
44.6540000985
31
0.0000000000
11
-13.5836795620
21
44.6630940381
31
0.0000000000
11
-13.6138781746
21
44.6718727718
31
0.0000000000
0
SPLINE
5
33F
100
AcDbEntity
8
0
100
AcDbSpline
62
7
6
CONTINUOUS
70
0
71
3
72
12
73
8
74
6
42
0.0000001000
43
0.0000001000
44
0.0000000001
12
-0.0642995414
22
0.0196815904
32
0.0000000000
13
0.0302391790
23
0.0522029077
33
0.0000000000
40
0.0000000000
40
0.0000000000
40
0.0000000000
40
0.0000000000
40
0.3913432418
40
0.6918873342
40
0.8914348284
40
0.9879553043
40
1.0000000000
40
1.0000000000
40
1.0000000000
40
1.0000000000
10
-11.6322480512
20
44.0653111760
30
0.0000000000
10
-11.6406357816
20
44.0678785952
30
0.0000000000
10
-11.6550952168
20
44.0725137195
30
0.0000000000
10
-11.6748717650
20
44.0797556027
30
0.0000000000
10
-11.6850149869
20
44.0846769483
30
0.0000000000
10
-11.6935770177
20
44.0894936499
30
0.0000000000
10
-11.6928164748
20
44.0913923911
30
0.0000000000
10
-11.6926950676
20
44.0916019804
30
0.0000000000
11
-11.6322480512
21
44.0653111760
31
0.0000000000
11
-11.6572775614
21
44.0734373419
31
0.0000000000
11
-11.6761760990
21
44.0805986561
31
0.0000000000
11
-11.6882174040
21
44.0865199131
31
0.0000000000
11
-11.6929387358
21
44.0909735625
31
0.0000000000
11
-11.6926950676
21
44.0916019804
31
0.0000000000
0
SPLINE
5
340
100
AcDbEntity
8
0
100
AcDbSpline
62
7
6
CONTINUOUS
70
0
71
3
72
12
73
8
74
6
42
0.0000001000
43
0.0000001000
44
0.0000000001
12
-0.0642995414
22
0.0196815904
32
0.0000000000
13
0.0302391790
23
0.0522029077
33
0.0000000000
40
0.0000000000
40
0.0000000000
40
0.0000000000
40
0.0000000000
40
0.3913432418
40
0.6918873342
40
0.8914348284
40
0.9879553043
40
1.0000000000
40
1.0000000000
40
1.0000000000
40
1.0000000000
10
-15.6662808023
20
45.3000972816
30
0.0000000000
10
-15.6746685327
20
45.3026647008
30
0.0000000000
10
-15.6891279678
20
45.3072998251
30
0.0000000000
10
-15.7089045161
20
45.3145417083
30
0.0000000000
10
-15.7190477380
20
45.3194630539
30
0.0000000000
10
-15.7276097688
20
45.3242797555
30
0.0000000000
10
-15.7268492259
20
45.3261784966
30
0.0000000000
10
-15.7267278187
20
45.3263880860
30
0.0000000000
11
-15.6662808023
21
45.3000972816
31
0.0000000000
11
-15.6913103125
21
45.3082234475
31
0.0000000000
11
-15.7102088501
21
45.3153847617
31
0.0000000000
11
-15.7222501551
21
45.3213060187
31
0.0000000000
11
-15.7269714869
21
45.3257596681
31
0.0000000000
11
-15.7267278187
21
45.3263880860
31
0.0000000000
0
SPLINE
5
341
100
AcDbEntity
8
0
100
AcDbSpline
62
7
6
CONTINUOUS
70
0
71
3
72
11
73
7
74
5
42
0.0000001000
43
0.0000001000
44
0.0000000001
12
0.0243832924
22
0.0420936944
32
0.0000000000
13
0.0537952998
23
-0.0067913298
33
0.0000000000
40
0.0000000000
40
0.0000000000
40
0.0000000000
40
0.0000000000
40
0.0580274448
40
0.2467053638
40
0.5637946316
40
1.0000000000
40
1.0000000000
40
1.0000000000
40
1.0000000000
10
-5.4329181317
20
42.9767711296
30
0.0000000000
10
-5.4324464983
20
42.9775853261
30
0.0000000000
10
-5.4280655328
20
42.9809785577
30
0.0000000000
10
-5.4178930975
20
42.9794816029
30
0.0000000000
10
-5.4008580323
20
42.9796973186
30
0.0000000000
10
-5.3873291353
20
42.9778126908
30
0.0000000000
10
-5.3795072024
20
42.9768252193
30
0.0000000000
11
-5.4329181317
21
42.9767711296
31
0.0000000000
11
-5.4303817202
21
42.9789576022
31
0.0000000000
11
-5.4202070660
21
42.9800255592
31
0.0000000000
11
-5.4030288436
21
42.9793055416
31
0.0000000000
11
-5.3795072024
21
42.9768252193
31
0.0000000000
0
SPLINE
5
342
100
AcDbEntity
8
0
100
AcDbSpline
62
7
6
CONTINUOUS
70
0
71
3
72
11
73
7
74
5
42
0.0000001000
43
0.0000001000
44
0.0000000001
12
0.0243832924
22
0.0420936944
32
0.0000000000
13
0.0537952998
23
-0.0067913298
33
0.0000000000
40
0.0000000000
40
0.0000000000
40
0.0000000000
40
0.0000000000
40
0.0580274448
40
0.2467053638
40
0.5637946316
40
1.0000000000
40
1.0000000000
40
1.0000000000
40
1.0000000000
10
-15.7267278187
20
45.3263880860
30
0.0000000000
10
-15.7262561853
20
45.3272022825
30
0.0000000000
10
-15.7218752199
20
45.3305955141
30
0.0000000000
10
-15.7117027846
20
45.3290985593
30
0.0000000000
10
-15.6946677193
20
45.3293142750
30
0.0000000000
10
-15.6811388223
20
45.3274296472
30
0.0000000000
10
-15.6733168895
20
45.3264421757
30
0.0000000000
11
-15.7267278187
21
45.3263880860
31
0.0000000000
11
-15.7241914072
21
45.3285745586
31
0.0000000000
11
-15.7140167531
21
45.3296425156
31
0.0000000000
11
-15.6968385307
21
45.3289224980
31
0.0000000000
11
-15.6733168895
21
45.3264421757
31
0.0000000000
0
SPLINE
5
343
100
AcDbEntity
8
0
100
AcDbSpline
62
7
6
CONTINUOUS
70
0
71
3
72
12
73
8
74
6
42
0.0000001000
43
0.0000001000
44
0.0000000001
12
0.0642995414
22
-0.0196815904
32
0.0000000000
13
-0.0302391790
23
-0.0522029077
33
0.0000000000
40
0.0000000000
40
0.0000000000
40
0.0000000000
40
0.0000000000
40
0.3913432418
40
0.6918873342
40
0.8914348284
40
0.9879553043
40
1.0000000000
40
1.0000000000
40
1.0000000000
40
1.0000000000
10
-7.3604482160
20
43.1569012524
30
0.0000000000
10
-7.3520604856
20
43.1543338333
30
0.0000000000
10
-7.3376010505
20
43.1496987090
30
0.0000000000
10
-7.3178245022
20
43.1424568258
30
0.0000000000
10
-7.3076812803
20
43.1375354802
30
0.0000000000
10
-7.2991192495
20
43.1327187786
30
0.0000000000
10
-7.2998797924
20
43.1308200374
30
0.0000000000
10
-7.3000011996
20
43.1306104481
30
0.0000000000
11
-7.3604482160
21
43.1569012524
31
0.0000000000
11
-7.3354187058
21
43.1487750865
31
0.0000000000
11
-7.3165201682
21
43.1416137724
31
0.0000000000
11
-7.3044788632
21
43.1356925154
31
0.0000000000
11
-7.2997575314
21
43.1312388659
31
0.0000000000
11
-7.3000011996
21
43.1306104481
31
0.0000000000
0
SPLINE
5
344
100
AcDbEntity
8
0
100
AcDbSpline
62
7
6
CONTINUOUS
70
0
71
3
72
12
73
8
74
6
42
0.0000001000
43
0.0000001000
44
0.0000000001
12
0.0642995414
22
-0.0196815904
32
0.0000000000
13
-0.0302391790
23
-0.0522029077
33
0.0000000000
40
0.0000000000
40
0.0000000000
40
0.0000000000
40
0.0000000000
40
0.3913432418
40
0.6918873342
40
0.8914348284
40
0.9879553043
40
1.0000000000
40
1.0000000000
40
1.0000000000
40
1.0000000000
10
-11.3944809671
20
44.3916873580
30
0.0000000000
10
-11.3860932367
20
44.3891199389
30
0.0000000000
10
-11.3716338015
20
44.3844848145
30
0.0000000000
10
-11.3518572533
20
44.3772429314
30
0.0000000000
10
-11.3417140314
20
44.3723215857
30
0.0000000000
10
-11.3331520006
20
44.3675048842
30
0.0000000000
10
-11.3339125435
20
44.3656061430
30
0.0000000000
10
-11.3340339507
20
44.3653965536
30
0.0000000000
11
-11.3944809671
21
44.3916873580
31
0.0000000000
11
-11.3694514569
21
44.3835611921
31
0.0000000000
11
-11.3505529193
21
44.3763998780
31
0.0000000000
11
-11.3385116143
21
44.3704786209
31
0.0000000000
11
-11.3337902825
21
44.3660249715
31
0.0000000000
11
-11.3340339507
21
44.3653965536
31
0.0000000000
0
SPLINE
5
345
100
AcDbEntity
8
0
100
AcDbSpline
62
7
6
CONTINUOUS
70
0
71
3
72
15
73
11
74
9
42
0.0000001000
43
0.0000001000
44
0.0000000001
12
0.2805881642
22
-0.0354225510
32
0.0000000000
13
0.2704302320
23
-0.0827765945
33
0.0000000000
40
0.0000000000
40
0.0000000000
40
0.0000000000
40
0.0000000000
40
0.1034466744
40
0.2228317706
40
0.3536299578
40
0.4908618955
40
0.6292945069
40
0.7636474975
40
0.8888011727
40
1.0000000000
40
1.0000000000
40
1.0000000000
40
1.0000000000
10
-9.6889047742
20
43.8454325247
30
0.0000000000
10
-9.6792294701
20
43.8442110764
30
0.0000000000
10
-9.6584385338
20
43.8411805701
30
0.0000000000
10
-9.6255762190
20
43.8355603487
30
0.0000000000
10
-9.5897044850
20
43.8286856280
30
0.0000000000
10
-9.5522014475
20
43.8208164274
30
0.0000000000
10
-9.5145072606
20
43.8122522922
30
0.0000000000
10
-9.4780688713
20
43.8033231559
30
0.0000000000
10
-9.4442848711
20
43.7943746181
30
0.0000000000
10
-9.4228746853
20
43.7881939824
30
0.0000000000
10
-9.4128508437
20
43.7851257623
30
0.0000000000
11
-9.6889047742
21
43.8454325247
31
0.0000000000
11
-9.6599436377
21
43.8412872152
31
0.0000000000
11
-9.6266559661
21
43.8356362203
31
0.0000000000
11
-9.5903209860
21
43.8286967046
31
0.0000000000
11
-9.5523350303
21
43.8207353497
31
0.0000000000
11
-9.5141578780
21
43.8120581062
31
0.0000000000
11
-9.4772566555
21
43.8029984356
31
0.0000000000
11
-9.4430494563
21
43.7939044960
31
0.0000000000
11
-9.4128508437
21
43.7851257623
31
0.0000000000
0
SPLINE
5
346
100
AcDbEntity
8
0
100
AcDbSpline
62
7
6
CONTINUOUS
70
0
71
3
72
15
73
11
74
9
42
0.0000001000
43
0.0000001000
44
0.0000000001
12
0.2805881642
22
-0.0354225510
32
0.0000000000
13
0.2704302320
23
-0.0827765945
33
0.0000000000
40
0.0000000000
40
0.0000000000
40
0.0000000000
40
0.0000000000
40
0.1034466744
40
0.2228317706
40
0.3536299578
40
0.4908618955
40
0.6292945069
40
0.7636474975
40
0.8888011727
40
1.0000000000
40
1.0000000000
40
1.0000000000
40
1.0000000000
10
-13.7229375253
20
45.0802186303
30
0.0000000000
10
-13.7132622211
20
45.0789971820
30
0.0000000000
10
-13.6924712849
20
45.0759666757
30
0.0000000000
10
-13.6596089701
20
45.0703464543
30
0.0000000000
10
-13.6237372361
20
45.0634717335
30
0.0000000000
10
-13.5862341986
20
45.0556025329
30
0.0000000000
10
-13.5485400117
20
45.0470383978
30
0.0000000000
10
-13.5121016224
20
45.0381092614
30
0.0000000000
10
-13.4783176222
20
45.0291607237
30
0.0000000000
10
-13.4569074364
20
45.0229800880
30
0.0000000000
10
-13.4468835948
20
45.0199118679
30
0.0000000000
11
-13.7229375253
21
45.0802186303
31
0.0000000000
11
-13.6939763888
21
45.0760733208
31
0.0000000000
11
-13.6606887172
21
45.0704223258
31
0.0000000000
11
-13.6243537371
21
45.0634828101
31
0.0000000000
11
-13.5863677814
21
45.0555214553
31
0.0000000000
11
-13.5481906291
21
45.0468442118
31
0.0000000000
11
-13.5112894066
21
45.0377845412
31
0.0000000000
11
-13.4770822074
21
45.0286906016
31
0.0000000000
11
-13.4468835948
21
45.0199118679
31
0.0000000000
0
SPLINE
5
347
100
AcDbEntity
8
0
100
AcDbSpline
62
7
6
CONTINUOUS
70
0
71
3
72
10
73
6
74
4
42
0.0000001000
43
0.0000001000
44
0.0000000001
12
0.1476897780
22
0.0459461594
32
0.0000000000
13
0.1534536503
23
-0.0193725911
33
0.0000000000
40
0.0000000000
40
0.0000000000
40
0.0000000000
40
0.0000000000
40
0.3437965344
40
0.6760799292
40
1.0000000000
40
1.0000000000
40
1.0000000000
40
1.0000000000
10
-8.7202007312
20
43.0779244593
30
0.0000000000
10
-8.7032756532
20
43.0831898361
30
0.0000000000
10
-8.6692854038
20
43.0914551796
30
0.0000000000
10
-8.6178246987
20
43.0966038337
30
0.0000000000
10
-8.5838778579
20
43.0949704497
30
0.0000000000
10
-8.5673089521
20
43.0928787261
30
0.0000000000
11
-8.7202007312
21
43.0779244593
31
0.0000000000
11
-8.6684993691
21
43.0903587372
31
0.0000000000
11
-8.6173486367
21
43.0953617642
31
0.0000000000
11
-8.5673089521
21
43.0928787261
31
0.0000000000
0
SPLINE
5
348
100
AcDbEntity
8
0
100
AcDbSpline
62
7
6
CONTINUOUS
70
0
71
3
72
11
73
7
74
5
42
0.0000001000
43
0.0000001000
44
0.0000000001
12
0.0243832924
22
0.0420936944
32
0.0000000000
13
0.0537952998
23
-0.0067913298
33
0.0000000000
40
0.0000000000
40
0.0000000000
40
0.0000000000
40
0.0000000000
40
0.0580274448
40
0.2467053638
40
0.5637946316
40
1.0000000000
40
1.0000000000
40
1.0000000000
40
1.0000000000
10
-11.6926950676
20
44.0916019804
30
0.0000000000
10
-11.6922234342
20
44.0924161769
30
0.0000000000
10
-11.6878424688
20
44.0958094085
30
0.0000000000
10
-11.6776700335
20
44.0943124537
30
0.0000000000
10
-11.6606349682
20
44.0945281694
30
0.0000000000
10
-11.6471060712
20
44.0926435417
30
0.0000000000
10
-11.6392841384
20
44.0916560701
30
0.0000000000
11
-11.6926950676
21
44.0916019804
31
0.0000000000
11
-11.6901586561
21
44.0937884531
31
0.0000000000
11
-11.6799840020
21
44.0948564100
31
0.0000000000
11
-11.6628057796
21
44.0941363924
31
0.0000000000
11
-11.6392841384
21
44.0916560701
31
0.0000000000
0
SPLINE
5
349
100
AcDbEntity
8
0
100
AcDbSpline
62
7
6
CONTINUOUS
70
0
71
3
72
13
73
9
74
7
42
0.0000001000
43
0.0000001000
44
0.0000000001
12
-0.0021969514
22
1.0129906647
32
0.0000000000
13
0.9672665664
23
0.3009157737
33
0.0000000000
40
0.0000000000
40
0.0000000000
40
0.0000000000
40
0.0000000000
40
0.1760483328
40
0.3563721346
40
0.5343011143
40
0.7035614107
40
0.8594270308
40
1.0000000000
40
1.0000000000
40
1.0000000000
40
1.0000000000
10
-9.5765445788
20
42.1452332484
30
0.0000000000
10
-9.5766735020
20
42.2046783543
30
0.0000000000
10
-9.5650247098
20
42.3252637521
30
0.0000000000
10
-9.5162447845
20
42.4998441438
30
0.0000000000
10
-9.4389364341
20
42.6613719718
30
0.0000000000
10
-9.3379174914
20
42.7993266769
30
0.0000000000
10
-9.2195484468
20
42.9047765292
30
0.0000000000
10
-9.1287729935
20
42.9508179897
30
0.0000000000
10
-9.0834491491
20
42.9649181976
30
0.0000000000
11
-9.5765445788
21
42.1452332484
31
0.0000000000
11
-9.5600673014
21
42.3228061474
31
0.0000000000
11
-9.5110108753
21
42.4987624241
31
0.0000000000
11
-9.4327184147
21
42.6611109491
31
0.0000000000
11
-9.3305254215
21
42.7987879386
31
0.0000000000
11
-9.2113961794
21
42.9024109334
31
0.0000000000
11
-9.0834491491
21
42.9649181976
31
0.0000000000
0
SPLINE
5
34A
100
AcDbEntity
8
0
100
AcDbSpline
62
7
6
CONTINUOUS
70
0
71
3
72
13
73
9
74
7
42
0.0000001000
43
0.0000001000
44
0.0000000001
12
0.0105031544
22
0.1635861923
32
0.0000000000
13
0.1570032410
23
0.0489013764
33
0.0000000000
40
0.0000000000
40
0.0000000000
40
0.0000000000
40
0.0000000000
40
0.2046173239
40
0.3964140865
40
0.5745790398
40
0.7401819051
40
0.8964442275
40
1.0000000000
40
1.0000000000
40
1.0000000000
40
1.0000000000
10
-11.1792347086
20
42.1770935073
30
0.0000000000
10
-11.1785183329
20
42.1882510302
30
0.0000000000
10
-11.1756197388
20
42.2098138922
30
0.0000000000
10
-11.1664772118
20
42.2400041718
30
0.0000000000
10
-11.1529053130
20
42.2661503431
30
0.0000000000
10
-11.1352595412
20
42.2873313279
30
0.0000000000
10
-11.1162176456
20
42.3011284289
30
0.0000000000
10
-11.1030112478
20
42.3066358421
30
0.0000000000
10
-11.0975917172
20
42.3083238488
30
0.0000000000
11
-11.1792347086
21
42.1770935073
31
0.0000000000
11
-11.1746177201
21
42.2103157142
31
0.0000000000
11
-11.1653227038
21
42.2403502001
31
0.0000000000
11
-11.1516683860
21
42.2661670821
31
0.0000000000
11
-11.1341229734
21
42.2868810986
31
0.0000000000
11
-11.1132880985
21
42.3017819659
31
0.0000000000
11
-11.0975917172
21
42.3083238488
31
0.0000000000
0
SPLINE
5
34B
100
AcDbEntity
8
0
100
AcDbSpline
62
9
6
CONTINUOUS
70
0
71
3
72
8
73
4
74
2
42
0.0000001000
43
0.0000001000
44
0.0000000001
12
-0.0176189759
22
0.0054001360
32
0.0000000000
13
-0.0173795159
23
0.0061212110
33
0.0000000000
40
0.0000000000
40
0.0000000000
40
0.0000000000
40
0.0000000000
40
1.0000000000
40
1.0000000000
40
1.0000000000
40
1.0000000000
10
-30.7480689470
20
3.8064435020
30
0.0000000000
10
-30.7539419389
20
3.8082435473
30
0.0000000000
10
-30.7597775191
20
3.8101647975
30
0.0000000000
10
-30.7655706911
20
3.8122052011
30
0.0000000000
11
-30.7480689470
21
3.8064435020
31
0.0000000000
11
-30.7655706911
21
3.8122052011
31
0.0000000000
0
SPLINE
5
34C
100
AcDbEntity
8
0
100
AcDbSpline
62
7
6
CONTINUOUS
70
0
71
3
72
15
73
11
74
9
42
0.0000001000
43
0.0000001000
44
0.0000000001
12
0.4124888130
22
-0.1262596232
32
0.0000000000
13
-0.0318763456
23
-0.4302004323
33
0.0000000000
40
0.0000000000
40
0.0000000000
40
0.0000000000
40
0.0000000000
40
0.1040477399
40
0.2155865307
40
0.3350529184
40
0.4617052105
40
0.5939070168
40
0.7294168904
40
0.8656618540
40
1.0000000000
40
1.0000000000
40
1.0000000000
40
1.0000000000
10
-5.0226235195
20
33.8162271541
30
0.0000000000
10
-5.0083173433
20
33.8118481446
30
0.0000000000
10
-4.9797799197
20
33.7988786024
30
0.0000000000
10
-4.9411017961
20
33.7696315531
30
0.0000000000
10
-4.9064943330
20
33.7312154744
30
0.0000000000
10
-4.8771974850
20
33.6851109265
30
0.0000000000
10
-4.8542393544
20
33.6330413900
30
0.0000000000
10
-4.8384563227
20
33.5769451714
30
0.0000000000
10
-4.8304268476
20
33.5189326221
30
0.0000000000
10
-4.8304465094
20
33.4798702207
30
0.0000000000
10
-4.8318739125
20
33.4606061112
30
0.0000000000
11
-5.0226235195
21
33.8162271541
31
0.0000000000
11
-4.9816217906
21
33.7979668187
31
0.0000000000
11
-4.9430228286
21
33.7692400183
31
0.0000000000
11
-4.9083101323
21
33.7311490153
31
0.0000000000
11
-4.8788184958
21
33.6851571402
31
0.0000000000
11
-4.8556817661
21
33.6330321002
31
0.0000000000
11
-4.8397890819
21
33.5767777479
31
0.0000000000
11
-4.8317505741
21
33.5185567397
31
0.0000000000
11
-4.8318739125
21
33.4606061112
31
0.0000000000
0
SPLINE
5
34D
100
AcDbEntity
8
0
100
AcDbSpline
62
7
6
CONTINUOUS
70
0
71
3
72
14
73
10
74
8
42
0.0000001000
43
0.0000001000
44
0.0000000001
12
-0.0227116731
22
-0.3065147955
32
0.0000000000
13
-0.3054323101
23
-0.0420697175
33
0.0000000000
40
0.0000000000
40
0.0000000000
40
0.0000000000
40
0.0000000000
40
0.1824234775
40
0.3559080732
40
0.5186649323
40
0.6703415904
40
0.8123838610
40
0.9481465110
40
1.0000000000
40
1.0000000000
40
1.0000000000
40
1.0000000000
10
-7.3303870343
20
-0.2591131241
30
0.0000000000
10
-7.3317680818
20
-0.2777516224
30
0.0000000000
10
-7.3370593829
20
-0.3139924524
30
0.0000000000
10
-7.3529485207
20
-0.3649454986
30
0.0000000000
10
-7.3761159442
20
-0.4095780083
30
0.0000000000
10
-7.4058233944
20
-0.4461769118
30
0.0000000000
10
-7.4411106274
20
-0.4732287088
30
0.0000000000
10
-7.4727800756
20
-0.4861705189
30
0.0000000000
10
-7.4917359621
20
-0.4898280220
30
0.0000000000
10
-7.4970152057
20
-0.4905551759
30
0.0000000000
11
-7.3303870343
21
-0.2591131241
31
0.0000000000
11
-7.3386665930
21
-0.3145672232
31
0.0000000000
11
-7.3547851787
21
-0.3653939851
31
0.0000000000
11
-7.3781246038
21
-0.4096397355
31
0.0000000000
11
-7.4077883935
21
-0.4456029461
31
0.0000000000
11
-7.4426364534
21
-0.4719008998
31
0.0000000000
11
-7.4813290760
21
-0.4875230564
31
0.0000000000
11
-7.4970152057
21
-0.4905551759
31
0.0000000000
0
SPLINE
5
34E
100
AcDbEntity
8
0
100
AcDbSpline
62
9
6
CONTINUOUS
70
0
71
3
72
8
73
4
74
2
42
0.0000001000
43
0.0000001000
44
0.0000000001
12
0.0766158485
22
0.0152194151
32
0.0000000000
13
0.0740378971
23
-0.0220315659
33
0.0000000000
40
0.0000000000
40
0.0000000000
40
0.0000000000
40
0.0000000000
40
1.0000000000
40
1.0000000000
40
1.0000000000
40
1.0000000000
10
-28.0995665909
20
37.8034458787
30
0.0000000000
10
-28.0740279747
20
37.8085190171
30
0.0000000000
10
-28.0469435643
20
37.8067733176
30
0.0000000000
10
-28.0222642653
20
37.7994294623
30
0.0000000000
11
-28.0995665909
21
37.8034458787
31
0.0000000000
11
-28.0222642653
21
37.7994294623
31
0.0000000000
0
SPLINE
5
34F
100
AcDbEntity
8
0
100
AcDbSpline
62
9
6
CONTINUOUS
70
0
71
3
72
10
73
6
74
4
42
0.0000001000
43
0.0000001000
44
0.0000000001
12
-0.0230917251
22
-0.0872740328
32
0.0000000000
13
0.1032333934
23
-0.0314991995
33
0.0000000000
40
0.0000000000
40
0.0000000000
40
0.0000000000
40
0.0000000000
40
0.0246540012
40
0.3521024725
40
1.0000000000
40
1.0000000000
40
1.0000000000
40
1.0000000000
10
-28.8610750083
20
36.8034095749
30
0.0000000000
10
-28.8612647761
20
36.8026923569
30
0.0000000000
10
-28.8629924235
20
36.7924342213
30
0.0000000000
10
-28.8240640022
20
36.7637942992
30
0.0000000000
10
-28.7950692246
20
36.7556592691
30
0.0000000000
10
-28.7727743378
20
36.7488565179
30
0.0000000000
11
-28.8610750083
21
36.8034095749
31
0.0000000000
11
-28.8614310430
21
36.8012566728
31
0.0000000000
11
-28.8375500408
21
36.7752034895
31
0.0000000000
11
-28.7727743378
21
36.7488565179
31
0.0000000000
0
SPLINE
5
350
100
AcDbEntity
8
0
100
AcDbSpline
62
9
6
CONTINUOUS
70
0
71
3
72
8
73
4
74
2
42
0.0000001000
43
0.0000001000
44
0.0000000001
12
0.0938800762
22
0.0441990464
32
0.0000000000
13
0.0967371923
23
0.0375090860
33
0.0000000000
40
0.0000000000
40
0.0000000000
40
0.0000000000
40
0.0000000000
40
1.0000000000
40
1.0000000000
40
1.0000000000
40
1.0000000000
10
-25.7891686680
20
33.1914394156
30
0.0000000000
10
-25.7578753092
20
33.2061724310
30
0.0000000000
10
-25.7260706619
20
33.2198235014
30
0.0000000000
10
-25.6938249312
20
33.2323265301
30
0.0000000000
11
-25.7891686680
21
33.1914394156
31
0.0000000000
11
-25.6938249312
21
33.2323265301
31
0.0000000000
0
SPLINE
5
351
100
AcDbEntity
8
0
100
AcDbSpline
62
9
6
CONTINUOUS
70
0
71
3
72
8
73
4
74
2
42
0.0000001000
43
0.0000001000
44
0.0000000001
12
0.0465622458
22
0.0180541449
32
0.0000000000
13
0.0471518902
23
0.0164361915
33
0.0000000000
40
0.0000000000
40
0.0000000000
40
0.0000000000
40
0.0000000000
40
1.0000000000
40
1.0000000000
40
1.0000000000
40
1.0000000000
10
-25.6938249312
20
33.2323265301
30
0.0000000000
10
-25.6783041826
20
33.2383445784
30
0.0000000000
10
-25.6626812456
20
33.2440966531
30
0.0000000000
10
-25.6469639488
20
33.2495753836
30
0.0000000000
11
-25.6938249312
21
33.2323265301
31
0.0000000000
11
-25.6469639488
21
33.2495753836
31
0.0000000000
0
SPLINE
5
352
100
AcDbEntity
8
0
100
AcDbSpline
62
9
6
CONTINUOUS
70
0
71
3
72
9
73
5
74
3
42
0.0000001000
43
0.0000001000
44
0.0000000001
12
0.2216368103
22
0.0772580917
32
0.0000000000
13
0.2314983017
23
0.0391325918
33
0.0000000000
40
0.0000000000
40
0.0000000000
40
0.0000000000
40
0.0000000000
40
0.5482607768
40
1.0000000000
40
1.0000000000
40
1.0000000000
40
1.0000000000
10
-25.6469639488
20
33.2495753836
30
0.0000000000
10
-25.6064590256
20
33.2636945774
30
0.0000000000
10
-25.5314370544
20
33.2861360962
30
0.0000000000
10
-25.4547760107
20
33.3021185145
30
0.0000000000
10
-25.4199170564
20
33.3080110900
30
0.0000000000
11
-25.6469639488
21
33.2495753836
31
0.0000000000
11
-25.5237031286
21
33.2863606462
31
0.0000000000
11
-25.4199170564
21
33.3080110900
31
0.0000000000
0
SPLINE
5
353
100
AcDbEntity
8
0
100
AcDbSpline
62
9
6
CONTINUOUS
70
0
71
3
72
23
73
19
74
17
42
0.0000001000
43
0.0000001000
44
0.0000000001
12
0.7539166389
22
8.0654182171
32
0.0000000000
13
-0.7533361267
23
-8.0654724595
33
0.0000000000
40
0.0000000000
40
0.0000000000
40
0.0000000000
40
0.0000000000
40
0.0697246097
40
0.1362131609
40
0.1988577703
40
0.2574294445
40
0.3123504227
40
0.3646899408
40
0.4161533731
40
0.4686643763
40
0.5239023401
40
0.5829519813
40
0.6461819095
40
0.7133115184
40
0.7834793013
40
0.8555428016
40
0.9281446099
40
1.0000000000
40
1.0000000000
40
1.0000000000
40
1.0000000000
10
-27.3191075811
20
31.2131523046
30
0.0000000000
10
-27.3015854000
20
31.4006050172
30
0.0000000000
10
-27.2410094816
20
31.7650470435
30
0.0000000000
10
-27.0704563214
20
32.2766655011
30
0.0000000000
10
-26.8276289376
20
32.7249063911
30
0.0000000000
10
-26.5204049450
20
33.0926976595
30
0.0000000000
10
-26.1590807432
20
33.3647208443
30
0.0000000000
10
-25.7570355234
20
33.5278306489
30
0.0000000000
10
-25.3317636497
20
33.5730415953
30
0.0000000000
10
-24.9030917830
20
33.4985340693
30
0.0000000000
10
-24.4894167854
20
33.3096652516
30
0.0000000000
10
-24.1060596429
20
33.0161163884
30
0.0000000000
10
-23.7661659992
20
32.6301777533
30
0.0000000000
10
-23.4814852698
20
32.1668215369
30
0.0000000000
10
-23.2619781897
20
31.6436461853
30
0.0000000000
10
-23.1153822213
20
31.0804135237
30
0.0000000000
10
-23.0467340657
20
30.4980718897
30
0.0000000000
10
-23.0547135631
20
30.1065600132
30
0.0000000000
10
-23.0727573168
20
29.9133774566
30
0.0000000000
11
-27.3191075811
21
31.2131523046
31
0.0000000000
11
-27.2248319555
21
31.7700383099
31
0.0000000000
11
-27.0522334742
21
32.2802295238
31
0.0000000000
11
-26.8077730075
21
32.7249229352
31
0.0000000000
11
-26.5008995281
21
33.0867863625
31
0.0000000000
11
-26.1434975008
21
33.3517248067
31
0.0000000000
11
-25.7498644180
21
33.5092440910
31
0.0000000000
11
-25.3353313514
21
33.5534506698
31
0.0000000000
11
-24.9158686607
21
33.4828090633
31
0.0000000000
11
-24.5074278399
21
33.3000632488
31
0.0000000000
11
-24.1254967701
21
33.0120802764
31
0.0000000000
11
-23.7846597991
21
32.6297480527
31
0.0000000000
11
-23.4979819286
21
32.1676637920
31
0.0000000000
11
-23.2766384943
21
31.6441323457
31
0.0000000000
11
-23.1288636932
21
31.0793902208
31
0.0000000000
11
-23.0600816712
21
30.4953096029
31
0.0000000000
11
-23.0727573168
21
29.9133774566
31
0.0000000000
0
SPLINE
5
354
100
AcDbEntity
8
0
100
AcDbSpline
62
9
6
CONTINUOUS
70
0
71
3
72
23
73
19
74
17
42
0.0000001000
43
0.0000001000
44
0.0000000001
12
-0.7536715172
22
-8.0582876525
32
0.0000000000
13
0.7520649190
23
8.0584377520
33
0.0000000000
40
0.0000000000
40
0.0000000000
40
0.0000000000
40
0.0000000000
40
0.0701333563
40
0.1368507244
40
0.1993147635
40
0.2574699850
40
0.3119194548
40
0.3638851969
40
0.4151288603
40
0.4675858197
40
0.5228934099
40
0.5820518097
40
0.6453362321
40
0.7124114718
40
0.7825132105
40
0.8546595523
40
0.9276548661
40
1.0000000000
40
1.0000000000
40
1.0000000000
40
1.0000000000
10
-23.0727573168
20
29.9133774566
30
0.0000000000
10
-23.0903764878
20
29.7249925371
30
0.0000000000
10
-23.1509225267
20
29.3591487668
30
0.0000000000
10
-23.3209153515
20
28.8465560994
30
0.0000000000
10
-23.5620576078
20
28.3990704132
30
0.0000000000
10
-23.8662870545
20
28.0331092344
30
0.0000000000
10
-24.2240881759
20
27.7627303103
30
0.0000000000
10
-24.6230646094
20
27.6006575943
30
0.0000000000
10
-25.0462666774
20
27.5560127770
30
0.0000000000
10
-25.4739242368
20
27.6306783843
30
0.0000000000
10
-25.8876228666
20
27.8191769250
30
0.0000000000
10
-26.2719448957
20
28.1116878252
30
0.0000000000
10
-26.6135780456
20
28.4958095555
30
0.0000000000
10
-26.9007468205
20
28.9568236743
30
0.0000000000
10
-27.1234292455
20
29.4780068669
30
0.0000000000
10
-27.2734542134
20
30.0409892218
30
0.0000000000
10
-27.3447273172
20
30.6251920575
30
0.0000000000
10
-27.3372436602
20
31.0188227185
30
0.0000000000
10
-27.3191075811
20
31.2131523046
30
0.0000000000
11
-23.0727573168
21
29.9133774566
31
0.0000000000
11
-23.1671866749
21
29.3536660003
31
0.0000000000
11
-23.3395085860
21
28.8419266837
31
0.0000000000
11
-23.5821784896
21
28.3984269256
31
0.0000000000
11
-23.8858332880
21
28.0388016873
31
0.0000000000
11
-24.2394197411
21
27.7757820631
31
0.0000000000
11
-24.6298113271
21
27.6193084904
31
0.0000000000
11
-25.0422308542
21
27.5755135630
31
0.0000000000
11
-25.4608657173
21
27.6461846278
31
0.0000000000
11
-25.8696281534
21
27.8286276453
31
0.0000000000
11
-26.2527483737
21
28.1157937701
31
0.0000000000
11
-26.5953742427
21
28.4965111885
31
0.0000000000
11
-26.8843181260
21
28.9560977109
31
0.0000000000
11
-27.1085816371
21
29.4772591619
31
0.0000000000
11
-27.2596189682
21
30.0413002513
31
0.0000000000
11
-27.3310384597
21
30.6277517556
31
0.0000000000
11
-27.3191075811
21
31.2131523046
31
0.0000000000
0
SPLINE
5
355
100
AcDbEntity
8
0
100
AcDbSpline
62
9
6
CONTINUOUS
70
0
71
3
72
10
73
6
74
4
42
0.0000001000
43
0.0000001000
44
0.0000000001
12
-0.0112203749
22
-0.0985603578
32
0.0000000000
13
0.1065537998
23
-0.0327155205
33
0.0000000000
40
0.0000000000
40
0.0000000000
40
0.0000000000
40
0.0000000000
40
0.0182786681
40
0.3673358254
40
1.0000000000
40
1.0000000000
40
1.0000000000
40
1.0000000000
10
-31.2426553462
20
4.6649165784
30
0.0000000000
10
-31.2427237107
20
4.6643160611
30
0.0000000000
10
-31.2434750057
20
4.6522514536
30
0.0000000000
10
-31.2094976114
20
4.6202738240
30
0.0000000000
10
-31.1770835663
20
4.6108298895
30
0.0000000000
10
-31.1546126424
20
4.6039305769
30
0.0000000000
11
-31.2426553462
21
4.6649165784
31
0.0000000000
11
-31.2427657154
21
4.6631161765
31
0.0000000000
11
-31.2192529631
21
4.6321177258
31
0.0000000000
11
-31.1546126424
21
4.6039305769
31
0.0000000000
0
SPLINE
5
356
100
AcDbEntity
8
0
100
AcDbSpline
62
9
6
CONTINUOUS
70
0
71
3
72
8
73
4
74
2
42
0.0000001000
43
0.0000001000
44
0.0000000001
12
-0.0176189759
22
0.0054001360
32
0.0000000000
13
-0.0173795159
23
0.0061212110
33
0.0000000000
40
0.0000000000
40
0.0000000000
40
0.0000000000
40
0.0000000000
40
1.0000000000
40
1.0000000000
40
1.0000000000
40
1.0000000000
10
-30.7480689470
20
3.8064435020
30
0.0000000000
10
-30.7539419389
20
3.8082435473
30
0.0000000000
10
-30.7597775191
20
3.8101647975
30
0.0000000000
10
-30.7655706911
20
3.8122052011
30
0.0000000000
11
-30.7480689470
21
3.8064435020
31
0.0000000000
11
-30.7655706911
21
3.8122052011
31
0.0000000000
0
SPLINE
5
357
100
AcDbEntity
8
0
100
AcDbSpline
62
9
6
CONTINUOUS
70
0
71
3
72
8
73
4
74
2
42
0.0000001000
43
0.0000001000
44
0.0000000001
12
-0.0222882087
22
0.0078500937
32
0.0000000000
13
-0.0218381128
23
0.0090129120
33
0.0000000000
40
0.0000000000
40
0.0000000000
40
0.0000000000
40
0.0000000000
40
1.0000000000
40
1.0000000000
40
1.0000000000
40
1.0000000000
10
-30.7655706911
20
3.8122052011
30
0.0000000000
10
-30.7730000940
20
3.8148218990
30
0.0000000000
10
-30.7803597500
20
3.8176345633
30
0.0000000000
10
-30.7876391209
20
3.8206388673
30
0.0000000000
11
-30.7655706911
21
3.8122052011
31
0.0000000000
11
-30.7876391209
21
3.8206388673
31
0.0000000000
0
SPLINE
5
358
100
AcDbEntity
8
0
100
AcDbSpline
62
9
6
CONTINUOUS
70
0
71
3
72
13
73
9
74
7
42
0.0000001000
43
0.0000001000
44
0.0000000001
12
-0.8513580834
22
0.3513680685
32
0.0000000000
13
0.0423920093
23
0.9161750635
33
0.0000000000
40
0.0000000000
40
0.0000000000
40
0.0000000000
40
0.0000000000
40
0.0446038682
40
0.2062699845
40
0.3804052585
40
0.5710987488
40
0.7784258750
40
1.0000000000
40
1.0000000000
40
1.0000000000
40
1.0000000000
10
-30.7876391209
20
3.8206388673
30
0.0000000000
10
-30.8002970755
20
3.8258629923
30
0.0000000000
10
-30.8577109820
20
3.8527016011
30
0.0000000000
10
-30.9518345830
20
3.9241544133
30
0.0000000000
10
-31.0483693969
20
4.0552293088
30
0.0000000000
10
-31.1164780983
20
4.2178336288
30
0.0000000000
10
-31.1540301220
20
4.4045317623
30
0.0000000000
10
-31.1577436352
20
4.5362636804
30
0.0000000000
10
-31.1546126444
20
4.6039305765
30
0.0000000000
11
-30.7876391209
21
3.8206388673
31
0.0000000000
11
-30.8248293007
21
3.8380268785
31
0.0000000000
11
-30.9437622048
21
3.9265696778
31
0.0000000000
11
-31.0399877792
21
4.0540358759
31
0.0000000000
11
-31.1091596426
21
4.2146711912
31
0.0000000000
11
-31.1479602937
21
4.4008216069
31
0.0000000000
11
-31.1546126444
21
4.6039305765
31
0.0000000000
0
SPLINE
5
359
100
AcDbEntity
8
0
100
AcDbSpline
62
9
6
CONTINUOUS
70
0
71
3
72
11
73
7
74
5
42
0.0000001000
43
0.0000001000
44
0.0000000001
12
0.0262511885
22
0.4279320749
32
0.0000000000
13
-0.4089383570
23
0.1287804559
33
0.0000000000
40
0.0000000000
40
0.0000000000
40
0.0000000000
40
0.0000000000
40
0.2712994850
40
0.5401243154
40
0.7864402702
40
1.0000000000
40
1.0000000000
40
1.0000000000
40
1.0000000000
10
-11.0608593451
20
32.3104410326
30
0.0000000000
10
-11.0584853671
20
32.3491402831
30
0.0000000000
10
-11.0648723255
20
32.4271849324
30
0.0000000000
10
-11.1031595056
20
32.5342458819
30
0.0000000000
10
-11.1651293640
20
32.6199054360
30
0.0000000000
10
-11.2224980287
20
32.6568946359
30
0.0000000000
10
-11.2516089503
20
32.6660620757
30
0.0000000000
11
-11.0608593451
21
32.3104410326
31
0.0000000000
11
-11.0699244340
21
32.4264032420
31
0.0000000000
11
-11.1093557542
21
32.5347032414
31
0.0000000000
11
-11.1731535107
21
32.6188589677
31
0.0000000000
11
-11.2516089503
21
32.6660620757
31
0.0000000000
0
SPLINE
5
35A
100
AcDbEntity
8
0
100
AcDbSpline
62
9
6
CONTINUOUS
70
0
71
3
72
14
73
10
74
8
42
0.0000001000
43
0.0000001000
44
0.0000000001
12
-1.3533622390
22
-0.2535302265
32
0.0000000000
13
-0.1401794763
23
-1.3697505759
33
0.0000000000
40
0.0000000000
40
0.0000000000
40
0.0000000000
40
0.0000000000
40
0.1181203347
40
0.2465643542
40
0.3856392671
40
0.5335998203
40
0.6878235801
40
0.8445638833
40
1.0000000000
40
1.0000000000
40
1.0000000000
40
1.0000000000
10
-11.2516089521
20
32.6660620754
30
0.0000000000
10
-11.3048954857
20
32.6560797170
30
0.0000000000
10
-11.4133900784
20
32.6188811559
30
0.0000000000
10
-11.5635798295
20
32.5228126230
30
0.0000000000
10
-11.7014599105
20
32.3894724320
30
0.0000000000
10
-11.8211282860
20
32.2249806265
30
0.0000000000
10
-11.9174529531
20
32.0367515984
30
0.0000000000
10
-11.9861743697
20
31.8332599361
30
0.0000000000
10
-12.0118477255
20
31.6916546775
30
0.0000000000
10
-12.0191107100
20
31.6206851074
30
0.0000000000
11
-11.2516089521
21
32.6660620754
31
0.0000000000
11
-11.4059858377
21
32.6148791054
31
0.0000000000
11
-11.5558874428
21
32.5210320620
31
0.0000000000
11
-11.6944235598
21
32.3888303875
31
0.0000000000
11
-11.8149883388
21
32.2246077655
31
0.0000000000
11
-11.9121406034
21
32.0357835834
31
0.0000000000
11
-11.9812429748
21
31.8313291485
31
0.0000000000
11
-12.0191107100
21
31.6206851074
31
0.0000000000
0
SPLINE
5
35B
100
AcDbEntity
8
0
100
AcDbSpline
62
9
6
CONTINUOUS
70
0
71
3
72
14
73
10
74
8
42
0.0000001000
43
0.0000001000
44
0.0000000001
12
-0.9490153060
22
-0.1754989595
32
0.0000000000
13
-0.0984388935
23
-0.9600727681
33
0.0000000000
40
0.0000000000
40
0.0000000000
40
0.0000000000
40
0.0000000000
40
0.1180199830
40
0.2468217057
40
0.3862173410
40
0.5343950211
40
0.6886871391
40
0.8453785281
40
1.0000000000
40
1.0000000000
40
1.0000000000
40
1.0000000000
10
-11.0608593451
20
32.3104410326
30
0.0000000000
10
-11.0981936019
20
32.3035369045
30
0.0000000000
10
-11.1744035724
20
32.2777295326
30
0.0000000000
10
-11.2801105549
20
32.2107134139
30
0.0000000000
10
-11.3772949323
20
32.1173890580
30
0.0000000000
10
-11.4616034308
20
32.0021543849
30
0.0000000000
10
-11.5293906036
20
31.8702664103
30
0.0000000000
10
-11.5776153010
20
31.7279163317
30
0.0000000000
10
-11.5955839461
20
31.6289393810
30
0.0000000000
10
-11.6006575349
20
31.5794567595
30
0.0000000000
11
-11.0608593451
21
32.3104410326
31
0.0000000000
11
-11.1690956290
21
32.2749652626
31
0.0000000000
11
-11.2747186590
21
32.2094206983
31
0.0000000000
11
-11.3723663883
21
32.1168806023
31
0.0000000000
11
-11.4573031255
21
32.0018292729
31
0.0000000000
11
-11.5256636876
21
31.8695397861
31
0.0000000000
11
-11.5742132354
21
31.7263211161
31
0.0000000000
11
-11.6006575349
21
31.5794567595
31
0.0000000000
0
SPLINE
5
35C
100
AcDbEntity
8
0
100
AcDbSpline
62
9
6
CONTINUOUS
70
0
71
3
72
9
73
5
74
3
42
0.0000001000
43
0.0000001000
44
0.0000000001
12
-0.4566381029
22
-0.0770364135
32
0.0000000000
13
-0.4568402367
23
0.0751674813
33
0.0000000000
40
0.0000000000
40
0.0000000000
40
0.0000000000
40
0.0000000000
40
0.5967656321
40
1.0000000000
40
1.0000000000
40
1.0000000000
40
1.0000000000
10
-24.6087887532
20
27.8671357816
30
0.0000000000
10
-24.6996240619
20
27.8518115536
30
0.0000000000
10
-24.8544556703
20
27.8413833468
30
0.0000000000
10
-25.0082872509
20
27.8568104000
30
0.0000000000
10
-25.0696918122
20
27.8669137706
30
0.0000000000
11
-24.6087887532
21
27.8671357816
31
0.0000000000
11
-24.8840642881
21
27.8485729763
31
0.0000000000
11
-25.0696918122
21
27.8669137706
31
0.0000000000
0
SPLINE
5
35D
100
AcDbEntity
8
0
100
AcDbSpline
62
9
6
CONTINUOUS
70
0
71
3
72
11
73
7
74
5
42
0.0000001000
43
0.0000001000
44
0.0000000001
12
-0.4200264274
22
-0.0457049063
32
0.0000000000
13
-0.4038940976
23
0.1240189342
33
0.0000000000
40
0.0000000000
40
0.0000000000
40
0.0000000000
40
0.0000000000
40
0.2283076944
40
0.4964166945
40
0.7663984923
40
1.0000000000
40
1.0000000000
40
1.0000000000
40
1.0000000000
10
-11.6006575349
20
31.5794567595
30
0.0000000000
10
-11.6326226233
20
31.5759784989
30
0.0000000000
10
-11.7027104796
20
31.5741233535
30
0.0000000000
10
-11.8105400602
20
31.5805432171
30
0.0000000000
10
-11.9182902454
20
31.5954191502
30
0.0000000000
10
-11.9876606168
20
31.6110281044
30
0.0000000000
10
-12.0191107069
20
31.6206851077
30
0.0000000000
11
-11.6006575349
21
31.5794567595
31
0.0000000000
11
-11.6970394694
21
31.5755440523
31
0.0000000000
11
-11.8101338838
21
31.5819836860
31
0.0000000000
11
-11.9230985876
21
31.5978166610
31
0.0000000000
11
-12.0191107069
21
31.6206851077
31
0.0000000000
0
SPLINE
5
35E
100
AcDbEntity
8
0
100
AcDbSpline
62
9
6
CONTINUOUS
70
0
71
3
72
10
73
6
74
4
42
0.0000001000
43
0.0000001000
44
0.0000000001
12
-3.2854392208
22
-32.0690199742
32
0.0000000000
13
-1.4645878391
23
-32.2035888597
33
0.0000000000
40
0.0000000000
40
0.0000000000
40
0.0000000000
40
0.0000000000
40
0.3348144630
40
0.6681834566
40
1.0000000000
40
1.0000000000
40
1.0000000000
40
1.0000000000
10
-12.0191107100
20
31.6206851074
30
0.0000000000
10
-12.3857815662
20
28.0416278730
30
0.0000000000
10
-13.0511384318
20
20.8919690162
30
0.0000000000
10
-13.8456722342
20
10.1751824712
30
0.0000000000
10
-14.2389455689
20
3.0376550660
30
0.0000000000
10
-14.4009370603
20
-0.5242394472
30
0.0000000000
11
-12.0191107100
21
31.6206851074
31
0.0000000000
11
-13.0188165583
21
20.8737100888
31
0.0000000000
11
-13.8129379449
21
10.1563158257
31
0.0000000000
11
-14.4009370603
21
-0.5242394472
31
0.0000000000
0
SPLINE
5
35F
100
AcDbEntity
8
0
100
AcDbSpline
62
9
6
CONTINUOUS
70
0
71
3
72
10
73
6
74
4
42
0.0000001000
43
0.0000001000
44
0.0000000001
12
-3.2831308882
22
-32.0463820096
32
0.0000000000
13
-1.4635431124
23
-32.1808575071
33
0.0000000000
40
0.0000000000
40
0.0000000000
40
0.0000000000
40
0.0000000000
40
0.3348140202
40
0.6681835731
40
1.0000000000
40
1.0000000000
40
1.0000000000
40
1.0000000000
10
-11.6006575349
20
31.5794567595
30
0.0000000000
10
-11.9670702855
20
28.0029307612
30
0.0000000000
10
-12.6319595021
20
20.8583176222
30
0.0000000000
10
-13.4259325354
20
10.1490958213
30
0.0000000000
10
-13.8189267140
20
3.0166017905
30
0.0000000000
10
-13.9808025961
20
-0.5427772602
30
0.0000000000
11
-11.6006575349
21
31.5794567595
31
0.0000000000
11
-12.5996590825
21
20.8400822625
31
0.0000000000
11
-13.3932213295
21
10.1302352248
31
0.0000000000
11
-13.9808025961
21
-0.5427772602
31
0.0000000000
0
SPLINE
5
360
100
AcDbEntity
8
0
100
AcDbSpline
62
9
6
CONTINUOUS
70
0
71
3
72
11
73
7
74
5
42
0.0000001000
43
0.0000001000
44
0.0000000001
12
-0.4143954017
22
-0.0884333060
32
0.0000000000
13
-0.4052769907
23
0.1236711743
33
0.0000000000
40
0.0000000000
40
0.0000000000
40
0.0000000000
40
0.0000000000
40
0.2308572289
40
0.4990425980
40
0.7677301585
40
1.0000000000
40
1.0000000000
40
1.0000000000
40
1.0000000000
10
-13.9808025962
20
-0.5427772601
30
0.0000000000
10
-14.0126913209
20
-0.5495824161
30
0.0000000000
10
-14.0830310416
20
-0.5574978599
30
0.0000000000
10
-14.1916063878
20
-0.5580010144
30
0.0000000000
10
-14.2999154428
20
-0.5479078462
30
0.0000000000
10
-14.3695504530
20
-0.5338125297
30
0.0000000000
10
-14.4009283272
20
-0.5242375017
30
0.0000000000
11
-13.9808025962
21
-0.5427772601
31
0.0000000000
11
-14.0778203400
21
-0.5552818826
31
0.0000000000
11
-14.1914541875
21
-0.5561548846
31
0.0000000000
11
-14.3047822895
21
-0.5452662621
31
0.0000000000
11
-14.4009283272
21
-0.5242375017
31
0.0000000000
0
SPLINE
5
361
100
AcDbEntity
8
0
100
AcDbSpline
62
9
6
CONTINUOUS
70
0
71
3
72
13
73
9
74
7
42
0.0000001000
43
0.0000001000
44
0.0000000001
12
-0.0440851026
22
-0.9677518322
32
0.0000000000
13
0.9302375817
23
-0.2850595957
33
0.0000000000
40
0.0000000000
40
0.0000000000
40
0.0000000000
40
0.0000000000
40
0.2099643476
40
0.4069425912
40
0.5889161920
40
0.7561163967
40
0.9123964848
40
1.0000000000
40
1.0000000000
40
1.0000000000
40
1.0000000000
10
-14.4009370603
20
-0.5242394472
30
0.0000000000
10
-14.4040224936
20
-0.5919705746
30
0.0000000000
10
-14.3999441489
20
-0.7240127012
30
0.0000000000
10
-14.3610060782
20
-0.9112392751
30
0.0000000000
10
-14.2907293030
20
-1.0745400515
30
0.0000000000
10
-14.1913763078
20
-1.2063638250
30
0.0000000000
10
-14.0833051253
20
-1.2869641347
30
0.0000000000
10
-14.0098038391
20
-1.3170048454
30
0.0000000000
10
-13.9826398118
20
-1.3253289196
30
0.0000000000
11
-14.4009370603
21
-0.5242394472
31
0.0000000000
11
-14.3937369652
21
-0.7275160771
31
0.0000000000
11
-14.3536087569
21
-0.9140728478
31
0.0000000000
11
-14.2823902796
21
-1.0753346157
31
0.0000000000
11
-14.1834973191
21
-1.2036172800
31
0.0000000000
11
-14.0613964502
21
-1.2931297687
31
0.0000000000
11
-13.9826398118
21
-1.3253289196
31
0.0000000000
0
SPLINE
5
362
100
AcDbEntity
8
0
100
AcDbSpline
62
9
6
CONTINUOUS
70
0
71
3
72
14
73
10
74
8
42
0.0000001000
43
0.0000001000
44
0.0000000001
12
-0.0375462494
22
-0.8284017328
32
0.0000000000
13
0.8214936800
23
0.1131692778
33
0.0000000000
40
0.0000000000
40
0.0000000000
40
0.0000000000
40
0.0000000000
40
0.1711427256
40
0.3326054505
40
0.4819671407
40
0.6193457261
40
0.7478643952
40
0.8727730562
40
1.0000000000
40
1.0000000000
40
1.0000000000
40
1.0000000000
10
-13.9808025961
20
-0.5427772602
30
0.0000000000
10
-13.9829445186
20
-0.5900355703
30
0.0000000000
10
-13.9800692264
20
-0.6824159100
30
0.0000000000
10
-13.9526715602
20
-0.8135606314
30
0.0000000000
10
-13.9031001818
20
-0.9281961631
30
0.0000000000
10
-13.8329995440
20
-1.0207343815
30
0.0000000000
10
-13.7448967854
20
-1.0860998305
30
0.0000000000
10
-13.6433692097
20
-1.1198575182
30
0.0000000000
10
-13.5724194311
20
-1.1199780589
30
0.0000000000
10
-13.5375807210
20
-1.1151786651
30
0.0000000000
11
-13.9808025961
21
-0.5427772602
31
0.0000000000
11
-13.9757409004
21
-0.6846074425
31
0.0000000000
11
-13.9474750211
21
-0.8154831836
31
0.0000000000
11
-13.8972458799
21
-0.9286996250
31
0.0000000000
11
-13.8274846247
21
-1.0187633413
31
0.0000000000
11
-13.7413925420
21
-1.0815825479
31
0.0000000000
11
-13.6430793423
21
-1.1141937765
31
0.0000000000
11
-13.5375807210
21
-1.1151786651
31
0.0000000000
0
SPLINE
5
363
100
AcDbEntity
8
0
100
AcDbSpline
62
9
6
CONTINUOUS
70
0
71
3
72
11
73
7
74
5
42
0.0000001000
43
0.0000001000
44
0.0000000001
12
-0.0264409347
22
-0.3046338628
32
0.0000000000
13
-0.3073459942
23
-0.0406375984
33
0.0000000000
40
0.0000000000
40
0.0000000000
40
0.0000000000
40
0.0000000000
40
0.3579875229
40
0.6732601142
40
0.9488492608
40
1.0000000000
40
1.0000000000
40
1.0000000000
40
1.0000000000
10
-13.5375807210
20
-1.1151786651
30
0.0000000000
10
-13.5407358959
20
-1.1515303724
30
0.0000000000
10
-13.5559718651
20
-1.2196626592
30
0.0000000000
10
-13.6082867665
20
-1.3039005619
30
0.0000000000
10
-13.6667919520
20
-1.3397481000
30
0.0000000000
10
-13.6999689932
20
-1.3459958672
30
0.0000000000
10
-13.7052093181
20
-1.3466887483
30
0.0000000000
11
-13.5375807210
21
-1.1151786651
31
0.0000000000
11
-13.5631258301
21
-1.2216214346
31
0.0000000000
11
-13.6165295337
21
-1.3018818649
31
0.0000000000
11
-13.6896647143
21
-1.3437457103
31
0.0000000000
11
-13.7052093181
21
-1.3466887483
31
0.0000000000
0
SPLINE
5
364
100
AcDbEntity
8
0
100
AcDbSpline
62
9
6
CONTINUOUS
70
0
71
3
72
13
73
9
74
7
42
0.0000001000
43
0.0000001000
44
0.0000000001
12
0.1222329102
22
1.2028424618
32
0.0000000000
13
1.0872897668
23
0.5382188235
33
0.0000000000
40
0.0000000000
40
0.0000000000
40
0.0000000000
40
0.0000000000
40
0.1770744509
40
0.3555477337
40
0.5308795482
40
0.6986364515
40
0.8556972383
40
1.0000000000
40
1.0000000000
40
1.0000000000
40
1.0000000000
10
-28.7727862941
20
36.7488551311
30
0.0000000000
10
-28.7655715190
20
36.8198526872
30
0.0000000000
10
-28.7402822034
20
36.9615053418
30
0.0000000000
10
-28.6729320547
20
37.1652987422
30
0.0000000000
10
-28.5787132907
20
37.3540618150
30
0.0000000000
10
-28.4617960902
20
37.5193054626
30
0.0000000000
10
-28.3271837840
20
37.6536023771
30
0.0000000000
10
-28.2252354548
20
37.7212234972
30
0.0000000000
10
-28.1729358161
20
37.7471123181
30
0.0000000000
11
-28.7727862941
21
36.7488551311
31
0.0000000000
11
-28.7354662750
21
36.9596668239
31
0.0000000000
11
-28.6676915659
21
37.1645276458
31
0.0000000000
11
-28.5725855247
21
37.3539781611
31
0.0000000000
11
-28.4546880317
21
37.5190172185
31
0.0000000000
11
-28.3193201559
21
37.6521886671
31
0.0000000000
11
-28.1729358161
21
37.7471123181
31
0.0000000000
0
SPLINE
5
365
100
AcDbEntity
8
0
100
AcDbSpline
62
9
6
CONTINUOUS
70
0
71
3
72
8
73
4
74
2
42
0.0000001000
43
0.0000001000
44
0.0000000001
12
0.0968899027
22
0.0479614276
32
0.0000000000
13
0.1034756499
23
0.0308808642
33
0.0000000000
40
0.0000000000
40
0.0000000000
40
0.0000000000
40
0.0000000000
40
1.0000000000
40
1.0000000000
40
1.0000000000
40
1.0000000000
10
-28.1729358161
20
37.7471123181
30
0.0000000000
10
-28.1406391819
20
37.7630994606
30
0.0000000000
10
-28.1070141613
20
37.7766115299
30
0.0000000000
10
-28.0725222780
20
37.7869051513
30
0.0000000000
11
-28.1729358161
21
37.7471123181
31
0.0000000000
11
-28.0725222780
21
37.7869051513
31
0.0000000000
0
SPLINE
5
366
100
AcDbEntity
8
0
100
AcDbSpline
62
9
6
CONTINUOUS
70
0
71
3
72
8
73
4
74
2
42
0.0000001000
43
0.0000001000
44
0.0000000001
12
0.0497090211
22
0.0148349639
32
0.0000000000
13
0.0507558380
23
0.0101312445
33
0.0000000000
40
0.0000000000
40
0.0000000000
40
0.0000000000
40
0.0000000000
40
1.0000000000
40
1.0000000000
40
1.0000000000
40
1.0000000000
10
-28.0725222780
20
37.7869051513
30
0.0000000000
10
-28.0559526043
20
37.7918501393
30
0.0000000000
10
-28.0391828779
20
37.7960523808
30
0.0000000000
10
-28.0222642653
20
37.7994294623
30
0.0000000000
11
-28.0725222780
21
37.7869051513
31
0.0000000000
11
-28.0222642653
21
37.7994294623
31
0.0000000000
0
SPLINE
5
367
100
AcDbEntity
8
0
100
AcDbSpline
62
9
6
CONTINUOUS
70
0
71
3
72
10
73
6
74
4
42
0.0000001000
43
0.0000001000
44
0.0000000001
12
1.4971638629
22
32.2018217827
32
0.0000000000
13
3.2529925156
23
32.0720573934
33
0.0000000000
40
0.0000000000
40
0.0000000000
40
0.0000000000
40
0.0000000000
40
0.3317641279
40
0.6651359007
40
1.0000000000
40
1.0000000000
40
1.0000000000
40
1.0000000000
10
-31.1546126444
20
4.6039305765
30
0.0000000000
10
-30.9890442234
20
8.1650670161
30
0.0000000000
10
-30.5909905158
20
15.3016993288
30
0.0000000000
10
-29.7964676711
20
26.0183564248
30
0.0000000000
10
-29.1358897638
20
33.1689282600
30
0.0000000000
10
-28.7727862941
20
36.7488551311
30
0.0000000000
11
-31.1546126444
21
4.6039305765
31
0.0000000000
11
-30.5595070419
21
15.2823106089
31
0.0000000000
11
-29.7653856551
21
25.9997048719
31
0.0000000000
11
-28.7727862941
21
36.7488551311
31
0.0000000000
0
SPLINE
5
368
100
AcDbEntity
8
CURVE
100
AcDbSpline
62
9
6
CONTINUOUS
70
0
71
3
72
24
73
20
74
18
42
0.0000001000
43
0.0000001000
44
0.0000000001
12
0.7210964004
22
12.2456119410
32
3.1859607257
13
-0.7215006591
23
-12.2524770360
33
-3.1877468286
40
0.0000000000
40
0.0000000000
40
0.0000000000
40
0.0000000000
40
0.0588235294
40
0.1176470588
40
0.1764705882
40
0.2352941176
40
0.2941176471
40
0.3529411765
40
0.4117647059
40
0.4705882353
40
0.5294117647
40
0.5882352941
40
0.6470588235
40
0.7058823529
40
0.7647058824
40
0.8235294118
40
0.8823529412
40
0.9411764706
40
1.0000000000
40
1.0000000000
40
1.0000000000
40
1.0000000000
10
-25.2245350785
20
10.2310012016
30
6.7255066280
10
-25.2103959334
20
10.4711112397
30
6.7879764462
10
-25.1503256783
20
10.9326370220
30
6.9407082391
10
-24.9639954306
20
11.5822797803
30
7.2568317040
10
-24.6911765124
20
12.1509945852
30
7.6428513233
10
-24.3366868424
20
12.6294378309
30
8.0925069192
10
-23.9199546786
20
12.9924883138
30
8.5818533785
10
-23.4456307595
20
13.2354214912
30
9.1058186616
10
-22.9423935561
20
13.3442990255
30
9.6333150341
10
-22.4132391324
20
13.3180158871
30
10.1614687057
10
-21.8918206137
20
13.1584546329
30
10.6569102990
10
-21.3800786483
20
12.8661826608
30
11.1177909218
10
-20.9105128553
20
12.4596321048
30
11.5146363981
10
-20.4853524676
20
11.9413643611
30
11.8453286057
10
-20.1301912403
20
11.3421697198
30
12.0894332401
10
-19.8481840365
20
10.6688224878
30
12.2445407915
10
-19.6546607631
20
9.9574756492
30
12.3016457670
10
-19.5525759376
20
9.2195433402
30
12.2595638708
10
-19.5485876543
20
8.7382127187
30
12.1676594988
10
-19.5627347261
20
8.4979680710
30
12.1051546590
11
-25.2245350785
21
10.2310012016
31
6.7255066280
11
-25.1342882008
21
10.9255293695
31
6.9552125350
11
-24.9495806522
21
11.5687917881
31
7.2684810631
11
-24.6775647204
21
12.1359493253
31
7.6534573194
11
-24.3263130934
21
12.6102057038
31
8.0991220631
11
-23.9103560527
21
12.9724687629
31
8.5876231825
11
-23.4408118788
21
13.2130788840
31
9.1064071765
11
-22.9380740194
21
13.3217722467
31
9.6334245840
11
-22.4145284499
21
13.2958028678
31
10.1560166927
11
-21.8934333726
21
13.1363361800
31
10.6511501372
11
-21.3871080104
21
12.8471362302
31
11.1071183974
11
-20.9179137562
21
12.4410125735
31
11.5036108533
11
-20.4970189943
21
11.9278765448
31
11.8308973435
11
-20.1423835775
21
11.3298109547
31
12.0746003929
11
-19.8629313582
21
10.6624892201
31
12.2282070289
11
-19.6699005044
21
9.9530447375
31
12.2851146217
11
-19.5685930044
21
9.2221994030
31
12.2436014272
11
-19.5627347261
21
8.4979680710
31
12.1051546590
0
SPLINE
5
369
100
AcDbEntity
8
CURVE
100
AcDbSpline
62
9
6
CONTINUOUS
70
0
71
3
72
23
73
19
74
17
42
0.0000001000
43
0.0000001000
44
0.0000000001
12
-0.1814870620
22
-3.0820014254
32
-0.8018493110
13
0.1813333340
23
3.0793908259
33
0.8011701071
40
0.0000000000
40
0.0000000000
40
0.0000000000
40
0.0000000000
40
0.0416666667
40
0.0833333333
40
0.1250000000
40
0.1666666667
40
0.2500000000
40
0.3333333333
40
0.4166666667
40
0.5000000000
40
0.5833333333
40
0.6666666667
40
0.7500000000
40
0.8333333333
40
0.8750000000
40
0.9166666667
40
0.9583333333
40
1.0000000000
40
1.0000000000
40
1.0000000000
40
1.0000000000
10
-23.1013599463
20
9.5811137776
30
8.7428746397
10
-23.1038806000
20
9.5383082023
30
8.7317378437
10
-23.1046987745
20
9.4536030720
30
8.7138983905
10
-23.0940962222
20
9.3249180429
30
8.6987247864
10
-23.0713397740
20
9.1954285543
30
8.6956326801
10
-23.0254447613
20
9.0267732459
30
8.7079895635
10
-22.9404409499
20
8.8288330917
30
8.7539004387
10
-22.8010120117
20
8.6278084005
30
8.8541728060
10
-22.6337523101
20
8.4770936565
30
8.9928090457
10
-22.4501564607
20
8.3870104689
30
9.1603392562
10
-22.2627948520
20
8.3636828062
30
9.3453078868
10
-22.0844326881
20
8.4086699184
30
9.5350827526
10
-21.9271912968
20
8.5189073303
30
9.7167005182
10
-21.8227138719
20
8.6588267629
30
9.8508236123
10
-21.7591913896
20
8.7939798784
30
9.9424292753
10
-21.7224161016
20
8.9052252948
30
10.0020818974
10
-21.6974093973
20
9.0229426806
30
10.0510764566
10
-21.6884283768
20
9.1050861779
30
10.0766592848
10
-21.6859098582
20
9.1478554950
30
10.0877866474
11
-23.1013599463
21
9.5811137776
31
8.7428746397
11
-23.1027271388
21
9.4533318497
31
8.7158293198
11
-23.0920705729
21
9.3247839663
31
8.7007383694
11
-23.0693956388
21
9.1959282222
31
8.6976926416
11
-23.0350761781
21
9.0697956717
31
8.7069313274
11
-22.9342035558
21
8.8349170074
31
8.7614303249
11
-22.7963735511
21
8.6361933917
31
8.8605667848
11
-22.6310296188
21
8.4871989159
31
8.9976247075
11
-22.4495288342
21
8.3981363897
31
9.1632456596
11
-22.2642947595
21
8.3750686020
31
9.3461089260
11
-22.0879528169
21
8.4195449683
31
9.5337232359
11
-21.9325027103
21
8.5285183148
31
9.7132555094
11
-21.8085048728
21
8.6945498392
31
9.8724172937
11
-21.7610024853
21
8.7956266417
31
9.9409206711
11
-21.7243775322
21
8.9063039564
31
10.0003055536
11
-21.6993319262
21
9.0238589907
31
10.0493064038
11
-21.6859098582
21
9.1478554950
31
10.0877866474
0
SPLINE
5
36A
100
AcDbEntity
8
CURVE
100
AcDbSpline
62
9
6
CONTINUOUS
70
0
71
3
72
23
73
19
74
17
42
0.0000001000
43
0.0000001000
44
0.0000000001
12
0.1814847144
22
3.0819615583
32
0.8018389387
13
-0.1813311115
23
-3.0793530831
33
-0.8011602875
40
0.0000000000
40
0.0000000000
40
0.0000000000
40
0.0000000000
40
0.0416666667
40
0.0833333333
40
0.1250000000
40
0.1666666667
40
0.2500000000
40
0.3333333333
40
0.4166666667
40
0.5000000000
40
0.5833333333
40
0.6666666667
40
0.7500000000
40
0.8333333333
40
0.8750000000
40
0.9166666667
40
0.9583333333
40
1.0000000000
40
1.0000000000
40
1.0000000000
40
1.0000000000
10
-21.6859098582
20
9.1478554950
30
10.0877866474
10
-21.6833892372
20
9.1906605166
30
10.0989232993
10
-21.6825518315
20
9.2753677438
30
10.1167434213
10
-21.6930717423
20
9.4040646873
30
10.1318349129
10
-21.7156942597
20
9.5335730499
30
10.1347949354
10
-21.7613558604
20
9.7022632833
30
10.1222089634
10
-21.8459944632
20
9.9002607570
30
10.0759416493
10
-21.9849869686
20
10.1013623768
30
9.9752398090
10
-22.1519319548
20
10.2521384589
30
9.8362853091
10
-22.3354198229
20
10.3422470585
30
9.6686322484
10
-22.5229063304
20
10.3655541756
30
9.4837712648
10
-22.7015896852
20
10.3205076776
30
9.2943087912
10
-22.8592626766
20
10.2101918250
30
9.1131249481
10
-22.9640961694
20
10.0702121744
30
8.9793666058
10
-23.0278467725
20
9.9350227612
30
8.8879948688
10
-23.0647531820
20
9.8237578316
30
8.8284768319
10
-23.0898414535
20
9.7060282613
30
8.7795651981
10
-23.0988414587
20
9.6238825704
30
8.7540018659
10
-23.1013599463
20
9.5811137776
30
8.7428746397
11
-21.6859098582
21
9.1478554950
31
10.0877866474
11
-21.6845145014
21
9.2756404276
31
10.1148036394
11
-21.6950888434
21
9.4041999239
31
10.1298130014
11
-21.7176315402
21
9.5330746020
31
10.1327283518
11
-21.7517779004
21
9.6592330371
31
10.1233197998
11
-21.8522321602
21
9.8941781989
31
10.0684114721
11
-21.9896457154
21
10.0929747872
31
9.9688643657
11
-22.1546891018
21
10.2420272118
31
9.8315022156
11
-22.3360862628
21
10.3311134781
31
9.6657642612
11
-22.5214391383
21
10.3541619064
31
9.4830043498
11
-22.6980879580
21
10.3096294519
31
9.2956885629
11
-22.8539505433
21
10.2005818703
31
9.1165705869
11
-22.9783574709
21
10.0344810134
31
8.9578265830
11
-23.0260290154
21
9.9333772829
31
8.8894966631
11
-23.0627834924
21
9.8226803915
31
8.8302445658
11
-23.0879100762
21
9.7051134336
31
8.7813263040
11
-23.1013599463
21
9.5811137776
31
8.7428746397
0
SPLINE
5
36B
100
AcDbEntity
8
CURVE
100
AcDbSpline
62
9
6
CONTINUOUS
70
0
71
3
72
24
73
20
74
18
42
0.0000001000
43
0.0000001000
44
0.0000000001
12
-0.7212125371
22
-12.2475841677
32
-3.1864738431
13
0.7216160875
23
12.2544372337
33
3.1882568164
40
0.0000000000
40
0.0000000000
40
0.0000000000
40
0.0000000000
40
0.0588235294
40
0.1176470588
40
0.1764705882
40
0.2352941176
40
0.2941176471
40
0.3529411765
40
0.4117647059
40
0.4705882353
40
0.5294117647
40
0.5882352941
40
0.6470588235
40
0.7058823529
40
0.7647058824
40
0.8235294118
40
0.8823529412
40
0.9411764706
40
1.0000000000
40
1.0000000000
40
1.0000000000
40
1.0000000000
10
-19.5627347261
20
8.4979680710
30
12.1051546590
10
-19.5768761484
20
8.2578193618
30
12.0426747798
10
-19.6363555574
20
7.7963328089
30
11.8893134388
10
-19.8201046778
20
7.1470603902
30
11.5705070217
10
-20.0890172813
20
6.5790011004
30
11.1804843032
10
-20.4387217960
20
6.1014192850
30
10.7260142618
10
-20.8504994122
20
5.7392815837
30
10.2317884161
10
-21.3202750461
20
5.4971672038
30
9.7034277384
10
-21.8201385129
20
5.3888663705
30
9.1726500349
10
-22.3474769803
20
5.4154557220
30
8.6426935757
10
-22.8688934781
20
5.5750169025
30
8.1472528920
10
-23.3824391922
20
5.8669789545
30
7.6881851802
10
-23.8552953060
20
6.2729255207
30
7.2946978059
10
-24.2848818891
20
6.7903343120
30
6.9685170439
10
-24.6449592992
20
7.3886044635
30
6.7293266085
10
-24.9318078589
20
8.0611087865
30
6.5789827848
10
-25.1293365079
20
8.7718331029
30
6.5257870857
10
-25.2340852552
20
9.5094210022
30
6.5704755360
10
-25.2386844135
20
9.9907181186
30
6.6629917885
10
-25.2245350785
20
10.2310012016
30
6.7255066280
11
-19.5627347261
21
8.4979680710
31
12.1051546590
11
-19.6521105585
21
7.8034923774
31
11.8745193712
11
-19.8342985917
21
7.1605959117
31
11.5586376381
11
-20.1024825998
21
6.5940806795
31
11.1697430827
11
-20.4490673129
21
6.1206599707
31
10.7193882944
11
-20.8601657485
21
5.7592854706
31
10.2260992774
11
-21.3252896849
21
5.5194694616
31
9.7030249008
11
-21.8247176797
21
5.4113480680
31
9.1727869090
11
-22.3464899854
21
5.4376176935
31
8.6484462049
11
-22.8675816809
21
5.5970837144
31
8.1533150540
11
-23.3756575922
21
5.8859763735
31
7.6991152364
11
-23.8480837176
21
6.2915025582
31
7.3059155746
11
-24.2732970269
21
6.8038112054
31
6.9830154317
11
-24.6327544908
21
7.4009768254
31
6.7441343772
11
-24.9169212071
21
8.0674787854
31
6.5951741389
11
-25.1138731909
21
8.7763103667
31
6.5421011106
11
-25.2177769202
21
9.5068139647
31
6.5861565241
11
-25.2245350785
21
10.2310012016
31
6.7255066280
0
SPLINE
5
36C
100
AcDbEntity
8
0
100
AcDbSpline
62
7
6
CONTINUOUS
70
0
71
3
72
14
73
10
74
8
42
0.0000001000
43
0.0000001000
44
0.0000000001
12
-4.0168769798
22
0.9633243760
32
0.0000000000
13
-3.9560272908
23
-1.1887567451
33
0.0000000000
40
0.0000000000
40
0.0000000000
40
0.0000000000
40
0.0000000000
40
0.1380876805
40
0.2771051156
40
0.4173980447
40
0.5595345148
40
0.7037362752
40
0.8504958810
40
1.0000000000
40
1.0000000000
40
1.0000000000
40
1.0000000000
10
-4.7226789827
20
34.4912495656
30
0.0000000000
10
-4.9075727243
20
34.5355906418
30
0.0000000000
10
-5.2823816276
20
34.6095738360
30
0.0000000000
10
-5.8538986681
20
34.6754521697
30
0.0000000000
10
-6.4344198780
20
34.6963409917
30
0.0000000000
10
-7.0219253598
20
34.6721800163
30
0.0000000000
10
-7.6148002936
20
34.6030632146
30
0.0000000000
10
-8.2110153959
20
34.4892582290
30
0.0000000000
10
-8.6057479618
20
34.3848407753
30
0.0000000000
10
-8.8028954201
20
34.3255994320
30
0.0000000000
11
-4.7226789827
21
34.4912495656
31
0.0000000000
11
-5.2822697766
21
34.6018144061
31
0.0000000000
11
-5.8527203299
21
34.6677597636
31
0.0000000000
11
-6.4318548718
21
34.6888489300
31
0.0000000000
11
-7.0185052933
21
34.6650329193
31
0.0000000000
11
-7.6102043303
21
34.5964113766
31
0.0000000000
11
-8.2057567445
21
34.4831282094
31
0.0000000000
11
-8.8028954201
21
34.3255994320
31
0.0000000000
0
SPLINE
5
36D
100
AcDbEntity
8
0
100
AcDbSpline
62
7
6
CONTINUOUS
70
0
71
3
72
8
73
4
74
2
42
0.0000001000
43
0.0000001000
44
0.0000000001
12
0.0035175230
22
0.0011540384
32
0.0000000000
13
0.0035535175
23
0.0010386454
33
0.0000000000
40
0.0000000000
40
0.0000000000
40
0.0000000000
40
0.0000000000
40
1.0000000000
40
1.0000000000
40
1.0000000000
40
1.0000000000
10
-5.0179503060
20
41.1866822900
30
0.0000000000
10
-5.0167777983
20
41.1870669695
30
0.0000000000
10
-5.0155989559
20
41.1874324670
30
0.0000000000
10
-5.0144144501
20
41.1877786822
30
0.0000000000
11
-5.0179503060
21
41.1866822900
31
0.0000000000
11
-5.0144144501
21
41.1877786822
31
0.0000000000
0
SPLINE
5
36E
100
AcDbEntity
8
0
100
AcDbSpline
62
7
6
CONTINUOUS
70
0
71
3
72
9
73
5
74
3
42
0.0000001000
43
0.0000001000
44
0.0000000001
12
0.0254692797
22
0.0074443284
32
0.0000000000
13
0.0264858154
23
0.0014355069
33
0.0000000000
40
0.0000000000
40
0.0000000000
40
0.0000000000
40
0.0000000000
40
0.6637464175
40
1.0000000000
40
1.0000000000
40
1.0000000000
40
1.0000000000
10
-5.0144144501
20
41.1877786822
30
0.0000000000
10
-5.0087794024
20
41.1894257309
30
0.0000000000
10
-5.0000965359
20
41.1912496979
30
0.0000000000
10
-4.9912867966
20
41.1920585560
30
0.0000000000
10
-4.9883181465
20
41.1922194541
30
0.0000000000
11
-5.0144144501
21
41.1877786822
31
0.0000000000
11
-4.9971970643
21
41.1913998184
31
0.0000000000
11
-4.9883181465
21
41.1922194541
31
0.0000000000
0
SPLINE
5
36F
100
AcDbEntity
8
0
100
AcDbSpline
62
7
6
CONTINUOUS
70
0
71
3
72
8
73
4
74
2
42
0.0000001000
43
0.0000001000
44
0.0000000001
12
0.0050284709
22
0.0002725385
32
0.0000000000
13
0.0050362843
23
0.0000620551
33
0.0000000000
40
0.0000000000
40
0.0000000000
40
0.0000000000
40
0.0000000000
40
1.0000000000
40
1.0000000000
40
1.0000000000
40
1.0000000000
10
-4.9883181465
20
41.1922194541
30
0.0000000000
10
-4.9866419895
20
41.1923103003
30
0.0000000000
10
-4.9849638102
20
41.1923657337
30
0.0000000000
10
-4.9832850488
20
41.1923864187
30
0.0000000000
11
-4.9883181465
21
41.1922194541
31
0.0000000000
11
-4.9832850488
21
41.1923864187
31
0.0000000000
0
SPLINE
5
370
100
AcDbEntity
8
0
100
AcDbSpline
62
7
6
CONTINUOUS
70
0
71
3
72
9
73
5
74
3
42
0.0000001000
43
0.0000001000
44
0.0000000001
12
0.0413973468
22
0.0005100820
32
0.0000000000
13
0.0395055941
23
-0.0120923556
33
0.0000000000
40
0.0000000000
40
0.0000000000
40
0.0000000000
40
0.0000000000
40
0.3174293517
40
1.0000000000
40
1.0000000000
40
1.0000000000
40
1.0000000000
10
-4.9832850488
20
41.1923864187
30
0.0000000000
10
-4.9789048044
20
41.1924403904
30
0.0000000000
10
-4.9650932041
20
41.1918651615
30
0.0000000000
10
-4.9514961738
20
41.1890592851
30
0.0000000000
10
-4.9425077208
20
41.1863079895
30
0.0000000000
11
-4.9832850488
21
41.1923864187
31
0.0000000000
11
-4.9701580101
21
41.1918504382
31
0.0000000000
11
-4.9425077208
21
41.1863079895
31
0.0000000000
0
SPLINE
5
371
100
AcDbEntity
8
0
100
AcDbSpline
62
7
6
CONTINUOUS
70
0
71
3
72
10
73
6
74
4
42
0.0000001000
43
0.0000001000
44
0.0000000001
12
0.0732939171
22
0.0244607660
32
0.0000000000
13
0.0737196367
23
-0.0225650085
33
0.0000000000
40
0.0000000000
40
0.0000000000
40
0.0000000000
40
0.0000000000
40
0.2833578669
40
0.6341630183
40
1.0000000000
40
1.0000000000
40
1.0000000000
40
1.0000000000
10
-21.1546334123
20
46.1256444130
30
0.0000000000
10
-21.1477106097
20
46.1279547965
30
0.0000000000
10
-21.1317131345
20
46.1316251936
30
0.0000000000
10
-21.1058049568
20
46.1319544734
30
0.0000000000
10
-21.0876217770
20
46.1282020542
30
0.0000000000
10
-21.0786319872
20
46.1254503493
30
0.0000000000
11
-21.1546334123
21
46.1256444130
31
0.0000000000
11
-21.1333282130
21
46.1305437199
31
0.0000000000
11
-21.1062863500
21
46.1309938153
31
0.0000000000
11
-21.0786319872
21
46.1254503493
31
0.0000000000
0
SPLINE
5
372
100
AcDbEntity
8
0
100
AcDbSpline
62
7
6
CONTINUOUS
70
0
71
3
72
18
73
14
74
12
42
0.0000001000
43
0.0000001000
44
0.0000000001
12
1.0802376961
22
0.3176925716
32
0.0000000000
13
1.1148496302
23
-0.1586612840
33
0.0000000000
40
0.0000000000
40
0.0000000000
40
0.0000000000
40
0.0000000000
40
0.0830387438
40
0.1730080660
40
0.2688470410
40
0.3693688344
40
0.4732928098
40
0.5792731029
40
0.6859254486
40
0.7918532303
40
0.8956732959
40
0.9960419947
40
1.0000000000
40
1.0000000000
40
1.0000000000
40
1.0000000000
10
-14.1294758442
20
46.0487899974
30
0.0000000000
10
-14.0995753171
20
46.0575835948
30
0.0000000000
10
-14.0366451094
20
46.0737826102
30
0.0000000000
10
-13.9376631783
20
46.0935917835
30
0.0000000000
10
-13.8313689036
20
46.1096781172
30
0.0000000000
10
-13.7192866891
20
46.1218021809
30
0.0000000000
10
-13.6030204389
20
46.1297845339
30
0.0000000000
10
-13.4842395240
20
46.1335068898
30
0.0000000000
10
-13.3646501249
20
46.1329141118
30
0.0000000000
10
-13.2459706543
20
46.1280148197
30
0.0000000000
10
-13.1299056205
20
46.1188812515
30
0.0000000000
10
-13.0523027078
20
46.1096947565
30
0.0000000000
10
-13.0135284546
20
46.1042108242
30
0.0000000000
10
-13.0120575944
20
46.1040014968
30
0.0000000000
11
-14.1294758442
21
46.0487899974
31
0.0000000000
11
-14.0389894674
21
46.0723385747
31
0.0000000000
11
-13.9396910054
21
46.0923968953
31
0.0000000000
11
-13.8330126638
21
46.1086756856
31
0.0000000000
11
-13.7204930760
21
46.1209402024
31
0.0000000000
11
-13.6037550856
21
46.1290136166
31
0.0000000000
11
-13.4844823118
21
46.1327795585
31
0.0000000000
11
-13.3643948562
21
46.1321837888
31
0.0000000000
11
-13.2452244820
21
46.1272349720
31
0.0000000000
11
-13.1286896412
21
46.1180045420
31
0.0000000000
11
-13.0164707086
21
46.1046256633
31
0.0000000000
11
-13.0120575944
21
46.1040014968
31
0.0000000000
0
SPLINE
5
373
100
AcDbEntity
8
0
100
AcDbSpline
62
7
6
CONTINUOUS
70
0
71
3
72
10
73
6
74
4
42
0.0000001000
43
0.0000001000
44
0.0000000001
12
-0.0000295569
22
0.0342623014
32
0.0000000000
13
-0.0330131746
23
0.0101010683
33
0.0000000000
40
0.0000000000
40
0.0000000000
40
0.0000000000
40
0.0000000000
40
0.2514586350
40
0.7669454400
40
1.0000000000
40
1.0000000000
40
1.0000000000
40
1.0000000000
10
-9.3631739925
20
44.8803218117
30
0.0000000000
10
-9.3631764700
20
44.8831936622
30
0.0000000000
10
-9.3641797934
20
44.8918784070
30
0.0000000000
10
-9.3711532383
20
44.9023144096
30
0.0000000000
10
-9.3789643701
20
44.9058290271
30
0.0000000000
10
-9.3815289937
20
44.9066137271
30
0.0000000000
11
-9.3631739925
21
44.8803218117
31
0.0000000000
11
-9.3643014650
21
44.8888154060
31
0.0000000000
11
-9.3743516391
21
44.9032239621
31
0.0000000000
11
-9.3815289937
21
44.9066137271
31
0.0000000000
0
SPLINE
5
374
100
AcDbEntity
8
0
100
AcDbSpline
62
7
6
CONTINUOUS
70
0
71
3
72
14
73
10
74
8
42
0.0000001000
43
0.0000001000
44
0.0000000001
12
0.0004536552
22
-0.2091755315
32
0.0000000000
13
-0.1891728965
23
-0.0903382296
33
0.0000000000
40
0.0000000000
40
0.0000000000
40
0.0000000000
40
0.0000000000
40
0.1747889332
40
0.3419578812
40
0.4989989223
40
0.6472885561
40
0.7861505298
40
0.9177737976
40
1.0000000000
40
1.0000000000
40
1.0000000000
40
1.0000000000
10
-3.6054775187
20
-4.6122235570
30
0.0000000000
10
-3.6054510874
20
-4.6244107463
30
0.0000000000
10
-3.6067592251
20
-4.6482859636
30
0.0000000000
10
-3.6130427394
20
-4.6826073791
30
0.0000000000
10
-3.6234855247
20
-4.7139816664
30
0.0000000000
10
-3.6378492895
20
-4.7415881086
30
0.0000000000
10
-3.6558747235
20
-4.7647875402
30
0.0000000000
10
-3.6747329720
20
-4.7808673253
30
0.0000000000
10
-3.6877392620
20
-4.7883138337
30
0.0000000000
10
-3.6929242516
20
-4.7907898902
30
0.0000000000
11
-3.6054775187
21
-4.6122235570
31
0.0000000000
11
-3.6075716180
21
-4.6487251911
31
0.0000000000
11
-3.6139898982
21
-4.6830988470
31
0.0000000000
11
-3.6245056846
21
-4.7142194113
31
0.0000000000
11
-3.6389740414
21
-4.7416570211
31
0.0000000000
11
-3.6569293650
21
-4.7644892584
31
0.0000000000
11
-3.6779697793
21
-4.7822469544
31
0.0000000000
11
-3.6929242516
21
-4.7907898902
31
0.0000000000
0
SPLINE
5
375
100
AcDbEntity
8
0
100
AcDbSpline
62
7
6
CONTINUOUS
70
0
71
3
72
9
73
5
74
3
42
0.0000001000
43
0.0000001000
44
0.0000000001
12
-0.0168289983
22
-0.0080365736
32
0.0000000000
13
-0.0179194608
23
-0.0051734409
33
0.0000000000
40
0.0000000000
40
0.0000000000
40
0.0000000000
40
0.0000000000
40
0.5093852328
40
1.0000000000
40
1.0000000000
40
1.0000000000
40
1.0000000000
10
-3.6929242516
20
-4.7907898902
30
0.0000000000
10
-3.6957817327
20
-4.7921544609
30
0.0000000000
10
-3.7015011110
20
-4.7946024745
30
0.0000000000
10
-3.7074045973
20
-4.7965671648
30
0.0000000000
10
-3.7103351147
20
-4.7974132203
30
0.0000000000
11
-3.6929242516
21
-4.7907898902
31
0.0000000000
11
-3.7016562375
21
-4.7945230154
31
0.0000000000
11
-3.7103351147
21
-4.7974132203
31
0.0000000000
0
SPLINE
5
376
100
AcDbEntity
8
0
100
AcDbSpline
62
7
6
CONTINUOUS
70
0
71
3
72
17
73
13
74
11
42
0.0000001000
43
0.0000001000
44
0.0000000001
12
0.3463611394
22
-0.1060184557
32
0.0000000000
13
0.0007855806
23
-0.3622227694
33
0.0000000000
40
0.0000000000
40
0.0000000000
40
0.0000000000
40
0.0000000000
40
0.0826004766
40
0.1708948045
40
0.2641978556
40
0.3631013507
40
0.4659474333
40
0.5719193380
40
0.6800379833
40
0.7879461085
40
0.8953681747
40
1.0000000000
40
1.0000000000
40
1.0000000000
40
1.0000000000
10
-3.8809134188
20
40.8613622156
30
0.0000000000
10
-3.8713768870
20
40.8584431573
30
0.0000000000
10
-3.8522157483
20
40.8504290975
30
0.0000000000
10
-3.8251887523
20
40.8332493534
30
0.0000000000
10
-3.7995355298
20
40.8109641601
30
0.0000000000
10
-3.7759163367
20
40.7841677004
30
0.0000000000
10
-3.7548440467
20
40.7534650555
30
0.0000000000
10
-3.7368291467
20
40.7196166881
30
0.0000000000
10
-3.7223210311
20
40.6834678989
30
0.0000000000
10
-3.7116394099
20
40.6458279180
30
0.0000000000
10
-3.7050635701
20
40.6076877420
30
0.0000000000
10
-3.7034938838
20
40.5820675233
30
0.0000000000
10
-3.7034664848
20
40.5694341801
30
0.0000000000
11
-3.8809134188
21
40.8613622156
31
0.0000000000
11
-3.8532463761
21
40.8499722289
31
0.0000000000
11
-3.8261666324
21
40.8329559299
31
0.0000000000
11
-3.8005642435
21
40.8108940677
31
0.0000000000
11
-3.7767930325
21
40.7840915826
31
0.0000000000
11
-3.7556475884
21
40.7534211229
31
0.0000000000
11
-3.7375693079
21
40.7195592791
31
0.0000000000
11
-3.7229626377
21
40.6832220294
31
0.0000000000
11
-3.7122978034
21
40.6456182415
31
0.0000000000
11
-3.7057217994
21
40.6072671360
31
0.0000000000
11
-3.7034664848
21
40.5694341801
31
0.0000000000
0
SPLINE
5
377
100
AcDbEntity
8
0
100
AcDbSpline
62
7
6
CONTINUOUS
70
0
71
3
72
17
73
13
74
11
42
0.0000001000
43
0.0000001000
44
0.0000000001
12
0.3463702377
22
-0.1060212406
32
0.0000000000
13
0.0007856013
23
-0.3622322843
33
0.0000000000
40
0.0000000000
40
0.0000000000
40
0.0000000000
40
0.0000000000
40
0.0825863533
40
0.1708700371
40
0.2641656976
40
0.3630654335
40
0.4659122929
40
0.5718879730
40
0.6800137202
40
0.7879304307
40
0.8953609278
40
1.0000000000
40
1.0000000000
40
1.0000000000
40
1.0000000000
10
-20.0170376851
20
45.8005045755
30
0.0000000000
10
-20.0075025335
20
45.7975859396
30
0.0000000000
10
-19.9883437199
20
45.7895726677
30
0.0000000000
10
-19.9613195892
20
45.7723940945
30
0.0000000000
10
-19.9356681666
20
45.7501094880
30
0.0000000000
10
-19.9120497879
20
45.7233127353
30
0.0000000000
10
-19.8909775419
20
45.6926087604
30
0.0000000000
10
-19.8729621261
20
45.6587579355
30
0.0000000000
10
-19.8584532726
20
45.6226058085
30
0.0000000000
10
-19.8477709581
20
45.5849619292
30
0.0000000000
10
-19.8411946635
20
45.5468178279
30
0.0000000000
10
-19.8396248515
20
45.5211950443
30
0.0000000000
10
-19.8395974499
20
45.5085604943
30
0.0000000000
11
-20.0170376851
21
45.8005045755
31
0.0000000000
11
-19.9893747170
21
45.7891160655
31
0.0000000000
11
-19.9622977835
21
45.7721009621
31
0.0000000000
11
-19.9366971931
21
45.7500397539
31
0.0000000000
11
-19.9129268308
21
45.7232370784
31
0.0000000000
11
-19.8917812912
21
45.6925651542
31
0.0000000000
11
-19.8737024864
21
45.6587008970
31
0.0000000000
11
-19.8590949783
21
45.6223601028
31
0.0000000000
11
-19.8484293908
21
45.5847522287
31
0.0000000000
11
-19.8418529183
21
45.5463970680
31
0.0000000000
11
-19.8395974499
21
45.5085604943
31
0.0000000000
0
SPLINE
5
378
100
AcDbEntity
8
0
100
AcDbSpline
62
7
6
CONTINUOUS
70
0
71
3
72
12
73
8
74
6
42
0.0000001000
43
0.0000001000
44
0.0000000001
12
0.4543496014
22
-0.0812151192
32
0.0000000000
13
0.4502324556
23
-0.1015883447
33
0.0000000000
40
0.0000000000
40
0.0000000000
40
0.0000000000
40
0.0000000000
40
0.1739381430
40
0.3633987372
40
0.5660183770
40
0.7791233771
40
1.0000000000
40
1.0000000000
40
1.0000000000
40
1.0000000000
10
-3.9944432741
20
43.2096239832
30
0.0000000000
10
-3.9681003654
20
43.2049151809
30
0.0000000000
10
-3.9131302674
20
43.1947032250
30
0.0000000000
10
-3.8276853051
20
43.1778903368
30
0.0000000000
10
-3.7364948769
20
43.1590855836
30
0.0000000000
10
-3.6407322045
20
43.1385382738
30
0.0000000000
10
-3.5755523021
20
43.1240585341
30
0.0000000000
10
-3.5424036940
20
43.1165790372
30
0.0000000000
11
-3.9944432741
21
43.2096239832
31
0.0000000000
11
-3.9155039958
21
43.1950060067
31
0.0000000000
11
-3.8296970431
21
43.1781558827
31
0.0000000000
11
-3.7380998960
21
43.1592925062
31
0.0000000000
11
-3.6419261338
21
43.1386752316
31
0.0000000000
11
-3.5424036940
21
43.1165790372
31
0.0000000000
0
SPLINE
5
379
100
AcDbEntity
8
0
100
AcDbSpline
62
7
6
CONTINUOUS
70
0
71
3
72
8
73
4
74
2
42
0.0000001000
43
0.0000001000
44
0.0000000001
12
0.0665531912
22
-0.0150167507
32
0.0000000000
13
0.0652744343
23
-0.0200428632
33
0.0000000000
40
0.0000000000
40
0.0000000000
40
0.0000000000
40
0.0000000000
40
1.0000000000
40
1.0000000000
40
1.0000000000
40
1.0000000000
10
-3.5424036940
20
43.1165790372
30
0.0000000000
10
-3.5202192969
20
43.1115734537
30
0.0000000000
10
-3.4982281298
20
43.1056684490
30
0.0000000000
10
-3.4764699850
20
43.0989874946
30
0.0000000000
11
-3.5424036940
21
43.1165790372
31
0.0000000000
11
-3.4764699850
21
43.0989874946
31
0.0000000000
0
SPLINE
5
37A
100
AcDbEntity
8
0
100
AcDbSpline
62
7
6
CONTINUOUS
70
0
71
3
72
16
73
12
74
10
42
0.0000001000
43
0.0000001000
44
0.0000000001
12
-0.3393473772
22
-0.1019713601
32
0.0000000000
13
-0.3388200116
23
0.1037101750
33
0.0000000000
40
0.0000000000
40
0.0000000000
40
0.0000000000
40
0.0000000000
40
0.0973033251
40
0.2052160349
40
0.3204308372
40
0.4408690278
40
0.5621541085
40
0.6822700452
40
0.7968556673
40
0.9038531968
40
1.0000000000
40
1.0000000000
40
1.0000000000
40
1.0000000000
10
-8.9079693734
20
34.2940254914
30
0.0000000000
10
-8.9189759161
20
34.2907181073
30
0.0000000000
10
-8.9425365129
20
34.2848837543
30
0.0000000000
10
-8.9798620580
20
34.2784770647
30
0.0000000000
10
-9.0202277918
20
34.2740924858
30
0.0000000000
10
-9.0623487733
20
34.2718785299
30
0.0000000000
10
-9.1051062599
20
34.2718967263
30
0.0000000000
10
-9.1471129589
20
34.2741462640
30
0.0000000000
10
-9.1872536613
20
34.2785643577
30
0.0000000000
10
-9.2242508024
20
34.2850009085
30
0.0000000000
10
-9.2475536423
20
34.2908629680
30
0.0000000000
10
-9.2584124626
20
34.2941867686
30
0.0000000000
11
-8.9079693734
21
34.2940254914
31
0.0000000000
11
-8.9413958217
21
34.2855746036
31
0.0000000000
11
-8.9790639261
21
34.2790005051
31
0.0000000000
11
-9.0196431500
21
34.2745286379
31
0.0000000000
11
-9.0622584768
21
34.2722590089
31
0.0000000000
11
-9.1052342795
21
34.2722787868
31
0.0000000000
11
-9.1477331477
21
34.2745875862
31
0.0000000000
11
-9.1880839280
21
34.2790966981
31
0.0000000000
11
-9.2254167118
21
34.2857053127
31
0.0000000000
11
-9.2584124626
21
34.2941867686
31
0.0000000000
0
SPLINE
5
37B
100
AcDbEntity
8
0
100
AcDbSpline
62
7
6
CONTINUOUS
70
0
71
3
72
11
73
7
74
5
42
0.0000001000
43
0.0000001000
44
0.0000000001
12
0.2197598400
22
0.0660361956
32
0.0000000000
13
0.2197476464
23
-0.0672860788
33
0.0000000000
40
0.0000000000
40
0.0000000000
40
0.0000000000
40
0.0000000000
40
0.3157719643
40
0.6196093495
40
0.9160883221
40
1.0000000000
40
1.0000000000
40
1.0000000000
40
1.0000000000
10
-2.2746885045
20
43.2519092946
30
0.0000000000
10
-2.2515571723
20
43.2588600877
30
0.0000000000
10
-2.2049971453
20
43.2689927858
30
0.0000000000
10
-2.1346159686
20
43.2718203836
30
0.0000000000
10
-2.0825212477
20
43.2641638265
30
0.0000000000
10
-2.0544261569
20
43.2563911092
30
0.0000000000
10
-2.0482796924
20
43.2545090799
30
0.0000000000
11
-2.2746885045
21
43.2519092946
31
0.0000000000
11
-2.2038293666
21
43.2670529742
31
0.0000000000
11
-2.1341569684
21
43.2696476183
31
0.0000000000
11
-2.0668635078
21
43.2596492303
31
0.0000000000
11
-2.0482796924
21
43.2545090799
31
0.0000000000
0
SPLINE
5
37C
100
AcDbEntity
8
0
100
AcDbSpline
62
7
6
CONTINUOUS
70
0
71
3
72
12
73
8
74
6
42
0.0000001000
43
0.0000001000
44
0.0000000001
12
-0.0918998413
22
0.0281298279
32
0.0000000000
13
-0.0004937980
23
0.0974530194
33
0.0000000000
40
0.0000000000
40
0.0000000000
40
0.0000000000
40
0.0000000000
40
0.3073281697
40
0.5628627407
40
0.7649694756
40
0.9237050947
40
1.0000000000
40
1.0000000000
40
1.0000000000
40
1.0000000000
10
-26.2769530242
20
39.5034299056
30
0.0000000000
10
-26.2863674942
20
39.5063116017
30
0.0000000000
10
-26.3034002836
20
39.5123422055
30
0.0000000000
10
-26.3253506679
20
39.5234815271
30
0.0000000000
10
-26.3410456634
20
39.5356953098
30
0.0000000000
10
-26.3491326258
20
39.5477135161
30
0.0000000000
10
-26.3502588628
20
39.5553571554
30
0.0000000000
10
-26.3502714209
20
39.5578355451
30
0.0000000000
11
-26.2769530242
21
39.5034299056
31
0.0000000000
11
-26.3047047377
21
39.5135427768
31
0.0000000000
11
-26.3264227186
21
39.5250091428
31
0.0000000000
11
-26.3413617734
21
39.5374238201
31
0.0000000000
11
-26.3491881719
21
39.5505191942
31
0.0000000000
11
-26.3502714209
21
39.5578355451
31
0.0000000000
0
SPLINE
5
37D
100
AcDbEntity
8
0
100
AcDbSpline
62
7
6
CONTINUOUS
70
0
71
3
72
15
73
11
74
9
42
0.0000001000
43
0.0000001000
44
0.0000000001
12
-0.0999347008
22
0.4964935549
32
0.0000000000
13
-0.4848093306
23
0.1484555607
33
0.0000000000
40
0.0000000000
40
0.0000000000
40
0.0000000000
40
0.0000000000
40
0.0169185961
40
0.1846889897
40
0.3440384158
40
0.4949799565
40
0.6381295800
40
0.7747956630
40
0.9069487342
40
1.0000000000
40
1.0000000000
40
1.0000000000
40
1.0000000000
10
-0.4910956394
20
42.4841670101
30
0.0000000000
10
-0.4916592243
20
42.4869670014
30
0.0000000000
10
-0.4979783979
20
42.5174996233
30
0.0000000000
10
-0.5131782480
20
42.5736663700
30
0.0000000000
10
-0.5437737893
20
42.6485523921
30
0.0000000000
10
-0.5822904130
20
42.7149754968
30
0.0000000000
10
-0.6281488091
20
42.7717780946
30
0.0000000000
10
-0.6806388390
20
42.8179147863
30
0.0000000000
10
-0.7334772893
20
42.8492581579
30
0.0000000000
10
-0.7690910780
20
42.8629573411
30
0.0000000000
10
-0.7841284519
20
42.8675620004
30
0.0000000000
11
-0.4910956394
21
42.4841670101
31
0.0000000000
11
-0.4928324161
21
42.4925577407
31
0.0000000000
11
-0.5152555690
21
42.5744722277
31
0.0000000000
11
-0.5460257987
21
42.6490381553
31
0.0000000000
11
-0.5846192049
21
42.7149842897
31
0.0000000000
11
-0.6303734800
21
42.7711774676
31
0.0000000000
11
-0.6825063387
21
42.8166570822
31
0.0000000000
11
-0.7401270221
21
42.8506453575
31
0.0000000000
11
-0.7841284519
21
42.8675620004
31
0.0000000000
0
SPLINE
5
37E
100
AcDbEntity
8
0
100
AcDbSpline
62
7
6
CONTINUOUS
70
0
71
3
72
16
73
12
74
10
42
0.0000001000
43
0.0000001000
44
0.0000000001
12
-0.0014675492
22
0.6766711464
32
0.0000000000
13
-0.6480738034
23
0.1984538511
33
0.0000000000
40
0.0000000000
40
0.0000000000
40
0.0000000000
40
0.0000000000
40
0.1365563746
40
0.2678780295
40
0.3932187397
40
0.5121595839
40
0.6246919713
40
0.7312664939
40
0.8328608631
40
0.9309653130
40
1.0000000000
40
1.0000000000
40
1.0000000000
40
1.0000000000
10
-10.5061985880
20
45.3830451580
30
0.0000000000
10
-10.5062653890
20
45.4138464109
30
0.0000000000
10
-10.5092302880
20
45.4743102807
30
0.0000000000
10
-10.5225995274
20
45.5621525572
30
0.0000000000
10
-10.5446097934
20
45.6441642199
30
0.0000000000
10
-10.5749259372
20
45.7189609266
30
0.0000000000
10
-10.6130921910
20
45.7852792849
30
0.0000000000
10
-10.6585374518
20
45.8419650145
30
0.0000000000
10
-10.7105628970
20
45.8879748377
30
0.0000000000
10
-10.7629551797
20
45.9191990817
30
0.0000000000
10
-10.7982803884
20
45.9328141719
30
0.0000000000
10
-10.8131935791
20
45.9373809050
30
0.0000000000
11
-10.5061985880
21
45.3830451580
31
0.0000000000
11
-10.5108845374
21
45.4753302415
31
0.0000000000
11
-10.5244557919
21
45.5631495882
31
0.0000000000
11
-10.5466803308
21
45.6450006315
31
0.0000000000
11
-10.5771779366
21
45.7194826736
31
0.0000000000
11
-10.6154296023
21
45.7853254169
31
0.0000000000
11
-10.6607796463
21
45.8413977064
31
0.0000000000
11
-10.7124526937
21
45.8867400478
31
0.0000000000
11
-10.7695665384
21
45.9205767846
31
0.0000000000
11
-10.8131935791
21
45.9373809050
31
0.0000000000
0
SPLINE
5
37F
100
AcDbEntity
8
0
100
AcDbSpline
62
7
6
CONTINUOUS
70
0
71
3
72
11
73
7
74
5
42
0.0000001000
43
0.0000001000
44
0.0000000001
12
0.2176119048
22
0.0665348997
32
0.0000000000
13
0.2179227730
23
-0.0667284611
33
0.0000000000
40
0.0000000000
40
0.0000000000
40
0.0000000000
40
0.0000000000
40
0.3159606904
40
0.6197357150
40
0.9160638466
40
1.0000000000
40
1.0000000000
40
1.0000000000
40
1.0000000000
10
-12.3018093250
20
46.3211331290
30
0.0000000000
10
-12.2788903891
20
46.3281406000
30
0.0000000000
10
-12.2327502459
20
46.3383957247
30
0.0000000000
10
-12.1629596596
20
46.3414141008
30
0.0000000000
10
-12.1112967890
20
46.3338938400
30
0.0000000000
10
-12.0834421808
20
46.3261950114
30
0.0000000000
10
-12.0773449810
20
46.3243280346
30
0.0000000000
11
-12.3018093250
21
46.3211331290
31
0.0000000000
11
-12.2315636885
21
46.3364625449
31
0.0000000000
11
-12.1624936695
21
46.3392414092
31
0.0000000000
11
-12.0957810966
21
46.3294223367
31
0.0000000000
11
-12.0773449810
21
46.3243280346
31
0.0000000000
0
SPLINE
5
380
100
AcDbEntity
8
0
100
AcDbSpline
62
7
6
CONTINUOUS
70
0
71
3
72
14
73
10
74
8
42
0.0000001000
43
0.0000001000
44
0.0000000001
12
-0.2953830325
22
-0.0935012253
32
0.0000000000
13
0.0016339552
23
-0.3115502378
33
0.0000000000
40
0.0000000000
40
0.0000000000
40
0.0000000000
40
0.0000000000
40
0.2295031850
40
0.4315167582
40
0.6050865782
40
0.7509103276
40
0.8727229734
40
0.9782769371
40
1.0000000000
40
1.0000000000
40
1.0000000000
40
1.0000000000
10
-20.3350558222
20
43.7947681058
30
0.0000000000
10
-20.3576529378
20
43.7876151628
30
0.0000000000
10
-20.3997206525
20
43.7727461614
30
0.0000000000
10
-20.4566687225
20
43.7467750266
30
0.0000000000
10
-20.5028961174
20
43.7188431812
30
0.0000000000
10
-20.5378495975
20
43.6892024495
30
0.0000000000
10
-20.5610859701
20
43.6578374155
30
0.0000000000
10
-20.5688842670
20
43.6326323843
30
0.0000000000
10
-20.5693867567
20
43.6194218214
30
0.0000000000
10
-20.5693749252
20
43.6171658796
30
0.0000000000
11
-20.3350558222
21
43.7947681058
31
0.0000000000
11
-20.4019889133
21
43.7707658277
31
0.0000000000
11
-20.4587528233
21
43.7443971267
31
0.0000000000
11
-20.5044659774
21
43.7160729762
31
0.0000000000
11
-20.5384044178
21
43.6862494148
31
0.0000000000
11
-20.5600780015
21
43.6553521688
31
0.0000000000
11
-20.5691137946
21
43.6239215997
31
0.0000000000
11
-20.5693749252
21
43.6171658796
31
0.0000000000
0
SPLINE
5
381
100
AcDbEntity
8
0
100
AcDbSpline
62
7
6
CONTINUOUS
70
0
71
3
72
14
73
10
74
8
42
0.0000001000
43
0.0000001000
44
0.0000000001
12
-0.2953830325
22
-0.0935012253
32
0.0000000000
13
0.0016339552
23
-0.3115502378
33
0.0000000000
40
0.0000000000
40
0.0000000000
40
0.0000000000
40
0.0000000000
40
0.2295031850
40
0.4315167582
40
0.6050865782
40
0.7509103276
40
0.8727229734
40
0.9782769371
40
1.0000000000
40
1.0000000000
40
1.0000000000
40
1.0000000000
10
-10.2853601967
20
40.7186342989
30
0.0000000000
10
-10.3079573123
20
40.7114813559
30
0.0000000000
10
-10.3500250270
20
40.6966123545
30
0.0000000000
10
-10.4069730969
20
40.6706412197
30
0.0000000000
10
-10.4532004918
20
40.6427093743
30
0.0000000000
10
-10.4881539719
20
40.6130686427
30
0.0000000000
10
-10.5113903445
20
40.5817036086
30
0.0000000000
10
-10.5191886415
20
40.5564985774
30
0.0000000000
10
-10.5196911311
20
40.5432880145
30
0.0000000000
10
-10.5196792996
20
40.5410320727
30
0.0000000000
11
-10.2853601967
21
40.7186342989
31
0.0000000000
11
-10.3522932878
21
40.6946320209
31
0.0000000000
11
-10.4090571978
21
40.6682633198
31
0.0000000000
11
-10.4547703518
21
40.6399391693
31
0.0000000000
11
-10.4887087923
21
40.6101156079
31
0.0000000000
11
-10.5103823760
21
40.5792183619
31
0.0000000000
11
-10.5194181691
21
40.5477877929
31
0.0000000000
11
-10.5196792996
21
40.5410320727
31
0.0000000000
0
SPLINE
5
382
100
AcDbEntity
8
0
100
AcDbSpline
62
7
6
CONTINUOUS
70
0
71
3
72
11
73
7
74
5
42
0.0000001000
43
0.0000001000
44
0.0000000001
12
-0.2142798268
22
0.0656155520
32
0.0000000000
13
-0.2133097647
23
-0.0675215641
33
0.0000000000
40
0.0000000000
40
0.0000000000
40
0.0000000000
40
0.0000000000
40
0.0838743906
40
0.3799179363
40
0.6836004692
40
1.0000000000
40
1.0000000000
40
1.0000000000
40
1.0000000000
10
-0.7841284519
20
42.8675620004
30
0.0000000000
10
-0.7901193152
20
42.8693964885
30
0.0000000000
10
-0.8174872501
20
42.8769470429
30
0.0000000000
10
-0.8682837162
20
42.8841972678
30
0.0000000000
10
-0.9369019636
20
42.8807987373
30
0.0000000000
10
-0.9822075799
20
42.8702983502
30
0.0000000000
10
-1.0047046164
20
42.8631770864
30
0.0000000000
11
-0.7841284519
21
42.8675620004
31
0.0000000000
11
-0.8022453882
21
42.8725587375
31
0.0000000000
11
-0.8678027776
21
42.8820242172
31
0.0000000000
11
-0.9356763056
21
42.8788791163
31
0.0000000000
11
-1.0047046164
21
42.8631770864
31
0.0000000000
0
SPLINE
5
383
100
AcDbEntity
8
0
100
AcDbSpline
62
7
6
CONTINUOUS
70
0
71
3
72
11
73
7
74
5
42
0.0000001000
43
0.0000001000
44
0.0000000001
12
-0.2124612934
22
0.0650601238
32
0.0000000000
13
-0.2111548772
23
-0.0680094397
33
0.0000000000
40
0.0000000000
40
0.0000000000
40
0.0000000000
40
0.0000000000
40
0.0837881302
40
0.3796975246
40
0.6833497964
40
1.0000000000
40
1.0000000000
40
1.0000000000
40
1.0000000000
10
-10.8131935791
20
45.9373809050
30
0.0000000000
10
-10.8191274906
20
45.9391979937
30
0.0000000000
10
-10.8462492592
20
45.9466741695
30
0.0000000000
10
-10.8966111092
20
45.9537906304
30
0.0000000000
10
-10.9646472983
20
45.9502026023
30
0.0000000000
10
-11.0095380253
20
45.9395793218
30
0.0000000000
10
-11.0318254369
20
45.9324009208
30
0.0000000000
11
-10.8131935791
21
45.9373809050
31
0.0000000000
11
-10.8311393963
21
45.9423260355
31
0.0000000000
11
-10.8961222039
21
45.9516171505
31
0.0000000000
11
-10.9634012991
21
45.9482899350
31
0.0000000000
11
-11.0318254369
21
45.9324009208
31
0.0000000000
0
SPLINE
5
384
100
AcDbEntity
8
0
100
AcDbSpline
62
7
6
CONTINUOUS
70
0
71
3
72
8
73
4
74
2
42
0.0000001000
43
0.0000001000
44
0.0000000001
12
-0.0143411435
22
0.0043879715
32
0.0000000000
13
-0.0148042193
23
0.0000134715
33
0.0000000000
40
0.0000000000
40
0.0000000000
40
0.0000000000
40
0.0000000000
40
1.0000000000
40
1.0000000000
40
1.0000000000
40
1.0000000000
10
-9.3815289937
20
44.9066137271
30
0.0000000000
10
-9.3863093749
20
44.9080763843
30
0.0000000000
10
-9.3915506933
20
44.9084635170
30
0.0000000000
10
-9.3964854330
20
44.9084680075
30
0.0000000000
11
-9.3815289937
21
44.9066137271
31
0.0000000000
11
-9.3964854330
21
44.9084680075
31
0.0000000000
0
SPLINE
5
385
100
AcDbEntity
8
0
100
AcDbSpline
62
7
6
CONTINUOUS
70
0
71
3
72
26
73
22
74
20
42
0.0000001000
43
0.0000001000
44
0.0000000001
12
0.0078133370
22
-1.4897880454
32
0.0000000000
13
1.4168096554
23
0.4331899418
33
0.0000000000
40
0.0000000000
40
0.0000000000
40
0.0000000000
40
0.0000000000
40
0.0169029116
40
0.0406356269
40
0.0688790708
40
0.1026291596
40
0.1423857870
40
0.1879268680
40
0.2390840555
40
0.2951109932
40
0.3555456082
40
0.4193664594
40
0.4859419395
40
0.5541157475
40
0.6231537505
40
0.6918805652
40
0.7595033532
40
0.8249490314
40
0.8874040062
40
0.9460023403
40
1.0000000000
40
1.0000000000
40
1.0000000000
40
1.0000000000
10
-20.5693749252
20
43.6171658796
30
0.0000000000
10
-20.5693309024
20
43.6087719610
30
0.0000000000
10
-20.5659768676
20
43.5885517613
30
0.0000000000
10
-20.5489943985
20
43.5583688623
30
0.0000000000
10
-20.5188587178
20
43.5281588595
30
0.0000000000
10
-20.4772453387
20
43.4996389659
30
0.0000000000
10
-20.4246857031
20
43.4730229156
30
0.0000000000
10
-20.3617907849
20
43.4485978516
30
0.0000000000
10
-20.2895344332
20
43.4267631538
30
0.0000000000
10
-20.2089028136
20
43.4078317904
30
0.0000000000
10
-20.1212276410
20
43.3921322596
30
0.0000000000
10
-20.0277518287
20
43.3798956088
30
0.0000000000
10
-19.9300342267
20
43.3713329773
30
0.0000000000
10
-19.8294805275
20
43.3665707194
30
0.0000000000
10
-19.7277561986
20
43.3656894678
30
0.0000000000
10
-19.6263448185
20
43.3687019253
30
0.0000000000
10
-19.5268972703
20
43.3755570461
30
0.0000000000
10
-19.4308916272
20
43.3861500369
30
0.0000000000
10
-19.3398485021
20
43.4003075774
30
0.0000000000
10
-19.2551521393
20
43.4178079552
30
0.0000000000
10
-19.2013838560
20
43.4321570360
30
0.0000000000
10
-19.1758823874
20
43.4399541171
30
0.0000000000
11
-20.5693749252
21
43.6171658796
31
0.0000000000
11
-20.5653874037
21
43.5923678727
31
0.0000000000
11
-20.5489689310
21
43.5612752496
31
0.0000000000
11
-20.5200553618
21
43.5310272379
31
0.0000000000
11
-20.4791978701
21
43.5022014808
31
0.0000000000
11
-20.4268796710
21
43.4751421983
31
0.0000000000
11
-20.3641178599
21
43.4503758960
31
0.0000000000
11
-20.2916447958
21
43.4281924538
31
0.0000000000
11
-20.2108807909
21
43.4090266181
31
0.0000000000
11
-20.1227711377
21
43.3931020253
31
0.0000000000
11
-20.0290302218
21
43.3807282547
31
0.0000000000
11
-19.9307774027
21
43.3720516223
31
0.0000000000
11
-19.8298889970
21
43.3672375207
31
0.0000000000
11
-19.7276093532
21
43.3663436235
31
0.0000000000
11
-19.6258323325
21
43.3693868229
31
0.0000000000
11
-19.5258860602
21
43.3763254066
31
0.0000000000
11
-19.4295185449
21
43.3870399128
31
0.0000000000
11
-19.3381053705
21
43.4013756419
31
0.0000000000
11
-19.2531184506
21
43.4191054987
31
0.0000000000
11
-19.1758823874
21
43.4399541171
31
0.0000000000
0
SPLINE
5
386
100
AcDbEntity
8
0
100
AcDbSpline
62
7
6
CONTINUOUS
70
0
71
3
72
26
73
22
74
20
42
0.0000001000
43
0.0000001000
44
0.0000000001
12
0.0078133370
22
-1.4897880454
32
0.0000000000
13
1.4168096554
23
0.4331899418
33
0.0000000000
40
0.0000000000
40
0.0000000000
40
0.0000000000
40
0.0000000000
40
0.0169029116
40
0.0406356269
40
0.0688790708
40
0.1026291596
40
0.1423857870
40
0.1879268680
40
0.2390840555
40
0.2951109932
40
0.3555456082
40
0.4193664594
40
0.4859419395
40
0.5541157475
40
0.6231537505
40
0.6918805652
40
0.7595033532
40
0.8249490314
40
0.8874040062
40
0.9460023403
40
1.0000000000
40
1.0000000000
40
1.0000000000
40
1.0000000000
10
-10.5196792996
20
40.5410320727
30
0.0000000000
10
-10.5196352769
20
40.5326381541
30
0.0000000000
10
-10.5162812421
20
40.5124179544
30
0.0000000000
10
-10.4992987730
20
40.4822350554
30
0.0000000000
10
-10.4691630922
20
40.4520250526
30
0.0000000000
10
-10.4275497131
20
40.4235051590
30
0.0000000000
10
-10.3749900775
20
40.3968891087
30
0.0000000000
10
-10.3120951594
20
40.3724640448
30
0.0000000000
10
-10.2398388077
20
40.3506293469
30
0.0000000000
10
-10.1592071880
20
40.3316979835
30
0.0000000000
10
-10.0715320155
20
40.3159984527
30
0.0000000000
10
-9.9780562031
20
40.3037618019
30
0.0000000000
10
-9.8803386011
20
40.2951991704
30
0.0000000000
10
-9.7797849019
20
40.2904369125
30
0.0000000000
10
-9.6780605731
20
40.2895556610
30
0.0000000000
10
-9.5766491930
20
40.2925681184
30
0.0000000000
10
-9.4772016448
20
40.2994232392
30
0.0000000000
10
-9.3811960016
20
40.3100162300
30
0.0000000000
10
-9.2901528765
20
40.3241737705
30
0.0000000000
10
-9.2054565138
20
40.3416741483
30
0.0000000000
10
-9.1516882304
20
40.3560232292
30
0.0000000000
10
-9.1261867619
20
40.3638203102
30
0.0000000000
11
-10.5196792996
21
40.5410320727
31
0.0000000000
11
-10.5156917782
21
40.5162340658
31
0.0000000000
11
-10.4992733055
21
40.4851414427
31
0.0000000000
11
-10.4703597363
21
40.4548934310
31
0.0000000000
11
-10.4295022445
21
40.4260676739
31
0.0000000000
11
-10.3771840454
21
40.3990083914
31
0.0000000000
11
-10.3144222344
21
40.3742420891
31
0.0000000000
11
-10.2419491703
21
40.3520586469
31
0.0000000000
11
-10.1611851653
21
40.3328928112
31
0.0000000000
11
-10.0730755122
21
40.3169682184
31
0.0000000000
11
-9.9793345963
21
40.3045944479
31
0.0000000000
11
-9.8810817771
21
40.2959178155
31
0.0000000000
11
-9.7801933715
21
40.2911037138
31
0.0000000000
11
-9.6779137277
21
40.2902098166
31
0.0000000000
11
-9.5761367070
21
40.2932530160
31
0.0000000000
11
-9.4761904347
21
40.3001915997
31
0.0000000000
11
-9.3798229194
21
40.3109061059
31
0.0000000000
11
-9.2884097450
21
40.3252418350
31
0.0000000000
11
-9.2034228250
21
40.3429716918
31
0.0000000000
11
-9.1261867619
21
40.3638203102
31
0.0000000000
0
SPLINE
5
387
100
AcDbEntity
8
0
100
AcDbSpline
62
7
6
CONTINUOUS
70
0
71
3
72
14
73
10
74
8
42
0.0000001000
43
0.0000001000
44
0.0000000001
12
0.5406123234
22
0.1562435516
32
0.0000000000
13
0.4055641083
23
0.3897676727
33
0.0000000000
40
0.0000000000
40
0.0000000000
40
0.0000000000
40
0.0000000000
40
0.1494024637
40
0.2964780157
40
0.4420594902
40
0.5857850961
40
0.7271448453
40
0.8654758605
40
1.0000000000
40
1.0000000000
40
1.0000000000
40
1.0000000000
10
-5.5524866800
20
-3.8513336542
30
0.0000000000
10
-5.5255637423
20
-3.8435525970
30
0.0000000000
10
-5.4729911041
20
-3.8252026992
30
0.0000000000
10
-5.3974462483
20
-3.7908728833
30
0.0000000000
10
-5.3257310970
20
-3.7513345725
30
0.0000000000
10
-5.2577777565
20
-3.7076117660
30
0.0000000000
10
-5.1937167986
20
-3.6606424137
30
0.0000000000
10
-5.1337136908
20
-3.6112765944
30
0.0000000000
10
-5.0959304520
20
-3.5767456485
30
0.0000000000
10
-5.0777443978
20
-3.5592679283
30
0.0000000000
11
-5.5524866800
21
-3.8513336542
31
0.0000000000
11
-5.4730626565
21
-3.8238717066
31
0.0000000000
11
-5.3976752664
21
-3.7897999843
31
0.0000000000
11
-5.3259062147
21
-3.7503665346
31
0.0000000000
11
-5.2578747829
21
-3.7066900278
31
0.0000000000
11
-5.1937183562
21
-3.6597170304
31
0.0000000000
11
-5.1336100973
21
-3.6103056896
31
0.0000000000
11
-5.0777443978
21
-3.5592679283
31
0.0000000000
0
SPLINE
5
388
100
AcDbEntity
8
0
100
AcDbSpline
62
9
6
CONTINUOUS
70
0
71
3
72
13
73
9
74
7
42
0.0000001000
43
0.0000001000
44
0.0000000001
12
-0.0000510262
22
-0.0965350684
32
0.0000000000
13
0.0919574615
23
-0.0281474650
33
0.0000000000
40
0.0000000000
40
0.0000000000
40
0.0000000000
40
0.0000000000
40
0.0071728634
40
0.1360488826
40
0.2908762141
40
0.4847063251
40
0.7215820963
40
1.0000000000
40
1.0000000000
40
1.0000000000
40
1.0000000000
10
-26.2658870745
20
0.6222340130
30
0.0000000000
10
-26.2658871965
20
0.6220032020
30
0.0000000000
10
-26.2658220411
20
0.6176263377
30
0.0000000000
10
-26.2628887457
20
0.6083692205
30
0.0000000000
10
-26.2526690665
20
0.5966393268
30
0.0000000000
10
-26.2371995514
20
0.5858192167
30
0.0000000000
10
-26.2166626003
20
0.5759181591
30
0.0000000000
10
-26.2010445890
20
0.5704512817
30
0.0000000000
10
-26.1925103878
20
0.5678390290
30
0.0000000000
11
-26.2658870745
21
0.6222340130
31
0.0000000000
11
-26.2658766937
21
0.6215418128
31
0.0000000000
11
-26.2624879310
21
0.6096202303
31
0.0000000000
11
-26.2531587187
21
0.5980156989
31
0.0000000000
11
-26.2381151057
21
0.5870086475
31
0.0000000000
11
-26.2177189276
21
0.5768633080
31
0.0000000000
11
-26.1925103878
21
0.5678390290
31
0.0000000000
0
SPLINE
5
389
100
AcDbEntity
8
0
100
AcDbSpline
62
9
6
CONTINUOUS
70
0
71
3
72
13
73
9
74
7
42
0.0000001000
43
0.0000001000
44
0.0000000001
12
-0.0000914885
22
-0.0965450563
32
0.0000000000
13
0.0919664303
23
-0.0281502103
33
0.0000000000
40
0.0000000000
40
0.0000000000
40
0.0000000000
40
0.0000000000
40
0.0072696862
40
0.1361331372
40
0.2909453695
40
0.4847565778
40
0.7216092483
40
1.0000000000
40
1.0000000000
40
1.0000000000
40
1.0000000000
10
-26.3572064310
20
42.7286191126
30
0.0000000000
10
-26.3572066527
20
42.7283851618
30
0.0000000000
10
-26.3571423881
20
42.7240051260
30
0.0000000000
10
-26.3542081091
20
42.7147449048
30
0.0000000000
10
-26.3439884299
20
42.7030150111
30
0.0000000000
10
-26.3285189148
20
42.6921949011
30
0.0000000000
10
-26.3079819637
20
42.6822938434
30
0.0000000000
10
-26.2923639524
20
42.6768269660
30
0.0000000000
10
-26.2838297512
20
42.6742147133
30
0.0000000000
11
-26.3572064310
21
42.7286191126
31
0.0000000000
11
-26.3571960571
21
42.7279174972
31
0.0000000000
11
-26.3538072944
21
42.7159959146
31
0.0000000000
11
-26.3444780821
21
42.7043913832
31
0.0000000000
11
-26.3294344691
21
42.6933843318
31
0.0000000000
11
-26.3090382911
21
42.6832389923
31
0.0000000000
11
-26.2838297512
21
42.6742147133
31
0.0000000000
0
SPLINE
5
38A
100
AcDbEntity
8
0
100
AcDbSpline
62
9
6
CONTINUOUS
70
0
71
3
72
10
73
6
74
4
42
0.0000001000
43
0.0000001000
44
0.0000000001
12
0.0743146722
22
0.0247512308
32
0.0000000000
13
0.0749574708
23
-0.0221365816
33
0.0000000000
40
0.0000000000
40
0.0000000000
40
0.0000000000
40
0.0000000000
40
0.2836638520
40
0.6341860186
40
1.0000000000
40
1.0000000000
40
1.0000000000
40
1.0000000000
10
-26.1863530491
20
42.9663020356
30
0.0000000000
10
-26.1793262537
20
42.9686423788
30
0.0000000000
10
-26.1631123727
20
42.9723704805
30
0.0000000000
10
-26.1368578439
20
42.9728158610
30
0.0000000000
10
-26.1184056761
20
42.9691700793
30
0.0000000000
10
-26.1092655125
20
42.9664707890
30
0.0000000000
11
-26.1863530491
21
42.9663020356
31
0.0000000000
11
-26.1647343981
21
42.9712880906
31
0.0000000000
11
-26.1373443007
21
42.9718597117
31
0.0000000000
11
-26.1092655125
21
42.9664707890
31
0.0000000000
0
SPLINE
5
38B
100
AcDbEntity
8
0
100
AcDbSpline
62
7
6
CONTINUOUS
70
0
71
3
72
16
73
12
74
10
42
0.0000001000
43
0.0000001000
44
0.0000000001
12
-0.0013791700
22
0.6359204287
32
0.0000000000
13
-0.6088455127
23
0.1866067387
33
0.0000000000
40
0.0000000000
40
0.0000000000
40
0.0000000000
40
0.0000000000
40
0.1353236867
40
0.2658143723
40
0.3904127706
40
0.5093764459
40
0.6220999421
40
0.7297650283
40
0.8327468753
40
0.9329719874
40
1.0000000000
40
1.0000000000
40
1.0000000000
40
1.0000000000
10
-4.4084581905
20
33.9688889712
30
0.0000000000
10
-4.4085204019
20
33.9975740035
30
0.0000000000
10
-4.4113924568
20
34.0539619037
30
0.0000000000
10
-4.4243409783
20
34.1358629800
30
0.0000000000
10
-4.4456700349
20
34.2124291057
30
0.0000000000
10
-4.4750232392
20
34.2822557811
30
0.0000000000
10
-4.5120016196
20
34.3442589365
30
0.0000000000
10
-4.5559698603
20
34.3972395465
30
0.0000000000
10
-4.6063134870
20
34.4402991563
30
0.0000000000
10
-4.6561946366
20
34.4691188940
30
0.0000000000
10
-4.6894994451
20
34.4817372765
30
0.0000000000
10
-4.7031026800
20
34.4859065695
30
0.0000000000
11
-4.4084581905
21
33.9688889712
31
0.0000000000
11
-4.4129852056
21
34.0548251142
31
0.0000000000
11
-4.4261288017
21
34.1367594757
31
0.0000000000
11
-4.4476081260
21
34.2130274283
31
0.0000000000
11
-4.4771610064
21
34.2826678853
31
0.0000000000
11
-4.5141095813
21
34.3440951139
31
0.0000000000
11
-4.5580359998
21
34.3966131445
31
0.0000000000
11
-4.6079415493
21
34.4390179618
31
0.0000000000
11
-4.6631957901
21
34.4707852914
31
0.0000000000
11
-4.7031026800
21
34.4859065695
31
0.0000000000
0
SPLINE
5
38C
100
AcDbEntity
8
0
100
AcDbSpline
62
9
6
CONTINUOUS
70
0
71
3
72
27
73
23
74
21
42
0.0000001000
43
0.0000001000
44
0.0000000001
12
-1.6826476339
22
-0.4911613470
32
0.0000000000
13
-0.0044262915
23
1.7652324898
33
0.0000000000
40
0.0000000000
40
0.0000000000
40
0.0000000000
40
0.0000000000
40
0.0521411757
40
0.1085341485
40
0.1685273119
40
0.2313739244
40
0.2962804717
40
0.3624128737
40
0.4289103564
40
0.4949076942
40
0.5595501540
40
0.6220072207
40
0.6814899699
40
0.7372695830
40
0.7886971080
40
0.8352279754
40
0.8764562925
40
0.9121683446
40
0.9424355087
40
0.9677841154
40
0.9894716749
40
1.0000000000
40
1.0000000000
40
1.0000000000
40
1.0000000000
10
-5.0745401957
20
-5.0366910395
30
0.0000000000
10
-5.1037852710
20
-5.0452276162
30
0.0000000000
10
-5.1652659838
20
-5.0609531176
30
0.0000000000
10
-5.2618760812
20
-5.0801860922
30
0.0000000000
10
-5.3654666028
20
-5.0957903650
30
0.0000000000
10
-5.4745639865
20
-5.1075355548
30
0.0000000000
10
-5.5876137697
20
-5.1152487774
30
0.0000000000
10
-5.7030028394
20
-5.1188164367
30
0.0000000000
10
-5.8190822920
20
-5.1181859499
30
0.0000000000
10
-5.9341926117
20
-5.1133665497
30
0.0000000000
10
-6.0466901562
20
-5.1044289777
30
0.0000000000
10
-6.1549700637
20
-5.0915044887
30
0.0000000000
10
-6.2574900800
20
-5.0747831812
30
0.0000000000
10
-6.3527954424
20
-5.0545112303
30
0.0000000000
10
-6.4395433346
20
-5.0309866108
30
0.0000000000
10
-6.5165284371
20
-5.0045528388
30
0.0000000000
10
-6.5827107312
20
-4.9755850317
30
0.0000000000
10
-6.6372500239
20
-4.9444638826
30
0.0000000000
10
-6.6795237209
20
-4.9114902191
30
0.0000000000
10
-6.7090687884
20
-4.8767527802
30
0.0000000000
10
-6.7227119220
20
-4.8452489727
30
0.0000000000
10
-6.7246431411
20
-4.8262933934
30
0.0000000000
10
-6.7246586749
20
-4.8200984128
30
0.0000000000
11
-5.0745401957
21
-5.0366910395
31
0.0000000000
11
-5.1630277414
21
-5.0595664062
31
0.0000000000
11
-5.2599408133
21
-5.0790357675
31
0.0000000000
11
-5.3639089033
21
-5.0948240161
31
0.0000000000
11
-5.4734283643
21
-5.1067025157
31
0.0000000000
11
-5.5869332734
21
-5.1145016683
31
0.0000000000
11
-5.7027984142
21
-5.1181096155
31
0.0000000000
11
-5.8193579227
21
-5.1174744018
31
0.0000000000
11
-5.9349399609
21
-5.1126053115
31
0.0000000000
11
-6.0478889533
21
-5.1035721744
31
0.0000000000
11
-6.1565851890
21
-5.0905045061
31
0.0000000000
11
-6.2594693676
21
-5.0735897806
31
0.0000000000
11
-6.3550662525
21
-5.0530705793
31
0.0000000000
11
-6.4420052387
21
-5.0292411137
31
0.0000000000
11
-6.5190396127
21
-5.0024431009
31
0.0000000000
11
-6.5850646865
21
-4.9730608282
31
0.0000000000
11
-6.6391337651
21
-4.9415155608
31
0.0000000000
11
-6.6804714237
21
-4.9082596148
31
0.0000000000
11
-6.7084846090
21
-4.8737700604
31
0.0000000000
11
-6.7227716630
21
-4.8385415039
31
0.0000000000
11
-6.7246586749
21
-4.8200984128
31
0.0000000000
0
SPLINE
5
38D
100
AcDbEntity
8
0
100
AcDbSpline
62
9
6
CONTINUOUS
70
0
71
3
72
10
73
6
74
4
42
0.0000001000
43
0.0000001000
44
0.0000000001
12
-0.0736818039
22
0.0221532421
32
0.0000000000
13
-0.0733172403
23
-0.0240550454
33
0.0000000000
40
0.0000000000
40
0.0000000000
40
0.0000000000
40
0.0000000000
40
0.4091505430
40
0.7990779218
40
1.0000000000
40
1.0000000000
40
1.0000000000
40
1.0000000000
10
-6.3676815423
20
40.7182752348
30
0.0000000000
10
-6.3777305256
20
40.7212965718
30
0.0000000000
10
-6.3980588308
20
40.7251935357
30
0.0000000000
10
-6.4239336861
20
40.7238656961
30
0.0000000000
10
-6.4386921548
20
40.7200997505
30
0.0000000000
10
-6.4436025055
20
40.7184886872
30
0.0000000000
11
-6.3676815423
21
40.7182752348
31
0.0000000000
11
-6.3986390253
21
40.7239874269
31
0.0000000000
11
-6.4285934836
21
40.7223162544
31
0.0000000000
11
-6.4436025055
21
40.7184886872
31
0.0000000000
0
SPLINE
5
38E
100
AcDbEntity
8
0
100
AcDbSpline
62
9
6
CONTINUOUS
70
0
71
3
72
33
73
29
74
27
42
0.0000001000
43
0.0000001000
44
0.0000000001
12
-1.5029960210
22
-0.4936177847
32
0.0000000000
13
1.5101688604
23
0.4712171151
33
0.0000000000
40
0.0000000000
40
0.0000000000
40
0.0000000000
40
0.0000000000
40
0.0382867896
40
0.0722731097
40
0.1017802911
40
0.1268886923
40
0.1480646389
40
0.1663668956
40
0.1835872721
40
0.2018998556
40
0.2230939739
40
0.2482245688
40
0.2777539946
40
0.3117652452
40
0.3501007057
40
0.3924401488
40
0.4383461682
40
0.4872933974
40
0.5386893295
40
0.5918909664
40
0.6462202909
40
0.7009787966
40
0.7554589896
40
0.8089566432
40
0.8607891468
40
0.9103073963
40
0.9569011175
40
1.0000000000
40
1.0000000000
40
1.0000000000
40
1.0000000000
10
-6.3676815423
20
40.7182752348
30
0.0000000000
10
-6.3868631731
20
40.7119755547
30
0.0000000000
10
-6.4227083582
20
40.6989059781
30
0.0000000000
10
-6.4714697826
20
40.6762931069
30
0.0000000000
10
-6.5115661383
20
40.6520724275
30
0.0000000000
10
-6.5425174238
20
40.6264784079
30
0.0000000000
10
-6.5639569507
20
40.5995826244
30
0.0000000000
10
-6.5751892226
20
40.5712274398
30
0.0000000000
10
-6.5749057551
20
40.5420907926
30
0.0000000000
10
-6.5631274906
20
40.5139432377
30
0.0000000000
10
-6.5411746025
20
40.4874314861
30
0.0000000000
10
-6.5097358420
20
40.4623862930
30
0.0000000000
10
-6.4691791148
20
40.4388730962
30
0.0000000000
10
-6.4199733156
20
40.4171139438
30
0.0000000000
10
-6.3627429963
20
40.3973898423
30
0.0000000000
10
-6.2982601858
20
40.3799786692
30
0.0000000000
10
-6.2274198354
20
40.3651337229
30
0.0000000000
10
-6.1512193590
20
40.3530729576
30
0.0000000000
10
-6.0707395826
20
40.3439739725
30
0.0000000000
10
-5.9871265131
20
40.3379707924
30
0.0000000000
10
-5.9015727769
20
40.3351518421
30
0.0000000000
10
-5.8152998178
20
40.3355588241
30
0.0000000000
10
-5.7295408545
20
40.3391860861
30
0.0000000000
10
-5.6455212630
20
40.3459806986
30
0.0000000000
10
-5.5644397572
20
40.3558429505
30
0.0000000000
10
-5.4874512856
20
40.3686287545
30
0.0000000000
10
-5.4156702219
20
40.3841449511
30
0.0000000000
10
-5.3700299608
20
40.3966866903
30
0.0000000000
10
-5.3483344307
20
40.4034563340
30
0.0000000000
11
-6.3676815423
21
40.7182752348
31
0.0000000000
11
-6.4244988191
21
40.6972898729
31
0.0000000000
11
-6.4731328565
21
40.6743666825
31
0.0000000000
11
-6.5128526146
21
40.6498445023
31
0.0000000000
11
-6.5430823781
21
40.6240779527
31
0.0000000000
11
-6.5633905675
21
40.5974355049
31
0.0000000000
11
-6.5734857984
21
40.5702986783
31
0.0000000000
11
-6.5732226637
21
40.5430576861
31
0.0000000000
11
-6.5626052962
21
40.5161033017
31
0.0000000000
11
-6.5417859474
21
40.4898216693
31
0.0000000000
11
-6.5110630993
21
40.4645897310
31
0.0000000000
11
-6.4708775254
21
40.4407695143
31
0.0000000000
11
-6.4218057384
21
40.4187026954
31
0.0000000000
11
-6.3645515484
21
40.3987057161
31
0.0000000000
11
-6.2999361523
21
40.3810653616
31
0.0000000000
11
-6.2288863142
21
40.3660346172
31
0.0000000000
11
-6.1524208736
21
40.3538290124
31
0.0000000000
11
-6.0716364091
21
40.3446235989
31
0.0000000000
11
-5.9876919721
21
40.3385504422
31
0.0000000000
11
-5.9017915486
21
40.3356966117
31
0.0000000000
11
-5.8151657305
21
40.3361030355
31
0.0000000000
11
-5.7290570326
21
40.3397639998
31
0.0000000000
11
-5.6447036125
21
40.3466268016
31
0.0000000000
11
-5.5633136178
21
40.3565929588
31
0.0000000000
11
-5.4860508178
21
40.3695202128
31
0.0000000000
11
-5.4140322030
21
40.3852212133
31
0.0000000000
11
-5.3483344307
21
40.4034563340
31
0.0000000000
0
SPLINE
5
38F
100
AcDbEntity
8
0
100
AcDbSpline
62
9
6
CONTINUOUS
70
0
71
3
72
16
73
12
74
10
42
0.0000001000
43
0.0000001000
44
0.0000000001
12
0.3441163329
22
-0.1091690272
32
0.0000000000
13
0.0031693498
23
-0.3610039921
33
0.0000000000
40
0.0000000000
40
0.0000000000
40
0.0000000000
40
0.0000000000
40
0.0913021596
40
0.1896782551
40
0.2950890695
40
0.4067311633
40
0.5232314031
40
0.6428258363
40
0.7635214455
40
0.8832469728
40
1.0000000000
40
1.0000000000
40
1.0000000000
40
1.0000000000
10
-5.3483344307
20
40.4034563340
30
0.0000000000
10
-5.3378615760
20
40.4001338780
30
0.0000000000
10
-5.3168391241
20
40.3907790879
30
0.0000000000
10
-5.2874845107
20
40.3705118159
30
0.0000000000
10
-5.2599651728
20
40.3441579851
30
0.0000000000
10
-5.2350779266
20
40.3125152705
30
0.0000000000
10
-5.2135315861
20
40.2765199729
30
0.0000000000
10
-5.1959576248
20
40.2372399213
30
0.0000000000
10
-5.1828739191
20
40.1958383509
30
0.0000000000
10
-5.1746692637
20
40.1535543745
30
0.0000000000
10
-5.1725789240
20
40.1250884174
30
0.0000000000
10
-5.1724555802
20
40.1110389811
30
0.0000000000
11
-5.3483344307
21
40.4034563340
31
0.0000000000
11
-5.3181221812
21
40.3902770098
31
0.0000000000
11
-5.2887652491
21
40.3702889249
31
0.0000000000
11
-5.2611554575
21
40.3440992898
31
0.0000000000
11
-5.2361315536
21
40.3125037092
31
0.0000000000
11
-5.2144537291
21
40.2764620132
31
0.0000000000
11
-5.1967805263
21
40.2370690988
31
0.0000000000
11
-5.1836488327
21
40.1955216682
31
0.0000000000
11
-5.1754575709
21
40.1530818749
31
0.0000000000
11
-5.1724555802
21
40.1110389811
31
0.0000000000
0
SPLINE
5
390
100
AcDbEntity
8
0
100
AcDbSpline
62
9
6
CONTINUOUS
70
0
71
3
72
10
73
6
74
4
42
0.0000001000
43
0.0000001000
44
0.0000000001
12
-0.0749664671
22
0.0221392383
32
0.0000000000
13
-0.0743583545
23
-0.0248133570
33
0.0000000000
40
0.0000000000
40
0.0000000000
40
0.0000000000
40
0.0000000000
40
0.4058309274
40
0.7929510530
40
1.0000000000
40
1.0000000000
40
1.0000000000
40
1.0000000000
10
-22.4956158653
20
45.6521060527
30
0.0000000000
10
-22.5057571023
20
45.6551009819
30
0.0000000000
10
-22.5262656459
20
45.6589386815
30
0.0000000000
10
-22.5525449532
20
45.6575265027
30
0.0000000000
10
-22.5676127251
20
45.6536323047
30
0.0000000000
10
-22.5727446648
20
45.6519197782
30
0.0000000000
11
-22.4956158653
21
45.6521060527
31
0.0000000000
11
-22.5268359245
21
45.6577306858
31
0.0000000000
11
-22.5570450793
21
45.6559753282
31
0.0000000000
11
-22.5727446648
21
45.6519197782
31
0.0000000000
0
SPLINE
5
391
100
AcDbEntity
8
0
100
AcDbSpline
62
9
6
CONTINUOUS
70
0
71
3
72
33
73
29
74
27
42
0.0000001000
43
0.0000001000
44
0.0000000001
12
-1.5005599383
22
-0.5012912981
32
0.0000000000
13
1.5079494563
23
0.4786037307
33
0.0000000000
40
0.0000000000
40
0.0000000000
40
0.0000000000
40
0.0000000000
40
0.0379787078
40
0.0716394342
40
0.1008180489
40
0.1256170096
40
0.1465379385
40
0.1646913610
40
0.1819170363
40
0.2003864387
40
0.2218387739
40
0.2472781405
40
0.2771327787
40
0.3114643888
40
0.3501014210
40
0.3927138701
40
0.4388570933
40
0.4880002294
40
0.5395466183
40
0.5928502474
40
0.6472311237
40
0.7019897518
40
0.7564186127
40
0.8098144238
40
0.8614964974
40
0.9108186653
40
0.9571747450
40
1.0000000000
40
1.0000000000
40
1.0000000000
40
1.0000000000
10
-22.4956158653
20
45.6521060527
30
0.0000000000
10
-22.5146123078
20
45.6457599207
30
0.0000000000
10
-22.5500745615
20
45.6326074574
30
0.0000000000
10
-22.5982227840
20
45.6098683864
30
0.0000000000
10
-22.6376672245
20
45.5855412464
30
0.0000000000
10
-22.6679377003
20
45.5598530464
30
0.0000000000
10
-22.6886672707
20
45.5328566774
30
0.0000000000
10
-22.6991042542
20
45.5044008377
30
0.0000000000
10
-22.6979550044
20
45.4752776167
30
0.0000000000
10
-22.6853922512
20
45.4472477003
30
0.0000000000
10
-22.6627346645
20
45.4208473182
30
0.0000000000
10
-22.6306188257
20
45.3959086345
30
0.0000000000
10
-22.5894147565
20
45.3725144895
30
0.0000000000
10
-22.5396015272
20
45.3508938574
30
0.0000000000
10
-22.4818153927
20
45.3313290178
30
0.0000000000
10
-22.4168380252
20
45.3140965552
30
0.0000000000
10
-22.3455725426
20
45.2994474665
30
0.0000000000
10
-22.2690230433
20
45.2875969013
30
0.0000000000
10
-22.1882757078
20
45.2787193769
30
0.0000000000
10
-22.1044805789
20
45.2729456570
30
0.0000000000
10
-22.0188330055
20
45.2703607932
30
0.0000000000
10
-21.9325558285
20
45.2710030518
30
0.0000000000
10
-21.8468823316
20
45.2748633265
30
0.0000000000
10
-21.7630366181
20
45.2818852668
30
0.0000000000
10
-21.6822148219
20
45.2919658167
30
0.0000000000
10
-21.6055679350
20
45.3049576869
30
0.0000000000
10
-21.5342050959
20
45.3206646150
30
0.0000000000
10
-21.4888762898
20
45.3333344656
30
0.0000000000
10
-21.4673501831
20
45.3401665745
30
0.0000000000
11
-22.4956158653
21
45.6521060527
31
0.0000000000
11
-22.5518609754
21
45.6309700276
31
0.0000000000
11
-22.5998676053
21
45.6079191408
31
0.0000000000
11
-22.6389139890
21
45.5832941519
31
0.0000000000
11
-22.6684341501
21
45.5574511715
31
0.0000000000
11
-22.6880066584
21
45.5307597617
31
0.0000000000
11
-22.6973506651
21
45.5036021441
31
0.0000000000
11
-22.6963315662
21
45.4763688310
31
0.0000000000
11
-22.6849643385
21
45.4494504845
31
0.0000000000
11
-22.6634119755
21
45.4232327311
31
0.0000000000
11
-22.6319834712
21
45.3980915971
31
0.0000000000
11
-22.5911297224
21
45.3743878068
31
0.0000000000
11
-22.5414368246
21
45.3524613662
31
0.0000000000
11
-22.4836174930
21
45.3326267039
31
0.0000000000
11
-22.4185010282
21
45.3151682772
31
0.0000000000
11
-22.3470213794
21
45.3003364625
31
0.0000000000
11
-22.2702035489
21
45.2883439373
31
0.0000000000
11
-22.1891491693
21
45.2793626980
31
0.0000000000
11
-22.1050211651
21
45.2735215942
31
0.0000000000
11
-22.0190261556
21
45.2709043673
31
0.0000000000
11
-21.9323960902
21
45.2715485563
31
0.0000000000
11
-21.8463735496
21
45.2754450366
31
0.0000000000
11
-21.7621954522
21
45.2825377188
31
0.0000000000
11
-21.6810674307
21
45.2927248282
31
0.0000000000
11
-21.6041495159
21
45.3058609460
31
0.0000000000
11
-21.5325536999
21
45.3217557021
31
0.0000000000
11
-21.4673501831
21
45.3401665745
31
0.0000000000
0
SPLINE
5
392
100
AcDbEntity
8
0
100
AcDbSpline
62
9
6
CONTINUOUS
70
0
71
3
72
16
73
12
74
10
42
0.0000001000
43
0.0000001000
44
0.0000000001
12
0.3453082386
22
-0.1076045942
32
0.0000000000
13
0.0031552796
23
-0.3616719129
33
0.0000000000
40
0.0000000000
40
0.0000000000
40
0.0000000000
40
0.0000000000
40
0.0917322948
40
0.1904058409
40
0.2959768201
40
0.4076513539
40
0.5240749858
40
0.6435085181
40
0.7639879946
40
0.8834744177
40
1.0000000000
40
1.0000000000
40
1.0000000000
40
1.0000000000
10
-21.4673501831
20
45.3401665745
30
0.0000000000
10
-21.4567915440
20
45.3368763024
30
0.0000000000
10
-21.4355964356
20
45.3275919779
30
0.0000000000
10
-21.4059733833
20
45.3074091869
30
0.0000000000
10
-21.3782018490
20
45.2811309885
30
0.0000000000
10
-21.3530870504
20
45.2495538532
30
0.0000000000
10
-21.3313449119
20
45.2136130396
30
0.0000000000
10
-21.3136126769
20
45.1743752237
30
0.0000000000
10
-21.3004128814
20
45.1330025146
30
0.0000000000
10
-21.2921378044
20
45.0907333348
30
0.0000000000
10
-21.2900325049
20
45.0622705033
30
0.0000000000
10
-21.2899099479
20
45.0482224932
30
0.0000000000
11
-21.4673501831
21
45.3401665745
31
0.0000000000
11
-21.4368653911
21
45.3270717588
31
0.0000000000
11
-21.4072442795
21
45.3071649564
31
0.0000000000
11
-21.3793867838
21
45.2810509669
31
0.0000000000
11
-21.3541392581
21
45.2495231740
31
0.0000000000
11
-21.3322687614
21
45.2135394409
31
0.0000000000
11
-21.3144397535
21
45.1741930095
31
0.0000000000
11
-21.3011939074
21
45.1326792857
31
0.0000000000
11
-21.2929336524
21
45.0902595207
31
0.0000000000
11
-21.2899099479
21
45.0482224932
31
0.0000000000
0
SPLINE
5
393
100
AcDbEntity
8
0
100
AcDbSpline
62
7
6
CONTINUOUS
70
0
71
3
72
27
73
23
74
21
42
0.0000001000
43
0.0000001000
44
0.0000000001
12
-1.6806410541
22
-0.5334456845
32
0.0000000000
13
-0.0087111466
23
1.7720154631
33
0.0000000000
40
0.0000000000
40
0.0000000000
40
0.0000000000
40
0.0000000000
40
0.0514351081
40
0.1070500661
40
0.1661970893
40
0.2281738705
40
0.2922193796
40
0.3575082505
40
0.4232390237
40
0.4885391252
40
0.5526072940
40
0.6146129352
40
0.6737942447
40
0.7294446559
40
0.7809104071
40
0.8276794302
40
0.8693250186
40
0.9056447476
40
0.9366712380
40
0.9628647568
40
0.9853364372
40
1.0000000000
40
1.0000000000
40
1.0000000000
40
1.0000000000
10
-21.2872214570
20
43.8085882401
30
0.0000000000
10
-21.3160361084
20
43.7994422946
30
0.0000000000
10
-21.3766755543
20
43.7824823191
30
0.0000000000
10
-21.4721048867
20
43.7614347638
30
0.0000000000
10
-21.5745491163
20
43.7440023022
30
0.0000000000
10
-21.6825665619
20
43.7304377316
30
0.0000000000
10
-21.7946378953
20
43.7209373733
30
0.0000000000
10
-21.9091933787
20
43.7156378170
30
0.0000000000
10
-22.0246038015
20
43.7146164749
30
0.0000000000
10
-22.1392550756
20
43.7178880120
30
0.0000000000
10
-22.2515137857
20
43.7254044479
30
0.0000000000
10
-22.3598052016
20
43.7370572784
30
0.0000000000
10
-22.4625989447
20
43.7526761932
30
0.0000000000
10
-22.5584496792
20
43.7720334110
30
0.0000000000
10
-22.6460279196
20
43.7948488326
30
0.0000000000
10
-22.7241190901
20
43.8207907280
30
0.0000000000
10
-22.7916869039
20
43.8494980850
30
0.0000000000
10
-22.8478650246
20
43.8805941722
30
0.0000000000
10
-22.8920075088
20
43.9137610611
30
0.0000000000
10
-22.9236188831
20
43.9488768516
30
0.0000000000
10
-22.9403411853
20
43.9828365216
30
0.0000000000
10
-22.9433765531
20
44.0048647741
30
0.0000000000
10
-22.9434191319
20
44.0135261274
30
0.0000000000
11
-21.2872214570
21
43.8085882401
31
0.0000000000
11
-21.3744990004
21
43.7839301276
31
0.0000000000
11
-21.4702234863
21
43.7626369358
31
0.0000000000
11
-21.5730159748
21
43.7450144271
31
0.0000000000
11
-21.6814348334
21
43.7313084680
31
0.0000000000
11
-21.7939558688
21
43.7217124195
31
0.0000000000
11
-21.9089534450
21
43.7163644618
31
0.0000000000
11
-22.0248499605
21
43.7153386943
31
0.0000000000
11
-22.1399439857
21
43.7186505414
31
0.0000000000
11
-22.2526572099
21
43.7262546539
31
0.0000000000
11
-22.3613526480
21
43.7380414579
31
0.0000000000
11
-22.4645017064
21
43.7538444346
31
0.0000000000
11
-22.5606515329
21
43.7734416967
31
0.0000000000
11
-22.6484085314
21
43.7965480809
31
0.0000000000
11
-22.7265692380
21
43.8228465271
31
0.0000000000
11
-22.7939877424
21
43.8519508370
31
0.0000000000
11
-22.8497408529
21
43.8834611479
31
0.0000000000
11
-22.8930224297
21
43.9169227192
31
0.0000000000
11
-22.9232255646
21
43.9518646463
31
0.0000000000
11
-22.9399237556
21
43.9877979461
31
0.0000000000
11
-22.9434191319
21
44.0135261274
31
0.0000000000
0
SPLINE
5
394
100
AcDbEntity
8
0
100
AcDbSpline
62
7
6
CONTINUOUS
70
0
71
3
72
21
73
17
74
15
42
0.0000001000
43
0.0000001000
44
0.0000000001
12
-1.1065381092
22
-0.0211472699
32
0.0000000000
13
-0.0021207359
23
1.1139396438
33
0.0000000000
40
0.0000000000
40
0.0000000000
40
0.0000000000
40
0.0000000000
40
0.1046785610
40
0.2083974186
40
0.3098160102
40
0.4076769622
40
0.5007837536
40
0.5880025890
40
0.6683912971
40
0.7410974250
40
0.8055679499
40
0.8615061907
40
0.9091105928
40
0.9493090023
40
0.9841482157
40
1.0000000000
40
1.0000000000
40
1.0000000000
40
1.0000000000
10
-5.8116267034
20
38.7804639023
30
0.0000000000
10
-5.8502369757
20
38.7797260138
30
0.0000000000
10
-5.9271387626
20
38.7796931604
30
0.0000000000
10
-6.0413816064
20
38.7839313728
30
0.0000000000
10
-6.1528706836
20
38.7923945169
30
0.0000000000
10
-6.2600343248
20
38.8049588750
30
0.0000000000
10
-6.3613669146
20
38.8214417430
30
0.0000000000
10
-6.4554571498
20
38.8416049542
30
0.0000000000
10
-6.5409869105
20
38.8651543349
30
0.0000000000
10
-6.6167948906
20
38.8917555416
30
0.0000000000
10
-6.6818618074
20
38.9210357753
30
0.0000000000
10
-6.7353799907
20
38.9526281812
30
0.0000000000
10
-6.7767353614
20
38.9862428266
30
0.0000000000
10
-6.8054396416
20
39.0218070540
30
0.0000000000
10
-6.8181528983
20
39.0535653334
30
0.0000000000
10
-6.8198584896
20
39.0723812082
30
0.0000000000
10
-6.8198696954
20
39.0782671852
30
0.0000000000
11
-5.8116267034
21
38.7804639023
31
0.0000000000
11
-5.9274786633
21
38.7804205849
31
0.0000000000
11
-6.0421883107
21
38.7847102043
31
0.0000000000
11
-6.1541054615
21
38.7932701932
31
0.0000000000
11
-6.2616638256
21
38.8059795567
31
0.0000000000
11
-6.3633497930
21
38.8226601253
31
0.0000000000
11
-6.4576958433
21
38.8430706897
31
0.0000000000
11
-6.5434058426
21
38.8669317943
31
0.0000000000
11
-6.6192211713
21
38.8938936296
31
0.0000000000
11
-6.6841015300
21
38.9235864569
31
0.0000000000
11
-6.7371029787
21
38.9555799381
31
0.0000000000
11
-6.7774812109
21
38.9894234272
31
0.0000000000
11
-6.8046659670
21
39.0246410003
31
0.0000000000
11
-6.8182651785
21
39.0607211538
31
0.0000000000
11
-6.8198696954
21
39.0782671852
31
0.0000000000
0
SPLINE
5
395
100
AcDbEntity
8
0
100
AcDbSpline
62
7
6
CONTINUOUS
70
0
71
3
72
16
73
12
74
10
42
0.0000001000
43
0.0000001000
44
0.0000000001
12
-0.6235366673
22
0.2233381107
32
0.0000000000
13
-0.6622067078
23
-0.0126555641
33
0.0000000000
40
0.0000000000
40
0.0000000000
40
0.0000000000
40
0.0000000000
40
0.0897600404
40
0.1859988303
40
0.2881606244
40
0.3957263029
40
0.5082407539
40
0.6252957376
40
0.7465187827
40
0.8715721665
40
1.0000000000
40
1.0000000000
40
1.0000000000
40
1.0000000000
10
-5.1692513781
20
38.6336158699
30
0.0000000000
10
-5.1879076036
20
38.6402981492
30
0.0000000000
10
-5.2265878694
20
38.6540863453
30
0.0000000000
10
-5.2867158042
20
38.6748758180
30
0.0000000000
10
-5.3508967062
20
38.6959548706
30
0.0000000000
10
-5.4189593591
20
38.7166879623
30
0.0000000000
10
-5.4907598009
20
38.7363508856
30
0.0000000000
10
-5.5661732590
20
38.7540720214
30
0.0000000000
10
-5.6450772892
20
38.7687370419
30
0.0000000000
10
-5.7272440790
20
38.7788229984
30
0.0000000000
10
-5.7832781125
20
38.7810056779
30
0.0000000000
10
-5.8116267034
20
38.7804639023
30
0.0000000000
11
-5.1692513781
21
38.6336158699
31
0.0000000000
11
-5.2252709350
21
38.6535200830
31
0.0000000000
11
-5.2855314159
21
38.6742966857
31
0.0000000000
11
-5.3498353895
21
38.6953559877
31
0.0000000000
11
-5.4180064337
21
38.7160532454
31
0.0000000000
11
-5.4899035209
21
38.7356555997
31
0.0000000000
11
-5.5654030230
21
38.7532775243
31
0.0000000000
11
-5.6443717309
21
38.7677801594
31
0.0000000000
11
-5.7266135333
21
38.7776027735
31
0.0000000000
11
-5.8116267034
21
38.7804639023
31
0.0000000000
0
SPLINE
5
396
100
AcDbEntity
8
0
100
AcDbSpline
62
7
6
CONTINUOUS
70
0
71
3
72
14
73
10
74
8
42
0.0000001000
43
0.0000001000
44
0.0000000001
12
4.5052107717
22
1.3537822920
32
0.0000000000
13
3.5983652752
23
3.0300854671
33
0.0000000000
40
0.0000000000
40
0.0000000000
40
0.0000000000
40
0.0000000000
40
0.1339373582
40
0.2707387608
40
0.4104290595
40
0.5532396373
40
0.6990506127
40
0.8480183312
40
1.0000000000
40
1.0000000000
40
1.0000000000
40
1.0000000000
10
-8.7253295106
20
-1.4392066368
30
0.0000000000
10
-8.5241908344
20
-1.3787659623
30
0.0000000000
10
-8.1216508010
20
-1.2427337312
30
0.0000000000
10
-7.5261379076
20
-0.9976131235
30
0.0000000000
10
-6.9344052257
20
-0.7100528993
30
0.0000000000
10
-6.3484588489
20
-0.3810419736
30
0.0000000000
10
-5.7698802572
20
-0.0114904601
30
0.0000000000
10
-5.2006073856
20
0.3973453954
30
0.0000000000
10
-4.8320049139
20
0.6924054719
30
0.0000000000
10
-4.6497097274
20
0.8459112872
30
0.0000000000
11
-8.7253295106
21
-1.4392066368
31
0.0000000000
11
-8.1282857958
21
-1.2378924975
31
0.0000000000
11
-7.5330180689
21
-0.9933430789
31
0.0000000000
11
-6.9417922961
21
-0.7065045242
31
0.0000000000
11
-6.3558027825
21
-0.3779509655
31
0.0000000000
11
-5.7775140105
21
-0.0090647112
31
0.0000000000
11
-5.2080923553
21
0.3994037577
31
0.0000000000
11
-4.6497097274
21
0.8459112872
31
0.0000000000
0
SPLINE
5
397
100
AcDbEntity
8
0
100
AcDbSpline
62
7
6
CONTINUOUS
70
0
71
3
72
16
73
12
74
10
42
0.0000001000
43
0.0000001000
44
0.0000000001
12
0.6109515439
22
0.5144656678
32
0.0000000000
13
-0.0017322190
23
0.7987075258
33
0.0000000000
40
0.0000000000
40
0.0000000000
40
0.0000000000
40
0.0000000000
40
0.1022737945
40
0.2088307665
40
0.3186689525
40
0.4314828072
40
0.5456894584
40
0.6609466373
40
0.7755551173
40
0.8890206636
40
1.0000000000
40
1.0000000000
40
1.0000000000
40
1.0000000000
10
-4.6497097274
20
0.8459112872
30
0.0000000000
10
-4.6288816165
20
0.8634500725
30
0.0000000000
10
-4.5884982827
20
0.9018731366
30
0.0000000000
10
-4.5336577618
20
0.9667981006
30
0.0000000000
10
-4.4840663335
20
1.0392401727
30
0.0000000000
10
-4.4406387757
20
1.1178578002
30
0.0000000000
10
-4.4040317303
20
1.2014448599
30
0.0000000000
10
-4.3749299967
20
1.2884332953
30
0.0000000000
10
-4.3537807653
20
1.3774892248
30
0.0000000000
10
-4.3409727741
20
1.4669669025
30
0.0000000000
10
-4.3380984369
20
1.5267638299
30
0.0000000000
10
-4.3381625171
20
1.5563105070
30
0.0000000000
11
-4.6497097274
21
0.8459112872
31
0.0000000000
11
-4.5903927221
21
0.9020741363
31
0.0000000000
11
-4.5353481557
21
0.9669854361
31
0.0000000000
11
-4.4856914243
21
1.0393079775
31
0.0000000000
11
-4.4420498738
21
1.1181395309
31
0.0000000000
11
-4.4054156970
21
1.2016778285
31
0.0000000000
11
-4.3762031834
21
1.2889768489
31
0.0000000000
11
-4.3550824381
21
1.3780458052
31
0.0000000000
11
-4.3423111256
21
1.4677674037
31
0.0000000000
11
-4.3381625171
21
1.5563105070
31
0.0000000000
0
SPLINE
5
398
100
AcDbEntity
8
0
100
AcDbSpline
62
7
6
CONTINUOUS
70
0
71
3
72
12
73
8
74
6
42
0.0000001000
43
0.0000001000
44
0.0000000001
12
-0.2622138755
22
0.0002386082
32
0.0000000000
13
-0.2581226835
23
0.0461395023
33
0.0000000000
40
0.0000000000
40
0.0000000000
40
0.0000000000
40
0.0000000000
40
0.1217163924
40
0.2840476892
40
0.4859243191
40
0.7253984806
40
1.0000000000
40
1.0000000000
40
1.0000000000
40
1.0000000000
10
-9.3964854330
20
44.9084680075
30
0.0000000000
10
-9.4071240087
20
44.9084776883
30
0.0000000000
10
-9.4319406213
20
44.9098433694
30
0.0000000000
10
-9.4741951147
20
44.9141629741
30
0.0000000000
10
-9.5265017665
20
44.9211627461
30
0.0000000000
10
-9.5883360196
20
44.9307951375
30
0.0000000000
10
-9.6326166661
20
44.9384337881
30
0.0000000000
10
-9.6562436265
20
44.9426571139
30
0.0000000000
11
-9.3964854330
21
44.9084680075
31
0.0000000000
11
-9.4283707606
21
44.9098609734
31
0.0000000000
11
-9.4707338774
21
44.9140072001
31
0.0000000000
11
-9.5232182735
21
44.9208984413
31
0.0000000000
11
-9.5852765363
21
44.9304792756
31
0.0000000000
11
-9.6562436265
21
44.9426571139
31
0.0000000000
0
SPLINE
5
399
100
AcDbEntity
8
0
100
AcDbSpline
62
7
6
CONTINUOUS
70
0
71
3
72
17
73
13
74
11
42
0.0000001000
43
0.0000001000
44
0.0000000001
12
0.0813588082
22
-0.8466796051
32
0.0000000000
13
-0.8134246912
23
-0.2529957539
33
0.0000000000
40
0.0000000000
40
0.0000000000
40
0.0000000000
40
0.0000000000
40
0.1298234244
40
0.2539916556
40
0.3717589497
40
0.4831691599
40
0.5879909402
40
0.6871936429
40
0.7813796960
40
0.8724612474
40
0.9618443998
40
1.0000000000
40
1.0000000000
40
1.0000000000
40
1.0000000000
10
-5.8752873103
20
4.7919670678
30
0.0000000000
10
-5.8717665506
20
4.7553274526
30
0.0000000000
10
-5.8680058681
20
4.6832915531
30
0.0000000000
10
-5.8726935558
20
4.5778192979
30
0.0000000000
10
-5.8877628761
20
4.4785633604
30
0.0000000000
10
-5.9130042935
20
4.3870344967
30
0.0000000000
10
-5.9481143764
20
4.3044597620
30
0.0000000000
10
-5.9925980605
20
4.2321427172
30
0.0000000000
10
-6.0459296085
20
4.1710937050
30
0.0000000000
10
-6.1072772484
20
4.1223911086
30
0.0000000000
10
-6.1626215774
20
4.0936296580
30
0.0000000000
10
-6.1967689594
20
4.0814854397
30
0.0000000000
10
-6.2071145285
20
4.0782677047
30
0.0000000000
11
-5.8752873103
21
4.7919670678
31
0.0000000000
11
-5.8697413657
21
4.6816812715
31
0.0000000000
11
-5.8746884931
21
4.5761822387
31
0.0000000000
11
-5.8900265574
21
4.4771930283
31
0.0000000000
11
-5.9155534034
21
4.3859326673
31
0.0000000000
11
-5.9507788383
21
4.3040269698
31
0.0000000000
11
-5.9952958048
21
4.2323458072
31
0.0000000000
11
-6.0482300882
21
4.1722125252
31
0.0000000000
11
-6.1090258908
21
4.1241938024
31
0.0000000000
11
-6.1765038320
21
4.0891665884
31
0.0000000000
11
-6.2071145285
21
4.0782677047
31
0.0000000000
0
SPLINE
5
39A
100
AcDbEntity
8
0
100
AcDbSpline
62
9
6
CONTINUOUS
70
0
71
3
72
14
73
10
74
8
42
0.0000001000
43
0.0000001000
44
0.0000000001
12
0.2187430015
22
0.0633514922
32
0.0000000000
13
0.0010025995
23
0.2270599620
33
0.0000000000
40
0.0000000000
40
0.0000000000
40
0.0000000000
40
0.0000000000
40
0.0779398262
40
0.2082591077
40
0.3457113418
40
0.4930984325
40
0.6516272146
40
0.8210596510
40
1.0000000000
40
1.0000000000
40
1.0000000000
40
1.0000000000
10
-5.1789296243
20
-5.2217430876
30
0.0000000000
10
-5.1732466938
20
-5.2200972195
30
0.0000000000
10
-5.1584103267
20
-5.2144841667
30
0.0000000000
10
-5.1362125888
20
-5.2001065150
30
0.0000000000
10
-5.1145014120
20
-5.1770213135
30
0.0000000000
10
-5.0970266027
20
-5.1481235869
30
0.0000000000
10
-5.0842073139
20
-5.1143241089
30
0.0000000000
10
-5.0763540353
20
-5.0766339624
30
0.0000000000
10
-5.0745999975
20
-5.0502344357
30
0.0000000000
10
-5.0745401957
20
-5.0366910395
30
0.0000000000
11
-5.1789296243
21
-5.2217430876
31
0.0000000000
11
-5.1623469221
21
-5.2154689902
31
0.0000000000
11
-5.1374261426
21
-5.1995141430
31
0.0000000000
11
-5.1158754388
21
-5.1769388477
31
0.0000000000
11
-5.0983494934
21
-5.1484289085
31
0.0000000000
11
-5.0853807225
21
-5.1148504171
31
0.0000000000
11
-5.0773631014
21
-5.0772234417
31
0.0000000000
11
-5.0745401957
21
-5.0366910395
31
0.0000000000
0
SPLINE
5
39B
100
AcDbEntity
8
0
100
AcDbSpline
62
9
6
CONTINUOUS
70
0
71
3
72
27
73
23
74
21
42
0.0000001000
43
0.0000001000
44
0.0000000001
12
0.0053515390
22
-1.7679704737
32
0.0000000000
13
1.6779661703
23
0.5186111333
33
0.0000000000
40
0.0000000000
40
0.0000000000
40
0.0000000000
40
0.0000000000
40
0.0107675668
40
0.0328814601
40
0.0585114871
40
0.0889325660
40
0.1246997782
40
0.1659094214
40
0.2123672454
40
0.2636826943
40
0.3193237462
40
0.3786521434
40
0.4409485093
40
0.5054324508
40
0.5712812592
40
0.6376474877
40
0.7036728657
40
0.7685031281
40
0.8313102075
40
0.8913067378
40
0.9477520844
40
1.0000000000
40
1.0000000000
40
1.0000000000
40
1.0000000000
10
-6.8225594779
20
40.3192932656
30
0.0000000000
10
-6.8225402702
20
40.3129476856
30
0.0000000000
10
-6.8206124033
20
40.2935732688
30
0.0000000000
10
-6.8070640333
20
40.2613634500
30
0.0000000000
10
-6.7775229852
20
40.2258296699
30
0.0000000000
10
-6.7352247863
20
40.1922383509
30
0.0000000000
10
-6.6806596156
20
40.1606774367
30
0.0000000000
10
-6.6144569867
20
40.1314459414
30
0.0000000000
10
-6.5374569827
20
40.1049222832
30
0.0000000000
10
-6.4506983458
20
40.0814805070
30
0.0000000000
10
-6.3553852032
20
40.0614618145
30
0.0000000000
10
-6.2528594869
20
40.0451601577
30
0.0000000000
10
-6.1445753190
20
40.0328155701
30
0.0000000000
10
-6.0320745026
20
40.0246098423
30
0.0000000000
10
-5.9169615663
20
40.0206637923
30
0.0000000000
10
-5.8008798227
20
40.0210357207
30
0.0000000000
10
-5.6854884535
20
40.0257205725
30
0.0000000000
10
-5.5724361209
20
40.0346498753
30
0.0000000000
10
-5.4633356559
20
40.0476927208
30
0.0000000000
10
-5.3597410535
20
40.0646579836
30
0.0000000000
10
-5.2631258716
20
40.0852958780
30
0.0000000000
10
-5.2016789919
20
40.1020068642
30
0.0000000000
10
-5.1724555802
20
40.1110389811
30
0.0000000000
11
-6.8225594779
21
40.3192932656
31
0.0000000000
11
-6.8206679301
21
40.3003953254
31
0.0000000000
11
-6.8063788635
21
40.2642811779
31
0.0000000000
11
-6.7783639844
21
40.2290478460
31
0.0000000000
11
-6.7370249630
21
40.1952005836
31
0.0000000000
11
-6.6829548686
21
40.1632249462
31
0.0000000000
11
-6.6169291498
21
40.1335794259
31
0.0000000000
11
-6.5398945102
21
40.1066890603
31
0.0000000000
11
-6.4529556364
21
40.0829394592
31
0.0000000000
11
-6.3573592460
21
40.0626711961
31
0.0000000000
11
-6.2544759411
21
40.0461748854
31
0.0000000000
11
-6.1457809259
21
40.0336871073
31
0.0000000000
11
-6.0328334732
21
40.0253870185
31
0.0000000000
11
-5.9172533349
21
40.0213936254
31
0.0000000000
11
-5.8006960828
21
40.0217642119
31
0.0000000000
11
-5.6848333573
21
40.0264936429
31
0.0000000000
11
-5.5713309673
21
40.0355138519
31
0.0000000000
11
-5.4618144251
21
40.0486954541
31
0.0000000000
11
-5.3578493868
21
40.0658502578
31
0.0000000000
11
-5.2609391938
21
40.0867298791
31
0.0000000000
11
-5.1724555802
21
40.1110389811
31
0.0000000000
0
SPLINE
5
39C
100
AcDbEntity
8
0
100
AcDbSpline
62
9
6
CONTINUOUS
70
0
71
3
72
27
73
23
74
21
42
0.0000001000
43
0.0000001000
44
0.0000000001
12
0.0071020694
22
-1.7740777259
32
0.0000000000
13
1.6814968686
23
0.5286682913
33
0.0000000000
40
0.0000000000
40
0.0000000000
40
0.0000000000
40
0.0000000000
40
0.0122557279
40
0.0344823046
40
0.0603349224
40
0.0910222742
40
0.1270562933
40
0.1685073034
40
0.2151649835
40
0.2666284019
40
0.3223587163
40
0.3817133191
40
0.4439703848
40
0.5083486587
40
0.5740259724
40
0.6401566968
40
0.7058855798
40
0.7703625295
40
0.8327647390
40
0.8923111810
40
0.9482687831
40
1.0000000000
40
1.0000000000
40
1.0000000000
40
1.0000000000
10
-22.9460955091
20
45.2545841561
30
0.0000000000
10
-22.9460664955
20
45.2473366182
30
0.0000000000
10
-22.9437308864
20
45.2269385274
30
0.0000000000
10
-22.9288896061
20
45.1939932070
30
0.0000000000
10
-22.8984011229
20
45.1586071815
30
0.0000000000
10
-22.8551920077
20
45.1251569179
30
0.0000000000
10
-22.7997557969
20
45.0937539526
30
0.0000000000
10
-22.7327357888
20
45.0647066396
30
0.0000000000
10
-22.6549878648
20
45.0383950830
30
0.0000000000
10
-22.5675637375
20
45.0151915977
30
0.0000000000
10
-22.4716785198
20
44.9954343065
30
0.0000000000
10
-22.3686831338
20
44.9794134145
30
0.0000000000
10
-22.2600389035
20
44.9673648358
30
0.0000000000
10
-22.1472930617
20
44.9594660012
30
0.0000000000
10
-22.0320537996
20
44.9558332166
30
0.0000000000
10
-21.9159663108
20
44.9565201842
30
0.0000000000
10
-21.8006898660
20
44.9615172234
30
0.0000000000
10
-21.6878714168
20
44.9707512780
30
0.0000000000
10
-21.5791203260
20
44.9840869557
30
0.0000000000
10
-21.4759852664
20
45.0013288308
30
0.0000000000
10
-21.3799329636
20
45.0222230149
30
0.0000000000
10
-21.3189052410
20
45.0391062752
30
0.0000000000
10
-21.2899099479
20
45.0482224932
30
0.0000000000
11
-22.9460955091
21
45.2545841561
31
0.0000000000
11
-22.9436298096
21
45.2330350537
31
0.0000000000
11
-22.9283318003
21
45.1969676907
31
0.0000000000
11
-22.8993306482
21
45.1618184546
31
0.0000000000
11
-22.8570421654
21
45.1280913931
31
0.0000000000
11
-22.8020730398
21
45.0962703369
31
0.0000000000
11
-22.7352116088
21
45.0668115613
31
0.0000000000
11
-22.6574165558
21
45.0401374262
31
0.0000000000
11
-22.5698034700
21
45.0166304413
31
0.0000000000
11
-22.4736287360
21
44.9966277013
31
0.0000000000
11
-22.3702712481
21
44.9804160145
31
0.0000000000
11
-22.2612130109
21
44.9682278806
31
0.0000000000
11
-22.1480185094
21
44.9602381583
31
0.0000000000
11
-22.0323110393
21
44.9565614036
31
0.0000000000
11
-21.9157480006
21
44.9572503652
31
0.0000000000
11
-21.8000011238
21
44.9622953417
31
0.0000000000
11
-21.6867345523
21
44.9716237298
31
0.0000000000
11
-21.5775704174
21
44.9851017308
31
0.0000000000
11
-21.4740693450
21
45.0025369147
31
0.0000000000
11
-21.3777279592
21
45.0236768430
31
0.0000000000
11
-21.2899099479
21
45.0482224932
31
0.0000000000
0
SPLINE
5
39D
100
AcDbEntity
8
0
100
AcDbSpline
62
9
6
CONTINUOUS
70
0
71
3
72
17
73
13
74
11
42
0.0000001000
43
0.0000001000
44
0.0000000001
12
-0.0031698375
22
0.3610595406
32
0.0000000000
13
-0.3441692829
23
0.1091858253
33
0.0000000000
40
0.0000000000
40
0.0000000000
40
0.0000000000
40
0.0000000000
40
0.1049326300
40
0.2124306294
40
0.3210473964
40
0.4292723072
40
0.5356173801
40
0.6387037392
40
0.7373586166
40
0.8306998505
40
0.9182747100
40
1.0000000000
40
1.0000000000
40
1.0000000000
40
1.0000000000
10
-8.9148461004
20
37.4648102991
30
0.0000000000
10
-8.9149569735
20
37.4774392749
30
0.0000000000
10
-8.9166686234
20
37.5030120103
30
0.0000000000
10
-8.9233725180
20
37.5411345108
30
0.0000000000
10
-8.9340909183
20
37.5787439494
30
0.0000000000
10
-8.9485641874
20
37.6149239398
30
0.0000000000
10
-8.9664432806
20
37.6488013676
30
0.0000000000
10
-8.9873001245
20
37.6795577414
30
0.0000000000
10
-9.0106374738
20
37.7064500783
30
0.0000000000
10
-9.0359133435
20
37.7288295409
30
0.0000000000
10
-9.0625140806
20
37.7461324862
30
0.0000000000
10
-9.0813491727
20
37.7542532376
30
0.0000000000
10
-9.0907249509
20
37.7572276520
30
0.0000000000
11
-8.9148461004
21
37.4648102991
31
0.0000000000
11
-8.9173126491
21
37.5026183145
31
0.0000000000
11
-8.9239996558
21
37.5408526297
31
0.0000000000
11
-8.9347423913
21
37.5785712548
31
0.0000000000
11
-8.9492761936
21
37.6148450973
31
0.0000000000
11
-8.9672430320
21
37.6487807500
31
0.0000000000
11
-8.9882000732
21
37.6795421046
31
0.0000000000
11
-9.0116316558
21
37.7063723750
31
0.0000000000
11
-9.0369582587
21
37.7286087914
31
0.0000000000
11
-9.0635582273
21
37.7457063526
31
0.0000000000
11
-9.0907249509
21
37.7572276520
31
0.0000000000
0
SPLINE
5
39E
100
AcDbEntity
8
0
100
AcDbSpline
62
9
6
CONTINUOUS
70
0
71
3
72
17
73
13
74
11
42
0.0000001000
43
0.0000001000
44
0.0000000001
12
-0.3393587962
22
-0.1019747914
32
0.0000000000
13
-0.3388314129
23
0.1037136649
33
0.0000000000
40
0.0000000000
40
0.0000000000
40
0.0000000000
40
0.0000000000
40
0.0871219756
40
0.1828828289
40
0.2853548878
40
0.3923783864
40
0.5016457640
40
0.6107778722
40
0.7174036948
40
0.8192203904
40
0.9140987920
40
1.0000000000
40
1.0000000000
40
1.0000000000
40
1.0000000000
10
-8.9148461004
20
37.4648102991
30
0.0000000000
10
-8.9247013033
20
37.4618488840
30
0.0000000000
10
-8.9456675406
20
37.4565464188
30
0.0000000000
10
-8.9788428500
20
37.4504879071
30
0.0000000000
10
-9.0146433529
20
37.4460539779
30
0.0000000000
10
-9.0522130278
20
37.4433560821
30
0.0000000000
10
-9.0906550512
20
37.4424616697
30
0.0000000000
10
-9.1290492660
20
37.4433930221
30
0.0000000000
10
-9.1664757834
20
37.4461266123
30
0.0000000000
10
-9.2020421077
20
37.4505937729
30
0.0000000000
10
-9.2348817039
20
37.4566787075
30
0.0000000000
10
-9.2555871804
20
37.4620018667
30
0.0000000000
10
-9.2652891896
20
37.4649715764
30
0.0000000000
11
-8.9148461004
21
37.4648102991
31
0.0000000000
11
-8.9447442570
21
37.4571190529
31
0.0000000000
11
-8.9781098038
21
37.4509406227
31
0.0000000000
11
-9.0141386690
21
37.4464239146
31
0.0000000000
11
-9.0519627833
21
37.4436777301
31
0.0000000000
11
-9.0906708907
21
37.4427681980
31
0.0000000000
11
-9.1293301041
21
37.4437171745
31
0.0000000000
11
-9.1670101088
21
37.4465017994
31
0.0000000000
11
-9.2028003451
21
37.4510545947
31
0.0000000000
11
-9.2358416380
21
37.4572660501
31
0.0000000000
11
-9.2652891896
21
37.4649715764
31
0.0000000000
0
SPLINE
5
39F
100
AcDbEntity
8
0
100
AcDbSpline
62
9
6
CONTINUOUS
70
0
71
3
72
17
73
13
74
11
42
0.0000001000
43
0.0000001000
44
0.0000000001
12
-0.3431617606
22
-0.1107921609
32
0.0000000000
13
0.0007820670
23
-0.3606026695
33
0.0000000000
40
0.0000000000
40
0.0000000000
40
0.0000000000
40
0.0000000000
40
0.0828156514
40
0.1710451814
40
0.2647445872
40
0.3634739070
40
0.4664032332
40
0.5724149570
40
0.6801982883
40
0.7883373683
40
0.8953957242
40
1.0000000000
40
1.0000000000
40
1.0000000000
40
1.0000000000
10
-9.0907249509
20
37.7572276520
30
0.0000000000
10
-9.1001980058
20
37.7541692104
30
0.0000000000
10
-9.1191725741
20
37.7459156303
30
0.0000000000
10
-9.1459240415
20
37.7284575528
30
0.0000000000
10
-9.1712420652
20
37.7059941740
30
0.0000000000
10
-9.1945321560
20
37.6790767324
30
0.0000000000
10
-9.2152586851
20
37.6483490317
30
0.0000000000
10
-9.2329336347
20
37.6145451760
30
0.0000000000
10
-9.2471387364
20
37.5784732571
30
0.0000000000
10
-9.2575354865
20
37.5409938775
30
0.0000000000
10
-9.2638749590
20
37.5030100497
30
0.0000000000
10
-9.2653164588
20
37.4775451034
30
0.0000000000
10
-9.2652891896
20
37.4649715764
30
0.0000000000
11
-9.0907249509
21
37.7572276520
31
0.0000000000
11
-9.1181755648
21
37.7454675794
31
0.0000000000
11
-9.1449076375
21
37.7282151466
31
0.0000000000
11
-9.1702702152
21
37.7058904685
31
0.0000000000
11
-9.1936456928
21
37.6790371740
31
0.0000000000
11
-9.2144648529
21
37.6483091691
31
0.0000000000
11
-9.2322207274
21
37.6144547124
31
0.0000000000
11
-9.2464809423
21
37.5782981954
31
0.0000000000
11
-9.2568982464
21
37.5407200669
31
0.0000000000
11
-9.2632189675
21
37.5026353934
31
0.0000000000
11
-9.2652891896
21
37.4649715764
31
0.0000000000
0
SPLINE
5
3A0
100
AcDbEntity
8
0
100
AcDbSpline
62
9
6
CONTINUOUS
70
0
71
3
72
17
73
13
74
11
42
0.0000001000
43
0.0000001000
44
0.0000000001
12
-0.3431617606
22
-0.1107921609
32
0.0000000000
13
0.0007820670
23
-0.3606026695
33
0.0000000000
40
0.0000000000
40
0.0000000000
40
0.0000000000
40
0.0000000000
40
0.0828156514
40
0.1710451814
40
0.2647445872
40
0.3634739070
40
0.4664032332
40
0.5724149570
40
0.6801982883
40
0.7883373683
40
0.8953957242
40
1.0000000000
40
1.0000000000
40
1.0000000000
40
1.0000000000
10
-26.1092655125
20
42.9664707890
30
0.0000000000
10
-26.1187385674
20
42.9634123473
30
0.0000000000
10
-26.1377131357
20
42.9551587672
30
0.0000000000
10
-26.1644646031
20
42.9377006897
30
0.0000000000
10
-26.1897826268
20
42.9152373110
30
0.0000000000
10
-26.2130727177
20
42.8883198693
30
0.0000000000
10
-26.2337992468
20
42.8575921687
30
0.0000000000
10
-26.2514741963
20
42.8237883130
30
0.0000000000
10
-26.2656792981
20
42.7877163941
30
0.0000000000
10
-26.2760760481
20
42.7502370145
30
0.0000000000
10
-26.2824155206
20
42.7122531866
30
0.0000000000
10
-26.2838570204
20
42.6867882403
30
0.0000000000
10
-26.2838297512
20
42.6742147133
30
0.0000000000
11
-26.1092655125
21
42.9664707890
31
0.0000000000
11
-26.1367161264
21
42.9547107163
31
0.0000000000
11
-26.1634481992
21
42.9374582836
31
0.0000000000
11
-26.1888107769
21
42.9151336054
31
0.0000000000
11
-26.2121862544
21
42.8882803110
31
0.0000000000
11
-26.2330054145
21
42.8575523060
31
0.0000000000
11
-26.2507612891
21
42.8236978494
31
0.0000000000
11
-26.2650215039
21
42.7875413323
31
0.0000000000
11
-26.2754388080
21
42.7499632038
31
0.0000000000
11
-26.2817595291
21
42.7118785303
31
0.0000000000
11
-26.2838297512
21
42.6742147133
31
0.0000000000
0
SPLINE
5
3A1
100
AcDbEntity
8
0
100
AcDbSpline
62
7
6
CONTINUOUS
70
0
71
3
72
8
73
4
74
2
42
0.0000001000
43
0.0000001000
44
0.0000000001
12
0.0398243557
22
-0.0070284587
32
0.0000000000
13
0.0387420702
23
-0.0118572379
33
0.0000000000
40
0.0000000000
40
0.0000000000
40
0.0000000000
40
0.0000000000
40
1.0000000000
40
1.0000000000
40
1.0000000000
40
1.0000000000
10
-10.8512029856
20
45.3537457561
30
0.0000000000
10
-10.8379282003
20
45.3514029366
30
0.0000000000
10
-10.8247748321
20
45.3482418112
30
0.0000000000
10
-10.8118608087
20
45.3442893985
30
0.0000000000
11
-10.8512029856
21
45.3537457561
31
0.0000000000
11
-10.8118608087
21
45.3442893985
31
0.0000000000
0
SPLINE
5
3A2
100
AcDbEntity
8
0
100
AcDbSpline
62
9
6
CONTINUOUS
70
0
71
3
72
15
73
11
74
9
42
0.0000001000
43
0.0000001000
44
0.0000000001
12
0.0004890889
22
-0.2255136330
32
0.0000000000
13
0.2161499791
23
-0.0660949184
33
0.0000000000
40
0.0000000000
40
0.0000000000
40
0.0000000000
40
0.0000000000
40
0.1613833617
40
0.3153111528
40
0.4607510264
40
0.5973803181
40
0.7257500146
40
0.8473982884
40
0.9648241072
40
1.0000000000
40
1.0000000000
40
1.0000000000
40
1.0000000000
10
-9.1739698261
20
-4.6414041080
30
0.0000000000
10
-9.1739435159
20
-4.6535354907
30
0.0000000000
10
-9.1725469784
20
-4.6772637078
30
0.0000000000
10
-9.1661842345
20
-4.7114076811
30
0.0000000000
10
-9.1557278717
20
-4.7425960167
30
0.0000000000
10
-9.1413917840
20
-4.7700791939
30
0.0000000000
10
-9.1234667192
20
-4.7931817699
30
0.0000000000
10
-9.1023299931
20
-4.8112879925
30
0.0000000000
10
-9.0839309252
20
-4.8209853237
30
0.0000000000
10
-9.0730543612
20
-4.8247324260
30
0.0000000000
10
-9.0705199384
20
-4.8255074086
30
0.0000000000
11
-9.1739698261
21
-4.6414041080
31
0.0000000000
11
-9.1717391371
21
-4.6777299153
31
0.0000000000
11
-9.1652618564
21
-4.7118331418
31
0.0000000000
11
-9.1546957127
21
-4.7428833383
31
0.0000000000
11
-9.1402980026
21
-4.7701244002
31
0.0000000000
11
-9.1224193254
21
-4.7928929792
31
0.0000000000
11
-9.1014950453
21
-4.8106346369
31
0.0000000000
11
-9.0780346905
21
-4.8229173453
31
0.0000000000
11
-9.0705199384
21
-4.8255074086
31
0.0000000000
0
SPLINE
5
3A3
100
AcDbEntity
8
0
100
AcDbSpline
62
9
6
CONTINUOUS
70
0
71
3
72
15
73
11
74
9
42
0.0000001000
43
0.0000001000
44
0.0000000001
12
0.0004890889
22
-0.2255136330
32
0.0000000000
13
0.2161499791
23
-0.0660949184
33
0.0000000000
40
0.0000000000
40
0.0000000000
40
0.0000000000
40
0.0000000000
40
0.1613833617
40
0.3153111528
40
0.4607510264
40
0.5973803181
40
0.7257500146
40
0.8473982884
40
0.9648241072
40
1.0000000000
40
1.0000000000
40
1.0000000000
40
1.0000000000
10
-26.1925103878
20
0.5678390290
30
0.0000000000
10
-26.1924840775
20
0.5557076462
30
0.0000000000
10
-26.1910875400
20
0.5319794291
30
0.0000000000
10
-26.1847247961
20
0.4978354559
30
0.0000000000
10
-26.1742684333
20
0.4666471202
30
0.0000000000
10
-26.1599323456
20
0.4391639430
30
0.0000000000
10
-26.1420072808
20
0.4160613671
30
0.0000000000
10
-26.1208705547
20
0.3979551444
30
0.0000000000
10
-26.1024714868
20
0.3882578132
30
0.0000000000
10
-26.0915949228
20
0.3845107109
30
0.0000000000
10
-26.0890605000
20
0.3837357283
30
0.0000000000
11
-26.1925103878
21
0.5678390290
31
0.0000000000
11
-26.1902796987
21
0.5315132216
31
0.0000000000
11
-26.1838024180
21
0.4974099952
31
0.0000000000
11
-26.1732362744
21
0.4663597987
31
0.0000000000
11
-26.1588385643
21
0.4391187368
31
0.0000000000
11
-26.1409598870
21
0.4163501577
31
0.0000000000
11
-26.1200356069
21
0.3986085001
31
0.0000000000
11
-26.0965752521
21
0.3863257917
31
0.0000000000
11
-26.0890605000
21
0.3837357283
31
0.0000000000
0
SPLINE
5
3A4
100
AcDbEntity
8
0
100
AcDbSpline
62
9
6
CONTINUOUS
70
0
71
3
72
17
73
13
74
11
42
0.0000001000
43
0.0000001000
44
0.0000000001
12
-0.3393587962
22
-0.1019747914
32
0.0000000000
13
-0.3388314129
23
0.1037136649
33
0.0000000000
40
0.0000000000
40
0.0000000000
40
0.0000000000
40
0.0000000000
40
0.0871219756
40
0.1828828289
40
0.2853548878
40
0.3923783864
40
0.5016457640
40
0.6107778722
40
0.7174036948
40
0.8192203904
40
0.9140987920
40
1.0000000000
40
1.0000000000
40
1.0000000000
40
1.0000000000
10
-8.8235267370
20
-4.6415653852
30
0.0000000000
10
-8.8333819399
20
-4.6445268003
30
0.0000000000
10
-8.8543481771
20
-4.6498292655
30
0.0000000000
10
-8.8875234866
20
-4.6558877772
30
0.0000000000
10
-8.9233239894
20
-4.6603217065
30
0.0000000000
10
-8.9608936643
20
-4.6630196022
30
0.0000000000
10
-8.9993356878
20
-4.6639140146
30
0.0000000000
10
-9.0377299026
20
-4.6629826623
30
0.0000000000
10
-9.0751564200
20
-4.6602490721
30
0.0000000000
10
-9.1107227443
20
-4.6557819115
30
0.0000000000
10
-9.1435623405
20
-4.6496969768
30
0.0000000000
10
-9.1642678169
20
-4.6443738177
30
0.0000000000
10
-9.1739698261
20
-4.6414041080
30
0.0000000000
11
-8.8235267370
21
-4.6415653852
31
0.0000000000
11
-8.8534248935
21
-4.6492566314
31
0.0000000000
11
-8.8867904404
21
-4.6554350616
31
0.0000000000
11
-8.9228193056
21
-4.6599517698
31
0.0000000000
11
-8.9606434198
21
-4.6626979542
31
0.0000000000
11
-8.9993515272
21
-4.6636074863
31
0.0000000000
11
-9.0380107407
21
-4.6626585098
31
0.0000000000
11
-9.0756907454
21
-4.6598738849
31
0.0000000000
11
-9.1114809816
21
-4.6553210897
31
0.0000000000
11
-9.1445222746
21
-4.6491096342
31
0.0000000000
11
-9.1739698261
21
-4.6414041080
31
0.0000000000
0
SPLINE
5
3A5
100
AcDbEntity
8
0
100
AcDbSpline
62
7
6
CONTINUOUS
70
0
71
3
72
16
73
12
74
10
42
0.0000001000
43
0.0000001000
44
0.0000000001
12
0.3388200116
22
-0.1037101750
32
0.0000000000
13
0.3393473772
23
0.1019713601
33
0.0000000000
40
0.0000000000
40
0.0000000000
40
0.0000000000
40
0.0000000000
40
0.0961468032
40
0.2031443327
40
0.3177299548
40
0.4378458915
40
0.5591309722
40
0.6795691628
40
0.7947839651
40
0.9026966749
40
1.0000000000
40
1.0000000000
40
1.0000000000
40
1.0000000000
10
-9.1808465531
20
-1.4706193002
30
0.0000000000
10
-9.1699877328
20
-1.4739431008
30
0.0000000000
10
-9.1466848930
20
-1.4798051604
30
0.0000000000
10
-9.1096877519
20
-1.4862417111
30
0.0000000000
10
-9.0695470495
20
-1.4906598049
30
0.0000000000
10
-9.0275403505
20
-1.4929093425
30
0.0000000000
10
-8.9847828638
20
-1.4929275390
30
0.0000000000
10
-8.9426618824
20
-1.4907135831
30
0.0000000000
10
-8.9022961486
20
-1.4863290041
30
0.0000000000
10
-8.8649706035
20
-1.4799223146
30
0.0000000000
10
-8.8414100067
20
-1.4740879616
30
0.0000000000
10
-8.8304034640
20
-1.4707805775
30
0.0000000000
11
-9.1808465531
21
-1.4706193002
31
0.0000000000
11
-9.1478508024
21
-1.4791007561
31
0.0000000000
11
-9.1105180186
21
-1.4857093708
31
0.0000000000
11
-9.0701672383
21
-1.4902184827
31
0.0000000000
11
-9.0276683701
21
-1.4925272821
31
0.0000000000
11
-8.9846925674
21
-1.4925470600
31
0.0000000000
11
-8.9420772405
21
-1.4902774309
31
0.0000000000
11
-8.9014980166
21
-1.4858055637
31
0.0000000000
11
-8.8638299123
21
-1.4792314652
31
0.0000000000
11
-8.8304034640
21
-1.4707805775
31
0.0000000000
0
SPLINE
5
3A6
100
AcDbEntity
8
0
100
AcDbSpline
62
7
6
CONTINUOUS
70
0
71
3
72
26
73
22
74
20
42
0.0000001000
43
0.0000001000
44
0.0000000001
12
-1.4140426966
22
-0.4488257456
32
0.0000000000
13
-0.0075492005
23
1.4916821564
33
0.0000000000
40
0.0000000000
40
0.0000000000
40
0.0000000000
40
0.0000000000
40
0.0540761934
40
0.1127125197
40
0.1751695082
40
0.2405855526
40
0.3081515672
40
0.3767991843
40
0.4457404101
40
0.5138054386
40
0.5802656016
40
0.6439712557
40
0.7042973250
40
0.7602304861
40
0.8113172527
40
0.8568221409
40
0.8965899812
40
0.9304156758
40
0.9588204328
40
0.9828177567
40
1.0000000000
40
1.0000000000
40
1.0000000000
40
1.0000000000
10
-19.1741679814
20
42.6494599689
30
0.0000000000
10
-19.1996566636
20
42.6413697062
30
0.0000000000
10
-19.2534053921
20
42.6264375747
30
0.0000000000
10
-19.3381072697
20
42.6081074875
30
0.0000000000
10
-19.4291550397
20
42.5931479046
30
0.0000000000
10
-19.5251643981
20
42.5817925864
30
0.0000000000
10
-19.6246148140
20
42.5742267710
30
0.0000000000
10
-19.7260282905
20
42.5705657070
30
0.0000000000
10
-19.8277540683
20
42.5708709063
30
0.0000000000
10
-19.9283088067
20
42.5751379912
30
0.0000000000
10
-20.0260273512
20
42.5832944660
30
0.0000000000
10
-20.1195044652
20
42.5952198109
30
0.0000000000
10
-20.2071818674
20
42.6107081207
30
0.0000000000
10
-20.2878173777
20
42.6295315649
30
0.0000000000
10
-20.3600802217
20
42.6513639386
30
0.0000000000
10
-20.4229851975
20
42.6758934760
30
0.0000000000
10
-20.4755594794
20
42.7027218898
30
0.0000000000
10
-20.5171893599
20
42.7315640530
30
0.0000000000
10
-20.5473337349
20
42.7622084954
30
0.0000000000
10
-20.5642742313
20
42.7928681927
30
0.0000000000
10
-20.5676076047
20
42.8133816842
30
0.0000000000
10
-20.5676508421
20
42.8219251661
30
0.0000000000
11
-19.1741679814
21
42.6494599689
31
0.0000000000
11
-19.2514040433
21
42.6277639292
31
0.0000000000
11
-19.3363911341
21
42.6092010409
31
0.0000000000
11
-19.4278045542
21
42.5940596268
31
0.0000000000
11
-19.5241720505
21
42.5825796954
31
0.0000000000
11
-19.6241179783
21
42.5749268581
31
0.0000000000
11
-19.7258940815
21
42.5712329898
31
0.0000000000
11
-19.8281722967
21
42.5715482624
31
0.0000000000
11
-19.9290587320
21
42.5758664250
31
0.0000000000
11
-20.0273092234
21
42.5841358953
31
0.0000000000
11
-20.1210476112
21
42.5961990131
31
0.0000000000
11
-20.2091548156
21
42.6119131823
31
0.0000000000
11
-20.2899166556
21
42.6309729137
31
0.0000000000
11
-20.3623881156
21
42.6531558650
31
0.0000000000
11
-20.4251490077
21
42.6780273276
31
0.0000000000
11
-20.4774671144
21
42.7052962559
31
0.0000000000
11
-20.5183253166
21
42.7344321093
31
0.0000000000
11
-20.5472403430
21
42.7650870167
31
0.0000000000
11
-20.5636608395
21
42.7966755951
31
0.0000000000
11
-20.5676508421
21
42.8219251661
31
0.0000000000
0
SPLINE
5
3A7
100
AcDbEntity
8
0
100
AcDbSpline
62
9
6
CONTINUOUS
70
0
71
3
72
15
73
11
74
9
42
0.0000001000
43
0.0000001000
44
0.0000000001
12
-0.0010030134
22
-0.2271538267
32
0.0000000000
13
-0.2187592555
23
-0.0631786993
33
0.0000000000
40
0.0000000000
40
0.0000000000
40
0.0000000000
40
0.0000000000
40
0.1614338110
40
0.3153144635
40
0.4605120654
40
0.5966175711
40
0.7241199438
40
0.8445379152
40
0.9604195471
40
1.0000000000
40
1.0000000000
40
1.0000000000
40
1.0000000000
10
-8.8235267370
20
-4.6415653852
30
0.0000000000
10
-8.8235807104
20
-4.6537888212
30
0.0000000000
10
-8.8250252237
20
-4.6776862464
30
0.0000000000
10
-8.8314368441
20
-4.7120578167
30
0.0000000000
10
-8.8419138809
20
-4.7434245802
30
0.0000000000
10
-8.8562393269
20
-4.7710263793
30
0.0000000000
10
-8.8741212626
20
-4.7941799507
30
0.0000000000
10
-8.8951843908
20
-4.8122624278
30
0.0000000000
10
-8.9138507873
20
-4.8220572420
30
0.0000000000
10
-8.9250531136
20
-4.8257926744
30
0.0000000000
10
-8.9279393104
20
-4.8266262215
30
0.0000000000
11
-8.8235267370
21
-4.6415653852
31
0.0000000000
11
-8.8258319153
21
-4.6781635252
31
0.0000000000
11
-8.8323615252
21
-4.7125031614
31
0.0000000000
11
-8.8429547154
21
-4.7437382450
31
0.0000000000
11
-8.8573505076
21
-4.7710994159
31
0.0000000000
11
-8.8751942699
21
-4.7939128266
31
0.0000000000
11
-8.8960462012
21
-4.8116165044
31
0.0000000000
11
-8.9193932259
21
-4.8237749568
31
0.0000000000
11
-8.9279393104
21
-4.8266262215
31
0.0000000000
0
SPLINE
5
3A8
100
AcDbEntity
8
0
100
AcDbSpline
62
7
6
CONTINUOUS
70
0
71
3
72
26
73
22
74
20
42
0.0000001000
43
0.0000001000
44
0.0000000001
12
-1.4140426966
22
-0.4488257456
32
0.0000000000
13
-0.0075492005
23
1.4916821564
33
0.0000000000
40
0.0000000000
40
0.0000000000
40
0.0000000000
40
0.0000000000
40
0.0540761934
40
0.1127125197
40
0.1751695082
40
0.2405855526
40
0.3081515672
40
0.3767991843
40
0.4457404101
40
0.5138054386
40
0.5802656016
40
0.6439712557
40
0.7042973250
40
0.7602304861
40
0.8113172527
40
0.8568221409
40
0.8965899812
40
0.9304156758
40
0.9588204328
40
0.9828177567
40
1.0000000000
40
1.0000000000
40
1.0000000000
40
1.0000000000
10
-9.1244723559
20
39.5733261620
30
0.0000000000
10
-9.1499610380
20
39.5652358994
30
0.0000000000
10
-9.2037097665
20
39.5503037678
30
0.0000000000
10
-9.2884116441
20
39.5319736806
30
0.0000000000
10
-9.3794594142
20
39.5170140977
30
0.0000000000
10
-9.4754687725
20
39.5056587795
30
0.0000000000
10
-9.5749191885
20
39.4980929641
30
0.0000000000
10
-9.6763326649
20
39.4944319001
30
0.0000000000
10
-9.7780584428
20
39.4947370994
30
0.0000000000
10
-9.8786131812
20
39.4990041843
30
0.0000000000
10
-9.9763317257
20
39.5071606591
30
0.0000000000
10
-10.0698088396
20
39.5190860040
30
0.0000000000
10
-10.1574862419
20
39.5345743139
30
0.0000000000
10
-10.2381217521
20
39.5533977580
30
0.0000000000
10
-10.3103845962
20
39.5752301317
30
0.0000000000
10
-10.3732895720
20
39.5997596691
30
0.0000000000
10
-10.4258638538
20
39.6265880829
30
0.0000000000
10
-10.4674937343
20
39.6554302461
30
0.0000000000
10
-10.4976381093
20
39.6860746885
30
0.0000000000
10
-10.5145786058
20
39.7167343858
30
0.0000000000
10
-10.5179119792
20
39.7372478773
30
0.0000000000
10
-10.5179552166
20
39.7457913592
30
0.0000000000
11
-9.1244723559
21
39.5733261620
31
0.0000000000
11
-9.2017084178
21
39.5516301223
31
0.0000000000
11
-9.2866955086
21
39.5330672340
31
0.0000000000
11
-9.3781089287
21
39.5179258199
31
0.0000000000
11
-9.4744764250
21
39.5064458885
31
0.0000000000
11
-9.5744223528
21
39.4987930512
31
0.0000000000
11
-9.6761984560
21
39.4950991829
31
0.0000000000
11
-9.7784766711
21
39.4954144555
31
0.0000000000
11
-9.8793631065
21
39.4997326181
31
0.0000000000
11
-9.9776135979
21
39.5080020885
31
0.0000000000
11
-10.0713519856
21
39.5200652062
31
0.0000000000
11
-10.1594591901
21
39.5357793754
31
0.0000000000
11
-10.2402210301
21
39.5548391068
31
0.0000000000
11
-10.3126924901
21
39.5770220581
31
0.0000000000
11
-10.3754533822
21
39.6018935207
31
0.0000000000
11
-10.4277714889
21
39.6291624490
31
0.0000000000
11
-10.4686296911
21
39.6582983024
31
0.0000000000
11
-10.4975447175
21
39.6889532098
31
0.0000000000
11
-10.5139652140
21
39.7205417882
31
0.0000000000
11
-10.5179552166
21
39.7457913592
31
0.0000000000
0
SPLINE
5
3A9
100
AcDbEntity
8
0
100
AcDbSpline
62
7
6
CONTINUOUS
70
0
71
3
72
12
73
8
74
6
42
0.0000001000
43
0.0000001000
44
0.0000000001
12
-0.0596305794
22
-0.0165432928
32
0.0000000000
13
-0.0387706965
23
-0.0481936196
33
0.0000000000
40
0.0000000000
40
0.0000000000
40
0.0000000000
40
0.0000000000
40
0.1610116507
40
0.4256153785
40
0.6971995995
40
0.9782767997
40
1.0000000000
40
1.0000000000
40
1.0000000000
40
1.0000000000
10
-21.1703395506
20
46.1378157866
30
0.0000000000
10
-21.1735399566
20
46.1369278990
30
0.0000000000
10
-21.1818712775
20
46.1341169833
30
0.0000000000
10
-21.1947375660
20
46.1275666789
30
0.0000000000
10
-21.2082524681
20
46.1173932205
30
0.0000000000
10
-21.2164546645
20
46.1087985042
30
0.0000000000
10
-21.2203953380
20
46.1039560211
30
0.0000000000
10
-21.2206760792
20
46.1036070479
30
0.0000000000
11
-21.1703395506
21
46.1378157866
31
0.0000000000
11
-21.1797752344
21
46.1346311508
31
0.0000000000
11
-21.1943583604
21
46.1272336014
31
0.0000000000
11
-21.2077942977
21
46.1171757167
31
0.0000000000
11
-21.2198279496
21
46.1046492266
31
0.0000000000
11
-21.2206760792
21
46.1036070479
31
0.0000000000
0
SPLINE
5
3AA
100
AcDbEntity
8
0
100
AcDbSpline
62
7
6
CONTINUOUS
70
0
71
3
72
11
73
7
74
5
42
0.0000001000
43
0.0000001000
44
0.0000000001
12
0.0582089062
22
-0.0166664051
32
0.0000000000
13
0.0572717830
23
0.0198129109
33
0.0000000000
40
0.0000000000
40
0.0000000000
40
0.0000000000
40
0.0000000000
40
0.2530554106
40
0.5313238704
40
0.8022000943
40
1.0000000000
40
1.0000000000
40
1.0000000000
40
1.0000000000
10
-3.7444064000
20
-4.8072908536
30
0.0000000000
10
-3.7394963737
20
-4.8086966949
30
0.0000000000
10
-3.7289820433
20
-4.8109856383
30
0.0000000000
10
-3.7127570790
20
-4.8120008805
30
0.0000000000
10
-3.6977017134
20
-4.8103278459
30
0.0000000000
10
-3.6885493198
20
-4.8078236898
30
0.0000000000
10
-3.6847732021
20
-4.8065173591
30
0.0000000000
11
-3.7444064000
21
-4.8072908536
31
0.0000000000
11
-3.7294283555
21
-4.8105103362
31
0.0000000000
11
-3.7126173877
21
-4.8115159480
31
0.0000000000
11
-3.6963270699
21
-4.8096783424
31
0.0000000000
11
-3.6847732021
21
-4.8065173591
31
0.0000000000
0
SPLINE
5
3AB
100
AcDbEntity
8
0
100
AcDbSpline
62
9
6
CONTINUOUS
70
0
71
3
72
13
73
9
74
7
42
0.0000001000
43
0.0000001000
44
0.0000000001
12
0.0000200074
22
-0.0746964184
32
0.0000000000
13
-0.0707920779
23
-0.0228009393
33
0.0000000000
40
0.0000000000
40
0.0000000000
40
0.0000000000
40
0.0000000000
40
0.1015353710
40
0.2249719795
40
0.3733320689
40
0.5514731121
40
0.7606597783
40
1.0000000000
40
1.0000000000
40
1.0000000000
40
1.0000000000
10
2.5594770176
20
-1.7546671940
30
0.0000000000
10
2.5594776948
20
-1.7571953035
30
0.0000000000
10
2.5583206950
20
-1.7628092044
30
0.0000000000
10
2.5532228794
20
-1.7707194444
30
0.0000000000
10
2.5449301343
20
-1.7782955129
30
0.0000000000
10
2.5336709202
20
-1.7854272486
30
0.0000000000
10
2.5195885429
20
-1.7920547083
30
0.0000000000
10
2.5091153924
20
-1.7958339553
30
0.0000000000
10
2.5034675952
20
-1.7976530159
30
0.0000000000
11
2.5594770176
21
-1.7546671940
31
0.0000000000
11
2.5580432620
21
-1.7620901273
31
0.0000000000
11
2.5532954726
21
-1.7699474946
31
0.0000000000
11
2.5453045988
21
-1.7775564391
31
0.0000000000
11
2.5342043498
21
-1.7847896427
31
0.0000000000
11
2.5201804627
21
-1.7915260745
31
0.0000000000
11
2.5034675952
21
-1.7976530159
31
0.0000000000
0
SPLINE
5
3AC
100
AcDbEntity
8
0
100
AcDbSpline
62
9
6
CONTINUOUS
70
0
71
3
72
16
73
12
74
10
42
0.0000001000
43
0.0000001000
44
0.0000000001
12
0.1677679776
22
0.0580635673
32
0.0000000000
13
-0.0026521304
23
0.1772329230
33
0.0000000000
40
0.0000000000
40
0.0000000000
40
0.0000000000
40
0.0000000000
40
0.0551983288
40
0.1564723848
40
0.2606906763
40
0.3693648656
40
0.4835475849
40
0.6038000968
40
0.7302202817
40
0.8625012038
40
1.0000000000
40
1.0000000000
40
1.0000000000
40
1.0000000000
10
1.8809155882
20
-2.8806748999
30
0.0000000000
10
1.8840024256
20
-2.8796065626
30
0.0000000000
10
1.8925925379
20
-2.8761148843
30
0.0000000000
10
1.9059130436
20
-2.8681981283
30
0.0000000000
10
1.9199257882
20
-2.8558738276
30
0.0000000000
10
1.9320964534
20
-2.8407515065
30
0.0000000000
10
1.9422343217
20
-2.8231105362
30
0.0000000000
10
1.9501862719
20
-2.8032601453
30
0.0000000000
10
1.9558330173
20
-2.7815372146
30
0.0000000000
10
1.9590895755
20
-2.7583098120
30
0.0000000000
10
1.9596253873
20
-2.7423466019
30
0.0000000000
10
1.9595038324
20
-2.7342234974
30
0.0000000000
11
1.8809155882
21
-2.8806748999
31
0.0000000000
11
1.8899890202
21
-2.8769862460
31
0.0000000000
11
1.9054384737
21
-2.8678453155
31
0.0000000000
11
1.9193498973
21
-2.8556911682
31
0.0000000000
11
1.9314853549
21
-2.8407316844
31
0.0000000000
11
1.9416372858
21
-2.8232227259
31
0.0000000000
11
1.9496320549
21
-2.8034637599
31
0.0000000000
11
1.9553329225
21
-2.7817927368
31
0.0000000000
11
1.9586423830
21
-2.7585803102
31
0.0000000000
11
1.9595038324
21
-2.7342234974
31
0.0000000000
0
SPLINE
5
3AD
100
AcDbEntity
8
0
100
AcDbSpline
62
7
6
CONTINUOUS
70
0
71
3
72
17
73
13
74
11
42
0.0000001000
43
0.0000001000
44
0.0000000001
12
0.1680911556
22
0.0581503651
32
0.0000000000
13
-0.0003852321
23
0.1776263934
33
0.0000000000
40
0.0000000000
40
0.0000000000
40
0.0000000000
40
0.0000000000
40
0.0241430572
40
0.1162018164
40
0.2106891716
40
0.3084792463
40
0.4109972230
40
0.5183933249
40
0.6313594729
40
0.7494275990
40
0.8725738463
40
1.0000000000
40
1.0000000000
40
1.0000000000
40
1.0000000000
10
-3.6847732021
20
-4.8065173591
30
0.0000000000
10
-3.6834204573
20
-4.8060493833
30
0.0000000000
10
-3.6769630879
20
-4.8036428941
30
0.0000000000
10
-3.6657875300
20
-4.7979533508
30
0.0000000000
10
-3.6522726278
20
-4.7877798924
30
0.0000000000
10
-3.6401728078
20
-4.7751010297
30
0.0000000000
10
-3.6296719178
20
-4.7601365845
30
0.0000000000
10
-3.6208945130
20
-4.7430932438
30
0.0000000000
10
-3.6139667159
20
-4.7242416465
30
0.0000000000
10
-3.6089721101
20
-4.7038328460
30
0.0000000000
10
-3.6059810926
20
-4.6821774866
30
0.0000000000
10
-3.6053580057
20
-4.6673297003
30
0.0000000000
10
-3.6053743686
20
-4.6597849509
30
0.0000000000
11
-3.6847732021
21
-4.8065173591
31
0.0000000000
11
-3.6807498616
21
-4.8050178227
31
0.0000000000
11
-3.6661667356
21
-4.7976202733
31
0.0000000000
11
-3.6527307983
21
-4.7875623886
31
0.0000000000
11
-3.6406971464
21
-4.7750358985
31
0.0000000000
11
-3.6301859557
21
-4.7601659007
31
0.0000000000
11
-3.6213973662
21
-4.7432345462
31
0.0000000000
11
-3.6144229248
21
-4.7244198136
31
0.0000000000
11
-3.6093897880
21
-4.7040606625
31
0.0000000000
11
-3.6063563716
21
-4.6823979398
31
0.0000000000
11
-3.6053743686
21
-4.6597849509
31
0.0000000000
0
SPLINE
5
3AE
100
AcDbEntity
8
0
100
AcDbSpline
62
9
6
CONTINUOUS
70
0
71
3
72
13
73
9
74
7
42
0.0000001000
43
0.0000001000
44
0.0000000001
12
-0.2739081531
22
0.0838460297
32
0.0000000000
13
-0.2751286930
23
-0.0791224576
33
0.0000000000
40
0.0000000000
40
0.0000000000
40
0.0000000000
40
0.0000000000
40
0.0090394868
40
0.2012549157
40
0.3950805883
40
0.5919732702
40
0.7932372381
40
1.0000000000
40
1.0000000000
40
1.0000000000
40
1.0000000000
10
-14.0701255555
20
47.4308480071
30
0.0000000000
10
-14.0709508852
20
47.4311006488
30
0.0000000000
10
-14.0893421446
20
47.4366727176
30
0.0000000000
10
-14.1261386081
20
47.4453001858
30
0.0000000000
10
-14.1815650225
20
47.4513888504
30
0.0000000000
10
-14.2381814621
20
47.4509056883
30
0.0000000000
10
-14.2955904394
20
47.4438683211
30
0.0000000000
10
-14.3335840170
20
47.4349757647
30
0.0000000000
10
-14.3525461399
20
47.4295225721
30
0.0000000000
11
-14.0701255555
21
47.4308480071
31
0.0000000000
11
-14.0726037064
21
47.4315988196
31
0.0000000000
11
-14.1261748076
21
47.4441746948
31
0.0000000000
11
-14.1813269525
21
47.4502740431
31
0.0000000000
11
-14.2376918127
21
47.4498560158
31
0.0000000000
11
-14.2948910695
21
47.4429236006
31
0.0000000000
11
-14.3525461399
21
47.4295225721
31
0.0000000000
0
SPLINE
5
3AF
100
AcDbEntity
8
0
100
AcDbSpline
62
9
6
CONTINUOUS
70
0
71
3
72
9
73
5
74
3
42
0.0000001000
43
0.0000001000
44
0.0000000001
12
-0.0053288929
22
0.0016312228
32
0.0000000000
13
-0.0053481074
23
0.0015670620
33
0.0000000000
40
0.0000000000
40
0.0000000000
40
0.0000000000
40
0.0000000000
40
0.4684485607
40
1.0000000000
40
1.0000000000
40
1.0000000000
40
1.0000000000
10
-15.0641302330
20
47.7351051222
30
0.0000000000
10
-15.0649623371
20
47.7353598369
30
0.0000000000
10
-15.0667401642
20
47.7358985788
30
0.0000000000
10
-15.0685211992
20
47.7364266233
30
0.0000000000
10
-15.0694687973
20
47.7367042813
30
0.0000000000
11
-15.0641302330
21
47.7351051222
31
0.0000000000
11
-15.0666286821
21
47.7358622351
31
0.0000000000
11
-15.0694687973
21
47.7367042813
31
0.0000000000
0
SPLINE
5
3B0
100
AcDbEntity
8
0
100
AcDbSpline
62
9
6
CONTINUOUS
70
0
71
3
72
12
73
8
74
6
42
0.0000001000
43
0.0000001000
44
0.0000000001
12
-0.2732812644
22
0.0800748096
32
0.0000000000
13
-0.2741058313
23
-0.0765821782
33
0.0000000000
40
0.0000000000
40
0.0000000000
40
0.0000000000
40
0.0000000000
40
0.1856982513
40
0.3834590995
40
0.5842863676
40
0.7894374831
40
1.0000000000
40
1.0000000000
40
1.0000000000
40
1.0000000000
10
-15.0694687973
20
47.7367042813
30
0.0000000000
10
-15.0863847482
20
47.7416608653
30
0.0000000000
10
-15.1218987391
20
47.7499055534
30
0.0000000000
10
-15.1771079655
20
47.7561214305
30
0.0000000000
10
-15.2345086522
20
47.7558831915
30
0.0000000000
10
-15.2927159127
20
47.7490953176
30
0.0000000000
10
-15.3312600225
20
47.7403632538
30
0.0000000000
10
-15.3504988270
20
47.7349881417
30
0.0000000000
11
-15.0694687973
21
47.7367042813
31
0.0000000000
11
-15.1209501981
21
47.7486693582
31
0.0000000000
11
-15.1768756474
21
47.7550062524
31
0.0000000000
11
-15.2340314088
21
47.7548303589
31
0.0000000000
11
-15.2920337804
21
47.7481429586
31
0.0000000000
11
-15.3504988270
21
47.7349881417
31
0.0000000000
0
SPLINE
5
3B1
100
AcDbEntity
8
0
100
AcDbSpline
62
9
6
CONTINUOUS
70
0
71
3
72
9
73
5
74
3
42
0.0000001000
43
0.0000001000
44
0.0000000001
12
-0.0059593593
22
0.0018242196
32
0.0000000000
13
-0.0059839987
23
0.0017416915
33
0.0000000000
40
0.0000000000
40
0.0000000000
40
0.0000000000
40
0.0000000000
40
0.4154678897
40
1.0000000000
40
1.0000000000
40
1.0000000000
40
1.0000000000
10
1.0044178828
20
42.8166472968
30
0.0000000000
10
1.0035925753
20
42.8168999317
30
0.0000000000
10
1.0016043775
20
42.8175023036
30
0.0000000000
10
0.9996120551
20
42.8180909175
30
0.0000000000
10
0.9984461086
20
42.8184302757
30
0.0000000000
11
1.0044178828
21
42.8166472968
31
0.0000000000
11
1.0019397987
21
42.8173980892
31
0.0000000000
11
0.9984461086
21
42.8184302757
31
0.0000000000
0
SPLINE
5
3B2
100
AcDbEntity
8
0
100
AcDbSpline
62
9
6
CONTINUOUS
70
0
71
3
72
12
73
8
74
6
42
0.0000001000
43
0.0000001000
44
0.0000000001
12
-0.2690566475
22
0.0783111273
32
0.0000000000
13
-0.2691427786
23
-0.0774010077
33
0.0000000000
40
0.0000000000
40
0.0000000000
40
0.0000000000
40
0.0000000000
40
0.1834900048
40
0.3816265193
40
0.5828981594
40
0.7886383472
40
1.0000000000
40
1.0000000000
40
1.0000000000
40
1.0000000000
10
0.9984461086
20
42.8184302757
30
0.0000000000
10
0.9819897067
20
42.8232200454
30
0.0000000000
10
0.9471956971
20
42.8312322960
30
0.0000000000
10
0.8929784974
20
42.8371881358
30
0.0000000000
10
0.8363620635
20
42.8367049833
30
0.0000000000
10
0.7789530609
20
42.8296676236
30
0.0000000000
10
0.7409594526
20
42.8207750634
30
0.0000000000
10
0.7219972984
20
42.8153218618
30
0.0000000000
11
0.9984461086
21
42.8184302757
31
0.0000000000
11
0.9483687105
21
42.8299739707
31
0.0000000000
11
0.8932165583
21
42.8360733291
31
0.0000000000
11
0.8368517165
21
42.8356553113
31
0.0000000000
11
0.7796524653
21
42.8287229073
31
0.0000000000
11
0.7219972984
21
42.8153218618
31
0.0000000000
0
SPLINE
5
3B3
100
AcDbEntity
8
0
100
AcDbSpline
62
9
6
CONTINUOUS
70
0
71
3
72
15
73
11
74
9
42
0.0000001000
43
0.0000001000
44
0.0000000001
12
0.0002433598
22
-0.1867153546
32
0.0000000000
13
-0.1771276178
23
-0.0570498309
33
0.0000000000
40
0.0000000000
40
0.0000000000
40
0.0000000000
40
0.0000000000
40
0.0736791842
40
0.1609553450
40
0.2598290335
40
0.3737009146
40
0.5043516168
40
0.6524401487
40
0.8178667234
40
1.0000000000
40
1.0000000000
40
1.0000000000
40
1.0000000000
10
9.0240995932
20
4.5348242283
30
0.0000000000
10
9.0241055700
20
4.5302385500
30
0.0000000000
10
9.0226462374
20
4.5202109531
30
0.0000000000
10
9.0158141639
20
4.5053976649
30
0.0000000000
10
9.0041822219
20
4.4907056397
30
0.0000000000
10
8.9881491459
20
4.4765568106
30
0.0000000000
10
8.9678565788
20
4.4629935533
30
0.0000000000
10
8.9434652049
20
4.4501005757
30
0.0000000000
10
8.9151803469
20
4.4379829095
30
0.0000000000
10
8.8948286819
20
4.4308232315
30
0.0000000000
10
8.8840750707
20
4.4273596740
30
0.0000000000
11
9.0240995932
21
4.5348242283
31
0.0000000000
11
9.0221884662
21
4.5212364300
31
0.0000000000
11
9.0156086121
21
4.5063879246
31
0.0000000000
11
9.0043997979
21
4.4917970167
31
0.0000000000
11
8.9886675870
21
4.4776011216
31
0.0000000000
11
8.9685601436
21
4.4639339350
31
0.0000000000
11
8.9442668374
21
4.4509241727
31
0.0000000000
11
8.9160164601
21
4.4386943593
31
0.0000000000
11
8.8840750707
21
4.4273596740
31
0.0000000000
0
SPLINE
5
3B4
100
AcDbEntity
8
0
100
AcDbSpline
62
9
6
CONTINUOUS
70
0
71
3
72
19
73
15
74
13
42
0.0000001000
43
0.0000001000
44
0.0000000001
12
0.4193123225
22
0.1450748999
32
0.0000000000
13
-0.0066329954
23
0.4432606999
33
0.0000000000
40
0.0000000000
40
0.0000000000
40
0.0000000000
40
0.0000000000
40
0.0301571170
40
0.1056284180
40
0.1822554293
40
0.2607765568
40
0.3418088495
40
0.4258225427
40
0.5131316324
40
0.6038965082
40
0.6981349301
40
0.7957346283
40
0.8964741262
40
1.0000000000
40
1.0000000000
40
1.0000000000
40
1.0000000000
10
8.6876002671
20
4.0612279713
30
0.0000000000
10
8.6918153507
20
4.0626863182
30
0.0000000000
10
8.7064310410
20
4.0682220318
30
0.0000000000
10
8.7306010028
20
4.0803116744
30
0.0000000000
10
8.7587050903
20
4.0997811932
30
0.0000000000
10
8.7845022739
20
4.1234391779
30
0.0000000000
10
8.8077478742
20
4.1510390119
30
0.0000000000
10
8.8282279433
20
4.1823015765
30
0.0000000000
10
8.8457574415
20
4.2169187499
30
0.0000000000
10
8.8601792089
20
4.2545554540
30
0.0000000000
10
8.8713639606
20
4.2948506141
30
0.0000000000
10
8.8792113069
20
4.3374207186
30
0.0000000000
10
8.8836503630
20
4.3818519938
30
0.0000000000
10
8.8843039663
20
4.4120633568
30
0.0000000000
10
8.8840750707
20
4.4273596740
30
0.0000000000
11
8.6876002671
21
4.0612279713
31
0.0000000000
11
8.7001114329
21
4.0659671344
31
0.0000000000
11
8.7300450720
21
4.0809124331
31
0.0000000000
11
8.7579960141
21
4.1002172213
31
0.0000000000
11
8.7836951668
21
4.1236956328
31
0.0000000000
11
8.8068951197
21
4.1511216195
31
0.0000000000
11
8.8273725270
21
4.1822311290
31
0.0000000000
11
8.8449302664
21
4.2167246710
31
0.0000000000
11
8.8593993092
21
4.2542701567
31
0.0000000000
11
8.8706403990
21
4.2945062648
31
0.0000000000
11
8.8785451947
21
4.3370449943
31
0.0000000000
11
8.8830377566
21
4.3814773095
31
0.0000000000
11
8.8840750707
21
4.4273596740
31
0.0000000000
0
SPLINE
5
3B5
100
AcDbEntity
8
0
100
AcDbSpline
62
9
6
CONTINUOUS
70
0
71
3
72
12
73
8
74
6
42
0.0000001000
43
0.0000001000
44
0.0000000001
12
0.1357073213
22
0.0376528995
32
0.0000000000
13
0.1341451125
23
-0.0424726838
33
0.0000000000
40
0.0000000000
40
0.0000000000
40
0.0000000000
40
0.0000000000
40
0.0395318901
40
0.2724304267
40
0.5085433266
40
0.7503856300
40
1.0000000000
40
1.0000000000
40
1.0000000000
40
1.0000000000
10
-8.0829834183
20
44.3467365577
30
0.0000000000
10
-8.0811951626
20
44.3472327211
30
0.0000000000
10
-8.0688287142
20
44.3504972507
30
0.0000000000
10
-8.0452412954
20
44.3545802153
30
0.0000000000
10
-8.0117964348
20
44.3554423194
30
0.0000000000
10
-7.9777928258
20
44.3515422299
30
0.0000000000
10
-7.9553668739
20
44.3459038224
30
0.0000000000
10
-7.9442053580
20
44.3423698917
30
0.0000000000
11
-8.0829834183
21
44.3467365577
31
0.0000000000
11
-8.0776005415
21
44.3481574581
31
0.0000000000
11
-8.0453132983
21
44.3537661328
31
0.0000000000
11
-8.0121025028
21
44.3546686636
31
0.0000000000
11
-7.9782874807
21
44.3508564603
31
0.0000000000
11
-7.9442053580
21
44.3423698917
31
0.0000000000
0
SPLINE
5
3B6
100
AcDbEntity
8
0
100
AcDbSpline
62
9
6
CONTINUOUS
70
0
71
3
72
12
73
8
74
6
42
0.0000001000
43
0.0000001000
44
0.0000000001
12
-0.1369566288
22
0.0419312484
32
0.0000000000
13
-0.1375336671
23
-0.0395524059
33
0.0000000000
40
0.0000000000
40
0.0000000000
40
0.0000000000
40
0.0000000000
40
0.0570236492
40
0.2857599993
40
0.5176816752
40
0.7551069901
40
1.0000000000
40
1.0000000000
40
1.0000000000
40
1.0000000000
10
-7.8029951776
20
44.3430322209
30
0.0000000000
10
-7.8055984332
20
44.3438292452
30
0.0000000000
10
-7.8187159935
20
44.3475878186
30
0.0000000000
10
-7.8430579051
20
44.3522275414
30
0.0000000000
10
-7.8764331072
20
44.3537597803
30
0.0000000000
10
-7.9104596936
20
44.3506504549
30
0.0000000000
10
-7.9329783467
20
44.3455985943
30
0.0000000000
10
-7.9442053580
20
44.3423698917
30
0.0000000000
11
-7.8029951776
21
44.3430322209
31
0.0000000000
11
-7.8108463828
21
44.3452816151
31
0.0000000000
11
-7.8429977136
21
44.3514303492
31
0.0000000000
11
-7.8761505549
21
44.3529972630
31
0.0000000000
11
-7.9099926768
21
44.3499675995
31
0.0000000000
11
-7.9442053580
21
44.3423698917
31
0.0000000000
0
SPLINE
5
3B7
100
AcDbEntity
8
0
100
AcDbSpline
62
9
6
CONTINUOUS
70
0
71
3
72
12
73
8
74
6
42
0.0000001000
43
0.0000001000
44
0.0000000001
12
-0.1369565591
22
0.0419311702
32
0.0000000000
13
-0.1375335769
23
-0.0395523800
33
0.0000000000
40
0.0000000000
40
0.0000000000
40
0.0000000000
40
0.0000000000
40
0.0570018412
40
0.2857435050
40
0.5176705146
40
0.7551013540
40
1.0000000000
40
1.0000000000
40
1.0000000000
40
1.0000000000
10
8.5960310622
20
39.3234176083
30
0.0000000000
10
8.5934288035
20
39.3242143263
30
0.0000000000
10
8.5803120346
20
39.3279727653
30
0.0000000000
10
8.5559707139
20
39.3326126711
30
0.0000000000
10
8.5225947672
20
39.3341452143
30
0.0000000000
10
8.4885673983
20
39.3310359728
30
0.0000000000
10
8.4660482289
20
39.3259840277
30
0.0000000000
10
8.4548209667
20
39.3227552529
30
0.0000000000
11
8.5960310622
21
39.3234176083
31
0.0000000000
11
8.5881828787
21
39.3256661921
31
0.0000000000
11
8.5560308940
21
39.3318154407
31
0.0000000000
11
8.5228773247
21
39.3333826582
31
0.0000000000
11
8.4890344236
21
39.3303530819
31
0.0000000000
11
8.4548209667
21
39.3227552529
31
0.0000000000
0
SPLINE
5
3B8
100
AcDbEntity
8
0
100
AcDbSpline
62
9
6
CONTINUOUS
70
0
71
3
72
15
73
11
74
9
42
0.0000001000
43
0.0000001000
44
0.0000000001
12
0.0002433598
22
-0.1867153546
32
0.0000000000
13
-0.1771276178
23
-0.0570498309
33
0.0000000000
40
0.0000000000
40
0.0000000000
40
0.0000000000
40
0.0000000000
40
0.0736791842
40
0.1609553450
40
0.2598290335
40
0.3737009146
40
0.5043516168
40
0.6524401487
40
0.8178667234
40
1.0000000000
40
1.0000000000
40
1.0000000000
40
1.0000000000
10
8.9496854206
20
38.8463983436
30
0.0000000000
10
8.9496913975
20
38.8418126653
30
0.0000000000
10
8.9482320648
20
38.8317850684
30
0.0000000000
10
8.9413999913
20
38.8169717802
30
0.0000000000
10
8.9297680493
20
38.8022797550
30
0.0000000000
10
8.9137349734
20
38.7881309259
30
0.0000000000
10
8.8934424062
20
38.7745676686
30
0.0000000000
10
8.8690510323
20
38.7616746910
30
0.0000000000
10
8.8407661743
20
38.7495570248
30
0.0000000000
10
8.8204145093
20
38.7423973468
30
0.0000000000
10
8.8096608982
20
38.7389337892
30
0.0000000000
11
8.9496854206
21
38.8463983436
31
0.0000000000
11
8.9477742936
21
38.8328105453
31
0.0000000000
11
8.9411944395
21
38.8179620399
31
0.0000000000
11
8.9299856254
21
38.8033711320
31
0.0000000000
11
8.9142534145
21
38.7891752369
31
0.0000000000
11
8.8941459710
21
38.7755080502
31
0.0000000000
11
8.8698526649
21
38.7624982880
31
0.0000000000
11
8.8416022876
21
38.7502684746
31
0.0000000000
11
8.8096608982
21
38.7389337892
31
0.0000000000
0
SPLINE
5
3B9
100
AcDbEntity
8
0
100
AcDbSpline
62
7
6
CONTINUOUS
70
0
71
3
72
20
73
16
74
14
42
0.0000001000
43
0.0000001000
44
0.0000000001
12
-0.0002868915
22
0.1073755638
32
0.0000000000
13
-0.0740922285
23
0.0774524354
33
0.0000000000
40
0.0000000000
40
0.0000000000
40
0.0000000000
40
0.0000000000
40
0.0086290700
40
0.0608472951
40
0.1188635931
40
0.1829631718
40
0.2531609831
40
0.3293084357
40
0.4111529871
40
0.4983725168
40
0.5905870219
40
0.6873653700
40
0.7882256638
40
0.8926333782
40
1.0000000000
40
1.0000000000
40
1.0000000000
40
1.0000000000
10
2.5282836581
20
12.6286016472
30
0.0000000000
10
2.5282828329
20
12.6289104976
30
0.0000000000
10
2.5282414370
20
12.6310881050
30
0.0000000000
10
2.5277058334
20
12.6353171210
30
0.0000000000
10
2.5261110469
20
12.6413523016
30
0.0000000000
10
2.5236859331
20
12.6477909164
30
0.0000000000
10
2.5204781574
20
12.6545981613
30
0.0000000000
10
2.5165322163
20
12.6617376823
30
0.0000000000
10
2.5118913049
20
12.6691724926
30
0.0000000000
10
2.5065984334
20
12.6768651480
30
0.0000000000
10
2.5006973190
20
12.6847775610
30
0.0000000000
10
2.4942333237
20
12.6928705447
30
0.0000000000
10
2.4872542855
20
12.7011034451
30
0.0000000000
10
2.4798113942
20
12.7094337382
30
0.0000000000
10
2.4746386384
20
12.7149566811
30
0.0000000000
10
2.4719869610
20
12.7177286165
30
0.0000000000
11
2.5282836581
21
12.6286016472
31
0.0000000000
11
2.5282664101
21
12.6295278770
31
0.0000000000
11
2.5276171399
21
12.6350870801
31
0.0000000000
11
2.5260712636
21
12.6411103211
31
0.0000000000
11
2.5236822890
21
12.6475520910
31
0.0000000000
11
2.5204998351
21
12.6543700403
31
0.0000000000
11
2.5165707712
21
12.6615239198
31
0.0000000000
11
2.5119402799
21
12.6689747503
31
0.0000000000
11
2.5066526946
21
12.6766843274
31
0.0000000000
11
2.5007526851
21
12.6846141978
31
0.0000000000
11
2.4942862100
21
12.6927251106
31
0.0000000000
11
2.4873015040
21
12.7009764419
31
0.0000000000
11
2.4798499847
21
12.7093257580
31
0.0000000000
11
2.4719869610
21
12.7177286165
31
0.0000000000
0
SPLINE
5
3BA
100
AcDbEntity
8
0
100
AcDbSpline
62
7
6
CONTINUOUS
70
0
71
3
72
20
73
16
74
14
42
0.0000001000
43
0.0000001000
44
0.0000000001
12
0.0003795139
22
-0.1858211195
32
0.0000000000
13
-0.0942903442
23
-0.1600740258
33
0.0000000000
40
0.0000000000
40
0.0000000000
40
0.0000000000
40
0.0000000000
40
0.0131002620
40
0.0885476865
40
0.1657565008
40
0.2446264405
40
0.3250277995
40
0.4068050918
40
0.4897797910
40
0.5737539855
40
0.6585061763
40
0.7437910461
40
0.8293377290
40
0.9148486482
40
1.0000000000
40
1.0000000000
40
1.0000000000
40
1.0000000000
10
2.5429762256
20
5.8539965903
30
0.0000000000
10
2.5429778829
20
5.8531851551
30
0.0000000000
10
2.5429552483
20
5.8477004356
30
0.0000000000
10
2.5424958894
20
5.8374388041
30
0.0000000000
10
2.5409768993
20
5.8231736688
30
0.0000000000
10
2.5386192189
20
5.8087133073
30
0.0000000000
10
2.5354720873
20
5.7941154574
30
0.0000000000
10
2.5315819667
20
5.7794354743
30
0.0000000000
10
2.5269936085
20
5.7647272316
30
0.0000000000
10
2.5217510763
20
5.7500440138
30
0.0000000000
10
2.5158987285
20
5.7354392156
30
0.0000000000
10
2.5094822784
20
5.7209670915
30
0.0000000000
10
2.5025496888
20
5.7066830109
30
0.0000000000
10
2.4951522012
20
5.6926438476
30
0.0000000000
10
2.4899289088
20
5.6834539074
30
0.0000000000
10
2.4872525921
20
5.6789104008
30
0.0000000000
11
2.5429762256
21
5.8539965903
31
0.0000000000
11
2.5429663098
21
5.8515623362
31
0.0000000000
11
2.5423594668
21
5.8375588249
31
0.0000000000
11
2.5408575912
21
5.8232937829
31
0.0000000000
11
2.5385139563
21
5.8088299369
31
0.0000000000
11
2.5353779620
21
5.7942258468
31
0.0000000000
11
2.5314962690
21
5.7795374793
31
0.0000000000
11
2.5269138575
21
5.7648192588
31
0.0000000000
11
2.5216748622
21
5.7501244752
31
0.0000000000
11
2.5158237536
21
5.7355067151
31
0.0000000000
11
2.5094062871
21
5.7210202851
31
0.0000000000
11
2.5024704890
21
5.7067206725
31
0.0000000000
11
2.4950675618
21
5.6926647223
31
0.0000000000
11
2.4872525921
21
5.6789104008
31
0.0000000000
0
SPLINE
5
3BB
100
AcDbEntity
8
0
100
AcDbSpline
62
9
6
CONTINUOUS
70
0
71
3
72
14
73
10
74
8
42
0.0000001000
43
0.0000001000
44
0.0000000001
12
0.0002982169
22
-0.0936158991
32
0.0000000000
13
-0.0885161327
23
-0.0285095596
33
0.0000000000
40
0.0000000000
40
0.0000000000
40
0.0000000000
40
0.0000000000
40
0.0420549412
40
0.1466957950
40
0.2677859246
40
0.4118358834
40
0.5817370784
40
0.7780775890
40
1.0000000000
40
1.0000000000
40
1.0000000000
40
1.0000000000
10
10.2483526278
20
9.2865764983
30
0.0000000000
10
10.2483568083
20
9.2852641612
30
0.0000000000
10
10.2480052652
20
9.2806875959
30
0.0000000000
10
10.2449848069
20
9.2727653753
30
0.0000000000
10
10.2377943972
20
9.2636847082
30
0.0000000000
10
10.2273334668
20
9.2550661873
30
0.0000000000
10
10.2137226620
20
9.2469237947
30
0.0000000000
10
10.1971172942
20
9.2393312890
30
0.0000000000
10
10.1848975561
20
9.2349551624
30
0.0000000000
10
10.1783496516
20
9.2328461923
30
0.0000000000
11
10.2483526278
21
9.2865764983
31
0.0000000000
11
10.2480481503
21
9.2826595828
31
0.0000000000
11
10.2447742457
21
9.2734958751
31
0.0000000000
11
10.2379864191
21
9.2645109980
31
0.0000000000
11
10.2277814671
21
9.2558330793
31
0.0000000000
11
10.2143049158
21
9.2475858696
31
0.0000000000
11
10.1977489459
21
9.2398869775
31
0.0000000000
11
10.1783496516
21
9.2328461923
31
0.0000000000
0
SPLINE
5
3BC
100
AcDbEntity
8
0
100
AcDbSpline
62
9
6
CONTINUOUS
70
0
71
3
72
14
73
10
74
8
42
0.0000001000
43
0.0000001000
44
0.0000000001
12
0.0003056012
22
-0.0936178618
32
0.0000000000
13
-0.0885179671
23
-0.0285101506
33
0.0000000000
40
0.0000000000
40
0.0000000000
40
0.0000000000
40
0.0000000000
40
0.0420748916
40
0.1467135826
40
0.2678012087
40
0.4118481801
40
0.5817458375
40
0.7780822440
40
1.0000000000
40
1.0000000000
40
1.0000000000
40
1.0000000000
10
10.2351664375
20
15.3665859978
30
0.0000000000
10
10.2351707235
20
15.3652730106
30
0.0000000000
10
10.2348193137
20
15.3606957620
30
0.0000000000
10
10.2317986177
20
15.3527729262
30
0.0000000000
10
10.2246082059
20
15.3436922605
30
0.0000000000
10
10.2141472747
20
15.3350737413
30
0.0000000000
10
10.2005364709
20
15.3269313506
30
0.0000000000
10
10.1839311058
20
15.3193388467
30
0.0000000000
10
10.1717113704
20
15.3149627212
30
0.0000000000
10
10.1651634675
20
15.3128537516
30
0.0000000000
11
10.2351664375
21
15.3665859978
31
0.0000000000
11
10.2348619648
21
15.3626671331
31
0.0000000000
11
10.2315880569
21
15.3535034260
31
0.0000000000
11
10.2248002279
21
15.3445185500
31
0.0000000000
11
10.2145952748
21
15.3358406328
31
0.0000000000
11
10.2011187242
21
15.3275934250
31
0.0000000000
11
10.1845627570
21
15.3198945349
31
0.0000000000
11
10.1651634675
21
15.3128537516
31
0.0000000000
0
SPLINE
5
3BD
100
AcDbEntity
8
0
100
AcDbSpline
62
9
6
CONTINUOUS
70
0
71
3
72
11
73
7
74
5
42
0.0000001000
43
0.0000001000
44
0.0000000001
12
-0.0700212607
22
0.0214327176
32
0.0000000000
13
-0.0700578991
23
-0.0209712629
33
0.0000000000
40
0.0000000000
40
0.0000000000
40
0.0000000000
40
0.0000000000
40
0.1398572623
40
0.4183438497
40
0.7037816466
40
1.0000000000
40
1.0000000000
40
1.0000000000
40
1.0000000000
10
10.0370547697
20
15.6401263902
30
0.0000000000
10
10.0337904424
20
15.6411255639
30
0.0000000000
10
10.0238911839
20
15.6436736727
30
0.0000000000
10
10.0067625640
20
15.6456810013
30
0.0000000000
10
9.9857337371
20
15.6444982749
30
0.0000000000
10
9.9718261151
20
15.6414142439
30
0.0000000000
10
9.9649086366
20
15.6393435529
30
0.0000000000
11
10.0370547697
21
15.6401263902
31
0.0000000000
11
10.0271400052
21
15.6426778590
31
0.0000000000
11
10.0069166018
21
15.6450798160
31
0.0000000000
11
9.9860726160
21
15.6439630123
31
0.0000000000
11
9.9649086366
21
15.6393435529
31
0.0000000000
0
SPLINE
5
3BE
100
AcDbEntity
8
0
100
AcDbSpline
62
7
6
CONTINUOUS
70
0
71
3
72
15
73
11
74
9
42
0.0000001000
43
0.0000001000
44
0.0000000001
12
0.0005212689
22
-0.2669997623
32
0.0000000000
13
-0.0999340217
23
-0.2475391709
33
0.0000000000
40
0.0000000000
40
0.0000000000
40
0.0000000000
40
0.0000000000
40
0.0835297216
40
0.2120897273
40
0.3417377925
40
0.4723639353
40
0.6037830347
40
0.7357520064
40
0.8679550589
40
1.0000000000
40
1.0000000000
40
1.0000000000
40
1.0000000000
10
2.4752252497
20
37.0932644159
30
0.0000000000
10
2.4752397635
20
37.0858302773
30
0.0000000000
10
2.4748502028
20
37.0669534771
30
0.0000000000
10
2.4726052435
20
37.0366085071
30
0.0000000000
10
2.4680427028
20
37.0022927964
30
0.0000000000
10
2.4616079241
20
36.9680222060
30
0.0000000000
10
2.4534440905
20
36.9339116651
30
0.0000000000
10
2.4436859847
20
36.9000780368
30
0.0000000000
10
2.4324653814
20
36.8666441145
30
0.0000000000
10
2.4240832207
20
36.8446675003
30
0.0000000000
10
2.4196846267
20
36.8337720686
30
0.0000000000
11
2.4752252497
21
37.0932644159
31
0.0000000000
11
2.4747772269
21
37.0709681807
31
0.0000000000
11
2.4722818063
21
37.0367398958
31
0.0000000000
11
2.4677510255
21
37.0024281554
31
0.0000000000
11
2.4613415055
21
36.9681515933
31
0.0000000000
11
2.4531966362
21
36.9340277977
31
0.0000000000
11
2.4434509845
21
36.9001734697
31
0.0000000000
11
2.4322359269
21
36.8667112159
31
0.0000000000
11
2.4196846267
21
36.8337720686
31
0.0000000000
0
SPLINE
5
3BF
100
AcDbEntity
8
0
100
AcDbSpline
62
9
6
CONTINUOUS
70
0
71
3
72
13
73
9
74
7
42
0.0000001000
43
0.0000001000
44
0.0000000001
12
-0.2701508436
22
0.0826579237
32
0.0000000000
13
-0.2707260952
23
-0.0801348024
33
0.0000000000
40
0.0000000000
40
0.0000000000
40
0.0000000000
40
0.0000000000
40
0.0087859348
40
0.2009275490
40
0.3946645265
40
0.5915345652
40
0.7929161321
40
1.0000000000
40
1.0000000000
40
1.0000000000
40
1.0000000000
10
1.9983684111
20
42.5124067541
30
0.0000000000
10
1.9975772352
20
42.5126488298
30
0.0000000000
10
1.9794679880
20
42.5181337069
30
0.0000000000
10
1.9432060982
20
42.5266008860
30
0.0000000000
10
1.8885402725
20
42.5324547959
30
0.0000000000
10
1.8327020856
20
42.5317283529
30
0.0000000000
10
1.7760847877
20
42.5244417147
30
0.0000000000
10
1.7386376546
20
42.5153878338
30
0.0000000000
10
1.7199499856
20
42.5098562922
30
0.0000000000
11
1.9983684111
21
42.5124067541
31
0.0000000000
11
1.9959928404
21
42.5131262579
31
0.0000000000
11
1.9431683573
21
42.5254751402
31
0.0000000000
11
1.8887845718
21
42.5313401349
31
0.0000000000
11
1.8332047658
21
42.5306818382
31
0.0000000000
11
1.7768020861
21
42.5235047715
31
0.0000000000
11
1.7199499856
21
42.5098562922
31
0.0000000000
0
SPLINE
5
3C0
100
AcDbEntity
8
0
100
AcDbSpline
62
9
6
CONTINUOUS
70
0
71
3
72
22
73
18
74
16
42
0.0000001000
43
0.0000001000
44
0.0000000001
12
0.3901472794
22
-0.1158082909
32
0.0000000000
13
-0.0014252528
23
-0.4069698128
33
0.0000000000
40
0.0000000000
40
0.0000000000
40
0.0000000000
40
0.0000000000
40
0.0550237702
40
0.1122888360
40
0.1719086355
40
0.2338824319
40
0.2981138832
40
0.3644237732
40
0.4325601695
40
0.5022154379
40
0.5730365455
40
0.6446384092
40
0.7166129975
40
0.7885450725
40
0.8600189695
40
0.9306290540
40
1.0000000000
40
1.0000000000
40
1.0000000000
40
1.0000000000
10
9.9649086366
20
15.6393435529
30
0.0000000000
10
9.9720644280
20
15.6372194834
30
0.0000000000
10
9.9863979897
20
15.6319292721
30
0.0000000000
10
10.0072134941
20
15.6213106532
30
0.0000000000
10
10.0275401197
20
15.6079790726
30
0.0000000000
10
10.0471567945
20
15.5920848765
30
0.0000000000
10
10.0658558755
20
15.5738026398
30
0.0000000000
10
10.0834370472
20
15.5533320588
30
0.0000000000
10
10.0997117692
20
15.5308957446
30
0.0000000000
10
10.1145046888
20
15.5067375827
30
0.0000000000
10
10.1276561218
20
15.4811198986
30
0.0000000000
10
10.1390236754
20
15.4543211231
30
0.0000000000
10
10.1484841628
20
15.4266322985
30
0.0000000000
10
10.1559348733
20
15.3983544281
30
0.0000000000
10
10.1612947317
20
15.3697941654
30
0.0000000000
10
10.1645053387
20
15.3412637661
30
0.0000000000
10
10.1651964246
20
15.3222643786
30
0.0000000000
10
10.1651634675
20
15.3128537516
30
0.0000000000
11
9.9649086366
21
15.6393435529
31
0.0000000000
11
9.9859348978
21
15.6316396874
31
0.0000000000
11
10.0067196826
21
15.6210978876
31
0.0000000000
11
10.0270363660
21
15.6078330839
31
0.0000000000
11
10.0466617704
21
15.5919909385
31
0.0000000000
11
10.0653809482
21
15.5737450063
31
0.0000000000
11
10.0829891702
21
15.5532948153
31
0.0000000000
11
10.0992932365
21
15.5308647103
31
0.0000000000
11
10.1141146687
21
15.5067002540
31
0.0000000000
11
10.1272910651
21
15.4810662239
31
0.0000000000
11
10.1386781680
21
15.4542432473
31
0.0000000000
11
10.1481510611
21
15.4265256374
31
0.0000000000
11
10.1556061845
21
15.3982164614
31
0.0000000000
11
10.1609618287
21
15.3696258543
31
0.0000000000
11
10.1641592007
21
15.3410679382
31
0.0000000000
11
10.1651634675
21
15.3128537516
31
0.0000000000
0
SPLINE
5
3C1
100
AcDbEntity
8
0
100
AcDbSpline
62
9
6
CONTINUOUS
70
0
71
3
72
18
73
14
74
12
42
0.0000001000
43
0.0000001000
44
0.0000000001
12
0.0019525420
22
-0.2484320364
32
0.0000000000
13
-0.2344977259
23
-0.0827964311
33
0.0000000000
40
0.0000000000
40
0.0000000000
40
0.0000000000
40
0.0000000000
40
0.1105798823
40
0.2179740051
40
0.3218063612
40
0.4218156329
40
0.5178906866
40
0.6100904803
40
0.6986584541
40
0.7840397813
40
0.8668764923
40
0.9479873694
40
1.0000000000
40
1.0000000000
40
1.0000000000
40
1.0000000000
10
10.1783496516
20
9.2328461923
30
0.0000000000
10
10.1784216222
20
9.2236889972
30
0.0000000000
10
10.1778601740
20
9.2056234071
30
0.0000000000
10
10.1748179734
20
9.1791162794
30
0.0000000000
10
10.1696178162
20
9.1538346232
30
0.0000000000
10
10.1623124319
20
9.1300539640
30
0.0000000000
10
10.1529760040
20
9.1080318639
30
0.0000000000
10
10.1417030306
20
9.0880090401
30
0.0000000000
10
10.1286078577
20
9.0702073904
30
0.0000000000
10
10.1138251583
20
9.0548292610
30
0.0000000000
10
10.0975110729
20
9.0420553193
30
0.0000000000
10
10.0818931225
20
9.0332019944
30
0.0000000000
10
10.0716699032
20
9.0290103421
30
0.0000000000
10
10.0676042887
20
9.0275748554
30
0.0000000000
11
10.1783496516
21
9.2328461923
31
0.0000000000
11
10.1774661398
21
9.2053879690
31
0.0000000000
11
10.1743881836
21
9.1788851378
31
0.0000000000
11
10.1691493349
21
9.1536266299
31
0.0000000000
11
10.1618071024
21
9.1298899710
31
0.0000000000
11
10.1524419357
21
9.1079351070
31
0.0000000000
11
10.1411562386
21
9.0880021695
31
0.0000000000
11
10.1280738106
21
9.0703098727
31
0.0000000000
11
10.1133378795
21
9.0550518901
31
0.0000000000
11
10.0971099114
21
9.0423954095
31
0.0000000000
11
10.0795675551
21
9.0324790041
31
0.0000000000
11
10.0676042887
21
9.0275748554
31
0.0000000000
0
SPLINE
5
3C2
100
AcDbEntity
8
0
100
AcDbSpline
62
9
6
CONTINUOUS
70
0
71
3
72
8
73
4
74
2
42
0.0000001000
43
0.0000001000
44
0.0000000001
12
-0.0020754454
22
-0.0007327980
32
0.0000000000
13
-0.0020875426
23
-0.0006975308
33
0.0000000000
40
0.0000000000
40
0.0000000000
40
0.0000000000
40
0.0000000000
40
1.0000000000
40
1.0000000000
40
1.0000000000
40
1.0000000000
10
10.0676042887
20
9.0275748554
30
0.0000000000
10
10.0669124736
20
9.0273305894
30
0.0000000000
10
10.0662185938
20
9.0270921790
30
0.0000000000
10
10.0655227462
20
9.0268596688
30
0.0000000000
11
10.0676042887
21
9.0275748554
31
0.0000000000
11
10.0655227462
21
9.0268596688
31
0.0000000000
0
SPLINE
5
3C3
100
AcDbEntity
8
0
100
AcDbSpline
62
9
6
CONTINUOUS
70
0
71
3
72
23
73
19
74
17
42
0.0000001000
43
0.0000001000
44
0.0000000001
12
0.0076450574
22
0.7265775448
32
0.0000000000
13
-0.6967497035
23
0.2061873569
33
0.0000000000
40
0.0000000000
40
0.0000000000
40
0.0000000000
40
0.0000000000
40
0.0651018483
40
0.1313019521
40
0.1982695129
40
0.2656778942
40
0.3331881808
40
0.4004603056
40
0.4671595583
40
0.5329649375
40
0.5975772874
40
0.6607278286
40
0.7221869859
40
0.7817736000
40
0.8393644748
40
0.8949040537
40
0.9484137577
40
1.0000000000
40
1.0000000000
40
1.0000000000
40
1.0000000000
10
8.8096608982
20
38.7389337892
30
0.0000000000
10
8.8098268006
20
38.7547009696
30
0.0000000000
10
8.8089712021
20
38.7865248756
30
0.0000000000
10
8.8042588705
20
38.8343526941
30
0.0000000000
10
8.7961496666
20
38.8822911531
30
0.0000000000
10
8.7847219210
20
38.9298734435
30
0.0000000000
10
8.7700849841
20
38.9766458260
30
0.0000000000
10
8.7523787605
20
39.0221608044
30
0.0000000000
10
8.7317721867
20
39.0659834588
30
0.0000000000
10
8.7084616204
20
39.1076949339
30
0.0000000000
10
8.6826688226
20
39.1468966099
30
0.0000000000
10
8.6546386531
20
39.1832138115
30
0.0000000000
10
8.6246366040
20
39.2162992143
30
0.0000000000
10
8.5929458037
20
39.2458359134
30
0.0000000000
10
8.5598651793
20
39.2715396628
30
0.0000000000
10
8.5257033025
20
39.2931617852
30
0.0000000000
10
8.4907881375
20
39.3104872934
30
0.0000000000
10
8.4668018663
20
39.3192097759
30
0.0000000000
10
8.4548209667
20
39.3227552529
30
0.0000000000
11
8.8096608982
21
38.7389337892
31
0.0000000000
11
8.8084215184
21
38.7862217099
31
0.0000000000
11
8.8037287674
21
38.8340944264
31
0.0000000000
11
8.7956276551
21
38.8820751517
31
0.0000000000
11
8.7841960089
21
38.9297025633
31
0.0000000000
11
8.7695440073
21
38.9765174198
31
0.0000000000
11
8.7518126674
21
39.0220691878
31
0.0000000000
11
8.7311726893
21
39.0659193205
31
0.0000000000
11
8.7078227604
21
39.1076456818
31
0.0000000000
11
8.6819876703
21
39.1468465494
31
0.0000000000
11
8.6539161382
21
39.1831445118
31
0.0000000000
11
8.6238784175
21
39.2161901040
31
0.0000000000
11
8.5921636928
21
39.2456651748
31
0.0000000000
11
8.5590772933
21
39.2712859504
31
0.0000000000
11
8.5249377569
21
39.2928057643
31
0.0000000000
11
8.4900737578
21
39.3100174354
31
0.0000000000
11
8.4548209667
21
39.3227552529
31
0.0000000000
0
SPLINE
5
3C4
100
AcDbEntity
8
0
100
AcDbSpline
62
7
6
CONTINUOUS
70
0
71
3
72
12
73
8
74
6
42
0.0000001000
43
0.0000001000
44
0.0000000001
12
0.1399325825
22
0.0450699347
32
0.0000000000
13
0.1407025747
23
-0.0430727564
33
0.0000000000
40
0.0000000000
40
0.0000000000
40
0.0000000000
40
0.0000000000
40
0.2388453135
40
0.4697485530
40
0.6947166215
40
0.9161570651
40
1.0000000000
40
1.0000000000
40
1.0000000000
40
1.0000000000
10
7.9200205927
20
8.2161073411
30
0.0000000000
10
7.9311613399
20
8.2196955887
30
0.0000000000
10
7.9535249560
20
8.2254485561
30
0.0000000000
10
7.9874229281
20
8.2295446525
30
0.0000000000
10
8.0207221711
20
8.2288909521
30
0.0000000000
10
8.0464438373
20
8.2245870789
30
0.0000000000
10
8.0608853580
20
8.2206077663
30
0.0000000000
10
8.0648176636
20
8.2194039842
30
0.0000000000
11
7.9200205927
21
8.2161073411
31
0.0000000000
11
7.9540471286
21
8.2247745648
31
0.0000000000
11
7.9877557877
21
8.2287771960
31
0.0000000000
11
8.0208212978
21
8.2280767582
31
0.0000000000
11
8.0529252241
21
8.2226802724
31
0.0000000000
11
8.0648176636
21
8.2194039842
31
0.0000000000
0
SPLINE
5
3C5
100
AcDbEntity
8
0
100
AcDbSpline
62
9
6
CONTINUOUS
70
0
71
3
72
19
73
15
74
13
42
0.0000001000
43
0.0000001000
44
0.0000000001
12
0.2786401724
22
-0.0824575351
32
0.0000000000
13
-0.0030572095
23
-0.2905688288
33
0.0000000000
40
0.0000000000
40
0.0000000000
40
0.0000000000
40
0.0000000000
40
0.0691853384
40
0.1418650247
40
0.2181896052
40
0.2980577970
40
0.3811546778
40
0.4669922510
40
0.5549489440
40
0.6443070750
40
0.7342884514
40
0.8240886925
40
0.9129109845
40
1.0000000000
40
1.0000000000
40
1.0000000000
40
1.0000000000
10
8.7349615166
20
7.9703925922
30
0.0000000000
10
8.7413874548
20
7.9684909747
30
0.0000000000
10
8.7542606412
20
7.9635043343
30
0.0000000000
10
8.7727082962
20
7.9530642419
30
0.0000000000
10
8.7904535339
20
7.9396781363
30
0.0000000000
10
8.8071989582
20
7.9235805848
30
0.0000000000
10
8.8226712577
20
7.9050454714
30
0.0000000000
10
8.8366135464
20
7.8843865847
30
0.0000000000
10
8.8487935679
20
7.8619527208
30
0.0000000000
10
8.8590072195
20
7.8381225377
30
0.0000000000
10
8.8670827675
20
7.8132986549
30
0.0000000000
10
8.8728839779
20
7.7878993168
30
0.0000000000
10
8.8763126043
20
7.7623566220
30
0.0000000000
10
8.8769857594
20
7.7452994802
30
0.0000000000
10
8.8768970096
20
7.7368643625
30
0.0000000000
11
8.7349615166
21
7.9703925922
31
0.0000000000
11
8.7537345741
21
7.9631987206
31
0.0000000000
11
8.7721514216
21
7.9528615020
31
0.0000000000
11
8.7898970641
21
7.9395577403
31
0.0000000000
11
8.8066679869
21
7.9235149780
31
0.0000000000
11
8.8221773464
21
7.9050076044
31
0.0000000000
11
8.8361598764
21
7.8843521627
31
0.0000000000
11
8.8483764249
21
7.8619019357
31
0.0000000000
11
8.8586180446
21
7.8380409036
31
0.0000000000
11
8.8667095668
21
7.8131771766
31
0.0000000000
11
8.8725125971
21
7.7877360144
31
0.0000000000
11
8.8759278826
21
7.7621525531
31
0.0000000000
11
8.8768970096
21
7.7368643625
31
0.0000000000
0
SPLINE
5
3C6
100
AcDbEntity
8
0
100
AcDbSpline
62
9
6
CONTINUOUS
70
0
71
3
72
16
73
12
74
10
42
0.0000001000
43
0.0000001000
44
0.0000000001
12
0.1397359778
22
0.0430037298
32
0.0000000000
13
-0.0038666738
23
-0.1465888815
33
0.0000000000
40
0.0000000000
40
0.0000000000
40
0.0000000000
40
0.0000000000
40
0.2089783851
40
0.3943145770
40
0.5574908477
40
0.6965265980
40
0.8094970484
40
0.8955710133
40
0.9538280398
40
0.9881036738
40
1.0000000000
40
1.0000000000
40
1.0000000000
40
1.0000000000
10
8.8768974915
20
7.7368642201
30
0.0000000000
10
8.8866314245
20
7.7398598367
30
0.0000000000
10
8.9050403113
20
7.7453757436
30
0.0000000000
10
8.9312160498
20
7.7526677678
30
0.0000000000
10
8.9542507053
20
7.7584900024
30
0.0000000000
10
8.9740499492
20
7.7627538470
30
0.0000000000
10
8.9902574691
20
7.7655277392
30
0.0000000000
10
9.0029082613
20
7.7664294148
30
0.0000000000
10
9.0113578999
20
7.7662868643
30
0.0000000000
10
9.0167281185
20
7.7635728545
30
0.0000000000
10
9.0170516676
20
7.7614272540
30
0.0000000000
10
9.0170363345
20
7.7608459643
30
0.0000000000
11
8.8768974915
21
7.7368642201
31
0.0000000000
11
8.9061736348
21
7.7456058427
31
0.0000000000
11
8.9322854109
21
7.7528454385
31
0.0000000000
11
8.9554302018
21
7.7586309682
31
0.0000000000
11
8.9753122691
21
7.7628631323
31
0.0000000000
11
8.9916255771
21
7.7654470352
31
0.0000000000
11
9.0041805401
21
7.7663060424
31
0.0000000000
11
9.0126433905
21
7.7653437802
31
0.0000000000
11
9.0167487973
21
7.7624701173
31
0.0000000000
11
9.0170363345
21
7.7608459643
31
0.0000000000
0
SPLINE
5
3C7
100
AcDbEntity
8
0
100
AcDbSpline
62
9
6
CONTINUOUS
70
0
71
3
72
12
73
8
74
6
42
0.0000001000
43
0.0000001000
44
0.0000000001
12
0.1186191150
22
0.0348582118
32
0.0000000000
13
0.1183917990
23
-0.0361896511
33
0.0000000000
40
0.0000000000
40
0.0000000000
40
0.0000000000
40
0.0000000000
40
0.2504530000
40
0.4792632961
40
0.6907711230
40
0.8860774829
40
1.0000000000
40
1.0000000000
40
1.0000000000
40
1.0000000000
10
8.7349615189
20
7.9703928055
30
0.0000000000
10
8.7448643566
20
7.9733029201
30
0.0000000000
10
8.7640437787
20
7.9781422478
30
0.0000000000
10
8.7922299156
20
7.9824684918
30
0.0000000000
10
8.8184732230
20
7.9834899813
30
0.0000000000
10
8.8399101822
20
7.9813552224
30
0.0000000000
10
8.8523366368
20
7.9783496678
30
0.0000000000
10
8.8568324674
20
7.9769753958
30
0.0000000000
11
8.7349615189
21
7.9703928055
31
0.0000000000
11
8.7650126726
21
7.9778589169
31
0.0000000000
11
8.7929934199
21
7.9820232712
31
0.0000000000
11
8.8191288518
21
7.9828884927
31
0.0000000000
11
8.8431394310
21
7.9803283388
31
0.0000000000
11
8.8568324674
21
7.9769753958
31
0.0000000000
0
SPLINE
5
3C8
100
AcDbEntity
8
0
100
AcDbSpline
62
9
6
CONTINUOUS
70
0
71
3
72
19
73
15
74
13
42
0.0000001000
43
0.0000001000
44
0.0000000001
12
0.2789648174
22
-0.0824402897
32
0.0000000000
13
0.0006308771
23
-0.2908906542
33
0.0000000000
40
0.0000000000
40
0.0000000000
40
0.0000000000
40
0.0000000000
40
0.0691773032
40
0.1419406304
40
0.2184087572
40
0.2984489958
40
0.3817172283
40
0.4676993525
40
0.5557511487
40
0.6451358865
40
0.7350599955
40
0.8247074718
40
0.9132737775
40
1.0000000000
40
1.0000000000
40
1.0000000000
40
1.0000000000
10
8.7288611093
20
7.9685275387
30
0.0000000000
10
8.7352937872
20
7.9666265397
30
0.0000000000
10
8.7481909683
20
7.9616442951
30
0.0000000000
10
8.7667011436
20
7.9512292558
30
0.0000000000
10
8.7845500634
20
7.9378800662
30
0.0000000000
10
8.8014384956
20
7.9218301695
30
0.0000000000
10
8.8170903723
20
7.9033524152
30
0.0000000000
10
8.8312454366
20
7.8827595829
30
0.0000000000
10
8.8436675401
20
7.8603994383
30
0.0000000000
10
8.8541482617
20
7.8366495409
30
0.0000000000
10
8.8625111864
20
7.8119113234
30
0.0000000000
10
8.8686151255
20
7.7866017407
30
0.0000000000
10
8.8723566042
20
7.7611515061
30
0.0000000000
10
8.8732448794
20
7.7441464234
30
0.0000000000
10
8.8732631173
20
7.7357371409
30
0.0000000000
11
8.7288611093
21
7.9685275387
31
0.0000000000
11
8.7476590302
21
7.9613458640
31
0.0000000000
11
8.7661423729
21
7.9510320392
31
0.0000000000
11
8.7839948822
21
7.9377625367
31
0.0000000000
11
8.8009110969
21
7.9217644013
31
0.0000000000
11
8.8166015757
21
7.9033113656
31
0.0000000000
11
8.8307978503
21
7.8827191662
31
0.0000000000
11
8.8432570183
21
7.8603401412
31
0.0000000000
11
8.8537659002
21
7.8365572020
31
0.0000000000
11
8.8621446858
21
7.8117772813
31
0.0000000000
11
8.8682500119
21
7.7864243703
31
0.0000000000
11
8.8719774147
21
7.7609322645
31
0.0000000000
11
8.8732631173
21
7.7357371409
31
0.0000000000
0
SPLINE
5
3C9
100
AcDbEntity
8
0
100
AcDbSpline
62
9
6
CONTINUOUS
70
0
71
3
72
9
73
5
74
3
42
0.0000001000
43
0.0000001000
44
0.0000000001
12
0.0036219510
22
0.0011665701
32
0.0000000000
13
0.0036465569
23
0.0010872154
33
0.0000000000
40
0.0000000000
40
0.0000000000
40
0.0000000000
40
0.0000000000
40
0.5008596778
40
1.0000000000
40
1.0000000000
40
1.0000000000
40
1.0000000000
10
8.8732631173
20
7.7357371409
30
0.0000000000
10
8.8738678137
20
7.7359319035
30
0.0000000000
10
8.8750772442
20
7.7363142293
30
0.0000000000
10
8.8762907770
20
7.7366833291
30
0.0000000000
10
8.8768974915
20
7.7368642201
30
0.0000000000
11
8.8732631173
21
7.7357371409
31
0.0000000000
11
8.8750803527
21
7.7363115688
31
0.0000000000
11
8.8768974915
21
7.7368642201
31
0.0000000000
0
SPLINE
5
3CA
100
AcDbEntity
8
0
100
AcDbSpline
62
9
6
CONTINUOUS
70
0
71
3
72
9
73
5
74
3
42
0.0000001000
43
0.0000001000
44
0.0000000001
12
0.0060799414
22
0.0019312512
32
0.0000000000
13
0.0061204741
23
0.0017986705
33
0.0000000000
40
0.0000000000
40
0.0000000000
40
0.0000000000
40
0.0000000000
40
0.5008561670
40
1.0000000000
40
1.0000000000
40
1.0000000000
40
1.0000000000
10
8.7288611093
20
7.9685275387
30
0.0000000000
10
8.7298761680
20
7.9688499650
30
0.0000000000
10
8.7319062985
20
7.9694828013
30
0.0000000000
10
8.7339431866
20
7.9700935404
30
0.0000000000
10
8.7349615189
20
7.9703928055
30
0.0000000000
11
8.7288611093
21
7.9685275387
31
0.0000000000
11
8.7319114700
21
7.9694783417
31
0.0000000000
11
8.7349615189
21
7.9703928055
31
0.0000000000
0
SPLINE
5
3CB
100
AcDbEntity
8
0
100
AcDbSpline
62
9
6
CONTINUOUS
70
0
71
3
72
15
73
11
74
9
42
0.0000001000
43
0.0000001000
44
0.0000000001
12
0.0003533725
22
-0.1629362501
32
0.0000000000
13
-0.1431340118
23
-0.0783397727
33
0.0000000000
40
0.0000000000
40
0.0000000000
40
0.0000000000
40
0.0000000000
40
0.1503368957
40
0.2951776157
40
0.4338017786
40
0.5658424719
40
0.6913595109
40
0.8109024313
40
0.9255430140
40
1.0000000000
40
1.0000000000
40
1.0000000000
40
1.0000000000
10
8.8579974862
20
14.7745553565
30
0.0000000000
10
8.8580151945
20
14.7663902465
30
0.0000000000
10
8.8572703370
20
14.7503431991
30
0.0000000000
10
8.8536999427
20
14.7270087334
30
0.0000000000
10
8.8477490607
20
14.7051841492
30
0.0000000000
10
8.8395083891
20
14.6852396594
30
0.0000000000
10
8.8291029312
20
14.6675138604
30
0.0000000000
10
8.8166913209
20
14.6523169302
30
0.0000000000
10
8.8039857561
20
14.6412494817
30
0.0000000000
10
8.7952736590
20
14.6357436557
30
0.0000000000
10
8.7917212166
20
14.6337993412
30
0.0000000000
11
8.8579974862
21
14.7745553565
31
0.0000000000
11
8.8568194898
21
14.7500883105
31
0.0000000000
11
8.8531979503
21
14.7267679801
31
0.0000000000
11
8.8471948333
21
14.7049933827
31
0.0000000000
11
8.8389128536
21
14.6851370875
31
0.0000000000
11
8.8284937184
21
14.6675388415
31
0.0000000000
11
8.8161157019
21
14.6524997553
31
0.0000000000
11
8.8019905953
21
14.6402771520
31
0.0000000000
11
8.7917212166
21
14.6337993412
31
0.0000000000
0
SPLINE
5
3CC
100
AcDbEntity
8
0
100
AcDbSpline
62
9
6
CONTINUOUS
70
0
71
3
72
9
73
5
74
3
42
0.0000001000
43
0.0000001000
44
0.0000000001
12
-0.0105255285
22
-0.0057608077
32
0.0000000000
13
-0.0111697528
23
-0.0043863796
33
0.0000000000
40
0.0000000000
40
0.0000000000
40
0.0000000000
40
0.0000000000
40
0.5010759725
40
1.0000000000
40
1.0000000000
40
1.0000000000
40
1.0000000000
10
8.7917212166
20
14.6337993412
30
0.0000000000
10
8.7899631868
20
14.6328371405
30
0.0000000000
10
8.7863950182
20
14.6310261574
30
0.0000000000
10
8.7827182917
20
14.6294457943
30
0.0000000000
10
8.7808606723
20
14.6287163042
30
0.0000000000
11
8.7917212166
21
14.6337993412
31
0.0000000000
11
8.7863600833
21
14.6310801637
31
0.0000000000
11
8.7808606723
21
14.6287163042
31
0.0000000000
0
SPLINE
5
3CD
100
AcDbEntity
8
0
100
AcDbSpline
62
9
6
CONTINUOUS
70
0
71
3
72
8
73
4
74
2
42
0.0000001000
43
0.0000001000
44
0.0000000001
12
-0.0054744704
22
-0.0021498332
32
0.0000000000
13
-0.0055980321
23
-0.0018037696
33
0.0000000000
40
0.0000000000
40
0.0000000000
40
0.0000000000
40
0.0000000000
40
1.0000000000
40
1.0000000000
40
1.0000000000
40
1.0000000000
10
8.7808606723
20
14.6287163042
30
0.0000000000
10
8.7790358488
20
14.6279996932
30
0.0000000000
10
8.7771886256
20
14.6273400086
30
0.0000000000
10
8.7753226149
20
14.6267387521
30
0.0000000000
11
8.7808606723
21
14.6287163042
31
0.0000000000
11
8.7753226149
21
14.6267387521
31
0.0000000000
0
SPLINE
5
3CE
100
AcDbEntity
8
0
100
AcDbSpline
62
9
6
CONTINUOUS
70
0
71
3
72
9
73
5
74
3
42
0.0000001000
43
0.0000001000
44
0.0000000001
12
0.0036471429
22
0.0011746829
32
0.0000000000
13
0.0036210039
23
0.0012529414
33
0.0000000000
40
0.0000000000
40
0.0000000000
40
0.0000000000
40
0.0000000000
40
0.4991261228
40
1.0000000000
40
1.0000000000
40
1.0000000000
40
1.0000000000
10
8.8579974862
20
14.7745553565
30
0.0000000000
10
8.8586042810
20
14.7747507948
30
0.0000000000
10
8.8598178776
20
14.7751489607
30
0.0000000000
10
8.8610271164
20
14.7755601699
30
0.0000000000
10
8.8616316719
20
14.7757693584
30
0.0000000000
11
8.8579974862
21
14.7745553565
31
0.0000000000
11
8.8598146709
21
14.7751515142
31
0.0000000000
11
8.8616316719
21
14.7757693584
31
0.0000000000
0
SPLINE
5
3CF
100
AcDbEntity
8
0
100
AcDbSpline
62
9
6
CONTINUOUS
70
0
71
3
72
16
73
12
74
10
42
0.0000001000
43
0.0000001000
44
0.0000000001
12
0.0026518310
22
-0.1772169944
32
0.0000000000
13
-0.1677431111
23
-0.0580866336
33
0.0000000000
40
0.0000000000
40
0.0000000000
40
0.0000000000
40
0.0000000000
40
0.1375108777
40
0.2698034214
40
0.3962347165
40
0.5164978052
40
0.6306905815
40
0.7393743612
40
0.8436018717
40
0.9448849086
40
1.0000000000
40
1.0000000000
40
1.0000000000
40
1.0000000000
10
8.8616315779
20
14.7757693862
30
0.0000000000
10
8.8617531298
20
14.7676462980
30
0.0000000000
10
8.8612173129
20
14.7516831204
30
0.0000000000
10
8.8579607504
20
14.7284557661
30
0.0000000000
10
8.8523140040
20
14.7067328818
30
0.0000000000
10
8.8443620559
20
14.6868825342
30
0.0000000000
10
8.8342241928
20
14.6692416030
30
0.0000000000
10
8.8220535356
20
14.6541193160
30
0.0000000000
10
8.8080408017
20
14.6417950436
30
0.0000000000
10
8.7947248111
20
14.6338809830
30
0.0000000000
10
8.7861398803
20
14.6303905703
30
0.0000000000
10
8.7830581546
20
14.6293234202
30
0.0000000000
11
8.8616315779
21
14.7757693862
31
0.0000000000
11
8.8607701209
21
14.7514126229
31
0.0000000000
11
8.8574606563
21
14.7282002451
31
0.0000000000
11
8.8517597878
21
14.7065292686
31
0.0000000000
11
8.8437650212
21
14.6867703459
31
0.0000000000
11
8.8336130959
21
14.6692614265
31
0.0000000000
11
8.8214776467
21
14.6543019765
31
0.0000000000
11
8.8075662340
21
14.6421478569
31
0.0000000000
11
8.7921167934
21
14.6330069472
31
0.0000000000
11
8.7830581546
21
14.6293234202
31
0.0000000000
0
SPLINE
5
3D0
100
AcDbEntity
8
0
100
AcDbSpline
62
9
6
CONTINUOUS
70
0
71
3
72
16
73
12
74
10
42
0.0000001000
43
0.0000001000
44
0.0000000001
12
0.2381296672
22
0.0801225188
32
0.0000000000
13
0.0026525876
23
0.2514157095
33
0.0000000000
40
0.0000000000
40
0.0000000000
40
0.0000000000
40
0.0000000000
40
0.1255872645
40
0.2450582805
40
0.3612396164
40
0.4757195158
40
0.5903202217
40
0.7078470447
40
0.8302866763
40
0.9602774711
40
1.0000000000
40
1.0000000000
40
1.0000000000
40
1.0000000000
10
8.8616316719
20
14.7757693584
30
0.0000000000
10
8.8716003564
20
14.7791234810
30
0.0000000000
10
8.8907037449
20
14.7867905866
30
0.0000000000
10
8.9171623329
20
14.8016443932
30
0.0000000000
10
8.9405218209
20
14.8195491129
30
0.0000000000
10
8.9605809230
20
14.8405435055
30
0.0000000000
10
8.9770569945
20
14.8646006133
30
0.0000000000
10
8.9896422540
20
14.8916439295
30
0.0000000000
10
8.9980514918
20
14.9215986596
30
0.0000000000
10
9.0009928194
20
14.9459789537
30
0.0000000000
10
9.0014275270
20
14.9601987610
30
0.0000000000
10
9.0014626494
20
14.9635277170
30
0.0000000000
11
8.8616316719
21
14.7757693584
31
0.0000000000
11
8.8908773556
21
14.7876147485
31
0.0000000000
11
8.9170079037
21
14.8023864479
31
0.0000000000
11
8.9401310178
21
14.8202020069
31
0.0000000000
11
8.9599695998
21
14.8410281762
31
0.0000000000
11
8.9762366706
21
14.8647858702
31
0.0000000000
11
8.9887331509
21
14.8915395687
31
0.0000000000
11
8.9971278430
21
14.9211346800
31
0.0000000000
11
9.0011542457
21
14.9535454117
31
0.0000000000
11
9.0014626494
21
14.9635277170
31
0.0000000000
0
SPLINE
5
3D1
100
AcDbEntity
8
0
100
AcDbSpline
62
9
6
CONTINUOUS
70
0
71
3
72
8
73
4
74
2
42
0.0000001000
43
0.0000001000
44
0.0000000001
12
0.0000329830
22
0.0031261758
32
0.0000000000
13
-0.0000058952
23
0.0031263744
33
0.0000000000
40
0.0000000000
40
0.0000000000
40
0.0000000000
40
0.0000000000
40
1.0000000000
40
1.0000000000
40
1.0000000000
40
1.0000000000
10
9.0014626494
20
14.9635277170
30
0.0000000000
10
9.0014736438
20
14.9645697756
30
0.0000000000
10
9.0014781099
20
14.9656119043
30
0.0000000000
10
9.0014761448
20
14.9666540291
30
0.0000000000
11
9.0014626494
21
14.9635277170
31
0.0000000000
11
9.0014761448
21
14.9666540291
31
0.0000000000
0
SPLINE
5
3D2
100
AcDbEntity
8
0
100
AcDbSpline
62
9
6
CONTINUOUS
70
0
71
3
72
26
73
22
74
20
42
0.0000001000
43
0.0000001000
44
0.0000000001
12
0.0024770015
22
-1.1453040678
32
0.0000000000
13
-1.0823398878
23
-0.3745235780
33
0.0000000000
40
0.0000000000
40
0.0000000000
40
0.0000000000
40
0.0000000000
40
0.0547847498
40
0.1104401048
40
0.1667632196
40
0.2235497474
40
0.2805897565
40
0.3376703363
40
0.3945761275
40
0.4510954805
40
0.5070223610
40
0.5621610065
40
0.6163273853
40
0.6693553083
40
0.7210982783
40
0.7714346697
40
0.8202706814
40
0.8675472283
40
0.9132420140
40
0.9573735177
40
1.0000000000
40
1.0000000000
40
1.0000000000
40
1.0000000000
10
2.5034675952
20
-1.7976530159
30
0.0000000000
10
2.5035128291
20
-1.8185680816
30
0.0000000000
10
2.5023359160
20
-1.8607429168
30
0.0000000000
10
2.4968981412
20
-1.9242077003
30
0.0000000000
10
2.4878083910
20
-1.9880263292
30
0.0000000000
10
2.4751273370
20
-2.0517670305
30
0.0000000000
10
2.4589394908
20
-2.1150068693
30
0.0000000000
10
2.4393523471
20
-2.1773254032
30
0.0000000000
10
2.4164959265
20
-2.2383085978
30
0.0000000000
10
2.3905220516
20
-2.2975507612
30
0.0000000000
10
2.3616029524
20
-2.3546583021
30
0.0000000000
10
2.3299303754
20
-2.4092515378
30
0.0000000000
10
2.2957139690
20
-2.4609677865
30
0.0000000000
10
2.2591801014
20
-2.5094632372
30
0.0000000000
10
2.2205698642
20
-2.5544156729
30
0.0000000000
10
2.1801379281
20
-2.5955258470
30
0.0000000000
10
2.1381499300
20
-2.6325200023
30
0.0000000000
10
2.0948818363
20
-2.6651507640
30
0.0000000000
10
2.0506151758
20
-2.6931990060
30
0.0000000000
10
2.0056493198
20
-2.7164705342
30
0.0000000000
10
1.9748826131
20
-2.7289019565
30
0.0000000000
10
1.9595038324
20
-2.7342234974
30
0.0000000000
11
2.5034675952
21
-1.7976530159
31
0.0000000000
11
2.5017486386
21
-1.8603748090
31
0.0000000000
11
2.4963320305
21
-1.9238867034
31
0.0000000000
11
2.4872536802
21
-1.9877519366
31
0.0000000000
11
2.4745742910
21
-2.0515420116
31
0.0000000000
11
2.4583785584
21
-2.1148309204
31
0.0000000000
11
2.4387742620
21
-2.1771970372
31
0.0000000000
11
2.4158925030
21
-2.2382228665
31
0.0000000000
11
2.3898859712
21
-2.2975009539
31
0.0000000000
11
2.3609284279
21
-2.3546350334
31
0.0000000000
11
2.3292129264
21
-2.4092439443
31
0.0000000000
11
2.2949516544
21
-2.4609621171
31
0.0000000000
11
2.2583731147
21
-2.5094444502
31
0.0000000000
11
2.2197217841
21
-2.5543667010
31
0.0000000000
11
2.1792557388
21
-2.5954287499
31
0.0000000000
11
2.1372459546
21
-2.6323555770
31
0.0000000000
11
2.0939724188
21
-2.6649010290
31
0.0000000000
11
2.0497242431
21
-2.6928474724
31
0.0000000000
11
2.0047984965
21
-2.7160074429
31
0.0000000000
11
1.9595038324
21
-2.7342234974
31
0.0000000000
0
SPLINE
5
3D3
100
AcDbEntity
8
0
100
AcDbSpline
62
7
6
CONTINUOUS
70
0
71
3
72
15
73
11
74
9
42
0.0000001000
43
0.0000001000
44
0.0000000001
12
0.0890152879
22
-0.1613773542
32
0.0000000000
13
0.0004656171
23
-0.1843892460
33
0.0000000000
40
0.0000000000
40
0.0000000000
40
0.0000000000
40
0.0000000000
40
0.1472636379
40
0.2899631857
40
0.4276773909
40
0.5601373526
40
0.6872387234
40
0.8090572382
40
0.9259133194
40
1.0000000000
40
1.0000000000
40
1.0000000000
40
1.0000000000
10
2.4947617319
20
2.2165268335
30
0.0000000000
10
2.4991313036
20
2.2086051614
30
0.0000000000
10
2.5074689930
20
2.1928581218
30
0.0000000000
10
2.5188304050
20
2.1691594424
30
0.0000000000
10
2.5287340490
20
2.1457973441
30
0.0000000000
10
2.5370485351
20
2.1228370078
30
0.0000000000
10
2.5436390825
20
2.1003351135
30
0.0000000000
10
2.5483613884
20
2.0783419651
30
0.0000000000
10
2.5507599412
20
2.0592500162
30
0.0000000000
10
2.5512301019
20
2.0475150791
30
0.0000000000
10
2.5512416005
20
2.0429614834
30
0.0000000000
11
2.4947617319
21
2.2165268335
31
0.0000000000
11
2.5074365188
21
2.1925275796
31
0.0000000000
11
2.5187756126
21
2.1687981116
31
0.0000000000
11
2.5286453994
21
2.1454150745
31
0.0000000000
11
2.5369140911
21
2.1224457358
31
0.0000000000
11
2.5434467368
21
2.0999503346
31
0.0000000000
11
2.5480995665
21
2.0779866450
31
0.0000000000
11
2.5507155827
21
2.0566095792
31
0.0000000000
11
2.5512416005
21
2.0429614834
31
0.0000000000
0
SPLINE
5
3D4
100
AcDbEntity
8
0
100
AcDbSpline
62
9
6
CONTINUOUS
70
0
71
3
72
11
73
7
74
5
42
0.0000001000
43
0.0000001000
44
0.0000000001
12
0.0549761031
22
0.0158102172
32
0.0000000000
13
0.0547808299
23
-0.0167743869
33
0.0000000000
40
0.0000000000
40
0.0000000000
40
0.0000000000
40
0.0000000000
40
0.3248280529
40
0.6374825590
40
0.9430567721
40
1.0000000000
40
1.0000000000
40
1.0000000000
40
1.0000000000
10
-7.6663137246
20
42.0801444559
30
0.0000000000
10
-7.6603611311
20
42.0818563232
30
0.0000000000
10
-7.6483848604
20
42.0843011018
30
0.0000000000
10
-7.6303111784
20
42.0847478603
30
0.0000000000
10
-7.6175301440
20
42.0826364698
30
0.0000000000
10
-7.6108739813
20
42.0807289966
30
0.0000000000
10
-7.6098341822
20
42.0804106007
30
0.0000000000
11
-7.6663137246
21
42.0801444559
31
0.0000000000
11
-7.6480935638
21
42.0837914378
31
0.0000000000
11
-7.6302126351
21
42.0841818451
31
0.0000000000
11
-7.6129701345
21
42.0813091453
31
0.0000000000
11
-7.6098341822
21
42.0804106007
31
0.0000000000
0
SPLINE
5
3D5
100
AcDbEntity
8
0
100
AcDbSpline
62
9
6
CONTINUOUS
70
0
71
3
72
15
73
11
74
9
42
0.0000001000
43
0.0000001000
44
0.0000000001
12
0.1719440607
22
-0.0526307419
32
0.0000000000
13
0.0659228895
23
-0.1673648100
33
0.0000000000
40
0.0000000000
40
0.0000000000
40
0.0000000000
40
0.0000000000
40
0.1103603414
40
0.2265714434
40
0.3488950887
40
0.4771690260
40
0.6108731352
40
0.7491984214
40
0.8911132618
40
1.0000000000
40
1.0000000000
40
1.0000000000
40
1.0000000000
10
-7.6659525035
20
41.9542005926
30
0.0000000000
10
-7.6596272351
20
41.9522644771
30
0.0000000000
10
-7.6469552382
20
41.9472039657
30
0.0000000000
10
-7.6288195394
20
41.9366656614
30
0.0000000000
10
-7.6113767201
20
41.9231851899
30
0.0000000000
10
-7.5949184976
20
41.9069986487
30
0.0000000000
10
-7.5797129855
20
41.8883811418
30
0.0000000000
10
-7.5660125090
20
41.8676476654
30
0.0000000000
10
-7.5550438633
20
41.8470256020
30
0.0000000000
10
-7.5490606482
20
41.8332197614
30
0.0000000000
10
-7.5466679387
20
41.8271451586
30
0.0000000000
11
-7.6659525035
21
41.9542005926
31
0.0000000000
11
-7.6474947463
21
41.9469116097
31
0.0000000000
11
-7.6293879400
21
41.9364796834
31
0.0000000000
11
-7.6119418970
21
41.9230833061
31
0.0000000000
11
-7.5954551242
21
41.9069516929
31
0.0000000000
11
-7.5802097148
21
41.8883608597
31
0.0000000000
11
-7.5664665225
21
41.8676289002
31
0.0000000000
11
-7.5544606974
21
41.8451105439
31
0.0000000000
11
-7.5466679387
21
41.8271451586
31
0.0000000000
0
SPLINE
5
3D6
100
AcDbEntity
8
0
100
AcDbSpline
62
9
6
CONTINUOUS
70
0
71
3
72
23
73
19
74
17
42
0.0000001000
43
0.0000001000
44
0.0000000001
12
0.2190066624
22
0.0629849394
32
0.0000000000
13
-0.2179036983
23
0.0667008175
33
0.0000000000
40
0.0000000000
40
0.0000000000
40
0.0000000000
40
0.0000000000
40
0.0909163253
40
0.1734714747
40
0.2472388087
40
0.3121012687
40
0.3683179333
40
0.4167035650
40
0.4589065208
40
0.4976581588
40
0.5365648033
40
0.5791878977
40
0.6281673031
40
0.6850708466
40
0.7506580444
40
0.8251515581
40
0.9084096533
40
1.0000000000
40
1.0000000000
40
1.0000000000
40
1.0000000000
10
-7.6659525035
20
41.9542005926
30
0.0000000000
10
-7.6593154099
20
41.9561093791
30
0.0000000000
10
-7.6467403582
20
41.9600755929
30
0.0000000000
10
-7.6292113002
20
41.9668579314
30
0.0000000000
10
-7.6140441558
20
41.9741357233
30
0.0000000000
10
-7.6013736868
20
41.9818454514
30
0.0000000000
10
-7.5913002146
20
41.9899363353
30
0.0000000000
10
-7.5839067307
20
41.9983855785
30
0.0000000000
10
-7.5793104844
20
42.0072089303
30
0.0000000000
10
-7.5777474984
20
42.0163516420
30
0.0000000000
10
-7.5793738344
20
42.0255132192
30
0.0000000000
10
-7.5840178950
20
42.0344066232
30
0.0000000000
10
-7.5914527518
20
42.0429871993
30
0.0000000000
10
-7.6015675348
20
42.0512662678
30
0.0000000000
10
-7.6142793770
20
42.0592162910
30
0.0000000000
10
-7.6294868331
20
42.0667828477
30
0.0000000000
10
-7.6470549440
20
42.0738994765
30
0.0000000000
10
-7.6596610995
20
42.0781080722
30
0.0000000000
10
-7.6663137246
20
42.0801444559
30
0.0000000000
11
-7.6659525035
21
41.9542005926
31
0.0000000000
11
-7.6462100759
21
41.9604844491
31
0.0000000000
11
-7.6286897059
21
41.9673375402
31
0.0000000000
11
-7.6135726512
21
41.9746903299
31
0.0000000000
11
-7.6010055336
21
41.9824716256
31
0.0000000000
11
-7.5911090568
21
41.9906066146
31
0.0000000000
11
-7.5839785296
21
41.9990170186
31
0.0000000000
11
-7.5796827775
21
42.0076216865
31
0.0000000000
11
-7.5782631347
21
42.0163376993
31
0.0000000000
11
-7.5797332195
21
42.0250811677
31
0.0000000000
11
-7.5840788921
21
42.0337679207
31
0.0000000000
11
-7.5912582312
21
42.0423141878
31
0.0000000000
11
-7.6012018441
21
42.0506375223
31
0.0000000000
11
-7.6138139284
21
42.0586578708
31
0.0000000000
11
-7.6289732869
21
42.0662981463
31
0.0000000000
11
-7.6465328779
21
42.0734843796
31
0.0000000000
11
-7.6663137246
21
42.0801444559
31
0.0000000000
0
SPLINE
5
3D7
100
AcDbEntity
8
0
100
AcDbSpline
62
7
6
CONTINUOUS
70
0
71
3
72
19
73
15
74
13
42
0.0000001000
43
0.0000001000
44
0.0000000001
12
-0.0509827616
22
0.2220702537
32
0.0000000000
13
-0.2178226972
23
0.0666738365
33
0.0000000000
40
0.0000000000
40
0.0000000000
40
0.0000000000
40
0.0000000000
40
0.0887134282
40
0.1805771037
40
0.2719517910
40
0.3623007514
40
0.4511144798
40
0.5379256664
40
0.6223248168
40
0.7039767246
40
0.7826378935
40
0.8581747688
40
0.9305821125
40
1.0000000000
40
1.0000000000
40
1.0000000000
40
1.0000000000
10
-8.9467136488
20
41.3751283039
30
0.0000000000
10
-8.9482212673
20
41.3816951751
30
0.0000000000
10
-8.9517486269
20
41.3949565351
30
0.0000000000
10
-8.9584271431
20
41.4145148409
30
0.0000000000
10
-8.9665171705
20
41.4336681357
30
0.0000000000
10
-8.9758551562
20
41.4519860922
30
0.0000000000
10
-8.9863400517
20
41.4692696545
30
0.0000000000
10
-8.9978586430
20
41.4853310444
30
0.0000000000
10
-9.0102868718
20
41.4999957219
30
0.0000000000
10
-9.0234914670
20
41.5131041813
30
0.0000000000
10
-9.0373310419
20
41.5245132767
30
0.0000000000
10
-9.0516593552
20
41.5340978086
30
0.0000000000
10
-9.0663207330
20
41.5417495915
30
0.0000000000
10
-9.0764202857
20
41.5455811257
30
0.0000000000
10
-9.0814605495
20
41.5471239113
30
0.0000000000
11
-8.9467136488
21
41.3751283039
31
0.0000000000
11
-8.9519060469
21
41.3946589177
31
0.0000000000
11
-8.9586699975
21
41.4144620301
31
0.0000000000
11
-8.9667747581
21
41.4336343418
31
0.0000000000
11
-8.9761315963
21
41.4519657800
31
0.0000000000
11
-8.9866380532
21
41.4692554635
31
0.0000000000
11
-8.9981790637
21
41.4853139069
31
0.0000000000
11
-9.0106282157
21
41.4999651007
31
0.0000000000
11
-9.0238491351
21
41.5130484441
31
0.0000000000
11
-9.0376969809
21
41.5244205077
31
0.0000000000
11
-9.0520200351
21
41.5339566094
31
0.0000000000
11
-9.0666613659
21
41.5415521804
31
0.0000000000
11
-9.0814605495
21
41.5471239113
31
0.0000000000
0
SPLINE
5
3D8
100
AcDbEntity
8
0
100
AcDbSpline
62
7
6
CONTINUOUS
70
0
71
3
72
18
73
14
74
12
42
0.0000001000
43
0.0000001000
44
0.0000000001
12
-0.1206838236
22
0.2047111799
32
0.0000000000
13
-0.2271998204
23
0.0695441011
33
0.0000000000
40
0.0000000000
40
0.0000000000
40
0.0000000000
40
0.0000000000
40
0.0834876748
40
0.1798015113
40
0.2774831363
40
0.3756553136
40
0.4733986156
40
0.5697706646
40
0.6638294472
40
0.7546623071
40
0.8414260174
40
0.9233907645
40
1.0000000000
40
1.0000000000
40
1.0000000000
40
1.0000000000
10
-9.2671099316
20
41.2716903507
30
0.0000000000
10
-9.2704684689
20
41.2773873042
30
0.0000000000
10
-9.2780127498
20
41.2894725603
30
0.0000000000
10
-9.2906058172
20
41.3074971121
30
0.0000000000
10
-9.3048700363
20
41.3257322200
30
0.0000000000
10
-9.3201752003
20
41.3432539275
30
0.0000000000
10
-9.3363546130
20
41.3598280648
30
0.0000000000
10
-9.3532232150
20
41.3752225709
30
0.0000000000
10
-9.3705793439
20
41.3892112923
30
0.0000000000
10
-9.3882068547
20
41.4015780353
30
0.0000000000
10
-9.4058803406
20
41.4121212310
30
0.0000000000
10
-9.4233635000
20
41.4206555333
30
0.0000000000
10
-9.4351582481
20
41.4250532720
30
0.0000000000
10
-9.4409601163
20
41.4268291788
30
0.0000000000
11
-9.2671099316
21
41.2716903507
31
0.0000000000
11
-9.2776073219
21
41.2885229566
31
0.0000000000
11
-9.2907081797
21
41.3072866112
31
0.0000000000
11
-9.3050072367
21
41.3255684195
31
0.0000000000
11
-9.3203561880
21
41.3431331953
31
0.0000000000
11
-9.3365871114
21
41.3597441903
31
0.0000000000
11
-9.3535133048
21
41.3751663962
31
0.0000000000
11
-9.3709306460
21
41.3891702093
31
0.0000000000
11
-9.3886195884
21
41.4015354358
31
0.0000000000
11
-9.4063486125
21
41.4120559025
31
0.0000000000
11
-9.4238772616
21
41.4205430233
31
0.0000000000
11
-9.4409601163
21
41.4268291788
31
0.0000000000
0
SPLINE
5
3D9
100
AcDbEntity
8
0
100
AcDbSpline
62
9
6
CONTINUOUS
70
0
71
3
72
13
73
9
74
7
42
0.0000001000
43
0.0000001000
44
0.0000000001
12
0.0707915160
22
0.0228007584
32
0.0000000000
13
-0.0000175921
23
0.0746958513
33
0.0000000000
40
0.0000000000
40
0.0000000000
40
0.0000000000
40
0.0000000000
40
0.2393421230
40
0.4485304505
40
0.6266729079
40
0.7750341747
40
0.8984717626
40
1.0000000000
40
1.0000000000
40
1.0000000000
40
1.0000000000
10
2.4091498953
20
41.6912233407
30
0.0000000000
10
2.4147976925
20
41.6930424013
30
0.0000000000
10
2.4252708431
20
41.6968216484
30
0.0000000000
10
2.4393532205
20
41.7034491081
30
0.0000000000
10
2.4506124346
20
41.7105808439
30
0.0000000000
10
2.4589051797
20
41.7181569124
30
0.0000000000
10
2.4640028868
20
41.7260669842
30
0.0000000000
10
2.4651599132
20
41.7316806571
30
0.0000000000
10
2.4651593179
20
41.7342085698
30
0.0000000000
11
2.4091498953
21
41.6912233407
31
0.0000000000
11
2.4258627630
21
41.6973502822
31
0.0000000000
11
2.4398866501
21
41.7040867140
31
0.0000000000
11
2.4509868991
21
41.7113199177
31
0.0000000000
11
2.4589777728
21
41.7189288622
31
0.0000000000
11
2.4637255622
21
41.7267862295
31
0.0000000000
11
2.4651593179
21
41.7342085698
31
0.0000000000
0
SPLINE
5
3DA
100
AcDbEntity
8
0
100
AcDbSpline
62
9
6
CONTINUOUS
70
0
71
3
72
26
73
22
74
20
42
0.0000001000
43
0.0000001000
44
0.0000000001
12
-0.0020497186
22
0.9425118307
32
0.0000000000
13
-0.9032268090
23
-0.2692843921
33
0.0000000000
40
0.0000000000
40
0.0000000000
40
0.0000000000
40
0.0000000000
40
0.0653153905
40
0.1291931416
40
0.1914531578
40
0.2519577897
40
0.3106082687
40
0.3673490369
40
0.4221703985
40
0.4751166985
40
0.5262893747
40
0.5758513090
40
0.6240255948
40
0.6710946657
40
0.7173908446
40
0.7632846302
40
0.8091662521
40
0.8554280172
40
0.9024421331
40
0.9505423184
40
1.0000000000
40
1.0000000000
40
1.0000000000
40
1.0000000000
10
2.4091498953
20
41.6912233407
30
0.0000000000
10
2.4091052692
20
41.7117435168
30
0.0000000000
10
2.4078192838
20
41.7523413847
30
0.0000000000
10
2.4021822769
20
41.8122647233
30
0.0000000000
10
2.3928924156
20
41.8702066442
30
0.0000000000
10
2.3800093206
20
41.9257758225
30
0.0000000000
10
2.3636156256
20
41.9786045143
30
0.0000000000
10
2.3438159159
20
42.0283422413
30
0.0000000000
10
2.3207361307
20
42.0746584276
30
0.0000000000
10
2.2945229761
20
42.1172432108
30
0.0000000000
10
2.2653429994
20
42.1558094427
30
0.0000000000
10
2.2333827652
20
42.1900931637
30
0.0000000000
10
2.1988489726
20
42.2198553204
30
0.0000000000
10
2.1619694924
20
42.2448835423
30
0.0000000000
10
2.1229934133
20
42.2649956707
30
0.0000000000
10
2.0821907131
20
42.2800437930
30
0.0000000000
10
2.0398484932
20
42.2899188392
30
0.0000000000
10
1.9962668902
20
42.2945535928
30
0.0000000000
10
1.9517511070
20
42.2939220674
30
0.0000000000
10
1.9066201045
20
42.2880419613
30
0.0000000000
10
1.8767764595
20
42.2807671006
30
0.0000000000
10
1.8618859582
20
42.2763277067
30
0.0000000000
11
2.4091498953
21
41.6912233407
31
0.0000000000
11
2.4071614155
21
41.7527518911
31
0.0000000000
11
2.4014769903
21
41.8126886163
31
0.0000000000
11
2.3921343608
21
41.8706210603
31
0.0000000000
11
2.3791960060
21
41.9261603871
31
0.0000000000
11
2.3627483504
21
41.9789356799
31
0.0000000000
11
2.3429008466
21
42.0285952915
31
0.0000000000
11
2.3197862233
21
42.0748066880
31
0.0000000000
11
2.2935587245
21
42.1172612638
31
0.0000000000
11
2.2643936270
21
42.1556751055
31
0.0000000000
11
2.2324853949
21
42.1897918503
31
0.0000000000
11
2.1980474965
21
42.2193830631
31
0.0000000000
11
2.1613096022
21
42.2442512367
31
0.0000000000
11
2.1225172540
21
42.2642299617
31
0.0000000000
11
2.0819294685
21
42.2791856714
31
0.0000000000
11
2.0398180443
21
42.2890181615
31
0.0000000000
11
1.9964636654
21
42.2936618642
31
0.0000000000
11
1.9521559480
21
42.2930855517
31
0.0000000000
11
1.9071923956
21
42.2872932874
31
0.0000000000
11
1.8618859582
21
42.2763277067
31
0.0000000000
0
SPLINE
5
3DB
100
AcDbEntity
8
0
100
AcDbSpline
62
9
6
CONTINUOUS
70
0
71
3
72
19
73
15
74
13
42
0.0000001000
43
0.0000001000
44
0.0000000001
12
0.0030573753
22
0.2905694614
32
0.0000000000
13
-0.2786408519
23
0.0824574743
33
0.0000000000
40
0.0000000000
40
0.0000000000
40
0.0000000000
40
0.0000000000
40
0.0870889328
40
0.1759111534
40
0.2657113373
40
0.3556926724
40
0.4450507789
40
0.5330074651
40
0.6188450488
40
0.7019419570
40
0.7818101919
40
0.8581348295
40
0.9308145845
40
1.0000000000
40
1.0000000000
40
1.0000000000
40
1.0000000000
10
1.8618859582
20
42.2763277067
30
0.0000000000
10
1.8619747127
20
42.2847628348
30
0.0000000000
10
1.8613015632
20
42.3018199993
30
0.0000000000
10
1.8578729340
20
42.3273627301
30
0.0000000000
10
1.8520717101
20
42.3527621067
30
0.0000000000
10
1.8439961381
20
42.3775860293
30
0.0000000000
10
1.8337824528
20
42.4014162520
30
0.0000000000
10
1.8216023887
20
42.4238501539
30
0.0000000000
10
1.8076600494
20
42.4445090759
30
0.0000000000
10
1.7921876928
20
42.4630442206
30
0.0000000000
10
1.7754422060
20
42.4791417982
30
0.0000000000
10
1.7576969022
20
42.4925279240
30
0.0000000000
10
1.7392491790
20
42.5029680298
30
0.0000000000
10
1.7263759467
20
42.5079546740
30
0.0000000000
10
1.7199499856
20
42.5098562922
30
0.0000000000
11
1.8618859582
21
42.2763277067
31
0.0000000000
11
1.8609168398
21
42.3016159289
31
0.0000000000
11
1.8575015518
21
42.3271994258
31
0.0000000000
11
1.8516985083
21
42.3526406263
31
0.0000000000
11
1.8436069624
21
42.3775043930
31
0.0000000000
11
1.8333653091
21
42.4013654646
31
0.0000000000
11
1.8211487181
21
42.4238157297
31
0.0000000000
11
1.8071661377
21
42.4444712068
31
0.0000000000
11
1.7916567211
21
42.4629786117
31
0.0000000000
11
1.7748857360
21
42.4790214003
31
0.0000000000
11
1.7571400274
21
42.4923251822
31
0.0000000000
11
1.7387231118
21
42.5026624143
31
0.0000000000
11
1.7199499856
21
42.5098562922
31
0.0000000000
0
SPLINE
5
3DC
100
AcDbEntity
8
0
100
AcDbSpline
62
7
6
CONTINUOUS
70
0
71
3
72
20
73
16
74
14
42
0.0000001000
43
0.0000001000
44
0.0000000001
12
-0.0006285858
22
0.2898341440
32
0.0000000000
13
-0.2771423909
23
0.0848311342
33
0.0000000000
40
0.0000000000
40
0.0000000000
40
0.0000000000
40
0.0000000000
40
0.0802862186
40
0.1622537147
40
0.2451395094
40
0.3285250427
40
0.4114539834
40
0.4936146535
40
0.5740214042
40
0.6524826142
40
0.7281677120
40
0.8010181934
40
0.8705418255
40
0.9368673974
40
1.0000000000
40
1.0000000000
40
1.0000000000
40
1.0000000000
10
-3.7035696349
20
40.6169955741
30
0.0000000000
10
-3.7035864572
20
40.6247521365
30
0.0000000000
10
-3.7043323384
20
40.6404337809
30
0.0000000000
10
-3.7074738375
20
40.6639342497
30
0.0000000000
10
-3.7126071735
20
40.6873889357
30
0.0000000000
10
-3.7196536957
20
40.7104378278
30
0.0000000000
10
-3.7285193092
20
40.7327749523
30
0.0000000000
10
-3.7390652398
20
40.7540500552
30
0.0000000000
10
-3.7511548141
20
40.7739860715
30
0.0000000000
10
-3.7645978942
20
40.7922678321
30
0.0000000000
10
-3.7792222901
20
40.8086571888
30
0.0000000000
10
-3.7948016964
20
40.8228966573
30
0.0000000000
10
-3.8111366637
20
40.8347950800
30
0.0000000000
10
-3.8279790338
20
40.8441645981
30
0.0000000000
10
-3.8396733674
20
40.8487389561
30
0.0000000000
10
-3.8455056075
20
40.8505241595
30
0.0000000000
11
-3.7035696349
21
40.6169955741
31
0.0000000000
11
-3.7046510929
21
40.6402401723
31
0.0000000000
11
-3.7077825651
21
40.6637899195
31
0.0000000000
11
-3.7129107563
21
40.6872593742
31
0.0000000000
11
-3.7199761280
21
40.7103715846
31
0.0000000000
11
-3.7288498832
21
40.7327092458
31
0.0000000000
11
-3.7394395811
21
40.7540380617
31
0.0000000000
11
-3.7515435911
21
40.7739529027
31
0.0000000000
11
-3.7650410346
21
40.7922548862
31
0.0000000000
11
-3.7796756439
21
40.8085957575
31
0.0000000000
11
-3.7952937763
21
40.8228049289
31
0.0000000000
11
-3.8116137131
21
40.8346242802
31
0.0000000000
11
-3.8284426508
21
40.8439155823
31
0.0000000000
11
-3.8455056075
21
40.8505241595
31
0.0000000000
0
SPLINE
5
3DD
100
AcDbEntity
8
0
100
AcDbSpline
62
9
6
CONTINUOUS
70
0
71
3
72
11
73
7
74
5
42
0.0000001000
43
0.0000001000
44
0.0000000001
12
-0.0536227234
22
0.0169778901
32
0.0000000000
13
-0.0542832293
23
-0.0150642518
33
0.0000000000
40
0.0000000000
40
0.0000000000
40
0.0000000000
40
0.0000000000
40
0.3311242451
40
0.6494748059
40
0.9605722464
40
1.0000000000
40
1.0000000000
40
1.0000000000
40
1.0000000000
10
-15.3504988270
20
47.7349881417
30
0.0000000000
10
-15.3564174216
20
47.7368620721
30
0.0000000000
10
-15.3683513686
20
47.7396144851
30
0.0000000000
10
-15.3864428128
20
47.7404536986
30
0.0000000000
10
-15.3989300169
20
47.7386137748
30
0.0000000000
10
-15.4052945991
20
47.7369332686
30
0.0000000000
10
-15.4060080211
20
47.7367352854
30
0.0000000000
11
-15.3504988270
21
47.7349881417
31
0.0000000000
11
-15.3686636140
21
47.7391006723
31
0.0000000000
11
-15.3865528383
21
47.7398764678
31
0.0000000000
11
-15.4038605288
21
47.7373022591
31
0.0000000000
11
-15.4060080211
21
47.7367352854
31
0.0000000000
0
SPLINE
5
3DE
100
AcDbEntity
8
0
100
AcDbSpline
62
7
6
CONTINUOUS
70
0
71
3
72
11
73
7
74
5
42
0.0000001000
43
0.0000001000
44
0.0000000001
12
-0.0545293317
22
0.0166910051
32
0.0000000000
13
-0.0550261508
23
-0.0152658876
33
0.0000000000
40
0.0000000000
40
0.0000000000
40
0.0000000000
40
0.0000000000
40
0.3065726017
40
0.6018910390
40
0.8893643057
40
1.0000000000
40
1.0000000000
40
1.0000000000
40
1.0000000000
10
-21.1140397984
20
46.1362884055
30
0.0000000000
10
-21.1196121981
20
46.1379940737
30
0.0000000000
10
-21.1308186236
20
46.1405536368
30
0.0000000000
10
-21.1477680170
20
46.1416142087
30
0.0000000000
10
-21.1609377612
20
46.1401507146
30
0.0000000000
10
-21.1683102651
20
46.1383787706
30
0.0000000000
10
-21.1703395506
20
46.1378157866
30
0.0000000000
11
-21.1140397984
21
46.1362884055
31
0.0000000000
11
-21.1310967404
21
46.1401236644
31
0.0000000000
11
-21.1479077083
21
46.1411292761
31
0.0000000000
11
-21.1641980261
21
46.1392916706
31
0.0000000000
11
-21.1703395506
21
46.1378157866
31
0.0000000000
0
SPLINE
5
3DF
100
AcDbEntity
8
0
100
AcDbSpline
62
9
6
CONTINUOUS
70
0
71
3
72
13
73
9
74
7
42
0.0000001000
43
0.0000001000
44
0.0000000001
12
0.0734624996
22
0.0228541187
32
0.0000000000
13
-0.0001634454
23
0.0772510300
33
0.0000000000
40
0.0000000000
40
0.0000000000
40
0.0000000000
40
0.0000000000
40
0.2376357470
40
0.4456795624
40
0.6230471016
40
0.7707207624
40
0.8931330895
40
1.0000000000
40
1.0000000000
40
1.0000000000
40
1.0000000000
10
-13.6560804125
20
46.6071436333
30
0.0000000000
10
-13.6502613072
20
46.6089539518
30
0.0000000000
10
-13.6394562691
20
46.6127244694
30
0.0000000000
10
-13.6248898197
20
46.6193578971
30
0.0000000000
10
-13.6131883364
20
46.6265165911
30
0.0000000000
10
-13.6045053208
20
46.6341343346
30
0.0000000000
10
-13.5989655681
20
46.6422440692
30
0.0000000000
10
-13.5976200698
20
46.6481513565
30
0.0000000000
10
-13.5976258921
20
46.6509032161
30
0.0000000000
11
-13.6560804125
21
46.6071436333
31
0.0000000000
11
-13.6388483931
21
46.6132518791
31
0.0000000000
11
-13.6243330917
21
46.6199969281
31
0.0000000000
11
-13.6127828693
21
46.6272633706
31
0.0000000000
11
-13.6043953536
21
46.6349268759
31
0.0000000000
11
-13.5993140576
21
46.6428563194
31
0.0000000000
11
-13.5976258921
21
46.6509032161
31
0.0000000000
0
SPLINE
5
3E0
100
AcDbEntity
8
0
100
AcDbSpline
62
9
6
CONTINUOUS
70
0
71
3
72
26
73
22
74
20
42
0.0000001000
43
0.0000001000
44
0.0000000001
12
-0.0020632196
22
0.9513283529
32
0.0000000000
13
-0.9142743660
23
-0.2629301725
33
0.0000000000
40
0.0000000000
40
0.0000000000
40
0.0000000000
40
0.0000000000
40
0.0647256780
40
0.1280564804
40
0.1898222980
40
0.2498949961
40
0.3081846958
40
0.3646438005
40
0.4192692974
40
0.4721104390
40
0.5232711798
40
0.5729138214
40
0.6212570992
40
0.6685748031
40
0.7151861673
40
0.7614445576
40
0.8077200319
40
0.8543832256
40
0.9017848690
40
0.9502389507
40
1.0000000000
40
1.0000000000
40
1.0000000000
40
1.0000000000
10
-13.6560804125
20
46.6071436333
30
0.0000000000
10
-13.6561249270
20
46.6276687575
30
0.0000000000
10
-13.6574333864
20
46.6682862128
30
0.0000000000
10
-13.6631704067
20
46.7282470803
30
0.0000000000
10
-13.6726264586
20
46.7862460253
30
0.0000000000
10
-13.6857407477
20
46.8418910474
30
0.0000000000
10
-13.7024291428
20
46.8948136798
30
0.0000000000
10
-13.7225850360
20
46.9446625002
30
0.0000000000
10
-13.7460799463
20
46.9911058342
30
0.0000000000
10
-13.7727640567
20
47.0338326096
30
0.0000000000
10
-13.8024671202
20
47.0725544513
30
0.0000000000
10
-13.8349982909
20
47.1070062912
30
0.0000000000
10
-13.8701461258
20
47.1369482617
30
0.0000000000
10
-13.9076777948
20
47.1621675987
30
0.0000000000
10
-13.9473393921
20
47.1824821343
30
0.0000000000
10
-13.9888565642
20
47.1977440489
30
0.0000000000
10
-14.0319383579
20
47.2078440311
30
0.0000000000
10
-14.0762810511
20
47.2127138778
30
0.0000000000
10
-14.1215756967
20
47.2123258600
30
0.0000000000
10
-14.1674989677
20
47.2066950276
30
0.0000000000
10
-14.1978894979
20
47.1995814531
30
0.0000000000
10
-14.2130545818
20
47.1952202260
30
0.0000000000
11
-13.6560804125
21
46.6071436333
31
0.0000000000
11
-13.6581021189
21
46.6686859525
31
0.0000000000
11
-13.6638859945
21
46.7286562127
31
0.0000000000
11
-13.6733935908
21
46.7866416362
31
0.0000000000
11
-13.6865612629
21
46.8422529667
31
0.0000000000
11
-13.7033009779
21
46.8951187603
31
0.0000000000
11
-13.7235012424
21
46.9448867239
31
0.0000000000
11
-13.7470268568
21
46.9912235862
31
0.0000000000
11
-13.7737207228
21
47.0338199422
31
0.0000000000
11
-13.8034043444
21
47.0723910092
31
0.0000000000
11
-13.8358797056
21
47.1066794798
31
0.0000000000
11
-13.8709294638
21
47.1364558955
31
0.0000000000
11
-13.9083198092
21
47.1615216573
31
0.0000000000
11
-13.9478008050
21
47.1817091870
31
0.0000000000
11
-13.9891088295
21
47.1968836745
31
0.0000000000
11
-14.0319672799
21
47.2069435905
31
0.0000000000
11
-14.0760905393
21
47.2118219733
31
0.0000000000
11
-14.1211839221
21
47.2114861230
31
0.0000000000
11
-14.1669447336
21
47.2059385539
31
0.0000000000
11
-14.2130545818
21
47.1952202260
31
0.0000000000
0
SPLINE
5
3E1
100
AcDbEntity
8
0
100
AcDbSpline
62
9
6
CONTINUOUS
70
0
71
3
72
19
73
15
74
13
42
0.0000001000
43
0.0000001000
44
0.0000000001
12
0.0031135322
22
0.2895669773
32
0.0000000000
13
-0.2769022776
23
0.0847576374
33
0.0000000000
40
0.0000000000
40
0.0000000000
40
0.0000000000
40
0.0000000000
40
0.0874208757
40
0.1765991777
40
0.2667496083
40
0.3570464573
40
0.4466580158
40
0.5347808481
40
0.6206747320
40
0.7036990751
40
0.7833515269
40
0.8593091151
40
0.9314710880
40
1.0000000000
40
1.0000000000
40
1.0000000000
40
1.0000000000
10
-14.2130545818
20
47.1952202260
30
0.0000000000
10
-14.2129638526
20
47.2036582923
30
0.0000000000
10
-14.2136193192
20
47.2207227769
30
0.0000000000
10
-14.2169806374
20
47.2462848418
30
0.0000000000
10
-14.2226748656
20
47.2717163296
30
0.0000000000
10
-14.2306055713
20
47.2965845008
30
0.0000000000
10
-14.2406389189
20
47.3204701552
30
0.0000000000
10
-14.2526061329
20
47.3429696237
30
0.0000000000
10
-14.2663066078
20
47.3637031020
30
0.0000000000
10
-14.2815121195
20
47.3823206122
30
0.0000000000
10
-14.2979703430
20
47.3985071577
30
0.0000000000
10
-14.3154131650
20
47.4119876339
30
0.0000000000
10
-14.3335488684
20
47.4225259424
30
0.0000000000
10
-14.3462208692
20
47.4275864559
30
0.0000000000
10
-14.3525461399
20
47.4295225721
30
0.0000000000
11
-14.2130545818
21
47.1952202260
31
0.0000000000
11
-14.2139974899
21
47.2205183222
31
0.0000000000
11
-14.2173461389
21
47.2461248778
31
0.0000000000
11
-14.2230432325
21
47.2716017577
31
0.0000000000
11
-14.2309912918
21
47.2965130453
31
0.0000000000
11
-14.2410543235
21
47.3204325016
31
0.0000000000
11
-14.2530601461
21
47.3429508581
31
0.0000000000
11
-14.2668033368
21
47.3636828195
31
0.0000000000
11
-14.2820487457
21
47.3822736561
31
0.0000000000
11
-14.2985355197
21
47.3984052736
31
0.0000000000
11
-14.3159815655
21
47.4118016556
31
0.0000000000
11
-14.3340883764
21
47.4222335861
31
0.0000000000
11
-14.3525461399
21
47.4295225721
31
0.0000000000
0
SPLINE
5
3E2
100
AcDbEntity
8
0
100
AcDbSpline
62
7
6
CONTINUOUS
70
0
71
3
72
8
73
4
74
2
42
0.0000001000
43
0.0000001000
44
0.0000000001
12
-0.0066614670
22
0.0024648302
32
0.0000000000
13
-0.0067862341
23
0.0020772136
33
0.0000000000
40
0.0000000000
40
0.0000000000
40
0.0000000000
40
0.0000000000
40
1.0000000000
40
1.0000000000
40
1.0000000000
40
1.0000000000
10
-20.0103192324
20
45.7982331706
30
0.0000000000
10
-20.0125397215
20
45.7990547807
30
0.0000000000
10
-20.0147823441
20
45.7998142331
30
0.0000000000
10
-20.0170444221
20
45.8005066377
30
0.0000000000
11
-20.0103192324
21
45.7982331706
31
0.0000000000
11
-20.0170444221
21
45.8005066377
31
0.0000000000
0
SPLINE
5
3E3
100
AcDbEntity
8
0
100
AcDbSpline
62
9
6
CONTINUOUS
70
0
71
3
72
11
73
7
74
5
42
0.0000001000
43
0.0000001000
44
0.0000000001
12
-0.0555341950
22
0.0169985859
32
0.0000000000
13
-0.0558982367
23
-0.0160848374
33
0.0000000000
40
0.0000000000
40
0.0000000000
40
0.0000000000
40
0.0000000000
40
0.3258587983
40
0.6396546806
40
0.9464668191
40
1.0000000000
40
1.0000000000
40
1.0000000000
40
1.0000000000
10
0.7219972984
20
42.8153218618
30
0.0000000000
10
0.7159651964
20
42.8171682414
30
0.0000000000
10
0.7038068570
20
42.8198604602
30
0.0000000000
10
0.6853995586
20
42.8206052799
30
0.0000000000
10
0.6724119931
20
42.8186598413
30
0.0000000000
10
0.6656651022
20
42.8168416779
30
0.0000000000
10
0.6646676321
20
42.8165546538
30
0.0000000000
11
0.7219972984
21
42.8153218618
31
0.0000000000
11
0.7035043999
21
42.8193431866
31
0.0000000000
11
0.6852927848
21
42.8200280442
31
0.0000000000
11
0.6676740590
21
42.8173647166
31
0.0000000000
11
0.6646676321
21
42.8165546538
31
0.0000000000
0
SPLINE
5
3E4
100
AcDbEntity
8
0
100
AcDbSpline
62
7
6
CONTINUOUS
70
0
71
3
72
8
73
4
74
2
42
0.0000001000
43
0.0000001000
44
0.0000000001
12
-0.0066512269
22
0.0020358889
32
0.0000000000
13
-0.0067673720
23
0.0016396615
33
0.0000000000
40
0.0000000000
40
0.0000000000
40
0.0000000000
40
0.0000000000
40
1.0000000000
40
1.0000000000
40
1.0000000000
40
1.0000000000
10
-4.9425009838
20
41.1863059273
30
0.0000000000
10
-4.9447180595
20
41.1869845570
30
0.0000000000
10
-4.9469566041
20
41.1875995376
30
0.0000000000
10
-4.9492123947
20
41.1881460914
30
0.0000000000
11
-4.9425009838
21
41.1863059273
31
0.0000000000
11
-4.9492123947
21
41.1881460914
31
0.0000000000
0
SPLINE
5
3E5
100
AcDbEntity
8
0
100
AcDbSpline
62
3
6
CONTINUOUS
70
0
71
3
72
10
73
6
74
4
42
0.0000001000
43
0.0000001000
44
0.0000000001
12
0.0632956191
22
0.0196912112
32
0.0000000000
13
0.0657658501
23
-0.0083025390
33
0.0000000000
40
0.0000000000
40
0.0000000000
40
0.0000000000
40
0.0000000000
40
0.3437965344
40
0.6760799292
40
1.0000000000
40
1.0000000000
40
1.0000000000
40
1.0000000000
10
-8.7193755619
20
42.6974477990
30
0.0000000000
10
-8.7121219571
20
42.6997043891
30
0.0000000000
10
-8.6975547074
20
42.7032466791
30
0.0000000000
10
-8.6755001194
20
42.7054532452
30
0.0000000000
10
-8.6609514734
20
42.7047532235
30
0.0000000000
10
-8.6538505138
20
42.7038567705
30
0.0000000000
11
-8.7193755619
21
42.6974477990
31
0.0000000000
11
-8.6972178353
21
42.7027767753
31
0.0000000000
11
-8.6752960929
21
42.7049209297
31
0.0000000000
11
-8.6538505138
21
42.7038567705
31
0.0000000000
0
SPLINE
5
3E6
100
AcDbEntity
8
0
100
AcDbSpline
62
3
6
CONTINUOUS
70
0
71
3
72
12
73
8
74
6
42
0.0000001000
43
0.0000001000
44
0.0000000001
12
-0.0009407814
22
0.4337841686
32
0.0000000000
13
0.4142041363
23
0.1288585406
33
0.0000000000
40
0.0000000000
40
0.0000000000
40
0.0000000000
40
0.0000000000
40
0.2120238658
40
0.4282994315
40
0.6373795680
40
0.8295808184
40
1.0000000000
40
1.0000000000
40
1.0000000000
40
1.0000000000
10
-9.2939505926
20
42.2331479876
30
0.0000000000
10
-9.2940170819
20
42.2638055198
30
0.0000000000
10
-9.2867898655
20
42.3259082784
30
0.0000000000
10
-9.2572512172
20
42.4138557909
30
0.0000000000
10
-9.2113267017
20
42.4913235656
30
0.0000000000
10
-9.1531350622
20
42.5512099208
30
0.0000000000
10
-9.1061534232
20
42.5771215483
30
0.0000000000
10
-9.0826239799
20
42.5844415373
30
0.0000000000
11
-9.2939505926
21
42.2331479876
31
0.0000000000
11
-9.2837684855
21
42.3245554433
31
0.0000000000
11
-9.2538363727
21
42.4134695808
31
0.0000000000
11
-9.2070842180
21
42.4911868648
31
0.0000000000
11
-9.1480884481
21
42.5500997860
31
0.0000000000
11
-9.0826239799
21
42.5844415373
31
0.0000000000
0
ENDSEC
0
SECTION
2
OBJECTS
0
DICTIONARY
5
C
100
AcDbDictionary
280
0
281
1
3
ACAD_GROUP
350
D
3
ACAD_MLINESTYLE
350
17
3
ACAD_LAYOUT
350
1A
3
ACAD_PLOTSETTINGS
350
19
3
ACAD_PLOTSTYLENAME
350
E
0
DICTIONARY
5
D
102
{ACAD_REACTORS
330
C
102
}
100
AcDbDictionary
280
0
281
1
0
ACDBDICTIONARYWDFLT
5
E
102
{ACAD_REACTORS
330
C
102
}
100
AcDbDictionary
281
1
3
Normal
350
F
100
AcDbDictionaryWithDefault
340
F
0
DICTIONARY
5
17
102
{ACAD_REACTORS
330
C
102
}
100
AcDbDictionary
280
0
281
1
3
Standard
350
18
0
DICTIONARY
5
19
102
{ACAD_REACTORS
330
C
102
}
100
AcDbDictionary
281
1
0
DICTIONARY
5
1A
102
{ACAD_REACTORS
330
C
102
}
100
AcDbDictionary
281
1
3
Layout1
350
1E
3
Model
350
22
0
ACDBPLACEHOLDER
5
F
102
{ACAD_REACTORS
330
E
102
}
0
MLINESTYLE
5
18
102
{ACAD_REACTORS
330
17
102
}
100
AcDbMlineStyle
2
STANDARD
70
0
3

62
256
51
90.0
52
90.0
71
2
49
0.5
62
256
6
BYLAYER
49
-0.5
62
256
6
BYLAYER
0
LAYOUT
5
1E
102
{ACAD_REACTORS
330
1A
102
}
100
AcDbPlotSettings
1

2

4

6

40
0.0
41
0.0
42
0.0
43
0.0
44
0.0
45
0.0
46
0.0
47
0.0
48
0.0
49
0.0
140
0.0
141
0.0
142
1.0
143
1.0
70
0
72
0
73
0
74
0
7

75
0
147
1.0
148
0.0
149
0.0
100
AcDbLayout
1
Layout1
70
0
71
0
10
0.0
20
0.0
11
0.0
21
0.0
12
0.0
22
0.0
32
0.0
14
0.0
24
0.0
34
0.0
15
0.0
25
0.0
35
0.0
146
0.0
13
0.0
23
0.0
33
0.0
16
0.0
26
0.0
36
0.0
17
0.0
27
0.0
37
0.0
76
0
330
1B
331
0
345
0
346
0
0
LAYOUT
5
22
102
{ACAD_REACTORS
330
1A
102
}
100
AcDbPlotSettings
1

2

4

6

40
0.0
41
0.0
42
0.0
43
0.0
44
0.0
45
0.0
46
0.0
47
0.0
48
0.0
49
0.0
140
0.0
141
0.0
142
1.0
143
1.0
70
0
72
0
73
0
74
0
7

75
0
147
1.0
148
0.0
149
0.0
100
AcDbLayout
1
Model
70
0
71
0
10
0.0
20
0.0
11
0.0
21
0.0
12
0.0
22
0.0
32
0.0
14
0.0
24
0.0
34
0.0
15
0.0
25
0.0
35
0.0
146
0.0
13
0.0
23
0.0
33
0.0
16
0.0
26
0.0
36
0.0
17
0.0
27
0.0
37
0.0
76
0
330
1F
331
0
345
0
346
0
0
ENDSEC
0
EOF
