0
SECTION
2
HEADER
9
$ACADVER
1
AC1014
9
$HANDSEED
5
       3D9
9
$EXTMAX
10
297.0000000000
20
210.0000000000
9
$EXTMIN
10
0.0000000000
20
0.0000000000
9
$LIMMIN
10
0.0000000000
20
0.0000000000
9
$LIMMAX
10
297.0000000000
20
210.0000000000
9
$VIEWCTR
10
148.5000000000
20
105.0000000000
9
$VIEWSIZE
40
210.0000000000
9
$CLAYER
8
0
9
$LTSCALE
40
16.3350000000
9
$CELTYPE
6
BYLAYER
9
$DIMSCALE
40
1
9
$DIMASZ
40
3.0000000000
9
$DIMEXO
40
1.8562500000
9
$DIMDLI
40
11.2860000000
9
$DIMEXE
40
5.3460000000
9
$DIMCEN
40
2.6730000000
9
$DIMLFAC
40
1.0000000000
9
$DIMTXT
40
3.0000000000
9
$DIMTOL
70
1
9
$DIMLIM
70
0
9
$DIMTFAC
40
1.0000000000
9
$DIMTP
40
0.0100000000
9
$DIMTM
40
0.0100000000
9
$MEASUREMENT
70
1
0
ENDSEC
0
SECTION
2
CLASSES
0
ENDSEC
0
SECTION
2
TABLES
0
TABLE
2
VPORT
5
8
100
AcDbSymbolTable
70
2
0
VPORT
5
1F4
100
AcDbSymbolTableRecord
100
AcDbViewportTableRecord
2
*ACTIVE
70
0
10
0.0
20
0.0
11
1.0
21
1.0
12
148.5000000000
22
105.0000000000
13
0.0
23
0.0
14
1.0
24
1.0
15
0.0
25
0.0
16
0.0
26
0.0
36
1.0
17
0.0
27
0.0
37
0.0
40
210.0000000000
41
1.4142857143
42
50.0
43
0.0
44
0.0
50
0.0
51
0.0
71
0
72
100
73
1
74
1
75
0
76
0
77
0
78
0
0
ENDTAB
0
TABLE
2
LTYPE
5
5
100
AcDbSymbolTable
70
6
0
LTYPE
5
14
100
AcDbSymbolTableRecord
100
AcDbLinetypeTableRecord
2
BYBLOCK
70
0
3

72
65
73
0
40
0.0
0
LTYPE
5
15
100
AcDbSymbolTableRecord
100
AcDbLinetypeTableRecord
2
BYLAYER
70
0
3

72
65
73
0
40
0.0
0
LTYPE
5
16
100
AcDbSymbolTableRecord
100
AcDbLinetypeTableRecord
2
CONTINUOUS
70
64
3
Solid line
72
65
73
0
40
0
0
LTYPE
5
1F5
100
AcDbSymbolTableRecord
100
AcDbLinetypeTableRecord
2
CENTER
70
64
3
____ _ ____ _ ____ _ ____ _ ____ _ ____ _ ____
72
65
73
4
40
0.6
49
0.375
74
0
49
-0.075
74
0
49
0.075
74
0
49
-0.075
74
0
0
LTYPE
5
1F6
100
AcDbSymbolTableRecord
100
AcDbLinetypeTableRecord
2
HIDDEN
70
64
3
- - - - - - - - - - - - - - - - - - - -
72
65
73
2
40
0.2
49
0.1
74
0
49
-0.1
74
0
0
LTYPE
5
1F7
100
AcDbSymbolTableRecord
100
AcDbLinetypeTableRecord
2
PHANTOM
70
64
3
_____ _ _ _____ _ _ _____ _ _ _____
72
65
73
6
40
0.8
49
0.45
74
0
49
-0.05
74
0
49
0.1
74
0
49
-0.05
74
0
49
0.1
74
0
49
-0.05
74
0
0
LTYPE
5
1F8
100
AcDbSymbolTableRecord
100
AcDbLinetypeTableRecord
2
DOT
70
64
3
. . . . . . . . . . . . . . . . . . . .
72
65
73
2
40
0.2
49
0.1
74
0
49
-0.1
74
0
0
LTYPE
5
1F9
100
AcDbSymbolTableRecord
100
AcDbLinetypeTableRecord
2
DASHED
70
64
3
- - - - - - - - - - - - - - - - - - - -
72
65
73
2
40
0.2
49
0.1
74
0
49
-0.1
74
0
0
ENDTAB
0
TABLE
2
LAYER
5
2
100
AcDbSymbolTable
70
36
0
LAYER
5
10
100
AcDbSymbolTableRecord
100
AcDbLayerTableRecord
2
0
70
0
62
7
6
CONTINUOUS
0
LAYER
5
1FA
100
AcDbSymbolTableRecord
100
AcDbLayerTableRecord
2
DEFAULT_1
70
0
62
7
6
CENTER
0
LAYER
5
1FB
100
AcDbSymbolTableRecord
100
AcDbLayerTableRecord
2
DEFAULT_2
70
0
62
8
6
HIDDEN
0
LAYER
5
1FC
100
AcDbSymbolTableRecord
100
AcDbLayerTableRecord
2
DEFAULT_3
70
0
62
7
6
PHANTOM
0
LAYER
5
1FD
100
AcDbSymbolTableRecord
100
AcDbLayerTableRecord
2
ALTRI_PIANI
70
0
62
7
6
CONTINUOUS
0
LAYER
5
1FE
100
AcDbSymbolTableRecord
100
AcDbLayerTableRecord
2
ASSI
70
0
62
7
6
CONTINUOUS
0
LAYER
5
1FF
100
AcDbSymbolTableRecord
100
AcDbLayerTableRecord
2
COORDINATE
70
0
62
7
6
CONTINUOUS
0
LAYER
5
200
100
AcDbSymbolTableRecord
100
AcDbLayerTableRecord
2
COORD_ORIGINE
70
0
62
7
6
CONTINUOUS
0
LAYER
5
201
100
AcDbSymbolTableRecord
100
AcDbLayerTableRecord
2
COSMETICHE
70
0
62
7
6
CONTINUOUS
0
LAYER
5
202
100
AcDbSymbolTableRecord
100
AcDbLayerTableRecord
2
COSMETICI
70
0
62
7
6
CONTINUOUS
0
LAYER
5
203
100
AcDbSymbolTableRecord
100
AcDbLayerTableRecord
2
CURVE
70
0
62
7
6
CONTINUOUS
0
LAYER
5
204
100
AcDbSymbolTableRecord
100
AcDbLayerTableRecord
2
CURVE_X_SCRITTE
70
0
62
7
6
CONTINUOUS
0
LAYER
5
205
100
AcDbSymbolTableRecord
100
AcDbLayerTableRecord
2
DRAFT
70
0
62
7
6
CONTINUOUS
0
LAYER
5
206
100
AcDbSymbolTableRecord
100
AcDbLayerTableRecord
2
IGES_INCISIONI
70
0
62
7
6
CONTINUOUS
0
LAYER
5
207
100
AcDbSymbolTableRecord
100
AcDbLayerTableRecord
2
IGES_SCRITTE
70
0
62
7
6
CONTINUOUS
0
LAYER
5
208
100
AcDbSymbolTableRecord
100
AcDbLayerTableRecord
2
NOTE
70
0
62
7
6
CONTINUOUS
0
LAYER
5
209
100
AcDbSymbolTableRecord
100
AcDbLayerTableRecord
2
PIANI
70
0
62
7
6
CONTINUOUS
0
LAYER
5
20A
100
AcDbSymbolTableRecord
100
AcDbLayerTableRecord
2
PIANI_DI_RIFERIMENTO
70
0
62
7
6
CONTINUOUS
0
LAYER
5
20B
100
AcDbSymbolTableRecord
100
AcDbLayerTableRecord
2
PIANI_ORIGINE
70
0
62
7
6
CONTINUOUS
0
LAYER
5
20C
100
AcDbSymbolTableRecord
100
AcDbLayerTableRecord
2
PIANI_SFORMI
70
0
62
7
6
CONTINUOUS
0
LAYER
5
20D
100
AcDbSymbolTableRecord
100
AcDbLayerTableRecord
2
PUNTI
70
0
62
7
6
CONTINUOUS
0
LAYER
5
20E
100
AcDbSymbolTableRecord
100
AcDbLayerTableRecord
2
RACCORDO
70
0
62
7
6
CONTINUOUS
0
LAYER
5
20F
100
AcDbSymbolTableRecord
100
AcDbLayerTableRecord
2
RIFERIMENTI
70
0
62
7
6
CONTINUOUS
0
LAYER
5
210
100
AcDbSymbolTableRecord
100
AcDbLayerTableRecord
2
SMUSSO
70
0
62
7
6
CONTINUOUS
0
LAYER
5
211
100
AcDbSymbolTableRecord
100
AcDbLayerTableRecord
2
SUPERFICI
70
0
62
7
6
CONTINUOUS
0
LAYER
5
212
100
AcDbSymbolTableRecord
100
AcDbLayerTableRecord
2
TRASH
70
0
62
7
6
CONTINUOUS
0
LAYER
5
213
100
AcDbSymbolTableRecord
100
AcDbLayerTableRecord
2
XSEC_DATUMS
70
0
62
7
6
CONTINUOUS
0
ENDTAB
0
TABLE
2
STYLE
5
3
100
AcDbSymbolTable
70
1
0
STYLE
5
11
100
AcDbSymbolTableRecord
100
AcDbTextStyleTableRecord
2
STANDARD
70
0
40
0.0
41
0.8000000000
50
0.0
71
0
42
0.2
3
txt
4

0
ENDTAB
0
TABLE
2
VIEW
5
6
100
AcDbSymbolTable
70
0
0
ENDTAB
0
TABLE
2
UCS
5
7
100
AcDbSymbolTable
70
0
0
ENDTAB
0
TABLE
2
APPID
5
9
100
AcDbSymbolTable
70
1
0
APPID
5
214
100
AcDbSymbolTableRecord
100
AcDbRegAppTableRecord
2
ACAD
70
0
0
ENDTAB
0
TABLE
2
DIMSTYLE
5
A
100
AcDbSymbolTable
70
1
0
DIMSTYLE
105
215
100
AcDbSymbolTableRecord
100
AcDbDimStyleTableRecord
2
STANDARD
70
0
3

4

5

6

7

40
1.0
41
3.0000000000
42
0.0625
43
0.38
44
0.18
45
0.0
46
0.0
47
0.0100000000
48
0.0100000000
140
3.0000000000
141
0.09
142
0.0
143
25.4
144
1.0000000000
145
0.0
146
1.0000000000
147
0.09
71
1
72
0
73
0
74
0
75
0
76
0
77
1
78
8
170
0
171
2
172
0
173
0
174
0
175
0
176
0
177
0
178
0
270
2
271
2
272
2
273
2
274
2
340
11
275
0
280
0
281
0
282
0
283
1
284
8
285
0
286
0
287
3
288
0
0
ENDTAB
0
TABLE
2
BLOCK_RECORD
5
1
100
AcDbSymbolTable
70
0
0
BLOCK_RECORD
5
1B
100
AcDbSymbolTableRecord
100
AcDbBlockTableRecord
2
*MODEL_SPACE
0
BLOCK_RECORD
5
1C
100
AcDbSymbolTableRecord
100
AcDbBlockTableRecord
2
*PAPER_SPACE
0
ENDTAB
0
ENDSEC
0
SECTION
2
BLOCKS
0
BLOCK
5
1E
100
AcDbEntity
8
0
100
AcDbBlockBegin
2
*MODEL_SPACE
70
0
10
0.0
20
0.0
30
0.0
3
*MODEL_SPACE
1

0
ENDBLK
5
1F
100
AcDbEntity
8
0
100
AcDbBlockEnd
0
BLOCK
5
20
100
AcDbEntity
8
0
100
AcDbBlockBegin
2
*PAPER_SPACE
70
0
10
0.0
20
0.0
30
0.0
3
*PAPER_SPACE
1

0
ENDBLK
5
21
100
AcDbEntity
8
0
100
AcDbBlockEnd
0
ENDSEC
0
SECTION
2
ENTITIES
0
LINE
5
216
100
AcDbEntity
8
0
100
AcDbLine
62
7
6
CONTINUOUS
10
1.4482929710
20
-25.0396565843
11
1.6646266881
21
-25.0351297537
0
LINE
5
217
100
AcDbEntity
8
0
100
AcDbLine
62
7
6
CONTINUOUS
10
1.4482929710
20
-25.0396565843
11
-9.4405701680
21
-25.0232803232
0
LINE
5
218
100
AcDbEntity
8
0
100
AcDbLine
62
7
6
CONTINUOUS
10
-18.8566062563
20
17.5188961336
11
-17.7022326368
21
18.0473062002
0
LINE
5
219
100
AcDbEntity
8
0
100
AcDbLine
62
9
6
CONTINUOUS
10
-18.7533525295
20
17.5415654041
11
-17.5992967129
21
18.0698270415
0
LINE
5
21A
100
AcDbEntity
8
0
100
AcDbLine
62
7
6
CONTINUOUS
10
8.4166558997
20
-23.9898138025
11
8.4291549240
21
-23.9881949746
0
LINE
5
21B
100
AcDbEntity
8
0
100
AcDbLine
62
7
6
CONTINUOUS
10
10.8644831216
20
-23.8312733603
11
8.6097429425
21
-23.9776421917
0
LINE
5
21C
100
AcDbEntity
8
0
100
AcDbLine
62
9
6
CONTINUOUS
10
11.0338652281
20
-23.6319718306
11
8.5975701746
21
-23.7901255467
0
LINE
5
21D
100
AcDbEntity
8
0
100
AcDbLine
62
7
6
CONTINUOUS
10
-9.8644341054
20
-23.8000388592
11
-12.1191739435
21
-23.9464076674
0
LINE
5
21E
100
AcDbEntity
8
0
100
AcDbLine
62
3
6
CONTINUOUS
10
1.4473071952
20
-24.6396724614
11
1.6636409124
21
-24.6351456307
0
LINE
5
21F
100
AcDbEntity
8
0
100
AcDbLine
62
9
6
CONTINUOUS
10
1.3203430725
20
-24.3423256507
11
1.1520433513
21
-24.3458473594
0
LINE
5
220
100
AcDbEntity
8
0
100
AcDbLine
62
7
6
CONTINUOUS
10
1.3196037407
20
-24.0423375585
11
1.1513040195
21
-24.0458592672
0
LINE
5
221
100
AcDbEntity
8
0
100
AcDbLine
62
9
6
CONTINUOUS
10
-0.7235823019
20
-24.0430341711
11
-0.5552825807
21
-24.0395124624
0
LINE
5
222
100
AcDbEntity
8
0
100
AcDbLine
62
9
6
CONTINUOUS
10
-0.9047765389
20
-23.8602002191
11
-0.7364768177
21
-23.8566785104
0
LINE
5
223
100
AcDbEntity
8
0
100
AcDbLine
62
7
6
CONTINUOUS
10
-7.8561665403
20
-24.0322397060
11
-7.8598929252
21
-24.0322811120
0
LINE
5
224
100
AcDbEntity
8
0
100
AcDbLine
62
7
6
CONTINUOUS
10
-12.3119384717
20
-23.9585794807
11
-14.0533571424
21
-23.9588465770
0
LINE
5
225
100
AcDbEntity
8
0
100
AcDbLine
62
9
6
CONTINUOUS
10
-12.0861113047
20
-23.7089404129
11
-13.8271884630
21
-23.7092077404
0
LINE
5
226
100
AcDbEntity
8
0
100
AcDbLine
62
7
6
CONTINUOUS
10
5.0205438126
20
-23.1978293491
11
2.1212139440
21
-23.1982745163
0
LINE
5
227
100
AcDbEntity
8
0
100
AcDbLine
62
7
6
CONTINUOUS
10
-7.6279416063
20
-23.1783830016
11
-10.7606512543
21
-23.1788640023
0
LINE
5
228
100
AcDbEntity
8
0
100
AcDbLine
62
9
6
CONTINUOUS
10
5.0199286543
20
-22.9482253332
11
2.3473826234
21
-22.9486356797
0
LINE
5
229
100
AcDbEntity
8
0
100
AcDbLine
62
9
6
CONTINUOUS
10
-7.6087430249
20
-22.9287759435
11
-10.5344825749
21
-22.9292251657
0
LINE
5
22A
100
AcDbEntity
8
0
100
AcDbLine
62
7
6
CONTINUOUS
10
8.3716049724
20
-23.9897456461
11
6.5953793677
21
-23.9899646128
0
LINE
5
22B
100
AcDbEntity
8
0
100
AcDbLine
62
9
6
CONTINUOUS
10
8.5974469479
20
-23.7401256270
11
6.8206042900
21
-23.7403449435
0
LINE
5
22C
100
AcDbEntity
8
0
100
AcDbLine
62
7
6
CONTINUOUS
10
6.5953793677
20
-23.9899646128
11
5.2715777739
21
-23.9881700480
0
LINE
5
22D
100
AcDbEntity
8
0
100
AcDbLine
62
7
6
CONTINUOUS
10
-14.0533571424
20
-23.9588465770
11
-15.3797894351
21
-23.9570523750
0
LINE
5
22E
100
AcDbEntity
8
0
100
AcDbLine
62
7
6
CONTINUOUS
10
2.1212139440
20
-23.1982745163
11
1.0381892930
21
-23.1968095780
0
LINE
5
22F
100
AcDbEntity
8
0
100
AcDbLine
62
7
6
CONTINUOUS
10
-10.7606512543
20
-23.1788640023
11
-11.8436759053
21
-23.1773990639
0
LINE
5
230
100
AcDbEntity
8
0
100
AcDbLine
62
9
6
CONTINUOUS
10
1.4243677370
20
-24.6347850917
11
1.6636409124
21
-24.6351456307
0
LINE
5
231
100
AcDbEntity
8
0
100
AcDbLine
62
9
6
CONTINUOUS
10
1.4008631469
20
-24.6191922921
11
1.7026103324
21
-24.6196469676
0
LINE
5
232
100
AcDbEntity
8
0
100
AcDbLine
62
9
6
CONTINUOUS
10
-9.7340399149
20
-24.3294441081
11
1.1520433513
21
-24.3458473594
0
LINE
5
233
100
AcDbEntity
8
0
100
AcDbLine
62
7
6
CONTINUOUS
10
-9.7347792466
20
-24.0294560159
11
-7.8598929252
21
-24.0322811120
0
LINE
5
234
100
AcDbEntity
8
0
100
AcDbLine
62
7
6
CONTINUOUS
10
-0.7235823019
20
-24.0430341711
11
1.1513040195
21
-24.0458592672
0
LINE
5
235
100
AcDbEntity
8
0
100
AcDbLine
62
3
6
CONTINUOUS
10
-9.5664795254
20
-24.0259343072
11
-7.8250213565
21
-24.0285583525
0
LINE
5
236
100
AcDbEntity
8
0
100
AcDbLine
62
3
6
CONTINUOUS
10
-0.5552825807
20
-24.0395124624
11
1.3196037407
21
-24.0423375585
0
LINE
5
237
100
AcDbEntity
8
0
100
AcDbLine
62
7
6
CONTINUOUS
10
1.2967003485
20
-23.8588270603
11
-0.7364754389
21
-23.8557634521
0
LINE
5
238
100
AcDbEntity
8
0
100
AcDbLine
62
3
6
CONTINUOUS
10
1.5916047706
20
-23.4800319643
11
-0.7675869142
21
-23.4764771124
0
LINE
5
239
100
AcDbEntity
8
0
100
AcDbLine
62
3
6
CONTINUOUS
10
1.4460796210
20
-24.6396639536
11
1.4473071952
21
-24.6396724614
0
LINE
5
23A
100
AcDbEntity
8
0
100
AcDbLine
62
9
6
CONTINUOUS
10
-17.5100208101
20
-18.1543795808
11
-18.6665563127
21
-17.6764945123
0
LINE
5
23B
100
AcDbEntity
8
0
100
AcDbLine
62
7
6
CONTINUOUS
10
-18.7609386791
20
-17.6574492871
11
-17.6040510104
21
-18.1354825083
0
LINE
5
23C
100
AcDbEntity
8
0
100
AcDbLine
62
7
6
CONTINUOUS
10
-12.3122609864
20
-23.9585792782
11
-12.2997619620
21
-23.9569604503
0
LINE
5
23D
100
AcDbEntity
8
0
100
AcDbLine
62
9
6
CONTINUOUS
10
-9.6950516579
20
-23.6007373062
11
-12.1313467114
21
-23.7588910223
0
LINE
5
23E
100
AcDbEntity
8
0
100
AcDbLine
62
7
6
CONTINUOUS
10
4.3279305817
20
-22.4545248191
11
6.3132512580
21
-22.4542800436
0
LINE
5
23F
100
AcDbEntity
8
0
100
AcDbLine
62
9
6
CONTINUOUS
10
4.5531555040
20
-22.2049051497
11
6.8168194529
21
-22.2046257447
0
LINE
5
240
100
AcDbEntity
8
0
100
AcDbLine
62
7
6
CONTINUOUS
10
4.3279305817
20
-22.4545248191
11
-17.4234504832
21
-22.4217496995
0
LINE
5
241
100
AcDbEntity
8
0
100
AcDbLine
62
9
6
CONTINUOUS
10
4.2230450905
20
-22.2067261213
11
-17.5282611071
21
-22.1739510513
0
LINE
5
242
100
AcDbEntity
8
0
100
AcDbLine
62
7
6
CONTINUOUS
10
18.8927615514
20
-18.4641877987
11
11.3790716948
21
-18.9519439804
0
LINE
5
243
100
AcDbEntity
8
0
100
AcDbLine
62
9
6
CONTINUOUS
10
19.3175611556
20
-17.9658445285
11
11.3394725767
21
-18.4837474625
0
LINE
5
244
100
AcDbEntity
8
0
100
AcDbLine
62
7
6
CONTINUOUS
10
5.3402285903
20
-18.8555561361
11
4.5449403281
21
-18.8715506692
0
LINE
5
245
100
AcDbEntity
8
0
100
AcDbLine
62
7
6
CONTINUOUS
10
-17.5364762830
20
-18.8405965708
11
4.2148299146
21
-18.8733716408
0
LINE
5
246
100
AcDbEntity
8
0
100
AcDbLine
62
9
6
CONTINUOUS
10
-16.9222852081
20
-18.8220107771
11
5.3402285903
21
-18.8555561361
0
LINE
5
247
100
AcDbEntity
8
0
100
AcDbLine
62
7
6
CONTINUOUS
10
-17.6730730221
20
-22.1723661157
11
-17.6812881980
21
-18.8390116353
0
LINE
5
248
100
AcDbEntity
8
0
100
AcDbLine
62
7
6
CONTINUOUS
10
-17.7739511164
20
18.7594959212
11
-17.7821662924
21
22.0928504017
0
LINE
5
249
100
AcDbEntity
8
0
100
AcDbLine
62
9
6
CONTINUOUS
10
-17.5282611071
20
-22.1739510513
11
-17.5364762830
21
-18.8405965708
0
LINE
5
24A
100
AcDbEntity
8
0
100
AcDbLine
62
9
6
CONTINUOUS
10
-17.6291392014
20
18.7579109856
11
-17.6373543774
21
22.0912654661
0
LINE
5
24B
100
AcDbEntity
8
0
100
AcDbLine
62
7
6
CONTINUOUS
10
-7.9710204435
20
-18.5286281325
11
-7.9695102030
21
-18.5285639242
0
LINE
5
24C
100
AcDbEntity
8
0
100
AcDbLine
62
7
6
CONTINUOUS
10
-7.9558893691
20
-18.5279848306
11
-6.7824469380
21
-18.4780955923
0
LINE
5
24D
100
AcDbEntity
8
0
100
AcDbLine
62
9
6
CONTINUOUS
10
-8.7878982348
20
-18.4510388207
11
-10.5564948648
21
-18.5247323157
0
LINE
5
24E
100
AcDbEntity
8
0
100
AcDbLine
62
7
6
CONTINUOUS
10
-16.9222852081
20
-18.8220107771
11
-17.6598835888
21
-18.8380922344
0
LINE
5
24F
100
AcDbEntity
8
0
100
AcDbLine
62
7
6
CONTINUOUS
10
-10.5564948648
20
-18.5247323157
11
-7.9710204435
21
-18.5286281325
0
LINE
5
250
100
AcDbEntity
8
0
100
AcDbLine
62
7
6
CONTINUOUS
10
-7.9695116808
20
-18.5279643044
11
-0.8935575578
21
-18.5386264177
0
LINE
5
251
100
AcDbEntity
8
0
100
AcDbLine
62
7
6
CONTINUOUS
10
-0.8387963014
20
-18.5145173543
11
-0.8377410135
21
-18.5145189444
0
LINE
5
252
100
AcDbEntity
8
0
100
AcDbLine
62
7
6
CONTINUOUS
10
-8.7878982348
20
-18.4510388207
11
-6.7821348830
21
-18.4540611235
0
LINE
5
253
100
AcDbEntity
8
0
100
AcDbLine
62
7
6
CONTINUOUS
10
-15.4867549792
20
-18.1974636759
11
6.2854944533
21
-18.2302703034
0
LINE
5
254
100
AcDbEntity
8
0
100
AcDbLine
62
7
6
CONTINUOUS
10
-17.5092788127
20
-18.1543806989
11
4.1047999250
21
-18.1869489933
0
LINE
5
255
100
AcDbEntity
8
0
100
AcDbLine
62
7
6
CONTINUOUS
10
6.5566704219
20
-17.8514354977
11
7.9280305698
21
-17.8535018759
0
LINE
5
256
100
AcDbEntity
8
0
100
AcDbLine
62
9
6
CONTINUOUS
10
2.8586473709
20
-17.7089288889
11
-18.6665563127
21
-17.6764945123
0
LINE
5
257
100
AcDbEntity
8
0
100
AcDbLine
62
7
6
CONTINUOUS
10
6.5546097698
20
-17.0153141457
11
7.9259699176
21
-17.0173805239
0
LINE
5
258
100
AcDbEntity
8
0
100
AcDbLine
62
9
6
CONTINUOUS
10
2.4998025611
20
-16.7706232557
11
-19.0070990378
21
-16.7382164568
0
LINE
5
259
100
AcDbEntity
8
0
100
AcDbLine
62
7
6
CONTINUOUS
10
-17.5149099995
20
-18.1543082526
11
-17.5100208101
21
-18.1543795808
0
LINE
5
25A
100
AcDbEntity
8
0
100
AcDbLine
62
7
6
CONTINUOUS
10
-15.4867549792
20
-18.1974636759
11
-15.4917685908
21
-18.1973819620
0
LINE
5
25B
100
AcDbEntity
8
0
100
AcDbLine
62
9
6
CONTINUOUS
10
4.1047999250
20
-18.1869489933
11
6.2854944533
21
-18.2302703034
0
LINE
5
25C
100
AcDbEntity
8
0
100
AcDbLine
62
9
6
CONTINUOUS
10
4.3864787566
20
-17.8876213750
11
6.5568658657
21
-17.9307379197
0
LINE
5
25D
100
AcDbEntity
8
0
100
AcDbLine
62
7
6
CONTINUOUS
10
-15.4916487698
20
-18.1974078077
11
-17.5141705331
21
-18.1543248748
0
LINE
5
25E
100
AcDbEntity
8
0
100
AcDbLine
62
9
6
CONTINUOUS
10
-15.4867549792
20
-18.1974636759
11
-17.5092788127
21
-18.1543806989
0
LINE
5
25F
100
AcDbEntity
8
0
100
AcDbLine
62
7
6
CONTINUOUS
10
-15.6326527939
20
-22.4244480901
11
-15.6294902379
21
-23.7076732371
0
LINE
5
260
100
AcDbEntity
8
0
100
AcDbLine
62
7
6
CONTINUOUS
10
-15.7431767204
20
22.4212653512
11
-15.7463641283
21
23.7145742702
0
LINE
5
261
100
AcDbEntity
8
0
100
AcDbLine
62
9
6
CONTINUOUS
10
4.0162660197
20
18.0372565110
11
2.7718511541
21
17.5091310274
0
LINE
5
262
100
AcDbEntity
8
0
100
AcDbLine
62
9
6
CONTINUOUS
10
4.2986792612
20
17.7375245300
11
3.0644056639
21
17.2137029666
0
LINE
5
263
100
AcDbEntity
8
0
100
AcDbLine
62
9
6
CONTINUOUS
10
2.8586473709
20
-17.7089288889
11
4.1055419225
21
-18.1869501114
0
LINE
5
264
100
AcDbEntity
8
0
100
AcDbLine
62
9
6
CONTINUOUS
10
3.1497456813
20
-17.4134957518
11
4.3864787566
21
-17.8876213750
0
LINE
5
265
100
AcDbEntity
8
0
100
AcDbLine
62
9
6
CONTINUOUS
10
-13.8303481078
20
-22.4271638195
11
-13.8271884630
21
-23.7092077404
0
LINE
5
266
100
AcDbEntity
8
0
100
AcDbLine
62
9
6
CONTINUOUS
10
-13.9409059307
20
22.4323032493
11
-13.9440746813
21
23.7180418901
0
LINE
5
267
100
AcDbEntity
8
0
100
AcDbLine
62
7
6
CONTINUOUS
10
-6.7495091687
20
-18.5704889670
11
-6.7796556963
21
-18.4971440085
0
LINE
5
268
100
AcDbEntity
8
0
100
AcDbLine
62
7
6
CONTINUOUS
10
-12.1346225054
20
-22.4297189546
11
-12.1313467114
21
-23.7588910223
0
LINE
5
269
100
AcDbEntity
8
0
100
AcDbLine
62
7
6
CONTINUOUS
10
-12.0946043584
20
-22.4297792543
11
-12.0933764272
21
-22.9280193292
0
LINE
5
26A
100
AcDbEntity
8
0
100
AcDbLine
62
7
6
CONTINUOUS
10
-12.2050966457
20
22.4030964079
11
-12.2063311000
21
22.9039832626
0
LINE
5
26B
100
AcDbEntity
8
0
100
AcDbLine
62
7
6
CONTINUOUS
10
-12.0861113047
20
-23.7089404129
11
-12.0879095658
21
-22.9792857298
0
LINE
5
26C
100
AcDbEntity
8
0
100
AcDbLine
62
7
6
CONTINUOUS
10
-12.2011167535
20
22.9551762148
11
-12.2031722194
21
23.7891932240
0
LINE
5
26D
100
AcDbEntity
8
0
100
AcDbLine
62
9
6
CONTINUOUS
10
-10.5357076888
20
-22.4321282143
11
-10.5344825749
21
-22.9292251657
0
LINE
5
26E
100
AcDbEntity
8
0
100
AcDbLine
62
9
6
CONTINUOUS
10
-10.6462150690
20
22.4068714694
11
-10.6474473121
21
22.9068611420
0
LINE
5
26F
100
AcDbEntity
8
0
100
AcDbLine
62
7
6
CONTINUOUS
10
-9.7347792466
20
-24.0294560159
11
-9.7340399149
21
-24.3294441081
0
LINE
5
270
100
AcDbEntity
8
0
100
AcDbLine
62
7
6
CONTINUOUS
10
-9.8532211125
20
24.0290064561
11
-9.8539604443
21
24.3289945483
0
LINE
5
271
100
AcDbEntity
8
0
100
AcDbLine
62
7
6
CONTINUOUS
10
-5.6819258544
20
18.5320215799
11
-5.7651425374
21
18.1863077267
0
LINE
5
272
100
AcDbEntity
8
0
100
AcDbLine
62
7
6
CONTINUOUS
10
-5.6635064907
20
-18.2122654379
11
-5.5851329298
21
-18.5315571084
0
LINE
5
273
100
AcDbEntity
8
0
100
AcDbLine
62
7
6
CONTINUOUS
10
-6.8732437243
20
18.5138707617
11
-6.8724405451
21
18.1879762136
0
LINE
5
274
100
AcDbEntity
8
0
100
AcDbLine
62
7
6
CONTINUOUS
10
-6.7827349538
20
-18.2105789740
11
-6.7820581214
21
-18.4852076054
0
LINE
5
275
100
AcDbEntity
8
0
100
AcDbLine
62
9
6
CONTINUOUS
10
-6.7575167402
20
18.5623273311
11
-6.7565937078
21
18.1878016545
0
LINE
5
276
100
AcDbEntity
8
0
100
AcDbLine
62
9
6
CONTINUOUS
10
-6.6668881165
20
-18.2107535331
11
-6.6660860414
21
-18.5362000716
0
LINE
5
277
100
AcDbEntity
8
0
100
AcDbLine
62
9
6
CONTINUOUS
10
-3.8480809214
20
-7.7948602036
11
-12.9198169766
21
-7.7811908275
0
LINE
5
278
100
AcDbEntity
8
0
100
AcDbLine
62
7
6
CONTINUOUS
10
-7.7971405540
20
23.8433474080
11
-7.6807035912
21
22.4203529113
0
LINE
5
279
100
AcDbEntity
8
0
100
AcDbLine
62
7
6
CONTINUOUS
10
-7.5708868689
20
-22.4365956338
11
-7.6795985479
21
-23.8499918544
0
LINE
5
27A
100
AcDbEntity
8
0
100
AcDbLine
62
7
6
CONTINUOUS
10
-0.9047765389
20
-23.8602002191
11
-1.0204557862
21
-22.4464658842
0
LINE
5
27B
100
AcDbEntity
8
0
100
AcDbLine
62
3
6
CONTINUOUS
10
-0.7364768177
20
-23.8566785104
11
-0.8518471115
21
-22.4467199453
0
LINE
5
27C
100
AcDbEntity
8
0
100
AcDbLine
62
7
6
CONTINUOUS
10
-1.1317423011
20
22.4104848757
11
-1.0223185451
21
23.8331390433
0
LINE
5
27D
100
AcDbEntity
8
0
100
AcDbLine
62
3
6
CONTINUOUS
10
-0.9636324407
20
22.4115381417
11
-0.8540188239
21
23.8366607520
0
LINE
5
27E
100
AcDbEntity
8
0
100
AcDbLine
62
9
6
CONTINUOUS
10
-0.4360606676
20
18.1782778166
11
-0.4369837001
21
18.5528034933
0
LINE
5
27F
100
AcDbEntity
8
0
100
AcDbLine
62
9
6
CONTINUOUS
10
-0.1719198091
20
18.1584211716
11
-0.1726912085
21
18.4714208464
0
LINE
5
280
100
AcDbEntity
8
0
100
AcDbLine
62
9
6
CONTINUOUS
10
1.5812835103
20
24.6094029487
11
1.6323534559
21
24.9908987230
0
LINE
5
281
100
AcDbEntity
8
0
100
AcDbLine
62
9
6
CONTINUOUS
10
1.4922538631
20
23.6578363174
11
1.4757358442
21
23.5344456545
0
LINE
5
282
100
AcDbEntity
8
0
100
AcDbLine
62
7
6
CONTINUOUS
10
6.5127499631
20
-0.0304588988
11
6.5742880963
21
-0.0305516251
0
LINE
5
283
100
AcDbEntity
8
0
100
AcDbLine
62
9
6
CONTINUOUS
10
1.7026103324
20
-24.6196469676
11
1.7555553349
21
-24.9989662062
0
LINE
5
284
100
AcDbEntity
8
0
100
AcDbLine
62
9
6
CONTINUOUS
10
1.6097539289
20
-23.6100598158
11
1.5916047706
21
-23.4800319643
0
LINE
5
285
100
AcDbEntity
8
0
100
AcDbLine
62
7
6
CONTINUOUS
10
0.6146427145
20
18.5040158047
11
0.6154494127
21
18.1766933915
0
LINE
5
286
100
AcDbEntity
8
0
100
AcDbLine
62
7
6
CONTINUOUS
10
0.7872608400
20
-22.4491897684
11
0.7884887711
21
-22.9474298432
0
LINE
5
287
100
AcDbEntity
8
0
100
AcDbLine
62
7
6
CONTINUOUS
10
0.6767685526
20
22.3836858939
11
0.6755340983
21
22.8845727486
0
LINE
5
288
100
AcDbEntity
8
0
100
AcDbLine
62
7
6
CONTINUOUS
10
1.1513040195
20
-24.0458592672
11
1.1520433513
21
-24.3458473594
0
LINE
5
289
100
AcDbEntity
8
0
100
AcDbLine
62
7
6
CONTINUOUS
10
1.0328621537
20
24.0126032048
11
1.0321228219
21
24.3125912970
0
LINE
5
28A
100
AcDbEntity
8
0
100
AcDbLine
62
3
6
CONTINUOUS
10
1.3196037407
20
-24.0423375585
11
1.3203430725
21
-24.3423256507
0
LINE
5
28B
100
AcDbEntity
8
0
100
AcDbLine
62
3
6
CONTINUOUS
10
1.2011618749
20
24.0161249135
11
1.2004225431
21
24.3161130057
0
LINE
5
28C
100
AcDbEntity
8
0
100
AcDbLine
62
9
6
CONTINUOUS
10
1.4473071952
20
-24.6396724614
11
1.4482929710
21
-25.0396565843
0
LINE
5
28D
100
AcDbEntity
8
0
100
AcDbLine
62
9
6
CONTINUOUS
10
1.3259080022
20
24.6187423794
11
1.3249222265
21
25.0187265024
0
LINE
5
28E
100
AcDbEntity
8
0
100
AcDbLine
62
9
6
CONTINUOUS
10
1.6636409124
20
-24.6351456307
11
1.6646266881
21
-25.0351297537
0
LINE
5
28F
100
AcDbEntity
8
0
100
AcDbLine
62
9
6
CONTINUOUS
10
1.5422417194
20
24.6232692101
11
1.5412559436
21
25.0232533330
0
LINE
5
290
100
AcDbEntity
8
0
100
AcDbLine
62
9
6
CONTINUOUS
10
2.3461575095
20
-22.4515387283
11
2.3473826234
21
-22.9486356797
0
LINE
5
291
100
AcDbEntity
8
0
100
AcDbLine
62
9
6
CONTINUOUS
10
2.2356501293
20
22.3874609554
11
2.2344178862
21
22.8874506279
0
LINE
5
292
100
AcDbEntity
8
0
100
AcDbLine
62
9
6
CONTINUOUS
10
4.1139518202
20
22.0584903961
11
4.1221669962
21
18.7251359156
0
LINE
5
293
100
AcDbEntity
8
0
100
AcDbLine
62
9
6
CONTINUOUS
10
4.2148299146
20
-18.8733716408
11
4.2230450905
21
-22.2067261213
0
LINE
5
294
100
AcDbEntity
8
0
100
AcDbLine
62
9
6
CONTINUOUS
10
4.4440622337
20
22.0603113677
11
4.4522774096
21
18.7269568873
0
LINE
5
295
100
AcDbEntity
8
0
100
AcDbLine
62
9
6
CONTINUOUS
10
4.5449403281
20
-18.8715506692
11
4.5531555040
21
-22.2049051497
0
LINE
5
296
100
AcDbEntity
8
0
100
AcDbLine
62
7
6
CONTINUOUS
10
-1.4211438871
20
-18.5154181583
11
-1.3497367022
21
-18.2187654662
0
LINE
5
297
100
AcDbEntity
8
0
100
AcDbLine
62
7
6
CONTINUOUS
10
-1.4275118379
20
18.1797717445
11
-1.5122257118
21
18.5248936704
0
LINE
5
298
100
AcDbEntity
8
0
100
AcDbLine
62
7
6
CONTINUOUS
10
6.5742880963
20
-0.0305516251
11
7.9259699176
21
-17.0173805239
0
LINE
5
299
100
AcDbEntity
8
0
100
AcDbLine
62
7
6
CONTINUOUS
10
5.0187117016
20
-22.4544398291
11
5.0218770323
21
-23.7387908114
0
LINE
5
29A
100
AcDbEntity
8
0
100
AcDbLine
62
7
6
CONTINUOUS
10
4.9081741051
20
22.3968202552
11
4.9050031423
21
23.6834565007
0
LINE
5
29B
100
AcDbEntity
8
0
100
AcDbLine
62
7
6
CONTINUOUS
10
6.5568658657
20
-17.9307379197
11
6.4686387128
21
17.8679324628
0
LINE
5
29C
100
AcDbEntity
8
0
100
AcDbLine
62
7
6
CONTINUOUS
10
7.8421107381
20
17.0089597446
11
6.5742880963
21
-0.0305516251
0
LINE
5
29D
100
AcDbEntity
8
0
100
AcDbLine
62
9
6
CONTINUOUS
10
6.8168194529
20
-22.2046257447
11
6.8206042900
21
-23.7403449435
0
LINE
5
29E
100
AcDbEntity
8
0
100
AcDbLine
62
9
6
CONTINUOUS
10
6.7075031701
20
22.1510793629
11
6.7037183331
21
23.6867985617
0
LINE
5
29F
100
AcDbEntity
8
0
100
AcDbLine
62
7
6
CONTINUOUS
10
7.8400500860
20
17.8450810966
11
7.8421107381
21
17.0089597446
0
LINE
5
2A0
100
AcDbEntity
8
0
100
AcDbLine
62
7
6
CONTINUOUS
10
7.9259699176
20
-17.0173805239
11
7.9280305698
21
-17.8535018759
0
LINE
5
2A1
100
AcDbEntity
8
0
100
AcDbLine
62
7
6
CONTINUOUS
10
8.5975701746
20
-23.7901255467
11
8.4802627128
21
23.8080460028
0
LINE
5
2A2
100
AcDbEntity
8
0
100
AcDbLine
62
9
6
CONTINUOUS
10
-3.8860092168
20
7.5947619344
11
-12.9577452720
21
7.6084313105
0
LINE
5
2A3
100
AcDbEntity
8
0
100
AcDbLine
62
9
6
CONTINUOUS
10
11.3501722137
20
-22.8251861760
11
11.3394725767
21
-18.4837474625
0
LINE
5
2A4
100
AcDbEntity
8
0
100
AcDbLine
62
9
6
CONTINUOUS
10
11.2480245961
20
18.6217921396
11
11.2373249591
21
22.9632308531
0
LINE
5
2A5
100
AcDbEntity
8
0
100
AcDbLine
62
7
6
CONTINUOUS
10
11.3569106143
20
-18.6105613549
11
11.3672959011
21
-22.8244507073
0
LINE
5
2A6
100
AcDbEntity
8
0
100
AcDbLine
62
7
6
CONTINUOUS
10
11.2648339333
20
18.7500770020
11
11.2544486463
21
22.9639664196
0
LINE
5
2A7
100
AcDbEntity
8
0
100
AcDbLine
62
3
6
CONTINUOUS
10
-8.4590753066
20
-24.0276029542
11
-7.6434054036
21
-23.3794329064
0
LINE
5
2A8
100
AcDbEntity
8
0
100
AcDbLine
62
3
6
CONTINUOUS
10
-8.5062089356
20
24.0269767656
11
-7.7667977867
21
23.4725236604
0
LINE
5
2A9
100
AcDbEntity
8
0
100
AcDbLine
62
9
6
CONTINUOUS
10
2.4176670822
20
16.5563156608
11
-19.0892345167
21
16.5887224597
0
LINE
5
2AA
100
AcDbEntity
8
0
100
AcDbLine
62
7
6
CONTINUOUS
10
6.4707505903
20
17.0110261228
11
7.8421107381
21
17.0089597446
0
LINE
5
2AB
100
AcDbEntity
8
0
100
AcDbLine
62
9
6
CONTINUOUS
10
-17.5985547155
20
18.0698259235
11
-15.5764605705
21
18.2010915117
0
LINE
5
2AC
100
AcDbEntity
8
0
100
AcDbLine
62
7
6
CONTINUOUS
10
-17.5993287022
20
18.0703198244
11
-15.5928465810
21
18.2005719478
0
LINE
5
2AD
100
AcDbEntity
8
0
100
AcDbLine
62
9
6
CONTINUOUS
10
6.4686387128
20
17.8679324628
11
4.2986792612
21
17.7375245300
0
LINE
5
2AE
100
AcDbEntity
8
0
100
AcDbLine
62
9
6
CONTINUOUS
10
6.1957888620
20
18.1682848842
11
4.0155240223
21
18.0372576290
0
LINE
5
2AF
100
AcDbEntity
8
0
100
AcDbLine
62
7
6
CONTINUOUS
10
-15.5931611577
20
18.2005026912
11
-15.5764605705
21
18.2010915117
0
LINE
5
2B0
100
AcDbEntity
8
0
100
AcDbLine
62
7
6
CONTINUOUS
10
-17.6150420746
20
18.0692997795
11
-17.5985547155
21
18.0698259235
0
LINE
5
2B1
100
AcDbEntity
8
0
100
AcDbLine
62
7
6
CONTINUOUS
10
-8.0069899672
20
18.4946777212
11
-7.0568367842
21
18.5149782487
0
LINE
5
2B2
100
AcDbEntity
8
0
100
AcDbLine
62
7
6
CONTINUOUS
10
-8.0059346793
20
18.4946761311
11
-7.0371312468
21
18.5149485562
0
LINE
5
2B3
100
AcDbEntity
8
0
100
AcDbLine
62
7
6
CONTINUOUS
10
4.4522774096
20
18.7269568873
11
5.2475656719
21
18.7429514203
0
LINE
5
2B4
100
AcDbEntity
8
0
100
AcDbLine
62
7
6
CONTINUOUS
10
5.2475656719
20
18.7429514203
11
5.3258864179
21
18.7436782511
0
LINE
5
2B5
100
AcDbEntity
8
0
100
AcDbLine
62
9
6
CONTINUOUS
10
2.7718511541
20
17.5091310274
11
-18.7533525295
21
17.5415654041
0
LINE
5
2B6
100
AcDbEntity
8
0
100
AcDbLine
62
7
6
CONTINUOUS
10
6.4686899382
20
17.8471474748
11
7.8400500860
21
17.8450810966
0
LINE
5
2B7
100
AcDbEntity
8
0
100
AcDbLine
62
7
6
CONTINUOUS
10
-17.5992967129
20
18.0698270415
11
4.0162660197
21
18.0372565110
0
LINE
5
2B8
100
AcDbEntity
8
0
100
AcDbLine
62
7
6
CONTINUOUS
10
-15.5764605705
20
18.2010915117
11
6.1957888620
21
18.1682848842
0
LINE
5
2B9
100
AcDbEntity
8
0
100
AcDbLine
62
7
6
CONTINUOUS
10
-8.0059346793
20
18.4946761311
11
-8.0069899672
21
18.4946777212
0
LINE
5
2BA
100
AcDbEntity
8
0
100
AcDbLine
62
7
6
CONTINUOUS
10
-8.0608091170
20
18.5164910435
11
-0.9848549940
21
18.5058289302
0
LINE
5
2BB
100
AcDbEntity
8
0
100
AcDbLine
62
7
6
CONTINUOUS
10
-0.9864261608
20
18.5064283101
11
1.5990482605
21
18.5025324932
0
LINE
5
2BC
100
AcDbEntity
8
0
100
AcDbLine
62
7
6
CONTINUOUS
10
-17.6291392014
20
18.7579109856
11
4.1221669962
21
18.7251359156
0
LINE
5
2BD
100
AcDbEntity
8
0
100
AcDbLine
62
9
6
CONTINUOUS
10
11.2480245961
20
18.6217921396
11
19.2278084932
21
18.4518100407
0
LINE
5
2BE
100
AcDbEntity
8
0
100
AcDbLine
62
9
6
CONTINUOUS
10
19.2278084932
20
18.4518100407
11
19.3175611556
21
-17.9658445285
0
LINE
5
2BF
100
AcDbEntity
8
0
100
AcDbLine
62
7
6
CONTINUOUS
10
19.2706177115
20
18.4536488424
11
19.3603703739
21
-17.9640057268
0
LINE
5
2C0
100
AcDbEntity
8
0
100
AcDbLine
62
3
6
CONTINUOUS
10
1.0662475513
20
-24.0419557991
11
1.6931605291
21
-23.5437809696
0
LINE
5
2C1
100
AcDbEntity
8
0
100
AcDbLine
62
3
6
CONTINUOUS
10
1.7026103324
20
-24.6196469676
11
3.4915580848
21
-23.1980641117
0
LINE
5
2C2
100
AcDbEntity
8
0
100
AcDbLine
62
7
6
CONTINUOUS
10
1.7555553349
20
-24.9989662062
11
4.0219483400
21
-23.1979826748
0
LINE
5
2C3
100
AcDbEntity
8
0
100
AcDbLine
62
7
6
CONTINUOUS
10
11.2725488125
20
19.1122508391
11
18.7812676102
21
18.9523031767
0
LINE
5
2C4
100
AcDbEntity
8
0
100
AcDbLine
62
3
6
CONTINUOUS
10
1.5769869813
20
23.5942985407
11
1.0191139223
21
24.0126239207
0
LINE
5
2C5
100
AcDbEntity
8
0
100
AcDbLine
62
3
6
CONTINUOUS
10
1.5812835103
20
24.6094029487
11
3.4038287122
21
23.2427534898
0
LINE
5
2C6
100
AcDbEntity
8
0
100
AcDbLine
62
7
6
CONTINUOUS
10
1.6323534559
20
24.9908987230
11
3.9336313905
21
23.2652678631
0
LINE
5
2C7
100
AcDbEntity
8
0
100
AcDbLine
62
9
6
CONTINUOUS
10
-15.6930678748
20
22.4232308827
11
-17.5337010589
21
22.3434278844
0
LINE
5
2C8
100
AcDbEntity
8
0
100
AcDbLine
62
7
6
CONTINUOUS
10
-17.5429959472
20
22.3432318940
11
-15.6975090596
21
22.4232453309
0
LINE
5
2C9
100
AcDbEntity
8
0
100
AcDbLine
62
7
6
CONTINUOUS
10
-8.0704317769
20
22.4209401574
11
-7.6821025726
21
22.4374500838
0
LINE
5
2CA
100
AcDbEntity
8
0
100
AcDbLine
62
9
6
CONTINUOUS
10
4.8089987835
20
23.3022681801
11
0.9747389852
21
23.1393283534
0
LINE
5
2CB
100
AcDbEntity
8
0
100
AcDbLine
62
7
6
CONTINUOUS
10
4.7999514085
20
23.3020828003
11
0.9656586296
21
23.1391415721
0
LINE
5
2CC
100
AcDbEntity
8
0
100
AcDbLine
62
7
6
CONTINUOUS
10
4.9079280021
20
22.4966779502
11
2.2356501293
21
22.3874609554
0
LINE
5
2CD
100
AcDbEntity
8
0
100
AcDbLine
62
7
6
CONTINUOUS
10
0.6765347744
20
22.4785427304
11
-0.9944776538
21
22.4102780440
0
LINE
5
2CE
100
AcDbEntity
8
0
100
AcDbLine
62
9
6
CONTINUOUS
10
2.2344178862
20
22.8874506279
11
4.9066957590
21
22.9966676227
0
LINE
5
2CF
100
AcDbEntity
8
0
100
AcDbLine
62
7
6
CONTINUOUS
10
-10.6462150690
20
22.4068714694
11
-7.6894884446
21
22.5277139910
0
LINE
5
2D0
100
AcDbEntity
8
0
100
AcDbLine
62
7
6
CONTINUOUS
10
-12.2053434443
20
22.5032363364
11
-13.9409059307
21
22.4323032493
0
LINE
5
2D1
100
AcDbEntity
8
0
100
AcDbLine
62
9
6
CONTINUOUS
10
2.0070170340
20
23.1377729073
11
4.9060559896
21
23.2562577122
0
LINE
5
2D2
100
AcDbEntity
8
0
100
AcDbLine
62
9
6
CONTINUOUS
10
-10.6474473121
20
22.9068611420
11
-7.7302679982
21
23.0260873501
0
LINE
5
2D3
100
AcDbEntity
8
0
100
AcDbLine
62
9
6
CONTINUOUS
10
6.7075031701
20
22.1510793629
11
4.4440622337
21
22.0603113677
0
LINE
5
2D4
100
AcDbEntity
8
0
100
AcDbLine
62
9
6
CONTINUOUS
10
6.2022072689
20
22.3902388789
11
4.2176051387
21
22.3106528143
0
LINE
5
2D5
100
AcDbEntity
8
0
100
AcDbLine
62
9
6
CONTINUOUS
10
6.7037183331
20
23.6867985617
11
8.4803859395
21
23.7580460831
0
LINE
5
2D6
100
AcDbEntity
8
0
100
AcDbLine
62
7
6
CONTINUOUS
10
-15.6930678748
20
22.4232308827
11
-15.6980232602
21
22.4230687685
0
LINE
5
2D7
100
AcDbEntity
8
0
100
AcDbLine
62
7
6
CONTINUOUS
10
-8.0732080488
20
23.3216789253
11
-8.0819116711
21
23.3214934102
0
LINE
5
2D8
100
AcDbEntity
8
0
100
AcDbLine
62
9
6
CONTINUOUS
10
-17.5429692080
20
22.3432330516
11
-17.5337010589
21
22.3434278844
0
LINE
5
2D9
100
AcDbEntity
8
0
100
AcDbLine
62
9
6
CONTINUOUS
10
0.9747389852
20
23.1393283534
11
0.9656614232
21
23.1391416908
0
LINE
5
2DA
100
AcDbEntity
8
0
100
AcDbLine
62
9
6
CONTINUOUS
10
-11.9071262131
20
23.1587388675
11
-11.9162037751
21
23.1585522048
0
LINE
5
2DB
100
AcDbEntity
8
0
100
AcDbLine
62
7
6
CONTINUOUS
10
4.7999364738
20
23.3020870194
11
4.8089987835
21
23.3022681801
0
LINE
5
2DC
100
AcDbEntity
8
0
100
AcDbLine
62
7
6
CONTINUOUS
10
-7.7544588744
20
23.3217278665
11
-8.0732079382
21
23.3216789253
0
LINE
5
2DD
100
AcDbEntity
8
0
100
AcDbLine
62
9
6
CONTINUOUS
10
4.1139518202
20
22.0584903961
11
-17.6373543774
21
22.0912654661
0
LINE
5
2DE
100
AcDbEntity
8
0
100
AcDbLine
62
9
6
CONTINUOUS
10
4.2176051387
20
22.3106528143
11
-17.5337010589
21
22.3434278844
0
LINE
5
2DF
100
AcDbEntity
8
0
100
AcDbLine
62
7
6
CONTINUOUS
10
-8.0704317769
20
22.4209401574
11
-0.9944776538
21
22.4102780440
0
LINE
5
2E0
100
AcDbEntity
8
0
100
AcDbLine
62
7
6
CONTINUOUS
10
-8.0728664148
20
23.3216786941
11
-7.7544155875
21
23.3211988495
0
LINE
5
2E1
100
AcDbEntity
8
0
100
AcDbLine
62
7
6
CONTINUOUS
10
3.8824263584
20
23.3036643480
11
4.9059429551
21
23.3021221037
0
LINE
5
2E2
100
AcDbEntity
8
0
100
AcDbLine
62
7
6
CONTINUOUS
10
-12.4267846055
20
24.0391215014
11
-12.4305540737
21
24.0395154747
0
LINE
5
2E3
100
AcDbEntity
8
0
100
AcDbLine
62
9
6
CONTINUOUS
10
-13.7913421141
20
24.0415659228
11
-15.4382417026
21
23.9701624915
0
LINE
5
2E4
100
AcDbEntity
8
0
100
AcDbLine
62
7
6
CONTINUOUS
10
-13.8005682556
20
24.0413729130
11
-15.4475365909
21
23.9699665011
0
LINE
5
2E5
100
AcDbEntity
8
0
100
AcDbLine
62
9
6
CONTINUOUS
10
-8.0728664148
20
23.3216786941
11
-11.9071262131
21
23.1587388675
0
LINE
5
2E6
100
AcDbEntity
8
0
100
AcDbLine
62
7
6
CONTINUOUS
10
-8.0819135272
20
23.3214933255
11
-11.9162065687
21
23.1585520861
0
LINE
5
2E7
100
AcDbEntity
8
0
100
AcDbLine
62
9
6
CONTINUOUS
10
6.8922074548
20
24.0103997583
11
5.2156116450
21
23.9391515266
0
LINE
5
2E8
100
AcDbEntity
8
0
100
AcDbLine
62
7
6
CONTINUOUS
10
6.8831600641
20
24.0102143779
11
5.2065312893
21
23.9389647453
0
LINE
5
2E9
100
AcDbEntity
8
0
100
AcDbLine
62
9
6
CONTINUOUS
10
-10.8748481643
20
23.1571834213
11
-7.7514403714
21
23.2848382645
0
LINE
5
2EA
100
AcDbEntity
8
0
100
AcDbLine
62
9
6
CONTINUOUS
10
-13.9440746813
20
23.7180418901
11
-12.2031722194
21
23.7891932240
0
LINE
5
2EB
100
AcDbEntity
8
0
100
AcDbLine
62
9
6
CONTINUOUS
10
-14.1714755335
20
23.9683641695
11
-12.4305730715
21
24.0395155034
0
LINE
5
2EC
100
AcDbEntity
8
0
100
AcDbLine
62
9
6
CONTINUOUS
10
6.4772612382
20
23.9371400082
11
8.2529764973
21
24.0083493389
0
LINE
5
2ED
100
AcDbEntity
8
0
100
AcDbLine
62
9
6
CONTINUOUS
10
-15.4382417026
20
23.9701624915
11
-15.4475345092
21
23.9699665914
0
LINE
5
2EE
100
AcDbEntity
8
0
100
AcDbLine
62
7
6
CONTINUOUS
10
-13.8006043333
20
24.0413697769
11
-13.7913421141
21
24.0415659228
0
LINE
5
2EF
100
AcDbEntity
8
0
100
AcDbLine
62
9
6
CONTINUOUS
10
-1.0223185451
20
23.8331390433
11
-0.8540188239
21
23.8366607520
0
LINE
5
2F0
100
AcDbEntity
8
0
100
AcDbLine
62
7
6
CONTINUOUS
10
1.2011618749
20
24.0161249135
11
1.0328621537
21
24.0126032048
0
LINE
5
2F1
100
AcDbEntity
8
0
100
AcDbLine
62
9
6
CONTINUOUS
10
1.2004225431
20
24.3161130057
11
1.0321228219
21
24.3125912970
0
LINE
5
2F2
100
AcDbEntity
8
0
100
AcDbLine
62
3
6
CONTINUOUS
10
1.3259080022
20
24.6187423794
11
1.5422417194
21
24.6232692101
0
LINE
5
2F3
100
AcDbEntity
8
0
100
AcDbLine
62
7
6
CONTINUOUS
10
1.3249222265
20
25.0187265024
11
1.5412559436
21
25.0232533330
0
LINE
5
2F4
100
AcDbEntity
8
0
100
AcDbLine
62
7
6
CONTINUOUS
10
-9.5611610397
20
25.0351297537
11
-9.3448273226
21
25.0396565843
0
LINE
5
2F5
100
AcDbEntity
8
0
100
AcDbLine
62
7
6
CONTINUOUS
10
6.8831243160
20
24.0102113016
11
6.8922074548
21
24.0103997583
0
LINE
5
2F6
100
AcDbEntity
8
0
100
AcDbLine
62
9
6
CONTINUOUS
10
5.2156116450
20
23.9391515266
11
5.2065329686
21
23.9389648166
0
LINE
5
2F7
100
AcDbEntity
8
0
100
AcDbLine
62
7
6
CONTINUOUS
10
-0.8457505527
20
24.0153868948
11
-0.8420241677
21
24.0154283009
0
LINE
5
2F8
100
AcDbEntity
8
0
100
AcDbLine
62
3
6
CONTINUOUS
10
1.5422417194
20
24.6232692101
11
1.5434368640
21
24.6232801300
0
LINE
5
2F9
100
AcDbEntity
8
0
100
AcDbLine
62
7
6
CONTINUOUS
10
1.5412559436
20
25.0232533330
11
1.5440446144
21
25.0232788129
0
LINE
5
2FA
100
AcDbEntity
8
0
100
AcDbLine
62
7
6
CONTINUOUS
10
-9.3448273226
20
25.0396565843
11
-9.3420386518
21
25.0396820642
0
LINE
5
2FB
100
AcDbEntity
8
0
100
AcDbLine
62
3
6
CONTINUOUS
10
-0.8769910911
20
23.5379907653
11
1.4757358442
21
23.5344456545
0
LINE
5
2FC
100
AcDbEntity
8
0
100
AcDbLine
62
7
6
CONTINUOUS
10
-0.8304093578
20
23.9194933026
11
1.1472857530
21
23.9165132932
0
LINE
5
2FD
100
AcDbEntity
8
0
100
AcDbLine
62
7
6
CONTINUOUS
10
1.0328621537
20
24.0126032048
11
-0.8420241677
21
24.0154283009
0
LINE
5
2FE
100
AcDbEntity
8
0
100
AcDbLine
62
7
6
CONTINUOUS
10
-7.9783347911
20
24.0261813600
11
-9.8532211125
21
24.0290064561
0
LINE
5
2FF
100
AcDbEntity
8
0
100
AcDbLine
62
7
6
CONTINUOUS
10
-13.8367284291
20
24.0416343113
11
-12.4305540737
21
24.0395154747
0
LINE
5
300
100
AcDbEntity
8
0
100
AcDbLine
62
7
6
CONTINUOUS
10
6.8922074548
20
24.0103997583
11
8.2983628123
21
24.0082809504
0
LINE
5
301
100
AcDbEntity
8
0
100
AcDbLine
62
9
6
CONTINUOUS
10
1.0321228219
20
24.3125912970
11
-9.8539604443
21
24.3289945483
0
LINE
5
302
100
AcDbEntity
8
0
100
AcDbLine
62
9
6
CONTINUOUS
10
1.5812835103
20
24.6094029487
11
1.2969534895
21
24.6098313798
0
LINE
5
303
100
AcDbEntity
8
0
100
AcDbLine
62
9
6
CONTINUOUS
10
1.3249222265
20
25.0187265024
11
-9.5611610397
21
25.0351297537
0
LINE
5
304
100
AcDbEntity
8
0
100
AcDbLine
62
9
6
CONTINUOUS
10
-9.3420474497
20
25.0396835745
11
-9.3448273226
21
25.0396565843
0
LINE
5
305
100
AcDbEntity
8
0
100
AcDbLine
62
7
6
CONTINUOUS
10
-9.3420474497
20
25.0396835745
11
1.5440358164
21
25.0232803232
0
LINE
5
306
100
AcDbEntity
8
0
100
AcDbLine
62
9
6
CONTINUOUS
10
-9.8118414148
20
23.7873725366
11
-12.2486541732
21
23.8392805271
0
LINE
5
307
100
AcDbEntity
8
0
100
AcDbLine
62
9
6
CONTINUOUS
10
10.9170754712
20
23.7561380122
11
8.4802627128
21
23.8080460028
0
LINE
5
308
100
AcDbEntity
8
0
100
AcDbLine
62
7
6
CONTINUOUS
10
-9.9903362467
20
23.9875671582
11
-12.2444725990
21
24.0355838947
0
LINE
5
309
100
AcDbEntity
8
0
100
AcDbLine
62
7
6
CONTINUOUS
10
10.7385805272
20
23.9563326363
11
8.4844442870
21
24.0043493704
0
LINE
5
30A
100
AcDbEntity
8
0
100
AcDbLine
62
7
6
CONTINUOUS
10
8.3021322805
20
24.0078869771
11
8.2983628123
21
24.0082809504
0
LINE
5
30B
100
AcDbEntity
8
0
100
AcDbLine
62
9
6
CONTINUOUS
10
19.3603703677
20
-17.9640051378
11
19.3603151761
21
-17.9640695644
0
SPLINE
5
30C
100
AcDbEntity
8
0
100
AcDbSpline
62
7
6
CONTINUOUS
70
0
71
3
72
10
73
6
74
4
42
0.0000001000
43
0.0000001000
44
0.0000000001
12
0.0994202813
22
0.0020803913
32
0.0000000000
13
0.0778540508
23
0.0618665267
33
0.0000000000
40
0.0000000000
40
0.0000000000
40
0.0000000000
40
0.0000000000
40
0.3127541914
40
0.6419737915
40
1.0000000000
40
1.0000000000
40
1.0000000000
40
1.0000000000
10
1.6646266881
20
-25.0351297537
30
0.0000000000
10
1.6749913914
20
-25.0349128700
30
0.0000000000
10
1.6962924360
20
-25.0317345728
30
0.0000000000
10
1.7272239855
20
-25.0191372764
30
0.0000000000
10
1.7462640713
20
-25.0063494856
30
0.0000000000
10
1.7555553349
20
-24.9989662062
30
0.0000000000
11
1.6646266881
21
-25.0351297537
31
0.0000000000
11
1.6954034324
21
-25.0306510247
31
0.0000000000
11
1.7258240797
21
-25.0185523236
31
0.0000000000
11
1.7555553349
21
-24.9989662062
31
0.0000000000
0
SPLINE
5
30D
100
AcDbEntity
8
0
100
AcDbSpline
62
7
6
CONTINUOUS
70
0
71
3
72
13
73
9
74
7
42
0.0000001000
43
0.0000001000
44
0.0000000001
12
0.0019836539
22
-0.8048788735
32
0.0000000000
13
0.8051431829
23
-0.0037098765
33
0.0000000000
40
0.0000000000
40
0.0000000000
40
0.0000000000
40
0.0000000000
40
0.2252002641
40
0.4374433485
40
0.6256906447
40
0.7820873385
40
0.9047946356
40
1.0000000000
40
1.0000000000
40
1.0000000000
40
1.0000000000
10
-9.7340399149
20
-24.3294441081
30
0.0000000000
10
-9.7338910084
20
-24.3898637531
30
0.0000000000
10
-9.7272869957
20
-24.5073296406
30
0.0000000000
10
-9.6987703802
20
-24.6731392106
30
0.0000000000
10
-9.6537926367
20
-24.8162913484
30
0.0000000000
10
-9.5948458720
20
-24.9278612870
30
0.0000000000
10
-9.5249420922
20
-25.0029216528
30
0.0000000000
10
-9.4661803211
20
-25.0231586415
30
0.0000000000
10
-9.4406290044
20
-25.0232763749
30
0.0000000000
11
-9.7340399149
21
-24.3294441081
31
0.0000000000
11
-9.7235577448
21
-24.5104002497
31
0.0000000000
11
-9.6937185585
21
-24.6786045316
31
0.0000000000
11
-9.6465558473
21
-24.8225941101
31
0.0000000000
11
-9.5852836719
21
-24.9325563333
31
0.0000000000
11
-9.5140776298
21
-25.0009974574
31
0.0000000000
11
-9.4406290044
21
-25.0232763749
31
0.0000000000
0
SPLINE
5
30E
100
AcDbEntity
8
0
100
AcDbSpline
62
7
6
CONTINUOUS
70
0
71
3
72
14
73
10
74
8
42
0.0000001000
43
0.0000001000
44
0.0000000001
12
-0.0188988746
22
-0.2457104723
32
0.0000000000
13
-0.2414517780
23
-0.0518031355
33
0.0000000000
40
0.0000000000
40
0.0000000000
40
0.0000000000
40
0.0000000000
40
0.1497548952
40
0.2981415275
40
0.4444825787
40
0.5883569820
40
0.7296664304
40
0.8686654318
40
1.0000000000
40
1.0000000000
40
1.0000000000
40
1.0000000000
10
-7.6795985479
20
-23.8499918544
30
0.0000000000
10
-7.6805419475
20
-23.8622573031
30
0.0000000000
10
-7.6844807421
20
-23.8865694958
30
0.0000000000
10
-7.6964061525
20
-23.9212619197
30
0.0000000000
10
-7.7139444007
20
-23.9529526421
30
0.0000000000
10
-7.7365149129
20
-23.9805435721
30
0.0000000000
10
-7.7633639130
20
-24.0030821465
30
0.0000000000
10
-7.7931593450
20
-24.0195353731
30
0.0000000000
10
-7.8144418471
20
-24.0263333287
30
0.0000000000
10
-7.8250121688
20
-24.0286011762
30
0.0000000000
11
-7.6795985479
21
-23.8499918544
31
0.0000000000
11
-7.6855232329
21
-23.8864182077
31
0.0000000000
11
-7.6974439586
21
-23.9209884713
31
0.0000000000
11
-7.7149519633
21
-23.9525172303
31
0.0000000000
11
-7.7374468971
21
-23.9799233630
31
0.0000000000
11
-7.7641574084
21
-24.0022671126
31
0.0000000000
11
-7.7941675933
21
-24.0187823117
31
0.0000000000
11
-7.8250121688
21
-24.0286011762
31
0.0000000000
0
SPLINE
5
30F
100
AcDbEntity
8
0
100
AcDbSpline
62
7
6
CONTINUOUS
70
0
71
3
72
9
73
5
74
3
42
0.0000001000
43
0.0000001000
44
0.0000000001
12
-0.0307194571
22
-0.0065908158
32
0.0000000000
13
-0.0313658990
23
-0.0006675551
33
0.0000000000
40
0.0000000000
40
0.0000000000
40
0.0000000000
40
0.0000000000
40
0.0467075995
40
1.0000000000
40
1.0000000000
40
1.0000000000
40
1.0000000000
10
-7.8250121688
20
-24.0286011762
30
0.0000000000
10
-7.8254904461
20
-24.0287037900
30
0.0000000000
10
-7.8357403803
20
-24.0308553724
30
0.0000000000
10
-7.8461994862
20
-24.0320321100
30
0.0000000000
10
-7.8561664439
20
-24.0322442351
30
0.0000000000
11
-7.8250121688
21
-24.0286011762
31
0.0000000000
11
-7.8264484021
21
-24.0289026537
31
0.0000000000
11
-7.8561664439
21
-24.0322442351
31
0.0000000000
0
SPLINE
5
310
100
AcDbEntity
8
0
100
AcDbSpline
62
7
6
CONTINUOUS
70
0
71
3
72
15
73
11
74
9
42
0.0000001000
43
0.0000001000
44
0.0000000001
12
-0.2822684396
22
0.0004253247
32
0.0000000000
13
-0.0230197936
23
0.2813285304
33
0.0000000000
40
0.0000000000
40
0.0000000000
40
0.0000000000
40
0.0000000000
40
0.1191836567
40
0.2393070723
40
0.3610689948
40
0.4849231090
40
0.6110237968
40
0.7392198596
40
0.8690887317
40
1.0000000000
40
1.0000000000
40
1.0000000000
40
1.0000000000
10
-0.7235823019
20
-24.0430341711
30
0.0000000000
10
-0.7347962301
20
-24.0430172739
30
0.0000000000
10
-0.7573753807
20
-24.0406618293
30
0.0000000000
10
-0.7899649712
20
-24.0303182681
30
0.0000000000
10
-0.8202636483
20
-24.0135382735
30
0.0000000000
10
-0.8472157430
20
-23.9909243681
30
0.0000000000
10
-0.8699173059
20
-23.9632729614
30
0.0000000000
10
-0.8876103659
20
-23.9315368382
30
0.0000000000
10
-0.8997084272
20
-23.8968141866
30
0.0000000000
10
-0.9037720222
20
-23.8724765774
30
0.0000000000
10
-0.9047765389
20
-23.8602002191
30
0.0000000000
11
-0.7235823019
21
-24.0430341711
31
0.0000000000
11
-0.7570437262
21
-24.0395548983
31
0.0000000000
11
-0.7893746588
21
-24.0293371987
31
0.0000000000
11
-0.8194664715
21
-24.0127314374
31
0.0000000000
11
-0.8462873156
21
-23.9903070262
31
0.0000000000
11
-0.8689175038
21
-23.9628328985
31
0.0000000000
11
-0.8865810467
21
-23.9312511428
31
0.0000000000
11
-0.8986722611
21
-23.8966446978
31
0.0000000000
11
-0.9047765389
21
-23.8602002191
31
0.0000000000
0
SPLINE
5
311
100
AcDbEntity
8
0
100
AcDbSpline
62
7
6
CONTINUOUS
70
0
71
3
72
13
73
9
74
7
42
0.0000001000
43
0.0000001000
44
0.0000000001
12
0.0019836539
22
-0.8048788735
32
0.0000000000
13
0.8051431829
23
-0.0037098765
33
0.0000000000
40
0.0000000000
40
0.0000000000
40
0.0000000000
40
0.0000000000
40
0.2252002641
40
0.4374433485
40
0.6256906447
40
0.7820873385
40
0.9047946356
40
1.0000000000
40
1.0000000000
40
1.0000000000
40
1.0000000000
10
1.1520433513
20
-24.3458473594
30
0.0000000000
10
1.1521922578
20
-24.4062670044
30
0.0000000000
10
1.1587962705
20
-24.5237328919
30
0.0000000000
10
1.1873128860
20
-24.6895424619
30
0.0000000000
10
1.2322906295
20
-24.8326945997
30
0.0000000000
10
1.2912373942
20
-24.9442645383
30
0.0000000000
10
1.3611411740
20
-25.0193249041
30
0.0000000000
10
1.4199029450
20
-25.0395618928
30
0.0000000000
10
1.4454542617
20
-25.0396796262
30
0.0000000000
11
1.1520433513
21
-24.3458473594
31
0.0000000000
11
1.1625255214
21
-24.5268035010
31
0.0000000000
11
1.1923647077
21
-24.6950077829
31
0.0000000000
11
1.2395274189
21
-24.8389973614
31
0.0000000000
11
1.3007995943
21
-24.9489595846
31
0.0000000000
11
1.3720056364
21
-25.0174007087
31
0.0000000000
11
1.4454542617
21
-25.0396796262
31
0.0000000000
0
SPLINE
5
312
100
AcDbEntity
8
0
100
AcDbSpline
62
7
6
CONTINUOUS
70
0
71
3
72
8
73
4
74
2
42
0.0000001000
43
0.0000001000
44
0.0000000001
12
0.0075104489
22
-0.0000150204
32
0.0000000000
13
0.0075078320
23
-0.0004711783
33
0.0000000000
40
0.0000000000
40
0.0000000000
40
0.0000000000
40
0.0000000000
40
1.0000000000
40
1.0000000000
40
1.0000000000
40
1.0000000000
10
1.5440446161
20
25.0232796615
30
0.0000000000
10
1.5465480990
20
25.0232746547
30
0.0000000000
10
1.5490537859
20
25.0231927763
30
0.0000000000
10
1.5515563965
20
25.0230357169
30
0.0000000000
11
1.5440446161
21
25.0232796615
31
0.0000000000
11
1.5515563965
21
25.0230357169
31
0.0000000000
0
SPLINE
5
313
100
AcDbEntity
8
0
100
AcDbSpline
62
7
6
CONTINUOUS
70
0
71
3
72
10
73
6
74
4
42
0.0000001000
43
0.0000001000
44
0.0000000001
12
0.0880555829
22
-0.0055262128
32
0.0000000000
13
0.0704226474
23
-0.0528069607
33
0.0000000000
40
0.0000000000
40
0.0000000000
40
0.0000000000
40
0.0000000000
40
0.2347999843
40
0.6022329418
40
1.0000000000
40
1.0000000000
40
1.0000000000
40
1.0000000000
10
1.5515563965
20
25.0230357169
30
0.0000000000
10
1.5584482130
20
25.0226031987
30
0.0000000000
10
1.5760650350
20
25.0200314791
30
0.0000000000
10
1.6038581408
20
25.0099187295
30
0.0000000000
10
1.6230161861
20
24.9979003462
30
0.0000000000
10
1.6323534559
20
24.9908987230
30
0.0000000000
11
1.5515563965
21
25.0230357169
31
0.0000000000
11
1.5720515886
21
25.0200630199
31
0.0000000000
11
1.6025287307
21
25.0092386184
31
0.0000000000
11
1.6323534559
21
24.9908987230
31
0.0000000000
0
SPLINE
5
314
100
AcDbEntity
8
0
100
AcDbSpline
62
7
6
CONTINUOUS
70
0
71
3
72
15
73
11
74
9
42
0.0000001000
43
0.0000001000
44
0.0000000001
12
0.2822684396
22
-0.0004253247
32
0.0000000000
13
0.0230197936
23
-0.2813285304
33
0.0000000000
40
0.0000000000
40
0.0000000000
40
0.0000000000
40
0.0000000000
40
0.1191836567
40
0.2393070723
40
0.3610689948
40
0.4849231090
40
0.6110237968
40
0.7392198596
40
0.8690887317
40
1.0000000000
40
1.0000000000
40
1.0000000000
40
1.0000000000
10
-7.9783347911
20
24.0261813600
30
0.0000000000
10
-7.9671208628
20
24.0261644627
30
0.0000000000
10
-7.9445417123
20
24.0238090181
30
0.0000000000
10
-7.9119521218
20
24.0134654569
30
0.0000000000
10
-7.8816534447
20
23.9966854623
30
0.0000000000
10
-7.8547013500
20
23.9740715569
30
0.0000000000
10
-7.8319997871
20
23.9464201502
30
0.0000000000
10
-7.8143067271
20
23.9146840270
30
0.0000000000
10
-7.8022086658
20
23.8799613754
30
0.0000000000
10
-7.7981450708
20
23.8556237662
30
0.0000000000
10
-7.7971405540
20
23.8433474080
30
0.0000000000
11
-7.9783347911
21
24.0261813600
31
0.0000000000
11
-7.9448733668
21
24.0227020871
31
0.0000000000
11
-7.9125424342
21
24.0124843875
31
0.0000000000
11
-7.8824506215
21
23.9958786262
31
0.0000000000
11
-7.8556297774
21
23.9734542150
31
0.0000000000
11
-7.8329995891
21
23.9459800874
31
0.0000000000
11
-7.8153360462
21
23.9143983316
31
0.0000000000
11
-7.8032448319
21
23.8797918866
31
0.0000000000
11
-7.7971405540
21
23.8433474080
31
0.0000000000
0
SPLINE
5
315
100
AcDbEntity
8
0
100
AcDbSpline
62
7
6
CONTINUOUS
70
0
71
3
72
13
73
9
74
7
42
0.0000001000
43
0.0000001000
44
0.0000000001
12
-0.0020097234
22
0.8154567102
32
0.0000000000
13
0.8152807149
23
0.0170599284
33
0.0000000000
40
0.0000000000
40
0.0000000000
40
0.0000000000
40
0.0000000000
40
0.2227327265
40
0.4335350580
40
0.6213571467
40
0.7781466692
40
0.9015183542
40
1.0000000000
40
1.0000000000
40
1.0000000000
40
1.0000000000
10
-9.8539604443
20
24.3289945483
30
0.0000000000
10
-9.8541096547
20
24.3895375137
30
0.0000000000
10
-9.8480470923
20
24.5075118298
30
0.0000000000
10
-9.8203042466
20
24.6744916255
30
0.0000000000
10
-9.7760049088
20
24.8194611860
30
0.0000000000
10
-9.7175868950
20
24.9333526474
30
0.0000000000
10
-9.6477819071
20
25.0116253062
30
0.0000000000
10
-9.5879244352
20
25.0345697237
30
0.0000000000
10
-9.5611610397
20
25.0351297537
30
0.0000000000
11
-9.8539604443
21
24.3289945483
31
0.0000000000
11
-9.8443712556
21
24.5103706874
31
0.0000000000
11
-9.8153641955
21
24.6798063400
31
0.0000000000
11
-9.7689160472
21
24.8257547463
31
0.0000000000
11
-9.7081921752
21
24.9382697637
31
0.0000000000
11
-9.6373308111
21
25.0096836796
31
0.0000000000
11
-9.5611610397
21
25.0351297537
31
0.0000000000
0
SPLINE
5
316
100
AcDbEntity
8
0
100
AcDbSpline
62
7
6
CONTINUOUS
70
0
71
3
72
15
73
11
74
9
42
0.0000001000
43
0.0000001000
44
0.0000000001
12
0.0213033430
22
0.2769717551
32
0.0000000000
13
0.2778986440
23
0.0059144692
33
0.0000000000
40
0.0000000000
40
0.0000000000
40
0.0000000000
40
0.0000000000
40
0.1328523409
40
0.2644908522
40
0.3943146633
40
0.5219502324
40
0.6473103482
40
0.7706207928
40
0.8924036738
40
1.0000000000
40
1.0000000000
40
1.0000000000
40
1.0000000000
10
-1.0223185451
20
23.8331390433
30
0.0000000000
10
-1.0213751454
20
23.8454044919
30
0.0000000000
10
-1.0174363509
20
23.8697166846
30
0.0000000000
10
-1.0055109405
20
23.9044091085
30
0.0000000000
10
-0.9879726923
20
23.9360998309
30
0.0000000000
10
-0.9654021801
20
23.9636907609
30
0.0000000000
10
-0.9385531799
20
23.9862293353
30
0.0000000000
10
-0.9083276181
20
24.0029200824
30
0.0000000000
10
-0.8769733989
20
24.0127878429
30
0.0000000000
10
-0.8557176068
20
24.0151792989
30
0.0000000000
10
-0.8457506491
20
24.0153914239
30
0.0000000000
11
-1.0223185451
21
23.8331390433
31
0.0000000000
11
-1.0163938601
21
23.8695653966
31
0.0000000000
11
-1.0044731343
21
23.9041356601
31
0.0000000000
11
-0.9869651296
21
23.9356644191
31
0.0000000000
11
-0.9644701958
21
23.9630705518
31
0.0000000000
11
-0.9377596845
21
23.9854143015
31
0.0000000000
11
-0.9077494996
21
24.0019295005
31
0.0000000000
11
-0.8754686909
21
24.0120498426
31
0.0000000000
11
-0.8457506491
21
24.0153914239
31
0.0000000000
0
SPLINE
5
317
100
AcDbEntity
8
0
100
AcDbSpline
62
7
6
CONTINUOUS
70
0
71
3
72
13
73
9
74
7
42
0.0000001000
43
0.0000001000
44
0.0000000001
12
-0.0020097234
22
0.8154567102
32
0.0000000000
13
0.8152807149
23
0.0170599284
33
0.0000000000
40
0.0000000000
40
0.0000000000
40
0.0000000000
40
0.0000000000
40
0.2227327265
40
0.4335350580
40
0.6213571467
40
0.7781466692
40
0.9015183542
40
1.0000000000
40
1.0000000000
40
1.0000000000
40
1.0000000000
10
1.0321228219
20
24.3125912970
30
0.0000000000
10
1.0319736115
20
24.3731342624
30
0.0000000000
10
1.0380361739
20
24.4911085785
30
0.0000000000
10
1.0657790196
20
24.6580883742
30
0.0000000000
10
1.1100783574
20
24.8030579347
30
0.0000000000
10
1.1684963712
20
24.9169493961
30
0.0000000000
10
1.2383013591
20
24.9952220549
30
0.0000000000
10
1.2981588310
20
25.0181664724
30
0.0000000000
10
1.3249222265
20
25.0187265024
30
0.0000000000
11
1.0321228219
21
24.3125912970
31
0.0000000000
11
1.0417120106
21
24.4939674361
31
0.0000000000
11
1.0707190707
21
24.6634030887
31
0.0000000000
11
1.1171672190
21
24.8093514950
31
0.0000000000
11
1.1778910910
21
24.9218665124
31
0.0000000000
11
1.2487524551
21
24.9932804283
31
0.0000000000
11
1.3249222265
21
25.0187265024
31
0.0000000000
0
SPLINE
5
318
100
AcDbEntity
8
0
100
AcDbSpline
62
7
6
CONTINUOUS
70
0
71
3
72
12
73
8
74
6
42
0.0000001000
43
0.0000001000
44
0.0000000001
12
0.0011019941
22
-0.4471403834
32
0.0000000000
13
-0.4471412338
23
0.0006737566
33
0.0000000000
40
0.0000000000
40
0.0000000000
40
0.0000000000
40
0.0000000000
40
0.2088739997
40
0.4150737262
40
0.6146066559
40
0.8098095550
40
1.0000000000
40
1.0000000000
40
1.0000000000
40
1.0000000000
10
6.5568658657
20
-17.9307379197
30
0.0000000000
10
6.5569425916
20
-17.9618699198
30
0.0000000000
10
6.5482815554
20
-18.0241270049
30
0.0000000000
10
6.5097722547
20
-18.1086656754
30
0.0000000000
10
6.4489828271
20
-18.1764671093
30
0.0000000000
10
6.3717688011
20
-18.2202534397
30
0.0000000000
10
6.3138417834
20
-18.2303130174
30
0.0000000000
10
6.2854944533
20
-18.2302703034
30
0.0000000000
11
6.5568658657
21
-17.9307379197
31
0.0000000000
11
6.5438331524
21
-18.0232204274
31
0.0000000000
11
6.5053198460
21
-18.1069918922
31
0.0000000000
11
6.4454334098
21
-18.1731261060
31
0.0000000000
11
6.3692978081
21
-18.2158081377
31
0.0000000000
11
6.2854944533
21
-18.2302703034
31
0.0000000000
0
SPLINE
5
319
100
AcDbEntity
8
0
100
AcDbSpline
62
7
6
CONTINUOUS
70
0
71
3
72
12
73
8
74
6
42
0.0000001000
43
0.0000001000
44
0.0000000001
12
0.4482885896
22
-0.0006754854
32
0.0000000000
13
0.0011048218
23
-0.4482877371
33
0.0000000000
40
0.0000000000
40
0.0000000000
40
0.0000000000
40
0.0000000000
40
0.1899583183
40
0.3853228276
40
0.5851332423
40
0.7914280234
40
1.0000000000
40
1.0000000000
40
1.0000000000
40
1.0000000000
10
6.1957888620
20
18.1682848842
30
0.0000000000
10
6.2241742442
20
18.1682421129
30
0.0000000000
10
6.2821993500
20
18.1579727277
30
0.0000000000
10
6.3595594888
20
18.1139685870
30
0.0000000000
10
6.4206397762
20
18.0460388067
30
0.0000000000
10
6.4595662725
20
17.9614360621
30
0.0000000000
10
6.4685619012
20
17.8990992160
30
0.0000000000
10
6.4686387128
20
17.8679324628
30
0.0000000000
11
6.1957888620
21
18.1682848842
31
0.0000000000
11
6.2796641247
21
18.1535700588
31
0.0000000000
11
6.3560106755
21
18.1106582656
31
0.0000000000
11
6.4162235382
21
18.0443430851
31
0.0000000000
11
6.4551500479
21
17.9604549332
31
0.0000000000
11
6.4686387128
21
17.8679324628
31
0.0000000000
0
SPLINE
5
31A
100
AcDbEntity
8
0
100
AcDbSpline
62
7
6
CONTINUOUS
70
0
71
3
72
8
73
4
74
2
42
0.0000001000
43
0.0000001000
44
0.0000000001
12
0.0822499938
22
0.0375595141
32
0.0000000000
13
0.0897637906
23
0.0059591889
33
0.0000000000
40
0.0000000000
40
0.0000000000
40
0.0000000000
40
0.0000000000
40
1.0000000000
40
1.0000000000
40
1.0000000000
40
1.0000000000
10
-17.7022238255
20
18.0473095435
30
0.0000000000
10
-17.6748071609
20
18.0598293815
30
0.0000000000
10
-17.6449626544
20
18.0673030836
30
0.0000000000
10
-17.6150413909
20
18.0692894799
30
0.0000000000
11
-17.7022238255
21
18.0473095435
31
0.0000000000
11
-17.6150413909
21
18.0692894799
31
0.0000000000
0
SPLINE
5
31B
100
AcDbEntity
8
0
100
AcDbSpline
62
7
6
CONTINUOUS
70
0
71
3
72
13
73
9
74
7
42
0.0000001000
43
0.0000001000
44
0.0000000001
12
-0.9766002487
22
-0.4501138043
32
0.0000000000
13
-0.0142483093
23
-1.0682984285
33
0.0000000000
40
0.0000000000
40
0.0000000000
40
0.0000000000
40
0.0000000000
40
0.0679327152
40
0.2258694728
40
0.4087047399
40
0.6259474511
40
0.8596740147
40
1.0000000000
40
1.0000000000
40
1.0000000000
40
1.0000000000
10
-18.8565705619
20
17.5188187421
30
0.0000000000
10
-18.8786849308
20
17.5086262578
30
0.0000000000
10
-18.9495947085
20
17.4687758564
30
0.0000000000
10
-19.0557758105
20
17.3660314505
30
0.0000000000
10
-19.1551350342
20
17.1916759425
30
0.0000000000
10
-19.2236649854
20
16.9754514180
30
0.0000000000
10
-19.2556613817
20
16.7667636835
30
0.0000000000
10
-19.2623944450
20
16.6335848751
30
0.0000000000
10
-19.2630609143
20
16.5836148653
30
0.0000000000
11
-18.8565705619
21
17.5188187421
31
0.0000000000
11
-18.9202325039
21
17.4831238401
31
0.0000000000
11
-19.0433239060
21
17.3678207132
31
0.0000000000
11
-19.1431651518
21
17.2000290308
31
0.0000000000
11
-19.2162302250
21
16.9798421615
31
0.0000000000
11
-19.2554415608
21
16.7333453452
31
0.0000000000
11
-19.2630609143
21
16.5836148653
31
0.0000000000
0
SPLINE
5
31C
100
AcDbEntity
8
0
100
AcDbSpline
62
7
6
CONTINUOUS
70
0
71
3
72
10
73
6
74
4
42
0.0000001000
43
0.0000001000
44
0.0000000001
12
-0.4470457402
22
-33.3112954463
32
0.0000000000
13
0.6115583071
23
-33.3086816758
33
0.0000000000
40
0.0000000000
40
0.0000000000
40
0.0000000000
40
0.0000000000
40
0.3326301153
40
0.6677259665
40
1.0000000000
40
1.0000000000
40
1.0000000000
40
1.0000000000
10
-19.2630507909
20
16.5836249761
30
0.0000000000
10
-19.3126177496
20
12.8901782940
30
0.0000000000
10
-19.3729253569
20
5.4753181696
30
0.0000000000
10
-19.3455302704
20
-5.6296001726
30
0.0000000000
10
-19.2486847307
20
-13.0401185911
30
0.0000000000
10
-19.1809497488
20
-16.7293219284
30
0.0000000000
11
-19.2630507909
21
16.5836249761
31
0.0000000000
11
-19.3531975089
21
5.5026540752
31
0.0000000000
11
-19.3256458019
21
-5.6607926062
31
0.0000000000
11
-19.1809497488
21
-16.7293219284
31
0.0000000000
0
SPLINE
5
31D
100
AcDbEntity
8
0
100
AcDbSpline
62
7
6
CONTINUOUS
70
0
71
3
72
13
73
9
74
7
42
0.0000001000
43
0.0000001000
44
0.0000000001
12
0.0195505699
22
-1.0704805829
32
0.0000000000
13
0.9957600923
23
-0.4141244024
33
0.0000000000
40
0.0000000000
40
0.0000000000
40
0.0000000000
40
0.0000000000
40
0.1502136616
40
0.3864873436
40
0.6031746092
40
0.7831045367
40
0.9387632713
40
1.0000000000
40
1.0000000000
40
1.0000000000
40
1.0000000000
10
-19.1809542505
20
-16.7293037443
30
0.0000000000
10
-19.1799753296
20
-16.7829040137
30
0.0000000000
10
-19.1719607772
20
-16.9207656092
30
0.0000000000
10
-19.1365033784
20
-17.1337144310
30
0.0000000000
10
-19.0634801786
20
-17.3487879694
30
0.0000000000
10
-18.9590558287
20
-17.5185144320
30
0.0000000000
10
-18.8510848027
20
-17.6136391484
30
0.0000000000
10
-18.7812312969
20
-17.6489166320
30
0.0000000000
10
-18.7609056000
20
-17.6573698399
30
0.0000000000
11
-19.1809542505
21
-16.7293037443
31
0.0000000000
11
-19.1715240699
21
-16.8898541293
31
0.0000000000
11
-19.1283768433
21
-17.1390001091
31
0.0000000000
11
-19.0505141999
21
-17.3574309796
31
0.0000000000
11
-18.9464588158
21
-17.5194512893
31
0.0000000000
11
-18.8198111822
21
-17.6276642218
31
0.0000000000
11
-18.7609056000
21
-17.6573698399
31
0.0000000000
0
SPLINE
5
31E
100
AcDbEntity
8
0
100
AcDbSpline
62
7
6
CONTINUOUS
70
0
71
3
72
8
73
4
74
2
42
0.0000001000
43
0.0000001000
44
0.0000000001
12
0.0848164942
22
-0.0349736932
32
0.0000000000
13
0.0909162643
23
-0.0020192035
33
0.0000000000
40
0.0000000000
40
0.0000000000
40
0.0000000000
40
0.0000000000
40
1.0000000000
40
1.0000000000
40
1.0000000000
40
1.0000000000
10
-17.6039848728
20
-18.1355037835
30
0.0000000000
10
-17.5757127081
20
-18.1471616812
30
0.0000000000
10
-17.5452157158
20
-18.1536484619
30
0.0000000000
10
-17.5149102944
20
-18.1543215297
30
0.0000000000
11
-17.6039848728
21
-18.1355037835
31
0.0000000000
11
-17.5149102944
21
-18.1543215297
31
0.0000000000
0
SPLINE
5
31F
100
AcDbEntity
8
0
100
AcDbSpline
62
9
6
CONTINUOUS
70
0
71
3
72
10
73
6
74
4
42
0.0000001000
43
0.0000001000
44
0.0000000001
12
-0.6118295169
22
33.3226696261
32
0.0000000000
13
0.4472478653
23
33.3252849307
33
0.0000000000
40
0.0000000000
40
0.0000000000
40
0.0000000000
40
0.0000000000
40
0.3332333355
40
0.6666301696
40
1.0000000000
40
1.0000000000
40
1.0000000000
40
1.0000000000
10
-19.0070990378
20
-16.7382164568
30
0.0000000000
10
-19.0750597013
20
-13.0368083413
30
0.0000000000
10
-19.1717276653
20
-5.6313925483
30
0.0000000000
10
-19.1990956016
20
5.4781890693
30
0.0000000000
10
-19.1389341650
20
12.8855075977
30
0.0000000000
10
-19.0892345167
20
16.5887224597
30
0.0000000000
11
-19.0070990378
21
-16.7382164568
31
0.0000000000
11
-19.1521076544
21
-5.6330672591
31
0.0000000000
11
-19.1794923868
21
5.4784440277
31
0.0000000000
11
-19.0892345167
21
16.5887224597
31
0.0000000000
0
SPLINE
5
320
100
AcDbEntity
8
0
100
AcDbSpline
62
9
6
CONTINUOUS
70
0
71
3
72
13
73
9
74
7
42
0.0000001000
43
0.0000001000
44
0.0000000001
12
-0.9708968846
22
-0.4167739692
32
0.0000000000
13
-0.0153533867
23
-1.0564589795
33
0.0000000000
40
0.0000000000
40
0.0000000000
40
0.0000000000
40
0.0000000000
40
0.1081336155
40
0.2414799006
40
0.4018950607
40
0.5861651915
40
0.7881556797
40
1.0000000000
40
1.0000000000
40
1.0000000000
40
1.0000000000
10
2.7718511541
20
17.5091310274
30
0.0000000000
10
2.7368556239
20
17.4941086020
30
0.0000000000
10
2.6672641235
20
17.4410273337
30
0.0000000000
10
2.5847466633
20
17.3247261778
30
0.0000000000
10
2.5152761088
20
17.1704749987
30
0.0000000000
10
2.4621933218
20
16.9848779306
30
0.0000000000
10
2.4278416668
20
16.7766589972
30
0.0000000000
10
2.4187512582
20
16.6309172722
30
0.0000000000
10
2.4176670822
20
16.5563156608
30
0.0000000000
11
2.7718511541
21
17.5091310274
31
0.0000000000
11
2.6785426483
21
17.4432010168
31
0.0000000000
11
2.5939359136
21
17.3305439094
31
0.0000000000
11
2.5223431950
21
17.1769166992
31
0.0000000000
11
2.4674010315
21
16.9901353708
31
0.0000000000
11
2.4319044080
21
16.7796908640
31
0.0000000000
11
2.4176670822
21
16.5563156608
31
0.0000000000
0
SPLINE
5
321
100
AcDbEntity
8
0
100
AcDbSpline
62
9
6
CONTINUOUS
70
0
71
3
72
12
73
8
74
6
42
0.0000001000
43
0.0000001000
44
0.0000000001
12
0.0115813325
22
0.8481876621
32
0.0000000000
13
0.4638423444
23
0.7117784072
33
0.0000000000
40
0.0000000000
40
0.0000000000
40
0.0000000000
40
0.0000000000
40
0.2638116102
40
0.5150536356
40
0.7436551694
40
0.9416680030
40
1.0000000000
40
1.0000000000
40
1.0000000000
40
1.0000000000
10
-19.0892345167
20
16.5887224597
30
0.0000000000
10
-19.0882160867
20
16.6633097107
30
0.0000000000
10
-19.0796211623
20
16.8089389110
30
0.0000000000
10
-19.0470952586
20
17.0170352937
30
0.0000000000
10
-18.9968528877
20
17.2024698418
30
0.0000000000
10
-18.9427963175
20
17.3291699038
30
0.0000000000
10
-18.9056516375
20
17.3916202456
30
0.0000000000
10
-18.8966326874
20
17.4054600642
30
0.0000000000
11
-19.0892345167
21
16.5887224597
31
0.0000000000
11
-19.0757562193
21
16.8120988066
31
0.0000000000
11
-19.0421083658
21
17.0225460992
31
0.0000000000
11
-18.9900104727
21
17.2093317134
31
0.0000000000
11
-18.9221126290
21
17.3629644910
31
0.0000000000
11
-18.8966326874
21
17.4054600642
31
0.0000000000
0
SPLINE
5
322
100
AcDbEntity
8
0
100
AcDbSpline
62
9
6
CONTINUOUS
70
0
71
3
72
9
73
5
74
3
42
0.0000001000
43
0.0000001000
44
0.0000000001
12
0.0701012833
22
0.1075722827
32
0.0000000000
13
0.0987891787
23
0.0836856166
33
0.0000000000
40
0.0000000000
40
0.0000000000
40
0.0000000000
40
0.0000000000
40
0.6929904609
40
1.0000000000
40
1.0000000000
40
1.0000000000
40
1.0000000000
10
-18.8966326874
20
17.4054600642
30
0.0000000000
10
-18.8804395139
20
17.4303089195
30
0.0000000000
10
-18.8544368162
20
17.4644408185
30
0.0000000000
10
-18.8231507542
20
17.4944353403
30
0.0000000000
10
-18.8130410141
20
17.5029994345
30
0.0000000000
11
-18.8966326874
21
17.4054600642
31
0.0000000000
11
-18.8418630104
21
17.4756281638
31
0.0000000000
11
-18.8130410141
21
17.5029994345
31
0.0000000000
0
SPLINE
5
323
100
AcDbEntity
8
0
100
AcDbSpline
62
9
6
CONTINUOUS
70
0
71
3
72
8
73
4
74
2
42
0.0000001000
43
0.0000001000
44
0.0000000001
12
0.0282315718
22
0.0239153370
32
0.0000000000
13
0.0308710287
23
0.0199488014
33
0.0000000000
40
0.0000000000
40
0.0000000000
40
0.0000000000
40
0.0000000000
40
1.0000000000
40
1.0000000000
40
1.0000000000
40
1.0000000000
10
-18.8130410141
20
17.5029994345
30
0.0000000000
10
-18.8036304902
20
17.5109712135
30
0.0000000000
10
-18.7937827336
20
17.5183845514
30
0.0000000000
10
-18.7834923907
20
17.5250341519
30
0.0000000000
11
-18.8130410141
21
17.5029994345
31
0.0000000000
11
-18.7834923907
21
17.5250341519
31
0.0000000000
0
SPLINE
5
324
100
AcDbEntity
8
0
100
AcDbSpline
62
9
6
CONTINUOUS
70
0
71
3
72
8
73
4
74
2
42
0.0000001000
43
0.0000001000
44
0.0000000001
12
0.0289664567
22
0.0187180705
32
0.0000000000
13
0.0313176883
23
0.0141748386
33
0.0000000000
40
0.0000000000
40
0.0000000000
40
0.0000000000
40
0.0000000000
40
1.0000000000
40
1.0000000000
40
1.0000000000
40
1.0000000000
10
-18.7834923907
20
17.5250341519
30
0.0000000000
10
-18.7738369051
20
17.5312735087
30
0.0000000000
10
-18.7637917589
20
17.5368404579
30
0.0000000000
10
-18.7533525295
20
17.5415654041
30
0.0000000000
11
-18.7834923907
21
17.5250341519
31
0.0000000000
11
-18.7533525295
21
17.5415654041
31
0.0000000000
0
SPLINE
5
325
100
AcDbEntity
8
0
100
AcDbSpline
62
9
6
CONTINUOUS
70
0
71
3
72
13
73
9
74
7
42
0.0000001000
43
0.0000001000
44
0.0000000001
12
0.0203486805
22
-1.0460489532
32
0.0000000000
13
0.9754461497
23
-0.3783348918
33
0.0000000000
40
0.0000000000
40
0.0000000000
40
0.0000000000
40
0.0000000000
40
0.2134301689
40
0.4161978786
40
0.6004706599
40
0.7602455870
40
0.8926049319
40
1.0000000000
40
1.0000000000
40
1.0000000000
40
1.0000000000
10
2.4998025611
20
-16.7706232557
30
0.0000000000
10
2.5012502352
20
-16.8450427239
30
0.0000000000
10
2.5110173273
20
-16.9901407692
30
0.0000000000
10
2.5463512657
20
-17.1969499481
30
0.0000000000
10
2.6003000803
20
-17.3804054730
30
0.0000000000
10
2.6705137521
20
-17.5319106689
30
0.0000000000
10
2.7536942858
20
-17.6451105357
30
0.0000000000
10
2.8237280023
20
-17.6953851218
30
0.0000000000
10
2.8586473709
20
-17.7089288889
30
0.0000000000
11
2.4998025611
21
-16.7706232557
31
0.0000000000
11
2.5151394496
21
-16.9933965866
31
0.0000000000
11
2.5516692006
21
-17.2023729289
31
0.0000000000
11
2.6075257189
21
-17.3868990549
31
0.0000000000
11
2.6798685668
21
-17.5375984917
31
0.0000000000
11
2.7650230909
21
-17.6468027466
31
0.0000000000
11
2.8586473709
21
-17.7089288889
31
0.0000000000
0
SPLINE
5
326
100
AcDbEntity
8
0
100
AcDbSpline
62
9
6
CONTINUOUS
70
0
71
3
72
8
73
4
74
2
42
0.0000001000
43
0.0000001000
44
0.0000000001
12
-0.1003340170
22
0.0410112757
32
0.0000000000
13
-0.0771484376
23
0.0775225218
33
0.0000000000
40
0.0000000000
40
0.0000000000
40
0.0000000000
40
0.0000000000
40
1.0000000000
40
1.0000000000
40
1.0000000000
40
1.0000000000
10
-18.6665563127
20
-17.6764945123
30
0.0000000000
10
-18.7000009850
20
-17.6628240870
30
0.0000000000
10
-18.7296662915
20
-17.6402164404
30
0.0000000000
10
-18.7553824373
20
-17.6143755998
30
0.0000000000
11
-18.6665563127
21
-17.6764945123
31
0.0000000000
11
-18.7553824373
21
-17.6143755998
31
0.0000000000
0
SPLINE
5
327
100
AcDbEntity
8
0
100
AcDbSpline
62
9
6
CONTINUOUS
70
0
71
3
72
8
73
4
74
2
42
0.0000001000
43
0.0000001000
44
0.0000000001
12
-0.0620654228
22
0.0623663712
32
0.0000000000
13
-0.0488887173
23
0.0723907999
33
0.0000000000
40
0.0000000000
40
0.0000000000
40
0.0000000000
40
0.0000000000
40
1.0000000000
40
1.0000000000
40
1.0000000000
40
1.0000000000
10
-18.7553824373
20
-17.6143755998
30
0.0000000000
10
-18.7760709116
20
-17.5935868094
30
0.0000000000
10
-18.7942034500
20
-17.5707054638
30
0.0000000000
10
-18.8104996891
20
-17.5465751972
30
0.0000000000
11
-18.7553824373
21
-17.6143755998
31
0.0000000000
11
-18.8104996891
21
-17.5465751972
31
0.0000000000
0
SPLINE
5
328
100
AcDbEntity
8
0
100
AcDbSpline
62
9
6
CONTINUOUS
70
0
71
3
72
12
73
8
74
6
42
0.0000001000
43
0.0000001000
44
0.0000000001
12
-0.4716705184
22
0.6984148482
32
0.0000000000
13
-0.0156257339
23
0.8411534663
33
0.0000000000
40
0.0000000000
40
0.0000000000
40
0.0000000000
40
0.0000000000
40
0.0578137855
40
0.2546445007
40
0.4828465570
40
0.7346380300
40
1.0000000000
40
1.0000000000
40
1.0000000000
40
1.0000000000
10
-18.8104996891
20
-17.5465751972
30
0.0000000000
10
-18.8195893752
20
-17.5331158618
30
0.0000000000
10
-18.8571091362
20
-17.4721219249
30
0.0000000000
10
-18.9118305936
20
-17.3475596152
30
0.0000000000
10
-18.9629360561
20
-17.1642787936
30
0.0000000000
10
-18.9964445922
20
-16.9576001085
30
0.0000000000
10
-19.0057168793
20
-16.8126198371
30
0.0000000000
10
-19.0070990378
20
-16.7382164568
30
0.0000000000
11
-18.8104996891
21
-17.5465751972
31
0.0000000000
11
-18.8361797199
21
-17.5051779105
31
0.0000000000
11
-18.9048276108
21
-17.3544840412
31
0.0000000000
11
-18.9578402573
21
-17.1699622005
31
0.0000000000
11
-18.9925212158
21
-16.9609886439
31
0.0000000000
11
-19.0070990378
21
-16.7382164568
31
0.0000000000
0
SPLINE
5
329
100
AcDbEntity
8
0
100
AcDbSpline
62
9
6
CONTINUOUS
70
0
71
3
72
11
73
7
74
5
42
0.0000001000
43
0.0000001000
44
0.0000000001
12
-0.0335216266
22
-0.4506716017
32
0.0000000000
13
-0.4519159746
23
-0.0007375311
33
0.0000000000
40
0.0000000000
40
0.0000000000
40
0.0000000000
40
0.0000000000
40
0.2580591110
40
0.5147414604
40
0.7629118812
40
1.0000000000
40
1.0000000000
40
1.0000000000
40
1.0000000000
10
3.1497456813
20
-17.4134957518
30
0.0000000000
10
3.1468621609
20
-17.4522623894
30
0.0000000000
10
3.1271244420
20
-17.5291656458
30
0.0000000000
10
3.0613083706
20
-17.6261309391
30
0.0000000000
10
2.9681229081
20
-17.6923339920
30
0.0000000000
10
2.8943620070
20
-17.7088706023
30
0.0000000000
10
2.8586473709
20
-17.7089288889
30
0.0000000000
11
3.1497456813
21
-17.4134957518
31
0.0000000000
11
3.1208714158
21
-17.5264859227
31
0.0000000000
11
3.0554416366
21
-17.6222706501
31
0.0000000000
11
2.9633795274
21
-17.6863230698
31
0.0000000000
11
2.8586473709
21
-17.7089288889
31
0.0000000000
0
SPLINE
5
32A
100
AcDbEntity
8
0
100
AcDbSpline
62
7
6
CONTINUOUS
70
0
71
3
72
11
73
7
74
5
42
0.0000001000
43
0.0000001000
44
0.0000000001
12
-0.0177621882
22
-0.4493428037
32
0.0000000000
13
-0.4496932192
23
0.0006776019
33
0.0000000000
40
0.0000000000
40
0.0000000000
40
0.0000000000
40
0.0000000000
40
0.2605586465
40
0.5167106680
40
0.7633718076
40
1.0000000000
40
1.0000000000
40
1.0000000000
40
1.0000000000
10
4.3864787566
20
-17.8876213750
30
0.0000000000
10
4.3849360593
20
-17.9266480926
30
0.0000000000
10
4.3681096594
20
-18.0041537768
30
0.0000000000
10
4.3056012720
20
-18.1028649062
30
0.0000000000
10
4.2142064224
20
-18.1702505399
30
0.0000000000
10
4.1410119537
20
-18.1870035579
30
0.0000000000
10
4.1055419225
20
-18.1869501114
30
0.0000000000
11
4.3864787566
21
-17.8876213750
31
0.0000000000
11
4.3614859687
21
-18.0020964463
31
0.0000000000
11
4.2993805424
21
-18.0991100661
31
0.0000000000
11
4.2094601953
21
-18.1640563064
31
0.0000000000
11
4.1055419225
21
-18.1869501114
31
0.0000000000
0
SPLINE
5
32B
100
AcDbEntity
8
0
100
AcDbSpline
62
9
6
CONTINUOUS
70
0
71
3
72
8
73
4
74
2
42
0.0000001000
43
0.0000001000
44
0.0000000001
12
0.0959787230
22
0.0438570711
32
0.0000000000
13
0.1045845516
23
0.0002021218
33
0.0000000000
40
0.0000000000
40
0.0000000000
40
0.0000000000
40
0.0000000000
40
1.0000000000
40
1.0000000000
40
1.0000000000
40
1.0000000000
10
-18.8555689471
20
17.5193733078
30
0.0000000000
10
-18.8235760394
20
17.5339923315
30
0.0000000000
10
-18.7882140467
20
17.5414980302
30
0.0000000000
10
-18.7533525295
20
17.5415654041
30
0.0000000000
11
-18.8555689471
21
17.5193733078
31
0.0000000000
11
-18.7533525295
21
17.5415654041
31
0.0000000000
0
SPLINE
5
32C
100
AcDbEntity
8
0
100
AcDbSpline
62
9
6
CONTINUOUS
70
0
71
3
72
11
73
7
74
5
42
0.0000001000
43
0.0000001000
44
0.0000000001
12
-0.3939775782
22
-0.0433480834
32
0.0000000000
13
-0.3963550168
23
0.0002985532
33
0.0000000000
40
0.0000000000
40
0.0000000000
40
0.0000000000
40
0.0000000000
40
0.1762217676
40
0.4274143367
40
0.7163173745
40
1.0000000000
40
1.0000000000
40
1.0000000000
40
1.0000000000
10
2.8958090014
20
-16.7566776718
30
0.0000000000
10
2.8726665263
20
-16.7592239638
30
0.0000000000
10
2.8162897930
20
-16.7629599953
30
0.0000000000
10
2.7217507970
20
-16.7671484199
30
0.0000000000
10
2.6129400833
20
-16.7699104343
30
0.0000000000
10
2.5372910397
20
-16.7706504787
30
0.0000000000
10
2.4998113625
20
-16.7706222472
30
0.0000000000
11
2.8958090014
21
-16.7566776718
31
0.0000000000
11
2.8261729574
21
-16.7620944207
31
0.0000000000
11
2.7267151558
21
-16.7666365191
31
0.0000000000
11
2.6122460267
21
-16.7696275960
31
0.0000000000
11
2.4998113625
21
-16.7706222472
31
0.0000000000
0
SPLINE
5
32D
100
AcDbEntity
8
0
100
AcDbSpline
62
9
6
CONTINUOUS
70
0
71
3
72
11
73
7
74
5
42
0.0000001000
43
0.0000001000
44
0.0000000001
12
-0.3952609019
22
0.0275797606
32
0.0000000000
13
-0.3962209248
23
0.0008958352
33
0.0000000000
40
0.0000000000
40
0.0000000000
40
0.0000000000
40
0.0000000000
40
0.1760232821
40
0.4272080531
40
0.7162015661
40
1.0000000000
40
1.0000000000
40
1.0000000000
40
1.0000000000
10
2.8137315009
20
16.5467363466
30
0.0000000000
10
2.7905397938
20
16.5483545732
30
0.0000000000
10
2.7341573617
20
16.5507833000
30
0.0000000000
10
2.6396102055
20
16.5535945838
30
0.0000000000
10
2.5307987560
20
16.5555738585
30
0.0000000000
10
2.4551493762
20
16.5562309151
30
0.0000000000
10
2.4176670835
20
16.5563156607
30
0.0000000000
11
2.8137315009
21
16.5467363466
31
0.0000000000
11
2.7440746904
21
16.5502283617
31
0.0000000000
11
2.6445962103
21
16.5532682655
31
0.0000000000
11
2.5301105479
21
16.5554033512
31
0.0000000000
11
2.4176670835
21
16.5563156607
31
0.0000000000
0
SPLINE
5
32E
100
AcDbEntity
8
0
100
AcDbSpline
62
9
6
CONTINUOUS
70
0
71
3
72
11
73
7
74
5
42
0.0000001000
43
0.0000001000
44
0.0000000001
12
-0.0358787103
22
0.4510276890
32
0.0000000000
13
-0.4524468357
23
0.0022625118
33
0.0000000000
40
0.0000000000
40
0.0000000000
40
0.0000000000
40
0.0000000000
40
0.2574515832
40
0.5142363015
40
0.7628124311
40
1.0000000000
40
1.0000000000
40
1.0000000000
40
1.0000000000
10
3.0644056639
20
17.2137029666
30
0.0000000000
10
3.0613266536
20
17.2524088974
30
0.0000000000
10
3.0411433891
20
17.3292099263
30
0.0000000000
10
2.9748649456
20
17.4259690767
30
0.0000000000
10
2.8814696554
20
17.4921812096
30
0.0000000000
10
2.8076227438
20
17.5089521481
30
0.0000000000
10
2.7718511555
20
17.5091310280
30
0.0000000000
11
3.0644056639
21
17.2137029666
31
0.0000000000
11
3.0349770315
21
17.3264088674
31
0.0000000000
11
2.9690774753
21
17.4220943494
31
0.0000000000
11
2.8766987491
21
17.4862459046
31
0.0000000000
11
2.7718511555
21
17.5091310280
31
0.0000000000
0
SPLINE
5
32F
100
AcDbEntity
8
0
100
AcDbSpline
62
7
6
CONTINUOUS
70
0
71
3
72
11
73
7
74
5
42
0.0000001000
43
0.0000001000
44
0.0000000001
12
-0.0200418068
22
0.4500804972
32
0.0000000000
13
-0.4505259894
23
0.0006788567
33
0.0000000000
40
0.0000000000
40
0.0000000000
40
0.0000000000
40
0.0000000000
40
0.2600777592
40
0.5163915877
40
0.7634144261
40
1.0000000000
40
1.0000000000
40
1.0000000000
40
1.0000000000
10
4.2986792612
20
17.7375245300
30
0.0000000000
10
4.2969417852
20
17.7765431724
30
0.0000000000
10
4.2796737974
20
17.8540454982
30
0.0000000000
10
4.2166969830
20
17.9526817662
30
0.0000000000
10
4.1250929507
20
18.0201630951
30
0.0000000000
10
4.0517953363
20
18.0372029751
30
0.0000000000
10
4.0162660197
20
18.0372565110
30
0.0000000000
11
4.2986792612
21
17.7375245300
31
0.0000000000
11
4.2731225234
21
17.8518753614
31
0.0000000000
11
4.2105388286
21
17.9489218838
31
0.0000000000
11
4.1202979001
21
18.0140533930
31
0.0000000000
11
4.0162660197
21
18.0372565110
31
0.0000000000
0
SPLINE
5
330
100
AcDbEntity
8
0
100
AcDbSpline
62
9
6
CONTINUOUS
70
0
71
3
72
13
73
9
74
7
42
0.0000001000
43
0.0000001000
44
0.0000000001
12
-0.6820146620
22
-0.2896948839
32
0.0000000000
13
-0.0109468343
23
-0.7409097731
33
0.0000000000
40
0.0000000000
40
0.0000000000
40
0.0000000000
40
0.0000000000
40
0.1082223855
40
0.2419445484
40
0.4026409011
40
0.5872014995
40
0.7893157680
40
1.0000000000
40
1.0000000000
40
1.0000000000
40
1.0000000000
10
3.0644056639
20
17.2137029666
30
0.0000000000
10
3.0398025793
20
17.2032524761
30
0.0000000000
10
2.9906592013
20
17.1663211721
30
0.0000000000
10
2.9321580059
20
17.0849456044
30
0.0000000000
10
2.8828484236
20
16.9767684684
30
0.0000000000
10
2.8451962568
20
16.8465380778
30
0.0000000000
10
2.8209098095
20
16.7007234878
30
0.0000000000
10
2.8145002760
20
16.5987690154
30
0.0000000000
10
2.8137315009
20
16.5467363466
30
0.0000000000
11
3.0644056639
21
17.2137029666
31
0.0000000000
11
2.9986378566
21
17.1678192416
31
0.0000000000
11
2.9386491150
21
17.0889550620
31
0.0000000000
11
2.8878601610
21
16.9812554009
31
0.0000000000
11
2.8488818076
21
16.8501701242
31
0.0000000000
11
2.8237450099
21
16.7025299164
31
0.0000000000
11
2.8137315009
21
16.5467363466
31
0.0000000000
0
SPLINE
5
331
100
AcDbEntity
8
0
100
AcDbSpline
62
9
6
CONTINUOUS
70
0
71
3
72
10
73
6
74
4
42
0.0000001000
43
0.0000001000
44
0.0000000001
12
0.0295770916
22
-0.0451460492
32
0.0000000000
13
0.1734505122
23
-0.0003920621
33
0.0000000000
40
0.0000000000
40
0.0000000000
40
0.0000000000
40
0.0000000000
40
0.1081366195
40
0.4599511408
40
1.0000000000
40
1.0000000000
40
1.0000000000
40
1.0000000000
10
-19.1807359176
20
-16.7291818390
30
0.0000000000
10
-19.1796697954
20
-16.7308091527
30
0.0000000000
10
-19.1390328778
20
-16.7377784434
30
0.0000000000
10
-19.0953515750
20
-16.7359916246
30
0.0000000000
10
-19.0383229529
20
-16.7381458790
30
0.0000000000
10
-19.0070990359
20
-16.7382164565
30
0.0000000000
11
-19.1807359176
21
-16.7291818390
31
0.0000000000
11
-19.1616975883
21
-16.7336555283
31
0.0000000000
11
-19.1007619314
21
-16.7369111597
31
0.0000000000
11
-19.0070990359
21
-16.7382164565
31
0.0000000000
0
SPLINE
5
332
100
AcDbEntity
8
0
100
AcDbSpline
62
9
6
CONTINUOUS
70
0
71
3
72
10
73
6
74
4
42
0.0000001000
43
0.0000001000
44
0.0000000001
12
0.0224631857
22
0.0281532085
32
0.0000000000
13
0.1733224350
23
-0.0001304736
33
0.0000000000
40
0.0000000000
40
0.0000000000
40
0.0000000000
40
0.0000000000
40
0.1079611045
40
0.4596295075
40
1.0000000000
40
1.0000000000
40
1.0000000000
40
1.0000000000
10
-19.2628752959
20
16.5834890771
30
0.0000000000
10
-19.2620669125
20
16.5845022276
30
0.0000000000
10
-19.2206517028
20
16.5887958335
30
0.0000000000
10
-19.1777441392
20
16.5875049186
30
0.0000000000
10
-19.1204476769
20
16.5887455030
30
0.0000000000
10
-19.0892282337
20
16.5887220016
30
0.0000000000
11
-19.2628752959
21
16.5834890771
31
0.0000000000
11
-19.2438079853
21
16.5862496313
31
0.0000000000
11
-19.1828846569
21
16.5881202952
31
0.0000000000
11
-19.0892282337
21
16.5887220016
31
0.0000000000
0
SPLINE
5
333
100
AcDbEntity
8
0
100
AcDbSpline
62
9
6
CONTINUOUS
70
0
71
3
72
8
73
4
74
2
42
0.0000001000
43
0.0000001000
44
0.0000000001
12
0.0887734773
22
-0.0365239998
32
0.0000000000
13
0.0950861895
23
-0.0004370819
33
0.0000000000
40
0.0000000000
40
0.0000000000
40
0.0000000000
40
0.0000000000
40
1.0000000000
40
1.0000000000
40
1.0000000000
40
1.0000000000
10
-18.7599271707
20
-17.6578566647
30
0.0000000000
10
-18.7303360116
20
-17.6700313313
30
0.0000000000
10
-18.6982517077
20
-17.6763488189
30
0.0000000000
10
-18.6665563112
20
-17.6764945129
30
0.0000000000
11
-18.7599271707
21
-17.6578566647
31
0.0000000000
11
-18.6665563112
21
-17.6764945129
31
0.0000000000
0
SPLINE
5
334
100
AcDbEntity
8
0
100
AcDbSpline
62
9
6
CONTINUOUS
70
0
71
3
72
10
73
6
74
4
42
0.0000001000
43
0.0000001000
44
0.0000000001
12
-0.4886149090
22
-33.3249064307
32
0.0000000000
13
0.6532139593
23
-33.3220864393
33
0.0000000000
40
0.0000000000
40
0.0000000000
40
0.0000000000
40
0.0000000000
40
0.3333697460
40
0.6667645561
40
1.0000000000
40
1.0000000000
40
1.0000000000
40
1.0000000000
10
2.4176670822
20
16.5563156608
30
0.0000000000
10
2.3633706062
20
12.8531437972
30
0.0000000000
10
2.2970800743
20
5.4458290578
30
0.0000000000
10
2.3244475175
20
-5.6638503303
30
0.0000000000
10
2.4272445465
20
-13.0692564999
30
0.0000000000
10
2.4998025611
20
-16.7706232557
30
0.0000000000
11
2.4176670822
21
16.5563156608
31
0.0000000000
11
2.3182155206
21
5.4460510819
31
0.0000000000
11
2.3456002527
21
-5.6654602049
31
0.0000000000
11
2.4998025611
21
-16.7706232557
31
0.0000000000
0
SPLINE
5
335
100
AcDbEntity
8
0
100
AcDbSpline
62
9
6
CONTINUOUS
70
0
71
3
72
13
73
9
74
7
42
0.0000001000
43
0.0000001000
44
0.0000000001
12
0.0144321086
22
-0.7336609873
32
0.0000000000
13
0.6850387513
23
-0.2630373343
33
0.0000000000
40
0.0000000000
40
0.0000000000
40
0.0000000000
40
0.0000000000
40
0.2121434209
40
0.4149156317
40
0.5994031793
40
0.7595873309
40
0.8924336216
40
1.0000000000
40
1.0000000000
40
1.0000000000
40
1.0000000000
10
2.8958090018
20
-16.7566776718
30
0.0000000000
10
2.8968295608
20
-16.8085581224
30
0.0000000000
10
2.9037083781
20
-16.9100105944
30
0.0000000000
10
2.9286591136
20
-17.0547714825
30
0.0000000000
10
2.9668919620
20
-17.1834953885
30
0.0000000000
10
3.0167109962
20
-17.2897969363
30
0.0000000000
10
3.0757061852
20
-17.3690717063
30
0.0000000000
10
3.1251833021
20
-17.4040644273
30
0.0000000000
10
3.1497456813
20
-17.4134957518
30
0.0000000000
11
2.8958090018
21
-16.7566776718
31
0.0000000000
11
2.9065805396
21
-16.9119760240
31
0.0000000000
11
2.9324156790
21
-17.0585108331
31
0.0000000000
11
2.9719951310
21
-17.1879733178
31
0.0000000000
11
3.0233230586
21
-17.2937180171
31
0.0000000000
11
3.0837258522
21
-17.3702323107
31
0.0000000000
11
3.1497456813
21
-17.4134957518
31
0.0000000000
0
SPLINE
5
336
100
AcDbEntity
8
0
100
AcDbSpline
62
9
6
CONTINUOUS
70
0
71
3
72
10
73
6
74
4
42
0.0000001000
43
0.0000001000
44
0.0000000001
12
-0.4882842396
22
-33.3013828328
32
0.0000000000
13
0.6527670591
23
-33.2985647625
33
0.0000000000
40
0.0000000000
40
0.0000000000
40
0.0000000000
40
0.0000000000
40
0.3333696082
40
0.6667649873
40
1.0000000000
40
1.0000000000
40
1.0000000000
40
1.0000000000
10
2.8137315009
20
16.5467363466
30
0.0000000000
10
2.7594717924
20
12.8461800312
30
0.0000000000
10
2.6932257766
20
5.4440891912
30
0.0000000000
10
2.7205739470
20
-5.6577481080
30
0.0000000000
10
2.8233007221
20
-13.0579284551
30
0.0000000000
10
2.8958090018
20
-16.7566776718
30
0.0000000000
11
2.8137315009
21
16.5467363466
31
0.0000000000
11
2.7143469090
21
5.4443189010
31
0.0000000000
11
2.7417124106
21
-5.6593679434
31
0.0000000000
11
2.8958090018
21
-16.7566776718
31
0.0000000000
0
SPLINE
5
337
100
AcDbEntity
8
0
100
AcDbSpline
62
9
6
CONTINUOUS
70
0
71
3
72
10
73
6
74
4
42
0.0000001000
43
0.0000001000
44
0.0000000001
12
4.5607752859
22
4.9880325246
32
2.0641015797
13
4.5872446391
23
4.9862853550
33
2.0116955059
40
0.0000000000
40
0.0000000000
40
0.0000000000
40
0.0000000000
40
0.3333333333
40
0.6666666667
40
1.0000000000
40
1.0000000000
40
1.0000000000
40
1.0000000000
10
-12.9577452720
20
7.6084313105
30
17.4000080898
10
-12.4509924625
20
8.1626571466
30
17.6293527098
10
-11.4365177863
20
9.2710696074
30
18.0860948283
10
-9.9118765034
20
10.9335190096
30
18.7653784380
10
-8.8934803475
20
12.0416726258
30
19.2143564950
10
-8.3837864987
20
12.5957043319
30
19.4378782179
11
-12.9577452720
21
7.6084313105
31
17.4000080898
11
-11.4360295748
21
9.2710413926
31
18.0851232336
11
-9.9113843449
21
10.9334825133
31
18.7644090173
11
-8.3837864987
21
12.5957043319
31
19.4378782179
0
SPLINE
5
338
100
AcDbEntity
8
0
100
AcDbSpline
62
9
6
CONTINUOUS
70
0
71
3
72
10
73
6
74
4
42
0.0000001000
43
0.0000001000
44
0.0000000001
12
4.4617729705
22
4.9836577322
32
2.2822069331
13
4.4846705446
23
4.9864421176
33
2.2281882825
40
0.0000000000
40
0.0000000000
40
0.0000000000
40
0.0000000000
40
0.3333333333
40
0.6666666667
40
1.0000000000
40
1.0000000000
40
1.0000000000
40
1.0000000000
10
-8.3212470733
20
-12.7800241172
30
19.2205990279
10
-7.8254945211
20
-12.2262843692
30
19.4741775760
10
-6.8331536303
20
-11.1186762764
30
19.9793299489
10
-5.3421108635
20
-9.4569299306
30
20.7310518582
10
-4.3463776486
20
-8.3489093278
30
21.2282012680
10
-3.8480809214
20
-7.7948602036
30
21.4757777439
11
-8.3212470733
21
-12.7800241172
31
19.2205990279
11
-6.8327317252
21
-11.1186205753
31
19.9783288406
11
-5.3416846876
21
-9.4568825042
31
20.7300522258
11
-3.8480809214
21
-7.7948602036
31
21.4757777439
0
SPLINE
5
339
100
AcDbEntity
8
0
100
AcDbSpline
62
9
6
CONTINUOUS
70
0
71
3
72
10
73
6
74
4
42
0.0000001000
43
0.0000001000
44
0.0000000001
12
4.5853914263
22
-5.0001068265
32
1.9785783273
13
4.6118496352
23
-4.9973320944
33
1.9262109722
40
0.0000000000
40
0.0000000000
40
0.0000000000
40
0.0000000000
40
0.3333333333
40
0.6666666667
40
1.0000000000
40
1.0000000000
40
1.0000000000
40
1.0000000000
10
-12.9198169766
20
-7.7811908275
30
17.2682347442
10
-12.4103290403
20
-8.3367582527
30
17.4880767806
10
-11.3903843979
20
-9.4478157800
30
17.9258147297
10
-9.8575392816
20
-11.1141185482
30
18.5765959626
10
-8.8336748106
20
-12.2247649956
30
19.0065755865
10
-8.3212470733
20
-12.7800241172
30
19.2205990279
11
-12.9198169766
21
-7.7811908275
31
17.2682347442
11
-11.3898963725
21
-9.4477685262
31
17.9248437813
11
-9.8570473499
21
-11.1140630320
31
18.5756273298
11
-8.3212470733
21
-12.7800241172
31
19.2205990279
0
SPLINE
5
33A
100
AcDbEntity
8
0
100
AcDbSpline
62
9
6
CONTINUOUS
70
0
71
3
72
10
73
6
74
4
42
0.0000001000
43
0.0000001000
44
0.0000000001
12
4.4863779560
22
-4.9999554291
32
2.1967224362
13
4.5092866956
23
-5.0017015236
33
2.1426649934
40
0.0000000000
40
0.0000000000
40
0.0000000000
40
0.0000000000
40
0.3333333333
40
0.6666666667
40
1.0000000000
40
1.0000000000
40
1.0000000000
40
1.0000000000
10
-8.3837864987
20
12.5957043319
30
19.4378782179
10
-7.8853000591
20
12.0401537287
30
19.6819584886
10
-6.8874908548
20
10.9289623933
30
20.1681124338
10
-5.3882442545
20
9.2619565689
30
20.8913319662
10
-4.3870410719
20
8.1505065482
30
21.3694772013
10
-3.8860092168
20
7.5947619344
30
21.6075510894
11
-8.3837864987
21
12.5957043319
31
19.4378782179
11
-6.8870687225
21
10.9289259231
31
20.1671105363
11
-5.3878178922
21
9.2619283678
31
20.8903316863
11
-3.8860092168
21
7.5947619344
31
21.6075510894
0
SPLINE
5
33B
100
AcDbEntity
8
0
100
AcDbSpline
62
7
6
CONTINUOUS
70
0
71
3
72
14
73
10
74
8
42
0.0000001000
43
0.0000001000
44
0.0000000001
12
-1.6904046709
22
-1.0966840843
32
0.0000000000
13
-2.0141176250
23
-0.0439127138
33
0.0000000000
40
0.0000000000
40
0.0000000000
40
0.0000000000
40
0.0000000000
40
0.0441805374
40
0.2143164227
40
0.3788417509
40
0.5386360792
40
0.6946900100
40
0.8480908762
40
1.0000000000
40
1.0000000000
40
1.0000000000
40
1.0000000000
10
-15.0334166652
20
-18.1983677050
30
0.0000000000
10
-15.0583109941
20
-18.2145184024
30
0.0000000000
10
-15.1798008389
20
-18.2917403428
30
0.0000000000
10
-15.4008274935
20
-18.4182335284
30
0.0000000000
10
-15.7017032264
20
-18.5595873434
30
0.0000000000
10
-16.0047562422
20
-18.6713488350
30
0.0000000000
10
-16.3095067623
20
-18.7532863104
30
0.0000000000
10
-16.6154027410
20
-18.8052174164
30
0.0000000000
10
-16.8202975936
20
-18.8197871965
30
0.0000000000
10
-16.9222852081
20
-18.8220107771
30
0.0000000000
11
-15.0334166652
21
-18.1983677050
31
0.0000000000
11
-15.1085511444
21
-18.2461157863
31
0.0000000000
11
-15.4062693975
21
-18.4159536913
31
0.0000000000
11
-15.7064491269
21
-18.5564977523
31
0.0000000000
11
-16.0086174864
21
-18.6675268025
31
0.0000000000
11
-16.3122986591
21
-18.7488661719
31
0.0000000000
11
-16.6170144914
21
-18.8003878721
31
0.0000000000
11
-16.9222852081
21
-18.8220107771
31
0.0000000000
0
SPLINE
5
33C
100
AcDbEntity
8
0
100
AcDbSpline
62
7
6
CONTINUOUS
70
0
71
3
72
17
73
13
74
11
42
0.0000001000
43
0.0000001000
44
0.0000000001
12
0.0009855876
22
-0.3917761436
32
0.0000000000
13
0.3913364584
23
-0.0004537230
33
0.0000000000
40
0.0000000000
40
0.0000000000
40
0.0000000000
40
0.0000000000
40
0.0644954560
40
0.1689372319
40
0.2733393215
40
0.3777691292
40
0.4822940118
40
0.5869379183
40
0.6914275475
40
0.7953557119
40
0.8981531341
40
1.0000000000
40
1.0000000000
40
1.0000000000
40
1.0000000000
10
-12.0933750576
20
-22.9280153340
30
0.0000000000
10
-12.0933538689
20
-22.9364379277
30
0.0000000000
10
-12.0921853325
20
-22.9585105303
30
0.0000000000
10
-12.0855826030
20
-22.9937043854
30
0.0000000000
10
-12.0715445484
20
-23.0322795218
30
0.0000000000
10
-12.0514049176
20
-23.0680591427
30
0.0000000000
10
-12.0256826777
20
-23.1001033993
30
0.0000000000
10
-11.9950703457
20
-23.1275266873
30
0.0000000000
10
-11.9604616284
20
-23.1495465235
30
0.0000000000
10
-11.9229547438
20
-23.1655508005
30
0.0000000000
10
-11.8837086919
20
-23.1752139984
30
0.0000000000
10
-11.8569675377
20
-23.1773836532
30
0.0000000000
10
-11.8436820737
20
-23.1773990567
30
0.0000000000
11
-12.0933750576
21
-22.9280153340
31
0.0000000000
11
-12.0920371772
21
-22.9532445241
31
0.0000000000
11
-12.0845028150
21
-22.9934159788
31
0.0000000000
11
-12.0705301047
21
-23.0318087705
31
0.0000000000
11
-12.0504845201
21
-23.0674220277
31
0.0000000000
11
-12.0248789235
21
-23.0993207016
31
0.0000000000
11
-11.9943771401
21
-23.1266451574
31
0.0000000000
11
-11.9598773626
21
-23.1485953028
31
0.0000000000
11
-11.9224700599
21
-23.1645582722
31
0.0000000000
11
-11.8834078104
21
-23.1741741612
31
0.0000000000
11
-11.8436820737
21
-23.1773990567
31
0.0000000000
0
SPLINE
5
33D
100
AcDbEntity
8
0
100
AcDbSpline
62
7
6
CONTINUOUS
70
0
71
3
72
17
73
13
74
11
42
0.0000001000
43
0.0000001000
44
0.0000000001
12
0.0009855876
22
-0.3917761436
32
0.0000000000
13
0.3913364584
23
-0.0004537230
33
0.0000000000
40
0.0000000000
40
0.0000000000
40
0.0000000000
40
0.0000000000
40
0.0644954549
40
0.1689372301
40
0.2733393189
40
0.3777691258
40
0.4822940074
40
0.5869379127
40
0.6914275410
40
0.7953557055
40
0.8981531296
40
1.0000000000
40
1.0000000000
40
1.0000000000
40
1.0000000000
10
0.7884901408
20
-22.9474258480
30
0.0000000000
10
0.7885113294
20
-22.9558484416
30
0.0000000000
10
0.7896798658
20
-22.9779210440
30
0.0000000000
10
0.7962825952
20
-23.0131148988
30
0.0000000000
10
0.8103206495
20
-23.0516900349
30
0.0000000000
10
0.8304602800
20
-23.0874696556
30
0.0000000000
10
0.8561825194
20
-23.1195139120
30
0.0000000000
10
0.8867948509
20
-23.1469372000
30
0.0000000000
10
0.9214035677
20
-23.1689570364
30
0.0000000000
10
0.9589104523
20
-23.1849613138
30
0.0000000000
10
0.9981565050
20
-23.1946245122
30
0.0000000000
10
1.0248976601
20
-23.1967941673
30
0.0000000000
10
1.0381831246
20
-23.1968095707
30
0.0000000000
11
0.7884901408
21
-22.9474258480
31
0.0000000000
11
0.7898280210
21
-22.9726550377
31
0.0000000000
11
0.7973623831
21
-23.0128264922
31
0.0000000000
11
0.8113350932
21
-23.0512192837
31
0.0000000000
11
0.8313806775
21
-23.0868325406
31
0.0000000000
11
0.8569862737
21
-23.1187312144
31
0.0000000000
11
0.8874880564
21
-23.1460556701
31
0.0000000000
11
0.9219878334
21
-23.1680058157
31
0.0000000000
11
0.9593951360
21
-23.1839687855
31
0.0000000000
11
0.9984573862
21
-23.1935846750
31
0.0000000000
11
1.0381831246
21
-23.1968095707
31
0.0000000000
0
SPLINE
5
33E
100
AcDbEntity
8
0
100
AcDbSpline
62
7
6
CONTINUOUS
70
0
71
3
72
9
73
5
74
3
42
0.0000001000
43
0.0000001000
44
0.0000000001
12
-0.0085130525
22
-0.0003617912
32
0.0000000000
13
-0.0085117292
23
-0.0003917331
33
0.0000000000
40
0.0000000000
40
0.0000000000
40
0.0000000000
40
0.0000000000
40
0.5983389702
40
1.0000000000
40
1.0000000000
40
1.0000000000
40
1.0000000000
10
0.9656614232
20
23.1391416894
30
0.0000000000
10
0.9639635262
20
23.1390695315
30
0.0000000000
10
0.9611259567
20
23.1389462290
30
0.0000000000
10
0.9582886105
20
23.1388178862
30
0.0000000000
10
0.9571490006
20
23.1387654382
30
0.0000000000
11
0.9656614232
21
23.1391416894
31
0.0000000000
11
0.9605679493
21
23.1389201736
31
0.0000000000
11
0.9571490006
21
23.1387654382
31
0.0000000000
0
SPLINE
5
33F
100
AcDbEntity
8
0
100
AcDbSpline
62
7
6
CONTINUOUS
70
0
71
3
72
31
73
27
74
25
42
0.0000001000
43
0.0000001000
44
0.0000000001
12
-0.4246760569
22
-0.0195447575
32
0.0000000000
13
0.0010445450
23
-0.4254737791
33
0.0000000000
40
0.0000000000
40
0.0000000000
40
0.0000000000
40
0.0000000000
40
0.0154926774
40
0.0372611783
40
0.0574431838
40
0.0763845537
40
0.0947760697
40
0.1133087665
40
0.1329909707
40
0.1554232377
40
0.1822553312
40
0.2141917604
40
0.2517825189
40
0.2949231994
40
0.3426346029
40
0.3935160062
40
0.4469179246
40
0.5027137544
40
0.5607909178
40
0.6211061753
40
0.6837740595
40
0.7489219456
40
0.8166762591
40
0.8871685628
40
0.9605331775
40
1.0000000000
40
1.0000000000
40
1.0000000000
40
1.0000000000
10
0.9571490006
20
23.1387654382
30
0.0000000000
10
0.9549558775
20
23.1386645047
30
0.0000000000
10
0.9496816031
20
23.1384137551
30
0.0000000000
10
0.9415523015
20
23.1379921688
30
0.0000000000
10
0.9329379850
20
23.1374896222
30
0.0000000000
10
0.9248054823
20
23.1369489848
30
0.0000000000
10
0.9169120438
20
23.1363411456
30
0.0000000000
10
0.9089231625
20
23.1356135695
30
0.0000000000
10
0.9003800018
20
23.1346720658
30
0.0000000000
10
0.8906980269
20
23.1333506108
30
0.0000000000
10
0.8793555564
20
23.1313944480
30
0.0000000000
10
0.8660136759
20
23.1284597829
30
0.0000000000
10
0.8506294219
20
23.1241512630
30
0.0000000000
10
0.8334560172
20
23.1180732095
30
0.0000000000
10
0.8150681861
20
23.1099392940
30
0.0000000000
10
0.7961398093
20
23.0996053756
30
0.0000000000
10
0.7772396050
20
23.0870046361
30
0.0000000000
10
0.7587895949
20
23.0720657328
30
0.0000000000
10
0.7411657404
20
23.0547257442
30
0.0000000000
10
0.7247462486
20
23.0349512911
30
0.0000000000
10
0.7099194733
20
23.0127341849
30
0.0000000000
10
0.6970990716
20
22.9880999050
30
0.0000000000
10
0.6867370186
20
22.9611361605
30
0.0000000000
10
0.6793189079
20
22.9320058236
30
0.0000000000
10
0.6760183157
20
22.9061734514
30
0.0000000000
10
0.6755212819
20
22.8901660714
30
0.0000000000
10
0.6755350235
20
22.8845687053
30
0.0000000000
11
0.9571490006
21
23.1387654382
31
0.0000000000
11
0.9505701301
21
23.1384520610
31
0.0000000000
11
0.9413283463
21
23.1379702018
31
0.0000000000
11
0.9327632111
21
23.1374674432
31
0.0000000000
11
0.9247287411
21
23.1369295890
31
0.0000000000
11
0.9169334858
21
23.1363246091
31
0.0000000000
11
0.9090877629
21
23.1356043381
31
0.0000000000
11
0.9007714354
21
23.1346812569
31
0.0000000000
11
0.8913234715
21
23.1333846429
31
0.0000000000
11
0.8800835528
21
23.1314394373
31
0.0000000000
11
0.8668246586
21
23.1285177787
31
0.0000000000
11
0.8514369556
21
23.1242045640
31
0.0000000000
11
0.8341484575
21
23.1180832621
31
0.0000000000
11
0.8155995575
21
23.1098764797
31
0.0000000000
11
0.7966142018
21
23.0995104352
31
0.0000000000
11
0.7777251760
21
23.0869164629
31
0.0000000000
11
0.7592905652
21
23.0719895240
31
0.0000000000
11
0.7416910930
21
23.0546731220
31
0.0000000000
11
0.7253108478
21
23.0349455837
31
0.0000000000
11
0.7105222555
21
23.0127853181
31
0.0000000000
11
0.6977364547
21
22.9882172092
31
0.0000000000
11
0.6874041611
21
22.9613300797
31
0.0000000000
11
0.6800085874
21
22.9322889094
31
0.0000000000
11
0.6760567268
21
22.9013511425
31
0.0000000000
11
0.6755350235
21
22.8845687053
31
0.0000000000
0
SPLINE
5
340
100
AcDbEntity
8
0
100
AcDbSpline
62
7
6
CONTINUOUS
70
0
71
3
72
9
73
5
74
3
42
0.0000001000
43
0.0000001000
44
0.0000000001
12
-0.0085130525
22
-0.0003617912
32
0.0000000000
13
-0.0085117292
23
-0.0003917331
33
0.0000000000
40
0.0000000000
40
0.0000000000
40
0.0000000000
40
0.0000000000
40
0.5983389702
40
1.0000000000
40
1.0000000000
40
1.0000000000
40
1.0000000000
10
-11.9162037751
20
23.1585522035
30
0.0000000000
10
-11.9179016721
20
23.1584800455
30
0.0000000000
10
-11.9207392416
20
23.1583567430
30
0.0000000000
10
-11.9235765878
20
23.1582284003
30
0.0000000000
10
-11.9247161978
20
23.1581759523
30
0.0000000000
11
-11.9162037751
21
23.1585522035
31
0.0000000000
11
-11.9212972490
21
23.1583306877
31
0.0000000000
11
-11.9247161978
21
23.1581759523
31
0.0000000000
0
SPLINE
5
341
100
AcDbEntity
8
0
100
AcDbSpline
62
7
6
CONTINUOUS
70
0
71
3
72
31
73
27
74
25
42
0.0000001000
43
0.0000001000
44
0.0000000001
12
-0.4246760569
22
-0.0195447575
32
0.0000000000
13
0.0010445450
23
-0.4254737791
33
0.0000000000
40
0.0000000000
40
0.0000000000
40
0.0000000000
40
0.0000000000
40
0.0154926774
40
0.0372611783
40
0.0574431838
40
0.0763845537
40
0.0947760697
40
0.1133087665
40
0.1329909707
40
0.1554232377
40
0.1822553312
40
0.2141917604
40
0.2517825189
40
0.2949231994
40
0.3426346029
40
0.3935160062
40
0.4469179246
40
0.5027137544
40
0.5607909178
40
0.6211061753
40
0.6837740595
40
0.7489219456
40
0.8166762591
40
0.8871685628
40
0.9605331775
40
1.0000000000
40
1.0000000000
40
1.0000000000
40
1.0000000000
10
-11.9247161978
20
23.1581759523
30
0.0000000000
10
-11.9269093208
20
23.1580750187
30
0.0000000000
10
-11.9321835953
20
23.1578242691
30
0.0000000000
10
-11.9403128968
20
23.1574026828
30
0.0000000000
10
-11.9489272133
20
23.1569001362
30
0.0000000000
10
-11.9570597160
20
23.1563594989
30
0.0000000000
10
-11.9649531545
20
23.1557516596
30
0.0000000000
10
-11.9729420358
20
23.1550240835
30
0.0000000000
10
-11.9814851965
20
23.1540825798
30
0.0000000000
10
-11.9911671714
20
23.1527611248
30
0.0000000000
10
-12.0025096419
20
23.1508049621
30
0.0000000000
10
-12.0158515224
20
23.1478702970
30
0.0000000000
10
-12.0312357764
20
23.1435617770
30
0.0000000000
10
-12.0484091811
20
23.1374837236
30
0.0000000000
10
-12.0667970123
20
23.1293498080
30
0.0000000000
10
-12.0857253890
20
23.1190158896
30
0.0000000000
10
-12.1046255933
20
23.1064151501
30
0.0000000000
10
-12.1230756034
20
23.0914762469
30
0.0000000000
10
-12.1406994580
20
23.0741362582
30
0.0000000000
10
-12.1571189497
20
23.0543618051
30
0.0000000000
10
-12.1719457250
20
23.0321446989
30
0.0000000000
10
-12.1847661267
20
23.0075104191
30
0.0000000000
10
-12.1951281797
20
22.9805466746
30
0.0000000000
10
-12.2025462904
20
22.9514163376
30
0.0000000000
10
-12.2058468826
20
22.9255839654
30
0.0000000000
10
-12.2063439164
20
22.9095765854
30
0.0000000000
10
-12.2063301748
20
22.9039792194
30
0.0000000000
11
-11.9247161978
21
23.1581759523
31
0.0000000000
11
-11.9312950682
21
23.1578625751
31
0.0000000000
11
-11.9405368520
21
23.1573807158
31
0.0000000000
11
-11.9491019872
21
23.1568779572
31
0.0000000000
11
-11.9571364572
21
23.1563401030
31
0.0000000000
11
-11.9649317125
21
23.1557351232
31
0.0000000000
11
-11.9727774354
21
23.1550148521
31
0.0000000000
11
-11.9810937629
21
23.1540917709
31
0.0000000000
11
-11.9905417268
21
23.1527951569
31
0.0000000000
11
-12.0017816455
21
23.1508499513
31
0.0000000000
11
-12.0150405397
21
23.1479282928
31
0.0000000000
11
-12.0304282427
21
23.1436150780
31
0.0000000000
11
-12.0477167408
21
23.1374937762
31
0.0000000000
11
-12.0662656408
21
23.1292869938
31
0.0000000000
11
-12.0852509965
21
23.1189209493
31
0.0000000000
11
-12.1041400223
21
23.1063269769
31
0.0000000000
11
-12.1225746332
21
23.0914000380
31
0.0000000000
11
-12.1401741053
21
23.0740836360
31
0.0000000000
11
-12.1565543506
21
23.0543560977
31
0.0000000000
11
-12.1713429428
21
23.0321958321
31
0.0000000000
11
-12.1841287437
21
23.0076277232
31
0.0000000000
11
-12.1944610372
21
22.9807405937
31
0.0000000000
11
-12.2018566109
21
22.9516994234
31
0.0000000000
11
-12.2058084715
21
22.9207616565
31
0.0000000000
11
-12.2063301748
21
22.9039792194
31
0.0000000000
0
SPLINE
5
342
100
AcDbEntity
8
0
100
AcDbSpline
62
7
6
CONTINUOUS
70
0
71
3
72
9
73
5
74
3
42
0.0000001000
43
0.0000001000
44
0.0000000001
12
-0.0090148409
22
-0.0003908714
32
0.0000000000
13
-0.0090135287
23
-0.0004200756
33
0.0000000000
40
0.0000000000
40
0.0000000000
40
0.0000000000
40
0.0000000000
40
0.6039865450
40
1.0000000000
40
1.0000000000
40
1.0000000000
40
1.0000000000
10
-15.4475345091
20
23.9699665890
30
0.0000000000
10
-15.4493494567
20
23.9698878953
30
0.0000000000
10
-15.4523542876
20
23.9697549219
30
0.0000000000
10
-15.4553588966
20
23.9696170269
30
0.0000000000
10
-15.4565487229
20
23.9695615750
30
0.0000000000
11
-15.4475345091
21
23.9699665890
31
0.0000000000
11
-15.4529791306
21
23.9697254716
31
0.0000000000
11
-15.4565487229
21
23.9695615750
31
0.0000000000
0
SPLINE
5
343
100
AcDbEntity
8
0
100
AcDbSpline
62
7
6
CONTINUOUS
70
0
71
3
72
31
73
27
74
25
42
0.0000001000
43
0.0000001000
44
0.0000000001
12
-0.4329121323
22
-0.0201758738
32
0.0000000000
13
0.0010609425
23
-0.4337748661
33
0.0000000000
40
0.0000000000
40
0.0000000000
40
0.0000000000
40
0.0000000000
40
0.0159269792
40
0.0384209982
40
0.0593344758
40
0.0788680191
40
0.0974075016
40
0.1156024629
40
0.1340238575
40
0.1536561895
40
0.1760324878
40
0.2029217886
40
0.2351592374
40
0.2736641498
40
0.3186705610
40
0.3689877888
40
0.4229381999
40
0.4798766485
40
0.5395994619
40
0.6019184208
40
0.6668722053
40
0.7346029324
40
0.8052519027
40
0.8789653483
40
0.9558982533
40
1.0000000000
40
1.0000000000
40
1.0000000000
40
1.0000000000
10
-15.4565487229
20
23.9695615750
30
0.0000000000
10
-15.4588470504
20
23.9694544614
30
0.0000000000
10
-15.4643910011
20
23.9691884758
30
0.0000000000
10
-15.4729510381
20
23.9687447718
30
0.0000000000
10
-15.4820286050
20
23.9682228996
30
0.0000000000
10
-15.4905322823
20
23.9676750618
30
0.0000000000
10
-15.4986392876
20
23.9670825362
30
0.0000000000
10
-15.5065792162
20
23.9664136657
30
0.0000000000
10
-15.5146657814
20
23.9656131653
30
0.0000000000
10
-15.5233353369
20
23.9645836150
30
0.0000000000
10
-15.5331860153
20
23.9631494195
30
0.0000000000
10
-15.5447724683
20
23.9610381671
30
0.0000000000
10
-15.5585210586
20
23.9578636747
30
0.0000000000
10
-15.5745769552
20
23.9531528340
30
0.0000000000
10
-15.5927152802
20
23.9464075797
30
0.0000000000
10
-15.6122720234
20
23.9372581858
30
0.0000000000
10
-15.6324256849
20
23.9255225886
30
0.0000000000
10
-15.6524742691
20
23.9111186001
30
0.0000000000
10
-15.6718814100
20
23.8939646694
30
0.0000000000
10
-15.6901586518
20
23.8740020311
30
0.0000000000
10
-15.7068166004
20
23.8512109757
30
0.0000000000
10
-15.7213491967
20
23.8256065041
30
0.0000000000
10
-15.7332072634
20
23.7972723765
30
0.0000000000
10
-15.7417962413
20
23.7663876183
30
0.0000000000
10
-15.7457534884
20
23.7384540870
30
0.0000000000
10
-15.7463787064
20
23.7209462182
30
0.0000000000
10
-15.7463631099
20
23.7145694751
30
0.0000000000
11
-15.4565487229
21
23.9695615750
31
0.0000000000
11
-15.4634432311
21
23.9692302740
31
0.0000000000
11
-15.4731785440
21
23.9687234707
31
0.0000000000
11
-15.4822269724
21
23.9682006870
31
0.0000000000
11
-15.4906747410
21
23.9676533733
31
0.0000000000
11
-15.4986877653
21
23.9670639703
31
0.0000000000
11
-15.5065449028
21
23.9663973841
31
0.0000000000
11
-15.5144890150
21
23.9656053793
31
0.0000000000
11
-15.5229371851
21
23.9645956903
31
0.0000000000
11
-15.5325324839
21
23.9631916553
31
0.0000000000
11
-15.5439958062
21
23.9610958622
31
0.0000000000
11
-15.5576075045
21
23.9579472349
31
0.0000000000
11
-15.5736186671
21
23.9532451676
31
0.0000000000
11
-15.5918993999
21
23.9464438416
31
0.0000000000
11
-15.6116504769
21
23.9372014816
31
0.0000000000
11
-15.6318550552
21
23.9254349285
31
0.0000000000
11
-15.6518947953
21
23.9110363953
31
0.0000000000
11
-15.6712874722
21
23.8938945745
31
0.0000000000
11
-15.6895252516
21
23.8739744893
31
0.0000000000
11
-15.7061357449
21
23.8512478172
31
0.0000000000
11
-15.7206247254
21
23.8257197328
31
0.0000000000
11
-15.7324447924
21
23.7974753342
31
0.0000000000
11
-15.7410042810
21
23.7666973275
31
0.0000000000
11
-15.7456795611
21
23.7336854388
31
0.0000000000
11
-15.7463631099
21
23.7145694751
31
0.0000000000
0
SPLINE
5
344
100
AcDbEntity
8
0
100
AcDbSpline
62
7
6
CONTINUOUS
70
0
71
3
72
9
73
5
74
3
42
0.0000001000
43
0.0000001000
44
0.0000000001
12
-0.0087735847
22
-0.0003728625
32
0.0000000000
13
-0.0087724394
23
-0.0003989240
33
0.0000000000
40
0.0000000000
40
0.0000000000
40
0.0000000000
40
0.0000000000
40
0.5970368597
40
1.0000000000
40
1.0000000000
40
1.0000000000
40
1.0000000000
10
5.2065329687
20
23.9389648132
30
0.0000000000
10
5.2047869176
20
23.9388906090
30
0.0000000000
10
5.2018624903
20
23.9387639415
30
0.0000000000
10
5.1989382562
20
23.9386328893
30
0.0000000000
10
5.1977599329
20
23.9385793054
30
0.0000000000
11
5.2065329687
21
23.9389648132
31
0.0000000000
11
5.2012950047
21
23.9387377957
31
0.0000000000
11
5.1977599329
21
23.9385793054
31
0.0000000000
0
SPLINE
5
345
100
AcDbEntity
8
0
100
AcDbSpline
62
7
6
CONTINUOUS
70
0
71
3
72
32
73
28
74
26
42
0.0000001000
43
0.0000001000
44
0.0000000001
12
-0.4358855172
22
-0.0198217593
32
0.0000000000
13
0.0010699910
23
-0.4367163323
33
0.0000000000
40
0.0000000000
40
0.0000000000
40
0.0000000000
40
0.0000000000
40
0.0156783604
40
0.0378470364
40
0.0584673023
40
0.0776904803
40
0.0957970690
40
0.1132906443
40
0.1306213211
40
0.1485034773
40
0.1680886170
40
0.1909390791
40
0.2183505780
40
0.2516777330
40
0.2915388068
40
0.3373064238
40
0.3873752415
40
0.4404236436
40
0.4961541093
40
0.5544112475
40
0.6150654072
40
0.6782059587
40
0.7439668289
40
0.8124810180
40
0.8838875752
40
0.9583322549
40
1.0000000000
40
1.0000000000
40
1.0000000000
40
1.0000000000
10
5.1977599329
20
23.9385793054
30
0.0000000000
10
5.1954819429
20
23.9384757145
30
0.0000000000
10
5.1899832697
20
23.9382186605
30
0.0000000000
10
5.1814901881
20
23.9377914151
30
0.0000000000
10
5.1724846126
20
23.9372919763
30
0.0000000000
10
5.1640719856
20
23.9367729786
30
0.0000000000
10
5.1561172039
20
23.9362213169
30
0.0000000000
10
5.1484424229
20
23.9356150967
30
0.0000000000
10
5.1408081222
20
23.9349171083
30
0.0000000000
10
5.1328834207
20
23.9340634837
30
0.0000000000
10
5.1241821585
20
23.9329377065
30
0.0000000000
10
5.1141468841
20
23.9313459155
30
0.0000000000
10
5.1022168300
20
23.9289852309
30
0.0000000000
10
5.0880132391
20
23.9254408958
30
0.0000000000
10
5.0715028096
20
23.9202248306
30
0.0000000000
10
5.0531496270
20
23.9129104370
30
0.0000000000
10
5.0337405804
20
23.9032466493
30
0.0000000000
10
5.0140330559
20
23.8911262479
30
0.0000000000
10
4.9946026370
20
23.8764790886
30
0.0000000000
10
4.9759016932
20
23.8592252533
30
0.0000000000
10
4.9583692542
20
23.8393168370
30
0.0000000000
10
4.9424504597
20
23.8167387341
30
0.0000000000
10
4.9286114500
20
23.7915087022
30
0.0000000000
10
4.9173613421
20
23.7637126275
30
0.0000000000
10
4.9092495682
20
23.7335230407
30
0.0000000000
10
4.9055615385
20
23.7064264198
30
0.0000000000
10
4.9049891953
20
23.6895173421
30
0.0000000000
10
4.9050040567
20
23.6834516805
30
0.0000000000
11
5.1977599329
21
23.9385793054
31
0.0000000000
11
5.1909263869
21
23.9382593941
31
0.0000000000
11
5.1812657136
21
23.9377715267
31
0.0000000000
11
5.1722822835
21
23.9372710978
31
0.0000000000
11
5.1639106018
21
23.9367520244
31
0.0000000000
11
5.1560291964
21
23.9362023428
31
0.0000000000
11
5.1484201268
21
23.9355975020
31
0.0000000000
11
5.1408899557
21
23.9349044973
31
0.0000000000
11
5.1331327699
21
23.9340636704
31
0.0000000000
11
5.1246584665
21
23.9329613599
31
0.0000000000
11
5.1148120836
21
23.9313932234
31
0.0000000000
11
5.1030800974
21
23.9290658192
31
0.0000000000
11
5.0889720972
21
23.9255403328
31
0.0000000000
11
5.0723883658
21
23.9202972759
31
0.0000000000
11
5.0538382007
21
23.9129017341
31
0.0000000000
11
5.0342821006
21
23.9031630420
31
0.0000000000
11
5.0145660640
21
23.8910363210
31
0.0000000000
11
4.9951484006
21
23.8763980117
31
0.0000000000
11
4.9764659636
21
23.8591606667
31
0.0000000000
11
4.9589749818
21
23.8392988402
31
0.0000000000
11
4.9430997596
21
23.8167820462
31
0.0000000000
11
4.9293005705
21
23.7916241979
31
0.0000000000
11
4.9180850410
21
23.7639125760
31
0.0000000000
11
4.9099998665
21
23.7338226633
31
0.0000000000
11
4.9056203519
21
23.7016363824
31
0.0000000000
11
4.9050040567
21
23.6834516805
31
0.0000000000
0
SPLINE
5
346
100
AcDbEntity
8
0
100
AcDbSpline
62
7
6
CONTINUOUS
70
0
71
3
72
17
73
13
74
11
42
0.0000001000
43
0.0000001000
44
0.0000000001
12
0.0009858750
22
-0.3917779369
32
0.0000000000
13
0.3913367240
23
-0.0004468600
33
0.0000000000
40
0.0000000000
40
0.0000000000
40
0.0000000000
40
0.0000000000
40
0.0647583171
40
0.1694135558
40
0.2740111847
40
0.3786499879
40
0.4834286777
40
0.5883795273
40
0.6930957782
40
0.7969782055
40
0.8991975427
40
1.0000000000
40
1.0000000000
40
1.0000000000
40
1.0000000000
10
-15.6294889170
20
-23.7076686532
30
0.0000000000
10
-15.6294676358
20
-23.7161256132
30
0.0000000000
10
-15.6282912313
20
-23.7382606612
30
0.0000000000
10
-15.6216516569
20
-23.7735377960
30
0.0000000000
10
-15.6075508189
20
-23.8121770114
30
0.0000000000
10
-15.5873247927
20
-23.8480078240
30
0.0000000000
10
-15.5614880280
20
-23.8800905977
30
0.0000000000
10
-15.5307424376
20
-23.9075213317
30
0.0000000000
10
-15.4960252950
20
-23.9294911983
30
0.0000000000
10
-15.4585251893
20
-23.9453781076
30
0.0000000000
10
-15.4194729979
20
-23.9549068517
30
0.0000000000
10
-15.3929448725
20
-23.9570373529
30
0.0000000000
10
-15.3797956380
20
-23.9570523678
30
0.0000000000
11
-15.6294889170
21
-23.7076686532
31
0.0000000000
11
-15.6281403534
21
-23.7330004877
31
0.0000000000
11
-15.6205672212
21
-23.7732496836
31
0.0000000000
11
-15.6065336505
21
-23.8117017687
31
0.0000000000
11
-15.5864044318
21
-23.8473618005
31
0.0000000000
11
-15.5606860560
21
-23.8792972790
31
0.0000000000
11
-15.5300393966
21
-23.9066399472
31
0.0000000000
11
-15.4954111494
21
-23.9285532059
31
0.0000000000
11
-15.4579791788
21
-23.9444124887
31
0.0000000000
11
-15.4191166471
21
-23.9538930040
31
0.0000000000
11
-15.3797956380
21
-23.9570523678
31
0.0000000000
0
SPLINE
5
347
100
AcDbEntity
8
0
100
AcDbSpline
62
7
6
CONTINUOUS
70
0
71
3
72
17
73
13
74
11
42
0.0000001000
43
0.0000001000
44
0.0000000001
12
0.0009858893
22
-0.3917779333
32
0.0000000000
13
0.3913367188
23
-0.0004468781
33
0.0000000000
40
0.0000000000
40
0.0000000000
40
0.0000000000
40
0.0000000000
40
0.0647585244
40
0.1694139430
40
0.2740117350
40
0.3786507176
40
0.4834296370
40
0.5883807769
40
0.6930972553
40
0.7969796725
40
0.8991986752
40
1.0000000000
40
1.0000000000
40
1.0000000000
40
1.0000000000
10
5.0218782742
20
-23.7387863360
30
0.0000000000
10
5.0218995558
20
-23.7472433230
30
0.0000000000
10
5.0230759674
20
-23.7693784214
30
0.0000000000
10
5.0297155733
20
-23.8046556236
30
0.0000000000
10
5.0438164655
20
-23.8432948923
30
0.0000000000
10
5.0640425669
20
-23.8791257486
30
0.0000000000
10
5.0898794338
20
-23.9112085580
30
0.0000000000
10
5.1206251467
20
-23.9386393025
30
0.0000000000
10
5.1553423936
20
-23.9606091291
30
0.0000000000
10
5.1928425217
20
-23.9764959446
30
0.0000000000
10
5.2318945432
20
-23.9860245629
30
0.0000000000
10
5.2584224752
20
-23.9881550254
30
0.0000000000
10
5.2715715618
20
-23.9881700408
30
0.0000000000
11
5.0218782742
21
-23.7387863360
31
0.0000000000
11
5.0232268472
21
-23.7641182510
31
0.0000000000
11
5.0308000131
21
-23.8043675117
31
0.0000000000
11
5.0448336359
21
-23.8428196451
31
0.0000000000
11
5.0649629270
21
-23.8784797161
31
0.0000000000
11
5.0906814031
21
-23.9104152285
31
0.0000000000
11
5.1213281957
21
-23.9377579171
31
0.0000000000
11
5.1559565655
21
-23.9596711477
31
0.0000000000
11
5.1933885690
21
-23.9755303414
31
0.0000000000
11
5.2322509923
21
-23.9850107464
31
0.0000000000
11
5.2715715618
21
-23.9881700408
31
0.0000000000
0
SPLINE
5
348
100
AcDbEntity
8
0
100
AcDbSpline
62
7
6
CONTINUOUS
70
0
71
3
72
24
73
20
74
18
42
0.0000001000
43
0.0000001000
44
0.0000000001
12
1.6335533439
22
-0.0024614533
32
0.0000000000
13
1.5454889471
23
-0.5292406716
33
0.0000000000
40
0.0000000000
40
0.0000000000
40
0.0000000000
40
0.0000000000
40
0.0269730906
40
0.0570224662
40
0.0904445773
40
0.1277802626
40
0.1691420197
40
0.2144105081
40
0.2633434043
40
0.3160641634
40
0.3727723357
40
0.4336950042
40
0.4991652907
40
0.5695358502
40
0.6452512544
40
0.7267859517
40
0.8146808286
40
0.9095611351
40
1.0000000000
40
1.0000000000
40
1.0000000000
40
1.0000000000
10
1.5990482605
20
18.5025324932
30
0.0000000000
10
1.6137355879
20
18.5025103622
30
0.0000000000
10
1.6447856564
20
18.5019999192
30
0.0000000000
10
1.6939956697
20
18.4999385821
30
0.0000000000
10
1.7487759529
20
18.4963777609
30
0.0000000000
10
1.8096051683
20
18.4911276114
30
0.0000000000
10
1.8767335439
20
18.4839989612
30
0.0000000000
10
1.9499850528
20
18.4748505765
30
0.0000000000
10
2.0291893188
20
18.4635550545
30
0.0000000000
10
2.1143457021
20
18.4499598687
30
0.0000000000
10
2.2056999543
20
18.4338513561
30
0.0000000000
10
2.3036003323
20
18.4149609025
30
0.0000000000
10
2.4084631902
20
18.3929592445
30
0.0000000000
10
2.5208023474
20
18.3674377050
30
0.0000000000
10
2.6411822173
20
18.3379030386
30
0.0000000000
10
2.7702346341
20
18.3037559284
30
0.0000000000
10
2.9086441529
20
18.2642723350
30
0.0000000000
10
3.0508451326
20
18.2205138386
30
0.0000000000
10
3.1466537465
20
18.1888117470
30
0.0000000000
10
3.1932445019
20
18.1728571051
30
0.0000000000
11
1.5990482605
21
18.5025324932
31
0.0000000000
11
1.6431050203
21
18.5018508786
31
0.0000000000
11
1.6921510125
21
18.4998371676
31
0.0000000000
11
1.7466353966
21
18.4963344011
31
0.0000000000
11
1.8074025844
21
18.4911269902
31
0.0000000000
11
1.8745951761
21
18.4840265420
31
0.0000000000
11
1.9479775879
21
18.4748934528
31
0.0000000000
11
2.0271153550
21
18.4636350329
31
0.0000000000
11
2.1121643480
21
18.4500809128
31
0.0000000000
11
2.2033963959
21
18.4340145223
31
0.0000000000
11
2.3011176977
21
18.4151761189
31
0.0000000000
11
2.4057908930
21
18.3932288937
31
0.0000000000
11
2.5178912366
21
18.3677734523
31
0.0000000000
11
2.6380160715
21
18.3383103305
31
0.0000000000
11
2.7667777690
21
18.3042459517
31
0.0000000000
11
2.9048513365
21
18.2648602719
31
0.0000000000
11
3.0529876365
21
18.2192727275
31
0.0000000000
11
3.1932445019
21
18.1728571051
31
0.0000000000
0
SPLINE
5
349
100
AcDbEntity
8
0
100
AcDbSpline
62
7
6
CONTINUOUS
70
0
71
3
72
9
73
5
74
3
42
0.0000001000
43
0.0000001000
44
0.0000000001
12
0.0550971008
22
0.0233349142
32
0.0000000000
13
0.0547670963
23
0.0240992800
33
0.0000000000
40
0.0000000000
40
0.0000000000
40
0.0000000000
40
0.0000000000
40
0.5074598998
40
1.0000000000
40
1.0000000000
40
1.0000000000
40
1.0000000000
10
-0.8935575578
20
-18.5386264177
30
0.0000000000
10
-0.8842377014
20
-18.5346792400
30
0.0000000000
10
-0.8658996014
20
-18.5268356080
30
0.0000000000
10
-0.8476165186
20
-18.5188646012
30
0.0000000000
10
-0.8386248549
20
-18.5149079806
30
0.0000000000
11
-0.8935575578
21
-18.5386264177
31
0.0000000000
11
-0.8656401684
21
-18.5266857816
31
0.0000000000
11
-0.8386248549
21
-18.5149079806
31
0.0000000000
0
SPLINE
5
34A
100
AcDbEntity
8
0
100
AcDbSpline
62
7
6
CONTINUOUS
70
0
71
3
72
8
73
4
74
2
42
0.0000001000
43
0.0000001000
44
0.0000000001
12
0.0008838849
22
0.0003889377
32
0.0000000000
13
0.0008837980
23
0.0003891347
33
0.0000000000
40
0.0000000000
40
0.0000000000
40
0.0000000000
40
0.0000000000
40
1.0000000000
40
1.0000000000
40
1.0000000000
40
1.0000000000
10
-0.8386248549
20
-18.5149079806
30
0.0000000000
10
-0.8383302266
20
-18.5147783347
30
0.0000000000
10
-0.8380356128
20
-18.5146486560
30
0.0000000000
10
-0.8377410135
20
-18.5145189444
30
0.0000000000
11
-0.8386248549
21
-18.5149079806
31
0.0000000000
11
-0.8377410135
21
-18.5145189444
31
0.0000000000
0
SPLINE
5
34B
100
AcDbEntity
8
0
100
AcDbSpline
62
7
6
CONTINUOUS
70
0
71
3
72
17
73
13
74
11
42
0.0000001000
43
0.0000001000
44
0.0000000001
12
-0.3817820315
22
-0.0165166151
32
0.0000000000
13
0.0009257459
23
-0.3825575479
33
0.0000000000
40
0.0000000000
40
0.0000000000
40
0.0000000000
40
0.0000000000
40
0.1000247865
40
0.1992268855
40
0.2990541074
40
0.3989301928
40
0.4982154601
40
0.6005923582
40
0.7049432359
40
0.8108752355
40
0.9199202640
40
1.0000000000
40
1.0000000000
40
1.0000000000
40
1.0000000000
10
-17.5429692078
20
22.3432330466
30
0.0000000000
10
-17.5556984299
20
22.3426823563
30
0.0000000000
10
-17.5810112769
20
22.3396382030
30
0.0000000000
10
-17.6178326637
20
22.3293603985
30
0.0000000000
10
-17.6526643701
20
22.3136224254
30
0.0000000000
10
-17.6847018481
20
22.2927615629
30
0.0000000000
10
-17.7134441306
20
22.2670649874
30
0.0000000000
10
-17.7382663349
20
22.2368066014
30
0.0000000000
10
-17.7584450907
20
22.2022772639
30
0.0000000000
10
-17.7731409233
20
22.1641611101
30
0.0000000000
10
-17.7807724353
20
22.1271841507
30
0.0000000000
10
-17.7821904464
20
22.1030619085
30
0.0000000000
10
-17.7821657352
20
22.0928502060
30
0.0000000000
11
-17.5429692078
21
22.3432330466
31
0.0000000000
11
-17.5809184833
21
22.3386670600
31
0.0000000000
11
-17.6174295883
21
22.3284778101
31
0.0000000000
11
-17.6521906998
21
22.3127707152
31
0.0000000000
11
-17.6841724365
21
22.2919466665
31
0.0000000000
11
-17.7124551258
21
22.2666606746
31
0.0000000000
11
-17.7372658265
21
22.2364157998
31
0.0000000000
11
-17.7573841325
21
22.2019896490
31
0.0000000000
11
-17.7719455046
21
22.1642216998
31
0.0000000000
11
-17.7803668361
21
22.1234142716
31
0.0000000000
11
-17.7821657352
21
22.0928502060
31
0.0000000000
0
SPLINE
5
34C
100
AcDbEntity
8
0
100
AcDbSpline
62
7
6
CONTINUOUS
70
0
71
3
72
17
73
13
74
11
42
0.0000001000
43
0.0000001000
44
0.0000000001
12
-0.3912859203
22
0.0005895933
32
0.0000000000
13
-0.0009892772
23
0.3917649782
33
0.0000000000
40
0.0000000000
40
0.0000000000
40
0.0000000000
40
0.0000000000
40
0.1022351226
40
0.2010925327
40
0.2979392609
40
0.3950847982
40
0.4952007705
40
0.5956470166
40
0.6983902198
40
0.8033784908
40
0.9114759930
40
1.0000000000
40
1.0000000000
40
1.0000000000
40
1.0000000000
10
-17.4234504832
20
-22.4217496995
30
0.0000000000
10
-17.4367848712
20
-22.4217296071
30
0.0000000000
10
-17.4630591896
20
-22.4195823598
30
0.0000000000
10
-17.5009559178
20
-22.4103409544
30
0.0000000000
10
-17.5363858722
20
-22.3956771239
30
0.0000000000
10
-17.5693267027
20
-22.3757341418
30
0.0000000000
10
-17.5991753569
20
-22.3506484460
30
0.0000000000
10
-17.6252111246
20
-22.3206479044
30
0.0000000000
10
-17.6465038425
20
-22.2863505005
30
0.0000000000
10
-17.6623444697
20
-22.2481232822
30
0.0000000000
10
-17.6711982191
20
-22.2096010125
30
0.0000000000
10
-17.6730433608
20
-22.1839265029
30
0.0000000000
10
-17.6730725524
20
-22.1723663010
30
0.0000000000
11
-17.4234504832
21
-22.4217496995
31
0.0000000000
11
-17.4633205885
21
-22.4184891057
31
0.0000000000
11
-17.5009014262
21
-22.4093270396
31
0.0000000000
11
-17.5359155004
21
-22.3948346005
31
0.0000000000
11
-17.5684323106
21
-22.3751483559
31
0.0000000000
11
-17.5984215210
21
-22.3499441757
31
0.0000000000
11
-17.6241823369
21
-22.3202604168
31
0.0000000000
11
-17.6453864346
21
-22.2861050628
31
0.0000000000
11
-17.6611125402
21
-22.2481538395
31
0.0000000000
11
-17.6705859519
21
-22.2069313053
31
0.0000000000
11
-17.6730725524
21
-22.1723663010
31
0.0000000000
0
SPLINE
5
34D
100
AcDbEntity
8
0
100
AcDbSpline
62
7
6
CONTINUOUS
70
0
71
3
72
13
73
9
74
7
42
0.0000001000
43
0.0000001000
44
0.0000000001
12
0.7136626396
22
-0.4672590294
32
0.0000000000
13
0.8526049561
23
-0.0012847131
33
0.0000000000
40
0.0000000000
40
0.0000000000
40
0.0000000000
40
0.0000000000
40
0.0229471355
40
0.2209645578
40
0.4173375365
40
0.6123780117
40
0.8064574727
40
1.0000000000
40
1.0000000000
40
1.0000000000
40
1.0000000000
10
-9.5927541437
20
-18.2065403635
30
0.0000000000
10
-9.5872953059
20
-18.2101144489
30
0.0000000000
10
-9.5345143728
20
-18.2442004431
30
0.0000000000
10
-9.4309518060
20
-18.3025081910
30
0.0000000000
10
-9.2764418521
20
-18.3681288396
30
0.0000000000
10
-9.1165823414
20
-18.4156079794
30
0.0000000000
10
-8.9531616047
20
-18.4444134340
30
0.0000000000
10
-8.8429033408
20
-18.4509559385
30
0.0000000000
10
-8.7878982348
20
-18.4510388207
30
0.0000000000
11
-9.5927541437
21
-18.2065403635
31
0.0000000000
11
-9.5763105967
21
-18.2171594347
31
0.0000000000
11
-9.4291534732
21
-18.2999158802
31
0.0000000000
11
-9.2750186883
21
-18.3652982893
31
0.0000000000
11
-9.1155927726
21
-18.4125912874
31
0.0000000000
11
-8.9526246925
21
-18.4412760791
31
0.0000000000
11
-8.7878982348
21
-18.4510388207
31
0.0000000000
0
SPLINE
5
34E
100
AcDbEntity
8
0
100
AcDbSpline
62
7
6
CONTINUOUS
70
0
71
3
72
13
73
9
74
7
42
0.0000001000
43
0.0000001000
44
0.0000000001
12
1.6230817881
22
-0.1870355342
32
0.0000000000
13
1.3864028579
23
-0.8639218720
33
0.0000000000
40
0.0000000000
40
0.0000000000
40
0.0000000000
40
0.0000000000
40
0.1137367913
40
0.3045170618
40
0.4992917366
40
0.6993418544
40
0.9058185463
40
1.0000000000
40
1.0000000000
40
1.0000000000
40
1.0000000000
10
-16.5885415446
20
18.7565954606
30
0.0000000000
10
-16.5270068397
20
18.7495045201
30
0.0000000000
10
-16.3628193390
20
18.7256893427
30
0.0000000000
10
-16.0972257752
20
18.6659830695
30
0.0000000000
10
-15.7935734504
20
18.5674624186
30
0.0000000000
10
-15.4919492416
20
18.4392401578
30
0.0000000000
10
-15.2505528253
20
18.3119952628
30
0.0000000000
10
-15.1101741860
20
18.2277211965
30
0.0000000000
10
-15.0666497071
20
18.2005993905
30
0.0000000000
11
-16.5885415446
21
18.7565954606
31
0.0000000000
11
-16.4046663860
21
18.7299569773
31
0.0000000000
11
-16.1006167871
21
18.6618675646
31
0.0000000000
11
-15.7979335901
21
18.5640257003
31
0.0000000000
11
-15.4970934754
21
18.4365853395
31
0.0000000000
11
-15.1985702707
21
18.2797470175
31
0.0000000000
11
-15.0666497071
21
18.2005993905
31
0.0000000000
0
SPLINE
5
34F
100
AcDbEntity
8
0
100
AcDbSpline
62
7
6
CONTINUOUS
70
0
71
3
72
17
73
13
74
11
42
0.0000001000
43
0.0000001000
44
0.0000000001
12
0.3616418328
22
-0.0005449253
32
0.0000000000
13
0.0181330068
23
-0.3614666117
33
0.0000000000
40
0.0000000000
40
0.0000000000
40
0.0000000000
40
0.0000000000
40
0.0984283516
40
0.1977340301
40
0.2975130132
40
0.3991864546
40
0.5020771128
40
0.6065349712
40
0.7127773747
40
0.8196372598
40
0.9279209673
40
1.0000000000
40
1.0000000000
40
1.0000000000
40
1.0000000000
10
-12.4305730715
20
24.0395155034
30
0.0000000000
10
-12.4187078017
20
24.0394976247
30
0.0000000000
10
-12.3948241106
20
24.0373867910
30
0.0000000000
10
-12.3600099352
20
24.0280962794
30
0.0000000000
10
-12.3269013306
20
24.0129075966
30
0.0000000000
10
-12.2963929768
20
23.9922376446
30
0.0000000000
10
-12.2691804259
20
23.9665713136
30
0.0000000000
10
-12.2459392741
20
23.9365696142
30
0.0000000000
10
-12.2272523054
20
23.9029962590
30
0.0000000000
10
-12.2135306287
20
23.8666180962
30
0.0000000000
10
-12.2060720216
20
23.8326902565
30
0.0000000000
10
-12.2039530851
20
23.8109979881
30
0.0000000000
10
-12.2035174152
20
23.8023132669
30
0.0000000000
11
-12.4305730715
21
24.0395155034
31
0.0000000000
11
-12.3951147765
21
24.0363891882
31
0.0000000000
11
-12.3604087689
21
24.0271563218
31
0.0000000000
11
-12.3275962024
21
24.0121425999
31
0.0000000000
11
-12.2971306555
21
23.9915552235
31
0.0000000000
11
-12.2700305335
21
23.9660574127
31
0.0000000000
11
-12.2468621843
21
23.9362198183
31
0.0000000000
11
-12.2281440698
21
23.9026659454
31
0.0000000000
11
-12.2144792422
21
23.8665174701
31
0.0000000000
11
-12.2060562876
21
23.8282740847
31
0.0000000000
11
-12.2035174152
21
23.8023132669
31
0.0000000000
0
SPLINE
5
350
100
AcDbEntity
8
0
100
AcDbSpline
62
7
6
CONTINUOUS
70
0
71
3
72
8
73
4
74
2
42
0.0000001000
43
0.0000001000
44
0.0000000001
12
0.0006578620
22
-0.0131139397
32
0.0000000000
13
0.0000323354
23
-0.0131202717
33
0.0000000000
40
0.0000000000
40
0.0000000000
40
0.0000000000
40
0.0000000000
40
1.0000000000
40
1.0000000000
40
1.0000000000
40
1.0000000000
10
-12.2035174152
20
23.8023132669
30
0.0000000000
10
-12.2032981279
20
23.7979419537
30
0.0000000000
10
-12.2031829978
20
23.7935666479
30
0.0000000000
10
-12.2031722194
20
23.7891932240
30
0.0000000000
11
-12.2035174152
21
23.8023132669
31
0.0000000000
11
-12.2031722194
21
23.7891932240
31
0.0000000000
0
SPLINE
5
351
100
AcDbEntity
8
0
100
AcDbSpline
62
7
6
CONTINUOUS
70
0
71
3
72
17
73
13
74
11
42
0.0000001000
43
0.0000001000
44
0.0000000001
12
0.3616356238
22
-0.0005449159
32
0.0000000000
13
0.0181331773
23
-0.3614604051
33
0.0000000000
40
0.0000000000
40
0.0000000000
40
0.0000000000
40
0.0000000000
40
0.0984444885
40
0.1977617525
40
0.2975483749
40
0.3992253238
40
0.5021146413
40
0.6065679757
40
0.7128024005
40
0.8196526822
40
0.9279267770
40
1.0000000000
40
1.0000000000
40
1.0000000000
40
1.0000000000
10
8.2529764973
20
24.0083493389
30
0.0000000000
10
8.2648435087
20
24.0083314576
30
0.0000000000
10
8.2887301362
20
24.0062205378
30
0.0000000000
10
8.3235479993
20
23.9969297101
30
0.0000000000
10
8.3566589169
20
23.9817409935
30
0.0000000000
10
8.3871683278
20
23.9610716169
30
0.0000000000
10
8.4143809462
20
23.9354067060
30
0.0000000000
10
8.4376214465
20
23.9054074333
30
0.0000000000
10
8.4563074762
20
23.8718373596
30
0.0000000000
10
8.4700282696
20
23.8354630807
30
0.0000000000
10
8.4774863526
20
23.8015388247
30
0.0000000000
10
8.4796051284
20
23.7798487860
30
0.0000000000
10
8.4800407673
20
23.7711649139
30
0.0000000000
11
8.2529764973
21
24.0083493389
31
0.0000000000
11
8.2884400151
21
24.0052227743
31
0.0000000000
11
8.3231496249
21
23.9959895497
31
0.0000000000
11
8.3559644967
21
23.9809757154
31
0.0000000000
11
8.3864311316
21
23.9603888109
31
0.0000000000
11
8.4135311314
21
23.9348925103
31
0.0000000000
11
8.4366988090
21
23.9050572868
31
0.0000000000
11
8.4554158500
21
23.8715068745
31
0.0000000000
11
8.4690797129
21
23.8353624566
31
0.0000000000
11
8.4775020677
21
23.7971231871
31
0.0000000000
11
8.4800407673
21
23.7711649139
31
0.0000000000
0
SPLINE
5
352
100
AcDbEntity
8
0
100
AcDbSpline
62
7
6
CONTINUOUS
70
0
71
3
72
8
73
4
74
2
42
0.0000001000
43
0.0000001000
44
0.0000000001
12
0.0006578187
22
-0.0131127278
32
0.0000000000
13
0.0000323324
23
-0.0131190593
33
0.0000000000
40
0.0000000000
40
0.0000000000
40
0.0000000000
40
0.0000000000
40
1.0000000000
40
1.0000000000
40
1.0000000000
40
1.0000000000
10
8.4800407673
20
23.7711649139
30
0.0000000000
10
8.4802600402
20
23.7667940046
30
0.0000000000
10
8.4803751620
20
23.7624191029
30
0.0000000000
10
8.4803859395
20
23.7580460831
30
0.0000000000
11
8.4800407673
21
23.7711649139
31
0.0000000000
11
8.4803859395
21
23.7580460831
31
0.0000000000
0
SPLINE
5
353
100
AcDbEntity
8
0
100
AcDbSpline
62
7
6
CONTINUOUS
70
0
71
3
72
17
73
13
74
11
42
0.0000001000
43
0.0000001000
44
0.0000000001
12
0.0008821030
22
-0.3579183247
32
0.0000000000
13
-0.3573847529
23
-0.0271586584
33
0.0000000000
40
0.0000000000
40
0.0000000000
40
0.0000000000
40
0.0000000000
40
0.1094242089
40
0.2186536200
40
0.3263429776
40
0.4333289842
40
0.5384682346
40
0.6420177890
40
0.7443710086
40
0.8448857423
40
0.9450273835
40
1.0000000000
40
1.0000000000
40
1.0000000000
40
1.0000000000
10
-12.0861113047
20
-23.7089404129
30
0.0000000000
10
-12.0860791303
20
-23.7219953895
30
0.0000000000
10
-12.0878726886
20
-23.7481250660
30
0.0000000000
10
-12.0960827666
20
-23.7863165634
30
0.0000000000
10
-12.1096243503
20
-23.8226584152
30
0.0000000000
10
-12.1281470765
20
-23.8561815147
30
0.0000000000
10
-12.1512439664
20
-23.8861193622
30
0.0000000000
10
-12.1783357811
20
-23.9117088580
30
0.0000000000
10
-12.2087494025
20
-23.9322899316
30
0.0000000000
10
-12.2417902479
20
-23.9473791456
30
0.0000000000
10
-12.2714169146
20
-23.9552030474
30
0.0000000000
10
-12.2898379776
20
-23.9574895431
30
0.0000000000
10
-12.2963867692
20
-23.9579872040
30
0.0000000000
11
-12.0861113047
21
-23.7089404129
31
0.0000000000
11
-12.0888027612
21
-23.7480128724
31
0.0000000000
11
-12.0970372732
21
-23.7862311582
31
0.0000000000
11
-12.1105240231
21
-23.8223387212
31
0.0000000000
11
-12.1290768864
21
-23.8558364338
31
0.0000000000
11
-12.1520983355
21
-23.8856044291
31
0.0000000000
11
-12.1790729776
21
-23.9110207595
31
0.0000000000
11
-12.2094372738
21
-23.9315164769
31
0.0000000000
11
-12.2421760800
21
-23.9464314254
31
0.0000000000
11
-12.2768368357
21
-23.9555597693
31
0.0000000000
11
-12.2963867692
21
-23.9579872040
31
0.0000000000
0
SPLINE
5
354
100
AcDbEntity
8
0
100
AcDbSpline
62
7
6
CONTINUOUS
70
0
71
3
72
8
73
4
74
2
42
0.0000001000
43
0.0000001000
44
0.0000000001
12
-0.0039896691
22
-0.0003031860
32
0.0000000000
13
-0.0039938159
23
-0.0002257297
33
0.0000000000
40
0.0000000000
40
0.0000000000
40
0.0000000000
40
0.0000000000
40
1.0000000000
40
1.0000000000
40
1.0000000000
40
1.0000000000
10
-12.2963867692
20
-23.9579872040
30
0.0000000000
10
-12.2977166589
20
-23.9580882660
30
0.0000000000
10
-12.2990473879
20
-23.9581764335
30
0.0000000000
10
-12.3003786599
20
-23.9582516768
30
0.0000000000
11
-12.2963867692
21
-23.9579872040
31
0.0000000000
11
-12.3003786599
21
-23.9582516768
31
0.0000000000
0
SPLINE
5
355
100
AcDbEntity
8
0
100
AcDbSpline
62
7
6
CONTINUOUS
70
0
71
3
72
8
73
4
74
2
42
0.0000001000
43
0.0000001000
44
0.0000000001
12
-0.0009298125
22
-0.0000525528
32
0.0000000000
13
-0.0009299778
23
-0.0000483485
33
0.0000000000
40
0.0000000000
40
0.0000000000
40
0.0000000000
40
0.0000000000
40
1.0000000000
40
1.0000000000
40
1.0000000000
40
1.0000000000
10
-12.3003786599
20
-23.9582516768
30
0.0000000000
10
-12.3006885974
20
-23.9582691944
30
0.0000000000
10
-12.3009985643
20
-23.9582860114
30
0.0000000000
10
-12.3013085569
20
-23.9583021276
30
0.0000000000
11
-12.3003786599
21
-23.9582516768
31
0.0000000000
11
-12.3013085569
21
-23.9583021276
31
0.0000000000
0
SPLINE
5
356
100
AcDbEntity
8
0
100
AcDbSpline
62
7
6
CONTINUOUS
70
0
71
3
72
17
73
13
74
11
42
0.0000001000
43
0.0000001000
44
0.0000000001
12
0.0008919274
22
-0.3619046349
32
0.0000000000
13
-0.3617407577
23
-0.0204442262
33
0.0000000000
40
0.0000000000
40
0.0000000000
40
0.0000000000
40
0.0000000000
40
0.1082085342
40
0.2162233539
40
0.3227151253
40
0.4285129304
40
0.5324877985
40
0.6348936831
40
0.7361212639
40
0.8355347633
40
0.9345832284
40
1.0000000000
40
1.0000000000
40
1.0000000000
40
1.0000000000
10
8.5974469479
20
-23.7401256270
30
0.0000000000
10
8.5974791193
20
-23.7531793504
30
0.0000000000
10
8.5956857052
20
-23.7793063927
30
0.0000000000
10
8.5874761865
20
-23.8174939065
30
0.0000000000
10
8.5739354667
20
-23.8538318770
30
0.0000000000
10
8.5554136633
20
-23.8873516977
30
0.0000000000
10
8.5323174126
20
-23.9172871201
30
0.0000000000
10
8.5052255231
20
-23.9428751953
30
0.0000000000
10
8.4748108416
20
-23.9634556900
30
0.0000000000
10
8.4417676833
20
-23.9785449304
30
0.0000000000
10
8.4108441497
20
-23.9867107185
30
0.0000000000
10
8.3910608024
20
-23.9889720119
30
0.0000000000
10
8.3831728316
20
-23.9894178104
30
0.0000000000
11
8.5974469479
21
-23.7401256270
31
0.0000000000
11
8.5947556695
21
-23.7791943303
31
0.0000000000
11
8.5865217370
21
-23.8174085020
31
0.0000000000
11
8.5730359317
21
-23.8535120104
31
0.0000000000
11
8.5544841248
21
-23.8870062657
31
0.0000000000
11
8.5314633358
21
-23.9167718921
31
0.0000000000
11
8.5044888082
21
-23.9421867127
31
0.0000000000
11
8.4741234219
21
-23.9626819549
31
0.0000000000
11
8.4413823109
21
-23.9775970088
31
0.0000000000
11
8.4067179548
21
-23.9867257001
31
0.0000000000
11
8.3831728316
21
-23.9894178104
31
0.0000000000
0
SPLINE
5
357
100
AcDbEntity
8
0
100
AcDbSpline
62
7
6
CONTINUOUS
70
0
71
3
72
14
73
10
74
8
42
0.0000001000
43
0.0000001000
44
0.0000000001
12
-0.1442012822
22
0.0002172838
32
0.0000000000
13
0.0345108749
23
0.0318753915
33
0.0000000000
40
0.0000000000
40
0.0000000000
40
0.0000000000
40
0.0000000000
40
0.2343664791
40
0.4461619699
40
0.6286352281
40
0.7793182074
40
0.8932181775
40
0.9681167588
40
1.0000000000
40
1.0000000000
40
1.0000000000
40
1.0000000000
10
-17.6291392014
20
18.7579109856
30
0.0000000000
10
-17.6404045170
20
18.7579279603
30
0.0000000000
10
-17.6618762316
20
18.7579741990
30
0.0000000000
10
-17.6919897561
20
18.7581094934
30
0.0000000000
10
-17.7184856756
20
18.7582519034
30
0.0000000000
10
-17.7391348593
20
18.7585418728
30
0.0000000000
10
-17.7575134446
20
18.7585870064
30
0.0000000000
10
-17.7640442483
20
18.7592248559
30
0.0000000000
10
-17.7741510214
20
18.7589738333
30
0.0000000000
10
-17.7737842486
20
18.7593125969
30
0.0000000000
11
-17.6291392014
21
18.7579109856
31
0.0000000000
11
-17.6629350936
21
18.7579902753
31
0.0000000000
11
-17.6934760296
21
18.7581210498
31
0.0000000000
11
-17.7197883361
21
18.7582989181
31
0.0000000000
11
-17.7415158997
21
18.7585214784
31
0.0000000000
11
-17.7579383791
21
18.7587816657
31
0.0000000000
11
-17.7687349102
21
18.7590738408
31
0.0000000000
11
-17.7737842486
21
18.7593125969
31
0.0000000000
0
SPLINE
5
358
100
AcDbEntity
8
0
100
AcDbSpline
62
7
6
CONTINUOUS
70
0
71
3
72
17
73
13
74
11
42
0.0000001000
43
0.0000001000
44
0.0000000001
12
-0.3300525778
22
-0.0066378911
32
0.0000000000
13
-0.3301189456
23
0.0004974263
33
0.0000000000
40
0.0000000000
40
0.0000000000
40
0.0000000000
40
0.0000000000
40
0.0593037284
40
0.1338074964
40
0.2210584649
40
0.3198781670
40
0.4271017855
40
0.5404380246
40
0.6575226113
40
0.7745587877
40
0.8899642197
40
1.0000000000
40
1.0000000000
40
1.0000000000
40
1.0000000000
10
4.4522774096
20
18.7269568873
30
0.0000000000
10
4.4457529601
20
18.7268256700
30
0.0000000000
10
4.4310307167
20
18.7265838007
30
0.0000000000
10
4.4067074210
20
18.7262757840
30
0.0000000000
10
4.3780352642
20
18.7259897785
30
0.0000000000
10
4.3457622246
20
18.7257339593
30
0.0000000000
10
4.3106184381
20
18.7255148807
30
0.0000000000
10
4.2734645281
20
18.7253381527
30
0.0000000000
10
4.2352306470
20
18.7252084291
30
0.0000000000
10
4.1967689352
20
18.7251286049
30
0.0000000000
10
4.1590828002
20
18.7251007401
30
0.0000000000
10
4.1342752948
20
18.7251176707
30
0.0000000000
10
4.1221669962
20
18.7251359156
30
0.0000000000
11
4.4522774096
21
18.7269568873
31
0.0000000000
11
4.4327029648
21
18.7266221633
31
0.0000000000
11
4.4081098934
21
18.7263036955
31
0.0000000000
11
4.3793081431
21
18.7260116969
31
0.0000000000
11
4.3466868990
21
18.7257501179
31
0.0000000000
11
4.3112910107
21
18.7255275460
31
0.0000000000
11
4.2738769570
21
18.7253484801
31
0.0000000000
11
4.2352252967
21
18.7252168998
31
0.0000000000
11
4.1965894766
21
18.7251368959
31
0.0000000000
11
4.1584919236
21
18.7251095466
31
0.0000000000
11
4.1221669962
21
18.7251359156
31
0.0000000000
0
SPLINE
5
359
100
AcDbEntity
8
0
100
AcDbSpline
62
7
6
CONTINUOUS
70
0
71
3
72
11
73
7
74
5
42
0.0000001000
43
0.0000001000
44
0.0000000001
12
-0.0214920704
22
-0.0004685800
32
0.0000000000
13
-0.0051447918
23
-0.0047519008
33
0.0000000000
40
0.0000000000
40
0.0000000000
40
0.0000000000
40
0.0000000000
40
0.6002311741
40
0.9311238159
40
0.9846715492
40
1.0000000000
40
1.0000000000
40
1.0000000000
40
1.0000000000
10
-17.6598835888
20
-18.8380922344
30
0.0000000000
10
-17.6641836591
20
-18.8381859865
30
0.0000000000
10
-17.6711442762
20
-18.8387830461
30
0.0000000000
10
-17.6775497043
20
-18.8380943401
30
0.0000000000
10
-17.6808988057
20
-18.8390520329
30
0.0000000000
10
-17.6810950429
20
-18.8391706797
30
0.0000000000
10
-17.6811213301
20
-18.8391949595
30
0.0000000000
11
-17.6598835888
21
-18.8380922344
31
0.0000000000
11
-17.6727822580
21
-18.8384370175
31
0.0000000000
11
-17.6798871534
21
-18.8387818367
31
0.0000000000
11
-17.6809888378
21
-18.8391155740
31
0.0000000000
11
-17.6811213301
21
-18.8391949595
31
0.0000000000
0
SPLINE
5
35A
100
AcDbEntity
8
0
100
AcDbSpline
62
7
6
CONTINUOUS
70
0
71
3
72
8
73
4
74
2
42
0.0000001000
43
0.0000001000
44
0.0000000001
12
0.0008729485
22
0.0003917900
32
0.0000000000
13
0.0008728611
23
0.0003919893
33
0.0000000000
40
0.0000000000
40
0.0000000000
40
0.0000000000
40
0.0000000000
40
1.0000000000
40
1.0000000000
40
1.0000000000
40
1.0000000000
10
-0.8387963014
20
-18.5145173543
30
0.0000000000
10
-0.8385053185
20
-18.5143867576
30
0.0000000000
10
-0.8382143503
20
-18.5142561277
30
0.0000000000
10
-0.8379233966
20
-18.5141254646
30
0.0000000000
11
-0.8387963014
21
-18.5145173543
31
0.0000000000
11
-0.8379233966
21
-18.5141254646
31
0.0000000000
0
SPLINE
5
35B
100
AcDbEntity
8
0
100
AcDbSpline
62
7
6
CONTINUOUS
70
0
71
3
72
10
73
6
74
4
42
0.0000001000
43
0.0000001000
44
0.0000000001
12
0.5674731362
22
0.2548440197
32
0.0000000000
13
0.5277412121
23
0.3295004011
33
0.0000000000
40
0.0000000000
40
0.0000000000
40
0.0000000000
40
0.0000000000
40
0.4882508222
40
0.9921501564
40
1.0000000000
40
1.0000000000
40
1.0000000000
40
1.0000000000
10
-0.8379233966
20
-18.5141254646
30
0.0000000000
10
-0.7455669881
20
-18.4726495305
30
0.0000000000
10
-0.5608797019
20
-18.3815682680
30
0.0000000000
10
-0.3814064172
20
-18.2774294921
30
0.0000000000
10
-0.2913551887
20
-18.2212662500
30
0.0000000000
10
-0.2899742934
20
-18.2204040745
30
0.0000000000
11
-0.8379233966
21
-18.5141254646
31
0.0000000000
11
-0.5653965421
21
-18.3800405866
31
0.0000000000
11
-0.2941182457
21
-18.2229885776
31
0.0000000000
11
-0.2899742934
21
-18.2204040745
31
0.0000000000
0
SPLINE
5
35C
100
AcDbEntity
8
0
100
AcDbSpline
62
9
6
CONTINUOUS
70
0
71
3
72
29
73
25
74
23
42
0.0000001000
43
0.0000001000
44
0.0000000001
12
0.6105169186
22
-1.1063367006
32
0.0000000000
13
1.5577778041
23
0.0539833448
33
0.0000000000
40
0.0000000000
40
0.0000000000
40
0.0000000000
40
0.0000000000
40
0.0011971590
40
0.0101883839
40
0.0271893080
40
0.0519491041
40
0.0840858066
40
0.1230994411
40
0.1683839289
40
0.2192320712
40
0.2748527695
40
0.3343771814
40
0.3968793194
40
0.4613827856
40
0.5268836966
40
0.5923584619
40
0.6567883003
40
0.7191679180
40
0.7785252004
40
0.8339317553
40
0.8845265495
40
0.9295216255
40
0.9682111246
40
1.0000000000
40
1.0000000000
40
1.0000000000
40
1.0000000000
10
0.6765875535
20
22.8851501117
30
0.0000000000
10
0.6768311821
20
22.8847086248
30
0.0000000000
10
0.6808200795
20
22.8801641292
30
0.0000000000
10
0.6966976849
20
22.8843821340
30
0.0000000000
10
0.7218389162
20
22.8797047432
30
0.0000000000
10
0.7607856956
20
22.8803048198
30
0.0000000000
10
0.8103846741
20
22.8786839651
30
0.0000000000
10
0.8709559347
20
22.8780983848
30
0.0000000000
10
0.9411439801
20
22.8773519020
30
0.0000000000
10
1.0199977700
20
22.8768799332
30
0.0000000000
10
1.1062398894
20
22.8765536955
30
0.0000000000
10
1.1985410015
20
22.8764225685
30
0.0000000000
10
1.2954563987
20
22.8764761401
30
0.0000000000
10
1.3954770216
20
22.8767177973
30
0.0000000000
10
1.4970414530
20
22.8771428731
30
0.0000000000
10
1.5985667555
20
22.8777451089
30
0.0000000000
10
1.6984691410
20
22.8785149602
30
0.0000000000
10
1.7951916077
20
22.8794402433
30
0.0000000000
10
1.8872240997
20
22.8805061293
30
0.0000000000
10
1.9731314996
20
22.8816953181
30
0.0000000000
10
2.0515743031
20
22.8829883017
30
0.0000000000
10
2.1213286004
20
22.8843627586
30
0.0000000000
10
2.1813083088
20
22.8857951714
30
0.0000000000
10
2.2179112180
20
22.8868786046
30
0.0000000000
10
2.2344178862
20
22.8874506279
30
0.0000000000
11
0.6765875535
21
22.8851501117
31
0.0000000000
11
0.6777956636
21
22.8837252146
31
0.0000000000
11
0.6917447624
21
22.8823703975
31
0.0000000000
11
0.7182145154
21
22.8811138811
31
0.0000000000
11
0.7567911308
21
22.8799753300
31
0.0000000000
11
0.8068729840
21
22.8789724866
31
0.0000000000
11
0.8676780775
21
22.8781209982
31
0.0000000000
11
0.9382602504
21
22.8774341155
31
0.0000000000
11
1.0175162546
21
22.8769225756
31
0.0000000000
11
1.1042123329
21
22.8765943405
31
0.0000000000
11
1.1969936960
21
22.8764545379
31
0.0000000000
11
1.2944165713
21
22.8765053433
31
0.0000000000
11
1.3949586678
21
22.8767459639
31
0.0000000000
11
1.4970548908
21
22.8771726552
31
0.0000000000
11
1.5991094521
21
22.8777787473
31
0.0000000000
11
1.6995340735
21
22.8785548068
31
0.0000000000
11
1.7967615027
21
22.8794887279
31
0.0000000000
11
1.8892761927
21
22.8805659585
31
0.0000000000
11
1.9756307157
21
22.8817696401
31
0.0000000000
11
2.0544825694
21
22.8830810484
31
0.0000000000
11
2.1246030254
21
22.8844797726
31
0.0000000000
11
2.1848910730
21
22.8859438056
31
0.0000000000
11
2.2344178862
21
22.8874506279
31
0.0000000000
0
SPLINE
5
35D
100
AcDbEntity
8
0
100
AcDbSpline
62
9
6
CONTINUOUS
70
0
71
3
72
30
73
26
74
24
42
0.0000001000
43
0.0000001000
44
0.0000000001
12
0.2414106112
22
-1.8091588184
32
0.0000000000
13
1.8006575035
23
0.0639113544
33
0.0000000000
40
0.0000000000
40
0.0000000000
40
0.0000000000
40
0.0000000000
40
0.0005905556
40
0.0083220158
40
0.0234382749
40
0.0457398284
40
0.0749111999
40
0.1105363890
40
0.1521056252
40
0.1990232214
40
0.2506168186
40
0.3061470090
40
0.3648177569
40
0.4257879450
40
0.4881836123
40
0.5511102544
40
0.6136653417
40
0.6749519888
40
0.7340924739
40
0.7902387379
40
0.8425838535
40
0.8903786027
40
0.9329399961
40
0.9696534157
40
1.0000000000
40
1.0000000000
40
1.0000000000
40
1.0000000000
10
-15.7447683920
20
23.7147825007
30
0.0000000000
10
-15.7447208699
20
23.7144263644
30
0.0000000000
10
-15.7434848605
20
23.7092563124
30
0.0000000000
10
-15.7234438418
20
23.7149800962
30
0.0000000000
10
-15.7006006766
20
23.7088255599
30
0.0000000000
10
-15.6585953185
20
23.7099193585
30
0.0000000000
10
-15.6071097253
20
23.7078619515
30
0.0000000000
10
-15.5429394499
20
23.7072199332
30
0.0000000000
10
-15.4685020140
20
23.7062910946
30
0.0000000000
10
-15.3843403103
20
23.7056940599
30
0.0000000000
10
-15.2918343809
20
23.7052407499
30
0.0000000000
10
-15.1922559011
20
23.7050016944
30
0.0000000000
10
-15.0870494339
20
23.7049619206
30
0.0000000000
10
-14.9777185928
20
23.7051281414
30
0.0000000000
10
-14.8658324742
20
23.7054966148
30
0.0000000000
10
-14.7529951964
20
23.7060626517
30
0.0000000000
10
-14.6408251395
20
23.7068180179
30
0.0000000000
10
-14.5309304516
20
23.7077518087
30
0.0000000000
10
-14.4248866025
20
23.7088503806
30
0.0000000000
10
-14.3242150362
20
23.7100975565
30
0.0000000000
10
-14.2303600439
20
23.7114747156
30
0.0000000000
10
-14.1446668556
20
23.7129610903
30
0.0000000000
10
-14.0683652413
20
23.7145331336
30
0.0000000000
10
-14.0025470195
20
23.7161661061
30
0.0000000000
10
-13.9622892829
20
23.7173953930
30
0.0000000000
10
-13.9440746813
20
23.7180418901
30
0.0000000000
11
-15.7447683920
21
23.7147825007
31
0.0000000000
11
-15.7445158388
21
23.7137288684
31
0.0000000000
11
-15.7306716072
21
23.7121811359
31
0.0000000000
11
-15.7034735336
21
23.7107377790
31
0.0000000000
11
-15.6633124157
21
23.7094195510
31
0.0000000000
11
-15.6107648078
21
23.7082453545
31
0.0000000000
11
-15.5465836492
21
23.7072320058
31
0.0000000000
11
-15.4716892462
21
23.7063940372
31
0.0000000000
11
-15.3871560303
21
23.7057434697
31
0.0000000000
11
-15.2941962404
21
23.7052896301
31
0.0000000000
11
-15.1941427369
21
23.7050390248
31
0.0000000000
11
-15.0884302993
21
23.7049952473
31
0.0000000000
11
-14.9785748630
21
23.7051589256
31
0.0000000000
11
-14.8661514937
21
23.7055277135
31
0.0000000000
11
-14.7527722394
21
23.7060963248
31
0.0000000000
11
-14.6400635878
21
23.7068566031
31
0.0000000000
11
-14.5296418464
21
23.7077976444
31
0.0000000000
11
-14.4230887952
21
23.7089059722
31
0.0000000000
11
-14.3219327855
21
23.7101656973
31
0.0000000000
11
-14.2276280962
21
23.7115587065
31
0.0000000000
11
-14.1415251053
21
23.7130650396
31
0.0000000000
11
-14.0648550088
21
23.7146631786
31
0.0000000000
11
-13.9987260894
21
23.7163299848
31
0.0000000000
11
-13.9440746813
21
23.7180418901
31
0.0000000000
0
SPLINE
5
35E
100
AcDbEntity
8
0
100
AcDbSpline
62
9
6
CONTINUOUS
70
0
71
3
72
16
73
12
74
10
42
0.0000001000
43
0.0000001000
44
0.0000000001
12
0.3731322950
22
0.0000621536
32
0.0000000000
13
0.0004761479
23
0.3731149918
33
0.0000000000
40
0.0000000000
40
0.0000000000
40
0.0000000000
40
0.0000000000
40
0.1046903579
40
0.2109891078
40
0.3185908738
40
0.4279268376
40
0.5392043788
40
0.6523922579
40
0.7672358578
40
0.8832954377
40
1.0000000000
40
1.0000000000
40
1.0000000000
40
1.0000000000
10
-10.7603110344
20
-23.1788642314
30
0.0000000000
10
-10.7472899166
20
-23.1788620625
30
0.0000000000
10
-10.7209797357
20
-23.1763267885
30
0.0000000000
10
-10.6827660096
20
-23.1650135236
30
0.0000000000
10
-10.6468303956
20
-23.1464726378
30
0.0000000000
10
-10.6143952173
20
-23.1213268245
30
0.0000000000
10
-10.5864287823
20
-23.0903618262
30
0.0000000000
10
-10.5637625468
20
-23.0545311543
30
0.0000000000
10
-10.5470637128
20
-23.0149203929
30
0.0000000000
10
-10.5368221052
20
-22.9727385488
30
0.0000000000
10
-10.5345010978
20
-22.9437399063
30
0.0000000000
10
-10.5344825749
20
-22.9292251657
30
0.0000000000
11
-10.7603110344
21
-23.1788642314
31
0.0000000000
11
-10.7214272092
21
-23.1751256827
31
0.0000000000
11
-10.6833856718
21
-23.1639055649
31
0.0000000000
11
-10.6476824032
21
-23.1455445287
31
0.0000000000
11
-10.6154021259
21
-23.1206004065
31
0.0000000000
11
-10.5875255674
21
-23.0898310364
31
0.0000000000
11
-10.5648996641
21
-23.0541712381
31
0.0000000000
11
-10.5482118294
21
-23.0147044112
31
0.0000000000
11
-10.5379690686
21
-22.9726296205
31
0.0000000000
11
-10.5344825749
21
-22.9292251657
31
0.0000000000
0
SPLINE
5
35F
100
AcDbEntity
8
0
100
AcDbSpline
62
9
6
CONTINUOUS
70
0
71
3
72
29
73
25
74
23
42
0.0000001000
43
0.0000001000
44
0.0000000001
12
0.6105169186
22
-1.1063367006
32
0.0000000000
13
1.5577778041
23
0.0539833448
33
0.0000000000
40
0.0000000000
40
0.0000000000
40
0.0000000000
40
0.0000000000
40
0.0011971590
40
0.0101883839
40
0.0271893080
40
0.0519491041
40
0.0840858066
40
0.1230994411
40
0.1683839289
40
0.2192320712
40
0.2748527695
40
0.3343771814
40
0.3968793194
40
0.4613827856
40
0.5268836966
40
0.5923584619
40
0.6567883003
40
0.7191679180
40
0.7785252004
40
0.8339317553
40
0.8845265495
40
0.9295216255
40
0.9682111246
40
1.0000000000
40
1.0000000000
40
1.0000000000
40
1.0000000000
10
-12.2052776448
20
22.9045606258
30
0.0000000000
10
-12.2050340162
20
22.9041191388
30
0.0000000000
10
-12.2010451189
20
22.8995746433
30
0.0000000000
10
-12.1851675134
20
22.9037926480
30
0.0000000000
10
-12.1600262821
20
22.8991152572
30
0.0000000000
10
-12.1210795027
20
22.8997153339
30
0.0000000000
10
-12.0714805243
20
22.8980944792
30
0.0000000000
10
-12.0109092636
20
22.8975088988
30
0.0000000000
10
-11.9407212182
20
22.8967624161
30
0.0000000000
10
-11.8618674284
20
22.8962904472
30
0.0000000000
10
-11.7756253089
20
22.8959642095
30
0.0000000000
10
-11.6833241968
20
22.8958330825
30
0.0000000000
10
-11.5864087996
20
22.8958866541
30
0.0000000000
10
-11.4863881767
20
22.8961283113
30
0.0000000000
10
-11.3848237454
20
22.8965533871
30
0.0000000000
10
-11.2832984428
20
22.8971556230
30
0.0000000000
10
-11.1833960573
20
22.8979254742
30
0.0000000000
10
-11.0866735906
20
22.8988507573
30
0.0000000000
10
-10.9946410987
20
22.8999166434
30
0.0000000000
10
-10.9087336987
20
22.9011058321
30
0.0000000000
10
-10.8302908952
20
22.9023988158
30
0.0000000000
10
-10.7605365979
20
22.9037732726
30
0.0000000000
10
-10.7005568895
20
22.9052056855
30
0.0000000000
10
-10.6639539803
20
22.9062891187
30
0.0000000000
10
-10.6474473121
20
22.9068611420
30
0.0000000000
11
-12.2052776448
21
22.9045606258
31
0.0000000000
11
-12.2040695347
21
22.9031357286
31
0.0000000000
11
-12.1901204359
21
22.9017809115
31
0.0000000000
11
-12.1636506829
21
22.9005243952
31
0.0000000000
11
-12.1250740675
21
22.8993858440
31
0.0000000000
11
-12.0749922143
21
22.8983830007
31
0.0000000000
11
-12.0141871208
21
22.8975315123
31
0.0000000000
11
-11.9436049479
21
22.8968446295
31
0.0000000000
11
-11.8643489437
21
22.8963330896
31
0.0000000000
11
-11.7776528654
21
22.8960048545
31
0.0000000000
11
-11.6848715023
21
22.8958650520
31
0.0000000000
11
-11.5874486270
21
22.8959158573
31
0.0000000000
11
-11.4869065305
21
22.8961564780
31
0.0000000000
11
-11.3848103075
21
22.8965831692
31
0.0000000000
11
-11.2827557462
21
22.8971892613
31
0.0000000000
11
-11.1823311249
21
22.8979653208
31
0.0000000000
11
-11.0851036957
21
22.8988992419
31
0.0000000000
11
-10.9925890056
21
22.8999764726
31
0.0000000000
11
-10.9062344826
21
22.9011801541
31
0.0000000000
11
-10.8273826289
21
22.9024915625
31
0.0000000000
11
-10.7572621729
21
22.9038902866
31
0.0000000000
11
-10.6969741253
21
22.9053543196
31
0.0000000000
11
-10.6474473121
21
22.9068611420
31
0.0000000000
0
SPLINE
5
360
100
AcDbEntity
8
0
100
AcDbSpline
62
9
6
CONTINUOUS
70
0
71
3
72
30
73
26
74
24
42
0.0000001000
43
0.0000001000
44
0.0000000001
12
-0.4951538997
22
-1.6371130102
32
0.0000000000
13
1.7968774664
23
0.0625713911
33
0.0000000000
40
0.0000000000
40
0.0000000000
40
0.0000000000
40
0.0000000000
40
0.0001804306
40
0.0073859338
40
0.0220005462
40
0.0438345170
40
0.0725794556
40
0.1078255807
40
0.1490686025
40
0.1957175344
40
0.2471038804
40
0.3024912103
40
0.3610855407
40
0.4220468530
40
0.4845013155
40
0.5475535831
40
0.6102993254
40
0.6718389236
40
0.7312910342
40
0.7878031303
40
0.8405630221
40
0.8888155442
40
0.9318711575
40
0.9691080774
40
1.0000000000
40
1.0000000000
40
1.0000000000
40
1.0000000000
10
4.9064462573
20
23.6830153127
30
0.0000000000
10
4.9064164770
20
23.6829168510
30
0.0000000000
10
4.9053864639
20
23.6789727237
30
0.0000000000
10
4.9284883080
20
23.6834723722
30
0.0000000000
10
4.9472616775
20
23.6780150218
30
0.0000000000
10
4.9898999749
20
23.6788063219
30
0.0000000000
10
5.0398742005
20
23.6768503993
30
0.0000000000
10
5.1034640535
20
23.6761587286
30
0.0000000000
10
5.1770795705
20
23.6752298155
30
0.0000000000
10
5.2606076943
20
23.6746152626
30
0.0000000000
10
5.3525382579
20
23.6741488721
30
0.0000000000
10
5.4516521217
20
23.6738947579
30
0.0000000000
10
5.5564978043
20
23.6738401774
30
0.0000000000
10
5.6655809055
20
23.6739914945
30
0.0000000000
10
5.7773347126
20
23.6743453573
30
0.0000000000
10
5.8901573367
20
23.6748972498
30
0.0000000000
10
6.0024305184
20
23.6756391619
30
0.0000000000
10
6.1125446586
20
23.6765603875
30
0.0000000000
10
6.2189211388
20
23.6776474755
30
0.0000000000
10
6.3200337449
20
23.6788844281
30
0.0000000000
10
6.4144318571
20
23.6802527975
30
0.0000000000
10
6.5007624634
20
23.6817319722
30
0.0000000000
10
6.5777866248
20
23.6832986097
30
0.0000000000
10
6.6444021872
20
23.6849281036
30
0.0000000000
10
6.6852153333
20
23.6861542448
30
0.0000000000
10
6.7037183331
20
23.6867985617
30
0.0000000000
11
4.9064462573
21
23.6830153127
31
0.0000000000
11
4.9063713958
21
23.6827274045
31
0.0000000000
11
4.9192330513
21
23.6811729186
31
0.0000000000
11
4.9454695053
21
23.6797212385
31
0.0000000000
11
4.9847037864
21
23.6783932371
31
0.0000000000
11
5.0363726318
21
23.6772079573
31
0.0000000000
11
5.0997356873
21
23.6761823742
31
0.0000000000
11
5.1738843767
21
23.6753311957
31
0.0000000000
11
5.2577549642
21
23.6746666319
31
0.0000000000
11
5.3501447094
21
23.6741982107
31
0.0000000000
11
5.4497289231
21
23.6739326473
31
0.0000000000
11
5.5550795543
21
23.6738737498
31
0.0000000000
11
5.6646858554
21
23.6740223628
31
0.0000000000
11
5.7769763335
21
23.6743763564
31
0.0000000000
11
5.8903408480
21
23.6749306563
31
0.0000000000
11
6.0031531247
21
23.6756773113
31
0.0000000000
11
6.1137953712
21
23.6766056130
31
0.0000000000
11
6.2206826533
21
23.6777022672
31
0.0000000000
11
6.3222818327
21
23.6789515524
31
0.0000000000
11
6.4171322587
21
23.6803355053
31
0.0000000000
11
6.5038757332
21
23.6818342955
31
0.0000000000
11
6.5812719108
21
23.6834265130
31
0.0000000000
11
6.6482020014
21
23.6850891045
31
0.0000000000
11
6.7037183331
21
23.6867985617
31
0.0000000000
0
SPLINE
5
361
100
AcDbEntity
8
0
100
AcDbSpline
62
9
6
CONTINUOUS
70
0
71
3
72
16
73
12
74
10
42
0.0000001000
43
0.0000001000
44
0.0000000001
12
0.3731322950
22
0.0000621536
32
0.0000000000
13
0.0004761478
23
0.3731149918
33
0.0000000000
40
0.0000000000
40
0.0000000000
40
0.0000000000
40
0.0000000000
40
0.1046903679
40
0.2109891253
40
0.3185908961
40
0.4279268621
40
0.5392044028
40
0.6523922790
40
0.7672358735
40
0.8832954463
40
1.0000000000
40
1.0000000000
40
1.0000000000
40
1.0000000000
10
-14.0530169225
20
-23.9588468062
30
0.0000000000
10
-14.0399958034
20
-23.9588446372
30
0.0000000000
10
-14.0136856203
20
-23.9563093628
30
0.0000000000
10
-13.9754718918
20
-23.9449960961
30
0.0000000000
10
-13.9395362768
20
-23.9264552082
30
0.0000000000
10
-13.9071010988
20
-23.9013093933
30
0.0000000000
10
-13.8791346651
20
-23.8703443940
30
0.0000000000
10
-13.8564684314
20
-23.8345137222
30
0.0000000000
10
-13.8397695992
20
-23.7949029622
30
0.0000000000
10
-13.8295279929
20
-23.7527211205
30
0.0000000000
10
-13.8272069858
20
-23.7237224800
30
0.0000000000
10
-13.8271884630
20
-23.7092077404
30
0.0000000000
11
-14.0530169225
21
-23.9588468062
31
0.0000000000
11
-14.0141330936
21
-23.9551082567
31
0.0000000000
11
-13.9760915538
21
-23.9438881372
31
0.0000000000
11
-13.9403882842
21
-23.9255270989
31
0.0000000000
11
-13.9081080072
21
-23.9005829750
31
0.0000000000
11
-13.8802314500
21
-23.8698136040
31
0.0000000000
11
-13.8576055485
21
-23.8341538059
31
0.0000000000
11
-13.8409177156
21
-23.7946869804
31
0.0000000000
11
-13.8306749562
21
-23.7526121921
31
0.0000000000
11
-13.8271884630
21
-23.7092077404
31
0.0000000000
0
SPLINE
5
362
100
AcDbEntity
8
0
100
AcDbSpline
62
9
6
CONTINUOUS
70
0
71
3
72
16
73
12
74
10
42
0.0000001000
43
0.0000001000
44
0.0000000001
12
0.3731322950
22
0.0000621536
32
0.0000000000
13
0.0004761479
23
0.3731149918
33
0.0000000000
40
0.0000000000
40
0.0000000000
40
0.0000000000
40
0.0000000000
40
0.1046903579
40
0.2109891078
40
0.3185908738
40
0.4279268376
40
0.5392043788
40
0.6523922579
40
0.7672358578
40
0.8832954377
40
1.0000000000
40
1.0000000000
40
1.0000000000
40
1.0000000000
10
2.1215541639
20
-23.1982747455
30
0.0000000000
10
2.1345752817
20
-23.1982725765
30
0.0000000000
10
2.1608854626
20
-23.1957373026
30
0.0000000000
10
2.1990991887
20
-23.1844240376
30
0.0000000000
10
2.2350348027
20
-23.1658831518
30
0.0000000000
10
2.2674699810
20
-23.1407373386
30
0.0000000000
10
2.2954364160
20
-23.1097723402
30
0.0000000000
10
2.3181026516
20
-23.0739416683
30
0.0000000000
10
2.3348014855
20
-23.0343309069
30
0.0000000000
10
2.3450430931
20
-22.9921490628
30
0.0000000000
10
2.3473641006
20
-22.9631504203
30
0.0000000000
10
2.3473826234
20
-22.9486356797
30
0.0000000000
11
2.1215541639
21
-23.1982747455
31
0.0000000000
11
2.1604379891
21
-23.1945361968
31
0.0000000000
11
2.1984795265
21
-23.1833160790
31
0.0000000000
11
2.2341827951
21
-23.1649550427
31
0.0000000000
11
2.2664630725
21
-23.1400109205
31
0.0000000000
11
2.2943396310
21
-23.1092415505
31
0.0000000000
11
2.3169655342
21
-23.0735817521
31
0.0000000000
11
2.3336533689
21
-23.0341149253
31
0.0000000000
11
2.3438961297
21
-22.9920401346
31
0.0000000000
11
2.3473826234
21
-22.9486356797
31
0.0000000000
0
SPLINE
5
363
100
AcDbEntity
8
0
100
AcDbSpline
62
7
6
CONTINUOUS
70
0
71
3
72
15
73
11
74
9
42
0.0000001000
43
0.0000001000
44
0.0000000001
12
2.7154187298
22
-0.0041874792
32
0.0000000000
13
2.1912662751
23
-1.6025949773
33
0.0000000000
40
0.0000000000
40
0.0000000000
40
0.0000000000
40
0.0000000000
40
0.0924623324
40
0.2143873107
40
0.3377200814
40
0.4632184667
40
0.5915887388
40
0.7234736403
40
0.8594449263
40
1.0000000000
40
1.0000000000
40
1.0000000000
40
1.0000000000
10
5.3258864177
20
18.7436781424
30
0.0000000000
10
5.4095777341
20
18.7435490810
30
0.0000000000
10
5.6036796846
20
18.7365245312
30
0.0000000000
10
5.9076188864
20
18.7010306722
30
0.0000000000
10
6.2364931342
20
18.6324658592
30
0.0000000000
10
6.5637502328
20
18.5340045632
30
0.0000000000
10
6.8888622318
20
18.4058448662
30
0.0000000000
10
7.2113120376
20
18.2482278160
30
0.0000000000
10
7.5305815428
20
18.0614511902
30
0.0000000000
10
7.7373855551
20
17.9201653816
30
0.0000000000
10
7.8400500860
20
17.8450810966
30
0.0000000000
11
5.3258864177
21
18.7436781424
31
0.0000000000
11
5.5767892150
21
18.7346054279
31
0.0000000000
11
5.9055677555
21
18.6963396906
31
0.0000000000
11
6.2333835400
21
18.6282144611
31
0.0000000000
11
6.5597203234
21
18.5303369532
31
0.0000000000
11
6.8840641747
21
18.4028611782
31
0.0000000000
11
7.2059042471
21
18.2459877271
31
0.0000000000
11
7.5247336189
21
18.0599634540
31
0.0000000000
11
7.8400500860
21
17.8450810966
31
0.0000000000
0
SPLINE
5
364
100
AcDbEntity
8
0
100
AcDbSpline
62
7
6
CONTINUOUS
70
0
71
3
72
24
73
20
74
18
42
0.0000001000
43
0.0000001000
44
0.0000000001
12
-0.5502311092
22
0.0008290933
32
0.0000000000
13
0.1744333825
23
0.5219243733
33
0.0000000000
40
0.0000000000
40
0.0000000000
40
0.0000000000
40
0.0000000000
40
0.0743137013
40
0.1454262616
40
0.2130018406
40
0.2771291007
40
0.3371921010
40
0.3927172210
40
0.4437129006
40
0.4911293915
40
0.5364052076
40
0.5814124559
40
0.6284055826
40
0.6797632240
40
0.7378790674
40
0.8050696094
40
0.8836596862
40
0.9761170900
40
1.0000000000
40
1.0000000000
40
1.0000000000
40
1.0000000000
10
-10.5564948648
20
-18.5247323157
30
0.0000000000
10
-10.5701247682
20
-18.5247117780
30
0.0000000000
10
-10.5967997737
20
-18.5242594153
30
0.0000000000
10
-10.6358184936
20
-18.5221095009
30
0.0000000000
10
-10.6728409291
20
-18.5183265726
30
0.0000000000
10
-10.7075862900
20
-18.5127057183
30
0.0000000000
10
-10.7396804557
20
-18.5050260793
30
0.0000000000
10
-10.7686402559
20
-18.4951074392
30
0.0000000000
10
-10.7941327415
20
-18.4827759885
30
0.0000000000
10
-10.8159738869
20
-18.4678164799
30
0.0000000000
10
-10.8340311038
20
-18.4499375462
30
0.0000000000
10
-10.8481105641
20
-18.4288500185
30
0.0000000000
10
-10.8580096052
20
-18.4043040469
30
0.0000000000
10
-10.8635829380
20
-18.3760038425
30
0.0000000000
10
-10.8646916685
20
-18.3435088222
30
0.0000000000
10
-10.8611145917
20
-18.3062012654
30
0.0000000000
10
-10.8525009390
20
-18.2633029160
30
0.0000000000
10
-10.8426538412
20
-18.2289022261
30
0.0000000000
10
-10.8360310630
20
-18.2086142686
30
0.0000000000
10
-10.8346424040
20
-18.2044592444
30
0.0000000000
11
-10.5564948648
21
-18.5247323157
31
0.0000000000
11
-10.5973777788
21
-18.5239842874
31
0.0000000000
11
-10.6364429925
21
-18.5217617253
31
0.0000000000
11
-10.6734233735
21
-18.5178926824
31
0.0000000000
11
-10.7082364825
21
-18.5121421752
31
0.0000000000
11
-10.7403429680
21
-18.5043075414
31
0.0000000000
11
-10.7691891235
21
-18.4942425202
31
0.0000000000
11
-10.7943661080
21
-18.4818549583
31
0.0000000000
11
-10.8157930823
21
-18.4669695325
31
0.0000000000
11
-10.8334175908
21
-18.4493628874
31
0.0000000000
11
-10.8471690272
21
-18.4287673950
31
0.0000000000
11
-10.8569575701
21
-18.4048346864
31
0.0000000000
11
-10.8626352088
21
-18.3771523251
31
0.0000000000
11
-10.8639926958
21
-18.3452039707
31
0.0000000000
11
-10.8607381976
21
-18.3083771275
31
0.0000000000
11
-10.8524837810
21
-18.2659295080
31
0.0000000000
11
-10.8387187491
21
-18.2169541490
31
0.0000000000
11
-10.8346424040
21
-18.2044592444
31
0.0000000000
0
SPLINE
5
365
100
AcDbEntity
8
0
100
AcDbSpline
62
9
6
CONTINUOUS
70
0
71
3
72
16
73
12
74
10
42
0.0000001000
43
0.0000001000
44
0.0000000001
12
0.3723992955
22
0.0000508327
32
0.0000000000
13
0.0005006170
23
0.3723821665
33
0.0000000000
40
0.0000000000
40
0.0000000000
40
0.0000000000
40
0.0000000000
40
0.1044734238
40
0.2105669476
40
0.3180191678
40
0.4272785368
40
0.5385597087
40
0.6518287598
40
0.7668197006
40
0.8830746696
40
1.0000000000
40
1.0000000000
40
1.0000000000
40
1.0000000000
10
6.5957120598
20
-23.9899648431
30
0.0000000000
10
6.6086806697
20
-23.9899630729
30
0.0000000000
10
6.6348872510
20
-23.9874273458
30
0.0000000000
10
6.6729458342
20
-23.9761115610
30
0.0000000000
10
6.7087317411
20
-23.9575688216
30
0.0000000000
10
6.7410298150
20
-23.9324224765
30
0.0000000000
10
6.7688767591
20
-23.9014590177
30
0.0000000000
10
6.7914456976
20
-23.8656320511
30
0.0000000000
10
6.8080731908
20
-23.8260267960
30
0.0000000000
10
6.8182721224
20
-23.7838514466
30
0.0000000000
10
6.8205847784
20
-23.7548585794
30
0.0000000000
10
6.8206042900
20
-23.7403449435
30
0.0000000000
11
6.5957120598
21
-23.9899648431
31
0.0000000000
11
6.6344376725
21
-23.9862266797
31
0.0000000000
11
6.6723186178
21
-23.9750076591
31
0.0000000000
11
6.7078714326
21
-23.9566483651
31
0.0000000000
11
6.7400160702
21
-23.9317065240
31
0.0000000000
11
6.7677760187
21
-23.9009398318
31
0.0000000000
11
6.7903079665
21
-23.8652829364
31
0.0000000000
11
6.8069274214
21
-23.8258190449
31
0.0000000000
11
6.8171295049
21
-23.7837470166
31
0.0000000000
11
6.8206042900
21
-23.7403449435
31
0.0000000000
0
SPLINE
5
366
100
AcDbEntity
8
0
100
AcDbSpline
62
9
6
CONTINUOUS
70
0
71
3
72
16
73
12
74
10
42
0.0000001000
43
0.0000001000
44
0.0000000001
12
0.3743942488
22
-0.0006298240
32
0.0000000000
13
0.0023233703
23
-0.3743875695
33
0.0000000000
40
0.0000000000
40
0.0000000000
40
0.0000000000
40
0.0000000000
40
0.1053232924
40
0.2114921180
40
0.3190777625
40
0.4284625201
40
0.5397989673
40
0.6530025685
40
0.7677728382
40
0.8836357241
40
1.0000000000
40
1.0000000000
40
1.0000000000
40
1.0000000000
10
2.0070170340
20
23.1377729073
30
0.0000000000
10
2.0201611790
20
23.1377507956
30
0.0000000000
10
2.0466199084
20
23.1351362932
30
0.0000000000
10
2.0849912312
20
23.1236671801
30
0.0000000000
10
2.1210085358
20
23.1050159372
30
0.0000000000
10
2.1535587797
20
23.0797759371
30
0.0000000000
10
2.1816717631
20
23.0487343198
30
0.0000000000
10
2.2045120501
20
23.0128451773
30
0.0000000000
10
2.2214068192
20
22.9731943639
30
0.0000000000
10
2.2318594213
20
22.9309911268
30
0.0000000000
10
2.2343277671
20
22.9019724074
30
0.0000000000
10
2.2344178862
20
22.8874506279
30
0.0000000000
11
2.0070170340
21
23.1377729073
31
0.0000000000
11
2.0462598411
21
23.1339098230
31
0.0000000000
11
2.0843569962
21
23.1225698907
31
0.0000000000
11
2.1201510484
21
23.1040976350
31
0.0000000000
11
2.1525545188
21
23.0790542718
31
0.0000000000
11
2.1805829396
21
23.0482006575
31
0.0000000000
11
2.2033847638
21
23.0124741729
31
0.0000000000
11
2.2202672364
21
22.9729602441
31
0.0000000000
11
2.2307174417
21
22.9308593657
31
0.0000000000
11
2.2344178862
21
22.8874506279
31
0.0000000000
0
SPLINE
5
367
100
AcDbEntity
8
0
100
AcDbSpline
62
9
6
CONTINUOUS
70
0
71
3
72
8
73
4
74
2
42
0.0000001000
43
0.0000001000
44
0.0000000001
12
-0.0252258263
22
-0.0010720740
32
0.0000000000
13
-0.0217461913
23
-0.0028505385
33
0.0000000000
40
0.0000000000
40
0.0000000000
40
0.0000000000
40
0.0000000000
40
1.0000000000
40
1.0000000000
40
1.0000000000
40
1.0000000000
10
-11.9071262131
20
23.1587388675
30
0.0000000000
10
-11.9155348219
20
23.1583815095
30
0.0000000000
10
-11.9250951928
20
23.1584405471
30
0.0000000000
10
-11.9323439232
20
23.1574903676
30
0.0000000000
11
-11.9071262131
21
23.1587388675
31
0.0000000000
11
-11.9323439232
21
23.1574903676
31
0.0000000000
0
SPLINE
5
368
100
AcDbEntity
8
0
100
AcDbSpline
62
9
6
CONTINUOUS
70
0
71
3
72
12
73
8
74
6
42
0.0000001000
43
0.0000001000
44
0.0000000001
12
-0.0407331528
22
-0.0053393911
32
0.0000000000
13
0.0461111375
23
-0.0051671361
33
0.0000000000
40
0.0000000000
40
0.0000000000
40
0.0000000000
40
0.0000000000
40
0.3554273354
40
0.5270805462
40
0.5574263432
40
0.7635782997
40
1.0000000000
40
1.0000000000
40
1.0000000000
40
1.0000000000
10
-11.9323439232
20
23.1574903676
30
0.0000000000
10
-11.9371698152
20
23.1568577791
30
0.0000000000
10
-11.9428069463
20
23.1552563337
30
0.0000000000
10
-11.9588509449
20
23.1571714796
30
0.0000000000
10
-11.9544152376
20
23.1512423432
30
0.0000000000
10
-11.9458242577
20
23.1534586812
30
0.0000000000
10
-11.9388721235
20
23.1530146098
30
0.0000000000
10
-11.9352382324
20
23.1526074021
30
0.0000000000
11
-11.9323439232
21
23.1574903676
31
0.0000000000
11
-11.9491074971
21
23.1562496358
31
0.0000000000
11
-11.9571344870
21
23.1550368450
31
0.0000000000
11
-11.9562974488
21
23.1538710602
31
0.0000000000
11
-11.9466101095
21
23.1527704443
31
0.0000000000
11
-11.9352382324
21
23.1526074021
31
0.0000000000
0
SPLINE
5
369
100
AcDbEntity
8
0
100
AcDbSpline
62
9
6
CONTINUOUS
70
0
71
3
72
9
73
5
74
3
42
0.0000001000
43
0.0000001000
44
0.0000000001
12
0.0331990169
22
-0.0037202257
32
0.0000000000
13
0.0343041162
23
-0.0002948923
33
0.0000000000
40
0.0000000000
40
0.0000000000
40
0.0000000000
40
0.0000000000
40
0.2124621149
40
1.0000000000
40
1.0000000000
40
1.0000000000
40
1.0000000000
10
-11.9352382324
20
23.1526074021
30
0.0000000000
10
-11.9328870546
20
23.1523439331
30
0.0000000000
10
-11.9219781885
20
23.1507689244
30
0.0000000000
10
-11.9104277740
20
23.1509094166
30
0.0000000000
10
-11.9014225102
20
23.1508320036
30
0.0000000000
11
-11.9352382324
21
23.1526074021
31
0.0000000000
11
-11.9282226535
21
23.1517521117
31
0.0000000000
11
-11.9014225102
21
23.1508320036
31
0.0000000000
0
SPLINE
5
36A
100
AcDbEntity
8
0
100
AcDbSpline
62
9
6
CONTINUOUS
70
0
71
3
72
25
73
21
74
19
42
0.0000001000
43
0.0000001000
44
0.0000000001
12
1.0343350127
22
-0.0088915699
32
0.0000000000
13
1.0258269159
23
0.0419227300
33
0.0000000000
40
0.0000000000
40
0.0000000000
40
0.0000000000
40
0.0000000000
40
0.0338996927
40
0.0750533760
40
0.1228220708
40
0.1764598714
40
0.2351320360
40
0.2979219623
40
0.3638527674
40
0.4318943887
40
0.5009877778
40
0.5700531130
40
0.6380156703
40
0.7038149781
40
0.7664256032
40
0.8248682636
40
0.8782348447
40
0.9256941615
40
0.9665023903
40
1.0000000000
40
1.0000000000
40
1.0000000000
40
1.0000000000
10
-11.9014225102
20
23.1508320036
30
0.0000000000
10
-11.8897346305
20
23.1507315298
30
0.0000000000
10
-11.8641977063
20
23.1498077241
30
0.0000000000
10
-11.8221007125
20
23.1493182935
30
0.0000000000
10
-11.7733385087
20
23.1487310072
30
0.0000000000
10
-11.7185490643
20
23.1483583900
30
0.0000000000
10
-11.6586277088
20
23.1481090674
30
0.0000000000
10
-11.5944959901
20
23.1480187048
30
0.0000000000
10
-11.5271586227
20
23.1480798645
30
0.0000000000
10
-11.4576640943
20
23.1482946489
30
0.0000000000
10
-11.3870975247
20
23.1486590835
30
0.0000000000
10
-11.3165588864
20
23.1491677545
30
0.0000000000
10
-11.2471487385
20
23.1498126106
30
0.0000000000
10
-11.1799489901
20
23.1505834462
30
0.0000000000
10
-11.1160089029
20
23.1514679132
30
0.0000000000
10
-11.0563256121
20
23.1524516636
30
0.0000000000
10
-11.0018298414
20
23.1535185681
30
0.0000000000
10
-10.9533717607
20
23.1546502418
30
0.0000000000
10
-10.9117168148
20
23.1558269919
30
0.0000000000
10
-10.8863024142
20
23.1567153176
30
0.0000000000
10
-10.8748481643
20
23.1571834213
30
0.0000000000
11
-11.9014225102
21
23.1508320036
31
0.0000000000
11
-11.8666276352
21
23.1500244614
31
0.0000000000
11
-11.8243813509
21
23.1493420881
31
0.0000000000
11
-11.7753410807
21
23.1487955057
31
0.0000000000
11
-11.7202735215
21
23.1483932616
31
0.0000000000
11
-11.6600363219
21
23.1481416192
31
0.0000000000
11
-11.5955710331
21
23.1480445093
31
0.0000000000
11
-11.5278810093
21
23.1481034416
31
0.0000000000
11
-11.4580241483
21
23.1483174949
31
0.0000000000
11
-11.3870880705
21
23.1486833359
31
0.0000000000
11
-11.3161816995
21
23.1491952441
31
0.0000000000
11
-11.2464087119
21
23.1498452496
31
0.0000000000
11
-11.1788581481
21
23.1506232103
31
0.0000000000
11
-11.1145830858
21
23.1515170017
31
0.0000000000
11
-11.0545892496
21
23.1525126329
31
0.0000000000
11
-10.9998093621
21
23.1535946156
31
0.0000000000
11
-10.9510972872
21
23.1547461008
31
0.0000000000
11
-10.9092174358
21
23.1559489850
31
0.0000000000
11
-10.8748481643
21
23.1571834213
31
0.0000000000
0
SPLINE
5
36B
100
AcDbEntity
8
0
100
AcDbSpline
62
9
6
CONTINUOUS
70
0
71
3
72
16
73
12
74
10
42
0.0000001000
43
0.0000001000
44
0.0000000001
12
0.3743942488
22
-0.0006298240
32
0.0000000000
13
0.0023233703
23
-0.3743875695
33
0.0000000000
40
0.0000000000
40
0.0000000000
40
0.0000000000
40
0.0000000000
40
0.1053232924
40
0.2114921180
40
0.3190777625
40
0.4284625201
40
0.5397989673
40
0.6530025685
40
0.7677728382
40
0.8836357241
40
1.0000000000
40
1.0000000000
40
1.0000000000
40
1.0000000000
10
-10.8748481643
20
23.1571834213
30
0.0000000000
10
-10.8617040193
20
23.1571613096
30
0.0000000000
10
-10.8352452899
20
23.1545468073
30
0.0000000000
10
-10.7968739672
20
23.1430776942
30
0.0000000000
10
-10.7608566625
20
23.1244264513
30
0.0000000000
10
-10.7283064187
20
23.0991864512
30
0.0000000000
10
-10.7001934352
20
23.0681448338
30
0.0000000000
10
-10.6773531482
20
23.0322556913
30
0.0000000000
10
-10.6604583791
20
22.9926048780
30
0.0000000000
10
-10.6500057770
20
22.9504016408
30
0.0000000000
10
-10.6475374312
20
22.9213829214
30
0.0000000000
10
-10.6474473121
20
22.9068611420
30
0.0000000000
11
-10.8748481643
21
23.1571834213
31
0.0000000000
11
-10.8356053572
21
23.1533203371
31
0.0000000000
11
-10.7975082022
21
23.1419804047
31
0.0000000000
11
-10.7617141499
21
23.1235081490
31
0.0000000000
11
-10.7293106795
21
23.0984647859
31
0.0000000000
11
-10.7012822587
21
23.0676111716
31
0.0000000000
11
-10.6784804345
21
23.0318846869
31
0.0000000000
11
-10.6615979619
21
22.9923707581
31
0.0000000000
11
-10.6511477566
21
22.9502698797
31
0.0000000000
11
-10.6474473121
21
22.9068611420
31
0.0000000000
0
SPLINE
5
36C
100
AcDbEntity
8
0
100
AcDbSpline
62
9
6
CONTINUOUS
70
0
71
3
72
8
73
4
74
2
42
0.0000001000
43
0.0000001000
44
0.0000000001
12
-0.0291477654
22
-0.0012638241
32
0.0000000000
13
-0.0262725488
23
-0.0038734061
33
0.0000000000
40
0.0000000000
40
0.0000000000
40
0.0000000000
40
0.0000000000
40
1.0000000000
40
1.0000000000
40
1.0000000000
40
1.0000000000
10
-15.4382417026
20
23.9701624915
30
0.0000000000
10
-15.4479576244
20
23.9697412168
30
0.0000000000
10
-15.4586224599
20
23.9699871713
30
0.0000000000
10
-15.4673799762
20
23.9686960359
30
0.0000000000
11
-15.4382417026
21
23.9701624915
31
0.0000000000
11
-15.4673799762
21
23.9686960359
31
0.0000000000
0
SPLINE
5
36D
100
AcDbEntity
8
0
100
AcDbSpline
62
9
6
CONTINUOUS
70
0
71
3
72
12
73
8
74
6
42
0.0000001000
43
0.0000001000
44
0.0000000001
12
-0.0551460139
22
-0.0081302696
32
0.0000000000
13
0.0566990144
23
-0.0077685530
33
0.0000000000
40
0.0000000000
40
0.0000000000
40
0.0000000000
40
0.0000000000
40
0.3210034268
40
0.4821980153
40
0.5048953987
40
0.6725705913
40
1.0000000000
40
1.0000000000
40
1.0000000000
40
1.0000000000
10
-15.4673799762
20
23.9686960359
30
0.0000000000
10
-15.4732806627
20
23.9678260878
30
0.0000000000
10
-15.4808437133
20
23.9654710540
30
0.0000000000
10
-15.4973475193
20
23.9690265750
30
0.0000000000
10
-15.4960924576
20
23.9610807735
30
0.0000000000
10
-15.4810336689
20
23.9650673131
30
0.0000000000
10
-15.4725294061
20
23.9627725476
30
0.0000000000
10
-15.4663410979
20
23.9619246633
30
0.0000000000
11
-15.4673799762
21
23.9686960359
31
0.0000000000
11
-15.4869837016
21
23.9672390894
31
0.0000000000
11
-15.4967515224
21
23.9658133420
31
0.0000000000
11
-15.4965409756
21
23.9644394258
31
0.0000000000
11
-15.4863557243
21
23.9631369804
31
0.0000000000
11
-15.4663410979
21
23.9619246633
31
0.0000000000
0
SPLINE
5
36E
100
AcDbEntity
8
0
100
AcDbSpline
62
9
6
CONTINUOUS
70
0
71
3
72
8
73
4
74
2
42
0.0000001000
43
0.0000001000
44
0.0000000001
12
0.0273845472
22
-0.0037520636
32
0.0000000000
13
0.0302176934
23
-0.0001817342
33
0.0000000000
40
0.0000000000
40
0.0000000000
40
0.0000000000
40
0.0000000000
40
1.0000000000
40
1.0000000000
40
1.0000000000
40
1.0000000000
10
-15.4663410979
20
23.9619246633
30
0.0000000000
10
-15.4572129154
20
23.9606739755
30
0.0000000000
10
-15.4468572353
20
23.9608804876
30
0.0000000000
10
-15.4367846708
20
23.9608199096
30
0.0000000000
11
-15.4663410979
21
23.9619246633
31
0.0000000000
11
-15.4367846708
21
23.9608199096
31
0.0000000000
0
SPLINE
5
36F
100
AcDbEntity
8
0
100
AcDbSpline
62
9
6
CONTINUOUS
70
0
71
3
72
26
73
22
74
20
42
0.0000001000
43
0.0000001000
44
0.0000000001
12
1.2928549348
22
-0.0077754449
32
0.0000000000
13
1.2643904748
23
0.0516726340
33
0.0000000000
40
0.0000000000
40
0.0000000000
40
0.0000000000
40
0.0000000000
40
0.0305713326
40
0.0679058238
40
0.1114695595
40
0.1606384273
40
0.2147077047
40
0.2729024120
40
0.3343882620
40
0.3982837136
40
0.4636728055
40
0.5296180527
40
0.5951735712
40
0.6593994089
40
0.7213757158
40
0.7802137534
40
0.8350679101
40
0.8851531407
40
0.9297536812
40
0.9682260104
40
1.0000000000
40
1.0000000000
40
1.0000000000
40
1.0000000000
10
-15.4367846708
20
23.9608199096
30
0.0000000000
10
-15.4236099048
20
23.9607406743
30
0.0000000000
10
-15.3954216545
20
23.9595496976
30
0.0000000000
10
-15.3481912768
20
23.9589735260
30
0.0000000000
10
-15.2934045659
20
23.9582178608
30
0.0000000000
10
-15.2314596627
20
23.9577232152
30
0.0000000000
10
-15.1633729930
20
23.9573575357
30
0.0000000000
10
-15.0900806213
20
23.9571716295
30
0.0000000000
10
-15.0126460290
20
23.9571552169
30
0.0000000000
10
-14.9321760714
20
23.9573129501
30
0.0000000000
10
-14.8498258106
20
23.9576416402
30
0.0000000000
10
-14.7667760662
20
23.9581370117
30
0.0000000000
10
-14.6842181366
20
23.9587918775
30
0.0000000000
10
-14.6033357665
20
23.9595967788
30
0.0000000000
10
-14.5252886213
20
23.9605399592
30
0.0000000000
10
-14.4511965768
20
23.9616075341
30
0.0000000000
10
-14.3821226706
20
23.9627835716
30
0.0000000000
10
-14.3190570526
20
23.9640503436
30
0.0000000000
10
-14.2629046675
20
23.9653878149
30
0.0000000000
10
-14.2144801834
20
23.9667745952
30
0.0000000000
10
-14.1848671101
20
23.9678168876
30
0.0000000000
10
-14.1714755335
20
23.9683641695
30
0.0000000000
11
-15.4367846708
21
23.9608199096
31
0.0000000000
11
-15.3981107520
21
23.9598385630
31
0.0000000000
11
-15.3508735103
21
23.9589946808
31
0.0000000000
11
-15.2957503320
21
23.9583003677
31
0.0000000000
11
-15.2335320879
21
23.9577655862
31
0.0000000000
11
-15.1651113297
21
23.9573980063
31
0.0000000000
11
-15.0914693342
21
23.9572028980
31
0.0000000000
11
-15.0136623198
21
23.9571830585
31
0.0000000000
11
-14.9328062322
21
23.9573387712
31
0.0000000000
11
-14.8500605280
21
23.9576678028
31
0.0000000000
11
-14.7666118689
21
23.9581654353
31
0.0000000000
11
-14.6836575248
21
23.9588245283
31
0.0000000000
11
-14.6023872490
21
23.9596356273
31
0.0000000000
11
-14.5239653573
21
23.9605871142
31
0.0000000000
11
-14.4495168113
21
23.9616653462
31
0.0000000000
11
-14.3801120352
21
23.9628548168
31
0.0000000000
11
-14.3167448861
21
23.9641384818
31
0.0000000000
11
-14.2603216911
21
23.9654979964
31
0.0000000000
11
-14.2116576274
21
23.9669136879
31
0.0000000000
11
-14.1714755335
21
23.9683641695
31
0.0000000000
0
SPLINE
5
370
100
AcDbEntity
8
0
100
AcDbSpline
62
9
6
CONTINUOUS
70
0
71
3
72
16
73
12
74
10
42
0.0000001000
43
0.0000001000
44
0.0000000001
12
0.3743942488
22
-0.0006298240
32
0.0000000000
13
0.0023233703
23
-0.3743875695
33
0.0000000000
40
0.0000000000
40
0.0000000000
40
0.0000000000
40
0.0000000000
40
0.1053232924
40
0.2114921180
40
0.3190777625
40
0.4284625201
40
0.5397989673
40
0.6530025685
40
0.7677728382
40
0.8836357241
40
1.0000000000
40
1.0000000000
40
1.0000000000
40
1.0000000000
10
-14.1714755335
20
23.9683641695
30
0.0000000000
10
-14.1583313885
20
23.9683420578
30
0.0000000000
10
-14.1318726591
20
23.9657275554
30
0.0000000000
10
-14.0935013363
20
23.9542584423
30
0.0000000000
10
-14.0574840317
20
23.9356071994
30
0.0000000000
10
-14.0249337879
20
23.9103671993
30
0.0000000000
10
-13.9968208044
20
23.8793255820
30
0.0000000000
10
-13.9739805174
20
23.8434364394
30
0.0000000000
10
-13.9570857483
20
23.8037856261
30
0.0000000000
10
-13.9466331462
20
23.7615823890
30
0.0000000000
10
-13.9441648004
20
23.7325636696
30
0.0000000000
10
-13.9440746813
20
23.7180418901
30
0.0000000000
11
-14.1714755335
21
23.9683641695
31
0.0000000000
11
-14.1322327264
21
23.9645010852
31
0.0000000000
11
-14.0941355714
21
23.9531611529
31
0.0000000000
11
-14.0583415191
21
23.9346888972
31
0.0000000000
11
-14.0259380487
21
23.9096455340
31
0.0000000000
11
-13.9979096279
21
23.8787919197
31
0.0000000000
11
-13.9751078037
21
23.8430654351
31
0.0000000000
11
-13.9582253311
21
23.8035515063
31
0.0000000000
11
-13.9477751258
21
23.7614506279
31
0.0000000000
11
-13.9440746813
21
23.7180418901
31
0.0000000000
0
SPLINE
5
371
100
AcDbEntity
8
0
100
AcDbSpline
62
9
6
CONTINUOUS
70
0
71
3
72
8
73
4
74
2
42
0.0000001000
43
0.0000001000
44
0.0000000001
12
-0.0207475544
22
-0.0008817419
32
0.0000000000
13
-0.0206787867
23
-0.0011639470
33
0.0000000000
40
0.0000000000
40
0.0000000000
40
0.0000000000
40
0.0000000000
40
1.0000000000
40
1.0000000000
40
1.0000000000
40
1.0000000000
10
5.2156116450
20
23.9391515266
30
0.0000000000
10
5.2086957935
20
23.9388576126
30
0.0000000000
10
5.2015509319
20
23.9388772512
30
0.0000000000
10
5.1946580030
20
23.9384892688
30
0.0000000000
11
5.2156116450
21
23.9391515266
31
0.0000000000
11
5.1946580030
21
23.9384892688
31
0.0000000000
0
SPLINE
5
372
100
AcDbEntity
8
0
100
AcDbSpline
62
9
6
CONTINUOUS
70
0
71
3
72
14
73
10
74
8
42
0.0000001000
43
0.0000001000
44
0.0000000001
12
-0.0792481549
22
-0.0044606416
32
0.0000000000
13
0.0781938419
23
-0.0040504943
33
0.0000000000
40
0.0000000000
40
0.0000000000
40
0.0000000000
40
0.0000000000
40
0.1142047382
40
0.3700758472
40
0.5031130853
40
0.5216141716
40
0.6416400779
40
0.8847223327
40
1.0000000000
40
1.0000000000
40
1.0000000000
40
1.0000000000
10
5.1946580030
20
23.9384892688
30
0.0000000000
10
5.1916411647
20
23.9383194600
30
0.0000000000
10
5.1820216043
20
23.9375161787
30
0.0000000000
10
5.1702084704
20
23.9344463499
30
0.0000000000
10
5.1561832825
20
23.9380830214
30
0.0000000000
10
5.1532303736
20
23.9304917563
30
0.0000000000
10
5.1705505181
20
23.9337027251
30
0.0000000000
10
5.1798443037
20
23.9310243908
30
0.0000000000
10
5.1887950152
20
23.9302851003
30
0.0000000000
10
5.1917996831
20
23.9301294564
30
0.0000000000
11
5.1946580030
21
23.9384892688
31
0.0000000000
11
5.1857925877
21
23.9376851331
31
0.0000000000
11
5.1654817709
21
23.9362267179
31
0.0000000000
11
5.1549910479
21
23.9347979914
31
0.0000000000
11
5.1544733408
21
23.9334196286
31
0.0000000000
11
5.1639353994
21
23.9321113330
31
0.0000000000
11
5.1832422530
21
23.9308918455
31
0.0000000000
11
5.1917996831
21
23.9301294564
31
0.0000000000
0
SPLINE
5
373
100
AcDbEntity
8
0
100
AcDbSpline
62
9
6
CONTINUOUS
70
0
71
3
72
9
73
5
74
3
42
0.0000001000
43
0.0000001000
44
0.0000000001
12
0.0306261567
22
-0.0015864558
32
0.0000000000
13
0.0313530998
23
-0.0007538093
33
0.0000000000
40
0.0000000000
40
0.0000000000
40
0.0000000000
40
0.0000000000
40
0.6326991093
40
1.0000000000
40
1.0000000000
40
1.0000000000
40
1.0000000000
10
5.1917996831
20
23.9301294564
30
0.0000000000
10
5.1982587305
20
23.9297948734
30
0.0000000000
10
5.2093832819
20
23.9298662200
30
0.0000000000
10
5.2199602225
20
23.9296716444
30
0.0000000000
10
5.2237988963
20
23.9295793528
30
0.0000000000
11
5.1917996831
21
23.9301294564
31
0.0000000000
11
5.2121165049
21
23.9297787045
31
0.0000000000
11
5.2237988963
21
23.9295793528
31
0.0000000000
0
SPLINE
5
374
100
AcDbEntity
8
0
100
AcDbSpline
62
9
6
CONTINUOUS
70
0
71
3
72
26
73
22
74
20
42
0.0000001000
43
0.0000001000
44
0.0000000001
12
1.2611794560
22
-0.0303220052
32
0.0000000000
13
1.2528247714
23
0.0502371728
33
0.0000000000
40
0.0000000000
40
0.0000000000
40
0.0000000000
40
0.0000000000
40
0.0212078758
40
0.0584081824
40
0.1019378513
40
0.1511732953
40
0.2054088562
40
0.2638671812
40
0.3257102096
40
0.3900512833
40
0.4559680552
40
0.5225154772
40
0.5887390287
40
0.6536891786
40
0.7164357033
40
0.7760788188
40
0.8317613364
40
0.8826863408
40
0.9281260559
40
0.9674248064
40
1.0000000000
40
1.0000000000
40
1.0000000000
40
1.0000000000
10
5.2237988963
20
23.9295793528
30
0.0000000000
10
5.2327145421
20
23.9293649977
30
0.0000000000
10
5.2565818850
20
23.9284652753
30
0.0000000000
10
5.2995173121
20
23.9279044077
30
0.0000000000
10
5.3537064754
20
23.9271462302
30
0.0000000000
10
5.4151826657
20
23.9266374480
30
0.0000000000
10
5.4828466028
20
23.9262604262
30
0.0000000000
10
5.5557967980
20
23.9260618177
30
0.0000000000
10
5.6329659301
20
23.9260328466
30
0.0000000000
10
5.7132535533
20
23.9261779825
30
0.0000000000
10
5.7955064670
20
23.9264943341
30
0.0000000000
10
5.8785454615
20
23.9269777810
30
0.0000000000
10
5.9611793344
20
23.9276213226
30
0.0000000000
10
6.0422232697
20
23.9284156682
30
0.0000000000
10
6.1205152834
20
23.9293492226
30
0.0000000000
10
6.1949319871
20
23.9304082516
30
0.0000000000
10
6.2644056833
20
23.9315769684
30
0.0000000000
10
6.3279404925
20
23.9328377751
30
0.0000000000
10
6.3846247166
20
23.9341708066
30
0.0000000000
10
6.4336358762
20
23.9355547838
30
0.0000000000
10
6.4636575683
20
23.9365945130
30
0.0000000000
10
6.4772612382
20
23.9371400082
30
0.0000000000
11
5.2237988963
21
23.9295793528
31
0.0000000000
11
5.2501436306
21
23.9287878741
31
0.0000000000
11
5.2967787258
21
23.9279335474
31
0.0000000000
11
5.3513530393
21
23.9272279789
31
0.0000000000
11
5.4130835743
21
23.9266812926
31
0.0000000000
11
5.4810847729
21
23.9263013293
31
0.0000000000
11
5.5543813734
21
23.9260935366
31
0.0000000000
11
5.6319221099
21
23.9260608935
31
0.0000000000
11
5.7125948545
21
23.9262038671
31
0.0000000000
11
5.7952427799
21
23.9265204066
31
0.0000000000
11
5.8786806277
21
23.9270059733
31
0.0000000000
11
5.9617112836
21
23.9276535998
31
0.0000000000
11
6.0431439006
21
23.9284539961
31
0.0000000000
11
6.1218118398
21
23.9293956975
31
0.0000000000
11
6.1965866146
21
23.9304652014
31
0.0000000000
11
6.2663931096
21
23.9316471270
31
0.0000000000
11
6.3302317101
21
23.9329245380
31
0.0000000000
11
6.3871893541
21
23.9342791793
31
0.0000000000
11
6.4364431263
21
23.9356914485
31
0.0000000000
11
6.4772612382
21
23.9371400082
31
0.0000000000
0
SPLINE
5
375
100
AcDbEntity
8
0
100
AcDbSpline
62
9
6
CONTINUOUS
70
0
71
3
72
16
73
12
74
10
42
0.0000001000
43
0.0000001000
44
0.0000000001
12
0.3736735704
22
-0.0006947135
32
0.0000000000
13
0.0023443933
23
-0.3736668619
33
0.0000000000
40
0.0000000000
40
0.0000000000
40
0.0000000000
40
0.0000000000
40
0.1050866680
40
0.2110525080
40
0.3184932896
40
0.4278072274
40
0.5391528316
40
0.6524417509
40
0.7673612942
40
0.8834187600
40
1.0000000000
40
1.0000000000
40
1.0000000000
40
1.0000000000
10
6.4772612382
20
23.9371400082
30
0.0000000000
10
6.4903506083
20
23.9371156732
30
0.0000000000
10
6.5167035538
20
23.9344958673
30
0.0000000000
10
6.5549170658
20
23.9230182712
30
0.0000000000
10
6.5907844303
20
23.9043591668
30
0.0000000000
10
6.6231974024
20
23.8791133087
30
0.0000000000
10
6.6511908168
20
23.8480686763
30
0.0000000000
10
6.6739337952
20
23.8121795459
30
0.0000000000
10
6.6907572439
20
23.7725315038
30
0.0000000000
10
6.7011671987
20
23.7303330740
30
0.0000000000
10
6.7036272290
20
23.7013194104
30
0.0000000000
10
6.7037183331
20
23.6867985617
30
0.0000000000
11
6.4772612382
21
23.9371400082
31
0.0000000000
11
6.5163383156
21
23.9332706615
31
0.0000000000
11
6.5542748865
21
23.9219253800
31
0.0000000000
11
6.5899184903
21
23.9034488176
31
0.0000000000
11
6.6221863236
21
23.8784022668
31
0.0000000000
11
6.6500981341
21
23.8475466073
31
0.0000000000
11
6.6728059998
21
23.8118191911
31
0.0000000000
11
6.6896200870
21
23.7723053679
31
0.0000000000
11
6.7000296071
21
23.7302055130
31
0.0000000000
11
6.7037183331
21
23.6867985617
31
0.0000000000
0
SPLINE
5
376
100
AcDbEntity
8
0
100
AcDbSpline
62
9
6
CONTINUOUS
70
0
71
3
72
31
73
27
74
25
42
0.0000001000
43
0.0000001000
44
0.0000000001
12
-1.8016316899
22
-0.0099611324
32
0.0000000000
13
-0.5790425798
23
1.0640852184
33
0.0000000000
40
0.0000000000
40
0.0000000000
40
0.0000000000
40
0.0000000000
40
0.0303365656
40
0.0670431630
40
0.1096005513
40
0.1573934728
40
0.2097384408
40
0.2658860786
40
0.3250291804
40
0.3863193463
40
0.4488786183
40
0.5118099018
40
0.5742104153
40
0.6351853874
40
0.6938605919
40
0.7493946279
40
0.8009911369
40
0.8479103378
40
0.8894794160
40
0.9251020480
40
0.9542674537
40
0.9765578060
40
0.9916533027
40
0.9993376684
40
0.9995731629
40
1.0000000000
40
1.0000000000
40
1.0000000000
40
1.0000000000
10
-13.8271884630
20
-23.7092077404
30
0.0000000000
10
-13.8454069023
20
-23.7093084693
30
0.0000000000
10
-13.8856694734
20
-23.7094930605
30
0.0000000000
10
-13.9514900254
20
-23.7097232710
30
0.0000000000
10
-14.0277941714
20
-23.7099290471
30
0.0000000000
10
-14.1134900785
20
-23.7101071084
30
0.0000000000
10
-14.2073477204
20
-23.7102544284
30
0.0000000000
10
-14.3080217981
20
-23.7103687215
30
0.0000000000
10
-14.4140679765
20
-23.7104482003
30
0.0000000000
10
-14.5239647032
20
-23.7104916503
30
0.0000000000
10
-14.6361364397
20
-23.7104983920
30
0.0000000000
10
-14.7489750050
20
-23.7104683397
30
0.0000000000
10
-14.8608620612
20
-23.7104018106
30
0.0000000000
10
-14.9701932232
20
-23.7103002043
30
0.0000000000
10
-15.0754001853
20
-23.7101635400
30
0.0000000000
10
-15.1749764701
20
-23.7099990347
30
0.0000000000
10
-15.2674870758
20
-23.7097917368
30
0.0000000000
10
-15.3516288216
20
-23.7096020691
30
0.0000000000
10
-15.4261210876
20
-23.7092521224
30
0.0000000000
10
-15.4901193581
20
-23.7092956425
30
0.0000000000
10
-15.5420666015
20
-23.7081680164
30
0.0000000000
10
-15.5828991669
20
-23.7100045406
30
0.0000000000
10
-15.6081571421
20
-23.7053016716
30
0.0000000000
10
-15.6244883530
20
-23.7112141928
30
0.0000000000
10
-15.6280262581
20
-23.7074285288
30
0.0000000000
10
-15.6282114575
20
-23.7071690352
30
0.0000000000
10
-15.6282938431
20
-23.7070176382
30
0.0000000000
11
-13.8271884630
21
-23.7092077404
31
0.0000000000
11
-13.8818440035
21
-23.7094665598
31
0.0000000000
11
-13.9479763613
21
-23.7097028072
31
0.0000000000
11
-14.0246499842
21
-23.7099131165
31
0.0000000000
11
-14.1107563512
21
-23.7100944663
31
0.0000000000
11
-14.2050640269
21
-23.7102442563
31
0.0000000000
11
-14.3062228700
21
-23.7103603436
31
0.0000000000
11
-14.4127785545
21
-23.7104410575
31
0.0000000000
11
-14.5232025386
21
-23.7104852419
31
0.0000000000
11
-14.6359130280
21
-23.7104922647
31
0.0000000000
11
-14.7492937516
21
-23.7104620251
31
0.0000000000
11
-14.8617181926
21
-23.7103949570
31
0.0000000000
11
-14.9715742653
21
-23.7102920226
31
0.0000000000
11
-15.0772868997
21
-23.7101546977
31
0.0000000000
11
-15.1773401642
21
-23.7099849516
31
0.0000000000
11
-15.2702992762
21
-23.7097852186
31
0.0000000000
11
-15.3548313828
21
-23.7095583621
31
0.0000000000
11
-15.4297242766
21
-23.7093076349
31
0.0000000000
11
-15.4939035479
21
-23.7090366336
31
0.0000000000
11
-15.5464488844
21
-23.7087492446
31
0.0000000000
11
-15.5866073853
21
-23.7084495844
31
0.0000000000
11
-15.6138025862
21
-23.7081419499
31
0.0000000000
11
-15.6276436970
21
-23.7078307651
31
0.0000000000
11
-15.6279330756
21
-23.7075204843
31
0.0000000000
11
-15.6282938431
21
-23.7070176382
31
0.0000000000
0
SPLINE
5
377
100
AcDbEntity
8
0
100
AcDbSpline
62
9
6
CONTINUOUS
70
0
71
3
72
29
73
25
74
23
42
0.0000001000
43
0.0000001000
44
0.0000000001
12
-1.7960289219
22
-0.0097009983
32
0.0000000000
13
0.4088684403
23
0.4959963937
33
0.0000000000
40
0.0000000000
40
0.0000000000
40
0.0000000000
40
0.0000000000
40
0.0309127849
40
0.0681799770
40
0.1112744085
40
0.1595730499
40
0.2123851868
40
0.2689547513
40
0.3284684710
40
0.3900726336
40
0.4528847853
40
0.5160042063
40
0.5785254170
40
0.6395519164
40
0.6982087402
40
0.7536547508
40
0.8050948515
40
0.8517915027
40
0.8930750800
40
0.9283533547
40
0.9571204863
40
0.9789643550
40
0.9935715736
40
1.0000000000
40
1.0000000000
40
1.0000000000
40
1.0000000000
10
6.8206042900
20
-23.7403449435
30
0.0000000000
10
6.8020975380
20
-23.7404449051
30
0.0000000000
10
6.7612796017
20
-23.7406282204
30
0.0000000000
10
6.6946616637
20
-23.7408567967
30
0.0000000000
10
6.6176349508
20
-23.7410606635
30
0.0000000000
10
6.5313016241
20
-23.7412365779
30
0.0000000000
10
6.4369008696
20
-23.7413815639
30
0.0000000000
10
6.3357857665
20
-23.7414933750
30
0.0000000000
10
6.2294069766
20
-23.7415702645
30
0.0000000000
10
6.1192908185
20
-23.7416110568
30
0.0000000000
10
6.0070159913
20
-23.7416151168
30
0.0000000000
10
5.8941920793
20
-23.7415823842
30
0.0000000000
10
5.7824374725
20
-23.7415132707
30
0.0000000000
10
5.6733536991
20
-23.7414090166
30
0.0000000000
10
5.5685089056
20
-23.7412703866
30
0.0000000000
10
5.4693926505
20
-23.7411021788
30
0.0000000000
10
5.3774728502
20
-23.7408977944
30
0.0000000000
10
5.2939150643
20
-23.7406903622
30
0.0000000000
10
5.2203987659
20
-23.7403887638
30
0.0000000000
10
5.1565269916
20
-23.7402831083
30
0.0000000000
10
5.1073404316
20
-23.7395662470
30
0.0000000000
10
5.0627796077
20
-23.7403660443
30
0.0000000000
10
5.0482248426
20
-23.7379119374
30
0.0000000000
10
5.0217016512
20
-23.7404267949
30
0.0000000000
10
5.0225777781
20
-23.7393639694
30
0.0000000000
11
6.8206042900
21
-23.7403449435
31
0.0000000000
11
6.7650838205
21
-23.7406022418
31
0.0000000000
11
6.6981503000
21
-23.7408367102
31
0.0000000000
11
6.6207506059
21
-23.7410450075
31
0.0000000000
11
6.5340037686
21
-23.7412241414
31
0.0000000000
11
6.4391503741
21
-23.7413715435
31
0.0000000000
11
6.3375483816
21
-23.7414851050
31
0.0000000000
11
6.2306584891
21
-23.7415631913
31
0.0000000000
11
6.1200140253
21
-23.7416046842
31
0.0000000000
11
6.0071999385
21
-23.7416089903
31
0.0000000000
11
5.8938339840
21
-23.7415760474
31
0.0000000000
11
5.7815424650
21
-23.7415063284
31
0.0000000000
11
5.6719355590
21
-23.7414008334
31
0.0000000000
11
5.5665847630
21
-23.7412610751
31
0.0000000000
11
5.4670008202
21
-23.7410890576
31
0.0000000000
11
5.3746117844
21
-23.7408872475
31
0.0000000000
11
5.2907423367
21
-23.7406585384
31
0.0000000000
11
5.2165951856
21
-23.7404062093
31
0.0000000000
11
5.1532340449
21
-23.7401338801
31
0.0000000000
11
5.1015674959
21
-23.7398454560
31
0.0000000000
11
5.0623358537
21
-23.7395450685
31
0.0000000000
11
5.0361022923
21
-23.7392370249
31
0.0000000000
11
5.0225777781
21
-23.7393639694
31
0.0000000000
0
SPLINE
5
378
100
AcDbEntity
8
0
100
AcDbSpline
62
7
6
CONTINUOUS
70
0
71
3
72
27
73
23
74
21
42
0.0000001000
43
0.0000001000
44
0.0000000001
12
-1.7509070475
22
-0.0715602250
32
0.0000000000
13
-1.7507902126
23
0.0743638780
33
0.0000000000
40
0.0000000000
40
0.0000000000
40
0.0000000000
40
0.0000000000
40
0.0308510611
40
0.0681244165
40
0.1112887865
40
0.1597441742
40
0.2128163459
40
0.2697457966
40
0.3297588737
40
0.3919834488
40
0.4555736678
40
0.5196153908
40
0.5832157228
40
0.6454874291
40
0.7055359713
40
0.7625449360
40
0.8156864321
40
0.8642384862
40
0.9075066785
40
0.9448893919
40
0.9758673812
40
1.0000000000
40
1.0000000000
40
1.0000000000
40
1.0000000000
10
-13.9409059307
20
22.4323032493
30
0.0000000000
10
-13.9589117108
20
22.4315673464
30
0.0000000000
10
-13.9986806263
20
22.4301655411
30
0.0000000000
10
-14.0636603818
20
22.4282987686
30
0.0000000000
10
-14.1389285081
20
22.4264977252
30
0.0000000000
10
-14.2234292743
20
22.4247900562
30
0.0000000000
10
-14.3159741516
20
22.4232022765
30
0.0000000000
10
-14.4152732254
20
22.4217576386
30
0.0000000000
10
-14.5199210930
20
22.4204774347
30
0.0000000000
10
-14.6284619414
20
22.4193799603
30
0.0000000000
10
-14.7393579149
20
22.4184810701
30
0.0000000000
10
-14.8510590248
20
22.4177934726
30
0.0000000000
10
-14.9619910975
20
22.4173268565
30
0.0000000000
10
-15.0705913843
20
22.4170876632
30
0.0000000000
10
-15.1753417734
20
22.4170789423
30
0.0000000000
10
-15.2747587667
20
22.4173002999
30
0.0000000000
10
-15.3674595802
20
22.4177479150
30
0.0000000000
10
-15.4521326054
20
22.4184140308
30
0.0000000000
10
-15.5275981366
20
22.4192877802
30
0.0000000000
10
-15.5927948813
20
22.4203517970
30
0.0000000000
10
-15.6468084434
20
22.4215884118
30
0.0000000000
10
-15.6789841572
20
22.4226326843
30
0.0000000000
10
-15.6930678748
20
22.4232308827
30
0.0000000000
11
-13.9409059307
21
22.4323032493
31
0.0000000000
11
-13.9949331004
21
22.4303508265
31
0.0000000000
11
-14.0602219829
21
22.4284459630
31
0.0000000000
11
-14.1358397332
21
22.4266158075
31
0.0000000000
11
-14.2207338154
21
22.4248857509
31
0.0000000000
11
-14.3137219679
21
22.4232799278
31
0.0000000000
11
-14.4134726963
21
22.4218213054
31
0.0000000000
11
-14.5186298080
21
22.4205297551
31
0.0000000000
11
-14.6276646050
21
22.4194240716
31
0.0000000000
11
-14.7390944466
21
22.4185192931
31
0.0000000000
11
-14.8513170366
21
22.4178284714
31
0.0000000000
11
-14.9627672934
21
22.4173612056
31
0.0000000000
11
-15.0718900300
21
22.4171240467
31
0.0000000000
11
-15.1771172207
21
22.4171203555
31
0.0000000000
11
-15.2770176866
21
22.4173501745
31
0.0000000000
11
-15.3701400496
21
22.4178101412
31
0.0000000000
11
-15.4552184055
21
22.4184939569
31
0.0000000000
11
-15.5310349182
21
22.4193918606
31
0.0000000000
11
-15.5965339914
21
22.4204913045
31
0.0000000000
11
-15.6508036236
21
22.4217770776
31
0.0000000000
11
-15.6930678748
21
22.4232308827
31
0.0000000000
0
SPLINE
5
379
100
AcDbEntity
8
0
100
AcDbSpline
62
7
6
CONTINUOUS
70
0
71
3
72
24
73
20
74
18
42
0.0000001000
43
0.0000001000
44
0.0000000001
12
-1.2933566380
22
-0.0163361995
32
0.0000000000
13
0.4595258395
23
1.0596520410
33
0.0000000000
40
0.0000000000
40
0.0000000000
40
0.0000000000
40
0.0000000000
40
0.0824661630
40
0.1675465312
40
0.2540280911
40
0.3407105137
40
0.4263855949
40
0.5098282747
40
0.5899029711
40
0.6654459078
40
0.7354298738
40
0.7988481947
40
0.8548178841
40
0.9025583808
40
0.9413867528
40
0.9707790595
40
0.9903182916
40
0.9997796744
40
1.0000000000
40
1.0000000000
40
1.0000000000
40
1.0000000000
10
6.2022072689
20
22.3902388789
30
0.0000000000
10
6.1666545491
20
22.3897898177
30
0.0000000000
10
6.0944210118
20
22.3889602376
30
0.0000000000
10
5.9849007473
20
22.3879295900
30
0.0000000000
10
5.8735608628
20
22.3871022603
30
0.0000000000
10
5.7619631281
20
22.3864898688
30
0.0000000000
10
5.6516747889
20
22.3861010684
30
0.0000000000
10
5.5442342096
20
22.3859407747
30
0.0000000000
10
5.4411641816
20
22.3860121214
30
0.0000000000
10
5.3438899646
20
22.3863094688
30
0.0000000000
10
5.2538228948
20
22.3868415204
30
0.0000000000
10
5.1721168039
20
22.3875543338
30
0.0000000000
10
5.1002528936
20
22.3885771986
30
0.0000000000
10
5.0382544277
20
22.3894645506
30
0.0000000000
10
4.9897846102
20
22.3914039437
30
0.0000000000
10
4.9482559044
20
22.3912050816
30
0.0000000000
10
4.9306743833
20
22.3959232257
30
0.0000000000
10
4.9080536184
20
22.3928654939
30
0.0000000000
10
4.9093573699
20
22.3962104178
30
0.0000000000
10
4.9093911184
20
22.3962882406
30
0.0000000000
11
6.2022072689
21
22.3902388789
31
0.0000000000
11
6.0955476870
21
22.3890094736
31
0.0000000000
11
5.9855045479
21
22.3879712885
31
0.0000000000
11
5.8736472219
21
22.3871390869
31
0.0000000000
11
5.7615286779
21
22.3865243655
31
0.0000000000
11
5.6507120855
21
22.3861357261
31
0.0000000000
11
5.5427824475
21
22.3859787065
31
0.0000000000
11
5.4392090749
21
22.3860554837
31
0.0000000000
11
5.3414978129
21
22.3863649645
31
0.0000000000
11
5.2509779646
21
22.3869029466
31
0.0000000000
11
5.1689524254
21
22.3876617435
31
0.0000000000
11
5.0965643671
21
22.3886307383
31
0.0000000000
11
5.0348249576
21
22.3897964498
31
0.0000000000
11
4.9846200492
21
22.3911420772
31
0.0000000000
11
4.9466321715
21
22.3926493197
31
0.0000000000
11
4.9214126783
21
22.3942962484
31
0.0000000000
11
4.9093025879
21
22.3960604345
31
0.0000000000
11
4.9093911184
21
22.3962882406
31
0.0000000000
0
SPLINE
5
37A
100
AcDbEntity
8
0
100
AcDbSpline
62
7
6
CONTINUOUS
70
0
71
3
72
16
73
12
74
10
42
0.0000001000
43
0.0000001000
44
0.0000000001
12
-0.3802696087
22
0.4311510221
32
0.0000000000
13
-0.5748421181
23
-0.0072607471
33
0.0000000000
40
0.0000000000
40
0.0000000000
40
0.0000000000
40
0.0000000000
40
0.0880911525
40
0.1824389892
40
0.2826581783
40
0.3884397988
40
0.4995975144
40
0.6160807574
40
0.7380139656
40
0.8657807297
40
1.0000000000
40
1.0000000000
40
1.0000000000
40
1.0000000000
10
6.7075031701
20
22.1510793629
30
0.0000000000
10
6.6963370408
20
22.1637395597
30
0.0000000000
10
6.6721295583
20
22.1890209301
30
0.0000000000
10
6.6317652000
20
22.2252136335
30
0.0000000000
10
6.5860864735
20
22.2603222130
30
0.0000000000
10
6.5351317584
20
22.2935645438
30
0.0000000000
10
6.4789042833
20
22.3240674943
30
0.0000000000
10
6.4173755715
20
22.3507901208
30
0.0000000000
10
6.3504831850
20
22.3724121181
30
0.0000000000
10
6.2782376738
20
22.3871427440
30
0.0000000000
10
6.2279255654
20
22.3905637230
30
0.0000000000
10
6.2022072689
20
22.3902388789
30
0.0000000000
11
6.7075031701
21
22.1510793629
31
0.0000000000
11
6.6725295196
21
22.1877060065
31
0.0000000000
11
6.6321789468
21
22.2239516646
31
0.0000000000
11
6.5865143812
21
22.2590830374
31
0.0000000000
11
6.5355840180
21
22.2923135676
31
0.0000000000
11
6.4794021591
21
22.3227638876
31
0.0000000000
11
6.4179555625
21
22.3493834715
31
0.0000000000
11
6.3512210898
21
22.3708364572
31
0.0000000000
11
6.2792112423
21
22.3853180264
31
0.0000000000
11
6.2022072689
21
22.3902388789
31
0.0000000000
0
SPLINE
5
37B
100
AcDbEntity
8
0
100
AcDbSpline
62
9
6
CONTINUOUS
70
0
71
3
72
14
73
10
74
8
42
0.0000001000
43
0.0000001000
44
0.0000000001
12
-0.0343637749
22
-0.0319362042
32
0.0000000000
13
0.1441966436
23
-0.0002172768
33
0.0000000000
40
0.0000000000
40
0.0000000000
40
0.0000000000
40
0.0000000000
40
0.0318567909
40
0.1068520917
40
0.2209200952
40
0.3713223831
40
0.5544233640
40
0.7658245431
40
1.0000000000
40
1.0000000000
40
1.0000000000
40
1.0000000000
10
-17.7819951710
20
22.0926660775
30
0.0000000000
10
-17.7823600775
20
22.0923269491
30
0.0000000000
10
-17.7722502430
20
22.0925810029
30
0.0000000000
10
-17.7657135360
20
22.0919399785
30
0.0000000000
10
-17.7473348987
20
22.0918964615
30
0.0000000000
10
-17.7266610788
20
22.0916058218
30
0.0000000000
10
-17.7001677110
20
22.0914638221
30
0.0000000000
10
-17.6700529873
20
22.0913285730
30
0.0000000000
10
-17.6486101490
20
22.0912824264
30
0.0000000000
10
-17.6373543774
20
22.0912654661
30
0.0000000000
11
-17.7819951710
21
22.0926660775
31
0.0000000000
11
-17.7769494102
21
22.0924282950
31
0.0000000000
11
-17.7661392821
21
22.0921358566
31
0.0000000000
11
-17.7496931012
21
22.0918754782
31
0.0000000000
11
-17.7280067083
21
22.0916534252
31
0.0000000000
11
-17.7016047339
21
22.0914750606
31
0.0000000000
11
-17.6711216377
21
22.0913446624
31
0.0000000000
11
-17.6373543774
21
22.0912654661
31
0.0000000000
0
SPLINE
5
37C
100
AcDbEntity
8
0
100
AcDbSpline
62
9
6
CONTINUOUS
70
0
71
3
72
30
73
26
74
24
42
0.0000001000
43
0.0000001000
44
0.0000000001
12
-1.5591944434
22
-0.0099293712
32
0.0000000000
13
-0.2173092891
23
0.2547419009
33
0.0000000000
40
0.0000000000
40
0.0000000000
40
0.0000000000
40
0.0000000000
40
0.0317665324
40
0.0704340904
40
0.1154075382
40
0.1659807247
40
0.2213653453
40
0.2807006395
40
0.3430582479
40
0.4074661735
40
0.4729191436
40
0.5383986473
40
0.6028811790
40
0.6653630101
40
0.7248678047
40
0.7804696226
40
0.8312996226
40
0.8765665422
40
0.9155628917
40
0.9476818450
40
0.9724220364
40
0.9893978169
40
0.9983445149
40
0.9991456168
40
1.0000000000
40
1.0000000000
40
1.0000000000
40
1.0000000000
10
2.3473826234
20
-22.9486356797
30
0.0000000000
10
2.3308725565
20
-22.9487408203
30
0.0000000000
10
2.2942654875
20
-22.9489335891
30
0.0000000000
10
2.2342838183
20
-22.9491748580
30
0.0000000000
10
2.1645273922
20
-22.9493919178
30
0.0000000000
10
2.0860823002
20
-22.9495810370
30
0.0000000000
10
2.0001726704
20
-22.9497387362
30
0.0000000000
10
1.9081381206
20
-22.9498623731
30
0.0000000000
10
1.8114137371
20
-22.9499498610
30
0.0000000000
10
1.7115097130
20
-22.9499997535
30
0.0000000000
10
1.6099830990
20
-22.9500112348
30
0.0000000000
10
1.5084177044
20
-22.9499840813
30
0.0000000000
10
1.4083965814
20
-22.9499188409
30
0.0000000000
10
1.3114806978
20
-22.9498161766
30
0.0000000000
10
1.2191808925
20
-22.9496791692
30
0.0000000000
10
1.1329359149
20
-22.9495053309
30
0.0000000000
10
1.0540949308
20
-22.9493133372
30
0.0000000000
10
0.9838723405
20
-22.9490563909
30
0.0000000000
10
0.9234118376
20
-22.9488922259
30
0.0000000000
10
0.8735151750
20
-22.9483840435
30
0.0000000000
10
0.8353358677
20
-22.9487128309
30
0.0000000000
10
0.8085911765
20
-22.9471467049
30
0.0000000000
10
0.7953070240
20
-22.9487849899
30
0.0000000000
10
0.7893791985
20
-22.9472759584
30
0.0000000000
10
0.7890107340
20
-22.9471060051
30
0.0000000000
10
0.7889488456
20
-22.9470334561
30
0.0000000000
11
2.3473826234
21
-22.9486356797
31
0.0000000000
11
2.2978521529
21
-22.9489054425
31
0.0000000000
11
2.2375611979
21
-22.9491532140
31
0.0000000000
11
2.1674377774
21
-22.9493751509
31
0.0000000000
11
2.0885829823
21
-22.9495677919
31
0.0000000000
11
2.0022259874
21
-22.9497281260
31
0.0000000000
11
1.9097089356
21
-22.9498536639
31
0.0000000000
11
1.8124793681
21
-22.9499424386
31
0.0000000000
11
1.7120528649
21
-22.9499930682
31
0.0000000000
11
1.6099968888
21
-22.9500047636
31
0.0000000000
11
1.5078995440
21
-22.9499773427
31
0.0000000000
11
1.4073567219
21
-22.9499112342
31
0.0000000000
11
1.3099334780
21
-22.9498074674
31
0.0000000000
11
1.2171521568
21
-22.9496676640
31
0.0000000000
11
1.1304565274
21
-22.9494939993
31
0.0000000000
11
1.0512013313
21
-22.9492891869
31
0.0000000000
11
0.9806203546
21
-22.9490564147
31
0.0000000000
11
0.9198167736
21
-22.9487993210
31
0.0000000000
11
0.8697368331
21
-22.9485219069
31
0.0000000000
11
0.8311623977
21
-22.9482285012
31
0.0000000000
11
0.8046950737
21
-22.9479236762
31
0.0000000000
11
0.7907486267
21
-22.9476122028
31
0.0000000000
11
0.7895394524
21
-22.9472989210
31
0.0000000000
11
0.7889488456
21
-22.9470334561
31
0.0000000000
0
SPLINE
5
37D
100
AcDbEntity
8
0
100
AcDbSpline
62
9
6
CONTINUOUS
70
0
71
3
72
30
73
26
74
24
42
0.0000001000
43
0.0000001000
44
0.0000000001
12
-1.5591944434
22
-0.0099293712
32
0.0000000000
13
-0.2173092891
23
0.2547419009
33
0.0000000000
40
0.0000000000
40
0.0000000000
40
0.0000000000
40
0.0000000000
40
0.0317665324
40
0.0704340904
40
0.1154075382
40
0.1659807247
40
0.2213653453
40
0.2807006395
40
0.3430582479
40
0.4074661735
40
0.4729191436
40
0.5383986473
40
0.6028811790
40
0.6653630101
40
0.7248678047
40
0.7804696226
40
0.8312996226
40
0.8765665422
40
0.9155628917
40
0.9476818450
40
0.9724220364
40
0.9893978169
40
0.9983445149
40
0.9991456168
40
1.0000000000
40
1.0000000000
40
1.0000000000
40
1.0000000000
10
-10.5344825749
20
-22.9292251657
30
0.0000000000
10
-10.5509926418
20
-22.9293303063
30
0.0000000000
10
-10.5875997108
20
-22.9295230750
30
0.0000000000
10
-10.6475813800
20
-22.9297643440
30
0.0000000000
10
-10.7173378061
20
-22.9299814038
30
0.0000000000
10
-10.7957828982
20
-22.9301705230
30
0.0000000000
10
-10.8816925279
20
-22.9303282222
30
0.0000000000
10
-10.9737270777
20
-22.9304518591
30
0.0000000000
10
-11.0704514612
20
-22.9305393470
30
0.0000000000
10
-11.1703554853
20
-22.9305892395
30
0.0000000000
10
-11.2718820993
20
-22.9306007208
30
0.0000000000
10
-11.3734474939
20
-22.9305735673
30
0.0000000000
10
-11.4734686169
20
-22.9305083269
30
0.0000000000
10
-11.5703845005
20
-22.9304056626
30
0.0000000000
10
-11.6626843058
20
-22.9302686551
30
0.0000000000
10
-11.7489292834
20
-22.9300948168
30
0.0000000000
10
-11.8277702675
20
-22.9299028232
30
0.0000000000
10
-11.8979928578
20
-22.9296458769
30
0.0000000000
10
-11.9584533608
20
-22.9294817119
30
0.0000000000
10
-12.0083500233
20
-22.9289735294
30
0.0000000000
10
-12.0465293306
20
-22.9293023169
30
0.0000000000
10
-12.0732740218
20
-22.9277361909
30
0.0000000000
10
-12.0865581743
20
-22.9293744759
30
0.0000000000
10
-12.0924859998
20
-22.9278654443
30
0.0000000000
10
-12.0928544643
20
-22.9276954911
30
0.0000000000
10
-12.0929163528
20
-22.9276229420
30
0.0000000000
11
-10.5344825749
21
-22.9292251657
31
0.0000000000
11
-10.5840130454
21
-22.9294949285
31
0.0000000000
11
-10.6443040004
21
-22.9297426999
31
0.0000000000
11
-10.7144274209
21
-22.9299646368
31
0.0000000000
11
-10.7932822160
21
-22.9301572778
31
0.0000000000
11
-10.8796392109
21
-22.9303176119
31
0.0000000000
11
-10.9721562627
21
-22.9304431498
31
0.0000000000
11
-11.0693858302
21
-22.9305319246
31
0.0000000000
11
-11.1698123334
21
-22.9305825542
31
0.0000000000
11
-11.2718683095
21
-22.9305942496
31
0.0000000000
11
-11.3739656543
21
-22.9305668287
31
0.0000000000
11
-11.4745084764
21
-22.9305007202
31
0.0000000000
11
-11.5719317204
21
-22.9303969534
31
0.0000000000
11
-11.6647130415
21
-22.9302571499
31
0.0000000000
11
-11.7514086709
21
-22.9300834853
31
0.0000000000
11
-11.8306638670
21
-22.9298786729
31
0.0000000000
11
-11.9012448437
21
-22.9296459007
31
0.0000000000
11
-11.9620484247
21
-22.9293888069
31
0.0000000000
11
-12.0121283653
21
-22.9291113929
31
0.0000000000
11
-12.0507028006
21
-22.9288179872
31
0.0000000000
11
-12.0771701246
21
-22.9285131622
31
0.0000000000
11
-12.0911165716
21
-22.9282016888
31
0.0000000000
11
-12.0923257459
21
-22.9278884070
31
0.0000000000
11
-12.0929163528
21
-22.9276229420
31
0.0000000000
0
SPLINE
5
37E
100
AcDbEntity
8
0
100
AcDbSpline
62
7
6
CONTINUOUS
70
0
71
3
72
16
73
12
74
10
42
0.0000001000
43
0.0000001000
44
0.0000000001
12
0.5782894163
22
0.0001054287
32
0.0000000000
13
0.3737546166
23
0.4412648415
33
0.0000000000
40
0.0000000000
40
0.0000000000
40
0.0000000000
40
0.0000000000
40
0.1325756367
40
0.2598351907
40
0.3814711697
40
0.4978643957
40
0.6091358076
40
0.7152314345
40
0.8159617442
40
0.9110144100
40
1.0000000000
40
1.0000000000
40
1.0000000000
40
1.0000000000
10
6.3132647526
20
-22.4542800413
30
0.0000000000
10
6.3388204484
20
-22.4542753822
30
0.0000000000
10
6.3889679302
20
-22.4502062135
30
0.0000000000
10
6.4609647804
20
-22.4344638240
30
0.0000000000
10
6.5277479665
20
-22.4117347631
30
0.0000000000
10
6.5891413757
20
-22.3838575851
30
0.0000000000
10
6.6452147197
20
-22.3521596892
30
0.0000000000
10
6.6960018001
20
-22.3176884808
30
0.0000000000
10
6.7415037477
20
-22.2813233721
30
0.0000000000
10
6.7816859910
20
-22.2438532161
30
0.0000000000
10
6.8057331946
20
-22.2177144821
30
0.0000000000
10
6.8168194529
20
-22.2046257447
30
0.0000000000
11
6.3132647526
21
-22.4542800413
31
0.0000000000
11
6.3897055830
21
-22.4483908001
31
0.0000000000
11
6.4616414844
21
-22.4328682906
31
0.0000000000
11
6.5282675030
21
-22.4103154212
31
0.0000000000
11
6.5895800571
21
-22.3825465037
31
0.0000000000
11
6.6456088888
21
-22.3509051600
31
0.0000000000
11
6.6963724350
21
-22.3164487551
31
0.0000000000
11
6.7418607445
21
-22.2800632091
31
0.0000000000
11
6.7820295162
21
-22.2425419924
31
0.0000000000
11
6.8168194529
21
-22.2046257447
31
0.0000000000
0
SPLINE
5
37F
100
AcDbEntity
8
0
100
AcDbSpline
62
7
6
CONTINUOUS
70
0
71
3
72
29
73
25
74
23
42
0.0000001000
43
0.0000001000
44
0.0000000001
12
-1.5575095378
22
-0.0636559966
32
0.0000000000
13
-0.5929655862
23
1.2114968776
33
0.0000000000
40
0.0000000000
40
0.0000000000
40
0.0000000000
40
0.0000000000
40
0.0317963293
40
0.0704942541
40
0.1154912776
40
0.1660608912
40
0.2214830428
40
0.2807873621
40
0.3432017514
40
0.4075705159
40
0.4731013031
40
0.5385432144
40
0.6031162555
40
0.6655645786
40
0.7251582598
40
0.7807298454
40
0.8316308424
40
0.8768720046
40
0.9159168064
40
0.9480215071
40
0.9727958792
40
0.9897861135
40
0.9987947575
40
1.0000000000
40
1.0000000000
40
1.0000000000
40
1.0000000000
10
-10.6462150690
20
22.4068714694
30
0.0000000000
10
-10.6627227644
20
22.4061967937
30
0.0000000000
10
-10.6993300466
20
22.4049175685
30
0.0000000000
10
-10.7593159871
20
22.4032232924
30
0.0000000000
10
-10.8290615262
20
22.4015948554
30
0.0000000000
10
-10.9075009059
20
22.4000593909
30
0.0000000000
10
-10.9933777496
20
22.3986440805
30
0.0000000000
10
-11.0854120100
20
22.3973710683
30
0.0000000000
10
-11.1820973929
20
22.3962620600
30
0.0000000000
10
-11.2820201068
20
22.3953337222
30
0.0000000000
10
-11.3835176088
20
22.3946017900
30
0.0000000000
10
-11.4851225095
20
22.3940770423
30
0.0000000000
10
-11.5851267331
20
22.3937679505
30
0.0000000000
10
-11.6820922854
20
22.3936798966
30
0.0000000000
10
-11.7743818468
20
22.3938099606
30
0.0000000000
10
-11.8606665959
20
22.3941690372
30
0.0000000000
10
-11.9395062020
20
22.3947053355
30
0.0000000000
10
-12.0097129791
20
22.3955507618
30
0.0000000000
10
-12.0702807889
20
22.3962555703
30
0.0000000000
10
-12.1198384404
20
22.3980459974
30
0.0000000000
10
-12.1588909408
20
22.3975750754
30
0.0000000000
10
-12.1837751493
20
22.4025330169
30
0.0000000000
10
-12.2000395811
20
22.3983442312
30
0.0000000000
10
-12.2037442902
20
22.4031480533
30
0.0000000000
10
-12.2039825126
20
22.4036347692
30
0.0000000000
11
-10.6462150690
21
22.4068714694
31
0.0000000000
11
-10.6957475695
21
22.4050926652
31
0.0000000000
11
-10.7560454194
21
22.4033611773
31
0.0000000000
11
-10.8261676411
21
22.4017039512
31
0.0000000000
11
-10.9049806841
21
22.4001475136
31
0.0000000000
11
-10.9913613868
21
22.3987141564
31
0.0000000000
11
-11.0837966064
21
22.3974288674
31
0.0000000000
11
-11.1810823182
21
22.3963085018
31
0.0000000000
11
-11.2814166266
21
22.3953737881
31
0.0000000000
11
-11.3835639989
21
22.3946363245
31
0.0000000000
11
-11.4855741359
21
22.3941102040
31
0.0000000000
11
-11.5862307537
21
22.3938017679
31
0.0000000000
11
-11.6835757760
21
22.3937170272
31
0.0000000000
11
-11.7764708858
21
22.3938570024
31
0.0000000000
11
-11.8630956628
21
22.3942189505
31
0.0000000000
11
-11.9424385193
21
22.3947986115
31
0.0000000000
11
-12.0129565058
21
22.3955846990
31
0.0000000000
11
-12.0738119863
21
22.3965677768
31
0.0000000000
11
-12.1238436333
21
22.3977290633
31
0.0000000000
11
-12.1624394268
21
22.3990541764
31
0.0000000000
11
-12.1888834537
21
22.4005185938
31
0.0000000000
11
-12.2028365327
21
22.4021031349
31
0.0000000000
11
-12.2039825126
21
22.4036347692
31
0.0000000000
0
SPLINE
5
380
100
AcDbEntity
8
0
100
AcDbSpline
62
7
6
CONTINUOUS
70
0
71
3
72
29
73
25
74
23
42
0.0000001000
43
0.0000001000
44
0.0000000001
12
-1.5575095378
22
-0.0636559966
32
0.0000000000
13
-0.5929655862
23
1.2114968776
33
0.0000000000
40
0.0000000000
40
0.0000000000
40
0.0000000000
40
0.0000000000
40
0.0317963293
40
0.0704942541
40
0.1154912776
40
0.1660608912
40
0.2214830428
40
0.2807873621
40
0.3432017514
40
0.4075705159
40
0.4731013031
40
0.5385432144
40
0.6031162555
40
0.6655645786
40
0.7251582598
40
0.7807298454
40
0.8316308424
40
0.8768720046
40
0.9159168064
40
0.9480215071
40
0.9727958792
40
0.9897861135
40
0.9987947575
40
1.0000000000
40
1.0000000000
40
1.0000000000
40
1.0000000000
10
2.2356501293
20
22.3874609554
30
0.0000000000
10
2.2191424339
20
22.3867862797
30
0.0000000000
10
2.1825351517
20
22.3855070544
30
0.0000000000
10
2.1225492113
20
22.3838127784
30
0.0000000000
10
2.0528036721
20
22.3821843414
30
0.0000000000
10
1.9743642924
20
22.3806488769
30
0.0000000000
10
1.8884874488
20
22.3792335665
30
0.0000000000
10
1.7964531883
20
22.3779605543
30
0.0000000000
10
1.6997678054
20
22.3768515459
30
0.0000000000
10
1.5998450915
20
22.3759232082
30
0.0000000000
10
1.4983475895
20
22.3751912760
30
0.0000000000
10
1.3967426889
20
22.3746665283
30
0.0000000000
10
1.2967384652
20
22.3743574365
30
0.0000000000
10
1.1997729130
20
22.3742693826
30
0.0000000000
10
1.1074833515
20
22.3743994466
30
0.0000000000
10
1.0211986024
20
22.3747585232
30
0.0000000000
10
0.9423589964
20
22.3752948215
30
0.0000000000
10
0.8721522193
20
22.3761402478
30
0.0000000000
10
0.8115844094
20
22.3768450563
30
0.0000000000
10
0.7620267579
20
22.3786354834
30
0.0000000000
10
0.7229742575
20
22.3781645614
30
0.0000000000
10
0.6980900490
20
22.3831225028
30
0.0000000000
10
0.6818256172
20
22.3789337171
30
0.0000000000
10
0.6781209082
20
22.3837375393
30
0.0000000000
10
0.6778826857
20
22.3842242551
30
0.0000000000
11
2.2356501293
21
22.3874609554
31
0.0000000000
11
2.1861176289
21
22.3856821511
31
0.0000000000
11
2.1258197789
21
22.3839506632
31
0.0000000000
11
2.0556975572
21
22.3822934372
31
0.0000000000
11
1.9768845142
21
22.3807369996
31
0.0000000000
11
1.8905038115
21
22.3793036424
31
0.0000000000
11
1.7980685919
21
22.3780183533
31
0.0000000000
11
1.7007828801
21
22.3768979878
31
0.0000000000
11
1.6004485718
21
22.3759632741
31
0.0000000000
11
1.4983011995
21
22.3752258105
31
0.0000000000
11
1.3962910624
21
22.3746996899
31
0.0000000000
11
1.2956344446
21
22.3743912538
31
0.0000000000
11
1.1982894223
21
22.3743065131
31
0.0000000000
11
1.1053943125
21
22.3744464883
31
0.0000000000
11
1.0187695355
21
22.3748084364
31
0.0000000000
11
0.9394266791
21
22.3753880974
31
0.0000000000
11
0.8689086925
21
22.3761741849
31
0.0000000000
11
0.8080532121
21
22.3771572628
31
0.0000000000
11
0.7580215650
21
22.3783185493
31
0.0000000000
11
0.7194257715
21
22.3796436623
31
0.0000000000
11
0.6929817446
21
22.3811080798
31
0.0000000000
11
0.6790286656
21
22.3826926208
31
0.0000000000
11
0.6778826857
21
22.3842242551
31
0.0000000000
0
SPLINE
5
381
100
AcDbEntity
8
0
100
AcDbSpline
62
9
6
CONTINUOUS
70
0
71
3
72
17
73
13
74
11
42
0.0000001000
43
0.0000001000
44
0.0000000001
12
-0.0007167992
22
0.2908453813
32
0.0000000000
13
0.2905941087
23
0.0121084113
33
0.0000000000
40
0.0000000000
40
0.0000000000
40
0.0000000000
40
0.0000000000
40
0.1338728173
40
0.2652327863
40
0.3915003826
40
0.5102990967
40
0.6195763941
40
0.7177544030
40
0.8039416045
40
0.8782617484
40
0.9423637988
40
1.0000000000
40
1.0000000000
40
1.0000000000
40
1.0000000000
10
4.1139518202
20
22.0584903961
30
0.0000000000
10
4.1139198336
20
22.0714691596
30
0.0000000000
10
4.1146954726
20
22.0971933331
30
0.0000000000
10
4.1183541265
20
22.1350000209
30
0.0000000000
10
4.1244144231
20
22.1710208945
30
0.0000000000
10
4.1327276519
20
22.2043931125
30
0.0000000000
10
4.1430923338
20
22.2343291253
30
0.0000000000
10
4.1552672810
20
22.2601374219
30
0.0000000000
10
4.1689906907
20
22.2812463522
30
0.0000000000
10
4.1840415406
20
22.2972007766
30
0.0000000000
10
4.2002550319
20
22.3075880773
30
0.0000000000
10
4.2120222252
20
22.3104201867
30
0.0000000000
10
4.2176051387
20
22.3106528143
30
0.0000000000
11
4.1139518202
21
22.0584903961
31
0.0000000000
11
4.1151366810
21
22.0974087727
31
0.0000000000
11
4.1188541100
21
22.1354330446
31
0.0000000000
11
4.1250135841
21
22.1716372812
31
0.0000000000
11
4.1334651137
21
22.2051398716
31
0.0000000000
11
4.1440028951
21
22.2351249928
31
0.0000000000
11
4.1563703226
21
22.2608624760
31
0.0000000000
11
4.1702662362
21
22.2817255866
31
0.0000000000
11
4.1853522561
21
22.2972062861
31
0.0000000000
11
4.2012610219
21
22.3069276034
31
0.0000000000
11
4.2176051387
21
22.3106528143
31
0.0000000000
0
SPLINE
5
382
100
AcDbEntity
8
0
100
AcDbSpline
62
9
6
CONTINUOUS
70
0
71
3
72
16
73
12
74
10
42
0.0000001000
43
0.0000001000
44
0.0000000001
12
-0.0006455593
22
0.2619393780
32
0.0000000000
13
0.2175235045
23
0.1475856707
33
0.0000000000
40
0.0000000000
40
0.0000000000
40
0.0000000000
40
0.0000000000
40
0.1486461901
40
0.2945022296
40
0.4347039338
40
0.5666125363
40
0.6879489977
40
0.7969613221
40
0.8926596079
40
0.9751812615
40
1.0000000000
40
1.0000000000
40
1.0000000000
40
1.0000000000
10
-17.6373543774
20
22.0912654661
30
0.0000000000
10
-17.6373863640
20
22.1042442297
30
0.0000000000
10
-17.6366107250
20
22.1299684032
30
0.0000000000
10
-17.6329520711
20
22.1677750910
30
0.0000000000
10
-17.6268917745
20
22.2037959646
30
0.0000000000
10
-17.6185785457
20
22.2371681825
30
0.0000000000
10
-17.6082138638
20
22.2671041953
30
0.0000000000
10
-17.5960389166
20
22.2929124919
30
0.0000000000
10
-17.5823155069
20
22.3140214223
30
0.0000000000
10
-17.5700622792
20
22.3270102698
30
0.0000000000
10
-17.5625251823
20
22.3326583583
30
0.0000000000
10
-17.5607256293
20
22.3338793217
30
0.0000000000
11
-17.6373543774
21
22.0912654661
31
0.0000000000
11
-17.6361695167
21
22.1301838427
31
0.0000000000
11
-17.6324520876
21
22.1682081146
31
0.0000000000
11
-17.6262926135
21
22.2044123512
31
0.0000000000
11
-17.6178410839
21
22.2379149416
31
0.0000000000
11
-17.6073033025
21
22.2679000629
31
0.0000000000
11
-17.5949358750
21
22.2936375460
31
0.0000000000
11
-17.5810399614
21
22.3145006566
31
0.0000000000
11
-17.5659539415
21
22.3299813562
31
0.0000000000
11
-17.5607256293
21
22.3338793217
31
0.0000000000
0
SPLINE
5
383
100
AcDbEntity
8
0
100
AcDbSpline
62
9
6
CONTINUOUS
70
0
71
3
72
9
73
5
74
3
42
0.0000001000
43
0.0000001000
44
0.0000000001
12
0.0194437017
22
0.0131921916
32
0.0000000000
13
0.0231951767
23
0.0038838363
33
0.0000000000
40
0.0000000000
40
0.0000000000
40
0.0000000000
40
0.0000000000
40
0.5186144222
40
1.0000000000
40
1.0000000000
40
1.0000000000
40
1.0000000000
10
-17.5607256293
20
22.3338793217
30
0.0000000000
10
-17.5573643679
20
22.3361598753
30
0.0000000000
10
-17.5505006217
20
22.3399857279
30
0.0000000000
10
-17.5428935829
20
22.3422296164
30
0.0000000000
10
-17.5391716417
20
22.3428528240
30
0.0000000000
11
-17.5607256293
21
22.3338793217
31
0.0000000000
11
-17.5500451757
21
22.3397026735
31
0.0000000000
11
-17.5391716417
21
22.3428528240
31
0.0000000000
0
SPLINE
5
384
100
AcDbEntity
8
0
100
AcDbSpline
62
9
6
CONTINUOUS
70
0
71
3
72
8
73
4
74
2
42
0.0000001000
43
0.0000001000
44
0.0000000001
12
0.0054408121
22
0.0009110180
32
0.0000000000
13
0.0054873697
23
0.0002286465
33
0.0000000000
40
0.0000000000
40
0.0000000000
40
0.0000000000
40
0.0000000000
40
1.0000000000
40
1.0000000000
40
1.0000000000
40
1.0000000000
10
-17.5391716417
20
22.3428528240
30
0.0000000000
10
-17.5373580377
20
22.3431564967
30
0.0000000000
10
-17.5355301822
20
22.3433516689
30
0.0000000000
10
-17.5337010589
20
22.3434278844
30
0.0000000000
11
-17.5391716417
21
22.3428528240
31
0.0000000000
11
-17.5337010589
21
22.3434278844
31
0.0000000000
0
SPLINE
5
385
100
AcDbEntity
8
0
100
AcDbSpline
62
9
6
CONTINUOUS
70
0
71
3
72
17
73
13
74
11
42
0.0000001000
43
0.0000001000
44
0.0000000001
12
-0.3300525777
22
-0.0066378911
32
0.0000000000
13
-0.3301189456
23
0.0004974263
33
0.0000000000
40
0.0000000000
40
0.0000000000
40
0.0000000000
40
0.0000000000
40
0.0593695422
40
0.1337207959
40
0.2212628808
40
0.3198870212
40
0.4272174202
40
0.5406674154
40
0.6575070423
40
0.7749123878
40
0.8900645184
40
1.0000000000
40
1.0000000000
40
1.0000000000
40
1.0000000000
10
4.4440622337
20
22.0603113677
30
0.0000000000
10
4.4375305435
20
22.0601800049
30
0.0000000000
10
4.4228178383
20
22.0599383430
30
0.0000000000
10
4.3984720513
20
22.0596300068
30
0.0000000000
10
4.3698061610
20
22.0593441350
30
0.0000000000
10
4.3375108569
20
22.0590881908
30
0.0000000000
10
4.3023643219
20
22.0588691318
30
0.0000000000
10
4.2652130990
20
22.0586924968
30
0.0000000000
10
4.2269530323
20
22.0585627300
30
0.0000000000
10
4.1885055255
20
22.0584830075
30
0.0000000000
10
4.1508176773
20
22.0584552453
30
0.0000000000
10
4.1260490820
20
22.0584721678
30
0.0000000000
10
4.1139518202
20
22.0584903961
30
0.0000000000
11
4.4440622337
21
22.0603113677
31
0.0000000000
11
4.4244660648
21
22.0599763224
31
0.0000000000
11
4.3999233371
21
22.0596585030
31
0.0000000000
11
4.3710254883
21
22.0593655690
31
0.0000000000
11
4.3384688002
21
22.0591045776
31
0.0000000000
11
4.3030376621
21
22.0588818160
31
0.0000000000
11
4.2655860553
21
22.0587026512
31
0.0000000000
11
4.2270152604
21
22.0585713944
31
0.0000000000
11
4.1882575705
21
22.0584912129
31
0.0000000000
11
4.1502436371
21
22.0584640267
31
0.0000000000
11
4.1139518202
21
22.0584903961
31
0.0000000000
0
SPLINE
5
386
100
AcDbEntity
8
0
100
AcDbSpline
62
9
6
CONTINUOUS
70
0
71
3
72
17
73
13
74
11
42
0.0000001000
43
0.0000001000
44
0.0000000001
12
-0.2880455748
22
0.0004595366
32
0.0000000000
13
-0.0007098528
23
0.2880268350
33
0.0000000000
40
0.0000000000
40
0.0000000000
40
0.0000000000
40
0.0000000000
40
0.0575157081
40
0.1212083792
40
0.1948832329
40
0.2804341330
40
0.3781408693
40
0.4872063183
40
0.6061078608
40
0.7328218701
40
0.8649812233
40
1.0000000000
40
1.0000000000
40
1.0000000000
40
1.0000000000
10
4.3278557144
20
-22.4545247662
30
0.0000000000
10
4.3223333327
20
-22.4545159560
30
0.0000000000
10
4.3106174730
20
-22.4522064506
30
0.0000000000
10
4.2943170462
20
-22.4424937553
30
0.0000000000
10
4.2791648720
20
-22.4271428162
30
0.0000000000
10
4.2653325582
20
-22.4065929409
30
0.0000000000
10
4.2530327904
20
-22.3812874898
30
0.0000000000
10
4.2425247829
20
-22.3517839441
30
0.0000000000
10
4.2340514709
20
-22.3187611332
30
0.0000000000
10
4.2278176589
20
-22.2829968261
30
0.0000000000
10
4.2239762332
20
-22.2453468589
30
0.0000000000
10
4.2230770384
20
-22.2196891316
30
0.0000000000
10
4.2230450905
20
-22.2067261213
30
0.0000000000
11
4.3278557144
21
-22.4545247662
31
0.0000000000
11
4.3115697897
21
-22.4514839656
31
0.0000000000
11
4.2956147501
21
-22.4424294054
31
0.0000000000
11
4.2804539845
21
-22.4275816265
31
0.0000000000
11
4.2664566735
21
-22.4073021878
31
0.0000000000
11
4.2539636662
21
-22.3820849147
31
0.0000000000
11
4.2432791803
21
-22.3525438741
31
0.0000000000
11
4.2346633942
21
-22.3193984210
31
0.0000000000
11
4.2283261112
21
-22.2834556818
31
0.0000000000
11
4.2244216507
21
-22.2455908996
31
0.0000000000
11
4.2230450905
21
-22.2067261213
31
0.0000000000
0
SPLINE
5
387
100
AcDbEntity
8
0
100
AcDbSpline
62
9
6
CONTINUOUS
70
0
71
3
72
17
73
13
74
11
42
0.0000001000
43
0.0000001000
44
0.0000000001
12
-0.0023449534
22
0.3737561176
32
0.0000000000
13
-0.3737628278
23
0.0006948794
33
0.0000000000
40
0.0000000000
40
0.0000000000
40
0.0000000000
40
0.0000000000
40
0.1049547696
40
0.2095383805
40
0.3132920568
40
0.4158289831
40
0.5168702211
40
0.6162731565
40
0.7140561285
40
0.8103891382
40
0.9056121045
40
1.0000000000
40
1.0000000000
40
1.0000000000
40
1.0000000000
10
4.4440622337
20
22.0603113677
30
0.0000000000
10
4.4439801957
20
22.0733871968
30
0.0000000000
10
4.4419691019
20
22.0995186030
30
0.0000000000
10
4.4334881326
20
22.1377468946
30
0.0000000000
10
4.4197464519
20
22.1741042573
30
0.0000000000
10
4.4010732642
20
22.2076917849
30
0.0000000000
10
4.3779166595
20
22.2376874537
30
0.0000000000
10
4.3508337421
20
22.2633490468
30
0.0000000000
10
4.3204822816
20
22.2840351128
30
0.0000000000
10
4.2876000599
20
22.2992223161
30
0.0000000000
10
4.2530345774
20
22.3085147131
30
0.0000000000
10
4.2293647009
20
22.3106309516
30
0.0000000000
10
4.2176051387
20
22.3106528143
30
0.0000000000
11
4.4440622337
21
22.0603113677
31
0.0000000000
11
4.4410469910
21
22.0994235734
31
0.0000000000
11
4.4325661889
21
22.1375820278
31
0.0000000000
11
4.4188287447
21
22.1738466030
31
0.0000000000
11
4.4001730999
21
22.2073240378
31
0.0000000000
11
4.3770588251
21
22.2371898228
31
0.0000000000
11
4.3500556252
21
22.2627081780
31
0.0000000000
11
4.3198279316
21
22.2832513315
31
0.0000000000
11
4.2871233540
21
22.2983120548
31
0.0000000000
11
4.2527446471
21
22.3075215228
31
0.0000000000
11
4.2176051387
21
22.3106528143
31
0.0000000000
0
SPLINE
5
388
100
AcDbEntity
8
0
100
AcDbSpline
62
9
6
CONTINUOUS
70
0
71
3
72
17
73
13
74
11
42
0.0000001000
43
0.0000001000
44
0.0000000001
12
-0.0005007379
22
-0.3724724596
32
0.0000000000
13
-0.3724878948
23
-0.0000493040
33
0.0000000000
40
0.0000000000
40
0.0000000000
40
0.0000000000
40
0.0000000000
40
0.1052709144
40
0.2100508148
40
0.3138942173
40
0.4164372673
40
0.5174323928
40
0.6167746736
40
0.7145234180
40
0.8108888319
40
0.9062455312
40
1.0000000000
40
1.0000000000
40
1.0000000000
40
1.0000000000
10
4.5531555040
20
-22.2049051497
30
0.0000000000
10
4.5531379329
20
-22.2179753218
30
0.0000000000
10
4.5512588473
20
-22.2440900411
30
0.0000000000
10
4.5429687040
20
-22.2822994654
30
0.0000000000
10
4.5294071241
20
-22.3186215558
30
0.0000000000
10
4.5108982971
20
-22.3521577773
30
0.0000000000
10
4.4878859283
20
-22.3820865666
30
0.0000000000
10
4.4609235838
20
-22.4076663401
30
0.0000000000
10
4.4306666221
20
-22.4282566117
30
0.0000000000
10
4.3978516941
20
-22.4433356704
30
0.0000000000
10
4.3634337711
20
-22.4524817595
30
0.0000000000
10
4.3399037637
20
-22.4545235089
30
0.0000000000
10
4.3282629622
20
-22.4545250498
30
0.0000000000
11
4.5531555040
21
-22.2049051497
31
0.0000000000
11
4.5503330400
21
-22.2440139859
31
0.0000000000
11
4.5420402694
21
-22.2821504304
31
0.0000000000
11
4.5284814772
21
-22.3183748974
31
0.0000000000
11
4.5099907042
21
-22.3517951140
31
0.0000000000
11
4.4870234603
21
-22.3815879803
31
0.0000000000
11
4.4601458283
21
-22.4070195136
31
0.0000000000
11
4.4300191504
21
-22.4274640783
31
0.0000000000
11
4.3973885423
21
-22.4424168843
31
0.0000000000
11
4.3630549472
21
-22.4515117559
31
0.0000000000
11
4.3282629622
21
-22.4545250498
31
0.0000000000
0
SPLINE
5
389
100
AcDbEntity
8
0
100
AcDbSpline
62
7
6
CONTINUOUS
70
0
71
3
72
17
73
13
74
11
42
0.0000001000
43
0.0000001000
44
0.0000000001
12
0.3301189456
22
-0.0004974263
32
0.0000000000
13
0.3300525778
23
0.0066378911
33
0.0000000000
40
0.0000000000
40
0.0000000000
40
0.0000000000
40
0.0000000000
40
0.1100357803
40
0.2254412123
40
0.3424773887
40
0.4595619754
40
0.5728982145
40
0.6801218330
40
0.7789415351
40
0.8661925036
40
0.9406962716
40
1.0000000000
40
1.0000000000
40
1.0000000000
40
1.0000000000
10
4.2148299146
20
-18.8733716408
30
0.0000000000
10
4.2269382132
20
-18.8733898857
30
0.0000000000
10
4.2517457186
20
-18.8734068163
30
0.0000000000
10
4.2894318536
20
-18.8733789515
30
0.0000000000
10
4.3278935654
20
-18.8732991274
30
0.0000000000
10
4.3661274465
20
-18.8731694038
30
0.0000000000
10
4.4032813565
20
-18.8729926757
30
0.0000000000
10
4.4384251430
20
-18.8727735971
30
0.0000000000
10
4.4706981827
20
-18.8725177779
30
0.0000000000
10
4.4993703395
20
-18.8722317725
30
0.0000000000
10
4.5236936351
20
-18.8719237558
30
0.0000000000
10
4.5384158786
20
-18.8716818864
30
0.0000000000
10
4.5449403281
20
-18.8715506692
30
0.0000000000
11
4.2148299146
21
-18.8733716408
31
0.0000000000
11
4.2511548421
21
-18.8733980099
31
0.0000000000
11
4.2892523950
21
-18.8733706605
31
0.0000000000
11
4.3278882152
21
-18.8732906566
31
0.0000000000
11
4.3665398754
21
-18.8731590764
31
0.0000000000
11
4.4039539291
21
-18.8729800104
31
0.0000000000
11
4.4393498174
21
-18.8727574385
31
0.0000000000
11
4.4719710616
21
-18.8724958596
31
0.0000000000
11
4.5007728119
21
-18.8722038609
31
0.0000000000
11
4.5253658832
21
-18.8718853932
31
0.0000000000
11
4.5449403281
21
-18.8715506692
31
0.0000000000
0
SPLINE
5
38A
100
AcDbEntity
8
0
100
AcDbSpline
62
9
6
CONTINUOUS
70
0
71
3
72
17
73
13
74
11
42
0.0000001000
43
0.0000001000
44
0.0000000001
12
-0.3300525777
22
-0.0066378911
32
0.0000000000
13
-0.3301189456
23
0.0004974263
33
0.0000000000
40
0.0000000000
40
0.0000000000
40
0.0000000000
40
0.0000000000
40
0.0593695422
40
0.1337207959
40
0.2212628808
40
0.3198870212
40
0.4272174202
40
0.5406674154
40
0.6575070423
40
0.7749123878
40
0.8900645184
40
1.0000000000
40
1.0000000000
40
1.0000000000
40
1.0000000000
10
4.5531555040
20
-22.2049051497
30
0.0000000000
10
4.5466238138
20
-22.2050365125
30
0.0000000000
10
4.5319111087
20
-22.2052781744
30
0.0000000000
10
4.5075653216
20
-22.2055865106
30
0.0000000000
10
4.4788994313
20
-22.2058723824
30
0.0000000000
10
4.4466041272
20
-22.2061283266
30
0.0000000000
10
4.4114575922
20
-22.2063473856
30
0.0000000000
10
4.3743063693
20
-22.2065240206
30
0.0000000000
10
4.3360463026
20
-22.2066537874
30
0.0000000000
10
4.2975987958
20
-22.2067335099
30
0.0000000000
10
4.2599109476
20
-22.2067612721
30
0.0000000000
10
4.2351423523
20
-22.2067443496
30
0.0000000000
10
4.2230450905
20
-22.2067261213
30
0.0000000000
11
4.5531555040
21
-22.2049051497
31
0.0000000000
11
4.5335593351
21
-22.2052401950
31
0.0000000000
11
4.5090166075
21
-22.2055580144
31
0.0000000000
11
4.4801187586
21
-22.2058509484
31
0.0000000000
11
4.4475620705
21
-22.2061119398
31
0.0000000000
11
4.4121309324
21
-22.2063347014
31
0.0000000000
11
4.3746793256
21
-22.2065138662
31
0.0000000000
11
4.3361085307
21
-22.2066451230
31
0.0000000000
11
4.2973508408
21
-22.2067253045
31
0.0000000000
11
4.2593369074
21
-22.2067524907
31
0.0000000000
11
4.2230450905
21
-22.2067261213
31
0.0000000000
0
SPLINE
5
38B
100
AcDbEntity
8
0
100
AcDbSpline
62
7
6
CONTINUOUS
70
0
71
3
72
15
73
11
74
9
42
0.0000001000
43
0.0000001000
44
0.0000000001
12
-2.2319928867
22
-1.7283940454
32
0.0000000000
13
-2.8223954680
23
-0.0567630595
33
0.0000000000
40
0.0000000000
40
0.0000000000
40
0.0000000000
40
0.0000000000
40
0.1374304503
40
0.2702489395
40
0.3988993021
40
0.5238972360
40
0.6458287255
40
0.7653448682
40
0.8831524041
40
1.0000000000
40
1.0000000000
40
1.0000000000
40
1.0000000000
10
7.9280305698
20
-17.8535018759
30
0.0000000000
10
7.8257826406
20
-17.9326798665
30
0.0000000000
10
7.6198131463
20
-18.0821922467
30
0.0000000000
10
7.3015595546
20
-18.2817699226
30
0.0000000000
10
6.9799886791
20
-18.4523276200
30
0.0000000000
10
6.6556117713
20
-18.5935505715
30
0.0000000000
10
6.3289390794
20
-18.7051787164
30
0.0000000000
10
6.0004902936
20
-18.7869928554
30
0.0000000000
10
5.6708478094
20
-18.8388242871
30
0.0000000000
10
5.4501586321
20
-18.8533452605
30
0.0000000000
10
5.3402285903
20
-18.8555561361
30
0.0000000000
11
7.9280305698
21
-17.8535018759
31
0.0000000000
11
7.6138044045
21
-18.0810454015
31
0.0000000000
11
7.2959233562
21
-18.2798750344
31
0.0000000000
11
6.9748882233
21
-18.4496777995
31
0.0000000000
11
6.6512047518
21
-18.5901864427
31
0.0000000000
11
6.3253828111
21
-18.7011798526
31
0.0000000000
11
5.9979354647
21
-18.7824834158
31
0.0000000000
11
5.6693782867
21
-18.8339692002
31
0.0000000000
11
5.3402285903
21
-18.8555561361
31
0.0000000000
0
SPLINE
5
38C
100
AcDbEntity
8
0
100
AcDbSpline
62
7
6
CONTINUOUS
70
0
71
3
72
14
73
10
74
8
42
0.0000001000
43
0.0000001000
44
0.0000000001
12
-0.0345108749
22
-0.0318753915
32
0.0000000000
13
0.1442012822
23
-0.0002172838
33
0.0000000000
40
0.0000000000
40
0.0000000000
40
0.0000000000
40
0.0000000000
40
0.0318832412
40
0.1067818225
40
0.2206817926
40
0.3713647719
40
0.5538380301
40
0.7656335209
40
1.0000000000
40
1.0000000000
40
1.0000000000
40
1.0000000000
10
-17.6811213301
20
-18.8391949595
30
0.0000000000
10
-17.6814881030
20
-18.8395337231
30
0.0000000000
10
-17.6713813299
20
-18.8392827005
30
0.0000000000
10
-17.6648505262
20
-18.8399205500
30
0.0000000000
10
-17.6464719409
20
-18.8399656836
30
0.0000000000
10
-17.6258227571
20
-18.8402556531
30
0.0000000000
10
-17.5993268377
20
-18.8403980631
30
0.0000000000
10
-17.5692133131
20
-18.8405333574
30
0.0000000000
10
-17.5477415986
20
-18.8405795961
30
0.0000000000
10
-17.5364762830
20
-18.8405965708
30
0.0000000000
11
-17.6811213301
21
-18.8391949595
31
0.0000000000
11
-17.6760719917
21
-18.8394337157
31
0.0000000000
11
-17.6652754607
21
-18.8397258907
31
0.0000000000
11
-17.6488529813
21
-18.8399860781
31
0.0000000000
11
-17.6271254177
21
-18.8402086383
31
0.0000000000
11
-17.6008131112
21
-18.8403865066
31
0.0000000000
11
-17.5702721751
21
-18.8405172811
31
0.0000000000
11
-17.5364762830
21
-18.8405965708
31
0.0000000000
0
SPLINE
5
38D
100
AcDbEntity
8
0
100
AcDbSpline
62
7
6
CONTINUOUS
70
0
71
3
72
9
73
5
74
3
42
0.0000001000
43
0.0000001000
44
0.0000000001
12
-0.0536557944
22
0.0222131607
32
0.0000000000
13
-0.0539810517
23
0.0214106246
33
0.0000000000
40
0.0000000000
40
0.0000000000
40
0.0000000000
40
0.0000000000
40
0.5006026481
40
1.0000000000
40
1.0000000000
40
1.0000000000
40
1.0000000000
10
-8.0069899672
20
18.4946777212
30
0.0000000000
10
-8.0159433781
20
18.4983843769
30
0.0000000000
10
-8.0338561399
20
18.5057225216
30
0.0000000000
10
-8.0518231189
20
18.5129269071
30
0.0000000000
10
-8.0608091170
20
18.5164910435
30
0.0000000000
11
-8.0069899672
21
18.4946777212
31
0.0000000000
11
-8.0338913171
21
18.5056978458
31
0.0000000000
11
-8.0608091170
21
18.5164910435
31
0.0000000000
0
SPLINE
5
38E
100
AcDbEntity
8
0
100
AcDbSpline
62
9
6
CONTINUOUS
70
0
71
3
72
14
73
10
74
8
42
0.0000001000
43
0.0000001000
44
0.0000000001
12
-0.0343650564
22
-0.0319363633
32
0.0000000000
13
0.1441966528
23
-0.0002172769
33
0.0000000000
40
0.0000000000
40
0.0000000000
40
0.0000000000
40
0.0000000000
40
0.0318568529
40
0.1068521489
40
0.2209201451
40
0.3713224233
40
0.5544233925
40
0.7658245580
40
1.0000000000
40
1.0000000000
40
1.0000000000
40
1.0000000000
10
-17.6729018985
20
-22.1725504379
30
0.0000000000
10
-17.6732668193
20
-22.1728895686
30
0.0000000000
10
-17.6631569746
20
-22.1726355143
30
0.0000000000
10
-17.6566202657
20
-22.1732765389
30
0.0000000000
10
-17.6382416284
20
-22.1733200559
30
0.0000000000
10
-17.6175678085
20
-22.1736106956
30
0.0000000000
10
-17.5910744407
20
-22.1737526953
30
0.0000000000
10
-17.5609597169
20
-22.1738879444
30
0.0000000000
10
-17.5395168787
20
-22.1739340910
30
0.0000000000
10
-17.5282611071
20
-22.1739510513
30
0.0000000000
11
-17.6729018985
21
-22.1725504379
31
0.0000000000
11
-17.6678561398
21
-22.1727882224
31
0.0000000000
11
-17.6570460117
21
-22.1730806608
31
0.0000000000
11
-17.6405998309
21
-22.1733410392
31
0.0000000000
11
-17.6189134380
21
-22.1735630922
31
0.0000000000
11
-17.5925114636
21
-22.1737414568
31
0.0000000000
11
-17.5620283674
21
-22.1738718550
31
0.0000000000
11
-17.5282611071
21
-22.1739510513
31
0.0000000000
0
SPLINE
5
38F
100
AcDbEntity
8
0
100
AcDbSpline
62
7
6
CONTINUOUS
70
0
71
3
72
10
73
6
74
4
42
0.0000001000
43
0.0000001000
44
0.0000000001
12
-0.5847695936
22
0.3507539266
32
0.0000000000
13
-0.6317029230
23
0.2565101400
33
0.0000000000
40
0.0000000000
40
0.0000000000
40
0.0000000000
40
0.0000000000
40
0.1068291179
40
0.5594259989
40
1.0000000000
40
1.0000000000
40
1.0000000000
40
1.0000000000
10
-7.3971245272
20
18.1889741772
30
0.0000000000
10
-7.4179480005
20
18.2014644214
30
0.0000000000
10
-7.5274838492
20
18.2660524875
30
0.0000000000
10
-7.7278691526
20
18.3736198317
30
0.0000000000
10
-7.9131640512
20
18.4570055648
30
0.0000000000
10
-8.0059346793
20
18.4946761311
30
0.0000000000
11
-7.3971245272
21
18.1889741772
31
0.0000000000
11
-7.4598759069
21
18.2259712626
31
0.0000000000
11
-7.7319003057
21
18.3716545432
31
0.0000000000
11
-8.0059346793
21
18.4946761311
31
0.0000000000
0
SPLINE
5
390
100
AcDbEntity
8
0
100
AcDbSpline
62
9
6
CONTINUOUS
70
0
71
3
72
17
73
13
74
11
42
0.0000001000
43
0.0000001000
44
0.0000000001
12
-0.2880455748
22
0.0004595366
32
0.0000000000
13
-0.0007098528
23
0.2880268350
33
0.0000000000
40
0.0000000000
40
0.0000000000
40
0.0000000000
40
0.0000000000
40
0.0575157081
40
0.1212083792
40
0.1948832329
40
0.2804341330
40
0.3781408693
40
0.4872063183
40
0.6061078608
40
0.7328218701
40
0.8649812233
40
1.0000000000
40
1.0000000000
40
1.0000000000
40
1.0000000000
10
-17.4234504832
20
-22.4217496962
30
0.0000000000
10
-17.4289728649
20
-22.4217408860
30
0.0000000000
10
-17.4406887246
20
-22.4194313805
30
0.0000000000
10
-17.4569891514
20
-22.4097186852
30
0.0000000000
10
-17.4721413256
20
-22.3943677462
30
0.0000000000
10
-17.4859736394
20
-22.3738178708
30
0.0000000000
10
-17.4982734072
20
-22.3485124198
30
0.0000000000
10
-17.5087814147
20
-22.3190088740
30
0.0000000000
10
-17.5172547267
20
-22.2859860631
30
0.0000000000
10
-17.5234885387
20
-22.2502217560
30
0.0000000000
10
-17.5273299644
20
-22.2125717888
30
0.0000000000
10
-17.5282291592
20
-22.1869140616
30
0.0000000000
10
-17.5282611071
20
-22.1739510513
30
0.0000000000
11
-17.4234504832
21
-22.4217496962
31
0.0000000000
11
-17.4397364079
21
-22.4187088955
31
0.0000000000
11
-17.4556914475
21
-22.4096543354
31
0.0000000000
11
-17.4708522131
21
-22.3948065565
31
0.0000000000
11
-17.4848495241
21
-22.3745271178
31
0.0000000000
11
-17.4973425314
21
-22.3493098447
31
0.0000000000
11
-17.5080270173
21
-22.3197688040
31
0.0000000000
11
-17.5166428034
21
-22.2866233510
31
0.0000000000
11
-17.5229800864
21
-22.2506806118
31
0.0000000000
11
-17.5268845469
21
-22.2128158296
31
0.0000000000
11
-17.5282611071
21
-22.1739510513
31
0.0000000000
0
SPLINE
5
391
100
AcDbEntity
8
0
100
AcDbSpline
62
9
6
CONTINUOUS
70
0
71
3
72
8
73
4
74
2
42
0.0000001000
43
0.0000001000
44
0.0000000001
12
-0.0252258263
22
-0.0010720740
32
0.0000000000
13
-0.0217461913
23
-0.0028505385
33
0.0000000000
40
0.0000000000
40
0.0000000000
40
0.0000000000
40
0.0000000000
40
1.0000000000
40
1.0000000000
40
1.0000000000
40
1.0000000000
10
0.9747389852
20
23.1393283534
30
0.0000000000
10
0.9663303765
20
23.1389709954
30
0.0000000000
10
0.9567700055
20
23.1390300330
30
0.0000000000
10
0.9495212751
20
23.1380798535
30
0.0000000000
11
0.9747389852
21
23.1393283534
31
0.0000000000
11
0.9495212751
21
23.1380798535
31
0.0000000000
0
SPLINE
5
392
100
AcDbEntity
8
0
100
AcDbSpline
62
9
6
CONTINUOUS
70
0
71
3
72
12
73
8
74
6
42
0.0000001000
43
0.0000001000
44
0.0000000001
12
-0.0407331528
22
-0.0053393911
32
0.0000000000
13
0.0461111375
23
-0.0051671361
33
0.0000000000
40
0.0000000000
40
0.0000000000
40
0.0000000000
40
0.0000000000
40
0.3554273354
40
0.5270805462
40
0.5574263432
40
0.7635782997
40
1.0000000000
40
1.0000000000
40
1.0000000000
40
1.0000000000
10
0.9495212751
20
23.1380798535
30
0.0000000000
10
0.9446953831
20
23.1374472650
30
0.0000000000
10
0.9390582520
20
23.1358458197
30
0.0000000000
10
0.9230142534
20
23.1377609656
30
0.0000000000
10
0.9274499607
20
23.1318318292
30
0.0000000000
10
0.9360409406
20
23.1340481672
30
0.0000000000
10
0.9429930748
20
23.1336040957
30
0.0000000000
10
0.9466269660
20
23.1331968880
30
0.0000000000
11
0.9495212751
21
23.1380798535
31
0.0000000000
11
0.9327577012
21
23.1368391217
31
0.0000000000
11
0.9247307113
21
23.1356263309
31
0.0000000000
11
0.9255677496
21
23.1344605462
31
0.0000000000
11
0.9352550889
21
23.1333599303
31
0.0000000000
11
0.9466269660
21
23.1331968880
31
0.0000000000
0
SPLINE
5
393
100
AcDbEntity
8
0
100
AcDbSpline
62
9
6
CONTINUOUS
70
0
71
3
72
9
73
5
74
3
42
0.0000001000
43
0.0000001000
44
0.0000000001
12
0.0331990169
22
-0.0037202257
32
0.0000000000
13
0.0343041162
23
-0.0002948923
33
0.0000000000
40
0.0000000000
40
0.0000000000
40
0.0000000000
40
0.0000000000
40
0.2124621149
40
1.0000000000
40
1.0000000000
40
1.0000000000
40
1.0000000000
10
0.9466269660
20
23.1331968880
30
0.0000000000
10
0.9489781437
20
23.1329334190
30
0.0000000000
10
0.9598870098
20
23.1313584104
30
0.0000000000
10
0.9714374244
20
23.1314989025
30
0.0000000000
10
0.9804426881
20
23.1314214896
30
0.0000000000
11
0.9466269660
21
23.1331968880
31
0.0000000000
11
0.9536425448
21
23.1323415977
31
0.0000000000
11
0.9804426881
21
23.1314214896
31
0.0000000000
0
SPLINE
5
394
100
AcDbEntity
8
0
100
AcDbSpline
62
9
6
CONTINUOUS
70
0
71
3
72
25
73
21
74
19
42
0.0000001000
43
0.0000001000
44
0.0000000001
12
1.0343350127
22
-0.0088915699
32
0.0000000000
13
1.0258269159
23
0.0419227300
33
0.0000000000
40
0.0000000000
40
0.0000000000
40
0.0000000000
40
0.0000000000
40
0.0338996927
40
0.0750533760
40
0.1228220708
40
0.1764598714
40
0.2351320360
40
0.2979219623
40
0.3638527674
40
0.4318943887
40
0.5009877778
40
0.5700531130
40
0.6380156703
40
0.7038149781
40
0.7664256032
40
0.8248682636
40
0.8782348447
40
0.9256941615
40
0.9665023903
40
1.0000000000
40
1.0000000000
40
1.0000000000
40
1.0000000000
10
0.9804426881
20
23.1314214896
30
0.0000000000
10
0.9921305678
20
23.1313210157
30
0.0000000000
10
1.0176674920
20
23.1303972101
30
0.0000000000
10
1.0597644858
20
23.1299077794
30
0.0000000000
10
1.1085266896
20
23.1293204932
30
0.0000000000
10
1.1633161340
20
23.1289478759
30
0.0000000000
10
1.2232374895
20
23.1286985534
30
0.0000000000
10
1.2873692082
20
23.1286081907
30
0.0000000000
10
1.3547065756
20
23.1286693505
30
0.0000000000
10
1.4242011040
20
23.1288841348
30
0.0000000000
10
1.4947676737
20
23.1292485694
30
0.0000000000
10
1.5653063119
20
23.1297572404
30
0.0000000000
10
1.6347164598
20
23.1304020966
30
0.0000000000
10
1.7019162083
20
23.1311729322
30
0.0000000000
10
1.7658562954
20
23.1320573992
30
0.0000000000
10
1.8255395863
20
23.1330411495
30
0.0000000000
10
1.8800353569
20
23.1341080540
30
0.0000000000
10
1.9284934376
20
23.1352397278
30
0.0000000000
10
1.9701483836
20
23.1364164779
30
0.0000000000
10
1.9955627841
20
23.1373048035
30
0.0000000000
10
2.0070170340
20
23.1377729073
30
0.0000000000
11
0.9804426881
21
23.1314214896
31
0.0000000000
11
1.0152375631
21
23.1306139474
31
0.0000000000
11
1.0574838474
21
23.1299315741
31
0.0000000000
11
1.1065241176
21
23.1293849916
31
0.0000000000
11
1.1615916768
21
23.1289827475
31
0.0000000000
11
1.2218288765
21
23.1287311052
31
0.0000000000
11
1.2862941652
21
23.1286339952
31
0.0000000000
11
1.3539841890
21
23.1286929276
31
0.0000000000
11
1.4238410500
21
23.1289069809
31
0.0000000000
11
1.4947771279
21
23.1292728219
31
0.0000000000
11
1.5656834988
21
23.1297847301
31
0.0000000000
11
1.6354564864
21
23.1304347356
31
0.0000000000
11
1.7030070502
21
23.1312126963
31
0.0000000000
11
1.7672821126
21
23.1321064877
31
0.0000000000
11
1.8272759487
21
23.1331021188
31
0.0000000000
11
1.8820558362
21
23.1341841016
31
0.0000000000
11
1.9307679112
21
23.1353355868
31
0.0000000000
11
1.9726477626
21
23.1365384710
31
0.0000000000
11
2.0070170340
21
23.1377729073
31
0.0000000000
0
SPLINE
5
395
100
AcDbEntity
8
0
100
AcDbSpline
62
7
6
CONTINUOUS
70
0
71
3
72
8
73
4
74
2
42
0.0000001000
43
0.0000001000
44
0.0000000001
12
0.0944613382
22
0.0060349465
32
0.0000000000
13
0.0927527072
23
0.0244631422
33
0.0000000000
40
0.0000000000
40
0.0000000000
40
0.0000000000
40
0.0000000000
40
1.0000000000
40
1.0000000000
40
1.0000000000
40
1.0000000000
10
18.8921006169
20
-18.4642299101
30
0.0000000000
10
18.9235877296
20
-18.4622182613
30
0.0000000000
10
18.9551181917
20
-18.4570220533
30
0.0000000000
10
18.9860357608
20
-18.4488676726
30
0.0000000000
11
18.8921006169
21
-18.4642299101
31
0.0000000000
11
18.9860357608
21
-18.4488676726
31
0.0000000000
0
SPLINE
5
396
100
AcDbEntity
8
0
100
AcDbSpline
62
7
6
CONTINUOUS
70
0
71
3
72
10
73
6
74
4
42
0.0000001000
43
0.0000001000
44
0.0000000001
12
0.6343918961
22
0.1673182338
32
0.0000000000
13
-0.0024431039
23
0.6629101951
33
0.0000000000
40
0.0000000000
40
0.0000000000
40
0.0000000000
40
0.0000000000
40
0.3111747811
40
0.7876571680
40
1.0000000000
40
1.0000000000
40
1.0000000000
40
1.0000000000
10
18.9860357608
20
-18.4488676726
30
0.0000000000
10
19.0518380139
20
-18.4315126010
30
0.0000000000
10
19.2113718238
20
-18.3536650344
30
0.0000000000
10
19.3398674282
20
-18.1635851697
30
0.0000000000
10
19.3598444207
20
-18.0109933467
30
0.0000000000
10
19.3596714955
20
-17.9640719373
30
0.0000000000
11
18.9860357608
21
-18.4488676726
31
0.0000000000
11
19.1687872252
21
-18.3587859334
31
0.0000000000
11
19.3410151482
21
-18.1030133907
31
0.0000000000
11
19.3596714955
21
-17.9640719373
31
0.0000000000
0
SPLINE
5
397
100
AcDbEntity
8
0
100
AcDbSpline
62
7
6
CONTINUOUS
70
0
71
3
72
9
73
5
74
3
42
0.0000001000
43
0.0000001000
44
0.0000000001
12
-0.0840632454
22
0.8115793947
32
0.0000000000
13
-0.7429805010
23
0.3433716960
33
0.0000000000
40
0.0000000000
40
0.0000000000
40
0.0000000000
40
0.0000000000
40
0.6726467432
40
1.0000000000
40
1.0000000000
40
1.0000000000
40
1.0000000000
10
-9.4910874927
20
23.2617481790
30
0.0000000000
10
-9.5099357821
20
23.4437169246
30
0.0000000000
10
-9.5661754064
20
23.7117331514
30
0.0000000000
10
-9.7862315509
20
23.9200274880
30
0.0000000000
10
-9.8673039131
20
23.9574954356
30
0.0000000000
11
-9.4910874927
21
23.2617481790
31
0.0000000000
11
-9.6597139634
21
23.7772560221
31
0.0000000000
11
-9.8673039131
21
23.9574954356
31
0.0000000000
0
SPLINE
5
398
100
AcDbEntity
8
0
100
AcDbSpline
62
7
6
CONTINUOUS
70
0
71
3
72
8
73
4
74
2
42
0.0000001000
43
0.0000001000
44
0.0000000001
12
-0.1176533918
22
0.0543740308
32
0.0000000000
13
-0.1274477276
23
0.0029875131
33
0.0000000000
40
0.0000000000
40
0.0000000000
40
0.0000000000
40
0.0000000000
40
1.0000000000
40
1.0000000000
40
1.0000000000
40
1.0000000000
10
-9.8673039131
20
23.9574954356
30
0.0000000000
10
-9.9065217104
20
23.9756201126
30
0.0000000000
10
-9.9478540178
20
23.9865567244
30
0.0000000000
10
-9.9903365937
20
23.9875525621
30
0.0000000000
11
-9.8673039131
21
23.9574954356
31
0.0000000000
11
-9.9903365937
21
23.9875525621
31
0.0000000000
0
SPLINE
5
399
100
AcDbEntity
8
0
100
AcDbSpline
62
7
6
CONTINUOUS
70
0
71
3
72
10
73
6
74
4
42
0.0000001000
43
0.0000001000
44
0.0000000001
12
-0.0066034911
22
1.0757383787
32
0.0000000000
13
-0.9870419904
23
0.4561657833
33
0.0000000000
40
0.0000000000
40
0.0000000000
40
0.0000000000
40
0.0000000000
40
0.2187485739
40
0.7535899292
40
1.0000000000
40
1.0000000000
40
1.0000000000
40
1.0000000000
10
11.2529514157
20
22.9639404935
30
0.0000000000
10
11.2524699143
20
23.0423792389
30
0.0000000000
10
11.2375472123
20
23.3135449267
30
0.0000000000
10
11.1710782017
20
23.6726074955
30
0.0000000000
10
10.9426853351
20
23.8887929636
30
0.0000000000
10
10.8616129729
20
23.9262609113
30
0.0000000000
11
11.2529514157
21
22.9639404935
31
0.0000000000
11
11.2408433091
21
23.1997558142
31
0.0000000000
11
11.0692029227
21
23.7460214977
31
0.0000000000
11
10.8616129729
21
23.9262609113
31
0.0000000000
0
SPLINE
5
39A
100
AcDbEntity
8
0
100
AcDbSpline
62
7
6
CONTINUOUS
70
0
71
3
72
8
73
4
74
2
42
0.0000001000
43
0.0000001000
44
0.0000000001
12
-0.1176533918
22
0.0543740308
32
0.0000000000
13
-0.1274477276
23
0.0029875131
33
0.0000000000
40
0.0000000000
40
0.0000000000
40
0.0000000000
40
0.0000000000
40
1.0000000000
40
1.0000000000
40
1.0000000000
40
1.0000000000
10
10.8616129729
20
23.9262609113
30
0.0000000000
10
10.8223951756
20
23.9443855882
30
0.0000000000
10
10.7810628682
20
23.9553222000
30
0.0000000000
10
10.7385802924
20
23.9563180377
30
0.0000000000
11
10.8616129729
21
23.9262609113
31
0.0000000000
11
10.7385802924
21
23.9563180377
31
0.0000000000
0
SPLINE
5
39B
100
AcDbEntity
8
0
100
AcDbSpline
62
7
6
CONTINUOUS
70
0
71
3
72
9
73
5
74
3
42
0.0000001000
43
0.0000001000
44
0.0000000001
12
0.7380714380
22
0.0542185705
32
0.0000000000
13
0.1548984539
23
0.7311178474
33
0.0000000000
40
0.0000000000
40
0.0000000000
40
0.0000000000
40
0.0000000000
40
0.5137883219
40
1.0000000000
40
1.0000000000
40
1.0000000000
40
1.0000000000
10
10.8644807289
20
-23.8312408769
30
0.0000000000
10
10.9908848908
20
-23.8219552541
30
0.0000000000
10
11.2127103933
20
-23.6361602355
30
0.0000000000
10
11.2980017542
20
-23.4014853641
30
0.0000000000
10
11.3231062332
20
-23.2829926856
30
0.0000000000
11
10.8644807289
21
-23.8312408769
31
0.0000000000
11
11.1827855265
21
-23.6181334051
31
0.0000000000
11
11.3231062332
21
-23.2829926856
31
0.0000000000
0
SPLINE
5
39C
100
AcDbEntity
8
0
100
AcDbSpline
62
7
6
CONTINUOUS
70
0
71
3
72
9
73
5
74
3
42
0.0000001000
43
0.0000001000
44
0.0000000001
12
0.0953503307
22
0.4500518035
32
0.0000000000
13
0.0007223660
23
0.4591851083
33
0.0000000000
40
0.0000000000
40
0.0000000000
40
0.0000000000
40
0.0000000000
40
0.4581023928
40
1.0000000000
40
1.0000000000
40
1.0000000000
40
1.0000000000
10
11.3231062332
20
-23.2829926856
30
0.0000000000
10
11.3376663048
20
-23.2142694162
30
0.0000000000
10
11.3574331173
20
-23.0610279111
30
0.0000000000
10
11.3657606949
20
-22.9074083051
30
0.0000000000
10
11.3658911777
20
-22.8244645346
30
0.0000000000
11
11.3231062332
21
-23.2829926856
31
0.0000000000
11
11.3533761403
21
-23.0737894685
31
0.0000000000
11
11.3658911777
21
-22.8244645346
31
0.0000000000
0
SPLINE
5
39D
100
AcDbEntity
8
0
100
AcDbSpline
62
7
6
CONTINUOUS
70
0
71
3
72
9
73
5
74
3
42
0.0000001000
43
0.0000001000
44
0.0000000001
12
-0.0006449534
22
-0.0119177428
32
0.0000000000
13
0.0044451531
23
-0.0105528973
33
0.0000000000
40
0.0000000000
40
0.0000000000
40
0.0000000000
40
0.0000000000
40
0.5667132052
40
1.0000000000
40
1.0000000000
40
1.0000000000
40
1.0000000000
10
-6.7817807017
20
-18.4853557421
30
0.0000000000
10
-6.7819025362
20
-18.4876070562
30
0.0000000000
10
-6.7816764523
20
-18.4914985235
30
0.0000000000
10
-6.7805422089
20
-18.4951288472
30
0.0000000000
10
-6.7799002002
20
-18.4966529909
30
0.0000000000
11
-6.7817807017
21
-18.4853557421
31
0.0000000000
11
-6.7813546187
21
-18.4919338781
31
0.0000000000
11
-6.7799002002
21
-18.4966529909
31
0.0000000000
0
SPLINE
5
39E
100
AcDbEntity
8
0
100
AcDbSpline
62
7
6
CONTINUOUS
70
0
71
3
72
9
73
5
74
3
42
0.0000001000
43
0.0000001000
44
0.0000000001
12
0.7380714380
22
0.0542185705
32
0.0000000000
13
0.1548984539
23
0.7311178474
33
0.0000000000
40
0.0000000000
40
0.0000000000
40
0.0000000000
40
0.0000000000
40
0.5137883219
40
1.0000000000
40
1.0000000000
40
1.0000000000
40
1.0000000000
10
-9.8644361571
20
-23.8000063525
30
0.0000000000
10
-9.7380319952
20
-23.7907207297
30
0.0000000000
10
-9.5162064927
20
-23.6049257111
30
0.0000000000
10
-9.4309151319
20
-23.3702508397
30
0.0000000000
10
-9.4058106528
20
-23.2517581612
30
0.0000000000
11
-9.8644361571
21
-23.8000063525
31
0.0000000000
11
-9.5461313595
21
-23.5868988808
31
0.0000000000
11
-9.4058106528
21
-23.2517581612
31
0.0000000000
0
SPLINE
5
39F
100
AcDbEntity
8
0
100
AcDbSpline
62
7
6
CONTINUOUS
70
0
71
3
72
8
73
4
74
2
42
0.0000001000
43
0.0000001000
44
0.0000000001
12
0.0151605224
22
0.0715573864
32
0.0000000000
13
0.0115710642
23
0.0724496497
33
0.0000000000
40
0.0000000000
40
0.0000000000
40
0.0000000000
40
0.0000000000
40
1.0000000000
40
1.0000000000
40
1.0000000000
40
1.0000000000
10
-9.4058106528
20
-23.2517581612
30
0.0000000000
10
-9.4007571453
20
-23.2279056991
30
0.0000000000
10
-9.3963667761
20
-23.2038753073
30
0.0000000000
10
-9.3925097547
20
-23.1797254241
30
0.0000000000
11
-9.4058106528
21
-23.2517581612
31
0.0000000000
11
-9.3925097547
21
-23.1797254241
31
0.0000000000
0
SPLINE
5
3A0
100
AcDbEntity
8
0
100
AcDbSpline
62
9
6
CONTINUOUS
70
0
71
3
72
9
73
5
74
3
42
0.0000001000
43
0.0000001000
44
0.0000000001
12
-0.0015086190
22
-0.0009569906
32
0.0000000000
13
-0.0191000268
23
-0.0004163834
33
0.0000000000
40
0.0000000000
40
0.0000000000
40
0.0000000000
40
0.0000000000
40
0.1556634801
40
1.0000000000
40
1.0000000000
40
1.0000000000
40
1.0000000000
10
11.3670657687
20
-22.8241176433
30
0.0000000000
10
11.3669874898
20
-22.8241672995
30
0.0000000000
10
11.3653408856
20
-22.8245154719
30
0.0000000000
10
11.3555478304
20
-22.8250689868
30
0.0000000000
10
11.3501722137
20
-22.8251861760
30
0.0000000000
11
11.3670657687
21
-22.8241176433
31
0.0000000000
11
11.3662774599
21
-22.8242806706
31
0.0000000000
11
11.3501722137
21
-22.8251861760
31
0.0000000000
0
SPLINE
5
3A1
100
AcDbEntity
8
0
100
AcDbSpline
62
7
6
CONTINUOUS
70
0
71
3
72
8
73
4
74
2
42
0.0000001000
43
0.0000001000
44
0.0000000001
12
0.0002666202
22
-0.1081826728
32
0.0000000000
13
-0.0141124729
23
-0.1080242187
33
0.0000000000
40
0.0000000000
40
0.0000000000
40
0.0000000000
40
0.0000000000
40
1.0000000000
40
1.0000000000
40
1.0000000000
40
1.0000000000
10
-1.4435081236
20
18.2873670681
30
0.0000000000
10
-1.4434192502
20
18.2513061771
30
0.0000000000
10
-1.4457354486
20
18.2150747987
30
0.0000000000
10
-1.4504396063
20
18.1790667258
30
0.0000000000
11
-1.4435081236
21
18.2873670681
31
0.0000000000
11
-1.4504396063
21
18.1790667258
31
0.0000000000
0
SPLINE
5
3A2
100
AcDbEntity
8
0
100
AcDbSpline
62
9
6
CONTINUOUS
70
0
71
3
72
10
73
6
74
4
42
0.0000001000
43
0.0000001000
44
0.0000000001
12
0.0010651925
22
0.2315287905
32
0.0000000000
13
-0.2178772522
23
0.0898113370
33
0.0000000000
40
0.0000000000
40
0.0000000000
40
0.0000000000
40
0.0000000000
40
0.4442503340
40
0.8718983536
40
1.0000000000
40
1.0000000000
40
1.0000000000
40
1.0000000000
10
-9.8118414148
20
23.7873725366
30
0.0000000000
10
-9.8116836775
20
23.8216581174
30
0.0000000000
10
-9.8276463485
20
23.8902097441
30
0.0000000000
10
-9.8809549158
20
23.9505811771
30
0.0000000000
10
-9.9199154005
20
23.9706334127
30
0.0000000000
10
-9.9292188787
20
23.9744684061
30
0.0000000000
11
-9.8118414148
21
23.7873725366
31
0.0000000000
11
-9.8358728599
21
23.8873836512
31
0.0000000000
11
-9.9024503703
21
23.9606720055
31
0.0000000000
11
-9.9292188787
21
23.9744684061
31
0.0000000000
0
SPLINE
5
3A3
100
AcDbEntity
8
0
100
AcDbSpline
62
9
6
CONTINUOUS
70
0
71
3
72
8
73
4
74
2
42
0.0000001000
43
0.0000001000
44
0.0000000001
12
-0.0584558956
22
0.0240961463
32
0.0000000000
13
-0.0621900159
23
0.0014546886
33
0.0000000000
40
0.0000000000
40
0.0000000000
40
0.0000000000
40
0.0000000000
40
1.0000000000
40
1.0000000000
40
1.0000000000
40
1.0000000000
10
-9.9292188787
20
23.9744684061
30
0.0000000000
10
-9.9487041772
20
23.9825004548
30
0.0000000000
10
-9.9696062975
20
23.9870798666
30
0.0000000000
10
-9.9903363028
20
23.9875647628
30
0.0000000000
11
-9.9292188787
21
23.9744684061
31
0.0000000000
11
-9.9903363028
21
23.9875647628
31
0.0000000000
0
SPLINE
5
3A4
100
AcDbEntity
8
0
100
AcDbSpline
62
9
6
CONTINUOUS
70
0
71
3
72
9
73
5
74
3
42
0.0000001000
43
0.0000001000
44
0.0000000001
12
0.0190970480
22
0.0004164013
32
0.0000000000
13
0.0015151395
23
0.0009571274
33
0.0000000000
40
0.0000000000
40
0.0000000000
40
0.0000000000
40
0.0000000000
40
0.8444596073
40
1.0000000000
40
1.0000000000
40
1.0000000000
40
1.0000000000
10
11.2373249591
20
22.9632308531
30
0.0000000000
10
11.2427005210
20
22.9633480645
30
0.0000000000
10
11.2524919759
20
22.9639015831
30
0.0000000000
10
11.2541396011
20
22.9642497781
30
0.0000000000
10
11.2542181562
20
22.9642994021
30
0.0000000000
11
11.2373249591
21
22.9632308531
31
0.0000000000
11
11.2534300344
21
22.9641364940
31
0.0000000000
11
11.2542181562
21
22.9642994021
31
0.0000000000
0
SPLINE
5
3A5
100
AcDbEntity
8
0
100
AcDbSpline
62
9
6
CONTINUOUS
70
0
71
3
72
10
73
6
74
4
42
0.0000001000
43
0.0000001000
44
0.0000000001
12
0.0010651925
22
0.2315287905
32
0.0000000000
13
-0.2178772522
23
0.0898113370
33
0.0000000000
40
0.0000000000
40
0.0000000000
40
0.0000000000
40
0.0000000000
40
0.4442503340
40
0.8718983536
40
1.0000000000
40
1.0000000000
40
1.0000000000
40
1.0000000000
10
10.9170754712
20
23.7561380122
30
0.0000000000
10
10.9172332086
20
23.7904235931
30
0.0000000000
10
10.9012705375
20
23.8589752197
30
0.0000000000
10
10.8479619702
20
23.9193466527
30
0.0000000000
10
10.8090014856
20
23.9393988883
30
0.0000000000
10
10.7996980073
20
23.9432338817
30
0.0000000000
11
10.9170754712
21
23.7561380122
31
0.0000000000
11
10.8930440261
21
23.8561491269
31
0.0000000000
11
10.8264665157
21
23.9294374811
31
0.0000000000
11
10.7996980073
21
23.9432338817
31
0.0000000000
0
SPLINE
5
3A6
100
AcDbEntity
8
0
100
AcDbSpline
62
9
6
CONTINUOUS
70
0
71
3
72
8
73
4
74
2
42
0.0000001000
43
0.0000001000
44
0.0000000001
12
-0.0584558956
22
0.0240961463
32
0.0000000000
13
-0.0621900159
23
0.0014546886
33
0.0000000000
40
0.0000000000
40
0.0000000000
40
0.0000000000
40
0.0000000000
40
1.0000000000
40
1.0000000000
40
1.0000000000
40
1.0000000000
10
10.7996980073
20
23.9432338817
30
0.0000000000
10
10.7802127088
20
23.9512659305
30
0.0000000000
10
10.7593105886
20
23.9558453423
30
0.0000000000
10
10.7385805833
20
23.9563302385
30
0.0000000000
11
10.7996980073
21
23.9432338817
31
0.0000000000
11
10.7385805833
21
23.9563302385
31
0.0000000000
0
SPLINE
5
3A7
100
AcDbEntity
8
0
100
AcDbSpline
62
7
6
CONTINUOUS
70
0
71
3
72
8
73
4
74
2
42
0.0000001000
43
0.0000001000
44
0.0000000001
12
0.0944613452
22
0.0060349444
32
0.0000000000
13
0.0927527257
23
0.0244631613
33
0.0000000000
40
0.0000000000
40
0.0000000000
40
0.0000000000
40
0.0000000000
40
1.0000000000
40
1.0000000000
40
1.0000000000
40
1.0000000000
10
18.8921006013
20
-18.4642299111
30
0.0000000000
10
18.9235877164
20
-18.4622182630
30
0.0000000000
10
18.9551181831
20
-18.4570220506
30
0.0000000000
10
18.9860357584
20
-18.4488676635
30
0.0000000000
11
18.8921006013
21
-18.4642299111
31
0.0000000000
11
18.9860357584
21
-18.4488676635
31
0.0000000000
0
SPLINE
5
3A8
100
AcDbEntity
8
0
100
AcDbSpline
62
7
6
CONTINUOUS
70
0
71
3
72
10
73
6
74
4
42
0.0000001000
43
0.0000001000
44
0.0000000001
12
0.6343919878
22
0.1673183557
32
0.0000000000
13
-0.0024431251
23
0.6629101139
33
0.0000000000
40
0.0000000000
40
0.0000000000
40
0.0000000000
40
0.0000000000
40
0.3111780593
40
0.7876588312
40
1.0000000000
40
1.0000000000
40
1.0000000000
40
1.0000000000
10
18.9860357584
20
-18.4488676635
30
0.0000000000
10
19.0518387142
20
-18.4315123964
30
0.0000000000
10
19.2113728290
20
-18.3536642568
30
0.0000000000
10
19.3398676971
20
-18.1635840415
30
0.0000000000
10
19.3598444275
20
-18.0109929727
30
0.0000000000
10
19.3596715022
20
-17.9640719366
30
0.0000000000
11
18.9860357584
21
-18.4488676635
31
0.0000000000
11
19.1687889701
21
-18.3587845660
31
0.0000000000
11
19.3410154578
21
-18.1030123107
31
0.0000000000
11
19.3596715022
21
-17.9640719366
31
0.0000000000
0
SPLINE
5
3A9
100
AcDbEntity
8
0
100
AcDbSpline
62
7
6
CONTINUOUS
70
0
71
3
72
10
73
6
74
4
42
0.0000001000
43
0.0000001000
44
0.0000000001
12
-0.0019016006
22
0.7715853032
32
0.0000000000
13
-0.7715652739
23
0.0058757372
33
0.0000000000
40
0.0000000000
40
0.0000000000
40
0.0000000000
40
0.0000000000
40
0.3341375756
40
0.6660225490
40
1.0000000000
40
1.0000000000
40
1.0000000000
40
1.0000000000
10
19.2706177115
20
18.4536488424
30
0.0000000000
10
19.2704059127
20
18.5395873899
30
0.0000000000
10
19.2236229914
20
18.7140443194
30
0.0000000000
10
19.0344902186
20
18.9041033363
30
0.0000000000
10
18.8603219274
20
18.9517479586
30
0.0000000000
10
18.7744267930
20
18.9524020798
30
0.0000000000
11
19.2706177115
21
18.4536488424
31
0.0000000000
11
19.2035346881
21
18.7025849331
31
0.0000000000
11
19.0229036690
21
18.8841022987
31
0.0000000000
11
18.7744267930
21
18.9524020798
31
0.0000000000
0
SPLINE
5
3AA
100
AcDbEntity
8
0
100
AcDbSpline
62
7
6
CONTINUOUS
70
0
71
3
72
9
73
5
74
3
42
0.0000001000
43
0.0000001000
44
0.0000000001
12
-0.0843367233
22
0.8118197075
32
0.0000000000
13
-0.7434563669
23
0.3430103273
33
0.0000000000
40
0.0000000000
40
0.0000000000
40
0.0000000000
40
0.0000000000
40
0.6733033660
40
1.0000000000
40
1.0000000000
40
1.0000000000
40
1.0000000000
10
-9.4911395251
20
23.2617384552
30
0.0000000000
10
-9.5100675917
20
23.4439387691
30
0.0000000000
10
-9.5662408701
20
23.7121488323
30
0.0000000000
10
-9.7865170646
20
23.9202313513
30
0.0000000000
10
-9.8674786288
20
23.9575847911
30
0.0000000000
11
-9.4911395251
21
23.2617384552
31
0.0000000000
11
-9.6601048996
21
23.7778541798
31
0.0000000000
11
-9.8674786288
21
23.9575847911
31
0.0000000000
0
SPLINE
5
3AB
100
AcDbEntity
8
0
100
AcDbSpline
62
7
6
CONTINUOUS
70
0
71
3
72
8
73
4
74
2
42
0.0000001000
43
0.0000001000
44
0.0000000001
12
-0.1175043344
22
0.0542132693
32
0.0000000000
13
-0.1272472433
23
0.0029811666
33
0.0000000000
40
0.0000000000
40
0.0000000000
40
0.0000000000
40
0.0000000000
40
1.0000000000
40
1.0000000000
40
1.0000000000
40
1.0000000000
10
-9.8674786288
20
23.9575847911
30
0.0000000000
10
-9.9066467403
20
23.9756558808
30
0.0000000000
10
-9.9479208451
20
23.9865588764
30
0.0000000000
10
-9.9903365928
20
23.9875525986
30
0.0000000000
11
-9.8674786288
21
23.9575847911
31
0.0000000000
11
-9.9903365928
21
23.9875525986
31
0.0000000000
0
SPLINE
5
3AC
100
AcDbEntity
8
0
100
AcDbSpline
62
7
6
CONTINUOUS
70
0
71
3
72
10
73
6
74
4
42
0.0000001000
43
0.0000001000
44
0.0000000001
12
-0.0066761251
22
1.0759036306
32
0.0000000000
13
-0.9876093465
23
0.4556557994
33
0.0000000000
40
0.0000000000
40
0.0000000000
40
0.0000000000
40
0.0000000000
40
0.2204867102
40
0.7540680498
40
1.0000000000
40
1.0000000000
40
1.0000000000
40
1.0000000000
10
11.2529600686
20
22.9639403017
30
0.0000000000
10
11.2524694030
20
23.0430144523
30
0.0000000000
10
11.2373777520
20
23.3143987829
30
0.0000000000
10
11.1704974631
20
23.6735258271
30
0.0000000000
10
10.9423998214
20
23.8889968269
30
0.0000000000
10
10.8614382572
20
23.9263502667
30
0.0000000000
11
11.2529600686
21
22.9639403017
31
0.0000000000
11
11.2406224481
21
23.2016685773
31
0.0000000000
11
11.0688119864
21
23.7466196555
31
0.0000000000
11
10.8614382572
21
23.9263502667
31
0.0000000000
0
SPLINE
5
3AD
100
AcDbEntity
8
0
100
AcDbSpline
62
7
6
CONTINUOUS
70
0
71
3
72
8
73
4
74
2
42
0.0000001000
43
0.0000001000
44
0.0000000001
12
-0.1175043344
22
0.0542132693
32
0.0000000000
13
-0.1272472433
23
0.0029811666
33
0.0000000000
40
0.0000000000
40
0.0000000000
40
0.0000000000
40
0.0000000000
40
1.0000000000
40
1.0000000000
40
1.0000000000
40
1.0000000000
10
10.8614382572
20
23.9263502667
30
0.0000000000
10
10.8222701458
20
23.9444213565
30
0.0000000000
10
10.7809960410
20
23.9553243521
30
0.0000000000
10
10.7385802932
20
23.9563180743
30
0.0000000000
11
10.8614382572
21
23.9263502667
31
0.0000000000
11
10.7385802932
21
23.9563180743
31
0.0000000000
0
SPLINE
5
3AE
100
AcDbEntity
8
0
100
AcDbSpline
62
7
6
CONTINUOUS
70
0
71
3
72
9
73
5
74
3
42
0.0000001000
43
0.0000001000
44
0.0000000001
12
0.7368087073
22
0.0540895375
32
0.0000000000
13
0.1553186390
23
0.7297141034
33
0.0000000000
40
0.0000000000
40
0.0000000000
40
0.0000000000
40
0.0000000000
40
0.5139522216
40
1.0000000000
40
1.0000000000
40
1.0000000000
40
1.0000000000
10
10.8644804275
20
-23.8312414146
30
0.0000000000
10
10.9907085849
20
-23.8219749353
30
0.0000000000
10
11.2122435987
20
-23.6367505886
30
0.0000000000
10
11.2975956300
20
-23.4025568599
30
0.0000000000
10
11.3227597231
20
-23.2843315537
30
0.0000000000
11
10.8644804275
21
-23.8312414146
31
0.0000000000
11
11.1824530991
21
-23.6186468966
31
0.0000000000
11
11.3227597231
21
-23.2843315537
31
0.0000000000
0
SPLINE
5
3AF
100
AcDbEntity
8
0
100
AcDbSpline
62
7
6
CONTINUOUS
70
0
71
3
72
9
73
5
74
3
42
0.0000001000
43
0.0000001000
44
0.0000000001
12
0.0960646289
22
0.4513284112
32
0.0000000000
13
0.0007478301
23
0.4605224031
33
0.0000000000
40
0.0000000000
40
0.0000000000
40
0.0000000000
40
0.0000000000
40
0.4558053354
40
1.0000000000
40
1.0000000000
40
1.0000000000
40
1.0000000000
10
11.3227597231
20
-23.2843315537
30
0.0000000000
10
11.3373553133
20
-23.2157589210
30
0.0000000000
10
11.3573306574
20
-23.0620715593
30
0.0000000000
10
11.3657651414
20
-22.9080025481
30
0.0000000000
10
11.3659007965
20
-22.8244646032
30
0.0000000000
11
11.3227597231
21
-23.2843315537
31
0.0000000000
11
11.3531673383
21
-23.0755765912
31
0.0000000000
11
11.3659007965
21
-22.8244646032
31
0.0000000000
0
SPLINE
5
3B0
100
AcDbEntity
8
0
100
AcDbSpline
62
7
6
CONTINUOUS
70
0
71
3
72
9
73
5
74
3
42
0.0000001000
43
0.0000001000
44
0.0000000001
12
-0.0006449534
22
-0.0119177428
32
0.0000000000
13
0.0044451531
23
-0.0105528973
33
0.0000000000
40
0.0000000000
40
0.0000000000
40
0.0000000000
40
0.0000000000
40
0.5667132052
40
1.0000000000
40
1.0000000000
40
1.0000000000
40
1.0000000000
10
-6.7817807017
20
-18.4853557421
30
0.0000000000
10
-6.7819025362
20
-18.4876070562
30
0.0000000000
10
-6.7816764523
20
-18.4914985235
30
0.0000000000
10
-6.7805422089
20
-18.4951288472
30
0.0000000000
10
-6.7799002002
20
-18.4966529909
30
0.0000000000
11
-6.7817807017
21
-18.4853557421
31
0.0000000000
11
-6.7813546187
21
-18.4919338781
31
0.0000000000
11
-6.7799002002
21
-18.4966529909
31
0.0000000000
0
SPLINE
5
3B1
100
AcDbEntity
8
0
100
AcDbSpline
62
7
6
CONTINUOUS
70
0
71
3
72
9
73
5
74
3
42
0.0000001000
43
0.0000001000
44
0.0000000001
12
0.7368087073
22
0.0540895375
32
0.0000000000
13
0.1553186390
23
0.7297141034
33
0.0000000000
40
0.0000000000
40
0.0000000000
40
0.0000000000
40
0.0000000000
40
0.5139522216
40
1.0000000000
40
1.0000000000
40
1.0000000000
40
1.0000000000
10
-9.8644364585
20
-23.8000068903
30
0.0000000000
10
-9.7382083011
20
-23.7907404109
30
0.0000000000
10
-9.5166732873
20
-23.6055160642
30
0.0000000000
10
-9.4313212560
20
-23.3713223356
30
0.0000000000
10
-9.4061571629
20
-23.2530970293
30
0.0000000000
11
-9.8644364585
21
-23.8000068903
31
0.0000000000
11
-9.5464637869
21
-23.5874123722
31
0.0000000000
11
-9.4061571629
21
-23.2530970293
31
0.0000000000
0
SPLINE
5
3B2
100
AcDbEntity
8
0
100
AcDbSpline
62
7
6
CONTINUOUS
70
0
71
3
72
8
73
4
74
2
42
0.0000001000
43
0.0000001000
44
0.0000000001
12
0.0155132375
22
0.0728839004
32
0.0000000000
13
0.0117906562
23
0.0738109703
33
0.0000000000
40
0.0000000000
40
0.0000000000
40
0.0000000000
40
0.0000000000
40
1.0000000000
40
1.0000000000
40
1.0000000000
40
1.0000000000
10
-9.4061571629
20
-23.2530970293
30
0.0000000000
10
-9.4009860837
20
-23.2288023958
30
0.0000000000
10
-9.3965042096
20
-23.2043221299
30
0.0000000000
10
-9.3925739909
20
-23.1797184731
30
0.0000000000
11
-9.4061571629
21
-23.2530970293
31
0.0000000000
11
-9.3925739909
21
-23.1797184731
31
0.0000000000
0
SPLINE
5
3B3
100
AcDbEntity
8
0
100
AcDbSpline
62
7
6
CONTINUOUS
70
0
71
3
72
8
73
4
74
2
42
0.0000001000
43
0.0000001000
44
0.0000000001
12
-0.1364171141
22
0.3088558475
32
0.0000000000
13
-0.0008240900
23
0.3343792336
33
0.0000000000
40
0.0000000000
40
0.0000000000
40
0.0000000000
40
0.0000000000
40
1.0000000000
40
1.0000000000
40
1.0000000000
40
1.0000000000
10
-2.6453171399
20
-18.5364845390
30
0.0000000000
10
-2.6907895113
20
-18.4335325899
30
0.0000000000
10
-2.7140418000
20
-18.3205934884
30
0.0000000000
10
-2.7143164967
20
-18.2091337439
30
0.0000000000
11
-2.6453171399
21
-18.5364845390
31
0.0000000000
11
-2.7143164967
21
-18.2091337439
31
0.0000000000
0
SPLINE
5
3B4
100
AcDbEntity
8
0
100
AcDbSpline
62
7
6
CONTINUOUS
70
0
71
3
72
8
73
4
74
2
42
0.0000001000
43
0.0000001000
44
0.0000000001
12
-0.0199183202
22
0.1259021353
32
0.0000000000
13
-0.0003117496
23
0.1264941778
33
0.0000000000
40
0.0000000000
40
0.0000000000
40
0.0000000000
40
0.0000000000
40
1.0000000000
40
1.0000000000
40
1.0000000000
40
1.0000000000
10
-2.7941329924
20
18.1629089370
30
0.0000000000
10
-2.8007724324
20
18.2048763155
30
0.0000000000
10
-2.8041646154
20
18.2472527485
30
0.0000000000
10
-2.8042685319
20
18.2894174745
30
0.0000000000
11
-2.7941329924
21
18.1629089370
31
0.0000000000
11
-2.8042685319
21
18.2894174745
31
0.0000000000
0
SPLINE
5
3B5
100
AcDbEntity
8
0
100
AcDbSpline
62
7
6
CONTINUOUS
70
0
71
3
72
8
73
4
74
2
42
0.0000001000
43
0.0000001000
44
0.0000000001
12
-0.0005465731
22
0.2217751404
32
0.0000000000
13
0.0596553888
23
0.2158961897
33
0.0000000000
40
0.0000000000
40
0.0000000000
40
0.0000000000
40
0.0000000000
40
1.0000000000
40
1.0000000000
40
1.0000000000
40
1.0000000000
10
-2.8042685319
20
18.2894174745
30
0.0000000000
10
-2.8044507229
20
18.3633425213
30
0.0000000000
10
-2.7945255393
20
18.4379840459
30
0.0000000000
10
-2.7746404097
20
18.5099494425
30
0.0000000000
11
-2.8042685319
21
18.2894174745
31
0.0000000000
11
-2.7746404097
21
18.5099494425
31
0.0000000000
0
SPLINE
5
3B6
100
AcDbEntity
8
0
100
AcDbSpline
62
9
6
CONTINUOUS
70
0
71
3
72
8
73
4
74
2
42
0.0000001000
43
0.0000001000
44
0.0000000001
12
0.0656217160
22
0.0044920382
32
0.0000000000
13
0.0646953819
23
0.0148714701
33
0.0000000000
40
0.0000000000
40
0.0000000000
40
0.0000000000
40
0.0000000000
40
1.0000000000
40
1.0000000000
40
1.0000000000
40
1.0000000000
10
18.8927578130
20
-18.4641331863
30
0.0000000000
10
18.9146317183
20
-18.4626358402
30
0.0000000000
10
18.9365028760
20
-18.4593506150
30
0.0000000000
10
18.9580680033
20
-18.4543934584
30
0.0000000000
11
18.8927578130
21
-18.4641331863
31
0.0000000000
11
18.9580680033
21
-18.4543934584
31
0.0000000000
0
SPLINE
5
3B7
100
AcDbEntity
8
0
100
AcDbSpline
62
9
6
CONTINUOUS
70
0
71
3
72
10
73
6
74
4
42
0.0000001000
43
0.0000001000
44
0.0000000001
12
0.6400848086
22
0.1471357272
32
0.0000000000
13
-0.0061739135
23
0.6477077887
33
0.0000000000
40
0.0000000000
40
0.0000000000
40
0.0000000000
40
0.0000000000
40
0.2231653556
40
0.6038107995
40
1.0000000000
40
1.0000000000
40
1.0000000000
40
1.0000000000
10
18.9580680033
20
-18.4543934584
30
0.0000000000
10
19.0056829212
20
-18.4434482594
30
0.0000000000
10
19.1304763158
20
-18.3917808599
30
0.0000000000
10
19.2794852188
20
-18.2225228220
30
0.0000000000
10
19.3183765015
20
-18.0513828055
30
0.0000000000
10
19.3175611556
20
-17.9658445285
30
0.0000000000
11
18.9580680033
21
-18.4543934584
31
0.0000000000
11
19.0931724579
21
-18.3983535033
31
0.0000000000
11
19.2587143578
21
-18.2156328568
31
0.0000000000
11
19.3175611556
21
-17.9658445285
31
0.0000000000
0
SPLINE
5
3B8
100
AcDbEntity
8
0
100
AcDbSpline
62
9
6
CONTINUOUS
70
0
71
3
72
12
73
8
74
6
42
0.0000001000
43
0.0000001000
44
0.0000000001
12
0.0022008900
22
-0.9180915922
32
0.0000000000
13
-0.9161481850
23
-0.0597454490
33
0.0000000000
40
0.0000000000
40
0.0000000000
40
0.0000000000
40
0.0000000000
40
0.2653895311
40
0.5120506492
40
0.7209924341
40
0.8818975266
40
1.0000000000
40
1.0000000000
40
1.0000000000
40
1.0000000000
10
11.3501722137
20
-22.8251861760
30
0.0000000000
10
11.3503669114
20
-22.9064034751
30
0.0000000000
10
11.3411803546
20
-23.0632842830
30
0.0000000000
10
11.3000815647
20
-23.2808916595
30
0.0000000000
10
11.2341299177
20
-23.4587418882
30
0.0000000000
10
11.1510854285
20
-23.5854586379
30
0.0000000000
10
11.0699316837
20
-23.6296198021
30
0.0000000000
10
11.0338652281
20
-23.6319718306
30
0.0000000000
11
11.3501722137
21
-22.8251861760
31
0.0000000000
11
11.3354713990
21
-23.0683948811
31
0.0000000000
11
11.2912579895
21
-23.2904950112
31
0.0000000000
11
11.2215292893
21
-23.4692014318
31
0.0000000000
11
11.1326028097
21
-23.5871635581
31
0.0000000000
11
11.0338652281
21
-23.6319718306
31
0.0000000000
0
SPLINE
5
3B9
100
AcDbEntity
8
0
100
AcDbSpline
62
9
6
CONTINUOUS
70
0
71
3
72
12
73
8
74
6
42
0.0000001000
43
0.0000001000
44
0.0000000001
12
-0.0022753709
22
0.9090042830
32
0.0000000000
13
-0.9088065073
23
0.0190970196
33
0.0000000000
40
0.0000000000
40
0.0000000000
40
0.0000000000
40
0.0000000000
40
0.2675056843
40
0.5152340091
40
0.7230785692
40
0.8821274684
40
1.0000000000
40
1.0000000000
40
1.0000000000
40
1.0000000000
10
11.2373249591
20
22.9632308531
30
0.0000000000
10
11.2371220676
20
23.0442854573
30
0.0000000000
10
11.2272357341
20
23.2005315067
30
0.0000000000
10
11.1850711011
20
23.4164011634
30
0.0000000000
10
11.1183105919
20
23.5913068317
30
0.0000000000
10
11.0344602276
20
23.7148714998
30
0.0000000000
10
10.9527832458
20
23.7553876742
30
0.0000000000
10
10.9170754712
20
23.7561380122
30
0.0000000000
11
11.2373249591
21
22.9632308531
31
0.0000000000
11
11.2214223463
21
23.2058748665
31
0.0000000000
11
11.1759685063
21
23.4264265600
31
0.0000000000
11
11.1054335435
21
23.6016983215
31
0.0000000000
11
11.0161955438
21
23.7154479057
31
0.0000000000
11
10.9170754712
21
23.7561380122
31
0.0000000000
0
SPLINE
5
3BA
100
AcDbEntity
8
0
100
AcDbSpline
62
7
6
CONTINUOUS
70
0
71
3
72
8
73
4
74
2
42
0.0000001000
43
0.0000001000
44
0.0000000001
12
-0.0003017477
22
0.1292208942
32
0.0000000000
13
-0.0326799428
23
0.1243398235
33
0.0000000000
40
0.0000000000
40
0.0000000000
40
0.0000000000
40
0.0000000000
40
1.0000000000
40
1.0000000000
40
1.0000000000
40
1.0000000000
10
11.3569226062
20
-18.6112415825
30
0.0000000000
10
11.3568220237
20
-18.5681679511
30
0.0000000000
10
11.3503658910
20
-18.5251940703
30
0.0000000000
10
11.3394725767
20
-18.4837474625
30
0.0000000000
11
11.3569226062
21
-18.6112415825
31
0.0000000000
11
11.3394725767
21
-18.4837474625
31
0.0000000000
0
SPLINE
5
3BB
100
AcDbEntity
8
0
100
AcDbSpline
62
9
6
CONTINUOUS
70
0
71
3
72
10
73
6
74
4
42
0.0000001000
43
0.0000001000
44
0.0000000001
12
0.2854082941
22
0.0204916253
32
0.0000000000
13
-0.0027140639
23
0.2847335495
33
0.0000000000
40
0.0000000000
40
0.0000000000
40
0.0000000000
40
0.0000000000
40
0.2931470837
40
0.6395017990
40
1.0000000000
40
1.0000000000
40
1.0000000000
40
1.0000000000
10
10.8644810747
20
-23.8312496232
30
0.0000000000
10
10.8923699444
20
-23.8292472698
30
0.0000000000
10
10.9531302624
20
-23.8090492965
30
0.0000000000
10
11.0186348534
20
-23.7346431479
30
0.0000000000
10
11.0341913665
20
-23.6661871413
30
0.0000000000
10
11.0338652281
20
-23.6319718306
30
0.0000000000
11
10.8644810747
21
-23.8312496232
31
0.0000000000
11
10.9441097491
21
-23.8049754205
31
0.0000000000
11
11.0103265091
21
-23.7318871619
31
0.0000000000
11
11.0338652281
21
-23.6319718306
31
0.0000000000
0
SPLINE
5
3BC
100
AcDbEntity
8
0
100
AcDbSpline
62
7
6
CONTINUOUS
70
0
71
3
72
9
73
5
74
3
42
0.0000001000
43
0.0000001000
44
0.0000000001
12
0.2797111219
22
0.0234398253
32
0.0000000000
13
-0.0006877873
23
0.2790736251
33
0.0000000000
40
0.0000000000
40
0.0000000000
40
0.0000000000
40
0.0000000000
40
0.4622140337
40
1.0000000000
40
1.0000000000
40
1.0000000000
40
1.0000000000
10
8.4292468335
20
-23.9892917447
30
0.0000000000
10
8.4723423021
20
-23.9856803393
30
0.0000000000
10
8.5653167117
20
-23.9378840741
30
0.0000000000
10
8.5976934687
20
-23.8401528397
30
0.0000000000
10
8.5975701746
20
-23.7901255467
30
0.0000000000
11
8.4292468335
21
-23.9892917447
31
0.0000000000
11
8.5453442636
21
-23.9308279329
31
0.0000000000
11
8.5975701746
21
-23.7901255467
31
0.0000000000
0
SPLINE
5
3BD
100
AcDbEntity
8
0
100
AcDbSpline
62
7
6
CONTINUOUS
70
0
71
3
72
9
73
5
74
3
42
0.0000001000
43
0.0000001000
44
0.0000000001
12
0.0224158085
22
-0.0532156530
32
0.0000000000
13
0.0610631918
23
-0.0158590628
33
0.0000000000
40
0.0000000000
40
0.0000000000
40
0.0000000000
40
0.0000000000
40
0.6698394978
40
1.0000000000
40
1.0000000000
40
1.0000000000
40
1.0000000000
10
-6.7799002002
20
-18.4966529909
30
0.0000000000
10
-6.7748952022
20
-18.5085349730
30
0.0000000000
10
-6.7537631844
20
-18.5218433479
30
0.0000000000
10
-6.7332934716
20
-18.5287478450
30
0.0000000000
10
-6.7265732536
20
-18.5304931903
30
0.0000000000
11
-6.7799002002
21
-18.4966529909
31
0.0000000000
11
-6.7468822481
21
-18.5234905997
31
0.0000000000
11
-6.7265732536
21
-18.5304931903
31
0.0000000000
0
SPLINE
5
3BE
100
AcDbEntity
8
0
100
AcDbSpline
62
9
6
CONTINUOUS
70
0
71
3
72
10
73
6
74
4
42
0.0000001000
43
0.0000001000
44
0.0000000001
12
0.2854082941
22
0.0204916253
32
0.0000000000
13
-0.0027140639
23
0.2847335495
33
0.0000000000
40
0.0000000000
40
0.0000000000
40
0.0000000000
40
0.0000000000
40
0.2931470837
40
0.6395017990
40
1.0000000000
40
1.0000000000
40
1.0000000000
40
1.0000000000
10
-9.8644358113
20
-23.8000150989
30
0.0000000000
10
-9.8365469416
20
-23.7980127455
30
0.0000000000
10
-9.7757866236
20
-23.7778147721
30
0.0000000000
10
-9.7102820326
20
-23.7034086236
30
0.0000000000
10
-9.6947255195
20
-23.6349526170
30
0.0000000000
10
-9.6950516579
20
-23.6007373062
30
0.0000000000
11
-9.8644358113
21
-23.8000150989
31
0.0000000000
11
-9.7848071369
21
-23.7737408961
31
0.0000000000
11
-9.7185903770
21
-23.7006526375
31
0.0000000000
11
-9.6950516579
21
-23.6007373062
31
0.0000000000
0
SPLINE
5
3BF
100
AcDbEntity
8
0
100
AcDbSpline
62
7
6
CONTINUOUS
70
0
71
3
72
9
73
5
74
3
42
0.0000001000
43
0.0000001000
44
0.0000000001
12
-0.0007115216
22
0.2887039638
32
0.0000000000
13
-0.2890298603
23
0.0078934474
33
0.0000000000
40
0.0000000000
40
0.0000000000
40
0.0000000000
40
0.0000000000
40
0.5265625408
40
1.0000000000
40
1.0000000000
40
1.0000000000
40
1.0000000000
10
8.4802627128
20
23.8080460028
30
0.0000000000
10
8.4801378259
20
23.8587195670
30
0.0000000000
10
8.4456244685
20
23.9596258914
30
0.0000000000
10
8.3477540706
20
24.0069806981
30
0.0000000000
10
8.3021415497
20
24.0082263826
30
0.0000000000
11
8.4802627128
21
23.8080460028
31
0.0000000000
11
8.4262240567
21
23.9501384200
31
0.0000000000
11
8.3021415497
21
24.0082263826
31
0.0000000000
0
SPLINE
5
3C0
100
AcDbEntity
8
0
100
AcDbSpline
62
7
6
CONTINUOUS
70
0
71
3
72
9
73
5
74
3
42
0.0000001000
43
0.0000001000
44
0.0000000001
12
0.2797111219
22
0.0234398253
32
0.0000000000
13
-0.0006877873
23
0.2790736251
33
0.0000000000
40
0.0000000000
40
0.0000000000
40
0.0000000000
40
0.0000000000
40
0.4622140337
40
1.0000000000
40
1.0000000000
40
1.0000000000
40
1.0000000000
10
-12.2996700525
20
-23.9580572203
30
0.0000000000
10
-12.2565745839
20
-23.9544458149
30
0.0000000000
10
-12.1636001743
20
-23.9066495497
30
0.0000000000
10
-12.1312234173
20
-23.8089183154
30
0.0000000000
10
-12.1313467114
20
-23.7588910223
30
0.0000000000
11
-12.2996700525
21
-23.9580572203
31
0.0000000000
11
-12.1835726225
21
-23.8995934085
31
0.0000000000
11
-12.1313467114
21
-23.7588910223
31
0.0000000000
0
SPLINE
5
3C1
100
AcDbEntity
8
0
100
AcDbSpline
62
7
6
CONTINUOUS
70
0
71
3
72
9
73
5
74
3
42
0.0000001000
43
0.0000001000
44
0.0000000001
12
-0.0007115216
22
0.2887039638
32
0.0000000000
13
-0.2890298603
23
0.0078934474
33
0.0000000000
40
0.0000000000
40
0.0000000000
40
0.0000000000
40
0.0000000000
40
0.5265625408
40
1.0000000000
40
1.0000000000
40
1.0000000000
40
1.0000000000
10
-12.2486541732
20
23.8392805271
30
0.0000000000
10
-12.2487790601
20
23.8899540914
30
0.0000000000
10
-12.2832924176
20
23.9908604157
30
0.0000000000
10
-12.3811628154
20
24.0382152224
30
0.0000000000
10
-12.4267753363
20
24.0394609070
30
0.0000000000
11
-12.2486541732
21
23.8392805271
31
0.0000000000
11
-12.3026928293
21
23.9813729444
31
0.0000000000
11
-12.4267753363
21
24.0394609070
31
0.0000000000
0
SPLINE
5
3C2
100
AcDbEntity
8
0
100
AcDbSpline
62
7
6
CONTINUOUS
70
0
71
3
72
8
73
4
74
2
42
0.0000001000
43
0.0000001000
44
0.0000000001
12
0.0321057402
22
0.1259167266
32
0.0000000000
13
-0.0003342981
23
0.1305999357
33
0.0000000000
40
0.0000000000
40
0.0000000000
40
0.0000000000
40
0.0000000000
40
1.0000000000
40
1.0000000000
40
1.0000000000
40
1.0000000000
10
11.2480245961
20
18.6217921396
30
0.0000000000
10
11.2587265095
20
18.6637643818
30
0.0000000000
10
11.2649520185
20
18.7072305405
30
0.0000000000
10
11.2648405858
20
18.7507638524
30
0.0000000000
11
11.2480245961
21
18.6217921396
31
0.0000000000
11
11.2648405858
21
18.7507638524
31
0.0000000000
0
SPLINE
5
3C3
100
AcDbEntity
8
0
100
AcDbSpline
62
9
6
CONTINUOUS
70
0
71
3
72
10
73
6
74
4
42
0.0000001000
43
0.0000001000
44
0.0000000001
12
0.0033788481
22
0.7344218400
32
0.0000000000
13
-0.7352424956
23
0.0166310153
33
0.0000000000
40
0.0000000000
40
0.0000000000
40
0.0000000000
40
0.0000000000
40
0.3501282813
40
0.6871717332
40
1.0000000000
40
1.0000000000
40
1.0000000000
40
1.0000000000
10
19.2278084932
20
18.4518100407
30
0.0000000000
10
19.2282028366
20
18.5375239929
30
0.0000000000
10
19.1882961587
20
18.7089030598
30
0.0000000000
10
19.0191985009
20
18.9004045086
30
0.0000000000
10
18.8579356958
20
18.9505633779
30
0.0000000000
10
18.7812674840
20
18.9522975952
30
0.0000000000
11
19.2278084932
21
18.4518100407
31
0.0000000000
11
19.1677298801
21
18.7018378276
31
0.0000000000
11
19.0012861036
21
18.8850587132
31
0.0000000000
11
18.7812674840
21
18.9522975952
31
0.0000000000
0
SPLINE
5
3C4
100
AcDbEntity
8
0
100
AcDbSpline
62
9
6
CONTINUOUS
70
0
71
3
72
8
73
4
74
2
42
0.0000001000
43
0.0000001000
44
0.0000000001
12
-0.0585106506
22
0.0241452498
32
0.0000000000
13
-0.0622581805
23
0.0014562387
33
0.0000000000
40
0.0000000000
40
0.0000000000
40
0.0000000000
40
0.0000000000
40
1.0000000000
40
1.0000000000
40
1.0000000000
40
1.0000000000
10
-9.9291549157
20
23.9744420253
30
0.0000000000
10
-9.9486584659
20
23.9824904420
30
0.0000000000
10
-9.9695836881
20
23.9870793526
30
0.0000000000
10
-9.9903364149
20
23.9875647655
30
0.0000000000
11
-9.9291549157
21
23.9744420253
31
0.0000000000
11
-9.9903364149
21
23.9875647655
31
0.0000000000
0
SPLINE
5
3C5
100
AcDbEntity
8
0
100
AcDbSpline
62
7
6
CONTINUOUS
70
0
71
3
72
8
73
4
74
2
42
0.0000001000
43
0.0000001000
44
0.0000000001
12
-0.0467765898
22
0.0433474096
32
0.0000000000
13
-0.0584274780
23
0.0271509579
33
0.0000000000
40
0.0000000000
40
0.0000000000
40
0.0000000000
40
0.0000000000
40
1.0000000000
40
1.0000000000
40
1.0000000000
40
1.0000000000
10
-0.1726912085
20
18.4714208464
30
0.0000000000
10
-0.1882834051
20
18.4858699829
30
0.0000000000
10
-0.2069538356
20
18.4967072681
30
0.0000000000
10
-0.2264296616
20
18.5057575874
30
0.0000000000
11
-0.1726912085
21
18.4714208464
31
0.0000000000
11
-0.2264296616
21
18.5057575874
31
0.0000000000
0
SPLINE
5
3C6
100
AcDbEntity
8
0
100
AcDbSpline
62
9
6
CONTINUOUS
70
0
71
3
72
8
73
4
74
2
42
0.0000001000
43
0.0000001000
44
0.0000000001
12
-0.0585106506
22
0.0241452498
32
0.0000000000
13
-0.0622581805
23
0.0014562387
33
0.0000000000
40
0.0000000000
40
0.0000000000
40
0.0000000000
40
0.0000000000
40
1.0000000000
40
1.0000000000
40
1.0000000000
40
1.0000000000
10
10.7997619703
20
23.9432075010
30
0.0000000000
10
10.7802584201
20
23.9512559176
30
0.0000000000
10
10.7593331980
20
23.9558448282
30
0.0000000000
10
10.7385804711
20
23.9563302411
30
0.0000000000
11
10.7997619703
21
23.9432075010
31
0.0000000000
11
10.7385804711
21
23.9563302411
31
0.0000000000
0
SPLINE
5
3C7
100
AcDbEntity
8
0
100
AcDbSpline
62
9
6
CONTINUOUS
70
0
71
3
72
11
73
7
74
5
42
0.0000001000
43
0.0000001000
44
0.0000000001
12
-0.1133619729
22
-0.5191165771
32
0.0000000000
13
-0.5298218573
23
-0.0345516645
33
0.0000000000
40
0.0000000000
40
0.0000000000
40
0.0000000000
40
0.0000000000
40
0.1562561908
40
0.5175505283
40
0.7957816100
40
1.0000000000
40
1.0000000000
40
1.0000000000
40
1.0000000000
10
-9.4174581859
20
-23.1787405590
30
0.0000000000
10
-9.4233626893
20
-23.2057789519
30
0.0000000000
10
-9.4455552520
20
-23.2947453723
30
0.0000000000
10
-9.4947869684
20
-23.4275073638
30
0.0000000000
10
-9.5778314575
20
-23.5542241136
30
0.0000000000
10
-9.6589852024
20
-23.5983852778
30
0.0000000000
10
-9.6950516579
20
-23.6007373062
30
0.0000000000
11
-9.4174581859
21
-23.1787405590
31
0.0000000000
11
-9.4376588965
21
-23.2592604869
31
0.0000000000
11
-9.5073875967
21
-23.4379669075
31
0.0000000000
11
-9.5963140764
21
-23.5559290338
31
0.0000000000
11
-9.6950516579
21
-23.6007373062
31
0.0000000000
0
SPLINE
5
3C8
100
AcDbEntity
8
0
100
AcDbSpline
62
9
6
CONTINUOUS
70
0
71
3
72
11
73
7
74
5
42
0.0000001000
43
0.0000001000
44
0.0000000001
12
-0.0923514858
22
0.6361448214
32
0.0000000000
13
-0.6417997250
23
0.0134863272
33
0.0000000000
40
0.0000000000
40
0.0000000000
40
0.0000000000
40
0.0000000000
40
0.3135576881
40
0.6078714457
40
0.8330891716
40
1.0000000000
40
1.0000000000
40
1.0000000000
40
1.0000000000
10
-9.5107704679
20
23.2608168384
30
0.0000000000
10
-9.5204229741
20
23.3273062049
30
0.0000000000
10
-9.5467018179
20
23.4551182003
30
0.0000000000
10
-9.6106062941
20
23.6225413560
30
0.0000000000
10
-9.6944566584
20
23.7461060242
30
0.0000000000
10
-9.7761336402
20
23.7866221986
30
0.0000000000
10
-9.8118414148
20
23.7873725366
30
0.0000000000
11
-9.5107704679
21
23.2608168384
31
0.0000000000
11
-9.5529483797
21
23.4576610844
31
0.0000000000
11
-9.6234833425
21
23.6329328459
31
0.0000000000
11
-9.7127213422
21
23.7466824301
31
0.0000000000
11
-9.8118414148
21
23.7873725366
31
0.0000000000
0
SPLINE
5
3C9
100
AcDbEntity
8
0
100
AcDbSpline
62
9
6
CONTINUOUS
70
0
71
3
72
9
73
5
74
3
42
0.0000001000
43
0.0000001000
44
0.0000000001
12
-0.0034541881
22
-0.0024298306
32
0.0000000000
13
-0.0480222000
23
-0.0010470020
33
0.0000000000
40
0.0000000000
40
0.0000000000
40
0.0000000000
40
0.0000000000
40
0.1678512916
40
1.0000000000
40
1.0000000000
40
1.0000000000
40
1.0000000000
10
19.3596346030
20
-17.9631020782
30
0.0000000000
10
19.3594413397
20
-17.9632380283
30
0.0000000000
10
19.3552523313
20
-17.9641292445
30
0.0000000000
10
19.3308816928
20
-17.9655541080
30
0.0000000000
10
19.3175611556
20
-17.9658445285
30
0.0000000000
11
19.3596346030
21
-17.9631020782
31
0.0000000000
11
19.3574664804
21
-17.9635522469
31
0.0000000000
11
19.3175611556
21
-17.9658445285
31
0.0000000000
0
SPLINE
5
3CA
100
AcDbEntity
8
0
100
AcDbSpline
62
9
6
CONTINUOUS
70
0
71
3
72
9
73
5
74
3
42
0.0000001000
43
0.0000001000
44
0.0000000001
12
-0.0035336226
22
-0.0023916631
32
0.0000000000
13
-0.0478566347
23
-0.0010433922
33
0.0000000000
40
0.0000000000
40
0.0000000000
40
0.0000000000
40
0.0000000000
40
0.1575444412
40
1.0000000000
40
1.0000000000
40
1.0000000000
40
1.0000000000
10
19.2700504910
20
18.4544868965
30
0.0000000000
10
19.2698649235
20
18.4543612987
30
0.0000000000
10
19.2657847761
20
18.4534900220
30
0.0000000000
10
19.2412475225
20
18.4521030446
30
0.0000000000
10
19.2278084932
20
18.4518100407
30
0.0000000000
11
19.2700504910
21
18.4544868965
31
0.0000000000
11
19.2680715639
21
18.4540739693
31
0.0000000000
11
19.2278084932
21
18.4518100407
31
0.0000000000
0
SPLINE
5
3CB
100
AcDbEntity
8
0
100
AcDbSpline
62
3
6
CONTINUOUS
70
0
71
3
72
10
73
6
74
4
42
0.0000001000
43
0.0000001000
44
0.0000000001
12
0.0052945949
22
-0.0337554054
32
0.0000000000
13
-0.0263799665
23
-0.0209627744
33
0.0000000000
40
0.0000000000
40
0.0000000000
40
0.0000000000
40
0.0000000000
40
0.1061829202
40
0.4861069265
40
1.0000000000
40
1.0000000000
40
1.0000000000
40
1.0000000000
10
1.7097284485
20
-23.5158776661
30
0.0000000000
10
1.7099158470
20
-23.5170724153
30
0.0000000000
10
1.7102289465
20
-23.5225915399
30
0.0000000000
10
1.7050680284
20
-23.5333215394
30
0.0000000000
10
1.6976793565
20
-23.5401900948
30
0.0000000000
10
1.6931605291
20
-23.5437809696
30
0.0000000000
11
1.7097284485
21
-23.5158776661
31
0.0000000000
11
1.7099179889
21
-23.5194690920
31
0.0000000000
11
1.7052579244
21
-23.5313922378
31
0.0000000000
11
1.6931605291
21
-23.5437809696
31
0.0000000000
0
SPLINE
5
3CC
100
AcDbEntity
8
0
100
AcDbSpline
62
3
6
CONTINUOUS
70
0
71
3
72
12
73
8
74
6
42
0.0000001000
43
0.0000001000
44
0.0000000001
12
0.0008490113
22
-0.3444911763
32
0.0000000000
13
0.3443547705
23
-0.0018531209
33
0.0000000000
40
0.0000000000
40
0.0000000000
40
0.0000000000
40
0.0000000000
40
0.2693632719
40
0.5166962864
40
0.7243304961
40
0.8832976167
40
1.0000000000
40
1.0000000000
40
1.0000000000
40
1.0000000000
10
1.3203430725
20
-24.3423256507
30
0.0000000000
10
1.3204193034
20
-24.3732567408
30
0.0000000000
10
1.3243809988
20
-24.4326437774
30
0.0000000000
10
1.3412801232
20
-24.5144612308
30
0.0000000000
10
1.3678319237
20
-24.5801757779
30
0.0000000000
10
1.4012122554
20
-24.6259376476
30
0.0000000000
10
1.4326838500
20
-24.6396098664
30
0.0000000000
10
1.4460795242
20
-24.6396819542
30
0.0000000000
11
1.3203430725
21
-24.3423256507
31
0.0000000000
11
1.3267494196
21
-24.4348977958
31
0.0000000000
11
1.3448844308
21
-24.5181497873
31
0.0000000000
11
1.3729729249
21
-24.5839323402
31
0.0000000000
11
1.4082654043
21
-24.6258062000
31
0.0000000000
11
1.4460795242
21
-24.6396819542
31
0.0000000000
0
SPLINE
5
3CD
100
AcDbEntity
8
0
100
AcDbSpline
62
3
6
CONTINUOUS
70
0
71
3
72
15
73
11
74
9
42
0.0000001000
43
0.0000001000
44
0.0000000001
12
0.0230197936
22
-0.2813285304
32
0.0000000000
13
0.2822684396
23
-0.0004253247
33
0.0000000000
40
0.0000000000
40
0.0000000000
40
0.0000000000
40
0.0000000000
40
0.1309112683
40
0.2607801404
40
0.3889762032
40
0.5150768910
40
0.6389310052
40
0.7606929277
40
0.8808163433
40
1.0000000000
40
1.0000000000
40
1.0000000000
40
1.0000000000
10
-0.7364768177
20
-23.8566785104
30
0.0000000000
10
-0.7354723009
20
-23.8689548686
30
0.0000000000
10
-0.7314087060
20
-23.8932924779
30
0.0000000000
10
-0.7193106447
20
-23.9280151295
30
0.0000000000
10
-0.7016175847
20
-23.9597512527
30
0.0000000000
10
-0.6789160218
20
-23.9874026593
30
0.0000000000
10
-0.6519639271
20
-24.0100165648
30
0.0000000000
10
-0.6216652500
20
-24.0267965593
30
0.0000000000
10
-0.5890756594
20
-24.0371401206
30
0.0000000000
10
-0.5664965089
20
-24.0394955652
30
0.0000000000
10
-0.5552825807
20
-24.0395124624
30
0.0000000000
11
-0.7364768177
21
-23.8566785104
31
0.0000000000
11
-0.7303725399
21
-23.8931229890
31
0.0000000000
11
-0.7182813255
21
-23.9277294340
31
0.0000000000
11
-0.7006177826
21
-23.9593111898
31
0.0000000000
11
-0.6779875944
21
-23.9867853175
31
0.0000000000
11
-0.6511667503
21
-24.0092097287
31
0.0000000000
11
-0.6210749376
21
-24.0258154900
31
0.0000000000
11
-0.5887440049
21
-24.0360331896
31
0.0000000000
11
-0.5552825807
21
-24.0395124624
31
0.0000000000
0
SPLINE
5
3CE
100
AcDbEntity
8
0
100
AcDbSpline
62
3
6
CONTINUOUS
70
0
71
3
72
10
73
6
74
4
42
0.0000001000
43
0.0000001000
44
0.0000000001
12
0.0426086920
22
0.0008915963
32
0.0000000000
13
0.0333660218
23
0.0265142257
33
0.0000000000
40
0.0000000000
40
0.0000000000
40
0.0000000000
40
0.0000000000
40
0.3127541914
40
0.6419737915
40
1.0000000000
40
1.0000000000
40
1.0000000000
40
1.0000000000
10
1.6636409124
20
-24.6351456307
30
0.0000000000
10
1.6680829281
20
-24.6350526806
30
0.0000000000
10
1.6772119472
20
-24.6336905532
30
0.0000000000
10
1.6904683256
20
-24.6282917119
30
0.0000000000
10
1.6986283623
20
-24.6228112301
30
0.0000000000
10
1.7026103324
20
-24.6196469676
30
0.0000000000
11
1.6636409124
21
-24.6351456307
31
0.0000000000
11
1.6768309457
21
-24.6332261755
31
0.0000000000
11
1.6898683659
21
-24.6280410179
31
0.0000000000
11
1.7026103324
21
-24.6196469676
31
0.0000000000
0
SPLINE
5
3CF
100
AcDbEntity
8
0
100
AcDbSpline
62
3
6
CONTINUOUS
70
0
71
3
72
13
73
9
74
7
42
0.0000001000
43
0.0000001000
44
0.0000000001
12
0.1296207291
22
-0.0001953137
32
0.0000000000
13
0.0203678234
23
-0.1298539627
33
0.0000000000
40
0.0000000000
40
0.0000000000
40
0.0000000000
40
0.0000000000
40
0.2614179737
40
0.4906789042
40
0.6812666619
40
0.8299294754
40
0.9397325841
40
1.0000000000
40
1.0000000000
40
1.0000000000
40
1.0000000000
10
1.5916047706
20
-23.4800319643
30
0.0000000000
10
1.6028998334
20
-23.4800489838
30
0.0000000000
10
1.6241148074
20
-23.4807614436
30
0.0000000000
10
1.6533789091
20
-23.4841808900
30
0.0000000000
10
1.6774193588
20
-23.4897290498
30
0.0000000000
10
1.6953608586
20
-23.4972284822
30
0.0000000000
10
1.7065636005
20
-23.5060531662
30
0.0000000000
10
1.7093192765
20
-23.5132690118
30
0.0000000000
10
1.7097284485
20
-23.5158776661
30
0.0000000000
11
1.5916047706
21
-23.4800319643
31
0.0000000000
11
1.6254660769
21
-23.4813049658
31
0.0000000000
11
1.6549564084
21
-23.4849683789
31
0.0000000000
11
1.6789424683
21
-23.4908814208
31
0.0000000000
11
1.6965024858
21
-23.4988168565
31
0.0000000000
11
1.7069616391
21
-23.5084697318
31
0.0000000000
11
1.7097284485
21
-23.5158776661
31
0.0000000000
0
SPLINE
5
3D0
100
AcDbEntity
8
0
100
AcDbSpline
62
3
6
CONTINUOUS
70
0
71
3
72
14
73
10
74
8
42
0.0000001000
43
0.0000001000
44
0.0000000001
12
-0.2414517780
22
-0.0518031355
32
0.0000000000
13
-0.0188988746
23
-0.2457104723
33
0.0000000000
40
0.0000000000
40
0.0000000000
40
0.0000000000
40
0.0000000000
40
0.1313345682
40
0.2703335696
40
0.4116430180
40
0.5555174213
40
0.7018584725
40
0.8502451048
40
1.0000000000
40
1.0000000000
40
1.0000000000
40
1.0000000000
10
-0.7086052030
20
24.0152700738
30
0.0000000000
10
-0.7191755247
20
24.0130022263
30
0.0000000000
10
-0.7404580267
20
24.0062042707
30
0.0000000000
10
-0.7702534587
20
23.9897510440
30
0.0000000000
10
-0.7971024588
20
23.9672124696
30
0.0000000000
10
-0.8196729711
20
23.9396215396
30
0.0000000000
10
-0.8372112193
20
23.9079308172
30
0.0000000000
10
-0.8491366297
20
23.8732383933
30
0.0000000000
10
-0.8530754242
20
23.8489262007
30
0.0000000000
10
-0.8540188239
20
23.8366607520
30
0.0000000000
11
-0.7086052030
21
24.0152700738
31
0.0000000000
11
-0.7394497784
21
24.0054512092
31
0.0000000000
11
-0.7694599633
21
23.9889360102
31
0.0000000000
11
-0.7961704746
21
23.9665922605
31
0.0000000000
11
-0.8186654084
21
23.9391861278
31
0.0000000000
11
-0.8361734131
21
23.9076573689
31
0.0000000000
11
-0.8480941389
21
23.8730871053
31
0.0000000000
11
-0.8540188239
21
23.8366607520
31
0.0000000000
0
SPLINE
5
3D1
100
AcDbEntity
8
0
100
AcDbSpline
62
3
6
CONTINUOUS
70
0
71
3
72
10
73
6
74
4
42
0.0000001000
43
0.0000001000
44
0.0000000001
12
0.0258811357
22
-0.0194071676
32
0.0000000000
13
-0.0050427693
23
-0.0324045970
33
0.0000000000
40
0.0000000000
40
0.0000000000
40
0.0000000000
40
0.0000000000
40
0.5221030835
40
0.8995963600
40
1.0000000000
40
1.0000000000
40
1.0000000000
40
1.0000000000
10
1.5769869813
20
23.5942985407
30
0.0000000000
10
1.5814911882
20
23.5909210267
30
0.0000000000
10
1.5888187495
20
23.5845412845
30
0.0000000000
10
1.5941496038
20
23.5743407381
30
0.0000000000
10
1.5938673079
20
23.5691385784
30
0.0000000000
10
1.5936985371
20
23.5680540653
30
0.0000000000
11
1.5769869813
21
23.5942985407
31
0.0000000000
11
1.5891438052
21
23.5825737397
31
0.0000000000
11
1.5938610146
21
23.5713100223
31
0.0000000000
11
1.5936985371
21
23.5680540653
31
0.0000000000
0
SPLINE
5
3D2
100
AcDbEntity
8
0
100
AcDbSpline
62
3
6
CONTINUOUS
70
0
71
3
72
12
73
8
74
6
42
0.0000001000
43
0.0000001000
44
0.0000000001
12
-0.0008602548
22
0.3490532929
32
0.0000000000
13
0.3489779587
23
0.0073024406
33
0.0000000000
40
0.0000000000
40
0.0000000000
40
0.0000000000
40
0.0000000000
40
0.2664947211
40
0.5124493915
40
0.7200923693
40
0.8798515520
40
1.0000000000
40
1.0000000000
40
1.0000000000
40
1.0000000000
10
1.2004225431
20
24.3161130057
30
0.0000000000
10
1.2003461253
20
24.3471199590
30
0.0000000000
10
1.2040440915
20
24.4068192479
30
0.0000000000
10
1.2205657069
20
24.4893138076
30
0.0000000000
10
1.2468262553
20
24.5560999552
30
0.0000000000
10
1.2800801085
20
24.6033021626
30
0.0000000000
10
1.3119316155
20
24.6184499205
30
0.0000000000
10
1.3259080022
20
24.6187423794
30
0.0000000000
11
1.2004225431
21
24.3161130057
31
0.0000000000
11
1.2063719580
21
24.4089436978
31
0.0000000000
11
1.2240947647
21
24.4929460220
31
0.0000000000
11
1.2518561314
21
24.5598972456
31
0.0000000000
11
1.2869385822
21
24.6032437163
31
0.0000000000
11
1.3259080022
21
24.6187423794
31
0.0000000000
0
SPLINE
5
3D3
100
AcDbEntity
8
0
100
AcDbSpline
62
3
6
CONTINUOUS
70
0
71
3
72
13
73
9
74
7
42
0.0000001000
43
0.0000001000
44
0.0000000001
12
-0.0200298722
22
-0.1287110105
32
0.0000000000
13
-0.1284908647
23
0.0001936112
33
0.0000000000
40
0.0000000000
40
0.0000000000
40
0.0000000000
40
0.0000000000
40
0.0585306514
40
0.1660405979
40
0.3141809514
40
0.5055027775
40
0.7363754672
40
1.0000000000
40
1.0000000000
40
1.0000000000
40
1.0000000000
10
1.5936985371
20
23.5680540653
30
0.0000000000
10
1.5933077499
20
23.5655428855
30
0.0000000000
10
1.5905342909
20
23.5585474021
30
0.0000000000
10
1.5792702032
20
23.5503248460
30
0.0000000000
10
1.5614404692
20
23.5433201113
30
0.0000000000
10
1.5374478462
20
23.5381759901
30
0.0000000000
10
1.5082224304
20
23.5350369596
30
0.0000000000
10
1.4870269589
20
23.5344286410
30
0.0000000000
10
1.4757358442
20
23.5344456545
30
0.0000000000
11
1.5936985371
21
23.5680540653
31
0.0000000000
11
1.5909573298
21
23.5609402469
31
0.0000000000
11
1.5805443378
21
23.5518629182
31
0.0000000000
11
1.5630222040
21
23.5444268728
31
0.0000000000
11
1.5390642941
21
23.5389178737
31
0.0000000000
11
1.5095912973
21
23.5355476287
31
0.0000000000
11
1.4757358442
21
23.5344456545
31
0.0000000000
0
SPLINE
5
3D4
100
AcDbEntity
8
0
100
AcDbSpline
62
3
6
CONTINUOUS
70
0
71
3
72
10
73
6
74
4
42
0.0000001000
43
0.0000001000
44
0.0000000001
12
0.0409700246
22
-0.0000819374
32
0.0000000000
13
0.0327544511
23
-0.0245611757
33
0.0000000000
40
0.0000000000
40
0.0000000000
40
0.0000000000
40
0.0000000000
40
0.2949170612
40
0.6334830625
40
1.0000000000
40
1.0000000000
40
1.0000000000
40
1.0000000000
10
1.5434368647
20
24.6232804937
30
0.0000000000
10
1.5474644511
20
24.6232724388
30
0.0000000000
10
1.5561443125
20
24.6222579459
30
0.0000000000
10
1.5690712324
20
24.6175543800
30
0.0000000000
10
1.5772818233
20
24.6124036443
30
0.0000000000
10
1.5812835103
20
24.6094029487
30
0.0000000000
11
1.5434368647
21
24.6232804937
31
0.0000000000
11
1.5554398529
21
24.6219019330
31
0.0000000000
11
1.5685014852
21
24.6172629038
31
0.0000000000
11
1.5812835103
21
24.6094029487
31
0.0000000000
0
ENDSEC
0
SECTION
2
OBJECTS
0
DICTIONARY
5
3D5
100
AcDbDictionary
3
ACAD_GROUP
350
3D6
3
ACAD_MLINESTYLE
350
3D7
0
DICTIONARY
5
3D6
102
{ACAD_REACTORS
330
3D5
102
}
100
AcDbDictionary
0
DICTIONARY
5
3D7
102
{ACAD_REACTORS
330
3D5
102
}
100
AcDbDictionary
3
STANDARD
350
3D8
0
MLINESTYLE
5
3D8
102
{ACAD_REACTORS
330
3D7
102
}
100
AcDbMlineStyle
2
STANDARD
70
0
3

62
256
51
90.0
52
90.0
71
2
49
0.5
62
256
6
BYLAYER
49
-0.5
62
256
6
BYLAYER
0
ENDSEC
0
EOF
