  0
SECTION
  2
HEADER
  9
$ACADVER
  1
AC1015
  9
$DWGCODEPAGE
  3
ANSI_1252
  9
$EXTMAX
 10
297.0
 20
210.0
 30
0.0
  9
$EXTMIN
 10
0.0
 20
0.0
 30
0.0
  9
$LIMMIN
 10
0.0
 20
0.0
  9
$LIMMAX
 10
297.0
 20
210.0
  9
$VIEWCTR
 10
148.5
 20
105.0
  9
$VIEWSIZE
 40
210.0
  9
$CLAYER
  8
0
  9
$LTSCALE
 40
16.335
  9
$CELTYPE
  6
BYLAYER
  9
$DIMSCALE
 40
1.0
  9
$DIMASZ
 40
3.0
  9
$DIMEXO
 40
1.85625
  9
$DIMDLI
 40
11.286
  9
$DIMEXE
 40
5.346
  9
$DIMCEN
 40
2.673
  9
$DIMLFAC
 40
1.0
  9
$DIMBLK
  1
_FILLED
  9
$DIMTXT
 40
3.0
  9
$DIMTOL
 70
1
  9
$DIMLIM
 70
0
  9
$DIMTFAC
 40
1.0
  9
$DIMTP
 40
0.01
  9
$DIMTM
 40
0.01
  9
$PDMODE
 70
3
  9
$PDSIZE
 40
3.0
  9
$HANDSEED
  5
491
  9
$TILEMODE
 70
1
  9
$MEASUREMENT
 70
1
  9
$INSUNITS
 70
4
  0
ENDSEC
  0
SECTION
  2
CLASSES
  0
CLASS
  1
ACDBDICTIONARYWDFLT
  2
AcDbDictionaryWithDefault
  3
AutoCAD 2000
 90
0
280
0
281
0
  0
CLASS
  1
ACDBPLACEHOLDER
  2
AcDbPlaceHolder
  3
AutoCAD 2000
 90
0
280
0
281
0
  0
CLASS
  1
LAYOUT
  2
AcDbLayout
  3
AutoCAD 2000
 90
0
280
0
281
0
  0
ENDSEC
  0
SECTION
  2
TABLES
  0
TABLE
  2
VPORT
  5
8
100
AcDbSymbolTable
 70
2
  0
VPORT
  5
1F4
100
AcDbSymbolTableRecord
100
AcDbViewportTableRecord
  2
*ACTIVE
 70
0
 10
0.0
 20
0.0
 11
1.0
 21
1.0
 12
148.5
 22
105.0
 13
0.0
 23
0.0
 14
1.0
 24
1.0
 15
0.0
 25
0.0
 16
0.0
 26
0.0
 36
1.0
 17
0.0
 27
0.0
 37
0.0
 40
210.0
 41
1.4142857143
 42
50.0
 43
0.0
 44
0.0
 50
0.0
 51
0.0
 71
0
 72
100
 73
1
 74
1
 75
0
 76
0
 77
0
 78
0
  0
ENDTAB
  0
TABLE
  2
LTYPE
  5
5
100
AcDbSymbolTable
 70
6
  0
LTYPE
  5
14
100
AcDbSymbolTableRecord
100
AcDbLinetypeTableRecord
  2
BYBLOCK
 70
0
  3

 72
65
 73
0
 40
0.0
  0
LTYPE
  5
15
100
AcDbSymbolTableRecord
100
AcDbLinetypeTableRecord
  2
BYLAYER
 70
0
  3

 72
65
 73
0
 40
0.0
  0
LTYPE
  5
16
100
AcDbSymbolTableRecord
100
AcDbLinetypeTableRecord
  2
CONTINUOUS
 70
64
  3
Solid line
 72
65
 73
0
 40
0.0
  0
LTYPE
  5
1F5
100
AcDbSymbolTableRecord
100
AcDbLinetypeTableRecord
  2
CENTER
 70
64
  3
____ _ ____ _ ____ _ ____ _ ____ _ ____ _ ____
 72
65
 73
4
 40
0.6
 49
0.375
 74
0
 49
-0.075
 74
0
 49
0.075
 74
0
 49
-0.075
 74
0
  0
LTYPE
  5
1F6
100
AcDbSymbolTableRecord
100
AcDbLinetypeTableRecord
  2
HIDDEN
 70
64
  3
- - - - - - - - - - - - - - - - - - - -
 72
65
 73
2
 40
0.2
 49
0.1
 74
0
 49
-0.1
 74
0
  0
LTYPE
  5
1F7
100
AcDbSymbolTableRecord
100
AcDbLinetypeTableRecord
  2
PHANTOM
 70
64
  3
_____ _ _ _____ _ _ _____ _ _ _____
 72
65
 73
6
 40
0.8
 49
0.45
 74
0
 49
-0.05
 74
0
 49
0.1
 74
0
 49
-0.05
 74
0
 49
0.1
 74
0
 49
-0.05
 74
0
  0
LTYPE
  5
1F8
100
AcDbSymbolTableRecord
100
AcDbLinetypeTableRecord
  2
DOT
 70
64
  3
. . . . . . . . . . . . . . . . . . . .
 72
65
 73
2
 40
0.2
 49
0.1
 74
0
 49
-0.1
 74
0
  0
LTYPE
  5
1F9
100
AcDbSymbolTableRecord
100
AcDbLinetypeTableRecord
  2
DASHED
 70
64
  3
- - - - - - - - - - - - - - - - - - - -
 72
65
 73
2
 40
0.2
 49
0.1
 74
0
 49
-0.1
 74
0
  0
ENDTAB
  0
TABLE
  2
LAYER
  5
2
100
AcDbSymbolTable
 70
36
  0
LAYER
  5
10
100
AcDbSymbolTableRecord
100
AcDbLayerTableRecord
  2
0
 70
0
 62
7
  6
CONTINUOUS
370
-3
390
F
  0
LAYER
  5
1FA
100
AcDbSymbolTableRecord
100
AcDbLayerTableRecord
  2
DEFAULT_1
 70
0
 62
7
  6
CENTER
370
-3
390
F
  0
LAYER
  5
1FB
100
AcDbSymbolTableRecord
100
AcDbLayerTableRecord
  2
DEFAULT_2
 70
0
 62
7
  6
HIDDEN
370
-3
390
F
  0
LAYER
  5
1FC
100
AcDbSymbolTableRecord
100
AcDbLayerTableRecord
  2
DEFAULT_3
 70
0
 62
7
  6
PHANTOM
370
-3
390
F
  0
LAYER
  5
1FD
100
AcDbSymbolTableRecord
100
AcDbLayerTableRecord
  2
ASSI
 70
0
 62
7
  6
CONTINUOUS
370
-3
390
F
  0
LAYER
  5
1FE
100
AcDbSymbolTableRecord
100
AcDbLayerTableRecord
  2
COORDINATE
 70
0
 62
7
  6
CONTINUOUS
370
-3
390
F
  0
LAYER
  5
1FF
100
AcDbSymbolTableRecord
100
AcDbLayerTableRecord
  2
COORD_ORIGINE
 70
0
 62
7
  6
CONTINUOUS
370
-3
390
F
  0
LAYER
  5
200
100
AcDbSymbolTableRecord
100
AcDbLayerTableRecord
  2
COSMETICI
 70
0
 62
7
  6
CONTINUOUS
370
-3
390
F
  0
LAYER
  5
201
100
AcDbSymbolTableRecord
100
AcDbLayerTableRecord
  2
CURVE
 70
0
 62
7
  6
CONTINUOUS
370
-3
390
F
  0
LAYER
  5
202
100
AcDbSymbolTableRecord
100
AcDbLayerTableRecord
  2
DRAFT
 70
0
 62
7
  6
CONTINUOUS
370
-3
390
F
  0
LAYER
  5
203
100
AcDbSymbolTableRecord
100
AcDbLayerTableRecord
  2
NOTE
 70
0
 62
7
  6
CONTINUOUS
370
-3
390
F
  0
LAYER
  5
204
100
AcDbSymbolTableRecord
100
AcDbLayerTableRecord
  2
PIANI
 70
0
 62
7
  6
CONTINUOUS
370
-3
390
F
  0
LAYER
  5
205
100
AcDbSymbolTableRecord
100
AcDbLayerTableRecord
  2
PIANI_ORIGINE
 70
0
 62
7
  6
CONTINUOUS
370
-3
390
F
  0
LAYER
  5
206
100
AcDbSymbolTableRecord
100
AcDbLayerTableRecord
  2
PUNTI
 70
0
 62
7
  6
CONTINUOUS
370
-3
390
F
  0
LAYER
  5
207
100
AcDbSymbolTableRecord
100
AcDbLayerTableRecord
  2
RACCORDO
 70
0
 62
7
  6
CONTINUOUS
370
-3
390
F
  0
LAYER
  5
208
100
AcDbSymbolTableRecord
100
AcDbLayerTableRecord
  2
SNAPLINE
 70
0
 62
7
  6
CONTINUOUS
370
-3
390
F
  0
LAYER
  5
209
100
AcDbSymbolTableRecord
100
AcDbLayerTableRecord
  2
TRASH
 70
0
 62
7
  6
CONTINUOUS
370
-3
390
F
  0
LAYER
  5
20A
100
AcDbSymbolTableRecord
100
AcDbLayerTableRecord
  2
XSEC_DATUMS
 70
0
 62
7
  6
CONTINUOUS
370
-3
390
F
  0
ENDTAB
  0
TABLE
  2
STYLE
  5
3
100
AcDbSymbolTable
 70
1
  0
STYLE
  5
11
100
AcDbSymbolTableRecord
100
AcDbTextStyleTableRecord
  2
STANDARD
 70
0
 40
0.0
 41
0.8
 50
0.0
 71
0
 42
0.2
  3
txt
  4

  0
STYLE
  5
20B
100
AcDbSymbolTableRecord
100
AcDbTextStyleTableRecord
  2
TEXTSTYLE_1
 70
0
 40
0.0
 41
0.8
 50
0.0
 71
0
 42
0.2
  3
gdt
  4

  0
ENDTAB
  0
TABLE
  2
VIEW
  5
6
100
AcDbSymbolTable
 70
0
  0
ENDTAB
  0
TABLE
  2
UCS
  5
7
100
AcDbSymbolTable
 70
0
  0
ENDTAB
  0
TABLE
  2
APPID
  5
9
100
AcDbSymbolTable
 70
1
  0
APPID
  5
20C
100
AcDbSymbolTableRecord
100
AcDbRegAppTableRecord
  2
ACAD
 70
0
  0
ENDTAB
  0
TABLE
  2
BLOCK_RECORD
  5
1
100
AcDbSymbolTable
 70
0
  0
BLOCK_RECORD
  5
20D
100
AcDbSymbolTableRecord
100
AcDbBlockTableRecord
  2
*Model_Space
  0
BLOCK_RECORD
  5
20E
100
AcDbSymbolTableRecord
100
AcDbBlockTableRecord
  2
*Paper_Space
  0
ENDTAB
  0
TABLE
  2
DIMSTYLE
  5
A
100
AcDbSymbolTable
 70
1
100
AcDbDimStyleTable
 71
0
  0
DIMSTYLE
105
20F
100
AcDbSymbolTableRecord
100
AcDbDimStyleTableRecord
  2
STANDARD
 70
0
  3

  4

 40
1.0
 41
3.0
 42
0.0625
 43
0.38
 44
0.18
 45
0.0
 46
0.0
 47
0.01
 48
0.01
140
3.0
141
0.09
142
0.0
143
25.4
144
1.0
145
0.0
146
1.0
147
0.09
 71
1.0
 72
0.0
 73
0
 74
0
 75
0
 76
0
 77
1
 78
8
170
0
171
2
172
0
173
0
174
0
175
0
176
0
177
0
178
0
270
2
271
2
272
2
273
2
274
2
275
0
280
0
281
0
282
0
283
1
284
8
285
0
286
0
287
3
288
0
340
11
  0
ENDTAB
  0
ENDSEC
  0
SECTION
  2
BLOCKS
  0
BLOCK
  5
20
100
AcDbEntity
  8
0
100
AcDbBlockBegin
  2
*Model_Space
 70
0
 10
0.0
 20
0.0
 30
0.0
  3
*Model_Space
  1

  0
ENDBLK
  5
21
100
AcDbEntity
  8
0
100
AcDbBlockEnd
  0
BLOCK
  5
1C
100
AcDbEntity
  8
0
100
AcDbBlockBegin
  2
*Paper_Space
 70
0
 10
0.0
 20
0.0
 30
0.0
  3
*Paper_Space
  1

  0
ENDBLK
  5
1D
100
AcDbEntity
  8
0
100
AcDbBlockEnd
  0
ENDSEC
  0
SECTION
  2
ENTITIES
  0
LINE
  5
210
100
AcDbEntity
  8
RACCORDO
100
AcDbLine
 62
7
  6
CONTINUOUS
 10
106.4631034012
 20
176.9722260517
 11
107.8880179085
 21
177.7099971352
  0
LINE
  5
211
100
AcDbEntity
  8
RACCORDO
100
AcDbLine
 62
253
  6
CONTINUOUS
 10
106.5780508597
 20
176.9667254618
 11
108.0010296426
 21
177.7034942946
  0
LWPOLYLINE
  5
212
100
AcDbEntity
  8
RACCORDO
100
AcDbPolyline
 62
253
  6
CONTINUOUS
 90
19
 70
0
 10
106.4631034012
 20
176.9722260517
 10
106.4643150772
 20
176.9728426889
 10
106.4700164046
 20
176.9754673767
 10
106.4758929644
 20
176.977726711
 10
106.4819352246
 20
176.9796170272
 10
106.4881333847
 20
176.981135259
 10
106.4944773913
 20
176.9822789441
 10
106.5009569544
 20
176.9830462273
 10
106.507561564
 20
176.983435864
 10
106.5142805076
 20
176.9834472223
 10
106.5211028869
 20
176.9830802837
 10
106.528017636
 20
176.9823356435
 10
106.5350135392
 20
176.9812145094
 10
106.5420792491
 20
176.9797187
 10
106.549203305
 20
176.9778506413
 10
106.5563741519
 20
176.9756133635
 10
106.5635801584
 20
176.9730104954
 10
106.5708096364
 20
176.9700462588
 10
106.5780508597
 20
176.9667254618
  0
LINE
  5
213
100
AcDbEntity
  8
RACCORDO
100
AcDbLine
 62
253
  6
CONTINUOUS
 10
109.0616359583
 20
177.1731911368
 11
107.5880982927
 21
176.4617017453
  0
LWPOLYLINE
  5
214
100
AcDbEntity
  8
RACCORDO
100
AcDbPolyline
 62
253
  6
CONTINUOUS
 90
112
 70
0
 10
107.5880982927
 20
176.4617017453
 10
107.5735094945
 20
176.4548530521
 10
107.5585661501
 20
176.4482205071
 10
107.5432682595
 20
176.4418041103
 10
107.5276029437
 20
176.435599003
 10
107.5115830816
 20
176.4296100439
 10
107.4952473107
 20
176.423851809
 10
107.4785951809
 20
176.4183249922
 10
107.4616271422
 20
176.4130288996
 10
107.4443831815
 20
176.4079760252
 10
107.4268627167
 20
176.4031669669
 10
107.4090663298
 20
176.3986011267
 10
107.3910357543
 20
176.3942892052
 10
107.3727704536
 20
176.3902317975
 10
107.3542709643
 20
176.3864283085
 10
107.3355806287
 20
176.3828876537
 10
107.316698948
 20
176.3796104419
 10
107.2976264212
 20
176.3765960644
 10
107.2784078872
 20
176.3738516107
 10
107.2590430324
 20
176.3713777207
 10
107.2395321706
 20
176.3691737546
 10
107.2199210817
 20
176.367244882
 10
107.2002095258
 20
176.3655917483
 10
107.1803977428
 20
176.364213708
 10
107.1605322331
 20
176.3631139941
 10
107.1406128866
 20
176.36229326
 10
107.1206398133
 20
176.3617508524
 10
107.100659844
 20
176.3614880439
 10
107.0806729309
 20
176.3615054914
 10
107.0606791217
 20
176.3618025382
 10
107.0407253895
 20
176.3623784869
 10
107.0208118587
 20
176.3632339918
 10
107.000938405
 20
176.3643683987
 10
106.9811516287
 20
176.3657790475
 10
106.9614517062
 20
176.3674665892
 10
106.9418384612
 20
176.3694303728
 10
106.9223579645
 20
176.3716657852
 10
106.9030105575
 20
176.3741734607
 10
106.8837958989
 20
176.376952765
 10
106.8647590355
 20
176.3799971827
 10
106.8459003529
 20
176.3833073419
 10
106.8272194655
 20
176.3868826144
 10
106.8087602632
 20
176.3907146005
 10
106.7905232985
 20
176.3948038963
 10
106.7725080189
 20
176.3991499056
 10
106.7547566573
 20
176.4037424405
 10
106.7372698024
 20
176.4085820882
 10
106.7200468653
 20
176.4136682615
 10
106.7031283123
 20
176.4189890102
 10
106.6865148884
 20
176.4245448753
 10
106.6702058485
 20
176.4303353159
 10
106.654239423
 20
176.4363467586
 10
106.6386163876
 20
176.4425797337
 10
106.6233359666
 20
176.449033711
 10
106.6084340639
 20
176.4556935258
 10
106.5939115956
 20
176.4625596493
 10
106.5797676455
 20
176.4696316104
 10
106.5660353689
 20
176.4768928317
 10
106.5527157074
 20
176.4843437715
 10
106.5398077194
 20
176.4919839716
 10
106.527341735
 20
176.4997954794
 10
106.5153188155
 20
176.5077786826
 10
106.5037378997
 20
176.5159331936
 10
106.4926261344
 20
176.5242398972
 10
106.4819846017
 20
176.5326991658
 10
106.4718122196
 20
176.541310627
 10
106.4621328882
 20
176.5500540476
 10
106.4529477825
 20
176.5589297221
 10
106.4442557276
 20
176.5679373561
 10
106.4360770997
 20
176.5770558332
 10
106.4284130909
 20
176.5862854296
 10
106.4212625091
 20
176.5956258692
 10
106.414642154
 20
176.6050552069
 10
106.4085532819
 20
176.6145736354
 10
106.4029946364
 20
176.624180962
 10
106.3979792487
 20
176.6338546634
 10
106.3935083871
 20
176.6435949102
 10
106.3895807831
 20
176.6534015318
 10
106.3862056632
 20
176.6632514926
 10
106.3833843292
 20
176.6731448808
 10
106.3811154791
 20
176.6830816081
 10
106.3794044332
 20
176.6930383745
 10
106.3782525
 20
176.7030152421
 10
106.3776583708
 20
176.7130121488
 10
106.3776234405
 20
176.7230056078
 10
106.3781490223
 20
176.7329955953
 10
106.3792338028
 20
176.7429821352
 10
106.3808752366
 20
176.7529418122
 10
106.3830746303
 20
176.7628745716
 10
106.3858306773
 20
176.7727804682
 10
106.3891369115
 20
176.7826362517
 10
106.3929946242
 20
176.792441802
 10
106.3974025242
 20
176.8021972393
 10
106.4023502723
 20
176.8118796734
 10
106.4078391484
 20
176.8214889473
 10
106.4138678727
 20
176.831025218
 10
106.4204222659
 20
176.8404660659
 10
106.4275035453
 20
176.8498112415
 10
106.4351104937
 20
176.8590609942
 10
106.4432252804
 20
176.8681936532
 10
106.4518490959
 20
176.8772089505
 10
106.4609807497
 20
176.886107154
 10
106.4705988402
 20
176.8948673967
 10
106.4807045626
 20
176.9034893875
 10
106.4912967217
 20
176.9119734175
 10
106.5023503302
 20
176.9202994931
 10
106.5138667473
 20
176.9284673741
 10
106.5258446139
 20
176.9364773008
 10
106.5382548649
 20
176.9443100002
 10
106.5510878121
 20
176.951959048
 10
106.5643531437
 20
176.9594308686
 10
106.5780508597
 20
176.9667254618
  0
LWPOLYLINE
  5
215
100
AcDbEntity
  8
RACCORDO
100
AcDbPolyline
 62
7
  6
CONTINUOUS
 90
30
 70
0
 10
102.8490418326
 20
173.801952791
 10
102.8408056386
 20
173.7974907593
 10
102.8327289619
 20
173.7927150345
 10
102.8248267024
 20
173.7876325707
 10
102.8171234727
 20
173.782258557
 10
102.8096225788
 20
173.7765950762
 10
102.8023088233
 20
173.7706273288
 10
102.7951773761
 20
173.7643436194
 10
102.7882657427
 20
173.7577694552
 10
102.7816204356
 20
173.7509476061
 10
102.7752841354
 20
173.7439286668
 10
102.7692312462
 20
173.7366918354
 10
102.7634098656
 20
173.7291701579
 10
102.7578036339
 20
173.7213229159
 10
102.7524675701
 20
173.713207103
 10
102.7474571543
 20
173.704901177
 10
102.7428062866
 20
173.6964708624
 10
102.7384913299
 20
173.6878841168
 10
102.734481536
 20
173.6790729924
 10
102.7307665694
 20
173.6699856303
 10
102.7273911006
 20
173.6607003933
 10
102.7244015694
 20
173.6513441946
 10
102.7218189958
 20
173.6420228027
 10
102.7196112424
 20
173.6326655726
 10
102.7177479299
 20
173.6231337191
 10
102.7162285718
 20
173.6133318616
 10
102.7150906821
 20
173.6033868902
 10
102.7143564335
 20
173.5934897181
 10
102.7140181161
 20
173.5837421156
 10
102.7139892912
 20
173.5799485395
  0
LINE
  5
216
100
AcDbEntity
  8
RACCORDO
100
AcDbLine
 62
7
  6
CONTINUOUS
 10
106.1275696144
 20
175.4994602423
 11
102.8490418326
 21
173.801952791
  0
LINE
  5
217
100
AcDbEntity
  8
RACCORDO
100
AcDbLine
 62
253
  6
CONTINUOUS
 10
106.1275696144
 20
175.4344438635
 11
102.9573845569
 21
173.7929986684
  0
LINE
  5
218
100
AcDbEntity
  8
RACCORDO
100
AcDbLine
 62
253
  6
CONTINUOUS
 10
109.2384395817
 20
176.8682829742
 11
107.7617628854
 21
176.1552779193
  0
LINE
  5
219
100
AcDbEntity
  8
ASSI
100
AcDbLine
 62
7
  6
CONTINUOUS
 10
115.0065907123
 20
178.5708706186
 11
109.2384395817
 21
175.7857512194
  0
LINE
  5
21A
100
AcDbEntity
  8
RACCORDO
100
AcDbLine
 62
7
  6
CONTINUOUS
 10
109.2384395817
 20
175.7857512194
 11
107.7617628854
 21
175.0727461646
  0
LWPOLYLINE
  5
21B
100
AcDbEntity
  8
0
100
AcDbPolyline
 62
7
  6
CONTINUOUS
 90
10
 70
0
 10
111.8647494141
 20
176.1960010781
 10
111.8820587154
 20
176.2042826944
 10
111.8993050319
 20
176.2117988778
 10
111.9164883637
 20
176.2185496284
 10
111.9336294757
 20
176.2245413007
 10
111.9507076028
 20
176.2297675401
 10
111.9676604506
 20
176.2342092833
 10
111.984467254
 20
176.2378601758
 10
112.001148778
 20
176.2407265721
 10
112.0177050226
 20
176.2428084722
  0
LWPOLYLINE
  5
21C
100
AcDbEntity
  8
RACCORDO
100
AcDbPolyline
 62
7
  6
CONTINUOUS
 90
87
 70
0
 10
107.7617628854
 20
175.0727461646
 10
107.7425927206
 20
175.0637402175
 10
107.7229689789
 20
175.0550109171
 10
107.7028916602
 20
175.0465582635
 10
107.6823446937
 20
175.0383762353
 10
107.6613441502
 20
175.0304708538
 10
107.6399382427
 20
175.0228601832
 10
107.6181268499
 20
175.0155451711
 10
107.5959100931
 20
175.0085248698
 10
107.5733365496
 20
175.0018145
 10
107.5504054847
 20
174.9954146987
 10
107.5271176331
 20
174.9893248289
 10
107.5035237761
 20
174.9835581999
 10
107.4796218951
 20
174.9781152783
 10
107.4554140087
 20
174.9729955974
 10
107.4309569541
 20
174.9682110671
 10
107.4062529798
 20
174.963762888
 10
107.3812998375
 20
174.9596498594
 10
107.3561476188
 20
174.9558802889
 10
107.3307917305
 20
174.9524543946
 10
107.3052367659
 20
174.9493719583
 10
107.2795465972
 20
174.9466406328
 10
107.2537260979
 20
174.9442616762
 10
107.2277703945
 20
174.9422338304
 10
107.2017287394
 20
174.9405609737
 10
107.1755951344
 20
174.9392435752
 10
107.1493755777
 20
174.9382811658
 10
107.1231373167
 20
174.9376762171
 10
107.09688633
 20
174.937429619
 10
107.0706166389
 20
174.9375404817
 10
107.044377556
 20
174.9380086069
 10
107.018163239
 20
174.9388349234
 10
106.99197953
 20
174.9400185025
 10
106.9658932683
 20
174.9415563598
 10
106.9399101965
 20
174.9434489357
 10
106.9140245719
 20
174.9456957899
 10
106.888286006
 20
174.9482926165
 10
106.8626898222
 20
174.9512407125
 10
106.8372406971
 20
174.9545387809
 10
106.8120022713
 20
174.9581786255
 10
106.7869793784
 20
174.9621603698
 10
106.7621671848
 20
174.9664838903
 10
106.73761483
 20
174.9711406198
 10
106.7133192005
 20
174.9761320018
 10
106.6892834098
 20
174.9814565929
 10
106.6655659385
 20
174.9871014955
 10
106.6421704497
 20
174.9930667283
 10
106.6190932803
 20
174.9993522726
 10
106.5963819216
 20
175.005945175
 10
106.5740349943
 20
175.0128467407
 10
106.5520538778
 20
175.0200556645
 10
106.5304902011
 20
175.0275550775
 10
106.5093462961
 20
175.0353451718
 10
106.488619831
 20
175.0434257553
 10
106.4683554392
 20
175.051779384
 10
106.4485535273
 20
175.0604068812
 10
106.4292136888
 20
175.0693074235
 10
106.4103793381
 20
175.0784610963
 10
106.3920515094
 20
175.0878685685
 10
106.3742291685
 20
175.0975291712
 10
106.3569526269
 20
175.107420983
 10
106.3402238061
 20
175.1175440467
 10
106.3240407847
 20
175.1278983195
 10
106.3084381101
 20
175.1384617519
 10
106.2934159214
 20
175.1492356776
 10
106.2789740796
 20
175.1602187629
 10
106.2651467151
 20
175.1713849564
 10
106.2519366461
 20
175.1827333993
 10
106.2393410544
 20
175.1942649505
 10
106.2273856166
 20
175.2059561343
 10
106.2160701963
 20
175.2178089522
 10
106.2053949299
 20
175.2298214028
 10
106.1953859025
 20
175.2419640065
 10
106.1860461383
 20
175.2542350418
 10
106.1773726133
 20
175.2666362303
 10
106.1693823406
 20
175.2791432573
 10
106.1620754626
 20
175.2917587001
 10
106.1554518369
 20
175.3044799814
 10
106.1495280497
 20
175.3172750545
 10
106.1443067679
 20
175.3301414307
 10
106.1397853245
 20
175.3430815987
 10
106.1359723052
 20
175.3560709771
 10
106.1328685451
 20
175.3691125772
 10
106.1304732092
 20
175.3822033877
 10
106.1287923776
 20
175.3953097929
 10
106.1278280773
 20
175.4084205875
 10
106.1275702011
 20
175.4195689295
  0
LWPOLYLINE
  5
21D
100
AcDbEntity
  8
RACCORDO
100
AcDbPolyline
 62
253
  6
CONTINUOUS
 90
85
 70
0
 10
107.7617628854
 20
176.1552779193
 10
107.7420878784
 20
176.1460404778
 10
107.7219037849
 20
176.1370820592
 10
107.7012264325
 20
176.1284096714
 10
107.6800721706
 20
176.1200301501
 10
107.6584574542
 20
176.1119499921
 10
107.636398801
 20
176.1041753699
 10
107.6139132537
 20
176.0967123079
 10
107.5910186314
 20
176.0895667378
 10
107.5677331058
 20
176.0827443344
 10
107.5440750202
 20
176.0762504657
 10
107.520062811
 20
176.0700901861
 10
107.4957152369
 20
176.0642683061
 10
107.4710513834
 20
176.0587893881
 10
107.446090556
 20
176.0536577197
 10
107.4208522104
 20
176.0488773023
 10
107.395356044
 20
176.0444518723
 10
107.3696220926
 20
176.0403849129
 10
107.3436706213
 20
176.0366796281
 10
107.3175219998
 20
176.033338924
 10
107.2911966697
 20
176.03036541
 10
107.2647152381
 20
176.0277614131
 10
107.2380984411
 20
176.0255289717
 10
107.211367134
 20
176.0236698346
 10
107.1845422614
 20
176.0221854579
 10
107.1576448565
 20
176.0210770041
 10
107.1306959663
 20
176.0203453393
 10
107.1037166406
 20
176.0199910355
 10
107.0767279693
 20
176.0200143721
 10
107.0497511348
 20
176.0204153333
 10
107.0228073363
 20
176.0211936044
 10
106.9959177191
 20
176.0223485723
 10
106.9691033044
 20
176.0238793322
 10
106.9423850412
 20
176.0257846881
 10
106.9157838212
 20
176.0280631518
 10
106.8893205181
 20
176.0307129375
 10
106.8630159166
 20
176.0337319638
 10
106.8368906599
 20
176.0371178592
 10
106.8109651705
 20
176.0408679746
 10
106.7852596909
 20
176.044979382
 10
106.7597943137
 20
176.0494488703
 10
106.7345890305
 20
176.0542729332
 10
106.7096636498
 20
176.0594477798
 10
106.6850377368
 20
176.0649693452
 10
106.6607305358
 20
176.0708333119
 10
106.6367610228
 20
176.077035102
 10
106.6131479325
 20
176.0835698711
 10
106.589909805
 20
176.0904324911
 10
106.5670649049
 20
176.0976175681
 10
106.5446311652
 20
176.1051194588
 10
106.5226261142
 20
176.1129322988
 10
106.5010669272
 20
176.1210499898
 10
106.4799704545
 20
176.1294661907
 10
106.459353263
 20
176.1381742954
 10
106.4392315595
 20
176.1471674589
 10
106.4196211392
 20
176.156438618
 10
106.4005373223
 20
176.1659805262
 10
106.3819950036
 20
176.1757857362
 10
106.3640086763
 20
176.1858465877
 10
106.3465924662
 20
176.1961551833
 10
106.3297600641
 20
176.2067034194
 10
106.3135246815
 20
176.2174830127
 10
106.2978990012
 20
176.228485538
 10
106.2828952191
 20
176.2397024077
 10
106.2685250646
 20
176.2511248576
 10
106.254799824
 20
176.2627439213
 10
106.2417302853
 20
176.2745504663
 10
106.2293267045
 20
176.2865352226
 10
106.2175987706
 20
176.2986888229
 10
106.2065556393
 20
176.3110017792
 10
106.1962059456
 20
176.3234644695
 10
106.186557819
 20
176.3360671111
 10
106.1776188418
 20
176.3487997996
 10
106.1693960265
 20
176.3616525393
 10
106.1618957952
 20
176.3746152838
 10
106.1551240039
 20
176.3876779119
 10
106.1490859506
 20
176.4008302128
 10
106.1437863786
 20
176.4140618644
 10
106.1392294504
 20
176.4273624744
 10
106.1354187382
 20
176.440721606
 10
106.1323572178
 20
176.4541288132
 10
106.1300472813
 20
176.4675736217
 10
106.1284907385
 20
176.481045521
 10
106.1276888154
 20
176.4945339383
 10
106.1275696144
 20
176.5021148635
  0
LINE
  5
21E
100
AcDbEntity
  8
RACCORDO
100
AcDbLine
 62
7
  6
CONTINUOUS
 10
117.8384850569
 20
129.3836683859
 11
120.2409852394
 21
130.0337697326
  0
LINE
  5
21F
100
AcDbEntity
  8
RACCORDO
100
AcDbLine
 62
253
  6
CONTINUOUS
 10
117.9468496652
 20
129.5350720912
 11
120.324328561
 21
130.178402836
  0
LWPOLYLINE
  5
220
100
AcDbEntity
  8
RACCORDO
100
AcDbPolyline
 62
7
  6
CONTINUOUS
 90
28
 70
0
 10
108.6959979731
 20
174.4271726741
 10
108.6788265794
 20
174.4138223363
 10
108.6624389552
 20
174.4002745091
 10
108.6468198713
 20
174.3865362645
 10
108.6319564736
 20
174.372616094
 10
108.6178324396
 20
174.3585185141
 10
108.6044301056
 20
174.3442451307
 10
108.5917386704
 20
174.3298034513
 10
108.5797475271
 20
174.315200793
 10
108.5684440277
 20
174.3004411831
 10
108.5578210045
 20
174.2855350445
 10
108.5478710952
 20
174.2704928685
 10
108.5385856447
 20
174.2553232291
 10
108.5299600073
 20
174.2400416008
 10
108.5219879885
 20
174.2246622158
 10
108.5146617253
 20
174.2091968978
 10
108.5079774168
 20
174.1936675707
 10
108.5019275976
 20
174.1780908064
 10
108.4965013041
 20
174.162474574
 10
108.4916955812
 20
174.1468520871
 10
108.4874988336
 20
174.1312346644
 10
108.4838922813
 20
174.1155983265
 10
108.4808710937
 20
174.099967472
 10
108.4784279782
 20
174.0843617253
 10
108.4765492046
 20
174.0687481389
 10
108.4752311285
 20
174.053148328
 10
108.4744686456
 20
174.0375829268
 10
108.4742521828
 20
174.0237572203
  0
LWPOLYLINE
  5
221
100
AcDbEntity
  8
RACCORDO
100
AcDbPolyline
 62
7
  6
CONTINUOUS
 90
46
 70
0
 10
100.6964156948
 20
168.5393015352
 10
100.6811179784
 20
168.52779611
 10
100.6608607679
 20
168.5118655199
 10
100.6408905538
 20
168.4953643559
 10
100.6212141566
 20
168.4783081541
 10
100.6018385
 20
168.4607127062
 10
100.5827732671
 20
168.4425957956
 10
100.5640250787
 20
168.4239727119
 10
100.5456014011
 20
168.4048591179
 10
100.5275145627
 20
168.3852756
 10
100.5097716715
 20
168.3652380788
 10
100.4923798352
 20
168.3447618166
 10
100.4753516261
 20
168.3238689037
 10
100.4586946655
 20
168.3025761739
 10
100.4424155964
 20
168.2808985802
 10
100.4265254679
 20
168.2588576762
 10
100.4110333219
 20
168.2364726584
 10
100.395944041
 20
168.2137565443
 10
100.3812627138
 20
168.1907227259
 10
100.3669970678
 20
168.1673878599
 10
100.3531536969
 20
168.1437670726
 10
100.3397369393
 20
168.1198714565
 10
100.3267543508
 20
168.0957167073
 10
100.3142131035
 20
168.0713185667
 10
100.302118149
 20
168.0466877651
 10
100.2904771707
 20
168.0218398489
 10
100.2792975629
 20
167.9967905072
 10
100.268584885
 20
167.9715501693
 10
100.2583467208
 20
167.9461338518
 10
100.2485910025
 20
167.9205576286
 10
100.239324322
 20
167.8948330012
 10
100.2305538536
 20
167.8689733767
 10
100.2222884613
 20
167.8429963463
 10
100.214536794
 20
167.8169191021
 10
100.2073064691
 20
167.7907565438
 10
100.2006058581
 20
167.7645248076
 10
100.1944435377
 20
167.7382419875
 10
100.1888273094
 20
167.7119232853
 10
100.1837654146
 20
167.6855842917
 10
100.1792660412
 20
167.6592424377
 10
100.175337363
 20
167.6329136087
 10
100.1719875695
 20
167.6066125862
 10
100.1692247011
 20
167.580353148
 10
100.1670574167
 20
167.5541492514
 10
100.1654944307
 20
167.5280182137
 10
100.1647440585
 20
167.5091252363
  0
LINE
  5
222
100
AcDbEntity
  8
RACCORDO
100
AcDbLine
 62
7
  6
CONTINUOUS
 10
100.6964139914
 20
168.5393003286
 11
103.0127651793
 21
170.2477418405
  0
LINE
  5
223
100
AcDbEntity
  8
RACCORDO
100
AcDbLine
 62
253
  6
CONTINUOUS
 10
100.8141100315
 20
168.535973757
 11
103.1371445205
 21
170.2493445858
  0
LWPOLYLINE
  5
224
100
AcDbEntity
  8
RACCORDO
100
AcDbPolyline
 62
253
  6
CONTINUOUS
 90
21
 70
0
 10
100.6964156711
 20
168.5393015674
 10
100.6983162448
 20
168.5406545141
 10
100.7027983483
 20
168.5434880416
 10
100.7075099024
 20
168.5459897214
 10
100.7124432945
 20
168.5481555111
 10
100.7175905535
 20
168.5499819116
 10
100.7229433627
 20
168.5514659717
 10
100.7284930732
 20
168.5526052936
 10
100.7342307182
 20
168.5533980364
 10
100.7401470269
 20
168.5538429193
 10
100.7462324402
 20
168.5539392234
 10
100.7524771254
 20
168.5536867932
 10
100.7588709928
 20
168.5530860364
 10
100.7654037114
 20
168.5521379239
 10
100.7720647259
 20
168.5508439874
 10
100.7788432739
 20
168.5492063176
 10
100.7857284029
 20
168.5472275607
 10
100.7927089882
 20
168.5449109138
 10
100.7997737509
 20
168.5422601201
 10
100.8069112762
 20
168.5392794625
 10
100.8141100315
 20
168.535973757
  0
LINE
  5
225
100
AcDbEntity
  8
RACCORDO
100
AcDbLine
 62
7
  6
CONTINUOUS
 10
108.6961482302
 20
174.4272859598
 11
111.1848251575
 21
175.7158361595
  0
LINE
  5
226
100
AcDbEntity
  8
RACCORDO
100
AcDbLine
 62
7
  6
CONTINUOUS
 10
112.2480011296
 20
176.2663116335
 11
116.6673003944
 21
178.5544708107
  0
LINE
  5
227
100
AcDbEntity
  8
RACCORDO
100
AcDbLine
 62
7
  6
CONTINUOUS
 10
118.0153824287
 20
177.8804297936
 11
116.8620738792
 21
177.2832868115
  0
LINE
  5
228
100
AcDbEntity
  8
0
100
AcDbLine
 62
7
  6
CONTINUOUS
 10
111.5011812815
 20
176.0142170118
 11
111.8647494141
 21
176.1960010781
  0
LINE
  5
229
100
AcDbEntity
  8
RACCORDO
100
AcDbLine
 62
7
  6
CONTINUOUS
 10
109.8140858844
 20
173.8683171327
 11
111.4709579669
 21
174.6683285184
  0
LINE
  5
22A
100
AcDbEntity
  8
RACCORDO
100
AcDbLine
 62
7
  6
CONTINUOUS
 10
115.4592152517
 20
176.5940361639
 11
116.5216394279
 21
177.1070217144
  0
LINE
  5
22B
100
AcDbEntity
  8
RACCORDO
100
AcDbLine
 62
7
  6
CONTINUOUS
 10
114.5314151614
 20
175.4965340448
 11
114.1286668391
 21
175.3020692779
  0
LINE
  5
22C
100
AcDbEntity
  8
RACCORDO
100
AcDbLine
 62
7
  6
CONTINUOUS
 10
112.131814417
 20
174.3379002934
 11
109.8140858844
 21
173.2187980799
  0
LWPOLYLINE
  5
22D
100
AcDbEntity
  8
RACCORDO
100
AcDbPolyline
 62
7
  6
CONTINUOUS
 90
80
 70
0
 10
109.8140858844
 20
173.2187980799
 10
109.7969933025
 20
173.2107873055
 10
109.7794659237
 20
173.2030455872
 10
109.7615037482
 20
173.1955729248
 10
109.7430898467
 20
173.188363112
 10
109.7242411484
 20
173.1814223552
 10
109.7050084405
 20
173.1747692737
 10
109.6853913591
 20
173.1684048662
 10
109.665390268
 20
173.162328134
 10
109.6450570462
 20
173.1565547009
 10
109.624391109
 20
173.151085362
 10
109.6033930411
 20
173.1459193221
 10
109.5821164747
 20
173.1410698198
 10
109.5605590098
 20
173.1365373913
 10
109.5387230463
 20
173.1323215004
 10
109.5166694162
 20
173.1284337758
 10
109.4944008354
 20
173.1248755459
 10
109.471914588
 20
173.1216454822
 10
109.4492633575
 20
173.1187512292
 10
109.4264418173
 20
173.1161931435
 10
109.4034552941
 20
173.1139708684
 10
109.3803724513
 20
173.1120909776
 10
109.3571993204
 20
173.1105547751
 10
109.3339298701
 20
173.109360957
 10
109.3106146694
 20
173.1085121845
 10
109.2872461975
 20
173.1080091862
 10
109.2638319753
 20
173.1078512336
 10
109.2404451344
 20
173.1080388022
 10
109.2170939218
 20
173.1085726408
 10
109.1937700905
 20
173.1094520007
 10
109.1705220311
 20
173.1106751107
 10
109.1473412493
 20
173.1122434151
 10
109.1242362395
 20
173.1141554697
 10
109.1012808752
 20
173.1164051703
 10
109.0784845062
 20
173.1189924388
 10
109.0558377828
 20
173.1219173533
 10
109.0333865291
 20
173.1251740436
 10
109.0111221646
 20
173.1287647882
 10
108.9890532697
 20
173.1326873086
 10
108.9672514104
 20
173.1369288995
 10
108.9457263734
 20
173.1414885391
 10
108.924468372
 20
173.1463672492
 10
108.9035196115
 20
173.1515553897
 10
108.8828719026
 20
173.1570561031
 10
108.8625334346
 20
173.162866247
 10
108.8425709822
 20
173.1689667539
 10
108.8229943192
 20
173.1753555997
 10
108.8037936717
 20
173.1820348086
 10
108.7850064917
 20
173.188991385
 10
108.7666254271
 20
173.1962292934
 10
108.7486578302
 20
173.2037445693
 10
108.7311632099
 20
173.2115123237
 10
108.7141507424
 20
173.2195295906
 10
108.6976112516
 20
173.227799336
 10
108.6815767179
 20
173.2363055697
 10
108.666041209
 20
173.2450528798
 10
108.6510106572
 20
173.2540366783
 10
108.6365348404
 20
173.2632272106
 10
108.6226216877
 20
173.2726208006
 10
108.60926327
 20
173.2822211244
 10
108.5964855782
 20
173.2920094558
 10
108.5842845645
 20
173.3019906821
 10
108.5726642768
 20
173.312159916
 10
108.5616628499
 20
173.3224837705
 10
108.5512865688
 20
173.3329581507
 10
108.5415291486
 20
173.3435871515
 10
108.5324098694
 20
173.35434967
 10
108.5239266876
 20
173.3652505996
 10
108.5160816468
 20
173.376285047
 10
108.5089001577
 20
173.3874172293
 10
108.502386777
 20
173.3986428562
 10
108.496536948
 20
173.4099662179
 10
108.491362411
 20
173.4213644023
 10
108.4868630099
 20
173.4328420845
 10
108.4830389008
 20
173.4443945894
 10
108.4799022919
 20
173.4559849803
 10
108.4774560719
 20
173.46760901
 10
108.4756973521
 20
173.4792709256
 10
108.4746296748
 20
173.4909465319
 10
108.4742539106
 20
173.5031567481
  0
LINE
  5
22E
100
AcDbEntity
  8
RACCORDO
100
AcDbLine
 62
253
  6
CONTINUOUS
 10
119.7908858983
 20
126.4515903829
 11
102.7872125959
 21
134.9534270341
  0
LWPOLYLINE
  5
22F
100
AcDbEntity
  8
RACCORDO
100
AcDbPolyline
 62
7
  6
CONTINUOUS
 90
32
 70
0
 10
119.8558591948
 20
126.3163719327
 10
102.851059069
 20
134.8187755536
 10
102.8429247642
 20
134.8230840847
 10
102.8349536041
 20
134.8276897376
 10
102.8271470145
 20
134.8325925548
 10
102.8195127714
 20
134.8377895617
 10
102.8120660253
 20
134.8432723857
 10
102.8048194675
 20
134.8490332061
 10
102.7977850582
 20
134.8550638009
 10
102.7909719051
 20
134.8613576744
 10
102.7843881282
 20
134.8679090211
 10
102.7780435926
 20
134.8747100342
 10
102.7719484438
 20
134.8817519164
 10
102.7661111709
 20
134.8890271311
 10
102.7605406643
 20
134.8965271984
 10
102.7552465696
 20
134.9042418517
 10
102.7502380944
 20
134.9121603554
 10
102.7455240702
 20
134.9202713682
 10
102.7411118344
 20
134.9285650428
 10
102.7370079455
 20
134.9370324217
 10
102.7332192291
 20
134.9456635307
 10
102.7297533195
 20
134.9544454238
 10
102.7266173968
 20
134.9633642266
 10
102.7238174195
 20
134.9724073702
 10
102.7213587398
 20
134.9815624519
 10
102.7192465833
 20
134.9908153137
 10
102.7174853731
 20
135.0001522282
 10
102.7160787905
 20
135.0095604032
 10
102.715030103
 20
135.0190267309
 10
102.7143420042
 20
135.028540137
 10
102.7140171382
 20
135.0380840645
 10
102.7139892912
 20
135.041816851
  0
LINE
  5
230
100
AcDbEntity
  8
RACCORDO
100
AcDbLine
 62
253
  6
CONTINUOUS
 10
102.8521858936
 20
134.8182085833
 11
102.851059069
 21
134.8187755536
  0
LWPOLYLINE
  5
231
100
AcDbEntity
  8
RACCORDO
100
AcDbPolyline
 62
253
  6
CONTINUOUS
 90
25
 70
0
 10
119.8558591961
 20
126.3163719321
 10
119.8523591983
 20
126.3182152096
 10
119.8474293092
 20
126.3211455612
 10
119.8426675891
 20
126.3243820014
 10
119.8380806981
 20
126.3279200045
 10
119.8336750529
 20
126.3317546221
 10
119.8294568173
 20
126.3358804903
 10
119.8254318918
 20
126.3402918385
 10
119.8216059064
 20
126.3449824969
 10
119.8179842135
 20
126.3499459045
 10
119.8145718789
 20
126.3551751189
 10
119.8113736761
 20
126.3606628263
 10
119.8083940789
 20
126.3664013504
 10
119.8056372552
 20
126.3723826648
 10
119.8031070613
 20
126.3785984033
 10
119.8008070368
 20
126.3850398711
 10
119.7987403988
 20
126.3916980581
 10
119.7969100383
 20
126.3985636516
 10
119.7953185154
 20
126.4056270481
 10
119.7939680562
 20
126.4128783689
 10
119.7928605499
 20
126.4203074704
 10
119.7919975463
 20
126.4279039568
 10
119.7913802519
 20
126.4356572009
 10
119.7910095299
 20
126.4435563593
 10
119.7908858983
 20
126.4515903829
  0
LWPOLYLINE
  5
232
100
AcDbEntity
  8
RACCORDO
100
AcDbPolyline
 62
253
  6
CONTINUOUS
 90
24
 70
0
 10
102.8486858958
 20
134.8200518608
 10
102.8437560068
 20
134.8229822124
 10
102.8389942866
 20
134.8262186526
 10
102.8344073956
 20
134.8297566557
 10
102.8300017504
 20
134.8335912733
 10
102.8257835148
 20
134.8377171415
 10
102.8217585894
 20
134.8421284897
 10
102.817932604
 20
134.8468191482
 10
102.814310911
 20
134.8517825557
 10
102.8108985765
 20
134.8570117702
 10
102.8077003736
 20
134.8624994776
 10
102.8047207764
 20
134.8682380017
 10
102.8019639527
 20
134.874219316
 10
102.7994337588
 20
134.8804350545
 10
102.7971337343
 20
134.8868765223
 10
102.7950670964
 20
134.8935347093
 10
102.7932367358
 20
134.9004003028
 10
102.7916452129
 20
134.9074636993
 10
102.7902947537
 20
134.9147150202
 10
102.7891872475
 20
134.9221441216
 10
102.7883242438
 20
134.929740608
 10
102.7877069495
 20
134.9374938522
 10
102.7873362274
 20
134.9453930105
 10
102.7872125959
 20
134.9534270341
  0
LWPOLYLINE
  5
233
100
AcDbEntity
  8
RACCORDO
100
AcDbPolyline
 62
253
  6
CONTINUOUS
 90
199
 70
0
 10
108.6961482302
 20
174.4272859598
 10
108.6929595934
 20
174.4239767592
 10
108.6898334096
 20
174.4206658318
 10
108.6867696788
 20
174.4173531775
 10
108.6837686594
 20
174.4140385496
 10
108.6808300929
 20
174.4107221947
 10
108.6779532041
 20
174.4074048537
 10
108.6751380018
 20
174.4040865345
 10
108.6723844771
 20
174.4007672292
 10
108.6696918276
 20
174.3974476534
 10
108.6670600615
 20
174.3941278157
 10
108.6644891706
 20
174.3908077075
 10
108.6619783277
 20
174.3874880203
 10
108.6595275405
 20
174.3841687625
 10
108.6571368013
 20
174.3808499256
 10
108.6548052594
 20
174.3775321747
 10
108.652532922
 20
174.3742155186
 10
108.6503197819
 20
174.3708999486
 10
108.6481649675
 20
174.3675861032
 10
108.646068483
 20
174.3642739878
 10
108.6440303241
 20
174.3609635971
 10
108.6420496061
 20
174.3576555538
 10
108.6401263343
 20
174.3543498647
 10
108.6382605034
 20
174.3510465231
 10
108.6364512135
 20
174.3477461307
 10
108.6346984737
 20
174.3444487049
 10
108.6330022749
 20
174.3411542284
 10
108.6313616892
 20
174.3378632516
 10
108.6297767202
 20
174.3345757847
 10
108.6282473642
 20
174.3312918175
 10
108.6267726825
 20
174.3280118696
 10
108.6253526756
 20
174.3247359457
 10
108.6239873428
 20
174.3214640412
 10
108.6226757433
 20
174.3181966613
 10
108.6214178695
 20
174.3149337825
 10
108.620213729
 20
174.3116754283
 10
108.6190624039
 20
174.3084221757
 10
108.6179638965
 20
174.3051740125
 10
108.6169182046
 20
174.3019309509
 10
108.6159244043
 20
174.2986936034
 10
108.6149824946
 20
174.2954619244
 10
108.6140924766
 20
174.2922359596
 10
108.6132534298
 20
174.2890164584
 10
108.6124653761
 20
174.2858034467
 10
108.6117282937
 20
174.2825968987
 10
108.6110411971
 20
174.2793974862
 10
108.6104041117
 20
174.27620531
 10
108.6098170121
 20
174.2730202692
 10
108.6092788367
 20
174.2698427327
 10
108.6087895829
 20
174.2666727141
 10
108.6083492532
 20
174.2635101997
 10
108.6079567935
 20
174.2603555168
 10
108.6076121992
 20
174.2572086704
 10
108.6073154749
 20
174.2540696555
 10
108.6070655804
 20
174.2509387843
 10
108.6068625112
 20
174.2478160572
 10
108.6067062718
 20
174.2447014739
 10
108.6065958353
 20
174.2415953459
 10
108.606531198
 20
174.2384976796
 10
108.6065123637
 20
174.2354084686
 10
108.6065383168
 20
174.232328006
 10
108.6066090526
 20
174.2292563049
 10
108.6067245758
 20
174.2261933521
 10
108.6068838853
 20
174.2231394006
 10
108.6070869755
 20
174.220094456
 10
108.607333852
 20
174.2170585128
 10
108.6076235302
 20
174.2140318074
 10
108.6079560048
 20
174.2110143429
 10
108.6083312811
 20
174.2080061164
 10
108.6087483902
 20
174.2050073553
 10
108.6092073264
 20
174.2020180659
 10
108.6097080954
 20
174.199038242
 10
108.6102497453
 20
174.1960680928
 10
108.6108322702
 20
174.1931076244
 10
108.611455676
 20
174.1901568307
 10
108.6121190296
 20
174.1872159022
 10
108.6128223243
 20
174.1842848447
 10
108.6135655666
 20
174.1813636524
 10
108.6143478431
 20
174.1784524976
 10
108.6151691467
 20
174.1755513861
 10
108.6160294845
 20
174.1726603122
 10
108.6169279639
 20
174.1697794308
 10
108.617864576
 20
174.1669087509
 10
108.6188393298
 20
174.1640482634
 10
108.6198513592
 20
174.1611980959
 10
108.6209006578
 20
174.1583582496
 10
108.6219872319
 20
174.1555287234
 10
108.6231102355
 20
174.152709641
 10
108.6242696615
 20
174.1499010054
 10
108.6254655169
 20
174.1471028136
 10
108.6266969768
 20
174.1443151801
 10
108.6279640333
 20
174.1415381092
 10
108.6292666944
 20
174.1387715965
 10
108.6306041584
 20
174.1360157435
 10
108.6319764173
 20
174.1332705544
 10
108.6333834792
 20
174.1305360251
 10
108.6348245665
 20
174.1278122446
 10
108.6362996711
 20
174.1250992169
 10
108.6378088013
 20
174.1223969381
 10
108.639351204
 20
174.1197054861
 10
108.6409268705
 20
174.1170248651
 10
108.6425358096
 20
174.1143550709
 10
108.6441772954
 20
174.1116961678
 10
108.6458513164
 20
174.1090481633
 10
108.6475578841
 20
174.1064110498
 10
108.6492963079
 20
174.1037848693
 10
108.6510665816
 20
174.10116962
 10
108.6528687114
 20
174.0985653037
 10
108.6547020247
 20
174.0959719671
 10
108.6565665132
 20
174.0933896121
 10
108.6584621852
 20
174.0908182367
 10
108.6603883925
 20
174.0882578823
 10
108.6623451263
 20
174.0857085511
 10
108.6643323953
 20
174.0831702409
 10
108.6663495778
 20
174.0806429853
 10
108.6683966648
 20
174.0781267867
 10
108.6704736652
 20
174.0756216427
 10
108.6725799834
 20
174.0731275808
 10
108.6747156106
 20
174.0706446029
 10
108.6768805557
 20
174.068172707
 10
108.6790742495
 20
174.0657119147
 10
108.6812966819
 20
174.063262229
 10
108.683547863
 20
174.060823647
 10
108.6858272548
 20
174.0583961809
 10
108.6881348446
 20
174.0559798353
 10
108.690470645
 20
174.0535746056
 10
108.6928341552
 20
174.0511804902
 10
108.6952253703
 20
174.0487974858
 10
108.6976442952
 20
174.0464255957
 10
108.7000904439
 20
174.0440648281
 10
108.7025638081
 20
174.0417151835
 10
108.7050643961
 20
174.0393766613
 10
108.7075917471
 20
174.0370492685
 10
108.7101458524
 20
174.0347330055
 10
108.7127267206
 20
174.0324278717
 10
108.7153339166
 20
174.0301338725
 10
108.7179674318
 20
174.0278510079
 10
108.7206272748
 20
174.0255792778
 10
108.7233130357
 20
174.0233186865
 10
108.726024706
 20
174.0210692343
 10
108.7287622942
 20
174.0188309208
 10
108.7315254157
 20
174.0166037502
 10
108.7343140596
 20
174.0143877242
 10
108.7371282367
 20
174.0121828411
 10
108.7399675948
 20
174.0099890997
 10
108.7428321227
 20
174.0078065017
 10
108.7457218315
 20
174.0056350454
 10
108.7486364024
 20
174.0034747254
 10
108.7515758315
 20
174.0013255377
 10
108.7545401227
 20
173.9991874863
 10
108.7575289693
 20
173.9970605771
 10
108.7605423637
 20
173.9949448092
 10
108.7635803135
 20
173.9928401836
 10
108.7666425345
 20
173.9907467094
 10
108.7697290198
 20
173.9886643854
 10
108.7728397764
 20
173.9865932129
 10
108.7759745414
 20
173.9845332054
 10
108.7791333078
 20
173.9824843615
 10
108.7823160826
 20
173.9804466825
 10
108.7855226241
 20
173.9784201865
 10
108.7887529251
 20
173.9764048719
 10
108.7920069927
 20
173.9744007402
 10
108.7952846066
 20
173.9724078137
 10
108.7985857562
 20
173.9704260927
 10
108.8019104521
 20
173.9684555769
 10
108.805258505
 20
173.9664962875
 10
108.8086299064
 20
173.9645482235
 10
108.8120246649
 20
173.9626113859
 10
108.8154426167
 20
173.9606857994
 10
108.818883759
 20
173.9587714597
 10
108.8223480947
 20
173.9568683712
 10
108.825835469
 20
173.954976571
 10
108.8293458765
 20
173.9530960567
 10
108.8328793227
 20
173.9512268307
 10
108.8364356697
 20
173.9493689381
 10
108.8400149129
 20
173.9475223759
 10
108.843617057
 20
173.945687147
 10
108.8472419775
 20
173.9438633059
 10
108.8508896693
 20
173.9420508496
 10
108.8545601376
 20
173.9402497811
 10
108.8582532727
 20
173.938460163
 10
108.8619690694
 20
173.9366819927
 10
108.8657075329
 20
173.9349152727
 10
108.8694685694
 20
173.9331600739
 10
108.87325217
 20
173.9314163949
 10
108.8770583435
 20
173.9296842371
 10
108.8808870223
 20
173.9279636745
 10
108.8847382011
 20
173.9262547043
 10
108.8886118851
 20
173.9245573293
 10
108.8925080225
 20
173.9228716327
 10
108.8964266118
 20
173.9211976099
 10
108.9003676545
 20
173.9195352653
 10
108.9043311036
 20
173.9178846955
 10
108.9083169565
 20
173.9162458965
 10
108.9123252158
 20
173.9146188722
 10
108.9163558417
 20
173.9130037309
 10
108.920408833
 20
173.9114004681
 10
108.924484191
 20
173.9098090883
 10
108.9327018969
 20
173.9066623365
  0
LINE
  5
234
100
AcDbEntity
  8
0
100
AcDbLine
 62
7
  6
CONTINUOUS
 10
118.438972092
 20
176.4948377051
 11
118.0955833614
 21
176.3200497477
  0
LINE
  5
235
100
AcDbEntity
  8
0
100
AcDbLine
 62
7
  6
CONTINUOUS
 10
112.2789987408
 20
172.7098367213
 11
112.6793805848
 21
172.9136346869
  0
LINE
  5
236
100
AcDbEntity
  8
0
100
AcDbLine
 62
7
  6
CONTINUOUS
 10
116.0047180326
 20
174.6062614059
 11
116.6757069338
 21
174.9478008015
  0
LWPOLYLINE
  5
237
100
AcDbEntity
  8
ASSI
100
AcDbPolyline
 62
7
  6
CONTINUOUS
 90
20
 70
0
 10
118.0448320754
 20
173.3439866597
 10
118.0587456817
 20
173.3487311555
 10
118.0910764028
 20
173.3580522574
 10
118.1248892522
 20
173.3661939624
 10
118.1596221889
 20
173.3730209382
 10
118.195290592
 20
173.3785112095
 10
118.2318790823
 20
173.3826867516
 10
118.2687794819
 20
173.3854781581
 10
118.3059970042
 20
173.3868622937
 10
118.3435264357
 20
173.3868622937
 10
118.380743958
 20
173.3854781581
 10
118.4176443575
 20
173.3826867516
 10
118.4542328479
 20
173.3785112095
 10
118.4899012509
 20
173.3730209382
 10
118.5246341876
 20
173.3661939624
 10
118.5584470371
 20
173.3580522574
 10
118.5907777582
 20
173.3487311555
 10
118.6214390039
 20
173.3382757675
 10
118.6506181214
 20
173.3266409826
 10
118.6783151105
 20
173.3138268009
  0
LWPOLYLINE
  5
238
100
AcDbEntity
  8
RACCORDO
100
AcDbPolyline
 62
7
  6
CONTINUOUS
 90
40
 70
0
 10
119.7908858983
 20
129.4393780259
 10
119.7980829326
 20
129.4359211918
 10
119.8055263156
 20
129.4326195524
 10
119.8132160473
 20
129.4294731078
 10
119.8211667565
 20
129.4264768575
 10
119.8293638144
 20
129.423635802
 10
119.8377633352
 20
129.4209649426
 10
119.8463619276
 20
129.4184662639
 10
119.8551629827
 20
129.4161377814
 10
119.8641327881
 20
129.4139885425
 10
119.8732783995
 20
129.4120180807
 10
119.8825927611
 20
129.4102268625
 10
119.8920209928
 20
129.408625335
 10
119.9015557765
 20
129.4072155693
 10
119.9112044304
 20
129.4059954943
 10
119.9209340294
 20
129.4049693446
 10
119.9307540248
 20
129.4041372271
 10
119.9406549654
 20
129.4034990348
 10
119.9505755724
 20
129.4030586816
 10
119.9605062279
 20
129.402817425
 10
119.9704565498
 20
129.4027740074
 10
119.9803941138
 20
129.4029285704
 10
119.9903285803
 20
129.4032822873
 10
120.0002502889
 20
129.4038339847
 10
120.0100978336
 20
129.4045802842
 10
120.0198617683
 20
129.4055213752
 10
120.0295515391
 20
129.4066570682
 10
120.0391340782
 20
129.4079834168
 10
120.048616775
 20
129.4095024277
 10
120.0579922401
 20
129.411212094
 10
120.0672052372
 20
129.4131024493
 10
120.0762486952
 20
129.4151730885
 10
120.0851296852
 20
129.4174244166
 10
120.0938141839
 20
129.4198476816
 10
120.1023056512
 20
129.4224448383
 10
120.1106006271
 20
129.425213932
 10
120.1186547089
 20
129.4281403464
 10
120.1264530956
 20
129.4312192097
 10
120.134010588
 20
129.4344553937
 10
120.1413271863
 20
129.4378488985
  0
LWPOLYLINE
  5
239
100
AcDbEntity
  8
RACCORDO
100
AcDbPolyline
 62
7
  6
CONTINUOUS
 90
24
 70
0
 10
117.4137811347
 20
129.4183999163
 10
117.4238199079
 20
129.4135084055
 10
117.4404493605
 20
129.4059575208
 10
117.4573728678
 20
129.3989514762
 10
117.4745812645
 20
129.3924982817
 10
117.4920742132
 20
129.3866030858
 10
117.5098389239
 20
129.3812759138
 10
117.5278611855
 20
129.3765264042
 10
117.546139449
 20
129.3723604178
 10
117.5646597153
 20
129.3687871413
 10
117.5834085764
 20
129.3658151174
 10
117.602386611
 20
129.3634505371
 10
117.621580406
 20
129.3617017303
 10
117.6409764614
 20
129.3605766229
 10
117.6605767595
 20
129.3600824923
 10
117.6803686601
 20
129.3602273082
 10
117.7003387754
 20
129.3610185848
 10
117.7204895624
 20
129.3624649118
 10
117.7408084182
 20
129.3645744014
 10
117.7612837717
 20
129.3673546876
 10
117.7819214406
 20
129.3708165258
 10
117.8027157059
 20
129.3749700617
 10
117.8236474648
 20
129.3798221936
 10
117.8384813748
 20
129.3836674206
  0
LINE
  5
23A
100
AcDbEntity
  8
RACCORDO
100
AcDbLine
 62
7
  6
CONTINUOUS
 10
117.4138196507
 20
129.4183805404
 11
100.4939269193
 21
137.878326906
  0
LINE
  5
23B
100
AcDbEntity
  8
RACCORDO
100
AcDbLine
 62
7
  6
CONTINUOUS
 10
117.4137799643
 20
129.4184003858
 11
117.4138151611
 21
129.4183827851
  0
LINE
  5
23C
100
AcDbEntity
  8
RACCORDO
100
AcDbLine
 62
253
  6
CONTINUOUS
 10
117.1510772278
 20
129.9270670399
 11
100.237983716
 21
138.3836137957
  0
LWPOLYLINE
  5
23D
100
AcDbEntity
  8
RACCORDO
100
AcDbPolyline
 62
253
  6
CONTINUOUS
 90
33
 70
0
 10
100.4939313091
 20
137.8783247111
 10
100.482192572
 20
137.8844625276
 10
100.4682342169
 20
137.8924889579
 10
100.4546064427
 20
137.9011404541
 10
100.4413190406
 20
137.9104108124
 10
100.4283811892
 20
137.9202935697
 10
100.415802178
 20
137.9307816437
 10
100.4035910038
 20
137.9418675592
 10
100.3917560227
 20
137.953543629
 10
100.3803056865
 20
137.965801565
 10
100.369248242
 20
137.9786326078
 10
100.3585913264
 20
137.9920277534
 10
100.3483425764
 20
138.0059774607
 10
100.3385093402
 20
138.0204718111
 10
100.3290983821
 20
138.0355006468
 10
100.320116422
 20
138.0510533173
 10
100.3115699266
 20
138.0671187405
 10
100.3034648151
 20
138.0836855539
 10
100.2958069041
 20
138.1007419338
 10
100.2886016613
 20
138.1182758145
 10
100.2818540031
 20
138.1362749569
 10
100.2755687436
 20
138.1547266348
 10
100.2697504165
 20
138.1736177198
 10
100.2644030296
 20
138.1929349013
 10
100.2595303895
 20
138.2126645537
 10
100.2551360221
 20
138.2327926252
 10
100.2512229895
 20
138.2533047202
 10
100.2477941011
 20
138.2741861007
 10
100.2448517763
 20
138.295422151
 10
100.2423979862
 20
138.3169982808
 10
100.2404344668
 20
138.3388993755
 10
100.2389626866
 20
138.3611097857
 10
100.237983716
 20
138.3836137957
  0
LINE
  5
23E
100
AcDbEntity
  8
ASSI
100
AcDbLine
 62
7
  6
CONTINUOUS
 10
119.6776240209
 20
176.6136996002
 11
119.6948656038
 21
176.6256556744
  0
LINE
  5
23F
100
AcDbEntity
  8
ASSI
100
AcDbLine
 62
7
  6
CONTINUOUS
 10
119.6948656038
 20
176.6256556744
 11
119.7041593354
 21
176.6320054111
  0
LINE
  5
240
100
AcDbEntity
  8
ASSI
100
AcDbLine
 62
7
  6
CONTINUOUS
 10
119.7041593354
 20
176.6320054111
 11
119.711468581
 21
176.6369382776
  0
LWPOLYLINE
  5
241
100
AcDbEntity
  8
ASSI
100
AcDbPolyline
 62
7
  6
CONTINUOUS
 90
6
 70
0
 10
119.711468581
 20
176.6369382776
 10
119.7166269199
 20
176.6403548644
 10
119.7183404758
 20
176.6414685091
 10
119.7194533957
 20
176.6421673837
 10
119.7199357047
 20
176.6424440168
 10
119.7199535155
 20
176.6424480859
  0
LINE
  5
242
100
AcDbEntity
  8
RACCORDO
100
AcDbLine
 62
253
  6
CONTINUOUS
 10
125.3604741927
 20
136.4025732493
 11
127.9793493026
 21
136.8618371164
  0
LINE
  5
243
100
AcDbEntity
  8
RACCORDO
100
AcDbLine
 62
253
  6
CONTINUOUS
 10
125.3604741927
 20
136.8142561415
 11
127.8210132711
 21
137.2457531182
  0
LINE
  5
244
100
AcDbEntity
  8
RACCORDO
100
AcDbLine
 62
253
  6
CONTINUOUS
 10
127.6766474914
 20
137.3179360081
 11
125.3604741927
 21
136.9280517892
  0
LINE
  5
245
100
AcDbEntity
  8
RACCORDO
100
AcDbLine
 62
7
  6
CONTINUOUS
 10
127.5719449276
 20
137.3353671473
 11
125.3604741927
 21
136.9631076362
  0
LWPOLYLINE
  5
246
100
AcDbEntity
  8
RACCORDO
100
AcDbPolyline
 62
7
  6
CONTINUOUS
 90
19
 70
0
 10
127.5719449276
 20
137.3353671473
 10
127.5818870361
 20
137.3368698364
 10
127.5919892159
 20
137.3380500172
 10
127.6022368311
 20
137.3388943446
 10
127.6126396156
 20
137.3393910398
 10
127.6231543818
 20
137.3395258948
 10
127.633687215
 20
137.3392913707
 10
127.644199532
 20
137.338687589
 10
127.6546962607
 20
137.337713932
 10
127.6651516142
 20
137.3363721858
 10
127.6755457098
 20
137.3346653525
 10
127.6858664812
 20
137.3325962116
 10
127.6961024222
 20
137.3301677803
 10
127.7062321116
 20
137.327386303
 10
127.7162483628
 20
137.3242551589
 10
127.7261628472
 20
137.3207704563
 10
127.7359812371
 20
137.3169274465
 10
127.7456699087
 20
137.3127366238
 10
127.7559088358
 20
137.3078568308
  0
LWPOLYLINE
  5
247
100
AcDbEntity
  8
RACCORDO
100
AcDbPolyline
 62
253
  6
CONTINUOUS
 90
13
 70
0
 10
127.8210132711
 20
137.2457531182
 10
127.828426381
 20
137.2468491038
 10
127.8357570967
 20
137.2475755395
 10
127.8429957256
 20
137.2479314651
 10
127.8501326964
 20
137.24791641
 10
127.8571585736
 20
137.2475303945
 10
127.86406407
 20
137.2467739286
 10
127.8708400568
 20
137.2456480121
 10
127.8774775734
 20
137.2441541335
 10
127.883967841
 20
137.2422942687
 10
127.8903022785
 20
137.2400708769
 10
127.8964725109
 20
137.2374868981
 10
127.9002710066
 20
137.2356757454
  0
LINE
  5
248
100
AcDbEntity
  8
RACCORDO
100
AcDbLine
 62
7
  6
CONTINUOUS
 10
119.177595535
 20
129.7460232076
 11
119.7908858983
 21
129.4393780259
  0
LINE
  5
249
100
AcDbEntity
  8
DRAFT
100
AcDbLine
 62
7
  6
CONTINUOUS
 10
119.6364020415
 20
129.8701733449
 11
120.324328561
 21
129.5262100852
  0
LWPOLYLINE
  5
24A
100
AcDbEntity
  8
RACCORDO
100
AcDbPolyline
 62
253
  6
CONTINUOUS
 90
20
 70
0
 10
100.1648220753
 20
138.4708361769
 10
100.1653091037
 20
138.4656326204
 10
100.1661915915
 20
138.4604526051
 10
100.1674681389
 20
138.4553043474
 10
100.169136721
 20
138.4501960135
 10
100.1711946912
 20
138.4451357062
 10
100.1736387851
 20
138.4401314521
 10
100.1764651259
 20
138.4351911888
 10
100.1796692305
 20
138.4303227526
 10
100.1832460166
 20
138.4255338659
 10
100.1871898106
 20
138.4208321245
 10
100.1914943571
 20
138.4162249866
 10
100.1961528281
 20
138.4117197597
 10
100.2011578344
 20
138.4073235901
 10
100.2065014371
 20
138.403043451
 10
100.2121751603
 20
138.3988861315
 10
100.2181700043
 20
138.3948582259
 10
100.2244764602
 20
138.3909661232
 10
100.2310845247
 20
138.387215997
 10
100.2379837161
 20
138.3836137957
  0
LWPOLYLINE
  5
24B
100
AcDbEntity
  8
RACCORDO
100
AcDbPolyline
 62
7
  6
CONTINUOUS
 90
36
 70
0
 10
100.1647523169
 20
138.4724295081
 10
100.1655019039
 20
138.4542383363
 10
100.1670335484
 20
138.4298077599
 10
100.1691587549
 20
138.4056505066
 10
100.171879615
 20
138.3817645729
 10
100.1751952315
 20
138.3581744933
 10
100.1790988332
 20
138.3349314308
 10
100.1835880697
 20
138.3120435777
 10
100.1886602443
 20
138.2895209799
 10
100.19430203
 20
138.2674144576
 10
100.2005078738
 20
138.2457312024
 10
100.2072718475
 20
138.224479344
 10
100.2145733213
 20
138.2037077387
 10
100.2224028607
 20
138.1834225336
 10
100.2307509006
 20
138.1636295889
 10
100.2395893097
 20
138.1443740845
 10
100.2488992178
 20
138.1256706302
 10
100.2586716337
 20
138.1075121179
 10
100.2688883446
 20
138.0899097257
 10
100.2795285654
 20
138.0728759844
 10
100.2905818793
 20
138.0564048087
 10
100.3020455139
 20
138.0404818304
 10
100.3139047528
 20
138.0251118654
 10
100.3261441764
 20
138.0102992398
 10
100.3387616952
 20
137.9960328908
 10
100.3517420577
 20
137.9823186558
 10
100.3650700161
 20
137.9691613724
 10
100.3787446914
 20
137.9565518646
 10
100.3927502556
 20
137.9444963445
 10
100.4070713033
 20
137.9329999206
 10
100.4217087593
 20
137.9220548897
 10
100.4366470245
 20
137.9116670349
 10
100.4518698528
 20
137.9018418557
 10
100.4673784023
 20
137.8925740838
 10
100.4831627098
 20
137.8838663287
 10
100.4939728972
 20
137.8783040355
  0
LWPOLYLINE
  5
24C
100
AcDbEntity
  8
RACCORDO
100
AcDbPolyline
 62
253
  6
CONTINUOUS
 90
5
 70
0
 10
100.237983716
 20
138.3836137957
 10
100.205199854
 20
139.4416217127
 10
100.1749367427
 20
140.5010496039
 10
100.1471946451
 20
141.5618884168
 10
100.1399644064
 20
141.8664085579
  0
LWPOLYLINE
  5
24D
100
AcDbEntity
  8
RACCORDO
100
AcDbPolyline
 62
7
  6
CONTINUOUS
 90
5
 70
0
 10
100.0676405488
 20
141.9171900767
 10
100.0740964873
 20
141.6454084735
 10
100.101862942
 20
140.5841316388
 10
100.1321525827
 20
139.5242656974
 10
100.1647523142
 20
138.4724283472
  0
LWPOLYLINE
  5
24E
100
AcDbEntity
  8
RACCORDO
100
AcDbPolyline
 62
7
  6
CONTINUOUS
 90
18
 70
0
 10
100.1647440981
 20
167.5091272695
 10
100.1321296023
 20
166.4230187547
 10
100.1018425963
 20
165.3318348942
 10
100.0740785766
 20
164.2418489768
 10
100.0488378376
 20
163.1530714752
 10
100.0261205878
 20
162.0655114545
 10
100.0059270122
 20
160.9791773838
 10
99.9882572945
 20
159.8940779781
 10
99.9731115956
 20
158.8102228391
 10
99.9604900665
 20
157.7276217657
 10
99.9503928394
 20
156.6462841587
 10
99.9428199997
 20
155.5662191765
 10
99.937771623
 20
154.4874362518
 10
99.935247772
 20
153.4099445895
 10
99.9352484668
 20
152.3337533991
 10
99.9377737159
 20
151.2588721187
 10
99.9428235165
 20
150.1853099484
 10
99.9477161437
 20
149.4926999173
  0
LWPOLYLINE
  5
24F
100
AcDbEntity
  8
RACCORDO
100
AcDbPolyline
 62
253
  6
CONTINUOUS
 90
52
 70
0
 10
100.237983716
 20
167.4215620703
 10
100.2389626892
 20
167.4450711385
 10
100.2404344733
 20
167.4687924049
 10
100.2423979968
 20
167.4927090826
 10
100.24485179
 20
167.5168041034
 10
100.2477941162
 20
167.5410605664
 10
100.2512230054
 20
167.5654617606
 10
100.255136039
 20
167.5899906826
 10
100.2595304071
 20
167.6146297534
 10
100.2644030483
 20
167.6393612712
 10
100.2697504382
 20
167.6641676886
 10
100.2755687694
 20
167.6890315433
 10
100.2818540323
 20
167.7139351818
 10
100.2886016919
 20
167.7388609637
 10
100.295806935
 20
167.7637913273
 10
100.3034648461
 20
167.7887087166
 10
100.311569958
 20
167.8135956252
 10
100.3201164538
 20
167.838434386
 10
100.3290984147
 20
167.8632072367
 10
100.3385093741
 20
167.8878966528
 10
100.3483426123
 20
167.9124852398
 10
100.3585913646
 20
167.9369555216
 10
100.3692482832
 20
167.9612902554
 10
100.3803057313
 20
167.9854722397
 10
100.3917560705
 20
168.0094842081
 10
100.4035910539
 20
168.033309175
 10
100.4158022298
 20
168.0569303803
 10
100.428381242
 20
168.0803310947
 10
100.4413190933
 20
168.1034948667
 10
100.4546064946
 20
168.1264053043
 10
100.4682342684
 20
168.1490460194
 10
100.4821926236
 20
168.1714010358
 10
100.4964715737
 20
168.1934546087
 10
100.5110612904
 20
168.2151910037
 10
100.5259513313
 20
168.2365949426
 10
100.5411310046
 20
168.2576513006
 10
100.5565897811
 20
168.2783449327
 10
100.5723165122
 20
168.2986612024
 10
100.5882999778
 20
168.3185858724
 10
100.6045292536
 20
168.3381047978
 10
100.6209927294
 20
168.3572042743
 10
100.6376785763
 20
168.3758708142
 10
100.6545752939
 20
168.3940910379
 10
100.6716708154
 20
168.4118521822
 10
100.6889528349
 20
168.4291416888
 10
100.7064092747
 20
168.4459469887
 10
100.7240274408
 20
168.462256128
 10
100.7417948637
 20
168.4780578144
 10
100.7596996303
 20
168.4933409857
 10
100.777729183
 20
168.508094895
 10
100.7958703191
 20
168.522309151
 10
100.8141100315
 20
168.535973757
  0
LINE
  5
250
100
AcDbEntity
  8
RACCORDO
100
AcDbLine
 62
253
  6
CONTINUOUS
 10
117.8892032433
 20
171.3010966169
 11
118.0473125066
 21
171.3801512486
  0
LINE
  5
251
100
AcDbEntity
  8
0
100
AcDbLine
 62
7
  6
CONTINUOUS
 10
119.9864626557
 20
171.7715763247
 11
120.3500307883
 21
171.953360391
  0
LINE
  5
252
100
AcDbEntity
  8
0
100
AcDbLine
 62
7
  6
CONTINUOUS
 10
119.9864626557
 20
171.4251661631
 11
120.3500307883
 21
171.6069502294
  0
LINE
  5
253
100
AcDbEntity
  8
0
100
AcDbLine
 62
7
  6
CONTINUOUS
 10
123.7158195811
 20
173.5099316378
 11
124.0653954961
 21
173.6816260031
  0
LWPOLYLINE
  5
254
100
AcDbEntity
  8
0
100
AcDbPolyline
 62
7
  6
CONTINUOUS
 90
10
 70
0
 10
120.3500307883
 20
171.953360391
 10
120.3673400896
 20
171.9616420072
 10
120.3845864062
 20
171.9691581907
 10
120.401769738
 20
171.9759089413
 10
120.4189108499
 20
171.9819006136
 10
120.4359889771
 20
171.987126853
 10
120.4529418248
 20
171.9915685962
 10
120.4697486283
 20
171.9952194887
 10
120.4864301523
 20
171.998085885
 10
120.5029863969
 20
172.0001677851
  0
LWPOLYLINE
  5
255
100
AcDbEntity
  8
0
100
AcDbPolyline
 62
7
  6
CONTINUOUS
 90
10
 70
0
 10
120.3500307883
 20
171.6069502294
 10
120.3574490603
 20
171.6104994936
 10
120.3648403388
 20
171.613720715
 10
120.3722046239
 20
171.6166138939
 10
120.3795508147
 20
171.6191817534
 10
120.3868700121
 20
171.6214215703
 10
120.3941355182
 20
171.6233251745
 10
120.401338434
 20
171.6248898428
 10
120.4084876586
 20
171.6261182983
 10
120.415583192
 20
171.6270105412
  0
LWPOLYLINE
  5
256
100
AcDbEntity
  8
RACCORDO
100
AcDbPolyline
 62
7
  6
CONTINUOUS
 90
12
 70
0
 10
117.9406359567
 20
171.3944362641
 10
117.9481410794
 20
171.3976918082
 10
117.955406377
 20
171.3999853651
 10
117.962959458
 20
171.4015682264
 10
117.9707970702
 20
171.4024484238
 10
117.9788299697
 20
171.4026159346
 10
117.9870603886
 20
171.4020626128
 10
117.9954860948
 20
171.4007966046
 10
118.0040111479
 20
171.3988323254
 10
118.0126035678
 20
171.3961745804
 10
118.0212953348
 20
171.3928185645
 10
118.0300864486
 20
171.3887642776
  0
LWPOLYLINE
  5
257
100
AcDbEntity
  8
0
100
AcDbPolyline
 62
7
  6
CONTINUOUS
 90
5
 70
0
 10
100.505670834
 20
141.6479768662
 10
100.6456392815
 20
141.5830921605
 10
100.7842043194
 20
141.5286570644
 10
100.9213659478
 20
141.4846715778
 10
101.0303960708
 20
141.4569538439
  0
LWPOLYLINE
  5
258
100
AcDbEntity
  8
RACCORDO
100
AcDbPolyline
 62
253
  6
CONTINUOUS
 90
21
 70
0
 10
100.1647313026
 20
167.5086513709
 10
100.1648220998
 20
167.5039178161
 10
100.1653091289
 20
167.4991801741
 10
100.1661916173
 20
167.4944459597
 10
100.1674681652
 20
167.4897226822
 10
100.1691367477
 20
167.4850178336
 10
100.1711947183
 20
167.4803388768
 10
100.1736388125
 20
167.4756932336
 10
100.1764651535
 20
167.4710882726
 10
100.1796692583
 20
167.4665312984
 10
100.1832460444
 20
167.4620295392
 10
100.1871898385
 20
167.4575901355
 10
100.1914943849
 20
167.4532201292
 10
100.1961528558
 20
167.4489264519
 10
100.2011578619
 20
167.4447159142
 10
100.2065014644
 20
167.4405951949
 10
100.2121751873
 20
167.4365708301
 10
100.218170031
 20
167.4326492033
 10
100.2244764864
 20
167.428836535
 10
100.2310845504
 20
167.4251388727
 10
100.2379837413
 20
167.4215620817
  0
LWPOLYLINE
  5
259
100
AcDbEntity
  8
RACCORDO
100
AcDbPolyline
 62
253
  6
CONTINUOUS
 90
18
 70
0
 10
100.0200233051
 20
149.5338997619
 10
100.016038451
 20
150.0983020885
 10
100.0109935947
 20
151.1714299761
 10
100.008471155
 20
152.2458776384
 10
100.008471155
 20
153.3216358966
 10
100.0109935947
 20
154.3986955667
 10
100.016038451
 20
155.4770474492
 10
100.0236056813
 20
156.5566823316
 10
100.0336952233
 20
157.6375909939
 10
100.0463069882
 20
158.7197642049
 10
100.0614408674
 20
159.8031927194
 10
100.0790967365
 20
160.8878672807
 10
100.0992744407
 20
161.973778624
 10
100.1219738058
 20
163.0609174747
 10
100.1471946451
 20
164.1492745453
 10
100.1749367427
 20
165.2388405399
 10
100.205199854
 20
166.3296061534
 10
100.237983716
 20
167.4215620703
  0
LINE
  5
25A
100
AcDbEntity
  8
0
100
AcDbLine
 62
7
  6
CONTINUOUS
 10
98.7990249806
 20
147.9344183034
 11
98.7970013881
 21
147.9295567601
  0
LWPOLYLINE
  5
25B
100
AcDbEntity
  8
0
100
AcDbPolyline
 62
7
  6
CONTINUOUS
 90
36
 70
0
 10
98.3222229547
 20
146.873508241
 10
98.3075352292
 20
146.8400248716
 10
98.2561474806
 20
146.7074179627
 10
98.2124311647
 20
146.5675556377
 10
98.1763093632
 20
146.4205106436
 10
98.1481466926
 20
146.2677672656
 10
98.1280237642
 20
146.1092677892
 10
98.1158599667
 20
145.9450699289
 10
98.1117780826
 20
145.7768311118
 10
98.1158599667
 20
145.6045104107
 10
98.1280237642
 20
145.4281487528
 10
98.1481466926
 20
145.2495263482
 10
98.1763093632
 20
145.0686202994
 10
98.2124311647
 20
144.8854535039
 10
98.2561474806
 20
144.701874863
 10
98.3075352292
 20
144.5178802054
 10
98.3665174922
 20
144.3334737025
 10
98.4324988974
 20
144.1505167695
 10
98.5055503333
 20
143.9690240877
 10
98.5856009114
 20
143.7889809758
 10
98.6718425944
 20
143.6122048044
 10
98.7643380866
 20
143.4387286617
 10
98.8630246837
 20
143.2685194596
 10
98.9669062345
 20
143.1032953044
 10
99.0760353544
 20
142.9431066855
 10
99.190359428
 20
142.7879031137
 10
99.3087244583
 20
142.639251227
 10
99.4311713727
 20
142.4972173822
 10
99.5576592438
 20
142.3617352226
 10
99.6869112921
 20
142.2341723169
 10
99.8189555135
 20
142.1146088725
 10
99.9537639121
 20
142.0029646821
 10
100.0899757202
 20
141.9003666916
 10
100.2271373486
 20
141.8071905498
 10
100.3657023866
 20
141.723060608
 10
100.505670834
 20
141.6479768662
  0
LINE
  5
25C
100
AcDbEntity
  8
RACCORDO
100
AcDbLine
 62
7
  6
CONTINUOUS
 10
118.8123543512
 20
169.3691828993
 11
125.2897635146
 21
172.7229596711
  0
LINE
  5
25D
100
AcDbEntity
  8
0
100
AcDbLine
 62
253
  6
CONTINUOUS
 10
119.7743306214
 20
171.0592925248
 11
119.4914879089
 21
170.9178711686
  0
LINE
  5
25E
100
AcDbEntity
  8
0
100
AcDbLine
 62
7
  6
CONTINUOUS
 10
119.7743306214
 20
170.7994849037
 11
119.4914879089
 21
170.6580635475
  0
LINE
  5
25F
100
AcDbEntity
  8
0
100
AcDbLine
 62
7
  6
CONTINUOUS
 10
121.4115130848
 20
171.7286514297
 11
119.7743306214
 21
170.9245485383
  0
LINE
  5
260
100
AcDbEntity
  8
0
100
AcDbLine
 62
7
  6
CONTINUOUS
 10
119.3627822533
 20
170.7224163753
 11
117.794431634
 21
169.9521202747
  0
LINE
  5
261
100
AcDbEntity
  8
RACCORDO
100
AcDbLine
 62
7
  6
CONTINUOUS
 10
126.8365796729
 20
173.4698311714
 11
125.6422937088
 21
172.8931768967
  0
LINE
  5
262
100
AcDbEntity
  8
RACCORDO
100
AcDbLine
 62
7
  6
CONTINUOUS
 10
119.9302920054
 20
168.8102140722
 11
128.1846617072
 21
172.7957901543
  0
LWPOLYLINE
  5
263
100
AcDbEntity
  8
0
100
AcDbPolyline
 62
7
  6
CONTINUOUS
 90
52
 70
0
 10
102.8107610819
 20
141.0641109258
 10
102.974402796
 20
141.0470735827
 10
103.1344498712
 20
141.0432123854
 10
103.2903908374
 20
141.0525137129
 10
103.4417279771
 20
141.0749226958
 10
103.5879796806
 20
141.1103438516
 10
103.7286806685
 20
141.1586415646
 10
103.8633825076
 20
141.2196401646
 10
103.9916555794
 20
141.2931244323
 10
104.1130911734
 20
141.3788407234
 10
104.2273016834
 20
141.4764971646
 10
104.3339225017
 20
141.5857649414
 10
104.4326134303
 20
141.7062798397
 10
104.5230589571
 20
141.8376427159
 10
104.604968981
 20
141.9794199969
 10
104.6780803541
 20
142.1311455478
 10
104.742157725
 20
142.2923220127
 10
104.7969950309
 20
142.4624246858
 10
104.8424154089
 20
142.6409028962
 10
104.8782708736
 20
142.8271789576
 10
104.904443134
 20
143.0206492881
 10
104.9208446073
 20
143.2206887019
 10
104.9274185278
 20
143.4266527463
 10
104.9241389802
 20
143.6378776771
 10
104.9110112846
 20
143.8536820416
 10
104.8880718818
 20
144.0733722998
 10
104.8553880065
 20
144.2962438261
 10
104.8130578159
 20
144.5215808653
 10
104.7612099985
 20
144.7486604546
 10
104.7000025535
 20
144.9767574958
 10
104.6296221807
 20
145.2051456828
 10
104.5502846766
 20
145.4330963392
 10
104.4622343983
 20
145.6598813366
 10
104.3657425378
 20
145.8847781322
 10
104.2611069364
 20
146.107070113
 10
104.1486509753
 20
146.3260493946
 10
104.0287222127
 20
146.5410196572
 10
103.9016916879
 20
146.7512974976
 10
103.7679528743
 20
146.956214492
 10
103.6279201586
 20
147.15511982
 10
103.482028355
 20
147.3473812416
 10
103.3307288055
 20
147.5323904243
 10
103.1744877299
 20
147.7095643167
 10
103.0137876451
 20
147.8783433267
 10
102.8491278445
 20
148.0381917032
 10
102.6810202325
 20
148.1886025974
 10
102.5099853258
 20
148.3291016265
 10
102.3365530224
 20
148.4592459123
 10
102.1612628332
 20
148.5786244092
 10
101.9846580582
 20
148.6868623918
 10
101.8072839499
 20
148.7836221072
 10
101.6296886036
 20
148.8686020779
  0
LWPOLYLINE
  5
264
100
AcDbEntity
  8
0
100
AcDbPolyline
 62
7
  6
CONTINUOUS
 90
3
 70
0
 10
102.7140627265
 20
141.102146511
 10
102.5533353375
 20
141.1204660893
 10
102.3919013095
 20
141.1509226916
  0
LINE
  5
265
100
AcDbEntity
  8
0
100
AcDbLine
 62
7
  6
CONTINUOUS
 10
102.6301192148
 20
141.0973844013
 11
102.8107610819
 21
141.0641109258
  0
LWPOLYLINE
  5
266
100
AcDbEntity
  8
0
100
AcDbPolyline
 62
7
  6
CONTINUOUS
 90
52
 70
0
 10
101.0303960708
 20
141.4569538439
 10
101.0575777559
 20
141.4510577602
 10
101.1923861545
 20
141.427893552
 10
101.324430376
 20
141.4154127749
 10
101.4536824242
 20
141.4137236324
 10
101.5801702953
 20
141.4227179209
 10
101.7026172097
 20
141.4423048513
 10
101.82098224
 20
141.4725917077
 10
101.9353063136
 20
141.5134712059
 10
102.0444354335
 20
141.5645307049
 10
102.1483169843
 20
141.6258733092
 10
102.2470035814
 20
141.6973959143
 10
102.3394990737
 20
141.7783765648
 10
102.4257407566
 20
141.8689110532
 10
102.5057913348
 20
141.968903587
 10
102.5788427707
 20
142.0773448328
 10
102.6448241759
 20
142.1943203607
 10
102.7038064388
 20
142.3197446006
 10
102.7551941875
 20
142.4523515095
 10
102.7989105033
 20
142.5922138346
 10
102.8350323048
 20
142.7392588286
 10
102.8631949755
 20
142.8920022067
 10
102.8833179038
 20
143.050501683
 10
102.8954817013
 20
143.2146995434
 10
102.8995635854
 20
143.3829383604
 10
102.8954817013
 20
143.5552590616
 10
102.8833179038
 20
143.7316207194
 10
102.8631949755
 20
143.9102431241
 10
102.8350323048
 20
144.0911491728
 10
102.7989105033
 20
144.2743159684
 10
102.7551941875
 20
144.4578946093
 10
102.7038064388
 20
144.6418892668
 10
102.6448241759
 20
144.8262957697
 10
102.5788427707
 20
145.0092527028
 10
102.5057913348
 20
145.1907453845
 10
102.4257407566
 20
145.3707884965
 10
102.3394990737
 20
145.5475646678
 10
102.2470035814
 20
145.7210408106
 10
102.1483169843
 20
145.8912500127
 10
102.0444354335
 20
146.0564741679
 10
101.9353063136
 20
146.2166627867
 10
101.82098224
 20
146.3718663586
 10
101.7026172097
 20
146.5205182452
 10
101.5801702953
 20
146.66255209
 10
101.4536824242
 20
146.7980342496
 10
101.324430376
 20
146.9255971554
 10
101.1923861545
 20
147.0451605997
 10
101.0575777559
 20
147.1568047902
 10
100.9213659478
 20
147.2594027807
 10
100.7842043194
 20
147.3525789224
 10
100.6456392815
 20
147.4367088643
 10
100.505670834
 20
147.5117926061
  0
LINE
  5
267
100
AcDbEntity
  8
0
100
AcDbLine
 62
7
  6
CONTINUOUS
 10
102.3923171579
 20
141.1508291935
 11
101.0305922977
 21
141.4568698721
  0
LINE
  5
268
100
AcDbEntity
  8
0
100
AcDbLine
 62
7
  6
CONTINUOUS
 10
102.5073410387
 20
141.1291435044
 11
102.6301192148
 21
141.0973844013
  0
LINE
  5
269
100
AcDbEntity
  8
0
100
AcDbLine
 62
7
  6
CONTINUOUS
 10
106.3661852394
 20
142.3263810353
 11
106.5514338132
 21
142.1027662257
  0
LWPOLYLINE
  5
26A
100
AcDbEntity
  8
RACCORDO
100
AcDbPolyline
 62
253
  6
CONTINUOUS
 90
21
 70
0
 10
102.7139892912
 20
135.0418153869
 10
102.714091486
 20
135.0382416248
 10
102.7145743203
 20
135.0332688573
 10
102.7154528149
 20
135.0283096424
 10
102.7167255773
 20
135.0233718477
 10
102.7183905889
 20
135.0184633078
 10
102.7204452092
 20
135.0135918095
 10
102.7228861796
 20
135.0087650807
 10
102.7257096281
 20
135.0039907794
 10
102.7289110764
 20
134.9992764792
 10
102.7324854461
 20
134.994629659
 10
102.7364270666
 20
134.9900576916
 10
102.7407296851
 20
134.98556783
 10
102.7453864764
 20
134.9811671967
 10
102.7503900531
 20
134.9768627731
 10
102.7557324792
 20
134.9726613864
 10
102.7614052786
 20
134.9685697029
 10
102.7673994462
 20
134.9645942175
 10
102.77370547
 20
134.9607412376
 10
102.7803133477
 20
134.9570168738
 10
102.7872125959
 20
134.9534270341
  0
LWPOLYLINE
  5
26B
100
AcDbEntity
  8
RACCORDO
100
AcDbPolyline
 62
253
  6
CONTINUOUS
 90
21
 70
0
 10
102.7139892912
 20
173.5799458553
 10
102.714091486
 20
173.5763720932
 10
102.7145743203
 20
173.5713993257
 10
102.7154528149
 20
173.5664401108
 10
102.7167255773
 20
173.5615023161
 10
102.7183905889
 20
173.5565937762
 10
102.7204452092
 20
173.5517222779
 10
102.7228861796
 20
173.5468955491
 10
102.7257096281
 20
173.5421212478
 10
102.7289110764
 20
173.5374069476
 10
102.7324854461
 20
173.5327601274
 10
102.7364270666
 20
173.52818816
 10
102.7407296851
 20
173.5236982984
 10
102.7453864764
 20
173.5192976651
 10
102.7503900531
 20
173.5149932415
 10
102.7557324792
 20
173.5107918548
 10
102.7614052786
 20
173.5067001713
 10
102.7673994462
 20
173.5027246859
 10
102.77370547
 20
173.498871706
 10
102.7803133477
 20
173.4951473422
 10
102.7872125959
 20
173.4915575025
  0
LINE
  5
26C
100
AcDbEntity
  8
0
100
AcDbLine
 62
7
  6
CONTINUOUS
 10
102.6623465166
 20
152.297309874
 11
102.6623465166
 21
150.8620395902
  0
LINE
  5
26D
100
AcDbEntity
  8
RACCORDO
100
AcDbLine
 62
7
  6
CONTINUOUS
 10
102.7139892912
 20
135.0418153817
 11
102.7139892912
 21
136.7682957201
  0
LINE
  5
26E
100
AcDbEntity
  8
RACCORDO
100
AcDbLine
 62
7
  6
CONTINUOUS
 10
102.7139892912
 20
170.5921582071
 11
102.7139892912
 21
173.5799458501
  0
LINE
  5
26F
100
AcDbEntity
  8
RACCORDO
100
AcDbLine
 62
253
  6
CONTINUOUS
 10
102.7872125959
 20
134.9534270341
 11
102.7872125959
 21
136.7316840677
  0
LINE
  5
270
100
AcDbEntity
  8
RACCORDO
100
AcDbLine
 62
253
  6
CONTINUOUS
 10
102.7872125959
 20
170.5037698594
 11
102.7872125959
 21
173.4915575025
  0
LINE
  5
271
100
AcDbEntity
  8
RACCORDO
100
AcDbLine
 62
7
  6
CONTINUOUS
 10
102.9608767144
 20
170.2094711293
 11
102.9608767144
 21
170.4169378002
  0
LWPOLYLINE
  5
272
100
AcDbEntity
  8
RACCORDO
100
AcDbPolyline
 62
253
  6
CONTINUOUS
 90
42
 70
0
 10
102.7872125959
 20
173.4915575025
 10
102.7873362274
 20
173.4997151576
 10
102.7877069495
 20
173.507985038
 10
102.7883242438
 20
173.5163555765
 10
102.7891872475
 20
173.5248150665
 10
102.7902947537
 20
173.5333516742
 10
102.7916452129
 20
173.5419534543
 10
102.7932367358
 20
173.5506083737
 10
102.7950670964
 20
173.5593043277
 10
102.7971337343
 20
173.5680291527
 10
102.7994337588
 20
173.576770645
 10
102.8019639527
 20
173.5855165774
 10
102.8047207764
 20
173.5942547154
 10
102.8077003736
 20
173.6029728367
 10
102.8108985765
 20
173.611658747
 10
102.814310911
 20
173.620300296
 10
102.817932604
 20
173.6288853965
 10
102.8217585894
 20
173.6374020404
 10
102.8257835148
 20
173.6458383141
 10
102.8300017504
 20
173.6541824179
 10
102.8344073956
 20
173.6624226806
 10
102.8389942866
 20
173.6705475747
 10
102.8437560068
 20
173.6785457351
 10
102.8486858958
 20
173.6864059757
 10
102.8537770588
 20
173.6941173041
 10
102.8590223754
 20
173.701668936
 10
102.8644145076
 20
173.7090503076
 10
102.8699459106
 20
173.7162510915
 10
102.8756088415
 20
173.7232612097
 10
102.8813953845
 20
173.7300708649
 10
102.8872974606
 20
173.7366705495
 10
102.8933068377
 20
173.7430510549
 10
102.899415089
 20
173.7492034305
 10
102.9056136164
 20
173.7551190191
 10
102.9118937144
 20
173.760789522
 10
102.9182466303
 20
173.7662070458
 10
102.9246635246
 20
173.7713640558
 10
102.9311358737
 20
173.7762536695
 10
102.93765418
 20
173.7808686794
 10
102.9442080039
 20
173.7852017868
 10
102.9507877198
 20
173.7892468425
 10
102.9573845569
 20
173.7929986684
  0
LINE
  5
273
100
AcDbEntity
  8
0
100
AcDbLine
 62
7
  6
CONTINUOUS
 10
98.9475005744
 20
148.2647387728
 11
98.7992606347
 21
147.9349427272
  0
LINE
  5
274
100
AcDbEntity
  8
0
100
AcDbLine
 62
7
  6
CONTINUOUS
 10
98.7968651816
 20
147.9296134553
 11
98.322211821
 21
146.8736308255
  0
LWPOLYLINE
  5
275
100
AcDbEntity
  8
0
100
AcDbPolyline
 62
7
  6
CONTINUOUS
 90
22
 70
0
 10
98.9474283917
 20
148.2645781706
 10
99.0130058779
 20
148.3999401879
 10
99.0983512713
 20
148.5503653009
 10
99.1923873611
 20
148.6908471413
 10
99.294906481
 20
148.8209457185
 10
99.4056063255
 20
148.9401590832
 10
99.5236229791
 20
149.0475946477
 10
99.6483280664
 20
149.1428874303
 10
99.7794607434
 20
149.2260337885
 10
99.9165775788
 20
149.2968986649
 10
100.0589945334
 20
149.3553014428
 10
100.2064417131
 20
149.4012976387
 10
100.3591567643
 20
149.4349934818
 10
100.5171372084
 20
149.4562728817
 10
100.679537581
 20
149.4649102508
 10
100.8453383575
 20
149.4608581157
 10
101.0137354763
 20
149.4442385814
 10
101.1845022719
 20
149.4151750487
 10
101.3574536003
 20
149.3737337096
 10
101.5321941906
 20
149.3199994921
 10
101.7081046361
 20
149.2541537978
 10
101.8846700636
 20
149.1763919273
  0
LWPOLYLINE
  5
276
100
AcDbEntity
  8
0
100
AcDbPolyline
 62
7
  6
CONTINUOUS
 90
3
 70
0
 10
98.7966295257
 20
147.9290890212
 10
98.8714505762
 20
148.0813538459
 10
98.9484783842
 20
148.2140491724
  0
LWPOLYLINE
  5
277
100
AcDbEntity
  8
0
100
AcDbPolyline
 62
7
  6
CONTINUOUS
 90
10
 70
0
 10
99.2114566477
 20
148.7150464035
 10
99.2787608552
 20
148.8290653538
 10
99.3687927678
 20
148.9606237619
 10
99.4661517004
 20
149.0834664487
 10
99.5701965571
 20
149.196728982
 10
99.680579942
 20
149.3001059813
 10
99.7970635316
 20
149.3934436875
 10
99.9190104017
 20
149.4763436936
 10
100.0458140188
 20
149.5485950338
 10
100.0701267255
 20
149.5609706733
  0
LWPOLYLINE
  5
278
100
AcDbEntity
  8
0
100
AcDbPolyline
 62
7
  6
CONTINUOUS
 90
4
 70
0
 10
99.0403464259
 20
148.3543051703
 10
98.9541669144
 20
148.2263651562
 10
98.8755745902
 20
148.0904145484
 10
98.7990249806
 20
147.9344183034
  0
LWPOLYLINE
  5
279
100
AcDbEntity
  8
0
100
AcDbPolyline
 62
7
  6
CONTINUOUS
 90
21
 70
0
 10
98.9484783842
 20
148.2140491724
 10
99.0329835222
 20
148.3386386298
 10
99.1244625583
 20
148.4542617002
 10
99.2226525059
 20
148.5605821348
 10
99.3273034004
 20
148.6573266661
 10
99.4377612914
 20
148.7439614089
 10
99.5535160408
 20
148.8202537816
 10
99.6743426727
 20
148.8862150767
 10
99.7999481044
 20
148.9418004192
 10
99.929823935
 20
148.9869034921
 10
100.0637204128
 20
149.0215523603
 10
100.2017792808
 20
149.0458128992
 10
100.3439204027
 20
149.0596061868
 10
100.489527683
 20
149.0628097539
 10
100.6379512084
 20
149.0554078968
 10
100.7886335329
 20
149.0374731567
 10
100.9413304075
 20
149.0090791111
 10
101.09584505
 20
148.9702705984
 10
101.2518457217
 20
148.9211130996
 10
101.4088579811
 20
148.8617389104
 10
101.5664720121
 20
148.7922929016
  0
LWPOLYLINE
  5
27A
100
AcDbEntity
  8
RACCORDO
100
AcDbPolyline
 62
7
  6
CONTINUOUS
 90
28
 70
0
 10
118.8122040941
 20
169.3690696136
 10
118.7950327004
 20
169.3557192758
 10
118.7786450761
 20
169.3421714487
 10
118.7630259923
 20
169.328433204
 10
118.7481625946
 20
169.3145130335
 10
118.7340385606
 20
169.3004154536
 10
118.7206362266
 20
169.2861420702
 10
118.7079447914
 20
169.2717003908
 10
118.6959536481
 20
169.2570977325
 10
118.6846501486
 20
169.2423381226
 10
118.6740271255
 20
169.227431984
 10
118.6640772162
 20
169.212389808
 10
118.6547917656
 20
169.1972201686
 10
118.6461661283
 20
169.1819385403
 10
118.6381941095
 20
169.1665591553
 10
118.6308678463
 20
169.1510938373
 10
118.6241835378
 20
169.1355645102
 10
118.6181337186
 20
169.1199877459
 10
118.6127074251
 20
169.1043715135
 10
118.6079017022
 20
169.0887490266
 10
118.6037049545
 20
169.0731316039
 10
118.6000984023
 20
169.057495266
 10
118.5970772147
 20
169.0418644115
 10
118.5946340992
 20
169.0262586648
 10
118.5927553256
 20
169.0106450784
 10
118.5914372495
 20
168.9950452675
 10
118.5906747666
 20
168.9794798663
 10
118.5904583038
 20
168.9656541598
  0
LWPOLYLINE
  5
27B
100
AcDbEntity
  8
RACCORDO
100
AcDbPolyline
 62
253
  6
CONTINUOUS
 90
112
 70
0
 10
122.7000854708
 20
168.9057081563
 10
122.686389337
 20
168.8984144959
 10
122.6731251591
 20
168.8909433836
 10
122.6602929371
 20
168.8832948194
 10
122.647882841
 20
168.8754623046
 10
122.6359047008
 20
168.8674523379
 10
122.6243880066
 20
168.8592844155
 10
122.613334258
 20
168.8509583719
 10
122.6027419556
 20
168.8424743727
 10
122.5926360905
 20
168.833852411
 10
122.5830178604
 20
168.8250921962
 10
122.5738860676
 20
168.816194019
 10
122.5652621111
 20
168.8071787445
 10
122.5571471792
 20
168.7980461037
 10
122.5495400834
 20
168.7887963657
 10
122.542458657
 20
168.7794512029
 10
122.5359041179
 20
168.7700103664
 10
122.529875248
 20
168.7604741051
 10
122.5243862267
 20
168.7508648388
 10
122.5194383339
 20
168.7411824106
 10
122.5150302896
 20
168.7314269774
 10
122.5111724332
 20
168.7216214289
 10
122.5078660557
 20
168.7117656452
 10
122.5051098662
 20
168.7018597462
 10
122.5029103309
 20
168.6919269818
 10
122.5012687565
 20
168.6819672965
 10
122.5001838363
 20
168.6719807457
 10
122.4996581164
 20
168.6619907455
 10
122.4996929102
 20
168.6519972721
 10
122.5002869044
 20
168.6420003493
 10
122.5014387047
 20
168.6320234634
 10
122.5031496196
 20
168.6220666765
 10
122.5054183406
 20
168.6121299266
 10
122.5082395478
 20
168.6022365141
 10
122.5116145432
 20
168.5923865274
 10
122.5155420247
 20
168.5825798781
 10
122.5200127668
 20
168.5728396017
 10
122.5250280378
 20
168.5631658687
 10
122.5305865692
 20
168.5535585085
 10
122.5366753303
 20
168.5440400449
 10
122.5432955772
 20
168.5346106709
 10
122.5504460537
 20
168.5252701934
 10
122.5581099605
 20
168.5160405577
 10
122.5662884899
 20
168.5069220397
 10
122.5749804497
 20
168.4979143634
 10
122.5841654638
 20
168.4890386453
 10
122.5938447069
 20
168.4802951801
 10
122.6040170043
 20
168.4716836731
 10
122.614658456
 20
168.4632243576
 10
122.6257701441
 20
168.4549176062
 10
122.6373509865
 20
168.4467630463
 10
122.6493738367
 20
168.4387797933
 10
122.6618397552
 20
168.4309682351
 10
122.6747476815
 20
168.4233279838
 10
122.6880672865
 20
168.4158769915
 10
122.7017995121
 20
168.4086157165
 10
122.7159434164
 20
168.4015437006
 10
122.7304658451
 20
168.3946775214
 10
122.7453677147
 20
168.3880176496
 10
122.7606481087
 20
168.3815636146
 10
122.7762711236
 20
168.3753305812
 10
122.7922375348
 20
168.3693190799
 10
122.8085465668
 20
168.3635285803
 10
122.8251599894
 20
168.3579726561
 10
122.8420785489
 20
168.3526518482
 10
122.859301499
 20
168.3475656158
 10
122.8767883712
 20
168.3427259101
 10
122.8945397537
 20
168.3381333186
 10
122.9125550584
 20
168.3337872537
 10
122.9307920517
 20
168.3296979038
 10
122.9492512861
 20
168.325865865
 10
122.9679322091
 20
168.3222905411
 10
122.9867909298
 20
168.3189803322
 10
123.0058278336
 20
168.3159358664
 10
123.0250425352
 20
168.3131565155
 10
123.0443899878
 20
168.3106487952
 10
123.0638705332
 20
168.3084133393
 10
123.0834838296
 20
168.306449514
 10
123.1031838051
 20
168.3047619323
 10
123.1229706359
 20
168.3033512452
 10
123.1428441458
 20
168.3022168017
 10
123.1627577345
 20
168.3013612619
 10
123.1827115265
 20
168.3007852801
 10
123.2027053973
 20
168.300488202
 10
123.2226923727
 20
168.3004707248
 10
123.2426724047
 20
168.3007335054
 10
123.2626455412
 20
168.3012758868
 10
123.2825649522
 20
168.3020965965
 10
123.3024305278
 20
168.3031962877
 10
123.3222423778
 20
168.304574307
 10
123.341954001
 20
168.3062274215
 10
123.3615651572
 20
168.3081562767
 10
123.3810760866
 20
168.310360227
 10
123.4004410085
 20
168.3128341028
 10
123.4196596095
 20
168.3155785441
 10
123.4387322031
 20
168.3185929108
 10
123.4576139494
 20
168.3218701133
 10
123.4763043492
 20
168.32541076
 10
123.4948039018
 20
168.3292142424
 10
123.5130692655
 20
168.3332716452
 10
123.5310999043
 20
168.3375835636
 10
123.5488963543
 20
168.3421494023
 10
123.566416881
 20
168.3469584606
 10
123.5836609024
 20
168.352011336
 10
123.6006290007
 20
168.3573074309
 10
123.6172811877
 20
168.3628342511
 10
123.6336169969
 20
168.368592483
 10
123.6496368949
 20
168.3745814402
 10
123.6653022934
 20
168.3807865697
 10
123.6806003297
 20
168.3872030207
 10
123.6955438665
 20
168.3938356441
 10
123.7101329038
 20
168.4006844398
  0
LINE
  5
27C
100
AcDbEntity
  8
RACCORDO
100
AcDbLine
 62
7
  6
CONTINUOUS
 10
124.0100525196
 20
169.6489798296
 11
122.5851380122
 21
168.9112087462
  0
LINE
  5
27D
100
AcDbEntity
  8
RACCORDO
100
AcDbLine
 62
253
  6
CONTINUOUS
 10
124.1230642537
 20
169.6424769891
 11
122.7000854708
 21
168.9057081563
  0
LINE
  5
27E
100
AcDbEntity
  8
RACCORDO
100
AcDbLine
 62
7
  6
CONTINUOUS
 10
128.7242487392
 20
172.4068076714
 11
119.9302920054
 21
168.1606950194
  0
LINE
  5
27F
100
AcDbEntity
  8
RACCORDO
100
AcDbLine
 62
253
  6
CONTINUOUS
 10
123.7101329038
 20
168.4006844398
 11
125.1836705694
 21
169.1121738313
  0
LWPOLYLINE
  5
280
100
AcDbEntity
  8
RACCORDO
100
AcDbPolyline
 62
7
  6
CONTINUOUS
 90
80
 70
0
 10
119.9302920054
 20
168.1606950194
 10
119.9131994235
 20
168.152684245
 10
119.8956720447
 20
168.1449425267
 10
119.8777098692
 20
168.1374698643
 10
119.8592959677
 20
168.1302600515
 10
119.8404472694
 20
168.1233192947
 10
119.8212145615
 20
168.1166662132
 10
119.8015974801
 20
168.1103018057
 10
119.781596389
 20
168.1042250735
 10
119.7612631672
 20
168.0984516404
 10
119.74059723
 20
168.0929823015
 10
119.7195991621
 20
168.0878162616
 10
119.6983225957
 20
168.0829667593
 10
119.6767651308
 20
168.0784343309
 10
119.6549291673
 20
168.0742184399
 10
119.6328755372
 20
168.0703307154
 10
119.6106069564
 20
168.0667724854
 10
119.588120709
 20
168.0635424218
 10
119.5654694785
 20
168.0606481687
 10
119.5426479383
 20
168.058090083
 10
119.519661415
 20
168.0558678079
 10
119.4965785723
 20
168.0539879171
 10
119.4734054414
 20
168.0524517147
 10
119.4501359911
 20
168.0512578965
 10
119.4268207904
 20
168.050409124
 10
119.4034523185
 20
168.0499061257
 10
119.3800380963
 20
168.0497481731
 10
119.3566512554
 20
168.0499357417
 10
119.3333000428
 20
168.0504695803
 10
119.3099762115
 20
168.0513489402
 10
119.2867281521
 20
168.0525720502
 10
119.2635473703
 20
168.0541403547
 10
119.2404423605
 20
168.0560524092
 10
119.2174869961
 20
168.0583021098
 10
119.1946906272
 20
168.0608893783
 10
119.1720439038
 20
168.0638142928
 10
119.1495926501
 20
168.0670709831
 10
119.1273282855
 20
168.0706617277
 10
119.1052593907
 20
168.0745842481
 10
119.0834575314
 20
168.078825839
 10
119.0619324944
 20
168.0833854786
 10
119.0406744929
 20
168.0882641887
 10
119.0197257325
 20
168.0934523292
 10
118.9990780235
 20
168.0989530426
 10
118.9787395556
 20
168.1047631865
 10
118.9587771031
 20
168.1108636934
 10
118.9392004402
 20
168.1172525393
 10
118.9199997926
 20
168.1239317481
 10
118.9012126127
 20
168.1308883245
 10
118.8828315481
 20
168.1381262329
 10
118.8648639512
 20
168.1456415088
 10
118.8473693308
 20
168.1534092632
 10
118.8303568634
 20
168.1614265301
 10
118.8138173726
 20
168.1696962755
 10
118.7977828389
 20
168.1782025092
 10
118.78224733
 20
168.1869498194
 10
118.7672167782
 20
168.1959336178
 10
118.7527409614
 20
168.2051241501
 10
118.7388278087
 20
168.2145177401
 10
118.725469391
 20
168.2241180639
 10
118.7126916992
 20
168.2339063953
 10
118.7004906855
 20
168.2438876216
 10
118.6888703978
 20
168.2540568555
 10
118.6778689709
 20
168.26438071
 10
118.6674926898
 20
168.2748550902
 10
118.6577352696
 20
168.285484091
 10
118.6486159904
 20
168.2962466095
 10
118.6401328086
 20
168.3071475391
 10
118.6322877678
 20
168.3181819865
 10
118.6251062787
 20
168.3293141688
 10
118.618592898
 20
168.3405397957
 10
118.612743069
 20
168.3518631574
 10
118.607568532
 20
168.3632613418
 10
118.6030691309
 20
168.374739024
 10
118.5992450218
 20
168.3862915289
 10
118.5961084129
 20
168.3978819198
 10
118.5936621929
 20
168.4095059495
 10
118.5919034731
 20
168.4211678652
 10
118.5908357958
 20
168.4328434715
 10
118.5904600316
 20
168.4450536876
  0
LINE
  5
281
100
AcDbEntity
  8
0
100
AcDbLine
 62
7
  6
CONTINUOUS
 10
102.8713877366
 20
141.0964699233
 11
102.7140627265
 21
141.102146511
  0
LWPOLYLINE
  5
282
100
AcDbEntity
  8
0
100
AcDbPolyline
 62
7
  6
CONTINUOUS
 90
21
 70
0
 10
100.505670834
 20
147.5117926061
 10
100.3657023866
 20
147.5766773117
 10
100.2271373486
 20
147.6311124078
 10
100.0899757202
 20
147.6750978945
 10
99.9537639121
 20
147.7087117121
 10
99.8189555135
 20
147.7318759202
 10
99.6869112921
 20
147.7443566973
 10
99.5576592438
 20
147.7460458398
 10
99.4311713727
 20
147.7370515513
 10
99.3087244583
 20
147.7174646209
 10
99.190359428
 20
147.6871777646
 10
99.0760353544
 20
147.6462982663
 10
98.9669062345
 20
147.5952387674
 10
98.8630246837
 20
147.533896163
 10
98.7643380866
 20
147.4623735579
 10
98.6718425944
 20
147.3813929075
 10
98.5856009114
 20
147.2908584191
 10
98.5055503333
 20
147.1908658853
 10
98.4324988974
 20
147.0824246394
 10
98.3665174922
 20
146.9654491116
 10
98.3222229547
 20
146.873508241
  0
LWPOLYLINE
  5
283
100
AcDbEntity
  8
RACCORDO
100
AcDbPolyline
 62
7
  6
CONTINUOUS
 90
34
 70
0
 10
106.1275696144
 20
176.5021148635
 10
106.1278425215
 20
176.5174077724
 10
106.1286640337
 20
176.5327297124
 10
106.1300377634
 20
176.5480650065
 10
106.13196506
 20
176.5633875762
 10
106.1344487082
 20
176.578691982
 10
106.1374966991
 20
176.5939933844
 10
106.1411124814
 20
176.6092741125
 10
106.1452995282
 20
176.6245200838
 10
106.1500722541
 20
176.6397515975
 10
106.1554370526
 20
176.6549541422
 10
106.1613985603
 20
176.6701100361
 10
106.1679754632
 20
176.6852345933
 10
106.1751760254
 20
176.7003129426
 10
106.1830067444
 20
176.7153276724
 10
106.1914903689
 20
176.7302903945
 10
106.2006393878
 20
176.7451894317
 10
106.2104606594
 20
176.7600043392
 10
106.2209743307
 20
176.7747344871
 10
106.2321954662
 20
176.7893693582
 10
106.2441317031
 20
176.8038887163
 10
106.2567959154
 20
176.8182795775
 10
106.270215025
 20
176.8325431181
 10
106.2843877121
 20
176.8466494097
 10
106.2992819717
 20
176.8605444046
 10
106.3149190258
 20
176.8742289512
 10
106.3312955331
 20
176.8876813513
 10
106.3483304863
 20
176.900824052
 10
106.3660297494
 20
176.9136563676
 10
106.3843899094
 20
176.9261700834
 10
106.4032975625
 20
176.9382888663
 10
106.422705068
 20
176.9499912368
 10
106.4426424506
 20
176.9613032373
 10
106.4631034012
 20
176.9722260517
  0
LWPOLYLINE
  5
284
100
AcDbEntity
  8
RACCORDO
100
AcDbPolyline
 62
253
  6
CONTINUOUS
 90
200
 70
0
 10
118.8123543512
 20
169.3691828993
 10
118.8091657144
 20
169.3658736987
 10
118.8060395306
 20
169.3625627713
 10
118.8029757997
 20
169.359250117
 10
118.7999747803
 20
169.3559354891
 10
118.7970362139
 20
169.3526191342
 10
118.7941593251
 20
169.3493017932
 10
118.7913441228
 20
169.3459834741
 10
118.7885905981
 20
169.3426641687
 10
118.7858979486
 20
169.339344593
 10
118.7832661825
 20
169.3360247552
 10
118.7806952916
 20
169.332704647
 10
118.7781844487
 20
169.3293849598
 10
118.7757336615
 20
169.326065702
 10
118.7733429222
 20
169.3227468651
 10
118.7710113804
 20
169.3194291142
 10
118.7687390429
 20
169.3161124581
 10
118.7665259029
 20
169.3127968881
 10
118.7643710885
 20
169.3094830427
 10
118.7622746039
 20
169.3061709273
 10
118.7602364451
 20
169.3028605366
 10
118.7582557271
 20
169.2995524933
 10
118.7563324553
 20
169.2962468042
 10
118.7544666244
 20
169.2929434626
 10
118.7526573345
 20
169.2896430702
 10
118.7509045947
 20
169.2863456444
 10
118.7492083959
 20
169.2830511679
 10
118.7475678102
 20
169.2797601911
 10
118.7459828412
 20
169.2764727242
 10
118.7444534852
 20
169.273188757
 10
118.7429788035
 20
169.2699088091
 10
118.7415587966
 20
169.2666328852
 10
118.7401934638
 20
169.2633609807
 10
118.7388818643
 20
169.2600936008
 10
118.7376239905
 20
169.256830722
 10
118.7364198499
 20
169.2535723678
 10
118.7352685249
 20
169.2503191152
 10
118.7341700175
 20
169.247070952
 10
118.7331243256
 20
169.2438278904
 10
118.7321305253
 20
169.2405905429
 10
118.7311886156
 20
169.2373588639
 10
118.7302985975
 20
169.2341328991
 10
118.7294595508
 20
169.2309133979
 10
118.7286714971
 20
169.2277003862
 10
118.7279344146
 20
169.2244938382
 10
118.727247318
 20
169.2212944257
 10
118.7266102327
 20
169.2181022495
 10
118.7260231331
 20
169.2149172088
 10
118.7254849577
 20
169.2117396722
 10
118.7249957039
 20
169.2085696536
 10
118.7245553742
 20
169.2054071392
 10
118.7241629145
 20
169.2022524563
 10
118.7238183202
 20
169.1991056099
 10
118.7235215959
 20
169.195966595
 10
118.7232717014
 20
169.1928357238
 10
118.7230686322
 20
169.1897129967
 10
118.7229123928
 20
169.1865984134
 10
118.7228019563
 20
169.1834922854
 10
118.722737319
 20
169.1803946191
 10
118.7227184847
 20
169.1773054081
 10
118.7227444378
 20
169.1742249455
 10
118.7228151736
 20
169.1711532444
 10
118.7229306968
 20
169.1680902916
 10
118.7230900062
 20
169.1650363402
 10
118.7232930965
 20
169.1619913955
 10
118.723539973
 20
169.1589554523
 10
118.7238296512
 20
169.1559287469
 10
118.7241621258
 20
169.1529112824
 10
118.7245374021
 20
169.1499030559
 10
118.7249545112
 20
169.1469042948
 10
118.7254134474
 20
169.1439150054
 10
118.7259142163
 20
169.1409351815
 10
118.7264558663
 20
169.1379650323
 10
118.7270383912
 20
169.1350045639
 10
118.727661797
 20
169.1320537702
 10
118.7283251506
 20
169.1291128417
 10
118.7290284452
 20
169.1261817842
 10
118.7297716876
 20
169.1232605919
 10
118.7305539641
 20
169.1203494371
 10
118.7313752677
 20
169.1174483257
 10
118.7322356055
 20
169.1145572518
 10
118.7331340848
 20
169.1116763703
 10
118.734070697
 20
169.1088056904
 10
118.7350454508
 20
169.1059452029
 10
118.7360574802
 20
169.1030950354
 10
118.7371067787
 20
169.1002551892
 10
118.7381933529
 20
169.0974256629
 10
118.7393163565
 20
169.0946065805
 10
118.7404757825
 20
169.0917979449
 10
118.7416716379
 20
169.0889997531
 10
118.7429030978
 20
169.0862121196
 10
118.7441701543
 20
169.0834350487
 10
118.7454728154
 20
169.080668536
 10
118.7468102794
 20
169.077912683
 10
118.7481825383
 20
169.0751674939
 10
118.7495896001
 20
169.0724329646
 10
118.7510306875
 20
169.0697091841
 10
118.7525057921
 20
169.0669961564
 10
118.7540149223
 20
169.0642938776
 10
118.755557325
 20
169.0616024256
 10
118.7571329915
 20
169.0589218047
 10
118.7587419305
 20
169.0562520105
 10
118.7603834164
 20
169.0535931073
 10
118.7620574374
 20
169.0509451028
 10
118.7637640051
 20
169.0483079893
 10
118.7655024289
 20
169.0456818088
 10
118.7672727026
 20
169.0430665595
 10
118.7690748324
 20
169.0404622432
 10
118.7709081457
 20
169.0378689066
 10
118.7727726342
 20
169.0352865516
 10
118.7746683062
 20
169.0327151762
 10
118.7765945134
 20
169.0301548218
 10
118.7785512472
 20
169.0276054906
 10
118.7805385163
 20
169.0250671804
 10
118.7825556988
 20
169.0225399248
 10
118.7846027858
 20
169.0200237262
 10
118.7866797862
 20
169.0175185822
 10
118.7887861044
 20
169.0150245203
 10
118.7909217316
 20
169.0125415424
 10
118.7930866767
 20
169.0100696465
 10
118.7952803705
 20
169.0076088542
 10
118.7975028029
 20
169.0051591685
 10
118.799753984
 20
169.0027205865
 10
118.8020333758
 20
169.0002931204
 10
118.8043409656
 20
168.9978767748
 10
118.806676766
 20
168.9954715451
 10
118.8090402762
 20
168.9930774297
 10
118.8114314913
 20
168.9906944253
 10
118.8138504162
 20
168.9883225352
 10
118.8162965649
 20
168.9859617676
 10
118.8187699291
 20
168.983612123
 10
118.8212705171
 20
168.9812736008
 10
118.8237978681
 20
168.978946208
 10
118.8263519733
 20
168.976629945
 10
118.8289328416
 20
168.9743248112
 10
118.8315400375
 20
168.972030812
 10
118.8341735528
 20
168.9697479474
 10
118.8368333958
 20
168.9674762173
 10
118.8395191567
 20
168.9652156261
 10
118.842230827
 20
168.9629661738
 10
118.8449684152
 20
168.9607278603
 10
118.8477315367
 20
168.9585006897
 10
118.8505201806
 20
168.9562846637
 10
118.8533343577
 20
168.9540797806
 10
118.8561737158
 20
168.9518860392
 10
118.8590382437
 20
168.9497034412
 10
118.8619279525
 20
168.9475319849
 10
118.8648425234
 20
168.9453716649
 10
118.8677819525
 20
168.9432224772
 10
118.8707462437
 20
168.9410844258
 10
118.8737350903
 20
168.9389575166
 10
118.8767484847
 20
168.9368417487
 10
118.8797864344
 20
168.9347371231
 10
118.8828486555
 20
168.9326436489
 10
118.8859351408
 20
168.9305613249
 10
118.8890458973
 20
168.9284901524
 10
118.8921806623
 20
168.9264301449
 10
118.8953394288
 20
168.924381301
 10
118.8985222036
 20
168.922343622
 10
118.9017287451
 20
168.920317126
 10
118.9049590461
 20
168.9183018114
 10
118.9082131137
 20
168.9162976797
 10
118.9114907276
 20
168.9143047533
 10
118.9147918772
 20
168.9123230322
 10
118.9181165731
 20
168.9103525164
 10
118.921464626
 20
168.908393227
 10
118.9248360274
 20
168.906445163
 10
118.9282307858
 20
168.9045083254
 10
118.9316487377
 20
168.9025827389
 10
118.9350898799
 20
168.9006683992
 10
118.9385542156
 20
168.8987653107
 10
118.94204159
 20
168.8968735105
 10
118.9455519975
 20
168.8949929962
 10
118.9490854437
 20
168.8931237702
 10
118.9526417907
 20
168.8912658776
 10
118.9562210339
 20
168.8894193154
 10
118.959823178
 20
168.8875840865
 10
118.9634480985
 20
168.8857602454
 10
118.9670957903
 20
168.8839477892
 10
118.9707662586
 20
168.8821467206
 10
118.9744593937
 20
168.8803571025
 10
118.9781751904
 20
168.8785789322
 10
118.9819136539
 20
168.8768122122
 10
118.9856746904
 20
168.8750570134
 10
118.989458291
 20
168.8733133344
 10
118.9932644645
 20
168.8715811766
 10
118.9970931433
 20
168.869860614
 10
119.000944322
 20
168.8681516438
 10
119.0048180061
 20
168.8664542688
 10
119.0087141435
 20
168.8647685722
 10
119.0126327328
 20
168.8630945494
 10
119.0165737755
 20
168.8614322048
 10
119.0205372246
 20
168.859781635
 10
119.0245230775
 20
168.858142836
 10
119.0285313368
 20
168.8565158117
 10
119.0325619627
 20
168.8549006704
 10
119.036614954
 20
168.8532974076
 10
119.040690312
 20
168.8517060278
 10
119.0447880007
 20
168.8501266518
 10
119.0530503657
 20
168.8470039041
  0
LWPOLYLINE
  5
285
100
AcDbEntity
  8
ASSI
100
AcDbPolyline
 62
7
  6
CONTINUOUS
 90
30
 70
0
 10
129.5164994286
 20
171.3159162604
 10
129.5351822839
 20
171.3258584997
 10
129.5532908952
 20
171.3360358777
 10
129.5708252626
 20
171.3464483946
 10
129.5877975482
 20
171.3571041278
 10
129.6041955899
 20
171.3679949998
 10
129.6199829009
 20
171.3790967777
 10
129.6351581215
 20
171.3904099312
 10
129.6497226114
 20
171.4019339906
 10
129.6636439638
 20
171.4136433141
 10
129.6769207466
 20
171.4255383143
 10
129.6895543918
 20
171.4376185787
 10
129.7015167889
 20
171.4498572279
 10
129.7128064432
 20
171.4622546146
 10
129.7234248493
 20
171.4748103861
 10
129.7333483807
 20
171.4874966051
 10
129.74257549
 20
171.500313562
 10
129.7511077245
 20
171.5132609664
 10
129.7589260995
 20
171.5263100094
 10
129.7660290254
 20
171.5394609174
 10
129.7724180918
 20
171.5527134641
 10
129.7780790825
 20
171.5660381617
 10
129.7830103765
 20
171.5794351709
 10
129.7872135949
 20
171.592904331
 10
129.7906793852
 20
171.6064156724
 10
129.7934061055
 20
171.6199692888
 10
129.7953953978
 20
171.6335650865
 10
129.7966428357
 20
171.647172814
 10
129.7971467675
 20
171.6607924976
 10
129.797158675
 20
171.6632431246
  0
LINE
  5
286
100
AcDbEntity
  8
ASSI
100
AcDbLine
 62
7
  6
CONTINUOUS
 10
129.5164994286
 20
169.9938383109
 11
125.3604741927
 21
167.8148679885
  0
LINE
  5
287
100
AcDbEntity
  8
ASSI
100
AcDbLine
 62
7
  6
CONTINUOUS
 10
129.5164994286
 20
171.3159162604
 11
125.2184381196
 21
169.0905298724
  0
LINE
  5
288
100
AcDbEntity
  8
RACCORDO
100
AcDbLine
 62
253
  6
CONTINUOUS
 10
123.8837974964
 20
168.0942606138
 11
125.3604741927
 21
168.8072656686
  0
LINE
  5
289
100
AcDbEntity
  8
RACCORDO
100
AcDbLine
 62
253
  6
CONTINUOUS
 10
119.9676625936
 20
165.2946155499
 11
123.2441361131
 21
166.8766423992
  0
LINE
  5
28A
100
AcDbEntity
  8
RACCORDO
100
AcDbLine
 62
253
  6
CONTINUOUS
 10
120.1413271863
 20
164.9881917239
 11
123.8837974964
 21
166.7952225081
  0
LWPOLYLINE
  5
28B
100
AcDbEntity
  8
RACCORDO
100
AcDbPolyline
 62
253
  6
CONTINUOUS
 90
40
 70
0
 10
120.1413271863
 20
164.9881917239
 10
120.1340352692
 20
164.9848084315
 10
120.1264781529
 20
164.9815721359
 10
120.1186676298
 20
164.9784880678
 10
120.1106152794
 20
164.9755610034
 10
120.1023343015
 20
164.9727959387
 10
120.0938396657
 20
164.9701979547
 10
120.0851455491
 20
164.9677713595
 10
120.0762650745
 20
164.9655197887
 10
120.0672122549
 20
164.9634467978
 10
120.0580013905
 20
164.9615556685
 10
120.0486471432
 20
164.9598494184
 10
120.0391644445
 20
164.9583307729
 10
120.0295683808
 20
164.9570021455
 10
120.0198741333
 20
164.9558656355
 10
120.0100970486
 20
164.954923042
 10
120.0002526239
 20
164.95417586
 10
119.9903564876
 20
164.9536252771
 10
119.9804243418
 20
164.9532721674
 10
119.9704719437
 20
164.9531170916
 10
119.9605150797
 20
164.9531602963
 10
119.9505695448
 20
164.9534017135
 10
119.940651115
 20
164.9538409608
 10
119.9307755257
 20
164.954477342
 10
119.9209584457
 20
164.9553098478
 10
119.9112154491
 20
164.9563371579
 10
119.9015619916
 20
164.9575576431
 10
119.8920133889
 20
164.9589693674
 10
119.8825847886
 20
164.9605700915
 10
119.8732911482
 20
164.9623572764
 10
119.8641472133
 20
164.9643280866
 10
119.8551674902
 20
164.9664793959
 10
119.8463662236
 20
164.9688077915
 10
119.8377573763
 20
164.9713095799
 10
119.829354603
 20
164.9739807929
 10
119.821171236
 20
164.9768171926
 10
119.8132202651
 20
164.9798142764
 10
119.8055143053
 20
164.9829672883
 10
119.7980655778
 20
164.9862712272
 10
119.7908858983
 20
164.9897208513
  0
LWPOLYLINE
  5
28C
100
AcDbEntity
  8
0
100
AcDbPolyline
 62
7
  6
CONTINUOUS
 90
5
 70
0
 10
110.3694794784
 20
142.890565673
 10
110.5349135464
 20
142.9310915336
 10
110.6959381883
 20
142.9832020332
 10
110.8515521123
 20
143.0465813971
 10
110.9316218794
 20
143.0846764951
  0
LINE
  5
28D
100
AcDbEntity
  8
0
100
AcDbLine
 62
7
  6
CONTINUOUS
 10
106.5514338132
 20
142.1027662257
 11
110.4405211097
 21
142.9082225774
  0
LINE
  5
28E
100
AcDbEntity
  8
0
100
AcDbLine
 62
7
  6
CONTINUOUS
 10
110.2902413299
 20
142.877098616
 11
110.3694794784
 21
142.890565673
  0
LWPOLYLINE
  5
28F
100
AcDbEntity
  8
0
100
AcDbPolyline
 62
7
  6
CONTINUOUS
 90
20
 70
0
 10
101.6296886036
 20
148.8686020779
 10
101.4678865135
 20
148.9356503429
 10
101.3068236141
 20
148.9924792359
 10
101.1469121441
 20
149.0389536916
 10
100.9886292208
 20
149.0749530212
 10
100.8323071102
 20
149.1004207722
 10
100.6781415747
 20
149.115318606
 10
100.5263756989
 20
149.1195808042
 10
100.3775696106
 20
149.1131497864
 10
100.2323768787
 20
149.09605908
 10
100.0914168034
 20
149.0684494552
 10
99.9547621218
 20
149.0304059144
 10
99.8222590404
 20
148.9818618556
 10
99.6941540406
 20
148.922798
 10
99.5709557311
 20
148.8533364516
 10
99.4529517481
 20
148.7735314869
 10
99.3403606605
 20
148.68337894
 10
99.2336935468
 20
148.5831296388
 10
99.1336078768
 20
148.4733435362
 10
99.0403464259
 20
148.3543051703
  0
LWPOLYLINE
  5
290
100
AcDbEntity
  8
RACCORDO
100
AcDbPolyline
 62
253
  6
CONTINUOUS
 90
12
 70
0
 10
127.7520816153
 20
137.3096808543
 10
127.7459205899
 20
137.3122598815
 10
127.7395858762
 20
137.3144823104
 10
127.7330952525
 20
137.3163412479
 10
127.7264573798
 20
137.3178342009
 10
127.7196812279
 20
137.3189591648
 10
127.712775376
 20
137.3197147115
 10
127.7057493391
 20
137.3200997965
 10
127.6986138262
 20
137.3201139718
 10
127.6913788141
 20
137.3197575
 10
127.6840534596
 20
137.3190311107
 10
127.6766474914
 20
137.3179360081
  0
LWPOLYLINE
  5
291
100
AcDbEntity
  8
RACCORDO
100
AcDbPolyline
 62
253
  6
CONTINUOUS
 90
50
 70
0
 10
126.3448788946
 20
137.2321351682
 10
126.3291506765
 20
137.2397871706
 10
126.3130334456
 20
137.2472133255
 10
126.2965272019
 20
137.2544136331
 10
126.2796187345
 20
137.2613932806
 10
126.2623212544
 20
137.2681470807
 10
126.2446743944
 20
137.2746594716
 10
126.2266775727
 20
137.2809298015
 10
126.2083313711
 20
137.2869587222
 10
126.1896771686
 20
137.2927326273
 10
126.170714331
 20
137.2982509209
 10
126.1514434924
 20
137.3035141989
 10
126.1319079337
 20
137.3085106421
 10
126.1121070313
 20
137.3132396594
 10
126.0920414089
 20
137.317701842
 10
126.0717562177
 20
137.3218871445
 10
126.0512509635
 20
137.3257949426
 10
126.0305261407
 20
137.3294258607
 10
126.0096283837
 20
137.3327717267
 10
125.9885573012
 20
137.3358318983
 10
125.9673132845
 20
137.3386070177
 10
125.9459441426
 20
137.3410908399
 10
125.9244496121
 20
137.3432827074
 10
125.9028299562
 20
137.3451832776
 10
125.8811337738
 20
137.3467882772
 10
125.8593608673
 20
137.3480970423
 10
125.8375114342
 20
137.3491102368
 10
125.8156346658
 20
137.3498255786
 10
125.7937305213
 20
137.3502423961
 10
125.7717990414
 20
137.350361361
 10
125.7498895403
 20
137.3501822056
 10
125.7280020482
 20
137.3497042582
 10
125.7061365349
 20
137.3489281906
 10
125.6843422238
 20
137.3478557505
 10
125.6626193014
 20
137.3464862725
 10
125.6409675812
 20
137.3448204219
 10
125.6194357277
 20
137.342861943
 10
125.5980239901
 20
137.3406101758
 10
125.5767321192
 20
137.3380657803
 10
125.5556080317
 20
137.3352344811
 10
125.5346521067
 20
137.3321156315
 10
125.5138639652
 20
137.3287098783
 10
125.493290387
 20
137.3250248856
 10
125.4729318549
 20
137.3210600235
 10
125.4527878862
 20
137.316815922
 10
125.4329038124
 20
137.3123021355
 10
125.4132802466
 20
137.3075180665
 10
125.3939165758
 20
137.3024643126
 10
125.3748562926
 20
137.2971522212
 10
125.3604741927
 20
137.2928804158
  0
LWPOLYLINE
  5
292
100
AcDbEntity
  8
RACCORDO
100
AcDbPolyline
 62
7
  6
CONTINUOUS
 90
43
 70
0
 10
126.4335853601
 20
137.2374455221
 10
126.4170949739
 20
137.2455036321
 10
126.3943653741
 20
137.2560251845
 10
126.3712369924
 20
137.266081658
 10
126.3477366416
 20
137.2756751866
 10
126.3238801176
 20
137.2848125579
 10
126.2996750853
 20
137.2935021418
 10
126.2751413274
 20
137.3017471041
 10
126.2502996192
 20
137.3095499489
 10
126.2251614001
 20
137.3169153768
 10
126.1997469643
 20
137.3238453071
 10
126.1740758857
 20
137.3303414914
 10
126.1481606236
 20
137.3364071419
 10
126.1220211672
 20
137.3420435526
 10
126.095677131
 20
137.3472517296
 10
126.0691423512
 20
137.3520338649
 10
126.0424376638
 20
137.356390695
 10
126.0155816247
 20
137.3603231084
 10
125.9885859526
 20
137.3638331185
 10
125.9614716574
 20
137.3669211039
 10
125.9342568527
 20
137.3695877808
 10
125.9069495341
 20
137.3718348741
 10
125.8795692187
 20
137.3736624974
 10
125.8521352053
 20
137.3750709957
 10
125.8246553665
 20
137.3760612305
 10
125.7971490862
 20
137.3766330208
 10
125.7696356614
 20
137.3767865645
 10
125.7421228715
 20
137.3765218674
 10
125.7146299759
 20
137.3758385356
 10
125.6871763951
 20
137.3747365871
 10
125.6597701116
 20
137.3732151713
 10
125.6324304355
 20
137.3712737406
 10
125.6051768636
 20
137.3689120513
 10
125.5780174865
 20
137.3661283822
 10
125.5509705245
 20
137.3629218561
 10
125.5240568471
 20
137.3592919643
 10
125.4972879819
 20
137.3552365948
 10
125.4706825481
 20
137.3507547186
 10
125.4442612676
 20
137.3458454698
 10
125.4180376283
 20
137.3405064622
 10
125.3920312306
 20
137.3347365519
 10
125.3662620338
 20
137.3285343118
 10
125.3604741927
 20
137.3270288347
  0
LINE
  5
293
100
AcDbEntity
  8
RACCORDO
100
AcDbLine
 62
7
  6
CONTINUOUS
 10
128.0661094605
 20
135.0823566887
 11
129.5042664094
 21
134.3632782142
  0
LINE
  5
294
100
AcDbEntity
  8
RACCORDO
100
AcDbLine
 62
253
  6
CONTINUOUS
 10
126.4994751684
 20
137.1548370313
 11
126.3448788946
 21
137.2321351682
  0
LINE
  5
295
100
AcDbEntity
  8
RACCORDO
100
AcDbLine
 62
7
  6
CONTINUOUS
 10
126.5737850532
 20
137.167345703
 11
126.4335811366
 21
137.2374476614
  0
LWPOLYLINE
  5
296
100
AcDbEntity
  8
0
100
AcDbPolyline
 62
7
  6
CONTINUOUS
 90
51
 70
0
 10
101.5664720121
 20
148.7922929016
 10
101.7349711022
 20
148.7072139501
 10
101.9037821507
 20
148.61072811
 10
102.0723896685
 20
148.502998833
 10
102.2405337833
 20
148.3840328928
 10
102.4074094159
 20
148.2542391244
 10
102.5717020568
 20
148.1145897193
 10
102.7328649653
 20
147.965589616
 10
102.8904564783
 20
147.8076884915
 10
103.0434103545
 20
147.6420645421
 10
103.1908966994
 20
147.4698576847
 10
103.3329838849
 20
147.29123523
 10
103.4699642809
 20
147.1059322208
 10
103.601661469
 20
146.9141595781
 10
103.7274332496
 20
146.7168237765
 10
103.8468385821
 20
146.5146395564
 10
103.9595049269
 20
146.3082813812
 10
104.0651423013
 20
146.0983266442
 10
104.1634710004
 20
145.8853678914
 10
104.2542003217
 20
145.6700705394
 10
104.3370808311
 20
145.4530651455
 10
104.4119129304
 20
145.2348964471
 10
104.4783866155
 20
145.0165252104
 10
104.5364138152
 20
144.7983043227
 10
104.5860326774
 20
144.5798741382
 10
104.6270584936
 20
144.361394579
 10
104.6591108114
 20
144.1440906906
 10
104.6819177181
 20
143.9292100789
 10
104.6953560491
 20
143.7173010791
 10
104.6993059168
 20
143.509204753
 10
104.6937427457
 20
143.3065230436
 10
104.678771946
 20
143.1100277537
 10
104.654509317
 20
142.9201111273
 10
104.6211729462
 20
142.7376675713
 10
104.5791035412
 20
142.5635999711
 10
104.5284752789
 20
142.3978781819
 10
104.4691999781
 20
142.2400384013
 10
104.4012257281
 20
142.0901850769
 10
104.3248837212
 20
141.9492629115
 10
104.2406222827
 20
141.8180894496
 10
104.1488848962
 20
141.6972042352
 10
104.049859161
 20
141.5867177672
 10
103.9436663227
 20
141.4867371556
 10
103.8305727054
 20
141.3975480662
 10
103.7109527023
 20
141.319479645
 10
103.5850649918
 20
141.252741766
 10
103.4534077496
 20
141.1976323328
 10
103.3162345689
 20
141.1542907878
 10
103.1733936323
 20
141.1228002645
 10
103.0248556384
 20
141.1034098451
 10
102.8713877366
 20
141.0964699233
  0
LWPOLYLINE
  5
297
100
AcDbEntity
  8
0
100
AcDbPolyline
 62
7
  6
CONTINUOUS
 90
44
 70
0
 10
101.8846700636
 20
149.1763919273
 10
102.0577233347
 20
149.0889100246
 10
102.2304379356
 20
148.990460898
 10
102.4023287881
 20
148.8813221628
 10
102.5729138635
 20
148.7618013712
 10
102.7417128349
 20
148.6322370188
 10
102.9082485509
 20
148.4929981113
 10
103.0720524745
 20
148.344479906
 10
103.2326645224
 20
148.1871035071
 10
103.3896318226
 20
148.0213171566
 10
103.5425119561
 20
147.8475933569
 10
103.6908764593
 20
147.6664246575
 10
103.8343104864
 20
147.4783232966
 10
103.9724114168
 20
147.2838229744
 10
104.10479018
 20
147.0834777877
 10
104.2310745443
 20
146.8778577832
 10
104.3509096783
 20
146.6675478587
 10
104.4639586515
 20
146.4531469635
 10
104.5699034321
 20
146.2352665444
 10
104.6684462627
 20
146.0145280041
 10
104.7593109828
 20
145.7915596254
 10
104.8422432314
 20
145.5669956555
 10
104.9170104296
 20
145.341476545
 10
104.9834032217
 20
145.1156453024
 10
105.0412363062
 20
144.8901443807
 10
105.0903481267
 20
144.6656164647
 10
105.1306013419
 20
144.4427036494
 10
105.1618838183
 20
144.2220437266
 10
105.1841090638
 20
144.0042671594
 10
105.1972161797
 20
143.7899968325
 10
105.2011701135
 20
143.5798471841
 10
105.1959619292
 20
143.3744199727
 10
105.1816086328
 20
143.1743031676
 10
105.158153185
 20
142.9800706855
 10
105.1256644336
 20
142.7922800115
 10
105.0842366442
 20
142.6114694386
 10
105.033989104
 20
142.4381571736
 10
104.9750661401
 20
142.2728413061
 10
104.9076368892
 20
142.1159981903
 10
104.8318944775
 20
141.9680799865
 10
104.7480555668
 20
141.8295137688
 10
104.6563598572
 20
141.7007004838
 10
104.5570694218
 20
141.5820137299
 10
104.4504679194
 20
141.4737985874
  0
LWPOLYLINE
  5
298
100
AcDbEntity
  8
0
100
AcDbPolyline
 62
7
  6
CONTINUOUS
 90
44
 70
0
 10
102.1955200087
 20
149.451827451
 10
102.3702503685
 20
149.3625167408
 10
102.545221382
 20
149.2620998826
 10
102.7199555868
 20
149.1507276738
 10
102.894210182
 20
149.0284075639
 10
103.0672418107
 20
148.8955129913
 10
103.23783817
 20
148.7529223265
 10
103.4055194479
 20
148.601058769
 10
103.5698397709
 20
148.4403491161
 10
103.7297201534
 20
148.2719432415
 10
103.8844189345
 20
148.0968352822
 10
104.0339519808
 20
147.9152247705
 10
104.178409341
 20
147.7271233704
 10
104.317455213
 20
147.5330301532
 10
104.4507121919
 20
147.3335361564
 10
104.5781492962
 20
147.1287085801
 10
104.6996372472
 20
146.9186816537
 10
104.8145795125
 20
146.7044094335
 10
104.9222943544
 20
146.4872122831
 10
105.022369586
 20
146.2681100965
 10
105.1147967513
 20
146.047322693
 10
105.1995566242
 20
145.8249955559
 10
105.2764163713
 20
145.6017880061
 10
105.3452056859
 20
145.3782477772
 10
105.4059142656
 20
145.1543436476
 10
105.4583416913
 20
144.9305920158
 10
105.5022587286
 20
144.7077114457
 10
105.5375327141
 20
144.4859927391
 10
105.5640064612
 20
144.2656687237
 10
105.5814280248
 20
144.047818473
 10
105.5896298946
 20
143.8339764452
 10
105.5885987615
 20
143.6247468514
 10
105.5783471941
 20
143.4207238954
 10
105.5590130518
 20
143.2232937608
 10
105.5308484782
 20
143.0333687251
 10
105.4940177568
 20
142.8509336284
 10
105.448602319
 20
142.6759274673
 10
105.3947698528
 20
142.5087943475
 10
105.3327128373
 20
142.349964143
 10
105.2624435808
 20
142.1994422424
 10
105.1839616066
 20
142.0573914435
 10
105.097597629
 20
141.9245592296
 10
105.0039094141
 20
141.8017627056
 10
104.9033980964
 20
141.6894675192
  0
LINE
  5
299
100
AcDbEntity
  8
RACCORDO
100
AcDbLine
 62
7
  6
CONTINUOUS
 10
106.1275696144
 20
176.5021148635
 11
106.1275696144
 21
175.4195831088
  0
LINE
  5
29A
100
AcDbEntity
  8
RACCORDO
100
AcDbLine
 62
253
  6
CONTINUOUS
 10
107.7617628854
 20
176.1552779193
 11
107.7617628854
 21
175.0727461646
  0
LWPOLYLINE
  5
29B
100
AcDbEntity
  8
RACCORDO
100
AcDbPolyline
 62
7
  6
CONTINUOUS
 90
12
 70
0
 10
113.3501460472
 20
175.7205525672
 10
113.350801213
 20
175.7226905528
 10
113.3525577018
 20
175.7261121642
 10
113.355145868
 20
175.7293124937
 10
113.3585551927
 20
175.7322943404
 10
113.3627421888
 20
175.7350196695
 10
113.3677168181
 20
175.7374851952
 10
113.3734691188
 20
175.7396942034
 10
113.3799257183
 20
175.7416185174
 10
113.387062159
 20
175.7432487451
 10
113.3949028985
 20
175.7445942786
 10
113.4034479368
 20
175.7456551179
  0
LINE
  5
29C
100
AcDbEntity
  8
RACCORDO
100
AcDbLine
 62
7
  6
CONTINUOUS
 10
120.1413271863
 20
162.0004040808
 11
120.324328561
 21
162.0887652675
  0
LWPOLYLINE
  5
29D
100
AcDbEntity
  8
RACCORDO
100
AcDbPolyline
 62
7
  6
CONTINUOUS
 90
40
 70
0
 10
120.1413271863
 20
162.0004040808
 10
120.134010588
 20
161.997010576
 10
120.1264530956
 20
161.993774392
 10
120.1186547089
 20
161.9906955287
 10
120.1106006271
 20
161.9877691143
 10
120.1023056512
 20
161.9850000206
 10
120.0938141839
 20
161.9824028639
 10
120.0851296852
 20
161.9799795989
 10
120.0762486952
 20
161.9777282708
 10
120.0672052372
 20
161.9756576316
 10
120.0579922401
 20
161.9737672763
 10
120.048616775
 20
161.97205761
 10
120.0391340782
 20
161.9705385991
 10
120.0295515391
 20
161.9692122505
 10
120.0198617683
 20
161.9680765575
 10
120.0100978336
 20
161.9671354665
 10
120.0002502889
 20
161.966389167
 10
119.9903285803
 20
161.9658374696
 10
119.9803941138
 20
161.9654837527
 10
119.9704565498
 20
161.9653291897
 10
119.9605062279
 20
161.9653726073
 10
119.9505755724
 20
161.9656138639
 10
119.9406549654
 20
161.9660542171
 10
119.9307540248
 20
161.9666924094
 10
119.9209340294
 20
161.9675245269
 10
119.9112044304
 20
161.9685506766
 10
119.9015557765
 20
161.9697707516
 10
119.8920209928
 20
161.9711805173
 10
119.8825927611
 20
161.9727820448
 10
119.8732783995
 20
161.974573263
 10
119.8641327881
 20
161.9765437248
 10
119.8551629827
 20
161.9786929637
 10
119.8463619276
 20
161.9810214462
 10
119.8377633352
 20
161.9835201249
 10
119.8293638144
 20
161.9861909843
 10
119.8211667565
 20
161.9890320398
 10
119.8132160473
 20
161.9920282901
 10
119.8055263156
 20
161.9951747347
 10
119.7980829326
 20
161.9984763741
 10
119.7908858983
 20
162.0019332082
  0
LWPOLYLINE
  5
29E
100
AcDbEntity
  8
0
100
AcDbPolyline
 62
7
  6
CONTINUOUS
 90
11
 70
0
 10
103.9494168908
 20
150.3287758921
 10
103.7754443157
 20
150.4068439604
 10
103.601230092
 20
150.4741139902
 10
103.4272454649
 20
150.5302631707
 10
103.2537294394
 20
150.5750492145
 10
103.0814162751
 20
150.6081158806
 10
102.9115044883
 20
150.6291609369
 10
102.7444708364
 20
150.6381276389
 10
102.5807527153
 20
150.6349956583
 10
102.4214093988
 20
150.6198586356
 10
102.2672368025
 20
150.5929903616
  0
LWPOLYLINE
  5
29F
100
AcDbEntity
  8
0
100
AcDbPolyline
 62
7
  6
CONTINUOUS
 90
11
 70
0
 10
103.1008887534
 20
149.9045118234
 10
102.9277419025
 20
149.982234989
 10
102.7543942443
 20
150.0492493388
 10
102.5813094806
 20
150.1052444642
 10
102.4088111475
 20
150.1499695081
 10
102.2375291703
 20
150.1831137076
 10
102.068380534
 20
150.2044094656
 10
101.901754391
 20
150.2137536342
 10
101.7381908952
 20
150.2110615375
 10
101.5787692957
 20
150.1963762757
 10
101.4242667974
 20
150.1699151996
  0
LWPOLYLINE
  5
2A0
100
AcDbEntity
  8
0
100
AcDbPolyline
 62
7
  6
CONTINUOUS
 90
11
 70
0
 10
103.5251528221
 20
150.1166438578
 10
103.3517766267
 20
150.1944628445
 10
103.1781065178
 20
150.2615773162
 10
103.0046099123
 20
150.3176573279
 10
102.8315403112
 20
150.3624489604
 10
102.6596115853
 20
150.3955937749
 10
102.489969308
 20
150.4167843026
 10
102.323074859
 20
150.4259432059
 10
102.1593875083
 20
150.4230260202
 10
101.999973999
 20
150.4081043254
 10
101.8456231814
 20
150.3814273823
  0
LWPOLYLINE
  5
2A1
100
AcDbEntity
  8
0
100
AcDbPolyline
 62
7
  6
CONTINUOUS
 90
11
 70
0
 10
102.6766246847
 20
149.692379789
 10
102.5048398977
 20
149.7695334891
 10
102.3331216141
 20
149.8360531129
 10
102.1619173775
 20
149.8916873304
 10
101.9916683126
 20
149.9362138382
 10
101.822837851
 20
149.9694322438
 10
101.655909321
 20
149.9911717234
 10
101.491122632
 20
150.0013055958
 10
101.3291499715
 20
149.9996959649
 10
101.1710780136
 20
149.9863508595
 10
101.017656434
 20
149.9614474171
  0
LWPOLYLINE
  5
2A2
100
AcDbEntity
  8
0
100
AcDbPolyline
 62
7
  6
CONTINUOUS
 90
11
 70
0
 10
102.2523606159
 20
149.4802477547
 10
102.0815061224
 20
149.557012125
 10
101.9109173249
 20
149.6231864281
 10
101.7410306223
 20
149.6785622259
 10
101.5723575062
 20
149.7229410441
 10
101.4052573346
 20
149.7561969044
 10
101.2399448762
 20
149.7782269696
 10
101.0765789913
 20
149.7888986274
 10
100.9158940733
 20
149.7880509787
 10
100.758936318
 20
149.7756727453
 10
100.6064211118
 20
149.7519112113
  0
LWPOLYLINE
  5
2A3
100
AcDbEntity
  8
RACCORDO
100
AcDbPolyline
 62
253
  6
CONTINUOUS
 90
14
 70
0
 10
127.6766474914
 20
137.3179360081
 10
127.6687229503
 20
137.3217107722
 10
127.6607328177
 20
137.3250915606
 10
127.6526882493
 20
137.3280736529
 10
127.6446004769
 20
137.3306528856
 10
127.6364807922
 20
137.3328256578
 10
127.6283405319
 20
137.3345889357
 10
127.6201910612
 20
137.3359402575
 10
127.6120437583
 20
137.3368777367
 10
127.6039099981
 20
137.3374000641
 10
127.595801137
 20
137.3375065107
 10
127.5877284963
 20
137.3371969278
 10
127.5797033469
 20
137.3364717476
 10
127.5719449276
 20
137.3353671473
  0
LINE
  5
2A4
100
AcDbEntity
  8
RACCORDO
100
AcDbLine
 62
253
  6
CONTINUOUS
 10
127.8210132711
 20
137.2457531182
 11
127.6766474914
 21
137.3179360081
  0
LINE
  5
2A5
100
AcDbEntity
  8
RACCORDO
100
AcDbLine
 62
7
  6
CONTINUOUS
 10
127.9002735391
 20
137.2356744791
 11
127.7559077594
 21
137.307857369
  0
LWPOLYLINE
  5
2A6
100
AcDbEntity
  8
0
100
AcDbPolyline
 62
7
  6
CONTINUOUS
 90
44
 70
0
 10
102.6197840774
 20
149.6639594854
 10
102.7943930605
 20
149.5747146102
 10
102.9692431955
 20
149.4743785928
 10
103.1438580131
 20
149.3631017903
 10
103.3179952396
 20
149.2408915141
 10
103.490913035
 20
149.1081202492
 10
103.6614014953
 20
148.965664239
 10
103.828981415
 20
148.8139458445
 10
103.9932080744
 20
148.6533904645
 10
104.1530053495
 20
148.4851442131
 10
104.3076152681
 20
148.310219156
 10
104.4570719334
 20
148.1287952991
 10
104.6015149292
 20
147.9408168051
 10
104.7406024331
 20
147.7467761159
 10
104.8739518195
 20
147.5472565574
 10
105.0015705024
 20
147.3422448349
 10
105.1233572318
 20
147.1317899101
 10
105.2386517737
 20
146.9169131706
 10
105.3466797807
 20
146.6990894417
 10
105.4470516555
 20
146.4792866586
 10
105.5397278152
 20
146.2577860505
 10
105.6245651433
 20
146.0350743204
 10
105.7012826813
 20
145.8120718705
 10
105.769846541
 20
145.5890776355
 10
105.8303903251
 20
145.3656368122
 10
105.8827415206
 20
145.1420946617
 10
105.9266127272
 20
144.9193386708
 10
105.9618497482
 20
144.6977458094
 10
105.988293004
 20
144.4775765373
 10
106.0056963306
 20
144.2598791036
 10
106.0138926755
 20
144.0461844617
 10
106.0128687358
 20
143.8370953152
 10
106.0026370061
 20
143.6332049363
 10
105.9833349795
 20
143.435897218
 10
105.955217984
 20
143.2461046976
 10
105.9184481368
 20
143.0637886633
 10
105.8730891176
 20
142.8888275584
 10
105.8192997352
 20
142.7216742495
 10
105.7572630284
 20
142.5627653941
 10
105.6869548951
 20
142.4120608387
 10
105.6083318174
 20
142.2697005057
 10
105.5217293909
 20
142.1365034792
 10
105.4277464644
 20
142.0133781575
 10
105.3268424407
 20
141.9007552716
  0
LWPOLYLINE
  5
2A7
100
AcDbEntity
  8
0
100
AcDbPolyline
 62
7
  6
CONTINUOUS
 90
44
 70
0
 10
103.0440481461
 20
149.8760915198
 10
103.2185515109
 20
149.7869039278
 10
103.3932964597
 20
149.6866382436
 10
103.5678073856
 20
149.5754444417
 10
103.7418424705
 20
149.4533297165
 10
103.9146611958
 20
149.3206657221
 10
104.0850557517
 20
149.1783268467
 10
104.2525475451
 20
149.0267346404
 10
104.4166927696
 20
148.8663133578
 10
104.5764175507
 20
148.6982061047
 10
104.7309542712
 20
148.5234352607
 10
104.8803481125
 20
148.3421687779
 10
105.0247688268
 20
148.1543096251
 10
105.1638698151
 20
147.960347655
 10
105.2972667203
 20
147.7608594593
 10
105.42499375
 20
147.5557769994
 10
105.5469517604
 20
147.3451228017
 10
105.6624574384
 20
147.12993334
 10
105.7707207635
 20
146.9116899833
 10
105.8713947894
 20
146.691237924
 10
105.9643667231
 20
146.4689798029
 10
106.0493431526
 20
146.2457877304
 10
106.1259959984
 20
146.0228241231
 10
106.1944144551
 20
145.8001588798
 10
106.2548439141
 20
145.5770185073
 10
106.3071341366
 20
145.3536304664
 10
106.3509609695
 20
145.1309979864
 10
106.3861624938
 20
144.9095294044
 10
106.4125784618
 20
144.689495092
 10
106.4299651625
 20
144.4719308504
 10
106.4381559256
 20
144.2583647564
 10
106.4371374617
 20
144.0493982935
 10
106.4269222121
 20
143.8456238252
 10
106.4076473464
 20
143.6484231371
 10
106.3795700131
 20
143.4587410246
 10
106.3428508704
 20
143.276524072
 10
106.2975424608
 20
143.1016128671
 10
106.2437980647
 20
142.9344659262
 10
106.1817945997
 20
142.7755235608
 10
106.111484693
 20
142.6247161132
 10
106.0328076866
 20
142.4821858999
 10
105.9460937185
 20
142.3487778083
 10
105.851930716
 20
142.2254136739
 10
105.7507096794
 20
142.1124789756
  0
LWPOLYLINE
  5
2A8
100
AcDbEntity
  8
0
100
AcDbPolyline
 62
7
  6
CONTINUOUS
 90
44
 70
0
 10
103.4683122148
 20
150.0882235541
 10
103.6426049959
 20
149.9991501628
 10
103.8171402175
 20
149.8990246767
 10
103.9914439898
 20
149.7879963106
 10
104.1652753971
 20
149.6660720287
 10
104.3378965549
 20
149.5336218312
 10
104.5081038334
 20
149.3915164051
 10
104.6754199512
 20
149.240175599
 10
104.8394028232
 20
149.0800214675
 10
104.9989827969
 20
148.9121914105
 10
105.1533783497
 20
148.7377221733
 10
105.3026511385
 20
148.5567634633
 10
105.447015939
 20
148.3691566565
 10
105.5861173334
 20
148.1753899223
 10
105.7195706311
 20
147.9760266281
 10
105.8474553002
 20
147.77090826
 10
105.9696752289
 20
147.5600160449
 10
106.0855113484
 20
147.3444086207
 10
106.1941522375
 20
147.1255698363
 10
106.2952943417
 20
146.9042032549
 10
106.3887351924
 20
146.68085044
 10
106.4740045211
 20
146.4568224722
 10
106.5507388071
 20
146.2334847425
 10
106.6191316109
 20
146.0107228402
 10
106.6794928685
 20
145.7876255924
 10
106.7316880326
 20
145.564417209
 10
106.7754084194
 20
145.3420994099
 10
106.8105265463
 20
145.1209452531
 10
106.8368872253
 20
144.9011807667
 10
106.8542399501
 20
144.6838821334
 10
106.8624187093
 20
144.4705724926
 10
106.8614102546
 20
144.2618511901
 10
106.8512269457
 20
144.0583084722
 10
106.8320053025
 20
143.8613217894
 10
106.8040049966
 20
143.6718541443
 10
106.7673842743
 20
143.4898295272
 10
106.7221784846
 20
143.3150302617
 10
106.6685326105
 20
143.1479243092
 10
106.6066136796
 20
142.9889561257
 10
106.5363370579
 20
142.8380076664
 10
106.4576144836
 20
142.6952240758
 10
106.3707674398
 20
142.561491514
 10
106.2763666976
 20
142.4377536077
 10
106.1747244156
 20
142.3243545811
  0
LWPOLYLINE
  5
2A9
100
AcDbEntity
  8
0
100
AcDbPolyline
 62
7
  6
CONTINUOUS
 90
44
 70
0
 10
103.8925762835
 20
150.3003555885
 10
104.066604164
 20
150.2114258315
 10
104.2408755538
 20
150.1114766425
 10
104.4149187169
 20
150.0006562842
 10
104.5884938657
 20
149.8789714369
 10
104.7608664248
 20
149.7467900248
 10
104.9308380218
 20
149.6049780854
 10
105.0979330992
 20
149.4539532599
 10
105.2617116508
 20
149.2941349085
 10
105.4211091125
 20
149.1266535081
 10
105.5753317446
 20
148.9525577246
 10
105.7244563611
 20
148.7719800571
 10
105.868739413
 20
148.5847047368
 10
106.0078148708
 20
148.391221559
 10
106.1413009458
 20
148.192077173
 10
106.2693265886
 20
147.9870167913
 10
106.3917997515
 20
147.7759782922
 10
106.5079648164
 20
147.5600428239
 10
106.616989705
 20
147.3406939807
 10
106.7185817035
 20
147.1185667198
 10
106.8124856206
 20
146.8942682456
 10
106.8981359786
 20
146.6693208235
 10
106.9751842016
 20
146.4450591843
 10
107.0438111643
 20
146.2214157133
 10
107.1042476628
 20
145.9978111294
 10
107.1563499844
 20
145.7747001026
 10
107.1999185171
 20
145.5528471473
 10
107.2349191418
 20
145.3321556965
 10
107.2612094592
 20
145.1127313674
 10
107.2785186729
 20
144.8957668827
 10
107.286681496
 20
144.6827799807
 10
107.2856847453
 20
144.4743676219
 10
107.2755407028
 20
144.2711170823
 10
107.2563850658
 20
144.0744002224
 10
107.2284795979
 20
143.8851968661
 10
107.1919799981
 20
143.7034091508
 10
107.1469048921
 20
143.5287629041
 10
107.0933915392
 20
143.3617363333
 10
107.0315967583
 20
143.2027758761
 10
106.9613977986
 20
143.0517123918
 10
106.882677788
 20
142.9086922875
 10
106.7957496469
 20
142.7746442644
 10
106.7011676949
 20
142.6505353445
 10
106.5992016382
 20
142.5367058298
  0
LWPOLYLINE
  5
2AA
100
AcDbEntity
  8
0
100
AcDbPolyline
 62
7
  6
CONTINUOUS
 90
44
 70
0
 10
104.3168403522
 20
150.5124876228
 10
104.4903422955
 20
150.4238429647
 10
104.664135973
 20
150.3242156975
 10
104.837752986
 20
150.2137440319
 10
105.0109472321
 20
150.0924313765
 10
105.1829953032
 20
149.9606300893
 10
105.352726222
 20
149.8191731172
 10
105.5196719891
 20
149.6684562702
 10
105.6833814854
 20
149.5088931609
 10
105.84278655
 20
149.3416018216
 10
105.9970951335
 20
149.1676123332
 10
106.146371708
 20
148.9870551555
 10
106.2908482805
 20
148.7997312954
 10
106.430146551
 20
148.606135884
 10
106.5638861557
 20
148.4068026349
 10
106.692192649
 20
148.201469572
 10
106.8149684798
 20
147.9900691908
 10
106.9314475233
 20
147.7736848386
 10
107.0407861978
 20
147.5538059615
 10
107.1426861698
 20
147.3310632022
 10
107.2368804871
 20
147.1060729264
 10
107.3227860949
 20
146.8803862935
 10
107.4001053879
 20
146.655169212
 10
107.4689441
 20
146.4305343569
 10
107.5293890609
 20
146.206456998
 10
107.5812736999
 20
145.9837606034
 10
107.6245644591
 20
145.7628268935
 10
107.6593642265
 20
145.5429879465
 10
107.6855421604
 20
145.3241765359
 10
107.7027912965
 20
145.1077544642
 10
107.7109406956
 20
144.8951979784
 10
107.7099648571
 20
144.6870937219
 10
107.6998631274
 20
144.4840456088
 10
107.6807585814
 20
144.2874293036
 10
107.6528990152
 20
144.0982238019
 10
107.6164287092
 20
143.9163483776
 10
107.5713606373
 20
143.7415594679
 10
107.5178241304
 20
143.5743449126
 10
107.455967672
 20
143.415158985
 10
107.385668198
 20
143.2638569347
 10
107.3068059458
 20
143.1205969545
 10
107.2196875753
 20
142.9863125824
 10
107.1248656285
 20
142.861982352
 10
107.0226066339
 20
142.7479548109
  0
LWPOLYLINE
  5
2AB
100
AcDbEntity
  8
0
100
AcDbPolyline
 62
7
  6
CONTINUOUS
 90
19
 70
0
 10
108.9904912664
 20
149.0838620769
 10
108.8810595957
 20
149.2727293103
 10
108.7668188886
 20
149.4573750007
 10
108.6480565495
 20
149.6374243046
 10
108.5251464076
 20
149.8124074662
 10
108.398312482
 20
149.9820989737
 10
108.2676014901
 20
150.1464861384
 10
108.1332624153
 20
150.3052707112
 10
107.9956226104
 20
150.4580804597
 10
107.8548207357
 20
150.6047637299
 10
107.7111029862
 20
150.7450460187
 10
107.5648157808
 20
150.8785717409
 10
107.4162455482
 20
151.0050652347
 10
107.2656785724
 20
151.1242650666
 10
107.1134537747
 20
151.2358857252
 10
106.9599440149
 20
151.3396437857
 10
106.8054906084
 20
151.4353050078
 10
106.6504009338
 20
151.5226758308
 10
106.4950013031
 20
151.6015680982
  0
LWPOLYLINE
  5
2AC
100
AcDbEntity
  8
0
100
AcDbPolyline
 62
7
  6
CONTINUOUS
 90
18
 70
0
 10
108.8771311556
 20
149.1545568565
 10
108.9941081454
 20
148.9454145047
 10
109.1045246665
 20
148.7324828553
 10
109.2081139464
 20
148.5162566344
 10
109.3045580897
 20
148.2973783945
 10
109.3932232135
 20
148.0773959742
 10
109.4738302702
 20
147.8573055352
 10
109.5464246149
 20
147.6373132874
 10
109.6109694467
 20
147.417795586
 10
109.6673532908
 20
147.1994037135
 10
109.7155319714
 20
146.9826171852
 10
109.7555323316
 20
146.7675454968
 10
109.7872800454
 20
146.5547320673
 10
109.8107201111
 20
146.3447245543
 10
109.8258416315
 20
146.1376521242
 10
109.8325858197
 20
145.9339283918
 10
109.8309008257
 20
145.734230835
 10
109.8207690451
 20
145.5390931183
  0
LWPOLYLINE
  5
2AD
100
AcDbEntity
  8
RACCORDO
100
AcDbPolyline
 62
253
  6
CONTINUOUS
 90
40
 70
0
 10
107.7617628854
 20
176.1552779193
 10
107.761622043
 20
176.1640686749
 10
107.7611997445
 20
176.1729910183
 10
107.7604966748
 20
176.1820304775
 10
107.7595139742
 20
176.1911723904
 10
107.7582532367
 20
176.2004019289
 10
107.7567165073
 20
176.2097041224
 10
107.7549062784
 20
176.219063883
 10
107.7528254864
 20
176.2284660289
 10
107.7504775063
 20
176.2378953099
 10
107.7478661464
 20
176.2473364317
 10
107.7449956425
 20
176.2567740806
 10
107.7418706505
 20
176.2661929488
 10
107.7384962391
 20
176.2755777589
 10
107.7348778818
 20
176.2849132887
 10
107.7310214474
 20
176.2941843958
 10
107.7269331911
 20
176.3033760426
 10
107.7226197441
 20
176.3124733201
 10
107.7180881029
 20
176.3214614725
 10
107.7133456177
 20
176.330325921
 10
107.7083999809
 20
176.3390522875
 10
107.7032592143
 20
176.3476264176
 10
107.6979316564
 20
176.3560344043
 10
107.6924259483
 20
176.3642626096
 10
107.6867510205
 20
176.3722976874
 10
107.6809160776
 20
176.3801266047
 10
107.6749305839
 20
176.3877366632
 10
107.668804248
 20
176.3951155191
 10
107.6625470068
 20
176.402251204
 10
107.6561690096
 20
176.4091321438
 10
107.6496806014
 20
176.4157471776
 10
107.6430923066
 20
176.4220855757
 10
107.6364148113
 20
176.4281370574
 10
107.6296589465
 20
176.4338918069
 10
107.6228356703
 20
176.4393404902
 10
107.6159560499
 20
176.4444742695
 10
107.6090312442
 20
176.4492848177
 10
107.6020724852
 20
176.4537643321
 10
107.5950910601
 20
176.457905547
 10
107.5880982927
 20
176.4617017453
  0
LWPOLYLINE
  5
2AE
100
AcDbEntity
  8
RACCORDO
100
AcDbPolyline
 62
253
  6
CONTINUOUS
 90
200
 70
0
 10
108.4742521828
 20
174.0237546723
 10
108.474281938
 20
174.0193521823
 10
108.4743724551
 20
174.0149146814
 10
108.474523703
 20
174.0104894038
 10
108.4747356428
 20
174.0060766153
 10
108.4750082308
 20
174.0016765817
 10
108.4753414201
 20
173.9972895361
 10
108.4757351587
 20
173.9929157435
 10
108.4761893897
 20
173.9885554684
 10
108.4767040538
 20
173.9842089436
 10
108.4772790858
 20
173.9798764327
 10
108.4779144156
 20
173.9755581993
 10
108.4786099719
 20
173.9712544752
 10
108.4793656758
 20
173.9669655245
 10
108.4801814448
 20
173.9626916079
 10
108.4810571959
 20
173.958432952
 10
108.4819928365
 20
173.9541898247
 10
108.4829882724
 20
173.94996248
 10
108.4840434142
 20
173.9457511229
 10
108.4851581611
 20
173.9415560058
 10
108.486332404
 20
173.9373773953
 10
108.4875660371
 20
173.9332155176
 10
108.4888589455
 20
173.9290706292
 10
108.4902110089
 20
173.9249429893
 10
108.4916221085
 20
173.9208328267
 10
108.4930921162
 20
173.9167403978
 10
108.4946208994
 20
173.9126659582
 10
108.4962083275
 20
173.9086097359
 10
108.4978542599
 20
173.9045719849
 10
108.4995585514
 20
173.9005529591
 10
108.5013210596
 20
173.8965528848
 10
108.5031416313
 20
173.8925720143
 10
108.5050201091
 20
173.8886105991
 10
108.5069563389
 20
173.884668864
 10
108.508950154
 20
173.8807470613
 10
108.5110013856
 20
173.8768454381
 10
108.5131098721
 20
173.8729642105
 10
108.5152754329
 20
173.8691036312
 10
108.5174978893
 20
173.8652639421
 10
108.5197770785
 20
173.8614453419
 10
108.5221128162
 20
173.8576480689
 10
108.5245049058
 20
173.8538723748
 10
108.5269531619
 20
173.8501184773
 10
108.5294573846
 20
173.8463866184
 10
108.5320173691
 20
173.8426770409
 10
108.5346329177
 20
173.8389899622
 10
108.5373038184
 20
173.8353256223
 10
108.540029855
 20
173.8316842605
 10
108.5428108185
 20
173.8280660926
 10
108.5456464853
 20
173.8244713556
 10
108.5485366275
 20
173.8209002859
 10
108.5514810248
 20
173.8173530975
 10
108.554479442
 20
173.8138300245
 10
108.5575316398
 20
173.8103313002
 10
108.5606373871
 20
173.8068571362
 10
108.5637964347
 20
173.8034077663
 10
108.5670085343
 20
173.7999834176
 10
108.5702734527
 20
173.7965842908
 10
108.5735909293
 20
173.7932106165
 10
108.5769607058
 20
173.7898626186
 10
108.5803825485
 20
173.7865404865
 10
108.583856195
 20
173.7832444399
 10
108.5873813687
 20
173.7799747074
 10
108.5909578116
 20
173.7767314908
 10
108.5945852455
 20
173.7735150108
 10
108.5982633878
 20
173.7703254882
 10
108.6019919696
 20
173.7671631227
 10
108.6057707024
 20
173.7640281315
 10
108.6095992925
 20
173.7609207316
 10
108.6134774593
 20
173.7578411219
 10
108.6174049035
 20
173.7547895157
 10
108.6213813211
 20
173.7517661263
 10
108.6254064204
 20
173.7487711501
 10
108.6294798912
 20
173.7458047972
 10
108.6336014197
 20
173.7428672765
 10
108.6377707047
 20
173.739958781
 10
108.6419874213
 20
173.7370795198
 10
108.6462512498
 20
173.7342296948
 10
108.6505618929
 20
173.731409487
 10
108.6549190186
 20
173.7286190998
 10
108.6593222954
 20
173.7258587329
 10
108.663771424
 20
173.7231285609
 10
108.6682660699
 20
173.7204287789
 10
108.6728058857
 20
173.717759587
 10
108.67739055
 20
173.7151211654
 10
108.6820197144
 20
173.7125137075
 10
108.6866930264
 20
173.7099374068
 10
108.6914101538
 20
173.7073924409
 10
108.6961707401
 20
173.7048789987
 10
108.7009744223
 20
173.7023972695
 10
108.7058208551
 20
173.69994743
 10
108.7107096715
 20
173.6975296654
 10
108.7156405004
 20
173.6951441595
 10
108.7206129865
 20
173.692791086
 10
108.7256267528
 20
173.6904706258
 10
108.7306814201
 20
173.6881829577
 10
108.7357766259
 20
173.6859282508
 10
108.7409119791
 20
173.6837066835
 10
108.7460870968
 20
173.6815184276
 10
108.7513016251
 20
173.6793636417
 10
108.7565551691
 20
173.6772424972
 10
108.7618473334
 20
173.6751551636
 10
108.7671777598
 20
173.6731017949
 10
108.7725460503
 20
173.6710825563
 10
108.7779517968
 20
173.6690976144
 10
108.7833946239
 20
173.6671471235
 10
108.7888741236
 20
173.6652312448
 10
108.7943898819
 20
173.6633501393
 10
108.7999415117
 20
173.6615039589
 10
108.8055285978
 20
173.6596928596
 10
108.8111507178
 20
173.6579169976
 10
108.8168074697
 20
173.656176523
 10
108.8224984287
 20
173.6544715874
 10
108.8282231665
 20
173.6528023408
 10
108.8339812732
 20
173.6511689293
 10
108.839772315
 20
173.6495714994
 10
108.8455958574
 20
173.6480101957
 10
108.8514514867
 20
173.6464851586
 10
108.8573387571
 20
173.6449965304
 10
108.8632572316
 20
173.6435444492
 10
108.8692065062
 20
173.6421290472
 10
108.8751861335
 20
173.6407504601
 10
108.8811956646
 20
173.6394088222
 10
108.8872346916
 20
173.6381042614
 10
108.8933027628
 20
173.6368369078
 10
108.8993994207
 20
173.6356068907
 10
108.9055242466
 20
173.6344143353
 10
108.9116767837
 20
173.633259366
 10
108.9178565669
 20
173.632142107
 10
108.9240631622
 20
173.6310626811
 10
108.9302961063
 20
173.6300212071
 10
108.9365549279
 20
173.6290178036
 10
108.9428391795
 20
173.6280525896
 10
108.9491483887
 20
173.6271256791
 10
108.9554820811
 20
173.6262371839
 10
108.961839803
 20
173.6253872185
 10
108.9682210743
 20
173.6245758909
 10
108.9746254166
 20
173.6238033071
 10
108.9810523765
 20
173.6230695756
 10
108.9875014661
 20
173.6223747987
 10
108.9939722038
 20
173.6217190765
 10
109.000464144
 20
173.6211025114
 10
109.0069767965
 20
173.6205251996
 10
109.0135096718
 20
173.6199872358
 10
109.0200623233
 20
173.6194887177
 10
109.0266342573
 20
173.6190297357
 10
109.0332249781
 20
173.6186103788
 10
109.039834035
 20
173.6182307404
 10
109.0464609348
 20
173.617890905
 10
109.053105172
 20
173.6175909559
 10
109.0597662753
 20
173.6173309827
 10
109.0664437437
 20
173.617111064
 10
109.0731370705
 20
173.6169312768
 10
109.0798457738
 20
173.6167917057
 10
109.0865693461
 20
173.616692423
 10
109.0933072788
 20
173.6166334994
 10
109.1000590861
 20
173.6166150139
 10
109.1068242543
 20
173.6166370327
 10
109.1136022731
 20
173.61669962
 10
109.1203926606
 20
173.6168028496
 10
109.1271948993
 20
173.6169467812
 10
109.1340084753
 20
173.6171314729
 10
109.1408329108
 20
173.6173569936
 10
109.1476676846
 20
173.6176233966
 10
109.1545122801
 20
173.6179307339
 10
109.1613662248
 20
173.6182790698
 10
109.1682289967
 20
173.6186684519
 10
109.1751000739
 20
173.6190989256
 10
109.1819789831
 20
173.6195705511
 10
109.1888652074
 20
173.6200833701
 10
109.1957582143
 20
173.6206374216
 10
109.2026575059
 20
173.6212327589
 10
109.2095625566
 20
173.6218694169
 10
109.2164728376
 20
173.6225474285
 10
109.2233878451
 20
173.623266841
 10
109.2303070496
 20
173.6240276826
 10
109.2372299216
 20
173.6248299795
 10
109.2441559564
 20
173.6256737736
 10
109.2510846204
 20
173.626559086
 10
109.2580153843
 20
173.6274859367
 10
109.2649477481
 20
173.6284543626
 10
109.2718811781
 20
173.6294643787
 10
109.2788151419
 20
173.6305159981
 10
109.2857491416
 20
173.6316092527
 10
109.2926826378
 20
173.6327441502
 10
109.2996151011
 20
173.633920698
 10
109.3065460474
 20
173.6351389254
 10
109.3134749423
 20
173.6363988345
 10
109.3204012494
 20
173.6377004256
 10
109.3273244816
 20
173.6390437228
 10
109.3342441105
 20
173.6404287232
 10
109.3411595919
 20
173.6418554193
 10
109.3480704153
 20
173.6433238253
 10
109.3549760445
 20
173.6448339302
 10
109.3618759422
 20
173.646385721
 10
109.3687695965
 20
173.6479792057
 10
109.3756564699
 20
173.6496143664
 10
109.382536026
 20
173.6512911835
 10
109.3894077547
 20
173.6530096594
 10
109.3962711177
 20
173.6547697693
  0
LWPOLYLINE
  5
2AF
100
AcDbEntity
  8
RACCORDO
100
AcDbPolyline
 62
253
  6
CONTINUOUS
 90
69
 70
0
 10
109.3962711177
 20
173.6547697693
 10
109.4031255799
 20
173.6565714868
 10
109.4099706358
 20
173.6584148099
 10
109.4168057485
 20
173.6602997072
 10
109.4236303825
 20
173.6622261453
 10
109.4304440341
 20
173.664194117
 10
109.4372461619
 20
173.6662035823
 10
109.4440362365
 20
173.6682545029
 10
109.4508137719
 20
173.6703468711
 10
109.4575782343
 20
173.6724806425
 10
109.4643290887
 20
173.6746557703
 10
109.471065847
 20
173.6768722408
 10
109.4777879792
 20
173.6791300041
 10
109.4844949491
 20
173.681429006
 10
109.4911862599
 20
173.6837692242
 10
109.4978613806
 20
173.6861506011
 10
109.5045197793
 20
173.6885730767
 10
109.5111609592
 20
173.6910366227
 10
109.517784402
 20
173.6935411789
 10
109.5243895671
 20
173.6960866745
 10
109.5309759247
 20
173.6986730615
 10
109.5375429583
 20
173.701300273
 10
109.5440901309
 20
173.7039682304
 10
109.5506168834
 20
173.7066768654
 10
109.5571227217
 20
173.7094261117
 10
109.5636070929
 20
173.7122158751
 10
109.5700693536
 20
173.7150460386
 10
109.5765092766
 20
173.7179166491
 10
109.5829260498
 20
173.7208274841
 10
109.5893181661
 20
173.7237780043
 10
109.5956848835
 20
173.7267679935
 10
109.6020259413
 20
173.7297974474
 10
109.6083405719
 20
173.7328661245
 10
109.614628185
 20
173.7359738598
 10
109.6208883857
 20
173.7391205787
 10
109.6271207054
 20
173.7423061691
 10
109.6333246572
 20
173.7455305071
 10
109.6394997544
 20
173.7487934655
 10
109.6456455309
 20
173.7520949248
 10
109.6517615115
 20
173.7554347575
 10
109.6578472109
 20
173.7588128278
 10
109.6639021516
 20
173.7622290001
 10
109.6699258615
 20
173.7656831387
 10
109.6759178666
 20
173.7691751032
 10
109.6818776912
 20
173.7727047486
 10
109.687804868
 20
173.7762719311
 10
109.6936989335
 20
173.7798765057
 10
109.6995594211
 20
173.7835183216
 10
109.7053858694
 20
173.7871972276
 10
109.7111778249
 20
173.7909130737
 10
109.7169348367
 20
173.7946657079
 10
109.7226564547
 20
173.798454975
 10
109.7283422303
 20
173.802280717
 10
109.7339917189
 20
173.8061427747
 10
109.7396044784
 20
173.8100409867
 10
109.745180069
 20
173.8139751893
 10
109.7507180543
 20
173.8179452173
 10
109.7562180006
 20
173.8219509032
 10
109.7616794773
 20
173.8259920779
 10
109.7671020569
 20
173.83006857
 10
109.7724853147
 20
173.8341802066
 10
109.7778288293
 20
173.8383268128
 10
109.7831321822
 20
173.8425082119
 10
109.7883949581
 20
173.846724225
 10
109.793616745
 20
173.850974672
 10
109.798797135
 20
173.8552593712
 10
109.8039357227
 20
173.8595781386
 10
109.8090321055
 20
173.8639307883
 10
109.8140858844
 20
173.8683171327
  0
LINE
  5
2B0
100
AcDbEntity
  8
RACCORDO
100
AcDbLine
 62
7
  6
CONTINUOUS
 10
108.4742521828
 20
174.0237548572
 11
108.4742521828
 21
173.503160912
  0
LINE
  5
2B1
100
AcDbEntity
  8
RACCORDO
100
AcDbLine
 62
7
  6
CONTINUOUS
 10
109.2384395817
 20
175.7857512194
 11
109.2384395817
 21
176.8682829742
  0
LINE
  5
2B2
100
AcDbEntity
  8
RACCORDO
100
AcDbLine
 62
253
  6
CONTINUOUS
 10
109.8140858844
 20
173.8683171327
 11
109.8140858844
 21
173.2187980799
  0
LINE
  5
2B3
100
AcDbEntity
  8
RACCORDO
100
AcDbLine
 62
253
  6
CONTINUOUS
 10
113.4034479368
 20
175.7456551179
 11
113.3867629034
 21
175.6744204176
  0
LINE
  5
2B4
100
AcDbEntity
  8
RACCORDO
100
AcDbLine
 62
253
  6
CONTINUOUS
 10
115.3536936215
 20
175.944689915
 11
115.2662904166
 21
175.5715326711
  0
LINE
  5
2B5
100
AcDbEntity
  8
RACCORDO
100
AcDbLine
 62
253
  6
CONTINUOUS
 10
127.6075879189
 20
168.9930114892
 11
125.3604741927
 21
167.1163112114
  0
LINE
  5
2B6
100
AcDbEntity
  8
RACCORDO
100
AcDbLine
 62
7
  6
CONTINUOUS
 10
127.9526371828
 20
169.1739180196
 11
125.3604741927
 21
167.0090462791
  0
LWPOLYLINE
  5
2B7
100
AcDbEntity
  8
RACCORDO
100
AcDbPolyline
 62
253
  6
CONTINUOUS
 90
52
 70
0
 10
117.7424881216
 20
160.071784712
 10
117.7237639386
 20
160.0583623413
 10
117.7051416347
 20
160.0443886692
 10
117.6866342168
 20
160.0298736924
 10
117.6682545579
 20
160.0148279673
 10
117.6500155455
 20
159.9992620756
 10
117.6319300813
 20
159.9831865854
 10
117.6140106384
 20
159.966612787
 10
117.5962699073
 20
159.9495526362
 10
117.5787209454
 20
159.9320182122
 10
117.5613760719
 20
159.9140220664
 10
117.5442473401
 20
159.8955769689
 10
117.527347189
 20
159.8766958301
 10
117.5106874609
 20
159.8573921308
 10
117.4942797524
 20
159.8376795823
 10
117.4781358855
 20
159.8175718805
 10
117.4622670941
 20
159.7970832558
 10
117.446684513
 20
159.7762283517
 10
117.4313995276
 20
159.7550218851
 10
117.4164228474
 20
159.7334789719
 10
117.4017648969
 20
159.7116148991
 10
117.3874363079
 20
159.6894449996
 10
117.3734470855
 20
159.6669850089
 10
117.3598070022
 20
159.6442509123
 10
117.3465259838
 20
159.6212587238
 10
117.3336133404
 20
159.598024825
 10
117.3210780482
 20
159.5745656779
 10
117.3089291493
 20
159.5508976687
 10
117.2971751161
 20
159.5270375473
 10
117.2858241746
 20
159.5030023097
 10
117.2748845862
 20
159.4788089108
 10
117.2643640108
 20
159.4544745405
 10
117.254269773
 20
159.4300164534
 10
117.2446091906
 20
159.4054518487
 10
117.2353890071
 20
159.3807981093
 10
117.2266156654
 20
159.3560727715
 10
117.2182955655
 20
159.3312933568
 10
117.2104345506
 20
159.3064775195
 10
117.2030380617
 20
159.2816427788
 10
117.1961114186
 20
159.2568064886
 10
117.18965946
 20
159.231986198
 10
117.1836866955
 20
159.2071995599
 10
117.178197462
 20
159.1824640644
 10
117.1731955932
 20
159.1577971604
 10
117.1686845872
 20
159.1332164085
 10
117.1646677535
 20
159.1087393865
 10
117.1611479298
 20
159.0843836596
 10
117.1581275069
 20
159.060166245
 10
117.1556086187
 20
159.0361037717
 10
117.1535930567
 20
159.0122131132
 10
117.1520822359
 20
158.9885113651
 10
117.1510772278
 20
158.9650153144
  0
LINE
  5
2B8
100
AcDbEntity
  8
RACCORDO
100
AcDbLine
 62
253
  6
CONTINUOUS
 10
120.1480607549
 20
161.7438864686
 11
117.7424881216
 21
160.071784712
  0
LWPOLYLINE
  5
2B9
100
AcDbEntity
  8
0
100
AcDbPolyline
 62
7
  6
CONTINUOUS
 90
3
 70
0
 10
104.134800193
 20
151.5788499488
 10
104.1827102137
 20
151.6105980546
 10
104.3122980085
 20
151.6820563683
  0
LWPOLYLINE
  5
2BA
100
AcDbEntity
  8
0
100
AcDbPolyline
 62
7
  6
CONTINUOUS
 90
3
 70
0
 10
103.7105924311
 20
151.3667467741
 10
103.7588815392
 20
151.3987293579
 10
103.8880772696
 20
151.4699460009
  0
LWPOLYLINE
  5
2BB
100
AcDbEntity
  8
0
100
AcDbPolyline
 62
7
  6
CONTINUOUS
 90
3
 70
0
 10
103.2864600409
 20
151.15468338
 10
103.3357691716
 20
151.1872931131
 10
103.4638821263
 20
151.2578484297
  0
LWPOLYLINE
  5
2BC
100
AcDbEntity
  8
0
100
AcDbPolyline
 62
7
  6
CONTINUOUS
 90
3
 70
0
 10
102.8623790528
 20
150.9426488274
 10
102.9132287662
 20
150.9762002776
 10
103.0396879154
 20
151.0457513209
  0
LWPOLYLINE
  5
2BD
100
AcDbEntity
  8
0
100
AcDbPolyline
 62
7
  6
CONTINUOUS
 90
3
 70
0
 10
102.0142536984
 20
150.5186074488
 10
102.0687571463
 20
150.5543718061
 10
102.1912762341
 20
150.6215454665
  0
LWPOLYLINE
  5
2BE
100
AcDbEntity
  8
0
100
AcDbPolyline
 62
7
  6
CONTINUOUS
 90
3
 70
0
 10
101.5901834331
 20
150.3065839072
 10
101.645925141
 20
150.3430962338
 10
101.767048046
 20
150.4094313661
  0
LWPOLYLINE
  5
2BF
100
AcDbEntity
  8
0
100
AcDbPolyline
 62
7
  6
CONTINUOUS
 90
3
 70
0
 10
101.1661407713
 20
150.0945782403
 10
101.2233208028
 20
150.1319546249
 10
101.3428167064
 20
150.1973156896
  0
LWPOLYLINE
  5
2C0
100
AcDbEntity
  8
0
100
AcDbPolyline
 62
7
  6
CONTINUOUS
 90
3
 70
0
 10
100.3211180181
 20
149.6725794437
 10
100.3768768908
 20
149.7089309613
 10
100.4943429732
 20
149.7730788102
  0
LWPOLYLINE
  5
2C1
100
AcDbEntity
  8
0
100
AcDbPolyline
 62
7
  6
CONTINUOUS
 90
3
 70
0
 10
100.7434672119
 20
149.8835419746
 10
100.8190900196
 20
149.9315927613
 10
100.9186053972
 20
149.9852100227
  0
LWPOLYLINE
  5
2C2
100
AcDbEntity
  8
0
100
AcDbPolyline
 62
7
  6
CONTINUOUS
 90
3
 70
0
 10
102.4406263261
 20
150.7323524458
 10
102.5261470304
 20
150.7858705191
 10
102.6155022298
 20
150.8336584699
  0
LWPOLYLINE
  5
2C3
100
AcDbEntity
  8
0
100
AcDbPolyline
 62
7
  6
CONTINUOUS
 90
7
 70
0
 10
105.5653582966
 20
153.8179122311
 10
105.4952565201
 20
153.7812891586
 10
105.3504956944
 20
153.6953021238
 10
105.2120518915
 20
153.5985718266
 10
105.0802272129
 20
153.4912734675
 10
104.9547195572
 20
153.3732318461
 10
104.8355289242
 20
153.2444469622
  0
LINE
  5
2C4
100
AcDbEntity
  8
0
100
AcDbLine
 62
7
  6
CONTINUOUS
 10
105.7773405494
 20
153.9239235263
 11
105.565208515
 21
153.8178575091
  0
LINE
  5
2C5
100
AcDbEntity
  8
0
100
AcDbLine
 62
7
  6
CONTINUOUS
 10
104.3594027915
 20
153.1458380114
 11
102.6623465166
 21
152.297309874
  0
LINE
  5
2C6
100
AcDbEntity
  8
0
100
AcDbLine
 62
7
  6
CONTINUOUS
 10
108.248490088
 20
153.9512943631
 11
106.5514338132
 21
153.1027662257
  0
LWPOLYLINE
  5
2C7
100
AcDbEntity
  8
RACCORDO
100
AcDbPolyline
 62
253
  6
CONTINUOUS
 90
40
 70
0
 10
117.5013809225
 20
158.9548768174
 10
117.4940878945
 20
158.9518333663
 10
117.4865309692
 20
158.948937369
 10
117.4787221335
 20
158.9461934192
 10
117.4706737735
 20
158.9436058693
 10
117.4623986557
 20
158.9411788237
 10
117.4539099058
 20
158.938916132
 10
117.4452209887
 20
158.9368213835
 10
117.4363456867
 20
158.9348979007
 10
117.4272980777
 20
158.9331487346
 10
117.4180925129
 20
158.9315766599
 10
117.4087435941
 20
158.93018417
 10
117.3992661506
 20
158.9289734737
 10
117.3896752153
 20
158.9279464915
 10
117.3799860014
 20
158.9271048524
 10
117.3702138777
 20
158.9264498912
 10
117.3603743447
 20
158.925982647
 10
117.3504830099
 20
158.9257038609
 10
117.3405555627
 20
158.925613975
 10
117.3306077501
 20
158.925713132
 10
117.3206553511
 20
158.9260011745
 10
117.3107141522
 20
158.9264776457
 10
117.300799922
 20
158.9271417899
 10
117.2909283864
 20
158.9279925534
 10
117.2811152035
 20
158.9290285869
 10
117.271375939
 20
158.9302482471
 10
117.2617260411
 20
158.9316495993
 10
117.2521808165
 20
158.9332304206
 10
117.2427554056
 20
158.9349882037
 10
117.2334647592
 20
158.9369201602
 10
117.2243236138
 20
158.9390232259
 10
117.215346469
 20
158.9412940647
 10
117.2065475645
 20
158.9437290748
 10
117.1979408568
 20
158.9463243937
 10
117.189539998
 20
158.9490759048
 10
117.1813583133
 20
158.9519792435
 10
117.1734087805
 20
158.9550298048
 10
117.1657040091
 20
158.9582227497
 10
117.1582562203
 20
158.9615530138
 10
117.1510772278
 20
158.9650153144
  0
LWPOLYLINE
  5
2C8
100
AcDbEntity
  8
0
100
AcDbPolyline
 62
7
  6
CONTINUOUS
 90
3
 70
0
 10
105.8010419877
 20
153.919386693
 10
105.6454280637
 20
153.8560073291
 10
105.5653582966
 20
153.8179122311
  0
LWPOLYLINE
  5
2C9
100
AcDbEntity
  8
0
100
AcDbPolyline
 62
7
  6
CONTINUOUS
 90
11
 70
0
 10
105.2222090969
 20
150.9651719952
 10
105.0476227031
 20
151.043496295
 10
104.8727971599
 20
151.1109442366
 10
104.6982087101
 20
151.1671902257
 10
104.5240989847
 20
151.2119899175
 10
104.3512099098
 20
151.2449843223
 10
104.1807521678
 20
151.2658701203
 10
104.01320629
 20
151.2745916764
 10
103.8490147256
 20
151.271130077
 10
103.6892491652
 20
151.255583677
 10
103.5346707038
 20
151.2282242335
  0
LWPOLYLINE
  5
2CA
100
AcDbEntity
  8
0
100
AcDbPolyline
 62
7
  6
CONTINUOUS
 90
11
 70
0
 10
105.6464731656
 20
151.1773040295
 10
105.4717529268
 20
151.2556841835
 10
105.2967940906
 20
151.3231708621
 10
105.1220739941
 20
151.3794378631
 10
104.9478348513
 20
151.4242403903
 10
104.7748202588
 20
151.4572188568
 10
104.6042435394
 20
151.4780697105
 10
104.436585876
 20
151.4867375599
 10
104.272291007
 20
151.4832037714
 10
104.112433822
 20
151.4675678014
 10
103.9577594087
 20
151.4400992136
  0
LWPOLYLINE
  5
2CB
100
AcDbEntity
  8
0
100
AcDbPolyline
 62
7
  6
CONTINUOUS
 90
11
 70
0
 10
106.0707372344
 20
151.3894360639
 10
105.8959602824
 20
151.4678398825
 10
105.7209449678
 20
151.5353429687
 10
105.5461690917
 20
151.5916188624
 10
105.371875119
 20
151.6364225752
 10
105.1988073512
 20
151.6693942685
 10
105.0281802206
 20
151.6902302929
 10
104.8604750942
 20
151.6988753596
 10
104.6961363544
 20
151.6953109371
 10
104.5362405038
 20
151.6796369826
 10
104.3815217555
 20
151.6521212885
  0
LWPOLYLINE
  5
2CC
100
AcDbEntity
  8
0
100
AcDbPolyline
 62
7
  6
CONTINUOUS
 90
14
 70
0
 10
106.4950013031
 20
151.6015680982
 10
106.3201799456
 20
151.6799904451
 10
106.1451204096
 20
151.7475063757
 10
105.9703008598
 20
151.8037892278
 10
105.795963966
 20
151.8485938608
 10
105.6228545734
 20
151.8815602419
 10
105.4521879586
 20
151.9023846479
 10
105.2844454159
 20
151.9110118686
 10
105.1200720615
 20
151.9074234117
 10
104.9601462688
 20
151.8917197056
 10
104.8053841716
 20
151.8641651948
 10
104.6557973061
 20
151.8249612528
 10
104.5113672518
 20
151.7742176389
 10
104.369071083
 20
151.7104428995
  0
LWPOLYLINE
  5
2CD
100
AcDbEntity
  8
0
100
AcDbPolyline
 62
7
  6
CONTINUOUS
 90
11
 70
0
 10
104.7979450282
 20
150.7530399608
 10
104.6235470177
 20
150.8312856366
 10
104.4489090851
 20
150.8986790221
 10
104.2745059358
 20
150.9548953784
 10
104.1005783891
 20
150.9996909937
 10
103.9278660166
 20
151.0327077209
 10
103.7575757696
 20
151.0536425709
 10
103.5901870914
 20
151.062439566
 10
103.426140801
 20
151.0590793691
 10
103.2665045719
 20
151.0436588534
 10
103.1120540544
 20
151.0164512113
  0
LWPOLYLINE
  5
2CE
100
AcDbEntity
  8
0
100
AcDbPolyline
 62
7
  6
CONTINUOUS
 90
11
 70
0
 10
104.3736809595
 20
150.5409079265
 10
104.2028403887
 20
150.6176664677
 10
104.0317460776
 20
150.6840220732
 10
103.860844313
 20
150.7396659391
 10
103.6903613248
 20
150.7843660632
 10
103.5209927215
 20
150.8177802416
 10
103.353875173
 20
150.8396121833
 10
103.1894582755
 20
150.8497999033
 10
103.0281627079
 20
150.8483147756
 10
102.8710082923
 20
150.8352303221
 10
102.7187074769
 20
150.810781217
  0
LWPOLYLINE
  5
2CF
100
AcDbEntity
  8
0
100
AcDbPolyline
 62
7
  6
CONTINUOUS
 90
17
 70
0
 10
106.4381606958
 20
151.5731477946
 10
106.6077292731
 20
151.4866321811
 10
106.7768333206
 20
151.3900761224
 10
106.9450501129
 20
151.2837376375
 10
107.1118627769
 20
151.1679696986
 10
107.2769542964
 20
151.0430191722
 10
107.44019754
 20
150.9089731405
 10
107.6013780846
 20
150.7659505338
 10
107.7598674116
 20
150.6144514376
 10
107.914931114
 20
150.4551754433
 10
108.0659839049
 20
150.2887797508
 10
108.2128652326
 20
150.1154987958
 10
108.3554887602
 20
149.9354353935
 10
108.4934394608
 20
149.7490844107
 10
108.6263919543
 20
149.5568555588
 10
108.7543386392
 20
149.3586684018
 10
108.8771311556
 20
149.1545568565
  0
LWPOLYLINE
  5
2D0
100
AcDbEntity
  8
0
100
AcDbPolyline
 62
7
  6
CONTINUOUS
 90
44
 70
0
 10
104.7411044209
 20
150.7246196572
 10
104.9143002577
 20
150.636140887
 10
105.0877756862
 20
150.5367251661
 10
105.2610650426
 20
150.4265119956
 10
105.4338926821
 20
150.3055296556
 10
105.6055717774
 20
150.1741108324
 10
105.7750299549
 20
150.0330055864
 10
105.9418297843
 20
149.882563837
 10
106.1054841607
 20
149.7232108581
 10
106.2649180251
 20
149.556053284
 10
106.4193472222
 20
149.3820933416
 10
106.5688153475
 20
149.2014660309
 10
106.7135066572
 20
149.0140178586
 10
106.8530334787
 20
148.8202490738
 10
106.987016369
 20
148.6206848636
 10
107.1155548672
 20
148.4150977098
 10
107.2385433854
 20
148.2034330004
 10
107.3552204841
 20
147.9867655145
 10
107.4647390028
 20
147.7665901426
 10
107.5667994224
 20
147.5435395727
 10
107.661133251
 20
147.3182332555
 10
107.747154532
 20
147.0922298917
 10
107.824589075
 20
146.866625002
 10
107.8935132798
 20
146.6416069867
 10
107.9539574305
 20
146.4173780002
 10
108.0057505459
 20
146.19490031
 10
108.0489258075
 20
145.9744099333
 10
108.0836396558
 20
145.755038335
 10
108.109767713
 20
145.5366941419
 10
108.1270039497
 20
145.3207536554
 10
108.1351836127
 20
145.1085610328
 10
108.1342674628
 20
144.9006646225
 10
108.1242394761
 20
144.697715947
 10
108.105209507
 20
144.5010968214
 10
108.0774096371
 20
144.311778857
 10
108.0409730902
 20
144.1297075926
 10
107.9959133406
 20
143.9546932323
 10
107.9423552309
 20
143.7872326065
 10
107.880441517
 20
143.6277841825
 10
107.8100595371
 20
143.4762404778
 10
107.73109488
 20
143.3327705822
 10
107.6438504898
 20
143.1983008472
 10
107.5488814189
 20
143.073814169
 10
107.4464560572
 20
142.9596610489
  0
LWPOLYLINE
  5
2D1
100
AcDbEntity
  8
0
100
AcDbPolyline
 62
7
  6
CONTINUOUS
 90
44
 70
0
 10
105.1653684896
 20
150.9367516915
 10
105.3385891758
 20
150.848259456
 10
105.5119216809
 20
150.7489285625
 10
105.6849034699
 20
150.6389282434
 10
105.8571653804
 20
150.5183877019
 10
106.0281308668
 20
150.3876043307
 10
106.1970294346
 20
150.2471000022
 10
106.363519583
 20
150.0971077352
 10
106.5270096201
 20
149.9381091512
 10
106.6864116153
 20
149.7711951413
 10
106.8409526536
 20
149.597325971
 10
106.9906460166
 20
149.4166411723
 10
107.13560424
 20
149.2290542204
 10
107.2754270917
 20
149.0350697122
 10
107.4097346509
 20
148.8352012086
 10
107.538582797
 20
148.6292791322
 10
107.6618526868
 20
148.4172706485
 10
107.7787920298
 20
148.2002346961
 10
107.8885491458
 20
147.9796729362
 10
107.9908229129
 20
147.7562207871
 10
108.0853428226
 20
147.5305016862
 10
108.1715192712
 20
147.3040836735
 10
108.2490947797
 20
147.0780127293
 10
108.3181242242
 20
146.8525338276
 10
108.3785961335
 20
146.6280177752
 10
108.4303515794
 20
146.4054592737
 10
108.4734520959
 20
146.1850606915
 10
108.5080640335
 20
145.9660173646
 10
108.534076363
 20
145.7483798633
 10
108.5512402468
 20
145.5333530637
 10
108.5594268698
 20
145.3218870821
 10
108.5585742419
 20
145.1144114931
 10
108.548638826
 20
144.9117117068
 10
108.5297099269
 20
144.71517829
 10
108.5019951194
 20
144.525771033
 10
108.4656100803
 20
144.3434755301
 10
108.4205684145
 20
144.1681843075
 10
108.3669871816
 20
144.0004068001
 10
108.3050000603
 20
143.8406089693
 10
108.2345111647
 20
143.688743294
 10
108.155414852
 20
143.5449961351
 10
108.0680077623
 20
143.410281121
 10
107.9728482255
 20
143.2855869158
 10
107.8702067364
 20
143.1712662688
  0
LWPOLYLINE
  5
2D2
100
AcDbEntity
  8
0
100
AcDbPolyline
 62
7
  6
CONTINUOUS
 90
44
 70
0
 10
105.5896325583
 20
151.1488837259
 10
105.7634386264
 20
151.0600742206
 10
105.9370310071
 20
150.9605496257
 10
106.1099488935
 20
150.8505384924
 10
106.2816833498
 20
150.7303338323
 10
106.4518199304
 20
150.6001952615
 10
106.6200343149
 20
150.4603222747
 10
106.7861248175
 20
150.3107924279
 10
106.9493523566
 20
150.1521798487
 10
107.1086251183
 20
149.985552439
 10
107.2631836567
 20
149.8118264688
 10
107.413010153
 20
149.631146752
 10
107.5581490579
 20
149.4434888457
 10
107.6981899971
 20
149.2493576686
 10
107.8327505842
 20
149.0492569827
 10
107.9618401164
 20
148.8430791625
 10
108.0853258779
 20
148.6308147401
 10
108.2024667588
 20
148.4135041369
 10
108.3124078805
 20
148.1926536658
 10
108.4148468405
 20
147.9689008847
 10
108.5095116231
 20
147.7428721406
 10
108.5958100875
 20
147.5161417717
 10
108.6734790986
 20
147.2897742551
 10
108.7425794323
 20
147.0640014097
 10
108.8031102793
 20
146.8391528784
 10
108.8549443348
 20
146.6160550212
 10
108.8980881166
 20
146.3950879331
 10
108.9326381489
 20
146.1759146264
 10
108.9585001366
 20
145.9589100487
 10
108.9755383972
 20
145.7449114311
 10
108.9836859179
 20
145.5343046857
 10
108.982859482
 20
145.3273521043
 10
108.9729878022
 20
145.125019311
 10
108.9541402795
 20
144.9286867297
 10
108.9264993451
 20
144.7392967041
 10
108.8901633967
 20
144.5568790122
 10
108.8451454671
 20
144.3814058837
 10
108.7915540423
 20
144.213397569
 10
108.7295136501
 20
144.0533284348
 10
108.6589456227
 20
143.9012123049
 10
108.5797534698
 20
143.7572528961
 10
108.4922269958
 20
143.6223494517
 10
108.3969269906
 20
143.4974950707
 10
108.2941251122
 20
143.3830438082
  0
LWPOLYLINE
  5
2D3
100
AcDbEntity
  8
0
100
AcDbPolyline
 62
7
  6
CONTINUOUS
 90
46
 70
0
 10
106.0138966271
 20
151.3610157602
 10
106.1934255839
 20
151.2690980441
 10
106.3724838511
 20
151.1658934479
 10
106.5505682748
 20
151.0516966857
 10
106.7270665565
 20
150.9269167911
 10
106.901595963
 20
150.7918414596
 10
107.0739904836
 20
150.6465720466
 10
107.2440478309
 20
150.4911854767
 10
107.4109540512
 20
150.3263307435
 10
107.5736554567
 20
150.1530511913
 10
107.7313235074
 20
149.9723464501
 10
107.8839395063
 20
149.7843583723
 10
108.0316681115
 20
149.5888784028
 10
108.1741817562
 20
149.3862318531
 10
108.3108896193
 20
149.1771465921
 10
108.4414955756
 20
148.961954215
 10
108.5657748912
 20
148.7408251781
 10
108.6830402531
 20
148.5147710085
 10
108.7924007835
 20
148.2854583516
 10
108.8935456234
 20
148.053620804
 10
108.9862204206
 20
147.819929348
 10
109.0698614928
 20
147.5860345791
 10
109.144179372
 20
147.353245542
 10
109.2093213378
 20
147.1216541219
 10
109.2654304618
 20
146.8910824959
 10
109.31241845
 20
146.6620395166
 10
109.3501537613
 20
146.4353388815
 10
109.3786121556
 20
146.2112626182
 10
109.3977130317
 20
145.9904407179
 10
109.4073979243
 20
145.7735380521
 10
109.4076325019
 20
145.5609058458
 10
109.3983554427
 20
145.3528644713
 10
109.3795472976
 20
145.1503915696
 10
109.3513361024
 20
144.954765162
 10
109.3139889721
 20
144.7670844475
 10
109.2675985379
 20
144.5872542378
 10
109.212010261
 20
144.4147933583
 10
109.147124486
 20
144.249931286
 10
109.073155097
 20
144.0936797079
 10
108.990342049
 20
143.9468076874
 10
108.8987766202
 20
143.8097025207
 10
108.7987569062
 20
143.6830173483
 10
108.6910169342
 20
143.5677031941
 10
108.5759772524
 20
143.4640916847
 10
108.4539877167
 20
143.3723888952
 10
108.3258760041
 20
143.293045164
  0
LINE
  5
2D4
100
AcDbEntity
  8
0
100
AcDbLine
 62
7
  6
CONTINUOUS
 10
110.4405211097
 20
148.4082225774
 11
106.5514338132
 21
153.1027662257
  0
LINE
  5
2D5
100
AcDbEntity
  8
0
100
AcDbLine
 62
7
  6
CONTINUOUS
 10
110.4405211097
 20
142.9082225774
 11
110.4405211097
 21
148.4082225774
  0
LINE
  5
2D6
100
AcDbEntity
  8
0
100
AcDbLine
 62
7
  6
CONTINUOUS
 10
111.0062065346
 20
174.9007042346
 11
111.0062065346
 21
175.1605118557
  0
LINE
  5
2D7
100
AcDbEntity
  8
0
100
AcDbLine
 62
7
  6
CONTINUOUS
 10
112.1375773845
 20
143.7567507149
 11
112.1375773845
 21
149.2567507149
  0
LWPOLYLINE
  5
2D8
100
AcDbEntity
  8
0
100
AcDbPolyline
 62
7
  6
CONTINUOUS
 90
19
 70
0
 10
111.0062065346
 20
175.1605118557
 10
111.0082082275
 20
175.2150009962
 10
111.0138301793
 20
175.270112208
 10
111.0230723901
 20
175.3258454911
 10
111.0360596678
 20
175.3826322807
 10
111.0526672044
 20
175.4400411416
 10
111.0725205765
 20
175.496777768
 10
111.0956935167
 20
175.5528268892
 10
111.1221122923
 20
175.608203776
 10
111.1511812815
 20
175.6616599341
 10
111.1829606867
 20
175.7131517321
 10
111.2173903054
 20
175.7627228014
 10
111.2536939081
 20
175.8092555424
 10
111.2919140643
 20
175.8526809361
 10
111.3320082045
 20
175.8930680015
 10
111.3730723901
 20
175.9295061961
 10
111.4148053084
 20
175.9616920055
 10
111.4575082722
 20
175.9899289441
 10
111.5011812815
 20
176.0142170118
  0
LWPOLYLINE
  5
2D9
100
AcDbEntity
  8
0
100
AcDbPolyline
 62
7
  6
CONTINUOUS
 90
19
 70
0
 10
109.8207690451
 20
145.5390931183
 10
109.8335616111
 20
145.7210561005
 10
109.8391814468
 20
145.9062926923
 10
109.837628552
 20
146.0948028936
 10
109.8288673688
 20
146.2870081334
 10
109.8129334553
 20
146.4824869828
 10
109.7899334852
 20
146.679975155
 10
109.7598232854
 20
146.8794850652
 10
109.722647029
 20
147.0810042982
 10
109.6786439092
 20
147.2832313215
 10
109.6277711342
 20
147.4861709354
 10
109.5700714957
 20
147.6898183397
 10
109.5059125626
 20
147.8928576007
 10
109.4352523262
 20
148.0952881562
 10
109.3581327952
 20
148.2971105685
 10
109.2750475642
 20
148.4970105913
 10
109.1861611649
 20
148.6945501426
 10
109.0913090656
 20
148.8901673045
 10
108.9904912664
 20
149.0838620769
  0
LWPOLYLINE
  5
2DA
100
AcDbEntity
  8
0
100
AcDbPolyline
 62
7
  6
CONTINUOUS
 90
15
 70
0
 10
109.8207690451
 20
145.5390931183
 10
109.7924920046
 20
145.3498088582
 10
109.7561709266
 20
145.167976853
 10
109.7118058112
 20
144.9935971029
 10
109.6592126144
 20
144.8262962392
 10
109.5985753802
 20
144.6664476306
 10
109.5304462404
 20
144.5151713822
 10
109.454796923
 20
144.372548608
 10
109.3716557
 20
144.238498194
 10
109.2816595194
 20
144.1138969037
 10
109.1847176747
 20
143.9987625756
 10
109.0809208725
 20
143.8930773712
 10
108.9711781794
 20
143.7976645379
 10
108.8554316957
 20
143.712628665
 10
108.8549212452
 20
143.7123150623
  0
LINE
  5
2DB
100
AcDbEntity
  8
RACCORDO
100
AcDbLine
 62
253
  6
CONTINUOUS
 10
115.6296146802
 20
175.8877057746
 11
115.5422114753
 21
175.5145485308
  0
LWPOLYLINE
  5
2DC
100
AcDbEntity
  8
RACCORDO
100
AcDbPolyline
 62
7
  6
CONTINUOUS
 90
12
 70
0
 10
117.3806546999
 20
173.7052982408
 10
117.3813098658
 20
173.7074362265
 10
117.3830663546
 20
173.7108578378
 10
117.3856545208
 20
173.7140581674
 10
117.3890638455
 20
173.717040014
 10
117.3932508416
 20
173.7197653431
 10
117.3982254709
 20
173.7222308688
 10
117.4039777716
 20
173.724439877
 10
117.410434371
 20
173.726364191
 10
117.4175708118
 20
173.7279944187
 10
117.4254115513
 20
173.7293399522
 10
117.4339565896
 20
173.7304007915
  0
LWPOLYLINE
  5
2DD
100
AcDbEntity
  8
RACCORDO
100
AcDbPolyline
 62
7
  6
CONTINUOUS
 90
12
 70
0
 10
117.7404478891
 20
174.8030662767
 10
117.7397927232
 20
174.8009282911
 10
117.7380362344
 20
174.7975066798
 10
117.7354480682
 20
174.7943063502
 10
117.7320387435
 20
174.7913245036
 10
117.7278517475
 20
174.7885991745
 10
117.7228771181
 20
174.7861336488
 10
117.7171248175
 20
174.7839246406
 10
117.710668218
 20
174.7820003266
 10
117.7035317773
 20
174.7803700989
 10
117.6956910377
 20
174.7790245654
 10
117.6871459994
 20
174.777963726
  0
LWPOLYLINE
  5
2DE
100
AcDbEntity
  8
RACCORDO
100
AcDbPolyline
 62
253
  6
CONTINUOUS
 90
52
 70
0
 10
117.9468496652
 20
159.7839985795
 10
117.9327354693
 20
159.7739534946
 10
117.9187159616
 20
159.7635090923
 10
117.904791142
 20
159.7526653725
 10
117.8909508683
 20
159.7414138079
 10
117.8772052827
 20
159.7297629259
 10
117.863584812
 20
159.7177383085
 10
117.850090101
 20
159.7053394151
 10
117.8367205049
 20
159.6925667862
 10
117.8235045153
 20
159.6794476264
 10
117.8104425043
 20
159.665981232
 10
117.7975340998
 20
159.6521683067
 10
117.7848066779
 20
159.6380381654
 10
117.772260645
 20
159.6235901669
 10
117.7598955948
 20
159.6088249525
 10
117.7477376839
 20
159.5937737605
 10
117.7357873113
 20
159.5784359332
 10
117.7240440781
 20
159.5628121283
 10
117.7125329438
 20
159.5469355576
 10
117.7012544227
 20
159.5308057104
 10
117.6902080005
 20
159.5144230973
 10
117.6794170941
 20
159.4978224624
 10
117.6688822381
 20
159.481003329
 10
117.6586028978
 20
159.4639661737
 10
117.6486008862
 20
159.4467471704
 10
117.6388768118
 20
159.4293459714
 10
117.6294300661
 20
159.4117629242
 10
117.6202806364
 20
159.394035246
 10
117.6114291325
 20
159.3761625904
 10
117.6028749445
 20
159.3581453036
 10
117.5946362309
 20
159.3400216409
 10
117.5867136699
 20
159.3217913932
 10
117.5791065833
 20
159.3034547695
 10
117.5718310942
 20
159.2850506524
 10
117.5648878984
 20
159.2665788709
 10
117.5582763001
 20
159.2480395961
 10
117.5520103355
 20
159.2294722231
 10
117.5460907581
 20
159.210876757
 10
117.5405168144
 20
159.1922531929
 10
117.5353002803
 20
159.1736409112
 10
117.530441899
 20
159.1550398968
 10
117.5259409273
 20
159.1364501649
 10
117.5218069122
 20
159.1179111408
 10
117.5180406296
 20
159.0994228788
 10
117.5146413036
 20
159.0809853246
 10
117.5116161534
 20
159.0626377414
 10
117.5089659727
 20
159.0443800074
 10
117.5066899679
 20
159.0262122443
 10
117.5047929766
 20
159.008174081
 10
117.5032766116
 20
158.9902787268
 10
117.5021392603
 20
158.9725129723
 10
117.5013809225
 20
158.9548768174
  0
LINE
  5
2DF
100
AcDbEntity
  8
RACCORDO
100
AcDbLine
 62
253
  6
CONTINUOUS
 10
120.324328561
 20
161.4365725167
 11
117.9468496652
 21
159.7839985795
  0
LINE
  5
2E0
100
AcDbEntity
  8
0
100
AcDbLine
 62
7
  6
CONTINUOUS
 10
101.3428167064
 20
150.1973156896
 11
101.357509154
 21
150.2045770482
  0
LINE
  5
2E1
100
AcDbEntity
  8
0
100
AcDbLine
 62
7
  6
CONTINUOUS
 10
100.4943429732
 20
149.7730788102
 11
100.5114900641
 21
149.7815367589
  0
LINE
  5
2E2
100
AcDbEntity
  8
0
100
AcDbLine
 62
7
  6
CONTINUOUS
 10
100.9186053972
 20
149.9852100227
 11
100.9529320166
 21
150.0019212059
  0
LINE
  5
2E3
100
AcDbEntity
  8
0
100
AcDbLine
 62
7
  6
CONTINUOUS
 10
102.6155022298
 20
150.8336584699
 11
102.6583310256
 21
150.8543785698
  0
LINE
  5
2E4
100
AcDbEntity
  8
0
100
AcDbLine
 62
7
  6
CONTINUOUS
 10
100.0701267255
 20
149.5609706733
 11
100.1773244663
 21
149.6103048416
  0
LWPOLYLINE
  5
2E5
100
AcDbEntity
  8
0
100
AcDbPolyline
 62
7
  6
CONTINUOUS
 90
14
 70
0
 10
104.3122980085
 20
151.6820563683
 10
104.4549443493
 20
151.745963647
 10
104.5993957126
 20
151.7966752302
 10
104.7489452169
 20
151.8358330192
 10
104.9036639652
 20
151.8633487133
 10
105.0635598158
 20
151.8790226678
 10
105.2278985556
 20
151.8825870903
 10
105.395603682
 20
151.8739420236
 10
105.5662308126
 20
151.8531059992
 10
105.7392985804
 20
151.8201343059
 10
105.9135925531
 20
151.7753305931
 10
106.0883684292
 20
151.7190546995
 10
106.2633837438
 20
151.6515516132
 10
106.4381606958
 20
151.5731477946
  0
LWPOLYLINE
  5
2E6
100
AcDbEntity
  8
0
100
AcDbPolyline
 62
7
  6
CONTINUOUS
 90
14
 70
0
 10
103.8880772696
 20
151.4699460009
 10
104.0312194352
 20
151.5340461066
 10
104.1756714412
 20
151.5847081434
 10
104.3251828701
 20
151.6238109443
 10
104.4798572834
 20
151.6512795321
 10
104.6397144684
 20
151.6669155021
 10
104.8040093375
 20
151.6704492906
 10
104.9716670008
 20
151.6617814412
 10
105.1422437202
 20
151.6409305875
 10
105.3152583127
 20
151.607952121
 10
105.4894974555
 20
151.5631495938
 10
105.664217552
 20
151.5068825928
 10
105.8391763882
 20
151.4393959142
 10
106.0138966271
 20
151.3610157602
  0
LWPOLYLINE
  5
2E7
100
AcDbEntity
  8
0
100
AcDbPolyline
 62
7
  6
CONTINUOUS
 90
14
 70
0
 10
103.4638821263
 20
151.2578484297
 10
103.6082325386
 20
151.3224213932
 10
103.7526650162
 20
151.3729597259
 10
103.9020941652
 20
151.4119359642
 10
104.0566726267
 20
151.4392954077
 10
104.216438187
 20
151.4548418077
 10
104.3806297515
 20
151.4583034071
 10
104.5481756293
 20
151.449581851
 10
104.7186333712
 20
151.4286960531
 10
104.8915224461
 20
151.3957016482
 10
105.0656321715
 20
151.3509019564
 10
105.2402206213
 20
151.2946559673
 10
105.4150461645
 20
151.2272080258
 10
105.5896325583
 20
151.1488837259
  0
LWPOLYLINE
  5
2E8
100
AcDbEntity
  8
0
100
AcDbPolyline
 62
7
  6
CONTINUOUS
 90
14
 70
0
 10
103.0396879154
 20
151.0457513209
 10
103.1857704135
 20
151.1110032637
 10
103.3301579787
 20
151.1613620317
 10
103.4794775159
 20
151.200162942
 10
103.6339280333
 20
151.2273705841
 10
103.7935642624
 20
151.2427910998
 10
103.9576105528
 20
151.2461512967
 10
104.124999231
 20
151.2373543016
 10
104.295289478
 20
151.2164194516
 10
104.4680018505
 20
151.1834027244
 10
104.6419293972
 20
151.1386071091
 10
104.8163325465
 20
151.0823907528
 10
104.9909704791
 20
151.0149973673
 10
105.1653684896
 20
150.9367516915
  0
LWPOLYLINE
  5
2E9
100
AcDbEntity
  8
0
100
AcDbPolyline
 62
7
  6
CONTINUOUS
 90
14
 70
0
 10
102.1912762341
 20
150.6215454665
 10
102.3413201953
 20
150.6883467562
 10
102.4855786704
 20
150.7382920507
 10
102.6346602639
 20
150.7767020923
 10
102.7888328602
 20
150.8035703663
 10
102.9481761767
 20
150.818707389
 10
103.1118942978
 20
150.8218393696
 10
103.2789279497
 20
150.8128726676
 10
103.4488397365
 20
150.7918276113
 10
103.6211529008
 20
150.7587609452
 10
103.7946689264
 20
150.7139749014
 10
103.9686535534
 20
150.6578257209
 10
104.1428677772
 20
150.5905556911
 10
104.3168403522
 20
150.5124876228
  0
LWPOLYLINE
  5
2EA
100
AcDbEntity
  8
0
100
AcDbPolyline
 62
7
  6
CONTINUOUS
 90
14
 70
0
 10
101.767048046
 20
150.4094313661
 10
101.9191463123
 20
150.4770343752
 10
102.0637019615
 20
150.5268773658
 10
102.2130466428
 20
150.565139113
 10
102.3673974605
 20
150.5918160561
 10
102.5268109698
 20
150.6067377509
 10
102.6904983205
 20
150.6096549366
 10
102.8573927694
 20
150.6004960333
 10
103.0270350467
 20
150.5793055057
 10
103.1989637727
 20
150.5461606911
 10
103.3720333737
 20
150.5013690586
 10
103.5455299793
 20
150.4452890469
 10
103.7192000881
 20
150.3781745752
 10
103.8925762835
 20
150.3003555885
  0
LWPOLYLINE
  5
2EB
100
AcDbEntity
  8
0
100
AcDbPolyline
 62
7
  6
CONTINUOUS
 90
14
 70
0
 10
101.357509154
 20
150.2045770482
 10
101.4972233186
 20
150.2658169096
 10
101.6420816733
 20
150.3155357237
 10
101.7916902588
 20
150.3536269304
 10
101.9461927571
 20
150.3800880064
 10
102.1056143567
 20
150.3947732682
 10
102.2691778524
 20
150.3974653649
 10
102.4358039954
 20
150.3881211963
 10
102.6049526317
 20
150.3668254383
 10
102.7762346089
 20
150.3336812388
 10
102.9487329421
 20
150.2889561949
 10
103.1218177057
 20
150.2329610695
 10
103.2951653639
 20
150.1659467197
 10
103.4683122148
 20
150.0882235541
  0
LWPOLYLINE
  5
2EC
100
AcDbEntity
  8
0
100
AcDbPolyline
 62
7
  6
CONTINUOUS
 90
14
 70
0
 10
100.5114900641
 20
149.7815367589
 10
100.6515732669
 20
149.8426721852
 10
100.7967414099
 20
149.8922191223
 10
100.9465833995
 20
149.930086271
 10
101.1011305548
 20
149.9562759113
 10
101.2603532276
 20
149.9706828074
 10
101.4234997832
 20
149.9731419624
 10
101.5894954641
 20
149.9636534244
 10
101.7575831723
 20
149.9423757609
 10
101.9275795004
 20
149.9094459435
 10
102.0992357075
 20
149.8649745457
 10
102.2721648746
 20
149.8090962635
 10
102.445834548
 20
149.7420179309
 10
102.6197840774
 20
149.6639594854
  0
LWPOLYLINE
  5
2ED
100
AcDbEntity
  8
0
100
AcDbPolyline
 62
7
  6
CONTINUOUS
 90
14
 70
0
 10
100.9529320166
 20
150.0019212059
 10
101.0921236786
 20
150.0610346917
 10
101.2363082243
 20
150.1088146188
 10
101.3850798954
 20
150.1451591478
 10
101.5385014751
 20
150.1700625902
 10
101.6965734329
 20
150.1834076956
 10
101.8585460934
 20
150.1850173265
 10
102.0233327825
 20
150.1748834541
 10
102.1902613124
 20
150.1531439745
 10
102.359091774
 20
150.1199255689
 10
102.5293408389
 20
150.0753990611
 10
102.7005450755
 20
150.0197648436
 10
102.8722633591
 20
149.9532452198
 10
103.0440481461
 20
149.8760915198
  0
LWPOLYLINE
  5
2EE
100
AcDbEntity
  8
0
100
AcDbPolyline
 62
7
  6
CONTINUOUS
 90
14
 70
0
 10
102.6583310256
 20
150.8543785698
 10
102.7959222694
 20
150.912090956
 10
102.9386632192
 20
150.9588557817
 10
103.0861309383
 20
150.9944929477
 10
103.2384317537
 20
151.0189420528
 10
103.3955861693
 20
151.0320265063
 10
103.5568817369
 20
151.033511634
 10
103.7212986344
 20
151.023323914
 10
103.8884161829
 20
151.0014919723
 10
104.0577847862
 20
150.9680777939
 10
104.2282677744
 20
150.9233776698
 10
104.399169539
 20
150.8677338039
 10
104.5702638501
 20
150.8013781984
 10
104.7411044209
 20
150.7246196572
  0
LWPOLYLINE
  5
2EF
100
AcDbEntity
  8
0
100
AcDbPolyline
 62
7
  6
CONTINUOUS
 90
14
 70
0
 10
100.1773244663
 20
149.6103048416
 10
100.3135768632
 20
149.6615828035
 10
100.4542882787
 20
149.7023512604
 10
100.5990535348
 20
149.7325214305
 10
100.7477763005
 20
149.7520787724
 10
100.9003360432
 20
149.7609595119
 10
101.0561535343
 20
149.759083746
 10
101.2144260698
 20
149.7464838014
 10
101.3745005614
 20
149.7233020542
 10
101.5362293935
 20
149.6896492577
 10
101.6995530302
 20
149.6455711755
 10
101.864194658
 20
149.5911350112
 10
102.0296490043
 20
149.5265009266
 10
102.1955200087
 20
149.451827451
  0
LINE
  5
2F0
100
AcDbEntity
  8
0
100
AcDbLine
 62
7
  6
CONTINUOUS
 10
112.1375773845
 20
149.2567507149
 11
108.248490088
 21
153.9512943631
  0
LWPOLYLINE
  5
2F1
100
AcDbEntity
  8
0
100
AcDbPolyline
 62
7
  6
CONTINUOUS
 90
19
 70
0
 10
111.6614512518
 20
149.8314857983
 10
111.5422606189
 20
150.0794613152
 10
111.4167529631
 20
150.3230105924
 10
111.2849282846
 20
150.56213363
 10
111.1464844816
 20
150.7973077302
 10
111.0017236559
 20
151.0280555907
 10
110.8515521123
 20
151.2529453049
 10
110.6959381883
 20
151.4719385927
 10
110.5349135464
 20
151.6850737343
 10
110.3694794784
 20
151.8910336629
 10
110.1996093954
 20
152.0897743106
 10
110.0253298863
 20
152.2813397455
 10
109.8477220095
 20
152.4645451045
 10
109.6667655593
 20
152.6393393836
 10
109.4824807413
 20
152.8057735867
 10
109.296009231
 20
152.962815863
 10
109.1077315866
 20
153.1101222621
 10
108.9172672499
 20
153.2480367343
 10
108.7246162207
 20
153.3765592796
  0
LWPOLYLINE
  5
2F2
100
AcDbEntity
  8
0
100
AcDbPolyline
 62
7
  6
CONTINUOUS
 90
22
 70
0
 10
112.1349171142
 20
149.3180441058
 10
112.0186491769
 20
149.6085514049
 10
111.8929905393
 20
149.8953979346
 10
111.7578641247
 20
150.178553648
 10
111.61334701
 20
150.4580485919
 10
111.4606221224
 20
150.7315949945
 10
111.2996220942
 20
150.9991440314
 10
111.1304142932
 20
151.2607445271
 10
110.954383749
 20
151.5142551823
 10
110.7714744623
 20
151.7596095976
 10
110.5817424325
 20
151.9968741725
 10
110.3867406881
 20
152.2241068067
 10
110.1864259765
 20
152.4412251604
 10
109.9808415503
 20
152.6483115733
 10
109.7716701957
 20
152.8436709649
 10
109.5588824722
 20
153.0272070824
 10
109.3425078203
 20
153.1990161786
 10
109.1243173486
 20
153.357691931
 10
108.9042961531
 20
153.5031265441
 10
108.6824591378
 20
153.6354278134
 10
108.4606221224
 20
153.753512803
 10
108.3817967028
 20
153.7903790444
  0
LINE
  5
2F3
100
AcDbEntity
  8
0
100
AcDbLine
 62
7
  6
CONTINUOUS
 10
112.2408426544
 20
149.0262539494
 11
112.1349171142
 21
149.3180441058
  0
LINE
  5
2F4
100
AcDbEntity
  8
RACCORDO
100
AcDbLine
 62
7
  6
CONTINUOUS
 10
112.6084912002
 20
173.9414526385
 11
112.7082392056
 21
172.4952164889
  0
LWPOLYLINE
  5
2F5
100
AcDbEntity
  8
0
100
AcDbPolyline
 62
7
  6
CONTINUOUS
 90
10
 70
0
 10
112.7032628095
 20
146.4360400367
 10
112.6973161295
 20
146.7121897344
 10
112.6799048138
 20
146.9918478337
 10
112.6510288624
 20
147.2750143348
 10
112.6105465401
 20
147.5624831572
 10
112.5585995822
 20
147.8534603813
 10
112.4956131942
 20
148.1455642484
 10
112.4214967668
 20
148.4388040058
 10
112.3363409092
 20
148.7331704063
 10
112.2408426544
 20
149.0262539494
  0
LWPOLYLINE
  5
2F6
100
AcDbEntity
  8
0
100
AcDbPolyline
 62
7
  6
CONTINUOUS
 90
10
 70
0
 10
112.4911307751
 20
146.3299740196
 10
112.4866103497
 20
146.5705187895
 10
112.473337189
 20
146.8139020406
 10
112.4513112933
 20
147.0601237728
 10
112.4204501103
 20
147.3096897486
 10
112.3808361923
 20
147.5620942056
 10
112.3327171951
 20
147.815819856
 10
112.2761756707
 20
148.0703609374
 10
112.2111290672
 20
148.3262232122
 10
112.1375773845
 20
148.5834066806
  0
LINE
  5
2F7
100
AcDbEntity
  8
RACCORDO
100
AcDbLine
 62
253
  6
CONTINUOUS
 10
117.6802243456
 20
174.8624009419
 11
117.6597930861
 21
174.7751721898
  0
LINE
  5
2F8
100
AcDbEntity
  8
RACCORDO
100
AcDbLine
 62
253
  6
CONTINUOUS
 10
117.4339565896
 20
173.7304007915
 11
117.4172715561
 21
173.6591660913
  0
LWPOLYLINE
  5
2F9
100
AcDbEntity
  8
0
100
AcDbPolyline
 62
7
  6
CONTINUOUS
 90
12
 70
0
 10
107.7723639553
 20
153.8526854123
 10
107.5797129261
 20
153.9168138962
 10
107.3892485894
 20
153.9693637607
 10
107.2009709451
 20
154.010335006
 10
107.0144994347
 20
154.03976424
 10
106.8302146168
 20
154.0576148548
 10
106.6492581666
 20
154.0637770259
 10
106.4716502897
 20
154.0581795438
 10
106.2973707806
 20
154.040893618
 10
106.1275006976
 20
154.0120230532
 10
105.9620666296
 20
153.9714971926
 10
105.8010419877
 20
153.919386693
  0
LWPOLYLINE
  5
2FA
100
AcDbEntity
  8
0
100
AcDbPolyline
 62
7
  6
CONTINUOUS
 90
13
 70
0
 10
108.0881105289
 20
153.9180786689
 10
108.0169480916
 20
153.9468005749
 10
107.7969268961
 20
154.0213871573
 10
107.5787364244
 20
154.0809018766
 10
107.3623617726
 20
154.1254674323
 10
107.149574049
 20
154.1547190383
 10
106.9404026945
 20
154.1685310012
 10
106.7348182682
 20
154.1670290145
 10
106.5345035566
 20
154.1502253725
 10
106.3395018122
 20
154.1179944827
 10
106.1497697824
 20
154.0704619375
 10
105.9668604957
 20
154.008016809
 10
105.7775109356
 20
153.9239277816
  0
LWPOLYLINE
  5
2FB
100
AcDbEntity
  8
RACCORDO
100
AcDbPolyline
 62
253
  6
CONTINUOUS
 90
33
 70
0
 10
117.1510772278
 20
129.9270670399
 10
117.1520822329
 20
129.9045500126
 10
117.1535930497
 20
129.8823200841
 10
117.1556086075
 20
129.8603929701
 10
117.1581274927
 20
129.8387842929
 10
117.1611479145
 20
129.8175091941
 10
117.1646677374
 20
129.7965823463
 10
117.16868457
 20
129.7760183513
 10
117.1731955751
 20
129.7558319609
 10
117.1781974425
 20
129.7360376948
 10
117.1836866729
 20
129.7166495916
 10
117.1896594333
 20
129.69768129
 10
117.1961113883
 20
129.6791462643
 10
117.2030380298
 20
129.6610576303
 10
117.2104345183
 20
129.6434281267
 10
117.218295533
 20
129.6262701949
 10
117.2266156323
 20
129.6095958877
 10
117.2353889736
 20
129.5934170415
 10
117.2446091562
 20
129.5777452598
 10
117.2542697371
 20
129.5625916126
 10
117.2643639728
 20
129.5479667625
 10
117.2748845457
 20
129.5338811437
 10
117.2858241309
 20
129.5203446633
 10
117.2971750686
 20
129.5073668739
 10
117.3089290986
 20
129.4949570911
 10
117.3210779952
 20
129.4831240635
 10
117.3336132856
 20
129.4718760899
 10
117.3465259279
 20
129.4612212004
 10
117.3598069463
 20
129.4511668595
 10
117.3734470304
 20
129.4417201602
 10
117.3874362533
 20
129.4328879397
 10
117.4017648421
 20
129.4246763926
 10
117.4137799643
 20
129.4184003858
  0
LWPOLYLINE
  5
2FC
100
AcDbEntity
  8
RACCORDO
100
AcDbPolyline
 62
7
  6
CONTINUOUS
 90
14
 70
0
 10
117.8892032433
 20
171.3010966169
 10
117.8902470249
 20
171.3112708829
 10
117.8918097102
 20
171.3210079564
 10
117.8938912992
 20
171.3303078373
 10
117.896503677
 20
171.3392026269
 10
117.8996349585
 20
171.3476602239
 10
117.9032494891
 20
171.3555843249
 10
117.9073527923
 20
171.362968832
 10
117.9119393445
 20
171.3698198432
 10
117.9169569204
 20
171.3760593485
 10
117.9224104467
 20
171.3816803584
 10
117.9282949967
 20
171.3866898624
 10
117.9345435652
 20
171.3910308192
 10
117.9406359567
 20
171.3944362641
  0
LINE
  5
2FD
100
AcDbEntity
  8
RACCORDO
100
AcDbLine
 62
253
  6
CONTINUOUS
 10
119.3842022743
 20
173.9294355886
 11
119.2967990694
 21
173.5562783448
  0
LINE
  5
2FE
100
AcDbEntity
  8
RACCORDO
100
AcDbLine
 62
253
  6
CONTINUOUS
 10
119.6601233329
 20
173.8724514482
 11
119.572720128
 21
173.4992942044
  0
LINE
  5
2FF
100
AcDbEntity
  8
0
100
AcDbLine
 62
253
  6
CONTINUOUS
 10
120.415583192
 20
171.6270105412
 11
120.5029863969
 21
172.0001677851
  0
LWPOLYLINE
  5
300
100
AcDbEntity
  8
RACCORDO
100
AcDbPolyline
 62
7
  6
CONTINUOUS
 90
12
 70
0
 10
121.7709565419
 20
172.7878119504
 10
121.770301376
 20
172.7856739647
 10
121.7685448872
 20
172.7822523534
 10
121.765956721
 20
172.7790520238
 10
121.7625473963
 20
172.7760701772
 10
121.7583604002
 20
172.7733448481
 10
121.7533857709
 20
172.7708793224
 10
121.7476334702
 20
172.7686703142
 10
121.7411768707
 20
172.7667460002
 10
121.73404043
 20
172.7651157725
 10
121.7261996905
 20
172.763770239
 10
121.7176546522
 20
172.7627093997
  0
LWPOLYLINE
  5
301
100
AcDbEntity
  8
0
100
AcDbPolyline
 62
7
  6
CONTINUOUS
 90
10
 70
0
 10
112.1375773845
 20
144.4300947491
 10
112.2111290672
 20
144.6137265348
 10
112.2761756707
 20
144.8045422062
 10
112.3327171951
 20
145.0025417632
 10
112.3808361923
 20
145.2081484164
 10
112.4204501103
 20
145.4209389553
 10
112.4513112933
 20
145.6396437482
 10
112.473337189
 20
145.8638395846
 10
112.4866103497
 20
146.0939496751
 10
112.4911307751
 20
146.3299740196
  0
LWPOLYLINE
  5
302
100
AcDbEntity
  8
0
100
AcDbPolyline
 62
7
  6
CONTINUOUS
 90
4
 70
0
 10
104.9033980964
 20
141.6894675192
 10
104.7962308866
 20
141.5876848817
 10
104.6825306394
 20
141.4964615102
 10
104.5626614066
 20
141.4160612768
  0
LWPOLYLINE
  5
303
100
AcDbEntity
  8
0
100
AcDbPolyline
 62
7
  6
CONTINUOUS
 90
45
 70
0
 10
104.8517961821
 20
141.6149918727
 10
104.9594189793
 20
141.7170435409
 10
105.060323003
 20
141.8296664268
 10
105.1543059295
 20
141.9527917485
 10
105.240908356
 20
142.085988775
 10
105.3195314336
 20
142.228349108
 10
105.389839567
 20
142.3790536634
 10
105.4518762738
 20
142.5379625188
 10
105.5056656562
 20
142.7051158276
 10
105.5510246753
 20
142.8800769326
 10
105.5877945226
 20
143.0623929669
 10
105.615911518
 20
143.2521854873
 10
105.6352135447
 20
143.4494932056
 10
105.6454452744
 20
143.6533835845
 10
105.6464692141
 20
143.862472731
 10
105.6382728692
 20
144.0761673729
 10
105.6208695426
 20
144.2938648066
 10
105.5944262868
 20
144.5140340787
 10
105.5591892657
 20
144.7356269401
 10
105.5153180592
 20
144.958382931
 10
105.4629668637
 20
145.1819250815
 10
105.4024230795
 20
145.4053659048
 10
105.3338592199
 20
145.6283601398
 10
105.2571416819
 20
145.8513625897
 10
105.1723043538
 20
146.0740743198
 10
105.0796281941
 20
146.2955749279
 10
104.9792563193
 20
146.515377711
 10
104.8712283122
 20
146.7332014399
 10
104.7559337704
 20
146.9480781794
 10
104.634147041
 20
147.1585331042
 10
104.5065283581
 20
147.3635448267
 10
104.3731789717
 20
147.5630643852
 10
104.2340914678
 20
147.7571050744
 10
104.089648472
 20
147.9450835684
 10
103.9401918067
 20
148.1265074253
 10
103.7855818881
 20
148.3014324823
 10
103.625784613
 20
148.4696787338
 10
103.4615579535
 20
148.6302341138
 10
103.2939780339
 20
148.7819525083
 10
103.1234895736
 20
148.9244085185
 10
102.9505717782
 20
149.0571797834
 10
102.7764345517
 20
149.1793900595
 10
102.6018197341
 20
149.2906668621
 10
102.4269695991
 20
149.3910028795
 10
102.2523606159
 20
149.4802477547
  0
LWPOLYLINE
  5
304
100
AcDbEntity
  8
0
100
AcDbPolyline
 62
7
  6
CONTINUOUS
 90
4
 70
0
 10
105.3268424407
 20
141.9007552716
 10
105.2192196435
 20
141.7987036034
 10
105.1052068204
 20
141.7074282828
 10
104.9853535603
 20
141.6272357922
  0
LWPOLYLINE
  5
305
100
AcDbEntity
  8
0
100
AcDbPolyline
 62
7
  6
CONTINUOUS
 90
45
 70
0
 10
105.2752533214
 20
141.8264205974
 10
105.383286218
 20
141.9287672449
 10
105.4845072546
 20
142.0417019431
 10
105.5786702571
 20
142.1650660775
 10
105.6653842252
 20
142.2984741692
 10
105.7440612316
 20
142.4410043825
 10
105.8143711383
 20
142.59181183
 10
105.8763746033
 20
142.7507541955
 10
105.9301189993
 20
142.9179011364
 10
105.975427409
 20
143.0928123413
 10
106.0121465517
 20
143.2750292939
 10
106.040223885
 20
143.4647114064
 10
106.0594987506
 20
143.6619120944
 10
106.0697140002
 20
143.8656865628
 10
106.0707324642
 20
144.0746530257
 10
106.0625417011
 20
144.2882191197
 10
106.0451550003
 20
144.5057833613
 10
106.0187390324
 20
144.7258176737
 10
105.983537508
 20
144.9472862557
 10
105.9397106752
 20
145.1699187357
 10
105.8874204527
 20
145.3933067766
 10
105.8269909937
 20
145.6164471491
 10
105.7585725369
 20
145.8391123924
 10
105.6819196912
 20
146.0620759997
 10
105.5969432617
 20
146.2852680722
 10
105.503971328
 20
146.5075261933
 10
105.4032973021
 20
146.7279782526
 10
105.295033977
 20
146.9462216093
 10
105.179528299
 20
147.161411071
 10
105.0575702886
 20
147.3720652687
 10
104.9298432588
 20
147.5771477286
 10
104.7964463536
 20
147.7766359243
 10
104.6573453654
 20
147.9705978944
 10
104.5129246511
 20
148.1584570471
 10
104.3635308098
 20
148.3397235299
 10
104.2089940893
 20
148.514494374
 10
104.0492693082
 20
148.6826016271
 10
103.8851240836
 20
148.8430229097
 10
103.7176322903
 20
148.994615116
 10
103.5472377344
 20
149.1369539914
 10
103.3744190091
 20
149.2696179857
 10
103.2003839242
 20
149.391732711
 10
103.0258729983
 20
149.5029265128
 10
102.8511280495
 20
149.6031921971
 10
102.6766246847
 20
149.692379789
  0
LWPOLYLINE
  5
306
100
AcDbEntity
  8
0
100
AcDbPolyline
 62
7
  6
CONTINUOUS
 90
4
 70
0
 10
105.7507096794
 20
142.1124789756
 10
105.6426767828
 20
142.0101323281
 10
105.5283541653
 20
141.918742512
 10
105.408440858
 20
141.8386525659
  0
LWPOLYLINE
  5
307
100
AcDbEntity
  8
0
100
AcDbPolyline
 62
7
  6
CONTINUOUS
 90
45
 70
0
 10
105.6987066185
 20
142.0378468444
 10
105.8073009542
 20
142.1406428504
 10
105.9089432362
 20
142.254041877
 10
106.0033439784
 20
142.3777797833
 10
106.0901910222
 20
142.5115123451
 10
106.1689135964
 20
142.6542959357
 10
106.2391902182
 20
142.8052443949
 10
106.3011091491
 20
142.9642125785
 10
106.3547550232
 20
143.131318531
 10
106.3999608129
 20
143.3061177965
 10
106.4365815352
 20
143.4881424136
 10
106.4645818411
 20
143.6776100587
 10
106.4838034843
 20
143.8745967415
 10
106.4939867932
 20
144.0781394594
 10
106.4949952479
 20
144.2868607619
 10
106.4868164886
 20
144.5001704027
 10
106.4694637638
 20
144.717469036
 10
106.4431030849
 20
144.9372335224
 10
106.407984958
 20
145.1583876792
 10
106.3642645712
 20
145.3807054783
 10
106.312069407
 20
145.6039138617
 10
106.2517081494
 20
145.8270111095
 10
106.1833153457
 20
146.0497730118
 10
106.1065810597
 20
146.2731107415
 10
106.0213117309
 20
146.4971387093
 10
105.9278708803
 20
146.7204915242
 10
105.8267287761
 20
146.9418581056
 10
105.718087887
 20
147.16069689
 10
105.6022517674
 20
147.3763043142
 10
105.4800318388
 20
147.5871965293
 10
105.3521471697
 20
147.7923148974
 10
105.218693872
 20
147.9916781916
 10
105.0795924776
 20
148.1854449258
 10
104.9352276771
 20
148.3730517326
 10
104.7859548883
 20
148.5540104426
 10
104.6315593355
 20
148.7284796798
 10
104.4719793617
 20
148.8963097368
 10
104.3079964898
 20
149.0564638683
 10
104.140680372
 20
149.2078046744
 10
103.9704730935
 20
149.3499101005
 10
103.7978519357
 20
149.482360298
 10
103.6240205284
 20
149.6042845799
 10
103.4497167561
 20
149.715312946
 10
103.2751815344
 20
149.8154384321
 10
103.1008887534
 20
149.9045118234
  0
LWPOLYLINE
  5
308
100
AcDbEntity
  8
0
100
AcDbPolyline
 62
7
  6
CONTINUOUS
 90
4
 70
0
 10
106.1747244156
 20
142.3243545811
 10
106.0661300799
 20
142.2215585751
 10
105.9513118349
 20
142.1299196111
 10
105.8310863846
 20
142.0498030018
  0
LWPOLYLINE
  5
309
100
AcDbEntity
  8
0
100
AcDbPolyline
 62
7
  6
CONTINUOUS
 90
45
 70
0
 10
106.1227286736
 20
142.2497683718
 10
106.2317781768
 20
142.3529940991
 10
106.3337442335
 20
142.4668236138
 10
106.4283261855
 20
142.5909325337
 10
106.5152543265
 20
142.7249805568
 10
106.5939743372
 20
142.8680006611
 10
106.6641732969
 20
143.0190641454
 10
106.7259680778
 20
143.1780246025
 10
106.7794814307
 20
143.3450511734
 10
106.8245565367
 20
143.5196974201
 10
106.8610561365
 20
143.7014851354
 10
106.8889616044
 20
143.8906884917
 10
106.9081172413
 20
144.0874053516
 10
106.9182612839
 20
144.2906558912
 10
106.9192580346
 20
144.49906825
 10
106.9110952115
 20
144.712055152
 10
106.8937859978
 20
144.9290196367
 10
106.8674956803
 20
145.1484439658
 10
106.8324950556
 20
145.3691354165
 10
106.788926523
 20
145.5909883719
 10
106.7368242013
 20
145.8140993987
 10
106.6763877029
 20
146.0377039826
 10
106.6077607402
 20
146.2613474536
 10
106.5307125171
 20
146.4856090928
 10
106.4450621591
 20
146.7105565149
 10
106.3511582421
 20
146.934854989
 10
106.2495662436
 20
147.15698225
 10
106.140541355
 20
147.3763310932
 10
106.0243762901
 20
147.5922665615
 10
105.9019031271
 20
147.8033050606
 10
105.7738774844
 20
148.0083654423
 10
105.6403914094
 20
148.2075098283
 10
105.5013159516
 20
148.4009930061
 10
105.3570328997
 20
148.5882683264
 10
105.2079082831
 20
148.7688459939
 10
105.0536856511
 20
148.9429417773
 10
104.8942881894
 20
149.1104231778
 10
104.7305096378
 20
149.2702415292
 10
104.5634145603
 20
149.4212663547
 10
104.3934429634
 20
149.5630782941
 10
104.2210704043
 20
149.6952597061
 10
104.0474952555
 20
149.8169445535
 10
103.8734520924
 20
149.9277649118
 10
103.6991807026
 20
150.0277141008
 10
103.5251528221
 20
150.1166438578
  0
LWPOLYLINE
  5
30A
100
AcDbEntity
  8
0
100
AcDbPolyline
 62
7
  6
CONTINUOUS
 90
4
 70
0
 10
106.5992016382
 20
142.5367058298
 10
106.490152135
 20
142.4334801025
 10
106.3748303671
 20
142.3415075385
 10
106.2540245251
 20
142.2611327757
  0
LWPOLYLINE
  5
30B
100
AcDbEntity
  8
0
100
AcDbPolyline
 62
7
  6
CONTINUOUS
 90
45
 70
0
 10
106.5457856888
 20
142.4608516528
 10
106.6551831725
 20
142.5642430802
 10
106.7574421671
 20
142.6782706213
 10
106.8522641139
 20
142.8026008517
 10
106.9393824844
 20
142.9368852238
 10
107.0182447365
 20
143.080145204
 10
107.0885442106
 20
143.2314472543
 10
107.1504006689
 20
143.3906331819
 10
107.2039371759
 20
143.5578477372
 10
107.2490052477
 20
143.7326366469
 10
107.2854755538
 20
143.9145120712
 10
107.31333512
 20
144.1037175729
 10
107.332439666
 20
144.3003338781
 10
107.3425413957
 20
144.5033819912
 10
107.3435172342
 20
144.7114862477
 10
107.3353678351
 20
144.9240427335
 10
107.318118699
 20
145.1404648052
 10
107.2919407651
 20
145.3592762158
 10
107.2571409977
 20
145.5791151628
 10
107.2138502385
 20
145.8000488727
 10
107.1619655995
 20
146.0227452673
 10
107.1015206386
 20
146.2468226262
 10
107.0326819265
 20
146.4714574813
 10
106.9553626335
 20
146.6966745628
 10
106.8694570257
 20
146.9223611957
 10
106.7752627083
 20
147.1473514715
 10
106.6733627364
 20
147.3700942308
 10
106.5640240619
 20
147.5899731079
 10
106.4475450184
 20
147.80635746
 10
106.3247691876
 20
148.0177578413
 10
106.1964626942
 20
148.2230909042
 10
106.0627230895
 20
148.4224241533
 10
105.9234248191
 20
148.6160195647
 10
105.7789482466
 20
148.8033434248
 10
105.6296716721
 20
148.9839006025
 10
105.4753630886
 20
149.1578900909
 10
105.3159580239
 20
149.3251814302
 10
105.1522485277
 20
149.4847445395
 10
104.9853027606
 20
149.6354613865
 10
104.8155718418
 20
149.7769183585
 10
104.6435237707
 20
149.9087196458
 10
104.4703295246
 20
150.0300323012
 10
104.2967125116
 20
150.1405039668
 10
104.1229188341
 20
150.240131234
 10
103.9494168908
 20
150.3287758921
  0
LWPOLYLINE
  5
30C
100
AcDbEntity
  8
0
100
AcDbPolyline
 62
7
  6
CONTINUOUS
 90
13
 70
0
 10
104.4504679194
 20
141.4737985874
 10
104.3368594791
 20
141.3763703867
 10
104.2165679091
 20
141.29001406
 10
104.0899363568
 20
141.2149837425
 10
103.9573258196
 20
141.1515015948
 10
103.8191137118
 20
141.0997571253
 10
103.6756938053
 20
141.0599071474
 10
103.5274750101
 20
141.0320750924
 10
103.374879555
 20
141.0163504819
 10
103.218342009
 20
141.0127888166
 10
103.0583089103
 20
141.0214113877
 10
102.8952373528
 20
141.0422049764
 10
102.7507783154
 20
141.0702668868
  0
LINE
  5
30D
100
AcDbEntity
  8
0
100
AcDbLine
 62
7
  6
CONTINUOUS
 10
112.1375773845
 20
149.2567507149
 11
110.4405211097
 21
148.4082225774
  0
LWPOLYLINE
  5
30E
100
AcDbEntity
  8
0
100
AcDbPolyline
 62
7
  6
CONTINUOUS
 90
4
 70
0
 10
104.3815217555
 20
151.6521212885
 10
104.2319722512
 20
151.6129634995
 10
104.0875208878
 20
151.5622519163
 10
103.9448745471
 20
151.4983446376
  0
LWPOLYLINE
  5
30F
100
AcDbEntity
  8
0
100
AcDbPolyline
 62
7
  6
CONTINUOUS
 90
4
 70
0
 10
103.9577594087
 20
151.4400992136
 10
103.8082479798
 20
151.4009964126
 10
103.6637959738
 20
151.3503343759
 10
103.5206538082
 20
151.2862342702
  0
LWPOLYLINE
  5
310
100
AcDbEntity
  8
0
100
AcDbPolyline
 62
7
  6
CONTINUOUS
 90
4
 70
0
 10
103.5346707038
 20
151.2282242335
 10
103.3852415548
 20
151.1892479952
 10
103.2408090772
 20
151.1387096625
 10
103.0964586649
 20
151.074136699
  0
LWPOLYLINE
  5
311
100
AcDbEntity
  8
0
100
AcDbPolyline
 62
7
  6
CONTINUOUS
 90
4
 70
0
 10
103.1120540544
 20
151.0164512113
 10
102.9627345173
 20
150.977650301
 10
102.8183469521
 20
150.927291533
 10
102.672264454
 20
150.8620395902
  0
LWPOLYLINE
  5
312
100
AcDbEntity
  8
0
100
AcDbPolyline
 62
7
  6
CONTINUOUS
 90
4
 70
0
 10
102.2672368025
 20
150.5929903616
 10
102.1181552089
 20
150.55458032
 10
101.9738967339
 20
150.5046350255
 10
101.8238527727
 20
150.4378337358
  0
LWPOLYLINE
  5
313
100
AcDbEntity
  8
0
100
AcDbPolyline
 62
7
  6
CONTINUOUS
 90
4
 70
0
 10
101.8456231814
 20
150.3814273823
 10
101.6962785001
 20
150.3431656351
 10
101.5517228509
 20
150.2933226445
 10
101.3996245846
 20
150.2257196354
  0
LWPOLYLINE
  5
314
100
AcDbEntity
  8
0
100
AcDbPolyline
 62
7
  6
CONTINUOUS
 90
5
 70
0
 10
101.4242667974
 20
150.1699151996
 10
101.2746582119
 20
150.131823993
 10
101.1297998571
 20
150.0821051788
 10
100.9900856926
 20
150.0208653175
 10
100.975393245
 20
150.0136039589
  0
LWPOLYLINE
  5
315
100
AcDbEntity
  8
0
100
AcDbPolyline
 62
7
  6
CONTINUOUS
 90
5
 70
0
 10
101.017656434
 20
149.9614474171
 10
100.8688847629
 20
149.9251028881
 10
100.7247002172
 20
149.877322961
 10
100.5855085552
 20
149.8182094752
 10
100.5511819358
 20
149.8014982919
  0
LWPOLYLINE
  5
316
100
AcDbEntity
  8
0
100
AcDbPolyline
 62
7
  6
CONTINUOUS
 90
5
 70
0
 10
102.7187074769
 20
150.810781217
 10
102.5712397578
 20
150.7751440509
 10
102.428498808
 20
150.7283792253
 10
102.2909075642
 20
150.6706668391
 10
102.2480787684
 20
150.6499467392
  0
LWPOLYLINE
  5
317
100
AcDbEntity
  8
0
100
AcDbPolyline
 62
7
  6
CONTINUOUS
 90
5
 70
0
 10
100.6064211118
 20
149.7519112113
 10
100.4583779672
 20
149.716864766
 10
100.3147994083
 20
149.6705408179
 10
100.1760959935
 20
149.6130367453
 10
100.1269477359
 20
149.5893811841
  0
LINE
  5
318
100
AcDbEntity
  8
0
100
AcDbLine
 62
7
  6
CONTINUOUS
 10
106.5514338132
 20
153.1027662257
 11
102.6623465166
 21
152.297309874
  0
LWPOLYLINE
  5
319
100
AcDbEntity
  8
RACCORDO
100
AcDbPolyline
 62
253
  6
CONTINUOUS
 90
52
 70
0
 10
117.5013809225
 20
129.9340096889
 10
117.5021391089
 20
129.9171075986
 10
117.5032763232
 20
129.9004414764
 10
117.5047925654
 20
129.8840113221
 10
117.5066894539
 20
129.8678053381
 10
117.5089653703
 20
129.8518353221
 10
117.5116154594
 20
129.8361366677
 10
117.5146405085
 20
129.8207104076
 10
117.5180397302
 20
129.805555509
 10
117.5218059071
 20
129.7907042672
 10
117.5259398155
 20
129.7761573803
 10
117.530440679
 20
129.7619141502
 10
117.5352989513
 20
129.7480047778
 10
117.5405153757
 20
129.734429993
 10
117.5460892089
 20
129.721189066
 10
117.5520086749
 20
129.7083100077
 10
117.558274527
 20
129.6957935416
 10
117.5648860119
 20
129.6836389443
 10
117.5718290931
 20
129.6718720567
 10
117.5791044651
 20
129.6604937228
 10
117.5867114333
 20
129.6495030987
 10
117.5946338782
 20
129.638923493
 10
117.6028724772
 20
129.6287557697
 10
117.6114265529
 20
129.618999065
 10
117.6202779528
 20
129.6096740963
 10
117.6294272875
 20
129.6007817965
 10
117.6388739464
 20
129.5923212328
 10
117.6485979443
 20
129.5843103237
 10
117.6585998915
 20
129.5767500038
 10
117.6688791777
 20
129.5696393386
 10
117.6794139863
 20
129.5629934433
 10
117.6902048522
 20
129.5568133117
 10
117.7012512406
 20
129.55109795
 10
117.7125297306
 20
129.5458594918
 10
117.7240408352
 20
129.5410989456
 10
117.7357840414
 20
129.5368153029
 10
117.7477343899
 20
129.5330176721
 10
117.759892279
 20
129.5297070959
 10
117.7722573104
 20
129.5268825315
 10
117.7848033294
 20
129.5245499586
 10
117.7975307447
 20
129.5227104112
 10
117.8104391477
 20
129.5213628553
 10
117.823501158
 20
129.5205101684
 10
117.8367171451
 20
129.520153412
 10
117.8500867395
 20
129.5202915247
 10
117.8635814519
 20
129.5209241995
 10
117.8772018068
 20
129.5220525694
 10
117.8909472798
 20
129.5236755015
 10
117.9047878083
 20
129.5257892903
 10
117.9187133717
 20
129.5283927005
 10
117.9327339906
 20
129.5314869675
 10
117.9468496652
 20
129.5350720912
  0
LINE
  5
31A
100
AcDbEntity
  8
DRAFT
100
AcDbLine
 62
7
  6
CONTINUOUS
 10
116.5216394279
 20
176.7024632108
 11
116.5216394279
 21
177.1070217144
  0
LINE
  5
31B
100
AcDbEntity
  8
0
100
AcDbLine
 62
7
  6
CONTINUOUS
 10
118.0955833614
 20
176.0006348581
 11
118.0955833614
 21
176.3200497477
  0
LWPOLYLINE
  5
31C
100
AcDbEntity
  8
RACCORDO
100
AcDbPolyline
 62
253
  6
CONTINUOUS
 90
28
 70
0
 10
117.1510772278
 20
158.9650153144
 10
117.1171292279
 20
157.8736414665
 10
117.0857915056
 20
156.7834131584
 10
117.0570643238
 20
155.694339706
 10
117.0309479204
 20
154.6064304174
 10
117.0074425178
 20
153.5196945855
 10
116.9865483237
 20
152.4341414871
 10
116.9682655145
 20
151.3497803959
 10
116.9525942426
 20
150.2666205777
 10
116.9395346463
 20
149.1846712824
 10
116.9290868364
 20
148.103941754
 10
116.9212508994
 20
147.024441225
 10
116.9160269045
 20
145.9461789118
 10
116.9134148967
 20
144.8691640257
 10
116.9134148967
 20
143.7934057676
 10
116.9160269045
 20
142.7189133212
 10
116.9212508994
 20
141.6456958643
 10
116.9290868364
 20
140.5737625656
 10
116.9395346463
 20
139.5031225792
 10
116.9525942425
 20
138.4337850487
 10
116.9682655145
 20
137.3657591099
 10
116.9865483237
 20
136.2990538877
 10
117.0074425178
 20
135.2336784935
 10
117.0309479204
 20
134.1696420267
 10
117.0570643238
 20
133.1069535774
 10
117.0857915056
 20
132.0456222225
 10
117.1171292279
 20
130.9856570258
 10
117.1510772278
 20
129.9270670399
  0
LWPOLYLINE
  5
31D
100
AcDbEntity
  8
RACCORDO
100
AcDbPolyline
 62
253
  6
CONTINUOUS
 90
28
 70
0
 10
117.5013809225
 20
158.9548768174
 10
117.4674521503
 20
157.8641297134
 10
117.4361326351
 20
156.7745460382
 10
117.4074223767
 20
155.6861257917
 10
117.3813211743
 20
154.5988596879
 10
117.3578292288
 20
153.5127570127
 10
117.3369471428
 20
152.4278456249
 10
117.3186749836
 20
151.3441255634
 10
117.3030126838
 20
150.2615967892
 10
117.2899606448
 20
149.1802870436
 10
117.2795189334
 20
148.1001963591
 10
117.2716874828
 20
147.0213247033
 10
117.2664664935
 20
145.9436997206
 10
117.2638560323
 20
144.8673214435
 10
117.2638560324
 20
143.7921898396
 10
117.2664664939
 20
142.7183324557
 10
117.2716874834
 20
141.6457493239
 10
117.2795189343
 20
140.5744404122
 10
117.2899606459
 20
139.5044331713
 10
117.3030126852
 20
138.4357276335
 10
117.3186749852
 20
137.3683237665
 10
117.3369471447
 20
136.3022489242
 10
117.357829231
 20
135.2375031288
 10
117.3813211769
 20
134.1740863582
 10
117.4074223793
 20
133.1120259001
 10
117.4361326372
 20
132.0513308505
 10
117.4674521516
 20
130.9919921134
 10
117.5013809225
 20
129.9340096889
  0
LINE
  5
31E
100
AcDbEntity
  8
RACCORDO
100
AcDbLine
 62
7
  6
CONTINUOUS
 10
117.7894552379
 20
169.9546084727
 11
117.8892032433
 21
171.3010966169
  0
LINE
  5
31F
100
AcDbEntity
  8
RACCORDO
100
AcDbLine
 62
7
  6
CONTINUOUS
 10
118.071726338
 20
170.0883136912
 11
118.1631357223
 21
171.3222396407
  0
LINE
  5
320
100
AcDbEntity
  8
RACCORDO
100
AcDbLine
 62
253
  6
CONTINUOUS
 10
121.7107329984
 20
172.8471466155
 11
121.6903017388
 21
172.7599178634
  0
LWPOLYLINE
  5
321
100
AcDbEntity
  8
RACCORDO
100
AcDbPolyline
 62
7
  6
CONTINUOUS
 90
12
 70
0
 10
123.6385497134
 20
173.2583745755
 10
123.6392048793
 20
173.2605125611
 10
123.6409613681
 20
173.2639341724
 10
123.6435495343
 20
173.267134502
 10
123.646958859
 20
173.2701163486
 10
123.6511458551
 20
173.2728416777
 10
123.6561204844
 20
173.2753072034
 10
123.6618727851
 20
173.2775162116
 10
123.6683293845
 20
173.2794405256
 10
123.6754658253
 20
173.2810707533
 10
123.6833065648
 20
173.2824162868
 10
123.6918516031
 20
173.2834771262
  0
LWPOLYLINE
  5
322
100
AcDbEntity
  8
0
100
AcDbPolyline
 62
7
  6
CONTINUOUS
 90
11
 70
0
 10
112.1375773845
 20
144.1270495656
 10
112.2408426544
 20
144.3082462792
 10
112.3363409092
 20
144.5058315675
 10
112.4214967668
 20
144.7150421104
 10
112.4956131942
 20
144.9341654404
 10
112.5585995822
 20
145.1632829195
 10
112.6105465401
 20
145.4023131857
 10
112.6510288624
 20
145.6492996858
 10
112.6799048138
 20
145.9035902355
 10
112.6973161295
 20
146.1658370191
 10
112.7032628095
 20
146.4360400367
  0
LWPOLYLINE
  5
323
100
AcDbEntity
  8
0
100
AcDbPolyline
 62
7
  6
CONTINUOUS
 90
4
 70
0
 10
107.0226066339
 20
142.7479548109
 10
106.9132091502
 20
142.6445633835
 10
106.7974864907
 20
142.5524681776
 10
106.6761291745
 20
142.4719618509
  0
LWPOLYLINE
  5
324
100
AcDbEntity
  8
0
100
AcDbPolyline
 62
7
  6
CONTINUOUS
 90
45
 70
0
 10
106.9694503657
 20
142.6724636199
 10
107.0790325958
 20
142.7759493181
 10
107.1814579575
 20
142.8901024383
 10
107.2764270284
 20
143.0145891165
 10
107.3636714186
 20
143.1490588515
 10
107.4426360757
 20
143.2925287471
 10
107.5130180556
 20
143.4440724518
 10
107.5749317695
 20
143.6035208758
 10
107.6284898792
 20
143.7709815016
 10
107.6735496288
 20
143.9459958619
 10
107.7099861756
 20
144.1280671263
 10
107.7377860456
 20
144.3173850907
 10
107.7568160147
 20
144.5140042163
 10
107.7668440014
 20
144.7169528918
 10
107.7677601513
 20
144.924849302
 10
107.7595804883
 20
145.1370419247
 10
107.7423442515
 20
145.3529824112
 10
107.7162161944
 20
145.5713266043
 10
107.6815023461
 20
145.7906982026
 10
107.6383270845
 20
146.0111885793
 10
107.5865339691
 20
146.2336662695
 10
107.5260898184
 20
146.457895256
 10
107.4571656136
 20
146.6829132713
 10
107.3797310706
 20
146.908518161
 10
107.2937097896
 20
147.1345215248
 10
107.199375961
 20
147.359827842
 10
107.0973155414
 20
147.5828784119
 10
106.9877970227
 20
147.8030537838
 10
106.871119924
 20
148.0197212697
 10
106.7481314058
 20
148.2313859791
 10
106.6195929076
 20
148.4369731329
 10
106.4856100173
 20
148.6365373431
 10
106.3460831957
 20
148.8303061279
 10
106.2013918861
 20
149.0177543002
 10
106.0519237608
 20
149.1983816109
 10
105.8974945637
 20
149.3723415533
 10
105.7380606993
 20
149.5394991274
 10
105.5744063228
 20
149.6988521062
 10
105.4076064934
 20
149.8492938557
 10
105.2381483159
 20
149.9903991017
 10
105.0664692206
 20
150.1218179249
 10
104.8936415811
 20
150.2428002649
 10
104.7203522248
 20
150.3530134354
 10
104.5468767963
 20
150.4524291563
 10
104.3736809595
 20
150.5409079265
  0
LWPOLYLINE
  5
325
100
AcDbEntity
  8
0
100
AcDbPolyline
 62
7
  6
CONTINUOUS
 90
4
 70
0
 10
107.4464560572
 20
142.9596610489
 10
107.3368738271
 20
142.8561753507
 10
107.220949937
 20
142.7640180308
 10
107.0993380196
 20
142.6834588043
  0
LWPOLYLINE
  5
326
100
AcDbEntity
  8
0
100
AcDbPolyline
 62
7
  6
CONTINUOUS
 90
45
 70
0
 10
107.3929606599
 20
142.8839423101
 10
107.502783275
 20
142.9875545381
 10
107.6054247641
 20
143.1018751851
 10
107.7005843009
 20
143.2265693903
 10
107.7879913905
 20
143.3612844043
 10
107.8670877033
 20
143.5050315633
 10
107.9375765989
 20
143.6568972386
 10
107.9995637202
 20
143.8166950694
 10
108.0531449531
 20
143.9844725768
 10
108.0981866189
 20
144.1597637994
 10
108.134571658
 20
144.3420593023
 10
108.1622864655
 20
144.5314665593
 10
108.1812153646
 20
144.7279999761
 10
108.1911507805
 20
144.9306997624
 10
108.1920034084
 20
145.1381753514
 10
108.1838167854
 20
145.349641333
 10
108.1666529016
 20
145.5646681326
 10
108.1406405721
 20
145.7823056339
 10
108.1060286345
 20
146.0013489608
 10
108.062928118
 20
146.221747543
 10
108.011172672
 20
146.4443060445
 10
107.9507007628
 20
146.6688220969
 10
107.8816713183
 20
146.8943009986
 10
107.8040958098
 20
147.1203719428
 10
107.7179193612
 20
147.3467899555
 10
107.6233994515
 20
147.5725090564
 10
107.5211256844
 20
147.7959612055
 10
107.4113685684
 20
148.0165229654
 10
107.2944292254
 20
148.2335589178
 10
107.1711593356
 20
148.4455674015
 10
107.0423111895
 20
148.6514894779
 10
106.9080036303
 20
148.8513579815
 10
106.7681807786
 20
149.0453424897
 10
106.6232225552
 20
149.2329294416
 10
106.4735291921
 20
149.4136142403
 10
106.3189881539
 20
149.5874834106
 10
106.1595861587
 20
149.7543974205
 10
105.9960961216
 20
149.9133960045
 10
105.8296059731
 20
150.0633882714
 10
105.6607074054
 20
150.2038926
 10
105.489741919
 20
150.3346759711
 10
105.3174800085
 20
150.4552165127
 10
105.1444982195
 20
150.5652168318
 10
104.9711657144
 20
150.6645477253
 10
104.7979450282
 20
150.7530399608
  0
LWPOLYLINE
  5
327
100
AcDbEntity
  8
0
100
AcDbPolyline
 62
7
  6
CONTINUOUS
 90
4
 70
0
 10
107.8702067364
 20
143.1712662688
 10
107.7603841214
 20
143.0676540408
 10
107.6441991723
 20
142.9754131442
 10
107.5222826489
 20
142.8947982381
  0
LWPOLYLINE
  5
328
100
AcDbEntity
  8
0
100
AcDbPolyline
 62
7
  6
CONTINUOUS
 90
45
 70
0
 10
107.816700121
 20
143.0956200766
 10
107.9267016508
 20
143.1993320775
 10
108.0295035292
 20
143.3137833399
 10
108.1248035344
 20
143.438637721
 10
108.2123300083
 20
143.5735411654
 10
108.2915221613
 20
143.7175005742
 10
108.3620901887
 20
143.8696167041
 10
108.4241305809
 20
144.0296858382
 10
108.4777220057
 20
144.197694153
 10
108.5227399353
 20
144.3731672815
 10
108.5590758836
 20
144.5555849733
 10
108.5867168181
 20
144.744974999
 10
108.6055643408
 20
144.9413075802
 10
108.6154360206
 20
145.1436403736
 10
108.6162624565
 20
145.350592955
 10
108.6081149358
 20
145.5611997004
 10
108.5910766752
 20
145.775198318
 10
108.5652146874
 20
145.9922028957
 10
108.5306646552
 20
146.2113762024
 10
108.4875208734
 20
146.4323432905
 10
108.4356868179
 20
146.6554411477
 10
108.3751559709
 20
146.880289679
 10
108.3060556372
 20
147.1060625244
 10
108.2283866261
 20
147.332430041
 10
108.1420881616
 20
147.5591604099
 10
108.0474233791
 20
147.785189154
 10
107.944984419
 20
148.0089419351
 10
107.8350432974
 20
148.2297924062
 10
107.7179024165
 20
148.4471030094
 10
107.594416655
 20
148.6593674318
 10
107.4653271228
 20
148.8655452519
 10
107.3307665357
 20
149.0656459379
 10
107.1907255965
 20
149.259777115
 10
107.0455866916
 20
149.4474350213
 10
106.8957601953
 20
149.6281147381
 10
106.7412016569
 20
149.8018407083
 10
106.5819288952
 20
149.968468118
 10
106.4187013561
 20
150.1270806972
 10
106.2526108535
 20
150.276610544
 10
106.084396469
 20
150.4164835308
 10
105.9142598884
 20
150.5466221016
 10
105.742525432
 20
150.6668267617
 10
105.5696075456
 20
150.776837895
 10
105.396015165
 20
150.8763624899
 10
105.2222090969
 20
150.9651719952
  0
LWPOLYLINE
  5
329
100
AcDbEntity
  8
0
100
AcDbPolyline
 62
7
  6
CONTINUOUS
 90
4
 70
0
 10
108.2941251122
 20
143.3830438082
 10
108.1841235824
 20
143.2793318073
 10
108.0677452876
 20
143.187024529
 10
107.9456361898
 20
143.1063842785
  0
LWPOLYLINE
  5
32A
100
AcDbEntity
  8
0
100
AcDbPolyline
 62
7
  6
CONTINUOUS
 90
44
 70
0
 10
108.2085537909
 20
143.280379954
 10
108.3235934727
 20
143.3839914633
 10
108.4313334448
 20
143.4993056176
 10
108.5313531588
 20
143.62599079
 10
108.6229185876
 20
143.7630959567
 10
108.7057316356
 20
143.9099679772
 10
108.7797010246
 20
144.0662195553
 10
108.8445867995
 20
144.2310816276
 10
108.9001750765
 20
144.4035425071
 10
108.9465655107
 20
144.5833727168
 10
108.983912641
 20
144.7710534313
 10
109.0121238362
 20
144.9666798389
 10
109.0309319813
 20
145.1691527406
 10
109.0402090405
 20
145.3771941151
 10
109.0399744629
 20
145.5898263214
 10
109.0302895703
 20
145.8067289872
 10
109.0111886942
 20
146.0275508875
 10
108.9827302998
 20
146.2516271508
 10
108.9449949885
 20
146.4783277859
 10
108.8980070004
 20
146.7073707652
 10
108.8418978764
 20
146.9379423911
 10
108.7767559106
 20
147.1695338113
 10
108.7024380314
 20
147.4023228484
 10
108.6187969592
 20
147.6362176173
 10
108.526122162
 20
147.8699090733
 10
108.4249773221
 20
148.1017466209
 10
108.3156167917
 20
148.3310592778
 10
108.1983514298
 20
148.5571134474
 10
108.0740721142
 20
148.7782424843
 10
107.9434661578
 20
148.9934348614
 10
107.8067582948
 20
149.2025201224
 10
107.6642446501
 20
149.4051666721
 10
107.5165160448
 20
149.6006466416
 10
107.363900046
 20
149.7886347194
 10
107.2062319953
 20
149.9693394606
 10
107.0435305898
 20
150.1426190128
 10
106.8766243695
 20
150.307473746
 10
106.7065670221
 20
150.4628603159
 10
106.5341725015
 20
150.6081297289
 10
106.3596430951
 20
150.7432050604
 10
106.1831448134
 20
150.8679849549
 10
106.0050603897
 20
150.9821817172
 10
105.8260021224
 20
151.0853863134
 10
105.6464731656
 20
151.1773040295
  0
LINE
  5
32B
100
AcDbEntity
  8
0
100
AcDbLine
 62
7
  6
CONTINUOUS
 10
104.7377833589
 20
141.5237165521
 11
104.8517961821
 21
141.6149918727
  0
LINE
  5
32C
100
AcDbEntity
  8
0
100
AcDbLine
 62
7
  6
CONTINUOUS
 10
105.1609307039
 20
141.7350307813
 11
105.2752533214
 21
141.8264205974
  0
LINE
  5
32D
100
AcDbEntity
  8
0
100
AcDbLine
 62
7
  6
CONTINUOUS
 10
105.5838883735
 20
141.9462078804
 11
105.6987066185
 21
142.0378468444
  0
LINE
  5
32E
100
AcDbEntity
  8
0
100
AcDbLine
 62
7
  6
CONTINUOUS
 10
106.0074069057
 20
142.1577958078
 11
106.1227286736
 21
142.2497683718
  0
LINE
  5
32F
100
AcDbEntity
  8
0
100
AcDbLine
 62
7
  6
CONTINUOUS
 10
106.4300630292
 20
142.3687564469
 11
106.5457856888
 21
142.4608516528
  0
LINE
  5
330
100
AcDbEntity
  8
0
100
AcDbLine
 62
7
  6
CONTINUOUS
 10
106.8535264756
 20
142.5803063001
 11
106.9694503657
 21
142.6724636199
  0
LINE
  5
331
100
AcDbEntity
  8
0
100
AcDbLine
 62
7
  6
CONTINUOUS
 10
107.2767757108
 20
142.7917014135
 11
107.3929606599
 21
142.8839423101
  0
LINE
  5
332
100
AcDbEntity
  8
0
100
AcDbLine
 62
7
  6
CONTINUOUS
 10
107.7003218262
 20
143.0033127983
 11
107.816700121
 21
143.0956200766
  0
LINE
  5
333
100
AcDbEntity
  8
0
100
AcDbLine
 62
7
  6
CONTINUOUS
 10
108.248490088
 20
153.9512943631
 11
104.3594027915
 21
153.1458380114
  0
LWPOLYLINE
  5
334
100
AcDbEntity
  8
RACCORDO
100
AcDbPolyline
 62
253
  6
CONTINUOUS
 90
200
 70
0
 10
118.5904583038
 20
168.9656516118
 10
118.590488059
 20
168.9612491218
 10
118.5905785761
 20
168.9568116209
 10
118.590729824
 20
168.9523863433
 10
118.5909417638
 20
168.9479735548
 10
118.5912143518
 20
168.9435735212
 10
118.5915475411
 20
168.9391864756
 10
118.5919412797
 20
168.934812683
 10
118.5923955107
 20
168.9304524079
 10
118.5929101748
 20
168.9261058831
 10
118.5934852068
 20
168.9217733722
 10
118.5941205366
 20
168.9174551388
 10
118.5948160928
 20
168.9131514147
 10
118.5955717968
 20
168.908862464
 10
118.5963875657
 20
168.9045885474
 10
118.5972633169
 20
168.9003298915
 10
118.5981989575
 20
168.8960867642
 10
118.5991943933
 20
168.8918594195
 10
118.6002495352
 20
168.8876480624
 10
118.6013642821
 20
168.8834529453
 10
118.602538525
 20
168.8792743348
 10
118.6037721581
 20
168.8751124571
 10
118.6050650665
 20
168.8709675687
 10
118.6064171299
 20
168.8668399288
 10
118.6078282295
 20
168.8627297662
 10
118.6092982372
 20
168.8586373373
 10
118.6108270204
 20
168.8545628977
 10
118.6124144485
 20
168.8505066754
 10
118.6140603809
 20
168.8464689244
 10
118.6157646724
 20
168.8424498986
 10
118.6175271806
 20
168.8384498243
 10
118.6193477523
 20
168.8344689538
 10
118.6212262301
 20
168.8305075386
 10
118.6231624599
 20
168.8265658035
 10
118.6251562749
 20
168.8226440008
 10
118.6272075066
 20
168.8187423776
 10
118.629315993
 20
168.81486115
 10
118.6314815539
 20
168.8110005707
 10
118.6337040103
 20
168.8071608816
 10
118.6359831995
 20
168.8033422814
 10
118.6383189372
 20
168.7995450084
 10
118.6407110268
 20
168.7957693143
 10
118.6431592829
 20
168.7920154168
 10
118.6456635056
 20
168.7882835579
 10
118.6482234901
 20
168.7845739804
 10
118.6508390387
 20
168.7808869017
 10
118.6535099394
 20
168.7772225618
 10
118.656235976
 20
168.7735812
 10
118.6590169395
 20
168.7699630321
 10
118.6618526063
 20
168.7663682951
 10
118.6647427485
 20
168.7627972254
 10
118.6676871458
 20
168.759250037
 10
118.670685563
 20
168.755726964
 10
118.6737377608
 20
168.7522282397
 10
118.6768435081
 20
168.7487540758
 10
118.6800025556
 20
168.7453047058
 10
118.6832146553
 20
168.7418803571
 10
118.6864795737
 20
168.7384812303
 10
118.6897970503
 20
168.735107556
 10
118.6931668268
 20
168.7317595581
 10
118.6965886695
 20
168.7284374261
 10
118.700062316
 20
168.7251413794
 10
118.7035874897
 20
168.7218716469
 10
118.7071639325
 20
168.7186284303
 10
118.7107913665
 20
168.7154119503
 10
118.7144695088
 20
168.7122224277
 10
118.7181980906
 20
168.7090600622
 10
118.7219768234
 20
168.705925071
 10
118.7258054135
 20
168.7028176711
 10
118.7296835803
 20
168.6997380614
 10
118.7336110245
 20
168.6966864552
 10
118.7375874421
 20
168.6936630658
 10
118.7416125414
 20
168.6906680896
 10
118.7456860122
 20
168.6877017367
 10
118.7498075407
 20
168.684764216
 10
118.7539768257
 20
168.6818557205
 10
118.7581935423
 20
168.6789764593
 10
118.7624573707
 20
168.6761266343
 10
118.7667680139
 20
168.6733064265
 10
118.7711251396
 20
168.6705160393
 10
118.7755284164
 20
168.6677556725
 10
118.779977545
 20
168.6650255004
 10
118.7844721909
 20
168.6623257184
 10
118.7890120067
 20
168.6596565265
 10
118.7935966709
 20
168.6570181049
 10
118.7982258354
 20
168.6544106471
 10
118.8028991473
 20
168.6518343463
 10
118.8076162747
 20
168.6492893804
 10
118.8123768611
 20
168.6467759382
 10
118.8171805433
 20
168.644294209
 10
118.8220269761
 20
168.6418443696
 10
118.8269157925
 20
168.6394266049
 10
118.8318466214
 20
168.637041099
 10
118.8368191074
 20
168.6346880256
 10
118.8418328738
 20
168.6323675653
 10
118.8468875411
 20
168.6300798972
 10
118.8519827468
 20
168.6278251904
 10
118.8571181001
 20
168.625603623
 10
118.8622932178
 20
168.6234153671
 10
118.8675077461
 20
168.6212605812
 10
118.8727612901
 20
168.6191394367
 10
118.8780534544
 20
168.6170521031
 10
118.8833838808
 20
168.6149987345
 10
118.8887521712
 20
168.6129794958
 10
118.8941579178
 20
168.6109945539
 10
118.8996007449
 20
168.609044063
 10
118.9050802446
 20
168.6071281844
 10
118.9105960029
 20
168.6052470788
 10
118.9161476326
 20
168.6034008984
 10
118.9217347188
 20
168.6015897992
 10
118.9273568387
 20
168.5998139371
 10
118.9330135907
 20
168.5980734625
 10
118.9387045497
 20
168.5963685269
 10
118.9444292875
 20
168.5946992803
 10
118.9501873942
 20
168.5930658688
 10
118.955978436
 20
168.591468439
 10
118.9618019784
 20
168.5899071352
 10
118.9676576076
 20
168.5883820981
 10
118.9735448781
 20
168.5868934699
 10
118.9794633526
 20
168.5854413887
 10
118.9854126272
 20
168.5840259867
 10
118.9913922545
 20
168.5826473996
 10
118.9974017855
 20
168.5813057617
 10
119.0034408126
 20
168.5800012009
 10
119.0095088838
 20
168.5787338473
 10
119.0156055417
 20
168.5775038302
 10
119.0217303676
 20
168.5763112748
 10
119.0278829047
 20
168.5751563055
 10
119.0340626879
 20
168.5740390466
 10
119.0402692832
 20
168.5729596206
 10
119.0465022273
 20
168.5719181466
 10
119.0527610489
 20
168.5709147431
 10
119.0590453005
 20
168.5699495291
 10
119.0653545097
 20
168.5690226186
 10
119.0716882021
 20
168.5681341235
 10
119.078045924
 20
168.567284158
 10
119.0844271953
 20
168.5664728304
 10
119.0908315376
 20
168.5657002466
 10
119.0972584975
 20
168.5649665151
 10
119.1037075871
 20
168.5642717382
 10
119.1101783248
 20
168.563616016
 10
119.116670265
 20
168.5629994509
 10
119.1231829175
 20
168.5624221391
 10
119.1297157928
 20
168.5618841753
 10
119.1362684443
 20
168.5613856572
 10
119.1428403783
 20
168.5609266752
 10
119.1494310991
 20
168.5605073183
 10
119.156040156
 20
168.5601276799
 10
119.1626670558
 20
168.5597878445
 10
119.169311293
 20
168.5594878954
 10
119.1759723962
 20
168.5592279222
 10
119.1826498647
 20
168.5590080036
 10
119.1893431915
 20
168.5588282163
 10
119.1960518948
 20
168.5586886452
 10
119.2027754671
 20
168.5585893625
 10
119.2095133998
 20
168.5585304389
 10
119.2162652071
 20
168.5585119534
 10
119.2230303753
 20
168.5585339722
 10
119.2298083941
 20
168.5585965595
 10
119.2365987816
 20
168.5586997891
 10
119.2434010202
 20
168.5588437208
 10
119.2502145962
 20
168.5590284124
 10
119.2570390318
 20
168.5592539331
 10
119.2638738056
 20
168.5595203361
 10
119.2707184011
 20
168.5598276734
 10
119.2775723458
 20
168.5601760094
 10
119.2844351177
 20
168.5605653914
 10
119.2913061949
 20
168.5609958651
 10
119.2981851041
 20
168.5614674906
 10
119.3050713284
 20
168.5619803096
 10
119.3119643352
 20
168.5625343611
 10
119.3188636269
 20
168.5631296984
 10
119.3257686776
 20
168.5637663564
 10
119.3326789586
 20
168.564444368
 10
119.3395939661
 20
168.5651637805
 10
119.3465131706
 20
168.5659246221
 10
119.3534360426
 20
168.566726919
 10
119.3603620774
 20
168.5675707131
 10
119.3672907414
 20
168.5684560255
 10
119.3742215052
 20
168.5693828762
 10
119.3811538691
 20
168.5703513022
 10
119.3880872991
 20
168.5713613182
 10
119.3950212629
 20
168.5724129376
 10
119.4019552626
 20
168.5735061922
 10
119.4088887588
 20
168.5746410897
 10
119.415821222
 20
168.5758176375
 10
119.4227521684
 20
168.5770358649
 10
119.4296810633
 20
168.578295774
 10
119.4366073704
 20
168.5795973651
 10
119.4435306026
 20
168.5809406623
 10
119.4504502315
 20
168.5823256627
 10
119.4573657128
 20
168.5837523588
 10
119.4642765363
 20
168.5852207648
 10
119.4711821655
 20
168.5867308697
 10
119.4780820632
 20
168.5882826605
 10
119.4849757175
 20
168.5898761452
 10
119.4918625909
 20
168.5915113059
 10
119.498742147
 20
168.593188123
 10
119.5056138757
 20
168.5949065989
 10
119.5124772387
 20
168.5966667088
  0
LWPOLYLINE
  5
335
100
AcDbEntity
  8
RACCORDO
100
AcDbPolyline
 62
253
  6
CONTINUOUS
 90
69
 70
0
 10
119.5124772387
 20
168.5966667088
 10
119.5193317009
 20
168.5984684263
 10
119.5261767568
 20
168.6003117494
 10
119.5330118695
 20
168.6021966467
 10
119.5398365035
 20
168.6041230848
 10
119.546650155
 20
168.6060910565
 10
119.5534522829
 20
168.6081005218
 10
119.5602423575
 20
168.6101514424
 10
119.5670198929
 20
168.6122438106
 10
119.5737843553
 20
168.614377582
 10
119.5805352097
 20
168.6165527098
 10
119.587271968
 20
168.6187691803
 10
119.5939941002
 20
168.6210269436
 10
119.6007010701
 20
168.6233259455
 10
119.6073923809
 20
168.6256661637
 10
119.6140675016
 20
168.6280475406
 10
119.6207259003
 20
168.6304700162
 10
119.6273670802
 20
168.6329335622
 10
119.633990523
 20
168.6354381184
 10
119.6405956881
 20
168.637983614
 10
119.6471820456
 20
168.640570001
 10
119.6537490793
 20
168.6431972125
 10
119.6602962518
 20
168.6458651699
 10
119.6668230043
 20
168.6485738049
 10
119.6733288426
 20
168.6513230512
 10
119.6798132139
 20
168.6541128146
 10
119.6862754745
 20
168.6569429781
 10
119.6927153976
 20
168.6598135886
 10
119.6991321708
 20
168.6627244236
 10
119.7055242871
 20
168.6656749438
 10
119.7118910045
 20
168.668664933
 10
119.7182320623
 20
168.6716943869
 10
119.7245466929
 20
168.674763064
 10
119.730834306
 20
168.6778707993
 10
119.7370945067
 20
168.6810175182
 10
119.7433268264
 20
168.6842031086
 10
119.7495307782
 20
168.6874274466
 10
119.7557058754
 20
168.690690405
 10
119.7618516519
 20
168.6939918643
 10
119.7679676324
 20
168.6973316971
 10
119.7740533319
 20
168.7007097673
 10
119.7801082726
 20
168.7041259396
 10
119.7861319824
 20
168.7075800782
 10
119.7921239876
 20
168.7110720427
 10
119.7980838122
 20
168.7146016881
 10
119.804010989
 20
168.7181688706
 10
119.8099050545
 20
168.7217734452
 10
119.8157655421
 20
168.7254152611
 10
119.8215919904
 20
168.7290941671
 10
119.8273839459
 20
168.7328100132
 10
119.8331409577
 20
168.7365626474
 10
119.8388625757
 20
168.7403519145
 10
119.8445483513
 20
168.7441776565
 10
119.8501978399
 20
168.7480397142
 10
119.8558105994
 20
168.7519379262
 10
119.86138619
 20
168.7558721288
 10
119.8669241753
 20
168.7598421568
 10
119.8724241216
 20
168.7638478427
 10
119.8778855983
 20
168.7678890174
 10
119.8833081778
 20
168.7719655095
 10
119.8886914357
 20
168.7760771461
 10
119.8940349503
 20
168.7802237523
 10
119.8993383032
 20
168.7844051514
 10
119.9046010791
 20
168.7886211645
 10
119.909822866
 20
168.7928716115
 10
119.915003256
 20
168.7971563107
 10
119.9201418437
 20
168.8014750781
 10
119.9252382265
 20
168.8058277278
 10
119.9302920054
 20
168.8102140722
  0
LINE
  5
336
100
AcDbEntity
  8
RACCORDO
100
AcDbLine
 62
7
  6
CONTINUOUS
 10
118.5364555685
 20
177.5007042567
 11
118.5364555685
 21
177.2341970623
  0
LINE
  5
337
100
AcDbEntity
  8
RACCORDO
100
AcDbLine
 62
7
  6
CONTINUOUS
 10
118.5904583038
 20
168.9656517967
 11
118.5904583038
 21
168.4450578515
  0
LINE
  5
338
100
AcDbEntity
  8
ASSI
100
AcDbLine
 62
253
  6
CONTINUOUS
 10
118.6783151105
 20
173.0272451421
 11
118.6783151105
 21
173.3138268009
  0
LINE
  5
339
100
AcDbEntity
  8
ASSI
100
AcDbLine
 62
253
  6
CONTINUOUS
 10
119.4333475181
 20
176.0417556156
 11
119.4333475181
 21
176.5537269837
  0
LINE
  5
33A
100
AcDbEntity
  8
0
100
AcDbLine
 62
7
  6
CONTINUOUS
 10
119.4914879089
 20
170.6580635475
 11
119.4914879089
 21
170.9178711686
  0
LINE
  5
33B
100
AcDbEntity
  8
ASSI
100
AcDbLine
 62
7
  6
CONTINUOUS
 10
119.7199557185
 20
176.071367542
 11
119.7199557185
 21
176.6422974062
  0
LINE
  5
33C
100
AcDbEntity
  8
0
100
AcDbLine
 62
7
  6
CONTINUOUS
 10
119.7743306214
 20
170.7994849037
 11
119.7743306214
 21
171.0592925248
  0
LINE
  5
33D
100
AcDbEntity
  8
RACCORDO
100
AcDbLine
 62
253
  6
CONTINUOUS
 10
119.7908858983
 20
164.9897208513
 11
119.7908858983
 21
162.0019332082
  0
LINE
  5
33E
100
AcDbEntity
  8
RACCORDO
100
AcDbLine
 62
253
  6
CONTINUOUS
 10
119.7908858983
 20
129.4393780259
 11
119.7908858983
 21
126.4515903829
  0
LINE
  5
33F
100
AcDbEntity
  8
RACCORDO
100
AcDbLine
 62
253
  6
CONTINUOUS
 10
119.9302920054
 20
168.8102140722
 11
119.9302920054
 21
168.1606950194
  0
LINE
  5
340
100
AcDbEntity
  8
0
100
AcDbLine
 62
253
  6
CONTINUOUS
 10
119.9864626557
 20
171.4251661631
 11
119.9864626557
 21
171.7715763247
  0
LINE
  5
341
100
AcDbEntity
  8
RACCORDO
100
AcDbLine
 62
253
  6
CONTINUOUS
 10
120.1413271863
 20
164.9881917239
 11
120.1413271863
 21
162.0004040808
  0
LINE
  5
342
100
AcDbEntity
  8
RACCORDO
100
AcDbLine
 62
253
  6
CONTINUOUS
 10
120.1413271863
 20
129.4378488985
 11
120.1413271863
 21
126.4500612555
  0
LINE
  5
343
100
AcDbEntity
  8
RACCORDO
100
AcDbLine
 62
7
  6
CONTINUOUS
 10
120.324328561
 20
162.0887652675
 11
120.324328561
 21
161.4365725167
  0
LINE
  5
344
100
AcDbEntity
  8
RACCORDO
100
AcDbLine
 62
7
  6
CONTINUOUS
 10
120.324328561
 20
130.178402836
 11
120.324328561
 21
129.5262100852
  0
LINE
  5
345
100
AcDbEntity
  8
0
100
AcDbLine
 62
253
  6
CONTINUOUS
 10
120.3500307883
 20
171.6069502294
 11
120.3500307883
 21
171.953360391
  0
LWPOLYLINE
  5
346
100
AcDbEntity
  8
RACCORDO
100
AcDbPolyline
 62
253
  6
CONTINUOUS
 90
43
 70
0
 10
119.7908858983
 20
164.9897208513
 10
119.7910095299
 20
164.9978785064
 10
119.7913802519
 20
165.0061483868
 10
119.7919975463
 20
165.0145189252
 10
119.7928605499
 20
165.0229784153
 10
119.7939680562
 20
165.031515023
 10
119.7953185154
 20
165.0401168031
 10
119.7969100383
 20
165.0487717224
 10
119.7987403988
 20
165.0574676765
 10
119.8008070368
 20
165.0661925014
 10
119.8031070613
 20
165.0749339938
 10
119.8056372552
 20
165.0836799262
 10
119.8083940789
 20
165.0924180642
 10
119.8113736761
 20
165.1011361855
 10
119.8145718789
 20
165.1098220958
 10
119.8179842135
 20
165.1184636447
 10
119.8216059064
 20
165.1270487452
 10
119.8254318918
 20
165.1355653891
 10
119.8294568173
 20
165.1440016628
 10
119.8336750529
 20
165.1523457666
 10
119.8380806981
 20
165.1605860294
 10
119.8426675891
 20
165.1687109235
 10
119.8474293092
 20
165.1767090838
 10
119.8523591983
 20
165.1845693245
 10
119.8574503613
 20
165.1922806529
 10
119.8626956779
 20
165.1998322848
 10
119.8680878101
 20
165.2072136564
 10
119.8736192131
 20
165.2144144403
 10
119.879282144
 20
165.2214245585
 10
119.885068687
 20
165.2282342137
 10
119.8909707631
 20
165.2348338982
 10
119.8969801402
 20
165.2412144037
 10
119.9030883915
 20
165.2473667793
 10
119.9092869189
 20
165.2532823678
 10
119.9155670168
 20
165.2589528707
 10
119.9219199328
 20
165.2643703946
 10
119.9283368271
 20
165.2695274046
 10
119.9348091762
 20
165.2744170182
 10
119.9413274824
 20
165.2790320281
 10
119.9478813064
 20
165.2833651355
 10
119.9544610223
 20
165.2874101913
 10
119.9610578594
 20
165.2911620171
 10
119.9676625936
 20
165.2946155499
  0
LWPOLYLINE
  5
347
100
AcDbEntity
  8
0
100
AcDbPolyline
 62
7
  6
CONTINUOUS
 90
19
 70
0
 10
119.4914879089
 20
170.9178711686
 10
119.4934896017
 20
170.9723603091
 10
119.4991115536
 20
171.0274715209
 10
119.5083537644
 20
171.083204804
 10
119.521341042
 20
171.1399915936
 10
119.5379485787
 20
171.1974004545
 10
119.5578019507
 20
171.2541370808
 10
119.5809748909
 20
171.3101862021
 10
119.6073936666
 20
171.3655630889
 10
119.6364626557
 20
171.419019247
 10
119.6682420609
 20
171.470511045
 10
119.7026716796
 20
171.5200821143
 10
119.7389752823
 20
171.5666148553
 10
119.7771954385
 20
171.610040249
 10
119.8172895787
 20
171.6504273144
 10
119.8583537644
 20
171.686865509
 10
119.9000866827
 20
171.7190513184
 10
119.9427896465
 20
171.747288257
 10
119.9864626557
 20
171.7715763247
  0
LWPOLYLINE
  5
348
100
AcDbEntity
  8
0
100
AcDbPolyline
 62
7
  6
CONTINUOUS
 90
16
 70
0
 10
119.7743306214
 20
171.0592925248
 10
119.7755971536
 20
171.0875606535
 10
119.7790579805
 20
171.1160527237
 10
119.7847131021
 20
171.1447687354
 10
119.7926717571
 20
171.1740258848
 10
119.8028247067
 20
171.2035069757
 10
119.8148442349
 20
171.2322604197
 10
119.8287912461
 20
171.2602624745
 10
119.8446048359
 20
171.2875368824
 10
119.8617745744
 20
171.3132032821
 10
119.8803447113
 20
171.337209206
 10
119.9002709969
 20
171.3596071218
 10
119.920910252
 20
171.3796740712
 10
119.9420480837
 20
171.3971690682
 10
119.9638988849
 20
171.4123330989
 10
119.9864626557
 20
171.4251661631
  0
LINE
  5
349
100
AcDbEntity
  8
RACCORDO
100
AcDbLine
 62
253
  6
CONTINUOUS
 10
123.6918516031
 20
173.2834771262
 11
123.6751665696
 21
173.2122424259
  0
LWPOLYLINE
  5
34A
100
AcDbEntity
  8
0
100
AcDbPolyline
 62
7
  6
CONTINUOUS
 90
3
 70
0
 10
111.1464844816
 20
143.2072866024
 10
111.2849282846
 20
143.3040168997
 10
111.3690483066
 20
143.3724861759
  0
LINE
  5
34B
100
AcDbEntity
  8
0
100
AcDbLine
 62
7
  6
CONTINUOUS
 10
104.5626614066
 20
141.4160612768
 11
104.441161985
 21
141.3487722811
  0
LWPOLYLINE
  5
34C
100
AcDbEntity
  8
0
100
AcDbPolyline
 62
7
  6
CONTINUOUS
 90
3
 70
0
 10
104.4979598153
 20
141.3771711898
 10
104.6179300989
 20
141.4435240615
 10
104.7377833589
 20
141.5237165521
  0
LINE
  5
34D
100
AcDbEntity
  8
0
100
AcDbLine
 62
7
  6
CONTINUOUS
 10
104.9853535603
 20
141.6272357922
 11
104.8653832768
 21
141.5608829205
  0
LWPOLYLINE
  5
34E
100
AcDbEntity
  8
0
100
AcDbPolyline
 62
7
  6
CONTINUOUS
 90
3
 70
0
 10
104.9221719442
 20
141.5892772483
 10
105.0410173966
 20
141.6549408352
 10
105.1609307039
 20
141.7350307813
  0
LINE
  5
34F
100
AcDbEntity
  8
0
100
AcDbLine
 62
7
  6
CONTINUOUS
 10
105.408440858
 20
141.8386525659
 11
105.2895954056
 21
141.772988979
  0
LWPOLYLINE
  5
350
100
AcDbEntity
  8
0
100
AcDbPolyline
 62
7
  6
CONTINUOUS
 90
3
 70
0
 10
105.3463214707
 20
141.8013520068
 10
105.4636629231
 20
141.8660912711
 10
105.5838883735
 20
141.9462078804
  0
LINE
  5
351
100
AcDbEntity
  8
0
100
AcDbLine
 62
7
  6
CONTINUOUS
 10
105.8310863846
 20
142.0498030018
 11
105.7137449322
 21
141.9850637375
  0
LWPOLYLINE
  5
352
100
AcDbEntity
  8
0
100
AcDbPolyline
 62
7
  6
CONTINUOUS
 90
3
 70
0
 10
105.7704334148
 20
142.0134079896
 10
105.8866010637
 20
142.077421045
 10
106.0074069057
 20
142.1577958078
  0
LINE
  5
353
100
AcDbEntity
  8
0
100
AcDbLine
 62
7
  6
CONTINUOUS
 10
106.2540245251
 20
142.2611327757
 11
106.1378568762
 21
142.1971197204
  0
LWPOLYLINE
  5
354
100
AcDbEntity
  8
0
100
AcDbPolyline
 62
7
  6
CONTINUOUS
 90
3
 70
0
 10
106.1945121447
 20
142.2254473942
 10
106.3087057131
 20
142.2882501202
 10
106.4300630292
 20
142.3687564469
  0
LINE
  5
355
100
AcDbEntity
  8
0
100
AcDbLine
 62
7
  6
CONTINUOUS
 10
106.6761291745
 20
142.4719618509
 11
106.5619356061
 21
142.4091591249
  0
LWPOLYLINE
  5
356
100
AcDbEntity
  8
0
100
AcDbPolyline
 62
7
  6
CONTINUOUS
 90
3
 70
0
 10
106.6186930842
 20
142.4375378911
 10
106.7319145582
 20
142.4997470735
 10
106.8535264756
 20
142.5803063001
  0
LINE
  5
357
100
AcDbEntity
  8
0
100
AcDbLine
 62
7
  6
CONTINUOUS
 10
107.0993380196
 20
142.6834588043
 11
106.9861165456
 21
142.6212496218
  0
LWPOLYLINE
  5
358
100
AcDbEntity
  8
0
100
AcDbPolyline
 62
7
  6
CONTINUOUS
 90
3
 70
0
 10
107.0428988914
 20
142.6496408173
 10
107.1548591874
 20
142.7110865074
 10
107.2767757108
 20
142.7917014135
  0
LINE
  5
359
100
AcDbEntity
  8
0
100
AcDbLine
 62
7
  6
CONTINUOUS
 10
107.5222826489
 20
142.8947982381
 11
107.4103223529
 21
142.833352548
  0
LWPOLYLINE
  5
35A
100
AcDbEntity
  8
0
100
AcDbPolyline
 62
7
  6
CONTINUOUS
 90
3
 70
0
 10
107.4671830835
 20
142.8617829052
 10
107.5782127284
 20
142.9226725478
 10
107.7003218262
 20
143.0033127983
  0
LINE
  5
35B
100
AcDbEntity
  8
0
100
AcDbLine
 62
7
  6
CONTINUOUS
 10
107.9456361898
 20
143.1063842785
 11
107.8346065449
 21
143.0454946359
  0
LWPOLYLINE
  5
35C
100
AcDbEntity
  8
0
100
AcDbPolyline
 62
7
  6
CONTINUOUS
 90
48
 70
0
 10
108.315763612
 20
143.2860731499
 10
108.4260072822
 20
143.3464973014
 10
108.548269238
 20
143.4271561523
 10
108.6648188262
 20
143.5195298624
 10
108.7749789615
 20
143.6233390527
 10
108.8779223132
 20
143.7379153223
 10
108.9733452786
 20
143.8629211223
 10
109.060975332
 20
143.9980013333
 10
109.1402493625
 20
144.142158494
 10
109.2108897894
 20
144.294520312
 10
109.2729774401
 20
144.4548547646
 10
109.3265620414
 20
144.6230454804
 10
109.3715341058
 20
144.7986027679
 10
109.4078006539
 20
144.9809925159
 10
109.4353508891
 20
145.17011805
 10
109.4541057065
 20
145.3657552081
 10
109.4639433498
 20
145.5671096912
 10
109.4648192019
 20
145.7732169111
 10
109.4567753191
 20
145.9832276066
 10
109.4398690182
 20
146.1968019576
 10
109.4141234215
 20
146.4137149611
 10
109.3795963569
 20
146.6333517332
 10
109.3363622635
 20
146.8551414944
 10
109.2844061806
 20
147.0789424577
 10
109.2237971801
 20
147.3041605614
 10
109.1546346386
 20
147.5301698527
 10
109.0768854353
 20
147.7567751792
 10
108.9904706776
 20
147.9837888673
 10
108.895669189
 20
148.210097414
 10
108.7930753222
 20
148.4341211886
 10
108.6829625805
 20
148.655231051
 10
108.5656344919
 20
148.8727876782
 10
108.4419483782
 20
149.0852814123
 10
108.3126229927
 20
149.2917073285
 10
108.1778146814
 20
149.4920339046
 10
108.0375955419
 20
149.6862601685
 10
107.8923539218
 20
149.8738970539
 10
107.7425134541
 20
150.0544446724
 10
107.5881388751
 20
150.2278297983
 10
107.4293996862
 20
150.393798344
 10
107.2669342
 20
150.5516210337
 10
107.1015186404
 20
150.7005459709
 10
106.9338212424
 20
150.8400319612
 10
106.7640912826
 20
150.9699315512
 10
106.5924924817
 20
151.0901293407
 10
106.4193792127
 20
151.2003497598
 10
106.2453070221
 20
151.3002124472
 10
106.0707372344
 20
151.3894360639
  0
LWPOLYLINE
  5
35D
100
AcDbEntity
  8
0
100
AcDbPolyline
 62
7
  6
CONTINUOUS
 90
4
 70
0
 10
107.8915592432
 20
143.0739709461
 10
107.9584525427
 20
143.1093334333
 10
108.0865642553
 20
143.1886771645
 10
108.2085537909
 20
143.280379954
  0
LINE
  5
35E
100
AcDbEntity
  8
0
100
AcDbLine
 62
7
  6
CONTINUOUS
 10
108.3258760041
 20
143.293045164
 11
108.2589827046
 21
143.2576826768
  0
LWPOLYLINE
  5
35F
100
AcDbEntity
  8
0
100
AcDbPolyline
 62
7
  6
CONTINUOUS
 90
4
 70
0
 10
106.9861165456
 20
142.6212496218
 10
106.972242409
 20
142.6143985598
 10
106.8398781662
 20
142.5568084424
 10
106.795637908
 20
142.5419592505
  0
LWPOLYLINE
  5
360
100
AcDbEntity
  8
0
100
AcDbPolyline
 62
7
  6
CONTINUOUS
 90
4
 70
0
 10
107.4103223529
 20
142.833352548
 10
107.3948642301
 20
142.8257303154
 10
107.2622462041
 20
142.7682131513
 10
107.2197918089
 20
142.7540219278
  0
LWPOLYLINE
  5
361
100
AcDbEntity
  8
0
100
AcDbPolyline
 62
7
  6
CONTINUOUS
 90
4
 70
0
 10
107.8346065449
 20
143.0454946359
 10
107.818016049
 20
143.0373216177
 10
107.6851489645
 20
142.9798246147
 10
107.6439891734
 20
142.9661109901
  0
LWPOLYLINE
  5
362
100
AcDbEntity
  8
0
100
AcDbPolyline
 62
7
  6
CONTINUOUS
 90
3
 70
0
 10
108.2589827046
 20
143.2576826768
 10
108.1924719206
 20
143.22627653
 10
108.0689952893
 20
143.177796135
  0
LWPOLYLINE
  5
363
100
AcDbEntity
  8
0
100
AcDbPolyline
 62
7
  6
CONTINUOUS
 90
4
 70
0
 10
104.441161985
 20
141.3487722811
 10
104.3052782653
 20
141.2882822479
 10
104.1679966259
 20
141.2411612909
 10
104.1094021378
 20
141.2265173904
  0
LWPOLYLINE
  5
364
100
AcDbEntity
  8
0
100
AcDbPolyline
 62
7
  6
CONTINUOUS
 90
3
 70
0
 10
104.8653832768
 20
141.5608829205
 10
104.7284248349
 20
141.4999761933
 10
104.6749082193
 20
141.4816474916
  0
LWPOLYLINE
  5
365
100
AcDbEntity
  8
0
100
AcDbPolyline
 62
7
  6
CONTINUOUS
 90
3
 70
0
 10
105.2895954056
 20
141.772988979
 10
105.1517219695
 20
141.7117299137
 10
105.0991256115
 20
141.6937512384
  0
LWPOLYLINE
  5
366
100
AcDbEntity
  8
0
100
AcDbPolyline
 62
7
  6
CONTINUOUS
 90
3
 70
0
 10
105.7137449322
 20
141.9850637375
 10
105.5740780844
 20
141.9231174968
 10
105.5232862839
 20
141.9058234699
  0
LWPOLYLINE
  5
367
100
AcDbEntity
  8
0
100
AcDbPolyline
 62
7
  6
CONTINUOUS
 90
3
 70
0
 10
106.1378568762
 20
142.1971197204
 10
105.9959608861
 20
142.1343241893
 10
105.9474000611
 20
142.1178719447
  0
LWPOLYLINE
  5
368
100
AcDbEntity
  8
0
100
AcDbPolyline
 62
7
  6
CONTINUOUS
 90
3
 70
0
 10
106.5619356061
 20
142.4091591249
 10
106.4170996698
 20
142.345248132
 10
106.3714673919
 20
142.3298851232
  0
LWPOLYLINE
  5
369
100
AcDbEntity
  8
RACCORDO
100
AcDbPolyline
 62
253
  6
CONTINUOUS
 90
40
 70
0
 10
117.9468496652
 20
159.7839985795
 10
117.9454545508
 20
159.7920342124
 10
117.9437810918
 20
159.8002021462
 10
117.941831992
 20
159.8084891833
 10
117.9396104007
 20
159.8168819341
 10
117.9371199075
 20
159.8253668379
 10
117.9343645362
 20
159.8339301853
 10
117.931348739
 20
159.8425581399
 10
117.9280773887
 20
159.8512367613
 10
117.9245557707
 20
159.8599520268
 10
117.9207895753
 20
159.8686898548
 10
117.9167848877
 20
159.8774361271
 10
117.9125481784
 20
159.8861767119
 10
117.9080862929
 20
159.8948974867
 10
117.9034064405
 20
159.9035843607
 10
117.8985161827
 20
159.9122232982
 10
117.8934234208
 20
159.9208003408
 10
117.8881363836
 20
159.9293016301
 10
117.8826636136
 20
159.9377134301
 10
117.8770139533
 20
159.9460221495
 10
117.8711965314
 20
159.9542143634
 10
117.8652207471
 20
159.9622768352
 10
117.859096256
 20
159.970196538
 10
117.8528329538
 20
159.9779606755
 10
117.8464409602
 20
159.9855567027
 10
117.8399306033
 20
159.9929723464
 10
117.8333124021
 20
160.0001956247
 10
117.82659705
 20
160.0072148666
 10
117.8197953973
 20
160.0140187307
 10
117.8129184339
 20
160.0205962236
 10
117.8059772712
 20
160.0269367179
 10
117.7989831244
 20
160.0330299686
 10
117.7919472943
 20
160.0388661308
 10
117.7848811491
 20
160.0444357746
 10
117.7777961059
 20
160.0497299008
 10
117.7707036125
 20
160.0547399554
 10
117.7636151284
 20
160.0594578434
 10
117.7565421069
 20
160.0638759419
 10
117.7494959764
 20
160.0679871123
 10
117.7424881216
 20
160.071784712
  0
LINE
  5
36A
100
AcDbEntity
  8
RACCORDO
100
AcDbLine
 62
7
  6
CONTINUOUS
 10
122.2496042254
 20
168.441097558
 11
122.2496042254
 21
167.3585658033
  0
LINE
  5
36B
100
AcDbEntity
  8
RACCORDO
100
AcDbLine
 62
7
  6
CONTINUOUS
 10
122.2496042254
 20
127.3641844934
 11
122.2496042254
 21
127.3048908782
  0
LWPOLYLINE
  5
36C
100
AcDbEntity
  8
RACCORDO
100
AcDbPolyline
 62
7
  6
CONTINUOUS
 90
34
 70
0
 10
122.2496042254
 20
168.441097558
 10
122.2498771326
 20
168.4563904669
 10
122.2506986447
 20
168.4717124069
 10
122.2520723745
 20
168.487047701
 10
122.253999671
 20
168.5023702706
 10
122.2564833193
 20
168.5176746764
 10
122.2595313102
 20
168.5329760789
 10
122.2631470924
 20
168.548256807
 10
122.2673341393
 20
168.5635027783
 10
122.2721068651
 20
168.578734292
 10
122.2774716637
 20
168.5939368366
 10
122.2834331714
 20
168.6090927306
 10
122.2900100742
 20
168.6242172878
 10
122.2972106365
 20
168.6392956371
 10
122.3050413555
 20
168.6543103668
 10
122.31352498
 20
168.669273089
 10
122.3226739989
 20
168.6841721262
 10
122.3324952705
 20
168.6989870336
 10
122.3430089417
 20
168.7137171816
 10
122.3542300772
 20
168.7283520527
 10
122.3661663141
 20
168.7428714108
 10
122.3788305265
 20
168.757262272
 10
122.3922496361
 20
168.7715258126
 10
122.4064223232
 20
168.7856321042
 10
122.4213165828
 20
168.799527099
 10
122.4369536369
 20
168.8132116456
 10
122.4533301441
 20
168.8266640457
 10
122.4703650973
 20
168.8398067465
 10
122.4880643604
 20
168.8526390621
 10
122.5064245204
 20
168.8651527779
 10
122.5253321735
 20
168.8772715607
 10
122.5447396791
 20
168.8889739313
 10
122.5646770616
 20
168.9002859318
 10
122.5851380122
 20
168.9112087462
  0
LWPOLYLINE
  5
36D
100
AcDbEntity
  8
RACCORDO
100
AcDbPolyline
 62
253
  6
CONTINUOUS
 90
27
 70
0
 10
117.9468496652
 20
129.5350720912
 10
117.9454545506
 20
129.5259699803
 10
117.9437810912
 20
129.5170278605
 10
117.9418319911
 20
129.5082601801
 10
117.9396103994
 20
129.4996811053
 10
117.9371199057
 20
129.4913044979
 10
117.9343645339
 20
129.4831438924
 10
117.9313487362
 20
129.4752124744
 10
117.9280773853
 20
129.4675230589
 10
117.9245557668
 20
129.4600880702
 10
117.9207895708
 20
129.4529195213
 10
117.9167848827
 20
129.446028995
 10
117.9125481728
 20
129.4394276245
 10
117.9080862868
 20
129.4331260761
 10
117.903406434
 20
129.4271345314
 10
117.8985161757
 20
129.4214626714
 10
117.8934234135
 20
129.4161196603
 10
117.8881363759
 20
129.4111141311
 10
117.8826636056
 20
129.4064541716
 10
117.8770139452
 20
129.4021473109
 10
117.871196523
 20
129.3982005081
 10
117.8652207387
 20
129.3946201401
 10
117.8590962476
 20
129.3914119919
 10
117.8528329454
 20
129.3885812471
 10
117.846440952
 20
129.3861324794
 10
117.8399305952
 20
129.3840696455
 10
117.8384850569
 20
129.3836683859
  0
LINE
  5
36E
100
AcDbEntity
  8
0
100
AcDbLine
 62
7
  6
CONTINUOUS
 10
111.0017236559
 20
143.1212995676
 11
111.1464844816
 21
143.2072866024
  0
LWPOLYLINE
  5
36F
100
AcDbEntity
  8
0
100
AcDbPolyline
 62
7
  6
CONTINUOUS
 90
4
 70
0
 10
111.1437333092
 20
143.1907929789
 10
111.2996220942
 20
143.2765767573
 10
111.4606221224
 20
143.3831257661
 10
111.5813594659
 20
143.4786417555
  0
LINE
  5
370
100
AcDbEntity
  8
0
100
AcDbLine
 62
7
  6
CONTINUOUS
 10
110.9316218794
 20
143.0846764951
 11
111.0017236559
 21
143.1212995676
  0
LINE
  5
371
100
AcDbEntity
  8
0
100
AcDbLine
 62
7
  6
CONTINUOUS
 10
112.1375773845
 20
143.7567507149
 11
110.4405211097
 21
142.9082225774
  0
LINE
  5
372
100
AcDbEntity
  8
0
100
AcDbLine
 62
7
  6
CONTINUOUS
 10
111.1439036954
 20
143.1907972343
 11
110.931771661
 21
143.0847312171
  0
LINE
  5
373
100
AcDbEntity
  8
RACCORDO
100
AcDbLine
 62
253
  6
CONTINUOUS
 10
117.1510772278
 20
158.9650153144
 11
100.237983716
 21
167.4215620703
  0
LWPOLYLINE
  5
374
100
AcDbEntity
  8
RACCORDO
100
AcDbPolyline
 62
253
  6
CONTINUOUS
 90
85
 70
0
 10
122.2496042254
 20
168.441097558
 10
122.2497234251
 20
168.4335166771
 10
122.2505253457
 20
168.4200282595
 10
122.252081886
 20
168.4065563598
 10
122.2543918203
 20
168.3931115506
 10
122.2574533385
 20
168.3797043424
 10
122.2612640485
 20
168.3663452101
 10
122.2658209744
 20
168.3530445998
 10
122.2711205442
 20
168.339812948
 10
122.2771585952
 20
168.3266606468
 10
122.2839303847
 20
168.3135980177
 10
122.2914306143
 20
168.300635272
 10
122.2996534279
 20
168.2877825313
 10
122.3085924033
 20
168.2750498421
 10
122.318240528
 20
168.2624471999
 10
122.32859022
 20
168.2499845089
 10
122.3396333498
 20
168.2376715516
 10
122.3513612824
 20
168.2255179503
 10
122.3637648619
 20
168.2135331929
 10
122.3768343992
 20
168.2017266471
 10
122.3905596384
 20
168.1901075826
 10
122.4049297916
 20
168.1786851319
 10
122.4199335726
 20
168.1674682613
 10
122.4355592519
 20
168.156465735
 10
122.4517946336
 20
168.1456861407
 10
122.4686270349
 20
168.1351379035
 10
122.4860432442
 20
168.124829307
 10
122.5040295708
 20
168.1147684545
 10
122.5225718888
 20
168.1049632436
 10
122.5416557049
 20
168.0954213345
 10
122.5612661246
 20
168.0861501745
 10
122.5813878278
 20
168.07715701
 10
122.6020050192
 20
168.0684489042
 10
122.6231014918
 20
168.0600327023
 10
122.6446606783
 20
168.0519150104
 10
122.6666657287
 20
168.0441021697
 10
122.6890994681
 20
168.0366002781
 10
122.7119443685
 20
168.0294152
 10
122.7351824965
 20
168.022552579
 10
122.7587955872
 20
168.016017809
 10
122.7827651001
 20
168.009816018
 10
122.8070723006
 20
168.0039520506
 10
122.8316982136
 20
167.9984304844
 10
122.856623595
 20
167.993255637
 10
122.8818288793
 20
167.9884315731
 10
122.9072942572
 20
167.983962084
 10
122.9329997368
 20
167.9798506759
 10
122.958925226
 20
167.9761005598
 10
122.9850504828
 20
167.9727146638
 10
123.0113550854
 20
167.9696956367
 10
123.0378183901
 20
167.9670458502
 10
123.0644196113
 20
167.9647673857
 10
123.0911378751
 20
167.9628620293
 10
123.1179522901
 20
167.9613312688
 10
123.1448419078
 20
167.9601763003
 10
123.1717857076
 20
167.9593980286
 10
123.1987625435
 20
167.9589970668
 10
123.2257512159
 20
167.9589737297
 10
123.2527305417
 20
167.9593280331
 10
123.2796794315
 20
167.9600596973
 10
123.3065768367
 20
167.9611681506
 10
123.3334017107
 20
167.9626525269
 10
123.3601330198
 20
167.9645116637
 10
123.3867498188
 20
167.9667441048
 10
123.4132312523
 20
167.9693481015
 10
123.4395565842
 20
167.9723216152
 10
123.4657052073
 20
167.9756623192
 10
123.4916566802
 20
167.9793676039
 10
123.5173906329
 20
167.9834345631
 10
123.5428867998
 20
167.9878599928
 10
123.5681251447
 20
167.9926404097
 10
123.5930859707
 20
167.9977720775
 10
123.6177498239
 20
168.003250995
 10
123.6420973992
 20
168.0090728749
 10
123.6661096105
 20
168.0152331547
 10
123.689767698
 20
168.0217270235
 10
123.7130532253
 20
168.0285494271
 10
123.735947849
 20
168.0356949974
 10
123.7584333969
 20
168.0431580592
 10
123.7804920482
 20
168.0509326804
 10
123.802106762
 20
168.059012837
 10
123.8232610241
 20
168.067392358
 10
123.8439383807
 20
168.0760647471
 10
123.8641224807
 20
168.0850231682
 10
123.8837974964
 20
168.0942606138
  0
LINE
  5
375
100
AcDbEntity
  8
0
100
AcDbLine
 62
7
  6
CONTINUOUS
 10
123.7158195811
 20
173.1905167482
 11
123.7158195811
 21
173.5099316378
  0
LINE
  5
376
100
AcDbEntity
  8
RACCORDO
100
AcDbLine
 62
253
  6
CONTINUOUS
 10
123.8837974964
 20
168.0942606138
 11
123.8837974964
 21
166.7952225081
  0
LINE
  5
377
100
AcDbEntity
  8
RACCORDO
100
AcDbLine
 62
253
  6
CONTINUOUS
 10
123.8837974964
 20
128.2570920397
 11
123.8837974964
 21
126.9580539341
  0
LINE
  5
378
100
AcDbEntity
  8
RACCORDO
100
AcDbLine
 62
253
  6
CONTINUOUS
 10
117.7424881216
 20
160.071784712
 11
100.8141100315
 21
168.535973757
  0
LINE
  5
379
100
AcDbEntity
  8
RACCORDO
100
AcDbLine
 62
7
  6
CONTINUOUS
 10
125.3604741927
 20
168.8072656686
 11
125.3604741927
 21
127.6710589889
  0
LINE
  5
37A
100
AcDbEntity
  8
RACCORDO
100
AcDbLine
 62
7
  6
CONTINUOUS
 10
103.1371445205
 20
170.2493445858
 11
120.1480607549
 21
161.7438864686
  0
LINE
  5
37B
100
AcDbEntity
  8
RACCORDO
100
AcDbLine
 62
7
  6
CONTINUOUS
 10
102.7872125959
 20
170.5037698594
 11
119.7908858983
 21
162.0019332082
  0
LWPOLYLINE
  5
37C
100
AcDbEntity
  8
RACCORDO
100
AcDbPolyline
 62
7
  6
CONTINUOUS
 90
21
 70
0
 10
102.7872125959
 20
170.5037698594
 10
102.7802989277
 20
170.5073683766
 10
102.773695649
 20
170.5110900681
 10
102.7674027598
 20
170.5149349339
 10
102.7614102591
 20
170.5189102885
 10
102.755728148
 20
170.5230088175
 10
102.7503864292
 20
170.5272085778
 10
102.7453890719
 20
170.531507874
 10
102.7407321068
 20
170.5359084016
 10
102.736433629
 20
170.5403933043
 10
102.7324927054
 20
170.54496611
 10
102.728910269
 20
170.5496232908
 10
102.7257072142
 20
170.5543374067
 10
102.7228876826
 20
170.5591047985
 10
102.7204475327
 20
170.5639291255
 10
102.7183952333
 20
170.568793925
 10
102.7167309982
 20
170.5737039227
 10
102.7154546137
 20
170.578654393
 10
102.7145739073
 20
170.5836146965
 10
102.714091394
 20
170.5885800242
 10
102.7139889719
 20
170.5921588774
  0
LWPOLYLINE
  5
37D
100
AcDbEntity
  8
RACCORDO
100
AcDbPolyline
 62
7
  6
CONTINUOUS
 90
32
 70
0
 10
128.0661094605
 20
136.9673463218
 10
128.0659198215
 20
136.9780115582
 10
128.0653502053
 20
136.9886765014
 10
128.0644001926
 20
136.9993250513
 10
128.0630718525
 20
137.0099296255
 10
128.0613656278
 20
137.02048572
 10
128.0592762559
 20
137.0310113051
 10
128.0567977613
 20
137.0415104086
 10
128.0539341973
 20
137.0519449086
 10
128.0506959983
 20
137.0622699885
 10
128.0470950143
 20
137.0724515956
 10
128.0431313446
 20
137.0824935134
 10
128.0387988819
 20
137.0924082244
 10
128.0340972625
 20
137.1021889633
 10
128.0290354451
 20
137.1118105963
 10
128.0236192811
 20
137.1212576349
 10
128.0178475219
 20
137.130527045
 10
128.0117340665
 20
137.1395919399
 10
128.0053115871
 20
137.1484052697
 10
127.9986189033
 20
137.156923111
 10
127.9916422466
 20
137.1651719075
 10
127.9843318913
 20
137.1732078546
 10
127.9766476855
 20
137.1810602797
 10
127.9686380896
 20
137.1886654452
 10
127.9603864076
 20
137.195943058
 10
127.9519384373
 20
137.2028619081
 10
127.9432751432
 20
137.2094461377
 10
127.9343863836
 20
137.2157066994
 10
127.9252776378
 20
137.2216404258
 10
127.9159629425
 20
137.2272384801
 10
127.9064416219
 20
137.2325007758
 10
127.9002710066
 20
137.2356757454
  0
LINE
  5
37E
100
AcDbEntity
  8
RACCORDO
100
AcDbLine
 62
253
  6
CONTINUOUS
 10
127.9793493026
 20
134.9160686881
 11
127.9793493026
 21
136.8618371164
  0
LINE
  5
37F
100
AcDbEntity
  8
RACCORDO
100
AcDbLine
 62
7
  6
CONTINUOUS
 10
128.0661094605
 20
135.0206232279
 11
128.0661094605
 21
136.9673463218
  0
LWPOLYLINE
  5
380
100
AcDbEntity
  8
RACCORDO
100
AcDbPolyline
 62
7
  6
CONTINUOUS
 90
16
 70
0
 10
123.2178521452
 20
166.876410045
 10
123.2639211212
 20
166.876777625
 10
123.2836040352
 20
166.8765163497
 10
123.3031637775
 20
166.8759097897
 10
123.3225777582
 20
166.8750216897
 10
123.3418358645
 20
166.8738876635
 10
123.3609388881
 20
166.8725081089
 10
123.3798758855
 20
166.8709181532
 10
123.3986373592
 20
166.8691585758
 10
123.4172266182
 20
166.8672258589
 10
123.4356371154
 20
166.8651478233
 10
123.4538626193
 20
166.8629568113
 10
123.4719061558
 20
166.8606475861
 10
123.4897637329
 20
166.8582427172
 10
123.5074313663
 20
166.8557682816
 10
123.5249108453
 20
166.8532185138
  0
LWPOLYLINE
  5
381
100
AcDbEntity
  8
RACCORDO
100
AcDbPolyline
 62
7
  6
CONTINUOUS
 90
59
 70
0
 10
123.2178521452
 20
166.876410045
 10
123.1915993665
 20
166.8765349429
 10
123.1653777773
 20
166.8770170931
 10
123.1391649669
 20
166.8778575089
 10
123.1129833459
 20
166.8790551768
 10
123.0869001456
 20
166.8806070569
 10
123.0609213889
 20
166.8825135665
 10
123.0350410529
 20
166.8847742882
 10
123.0093083004
 20
166.8873849291
 10
122.9837181543
 20
166.8903468227
 10
122.9582755917
 20
166.8936586356
 10
122.933044706
 20
166.8973120746
 10
122.9080306521
 20
166.9013072109
 10
122.8832282752
 20
166.9056439734
 10
122.8586862046
 20
166.9103138555
 10
122.8344009971
 20
166.9153183692
 10
122.8103760959
 20
166.9206560024
 10
122.7866704601
 20
166.9263137126
 10
122.7632880924
 20
166.9322914315
 10
122.7402249902
 20
166.9385892273
 10
122.7175281042
 20
166.9451942618
 10
122.6951957173
 20
166.9521079441
 10
122.6732295467
 20
166.959328865
 10
122.6516816952
 20
166.9668399593
 10
122.6305548305
 20
166.9746412966
 10
122.6098462849
 20
166.9827328073
 10
122.5896001575
 20
166.9910972177
 10
122.5698165338
 20
166.9997354885
 10
122.5504953285
 20
167.008646659
 10
122.5316803841
 20
167.0178105733
 10
122.5133730385
 20
167.0272277487
 10
122.4955719538
 20
167.0368976679
 10
122.4783169594
 20
167.0467986239
 10
122.4616097021
 20
167.0569308197
 10
122.445448535
 20
167.0672940523
 10
122.4298683466
 20
167.0778660048
 10
122.4148695204
 20
167.0886478432
 10
122.4004516728
 20
167.0996384014
 10
122.3866485415
 20
167.1108118651
 10
122.3734627367
 20
167.1221675444
 10
122.360891648
 20
167.1337061291
 10
122.3489611824
 20
167.1454038735
 10
122.3376713773
 20
167.1572626092
 10
122.3270221952
 20
167.1692805045
 10
122.3170394311
 20
167.1814283193
 10
122.3077259721
 20
167.1937044967
 10
122.2990789311
 20
167.2061105935
 10
122.2911154424
 20
167.2186220399
 10
122.2838357533
 20
167.2312412528
 10
122.2772396164
 20
167.2439658154
 10
122.2713434245
 20
167.2567639073
 10
122.2661497713
 20
167.2696331902
 10
122.2616560629
 20
167.2825760025
 10
122.2578709111
 20
167.2955675384
 10
122.2547951965
 20
167.3086106693
 10
122.2524280383
 20
167.3217025237
 10
122.2507754053
 20
167.3348096823
 10
122.2498391549
 20
167.3479292237
 10
122.2496045562
 20
167.3585675082
  0
LINE
  5
382
100
AcDbEntity
  8
RACCORDO
100
AcDbLine
 62
253
  6
CONTINUOUS
 10
119.7908858983
 20
164.9897208513
 11
102.7872125959
 21
173.4915575025
  0
LINE
  5
383
100
AcDbEntity
  8
RACCORDO
100
AcDbLine
 62
253
  6
CONTINUOUS
 10
119.9676625936
 20
165.2946155499
 11
102.9639892912
 21
173.7964522011
  0
LWPOLYLINE
  5
384
100
AcDbEntity
  8
RACCORDO
100
AcDbPolyline
 62
253
  6
CONTINUOUS
 90
43
 70
0
 10
119.9676625936
 20
165.2946155499
 10
119.9741561202
 20
165.2911020262
 10
119.9806405649
 20
165.2872906129
 10
119.9871068588
 20
165.2831866404
 10
119.9935459581
 20
165.2787958485
 10
119.9999488572
 20
165.2741243783
 10
120.006306601
 20
165.2691787631
 10
120.0126102977
 20
165.2639659198
 10
120.0188511309
 20
165.2584931391
 10
120.0250203724
 20
165.2527680752
 10
120.0311093938
 20
165.246798735
 10
120.0371096791
 20
165.2405934672
 10
120.0430128364
 20
165.2341609505
 10
120.0488106096
 20
165.2275101813
 10
120.05449489
 20
165.2206504614
 10
120.0600577275
 20
165.2135913846
 10
120.065491342
 20
165.2063428237
 10
120.0707881343
 20
165.1989149165
 10
120.0759406961
 20
165.1913180515
 10
120.0809418212
 20
165.1835628538
 10
120.0857845151
 20
165.1756601696
 10
120.0904620047
 20
165.1676210515
 10
120.0949677483
 20
165.159456743
 10
120.0992954442
 20
165.1511786626
 10
120.1034390395
 20
165.1427983879
 10
120.1073927393
 20
165.1343276396
 10
120.1111510138
 20
165.1257782647
 10
120.1147086068
 20
165.1171622203
 10
120.1180605426
 20
165.1084915567
 10
120.1212021333
 20
165.0997784007
 10
120.124128985
 20
165.0910349383
 10
120.1268370044
 20
165.0822733981
 10
120.129322404
 20
165.0735060339
 10
120.1315817077
 20
165.0647451076
 10
120.1336117557
 20
165.0560028722
 10
120.1354097088
 20
165.0472915545
 10
120.1369730523
 20
165.0386233381
 10
120.1382995999
 20
165.0300103462
 10
120.1393874962
 20
165.021464625
 10
120.1402352198
 20
165.0129981262
 10
120.1408415848
 20
165.0046226912
 10
120.1412057434
 20
164.9963500338
 10
120.1413271863
 20
164.9881917239
  0
LWPOLYLINE
  5
385
100
AcDbEntity
  8
ASSI
100
AcDbPolyline
 62
7
  6
CONTINUOUS
 90
30
 70
0
 10
129.797158675
 20
171.6632431246
 10
129.7969088449
 20
171.674424111
 10
129.7959295974
 20
171.688037323
 10
129.7942073743
 20
171.7016320925
 10
129.7917438262
 20
171.7152084605
 10
129.7885444347
 20
171.7287362188
 10
129.7846075614
 20
171.7422152591
 10
129.7799348447
 20
171.7556456897
 10
129.7745366817
 20
171.768997627
 10
129.768411457
 20
171.7822708962
 10
129.7615607861
 20
171.7954656722
 10
129.753999912
 20
171.8085525957
 10
129.7457272534
 20
171.8215314265
 10
129.7367443917
 20
171.8344024049
 10
129.7270713142
 20
171.8471368921
 10
129.7167064842
 20
171.8597345841
 10
129.7056514384
 20
171.872195785
 10
129.6939307752
 20
171.8844927677
 10
129.6815430122
 20
171.8966251666
 10
129.6684896317
 20
171.9085933473
 10
129.6547996783
 20
171.92037068
 10
129.6404717345
 20
171.9319567396
 10
129.6255072177
 20
171.9433519511
 10
129.6099394249
 20
171.9545309594
 10
129.5937670128
 20
171.9654932832
 10
129.5769913248
 20
171.9762394038
 10
129.5596496878
 20
171.9867454105
 10
129.541754544
 20
171.997003333
 10
129.5232934512
 20
172.0070211416
 10
129.5042664094
 20
172.0167988362
  0
LINE
  5
386
100
AcDbEntity
  8
ASSI
100
AcDbLine
 62
253
  6
CONTINUOUS
 10
129.5164994286
 20
132.3447730901
 11
129.5164994286
 21
133.6668510396
  0
LINE
  5
387
100
AcDbEntity
  8
ASSI
100
AcDbLine
 62
253
  6
CONTINUOUS
 10
129.5164994286
 20
169.9938383109
 11
129.5164994286
 21
171.3159162604
  0
LINE
  5
388
100
AcDbEntity
  8
ASSI
100
AcDbLine
 62
7
  6
CONTINUOUS
 10
129.7971596283
 20
132.6921022753
 11
129.7971596283
 21
134.0110555308
  0
LINE
  5
389
100
AcDbEntity
  8
ASSI
100
AcDbLine
 62
7
  6
CONTINUOUS
 10
129.7971596283
 20
170.3442921902
 11
129.7971596283
 21
171.6632454456
  0
LWPOLYLINE
  5
38A
100
AcDbEntity
  8
RACCORDO
100
AcDbPolyline
 62
253
  6
CONTINUOUS
 90
22
 70
0
 10
128.0661094605
 20
136.9673463218
 10
128.0659293097
 20
136.9621487746
 10
128.0653336524
 20
136.9565657496
 10
128.064322288
 20
136.9509977019
 10
128.0628966216
 20
136.9454523671
 10
128.0610586337
 20
136.9399374491
 10
128.058810878
 20
136.9344606098
 10
128.0561564771
 20
136.9290294581
 10
128.0530991188
 20
136.9236515394
 10
128.0496430506
 20
136.9183343251
 10
128.045793074
 20
136.9130852023
 10
128.0415545376
 20
136.9079114636
 10
128.0369333301
 20
136.9028202967
 10
128.0319358715
 20
136.8978187748
 10
128.0265691048
 20
136.8929138463
 10
128.020840486
 20
136.8881123255
 10
128.0147579736
 20
136.8834208833
 10
128.008330018
 20
136.8788460372
 10
128.0015655495
 20
136.8743941431
 10
127.9944739658
 20
136.8700713858
 10
127.9870651192
 20
136.865883771
 10
127.9793493026
 20
136.8618371164
  0
LWPOLYLINE
  5
38B
100
AcDbEntity
  8
RACCORDO
100
AcDbPolyline
 62
253
  6
CONTINUOUS
 90
43
 70
0
 10
127.9793493026
 20
136.8618371164
 10
127.98123913
 20
136.8723070128
 10
127.9828295196
 20
136.8829119192
 10
127.9841180365
 20
136.8936371407
 10
127.985102731
 20
136.9044686704
 10
127.9857818926
 20
136.9153906023
 10
127.9861542989
 20
136.9263850878
 10
127.9862194373
 20
136.9374358225
 10
127.985977262
 20
136.9485283192
 10
127.9854280991
 20
136.95964728
 10
127.9845726878
 20
136.9707773098
 10
127.9834122114
 20
136.9819027394
 10
127.9819483034
 20
136.9930078363
 10
127.9801830215
 20
137.0040770194
 10
127.9781188222
 20
137.0150949075
 10
127.9757585819
 20
137.0260461437
 10
127.973105591
 20
137.0369154507
 10
127.9701635552
 20
137.0476876356
 10
127.9669365864
 20
137.0583476388
 10
127.9634291926
 20
137.0688805688
 10
127.9596462692
 20
137.0792717242
 10
127.9555930975
 20
137.0895065969
 10
127.9512753362
 20
137.0995708965
 10
127.9466990146
 20
137.1094505679
 10
127.9418705237
 20
137.119131813
 10
127.936796606
 20
137.1286011126
 10
127.9314843459
 20
137.1378452444
 10
127.9259411617
 20
137.1468512995
 10
127.9201747934
 20
137.1556067022
 10
127.9141932929
 20
137.1640992264
 10
127.9080050131
 20
137.1723170126
 10
127.9016185953
 20
137.1802485855
 10
127.895042957
 20
137.1878828698
 10
127.8882872805
 20
137.1952092048
 10
127.8813609988
 20
137.2022173608
 10
127.8742737839
 20
137.2088975514
 10
127.8670355346
 20
137.2152404464
 10
127.8596563598
 20
137.221237188
 10
127.8521465621
 20
137.2268794043
 10
127.8445166256
 20
137.2321592188
 10
127.8367772035
 20
137.2370692594
 10
127.8289391037
 20
137.2416026693
 10
127.8210132711
 20
137.2457531182
  0
LWPOLYLINE
  5
38C
100
AcDbEntity
  8
RACCORDO
100
AcDbPolyline
 62
253
  6
CONTINUOUS
 90
11
 70
0
 10
119.8639757244
 20
168.7956699893
 10
119.870615399
 20
168.7969858722
 10
119.8772545489
 20
168.7983321966
 10
119.8838931574
 20
168.7997089585
 10
119.8905297936
 20
168.8011165592
 10
119.8971644738
 20
168.8025550032
 10
119.9037971817
 20
168.804024286
 10
119.9104264368
 20
168.8055247956
 10
119.9170517457
 20
168.8070566611
 10
119.9236736019
 20
168.8086197533
 10
119.9302920054
 20
168.8102140722
  0
LINE
  5
38D
100
AcDbEntity
  8
RACCORDO
100
AcDbLine
 62
253
  6
CONTINUOUS
 10
119.8506961328
 20
168.7931291222
 11
119.8639757244
 21
168.7956699893
  0
LINE
  5
38E
100
AcDbEntity
  8
RACCORDO
100
AcDbLine
 62
253
  6
CONTINUOUS
 10
119.8374199354
 20
168.7907083575
 11
119.8506961328
 21
168.7931291222
  0
LINE
  5
38F
100
AcDbEntity
  8
RACCORDO
100
AcDbLine
 62
253
  6
CONTINUOUS
 10
119.824151112
 20
168.7884064163
 11
119.8374199354
 21
168.7907083575
  0
LINE
  5
390
100
AcDbEntity
  8
RACCORDO
100
AcDbLine
 62
253
  6
CONTINUOUS
 10
119.8108922765
 20
168.7862224383
 11
119.824151112
 21
168.7884064163
  0
LINE
  5
391
100
AcDbEntity
  8
RACCORDO
100
AcDbLine
 62
253
  6
CONTINUOUS
 10
119.797647292
 20
168.7841551208
 11
119.8108922765
 21
168.7862224383
  0
LINE
  5
392
100
AcDbEntity
  8
RACCORDO
100
AcDbLine
 62
253
  6
CONTINUOUS
 10
119.7844198277
 20
168.782203126
 11
119.797647292
 21
168.7841551208
  0
LINE
  5
393
100
AcDbEntity
  8
RACCORDO
100
AcDbLine
 62
253
  6
CONTINUOUS
 10
119.771212303
 20
168.7803655579
 11
119.7844198277
 21
168.782203126
  0
LINE
  5
394
100
AcDbEntity
  8
RACCORDO
100
AcDbLine
 62
253
  6
CONTINUOUS
 10
119.758028304
 20
168.7786410647
 11
119.771212303
 21
168.7803655579
  0
LINE
  5
395
100
AcDbEntity
  8
RACCORDO
100
AcDbLine
 62
253
  6
CONTINUOUS
 10
119.744871243
 20
168.7770282686
 11
119.758028304
 21
168.7786410647
  0
LINE
  5
396
100
AcDbEntity
  8
RACCORDO
100
AcDbLine
 62
253
  6
CONTINUOUS
 10
119.7317433485
 20
168.7755262458
 11
119.744871243
 21
168.7770282686
  0
LINE
  5
397
100
AcDbEntity
  8
RACCORDO
100
AcDbLine
 62
253
  6
CONTINUOUS
 10
119.7186479075
 20
168.7741336022
 11
119.7317433485
 21
168.7755262458
  0
LINE
  5
398
100
AcDbEntity
  8
RACCORDO
100
AcDbLine
 62
253
  6
CONTINUOUS
 10
119.7055879487
 20
168.7728489185
 11
119.7186479075
 21
168.7741336022
  0
LINE
  5
399
100
AcDbEntity
  8
RACCORDO
100
AcDbLine
 62
253
  6
CONTINUOUS
 10
119.6925654587
 20
168.7716712474
 11
119.7055879487
 21
168.7728489185
  0
LINE
  5
39A
100
AcDbEntity
  8
RACCORDO
100
AcDbLine
 62
253
  6
CONTINUOUS
 10
119.6795831578
 20
168.7705991509
 11
119.6925654587
 21
168.7716712474
  0
LINE
  5
39B
100
AcDbEntity
  8
RACCORDO
100
AcDbLine
 62
253
  6
CONTINUOUS
 10
119.6666446387
 20
168.7696312573
 11
119.6795831578
 21
168.7705991509
  0
LINE
  5
39C
100
AcDbEntity
  8
RACCORDO
100
AcDbLine
 62
253
  6
CONTINUOUS
 10
119.6537530021
 20
168.768766672
 11
119.6666446387
 21
168.7696312573
  0
LINE
  5
39D
100
AcDbEntity
  8
RACCORDO
100
AcDbLine
 62
253
  6
CONTINUOUS
 10
119.6409147494
 20
168.768004149
 11
119.6537530021
 21
168.768766672
  0
LINE
  5
39E
100
AcDbEntity
  8
RACCORDO
100
AcDbLine
 62
253
  6
CONTINUOUS
 10
119.6281321401
 20
168.7673420828
 11
119.6409147494
 21
168.768004149
  0
LINE
  5
39F
100
AcDbEntity
  8
RACCORDO
100
AcDbLine
 62
253
  6
CONTINUOUS
 10
119.615406929
 20
168.7667794312
 11
119.6281321401
 21
168.7673420828
  0
LINE
  5
3A0
100
AcDbEntity
  8
RACCORDO
100
AcDbLine
 62
253
  6
CONTINUOUS
 10
119.6027415483
 20
168.7663146193
 11
119.615406929
 21
168.7667794312
  0
LINE
  5
3A1
100
AcDbEntity
  8
RACCORDO
100
AcDbLine
 62
253
  6
CONTINUOUS
 10
119.5901381606
 20
168.7659460756
 11
119.6027415483
 21
168.7663146193
  0
LINE
  5
3A2
100
AcDbEntity
  8
RACCORDO
100
AcDbLine
 62
253
  6
CONTINUOUS
 10
119.5775981462
 20
168.7656727562
 11
119.5901381606
 21
168.7659460756
  0
LINE
  5
3A3
100
AcDbEntity
  8
RACCORDO
100
AcDbLine
 62
253
  6
CONTINUOUS
 10
119.5651234619
 20
168.7654930975
 11
119.5775981462
 21
168.7656727562
  0
LINE
  5
3A4
100
AcDbEntity
  8
RACCORDO
100
AcDbLine
 62
253
  6
CONTINUOUS
 10
119.5527159109
 20
168.7654055574
 11
119.5651234619
 21
168.7654930975
  0
LINE
  5
3A5
100
AcDbEntity
  8
RACCORDO
100
AcDbLine
 62
253
  6
CONTINUOUS
 10
119.5403766526
 20
168.7654091133
 11
119.5527159109
 21
168.7654055574
  0
LINE
  5
3A6
100
AcDbEntity
  8
RACCORDO
100
AcDbLine
 62
253
  6
CONTINUOUS
 10
119.5281073612
 20
168.7655022386
 11
119.5403766526
 21
168.7654091133
  0
LINE
  5
3A7
100
AcDbEntity
  8
RACCORDO
100
AcDbLine
 62
253
  6
CONTINUOUS
 10
119.5159095483
 20
168.7656834348
 11
119.5281073612
 21
168.7655022386
  0
LINE
  5
3A8
100
AcDbEntity
  8
RACCORDO
100
AcDbLine
 62
253
  6
CONTINUOUS
 10
119.5037842116
 20
168.7659517091
 11
119.5159095483
 21
168.7656834348
  0
LINE
  5
3A9
100
AcDbEntity
  8
RACCORDO
100
AcDbLine
 62
253
  6
CONTINUOUS
 10
119.4917328281
 20
168.7663055808
 11
119.5037842116
 21
168.7659517091
  0
LINE
  5
3AA
100
AcDbEntity
  8
RACCORDO
100
AcDbLine
 62
253
  6
CONTINUOUS
 10
119.4797567331
 20
168.7667435996
 11
119.4917328281
 21
168.7663055808
  0
LINE
  5
3AB
100
AcDbEntity
  8
RACCORDO
100
AcDbLine
 62
253
  6
CONTINUOUS
 10
119.4678567935
 20
168.767264805
 11
119.4797567331
 21
168.7667435996
  0
LINE
  5
3AC
100
AcDbEntity
  8
RACCORDO
100
AcDbLine
 62
253
  6
CONTINUOUS
 10
119.4560342712
 20
168.7678677665
 11
119.4678567935
 21
168.767264805
  0
LINE
  5
3AD
100
AcDbEntity
  8
RACCORDO
100
AcDbLine
 62
253
  6
CONTINUOUS
 10
119.4442903044
 20
168.7685510865
 11
119.4560342712
 21
168.7678677665
  0
LINE
  5
3AE
100
AcDbEntity
  8
RACCORDO
100
AcDbLine
 62
253
  6
CONTINUOUS
 10
119.4326256243
 20
168.7693138412
 11
119.4442903044
 21
168.7685510865
  0
LWPOLYLINE
  5
3AF
100
AcDbEntity
  8
RACCORDO
100
AcDbPolyline
 62
7
  6
CONTINUOUS
 90
4
 70
0
 10
123.8457186373
 20
166.8005271394
 10
123.8586390187
 20
166.7986492763
 10
123.8713315215
 20
166.7968781554
 10
123.8837974964
 20
166.7952225081
  0
LINE
  5
3B0
100
AcDbEntity
  8
RACCORDO
100
AcDbLine
 62
7
  6
CONTINUOUS
 10
123.8191833277
 20
166.8045587884
 11
123.8457186373
 21
166.8005271394
  0
LINE
  5
3B1
100
AcDbEntity
  8
RACCORDO
100
AcDbLine
 62
7
  6
CONTINUOUS
 10
123.5249108453
 20
166.8532185138
 11
123.5592957079
 21
166.8479706463
  0
LINE
  5
3B2
100
AcDbEntity
  8
RACCORDO
100
AcDbLine
 62
7
  6
CONTINUOUS
 10
123.7917578246
 20
166.8089420645
 11
123.8191833277
 21
166.8045587884
  0
LINE
  5
3B3
100
AcDbEntity
  8
RACCORDO
100
AcDbLine
 62
7
  6
CONTINUOUS
 10
123.5592957079
 20
166.8479706463
 11
123.5929070526
 21
166.8425811688
  0
LINE
  5
3B4
100
AcDbEntity
  8
RACCORDO
100
AcDbLine
 62
7
  6
CONTINUOUS
 10
123.7634558591
 20
166.8136240578
 11
123.7917578246
 21
166.8089420645
  0
LINE
  5
3B5
100
AcDbEntity
  8
RACCORDO
100
AcDbLine
 62
7
  6
CONTINUOUS
 10
123.5929070526
 20
166.8425811688
 11
123.625734481
 21
166.8371409544
  0
LINE
  5
3B6
100
AcDbEntity
  8
RACCORDO
100
AcDbLine
 62
7
  6
CONTINUOUS
 10
123.625734481
 20
166.8371409544
 11
123.7634558591
 21
166.8136240578
  0
LWPOLYLINE
  5
3B7
100
AcDbEntity
  8
RACCORDO
100
AcDbPolyline
 62
253
  6
CONTINUOUS
 90
20
 70
0
 10
102.9639892912
 20
173.7964522011
 10
102.9572650476
 20
173.7995475625
 10
102.9505502085
 20
173.802335791
 10
102.9438541652
 20
173.8048129872
 10
102.9371862827
 20
173.8069756863
 10
102.9305558866
 20
173.8088208636
 10
102.9239722501
 20
173.8103459385
 10
102.9174445811
 20
173.8115487781
 10
102.9109820091
 20
173.8124277
 10
102.9045935726
 20
173.8129814751
 10
102.8982882063
 20
173.8132093287
 10
102.8920747289
 20
173.8131109423
 10
102.8859618306
 20
173.8126864534
 10
102.8799580607
 20
173.8119364558
 10
102.8740718161
 20
173.8108619983
 10
102.8683113292
 20
173.8094645837
 10
102.8626846566
 20
173.8077461664
 10
102.8571996677
 20
173.8057091497
 10
102.8518640338
 20
173.8033563827
 10
102.8490418326
 20
173.801952791
  0
LINE
  5
3B8
100
AcDbEntity
  8
0
100
AcDbLine
 62
7
  6
CONTINUOUS
 10
120.415583192
 20
171.6270105412
 11
123.8500337155
 21
171.9775177457
  0
LINE
  5
3B9
100
AcDbEntity
  8
RACCORDO
100
AcDbLine
 62
253
  6
CONTINUOUS
 10
119.4210412979
 20
168.7701546545
 11
119.4326256243
 21
168.7693138412
  0
LINE
  5
3BA
100
AcDbEntity
  8
RACCORDO
100
AcDbLine
 62
253
  6
CONTINUOUS
 10
119.4095381926
 20
168.7710721947
 11
119.4210412979
 21
168.7701546545
  0
LINE
  5
3BB
100
AcDbEntity
  8
RACCORDO
100
AcDbLine
 62
253
  6
CONTINUOUS
 10
119.3981168708
 20
168.772065583
 11
119.4095381926
 21
168.7710721947
  0
LINE
  5
3BC
100
AcDbEntity
  8
RACCORDO
100
AcDbLine
 62
253
  6
CONTINUOUS
 10
119.3867781284
 20
168.7731335148
 11
119.3981168708
 21
168.772065583
  0
LINE
  5
3BD
100
AcDbEntity
  8
RACCORDO
100
AcDbLine
 62
253
  6
CONTINUOUS
 10
119.3755227108
 20
168.7742747233
 11
119.3867781284
 21
168.7731335148
  0
LINE
  5
3BE
100
AcDbEntity
  8
RACCORDO
100
AcDbLine
 62
253
  6
CONTINUOUS
 10
119.3643510917
 20
168.775488373
 11
119.3755227108
 21
168.7742747233
  0
LINE
  5
3BF
100
AcDbEntity
  8
RACCORDO
100
AcDbLine
 62
253
  6
CONTINUOUS
 10
119.3532639505
 20
168.776773224
 11
119.3643510917
 21
168.775488373
  0
LINE
  5
3C0
100
AcDbEntity
  8
RACCORDO
100
AcDbLine
 62
253
  6
CONTINUOUS
 10
119.3422618938
 20
168.7781280771
 11
119.3532639505
 21
168.776773224
  0
LINE
  5
3C1
100
AcDbEntity
  8
RACCORDO
100
AcDbLine
 62
253
  6
CONTINUOUS
 10
119.331345306
 20
168.7795521423
 11
119.3422618938
 21
168.7781280771
  0
LINE
  5
3C2
100
AcDbEntity
  8
RACCORDO
100
AcDbLine
 62
253
  6
CONTINUOUS
 10
119.3205147376
 20
168.781044248
 11
119.331345306
 21
168.7795521423
  0
LINE
  5
3C3
100
AcDbEntity
  8
RACCORDO
100
AcDbLine
 62
253
  6
CONTINUOUS
 10
119.3097706491
 20
168.7826032683
 11
119.3205147376
 21
168.781044248
  0
LINE
  5
3C4
100
AcDbEntity
  8
RACCORDO
100
AcDbLine
 62
253
  6
CONTINUOUS
 10
119.2991133122
 20
168.7842284657
 11
119.3097706491
 21
168.7826032683
  0
LINE
  5
3C5
100
AcDbEntity
  8
RACCORDO
100
AcDbLine
 62
253
  6
CONTINUOUS
 10
119.2885430768
 20
168.7859187534
 11
119.2991133122
 21
168.7842284657
  0
LINE
  5
3C6
100
AcDbEntity
  8
RACCORDO
100
AcDbLine
 62
253
  6
CONTINUOUS
 10
119.2780602342
 20
168.7876730924
 11
119.2885430768
 21
168.7859187534
  0
LINE
  5
3C7
100
AcDbEntity
  8
RACCORDO
100
AcDbLine
 62
253
  6
CONTINUOUS
 10
119.2676649731
 20
168.7894907992
 11
119.2780602342
 21
168.7876730924
  0
LINE
  5
3C8
100
AcDbEntity
  8
RACCORDO
100
AcDbLine
 62
253
  6
CONTINUOUS
 10
119.2573575634
 20
168.7913708627
 11
119.2676649731
 21
168.7894907992
  0
LINE
  5
3C9
100
AcDbEntity
  8
RACCORDO
100
AcDbLine
 62
253
  6
CONTINUOUS
 10
119.2471382371
 20
168.7933123169
 11
119.2573575634
 21
168.7913708627
  0
LINE
  5
3CA
100
AcDbEntity
  8
RACCORDO
100
AcDbLine
 62
253
  6
CONTINUOUS
 10
119.2370071423
 20
168.7953145272
 11
119.2471382371
 21
168.7933123169
  0
LINE
  5
3CB
100
AcDbEntity
  8
RACCORDO
100
AcDbLine
 62
253
  6
CONTINUOUS
 10
119.2269644933
 20
168.797376555
 11
119.2370071423
 21
168.7953145272
  0
LINE
  5
3CC
100
AcDbEntity
  8
RACCORDO
100
AcDbLine
 62
253
  6
CONTINUOUS
 10
119.2170104562
 20
168.7994975097
 11
119.2269644933
 21
168.797376555
  0
LINE
  5
3CD
100
AcDbEntity
  8
RACCORDO
100
AcDbLine
 62
253
  6
CONTINUOUS
 10
119.2071451279
 20
168.8016768092
 11
119.2170104562
 21
168.7994975097
  0
LINE
  5
3CE
100
AcDbEntity
  8
RACCORDO
100
AcDbLine
 62
253
  6
CONTINUOUS
 10
119.197368638
 20
168.8039135957
 11
119.2071451279
 21
168.8016768092
  0
LINE
  5
3CF
100
AcDbEntity
  8
RACCORDO
100
AcDbLine
 62
253
  6
CONTINUOUS
 10
119.1876810309
 20
168.8062070727
 11
119.197368638
 21
168.8039135957
  0
LINE
  5
3D0
100
AcDbEntity
  8
RACCORDO
100
AcDbLine
 62
253
  6
CONTINUOUS
 10
119.1780823364
 20
168.8085567186
 11
119.1876810309
 21
168.8062070727
  0
LINE
  5
3D1
100
AcDbEntity
  8
RACCORDO
100
AcDbLine
 62
253
  6
CONTINUOUS
 10
119.1685725878
 20
168.8109617678
 11
119.1780823364
 21
168.8085567186
  0
LINE
  5
3D2
100
AcDbEntity
  8
RACCORDO
100
AcDbLine
 62
253
  6
CONTINUOUS
 10
119.1591518049
 20
168.8134215025
 11
119.1685725878
 21
168.8109617678
  0
LINE
  5
3D3
100
AcDbEntity
  8
RACCORDO
100
AcDbLine
 62
253
  6
CONTINUOUS
 10
119.1498200078
 20
168.8159354517
 11
119.1591518049
 21
168.8134215025
  0
LINE
  5
3D4
100
AcDbEntity
  8
RACCORDO
100
AcDbLine
 62
253
  6
CONTINUOUS
 10
119.1405772347
 20
168.8185029211
 11
119.1498200078
 21
168.8159354517
  0
LINE
  5
3D5
100
AcDbEntity
  8
RACCORDO
100
AcDbLine
 62
253
  6
CONTINUOUS
 10
119.1314235246
 20
168.8211232596
 11
119.1405772347
 21
168.8185029211
  0
LINE
  5
3D6
100
AcDbEntity
  8
RACCORDO
100
AcDbLine
 62
253
  6
CONTINUOUS
 10
119.1223589004
 20
168.8237960437
 11
119.1314235246
 21
168.8211232596
  0
LINE
  5
3D7
100
AcDbEntity
  8
RACCORDO
100
AcDbLine
 62
253
  6
CONTINUOUS
 10
119.1133833961
 20
168.8265206519
 11
119.1223589004
 21
168.8237960437
  0
LINE
  5
3D8
100
AcDbEntity
  8
RACCORDO
100
AcDbLine
 62
253
  6
CONTINUOUS
 10
119.1044970202
 20
168.8292965161
 11
119.1133833961
 21
168.8265206519
  0
LINE
  5
3D9
100
AcDbEntity
  8
RACCORDO
100
AcDbLine
 62
253
  6
CONTINUOUS
 10
119.0956997745
 20
168.8321232692
 11
119.1044970202
 21
168.8292965161
  0
LINE
  5
3DA
100
AcDbEntity
  8
RACCORDO
100
AcDbLine
 62
253
  6
CONTINUOUS
 10
119.0869916519
 20
168.8350003787
 11
119.0956997745
 21
168.8321232692
  0
LINE
  5
3DB
100
AcDbEntity
  8
RACCORDO
100
AcDbLine
 62
253
  6
CONTINUOUS
 10
119.0783726422
 20
168.8379273629
 11
119.0869916519
 21
168.8350003787
  0
LINE
  5
3DC
100
AcDbEntity
  8
RACCORDO
100
AcDbLine
 62
253
  6
CONTINUOUS
 10
108.9578904325
 20
173.8975125571
 11
108.9664648879
 21
173.8945607188
  0
LINE
  5
3DD
100
AcDbEntity
  8
RACCORDO
100
AcDbLine
 62
253
  6
CONTINUOUS
 10
119.0698427462
 20
168.840903909
 11
119.0783726422
 21
168.8379273629
  0
LINE
  5
3DE
100
AcDbEntity
  8
RACCORDO
100
AcDbLine
 62
253
  6
CONTINUOUS
 10
108.9494050934
 20
173.9005136581
 11
108.9578904325
 21
173.8975125571
  0
LINE
  5
3DF
100
AcDbEntity
  8
RACCORDO
100
AcDbLine
 62
253
  6
CONTINUOUS
 10
119.061401964
 20
168.8439295649
 11
119.0698427462
 21
168.840903909
  0
LINE
  5
3E0
100
AcDbEntity
  8
RACCORDO
100
AcDbLine
 62
253
  6
CONTINUOUS
 10
108.9410088944
 20
173.9035637287
 11
108.9494050934
 21
173.9005136581
  0
LINE
  5
3E1
100
AcDbEntity
  8
RACCORDO
100
AcDbLine
 62
253
  6
CONTINUOUS
 10
119.0530503657
 20
168.8470039041
 11
119.061401964
 21
168.8439295649
  0
LINE
  5
3E2
100
AcDbEntity
  8
RACCORDO
100
AcDbLine
 62
253
  6
CONTINUOUS
 10
108.9327018969
 20
173.9066623365
 11
108.9410088944
 21
173.9035637287
  0
LWPOLYLINE
  5
3E3
100
AcDbEntity
  8
RACCORDO
100
AcDbPolyline
 62
253
  6
CONTINUOUS
 90
19
 70
0
 10
122.7000854708
 20
168.9057081563
 10
122.6928442486
 20
168.9090289528
 10
122.6856147716
 20
168.911993189
 10
122.6784087661
 20
168.9145960569
 10
122.6712379202
 20
168.9168333346
 10
122.6641138651
 20
168.9187013933
 10
122.6570481559
 20
168.9201972028
 10
122.6500522533
 20
168.9213183371
 10
122.6431375047
 20
168.9220629777
 10
122.6363151259
 20
168.9224299166
 10
122.6295961827
 20
168.9224185587
 10
122.6229915733
 20
168.9220289224
 10
122.6165120104
 20
168.9212616398
 10
122.6101680039
 20
168.9201179552
 10
122.6039698438
 20
168.9185997239
 10
122.5979275835
 20
168.9167094083
 10
122.5920510236
 20
168.9144500745
 10
122.586349696
 20
168.9118253872
 10
122.5851380122
 20
168.9112087462
  0
LINE
  5
3E4
100
AcDbEntity
  8
0
100
AcDbLine
 62
7
  6
CONTINUOUS
 10
117.794431634
 20
169.9521202747
 11
112.2789987408
 21
172.7098367213
  0
LWPOLYLINE
  5
3E5
100
AcDbEntity
  8
RACCORDO
100
AcDbPolyline
 62
7
  6
CONTINUOUS
 90
25
 70
0
 10
112.4676079949
 20
174.1700035044
 10
112.4763991088
 20
174.1652666775
 10
112.4850908757
 20
174.1599309265
 10
112.4936832956
 20
174.1539962515
 10
112.5022083488
 20
174.1474354776
 10
112.5106340549
 20
174.1402757797
 10
112.5188644738
 20
174.1325986825
 10
112.5268973733
 20
174.1243982722
 10
112.5347349855
 20
174.1156804627
 10
112.5422880665
 20
174.1065445203
 10
112.5495533641
 20
174.0969856658
 10
112.5565341305
 20
174.0870086786
 10
112.5631508783
 20
174.0767271626
 10
112.5693994469
 20
174.0661376373
 10
112.5752839968
 20
174.0552435833
 10
112.5807375231
 20
174.0441690472
 10
112.585755099
 20
174.032911966
 10
112.5903416512
 20
174.0214744026
 10
112.5944449544
 20
174.0099865922
 10
112.598059485
 20
173.9984479606
 10
112.6011907665
 20
173.9868590821
 10
112.6038031443
 20
173.9753519148
 10
112.6058847333
 20
173.9639704448
 10
112.6074474187
 20
173.952670686
 10
112.6084912002
 20
173.9414526385
  0
LWPOLYLINE
  5
3E6
100
AcDbEntity
  8
RACCORDO
100
AcDbPolyline
 62
253
  6
CONTINUOUS
 90
40
 70
0
 10
123.7101329038
 20
168.4006844398
 10
123.7171256719
 20
168.3968882411
 10
123.7241070977
 20
168.3927470257
 10
123.7310658573
 20
168.3882675108
 10
123.7379906635
 20
168.3834569621
 10
123.7448702844
 20
168.3783231823
 10
123.7516935611
 20
168.3728744985
 10
123.7584494263
 20
168.3671197484
 10
123.7651269219
 20
168.3610682662
 10
123.771715217
 20
168.3547298676
 10
123.7782036254
 20
168.3481148333
 10
123.7845816228
 20
168.341233893
 10
123.7908388641
 20
168.3340982077
 10
123.7969652001
 20
168.3267193513
 10
123.8029506938
 20
168.3191092926
 10
123.8087856366
 20
168.3112803749
 10
123.8144605644
 20
168.3032452968
 10
123.8199662723
 20
168.2950170913
 10
123.8252938301
 20
168.2866091045
 10
123.8304345964
 20
168.2780349743
 10
123.835380233
 20
168.2693086078
 10
123.8401227179
 20
168.2604441593
 10
123.8446543589
 20
168.251456007
 10
123.8489678056
 20
168.2423587296
 10
123.8530560616
 20
168.2331670831
 10
123.8569124957
 20
168.2238959762
 10
123.8605308527
 20
168.2145604467
 10
123.8639052638
 20
168.205175637
 10
123.8670302555
 20
168.1957567691
 10
123.8699007591
 20
168.1863191206
 10
123.8725121187
 20
168.1768779993
 10
123.8748600986
 20
168.1674487188
 10
123.8769408904
 20
168.1580465734
 10
123.878751119
 20
168.1486868134
 10
123.8802878482
 20
168.1393846204
 10
123.8815485855
 20
168.1301550826
 10
123.882531286
 20
168.1210131703
 10
123.8832343557
 20
168.1119737117
 10
123.8836566541
 20
168.1030513688
 10
123.8837974964
 20
168.0942606138
  0
LWPOLYLINE
  5
3E7
100
AcDbEntity
  8
RACCORDO
100
AcDbPolyline
 62
253
  6
CONTINUOUS
 90
17
 70
0
 10
126.3448788946
 20
137.2321351682
 10
126.351026273
 20
137.2350056774
 10
126.3571606272
 20
137.2375425516
 10
126.363270358
 20
137.2397409939
 10
126.3693439124
 20
137.2415968472
 10
126.3753698061
 20
137.2431066023
 10
126.3813366447
 20
137.2442674044
 10
126.3872331457
 20
137.2450770586
 10
126.3930481593
 20
137.2455340339
 10
126.3987706901
 20
137.2456374662
 10
126.4043899173
 20
137.2453871599
 10
126.4098952157
 20
137.2447835883
 10
126.4152761753
 20
137.2438278927
 10
126.4205226212
 20
137.2425218802
 10
126.4256246332
 20
137.2408680202
 10
126.4305725637
 20
137.2388694402
 10
126.4335811365
 20
137.2374476614
  0
LINE
  5
3E8
100
AcDbEntity
  8
0
100
AcDbLine
 62
7
  6
CONTINUOUS
 10
120.5029863969
 20
172.0001677851
 11
124.7262170472
 21
172.4311749459
  0
LINE
  5
3E9
100
AcDbEntity
  8
RACCORDO
100
AcDbLine
 62
7
  6
CONTINUOUS
 10
121.7176546522
 20
172.7627093997
 11
119.7674089675
 21
172.5636746026
  0
LINE
  5
3EA
100
AcDbEntity
  8
RACCORDO
100
AcDbLine
 62
7
  6
CONTINUOUS
 10
123.7158195811
 20
173.2859232086
 11
123.6918516031
 21
173.2834771262
  0
LINE
  5
3EB
100
AcDbEntity
  8
RACCORDO
100
AcDbLine
 62
7
  6
CONTINUOUS
 10
117.9044455204
 20
173.4141799372
 11
119.2967990694
 21
173.5562783448
  0
LWPOLYLINE
  5
3EC
100
AcDbEntity
  8
RACCORDO
100
AcDbPolyline
 62
7
  6
CONTINUOUS
 90
25
 70
0
 10
119.7674089675
 20
172.5636746026
 10
119.7582368628
 20
172.5629272964
 10
119.7485845422
 20
172.5624875535
 10
119.7384520056
 20
172.5623553738
 10
119.7277918867
 20
172.5625328194
 10
119.7166515519
 20
172.5630178283
 10
119.7051731
 20
172.5638042139
 10
119.6933521998
 20
172.5648958368
 10
119.6811931824
 20
172.5662888365
 10
119.6688511405
 20
172.5679654448
 10
119.6563237295
 20
172.5699292946
 10
119.6436132938
 20
172.572176753
 10
119.6308819596
 20
172.5746791528
 10
119.6181294592
 20
172.5774397598
 10
119.6053560601
 20
172.5804553082
 10
119.5927246917
 20
172.5836873338
 10
119.5802371732
 20
172.5871386094
 10
119.5678916854
 20
172.5908063621
 10
119.5558456991
 20
172.5946438084
 10
119.544103051
 20
172.5986531221
 10
119.5326599045
 20
172.6028321294
 10
119.5216622209
 20
172.6071275256
 10
119.511158654
 20
172.6115215425
 10
119.50110055
 20
172.6160319482
 10
119.4914879089
 20
172.620658743
  0
LINE
  5
3ED
100
AcDbEntity
  8
ASSI
100
AcDbLine
 62
7
  6
CONTINUOUS
 10
124.0653954961
 20
173.6816260031
 11
125.0776875965
 21
173.7315569445
  0
LINE
  5
3EE
100
AcDbEntity
  8
RACCORDO
100
AcDbLine
 62
253
  6
CONTINUOUS
 10
109.2425908421
 20
173.8342249579
 11
109.2537202222
 21
173.8329757076
  0
LINE
  5
3EF
100
AcDbEntity
  8
RACCORDO
100
AcDbLine
 62
253
  6
CONTINUOUS
 10
109.2315461371
 20
173.8355450124
 11
109.2425908421
 21
173.8342249579
  0
LINE
  5
3F0
100
AcDbEntity
  8
RACCORDO
100
AcDbLine
 62
253
  6
CONTINUOUS
 10
109.2205867286
 20
173.8369346641
 11
109.2315461371
 21
173.8355450124
  0
LINE
  5
3F1
100
AcDbEntity
  8
RACCORDO
100
AcDbLine
 62
253
  6
CONTINUOUS
 10
109.2097131505
 20
173.8383927496
 11
109.2205867286
 21
173.8369346641
  0
LINE
  5
3F2
100
AcDbEntity
  8
RACCORDO
100
AcDbLine
 62
253
  6
CONTINUOUS
 10
109.1989257383
 20
173.8399185033
 11
109.2097131505
 21
173.8383927496
  0
LINE
  5
3F3
100
AcDbEntity
  8
RACCORDO
100
AcDbLine
 62
253
  6
CONTINUOUS
 10
109.1882249734
 20
173.8415107901
 11
109.1989257383
 21
173.8399185033
  0
LINE
  5
3F4
100
AcDbEntity
  8
RACCORDO
100
AcDbLine
 62
253
  6
CONTINUOUS
 10
109.1776111872
 20
173.8431685327
 11
109.1882249734
 21
173.8415107901
  0
LINE
  5
3F5
100
AcDbEntity
  8
RACCORDO
100
AcDbLine
 62
253
  6
CONTINUOUS
 10
109.1670845966
 20
173.844891022
 11
109.1776111872
 21
173.8431685327
  0
LINE
  5
3F6
100
AcDbEntity
  8
RACCORDO
100
AcDbLine
 62
253
  6
CONTINUOUS
 10
109.1566455021
 20
173.8466772107
 11
109.1670845966
 21
173.844891022
  0
LINE
  5
3F7
100
AcDbEntity
  8
RACCORDO
100
AcDbLine
 62
253
  6
CONTINUOUS
 10
109.1462941667
 20
173.8485260958
 11
109.1566455021
 21
173.8466772107
  0
LINE
  5
3F8
100
AcDbEntity
  8
RACCORDO
100
AcDbLine
 62
253
  6
CONTINUOUS
 10
109.1360307578
 20
173.8504370184
 11
109.1462941667
 21
173.8485260958
  0
LINE
  5
3F9
100
AcDbEntity
  8
RACCORDO
100
AcDbLine
 62
253
  6
CONTINUOUS
 10
109.1258555141
 20
173.8524090043
 11
109.1360307578
 21
173.8504370184
  0
LINE
  5
3FA
100
AcDbEntity
  8
RACCORDO
100
AcDbLine
 62
253
  6
CONTINUOUS
 10
109.1157686422
 20
173.8544411233
 11
109.1258555141
 21
173.8524090043
  0
LINE
  5
3FB
100
AcDbEntity
  8
RACCORDO
100
AcDbLine
 62
253
  6
CONTINUOUS
 10
109.1057702681
 20
173.856532766
 11
109.1157686422
 21
173.8544411233
  0
LINE
  5
3FC
100
AcDbEntity
  8
RACCORDO
100
AcDbLine
 62
253
  6
CONTINUOUS
 10
109.0958605681
 20
173.8586830327
 11
109.1057702681
 21
173.856532766
  0
LINE
  5
3FD
100
AcDbEntity
  8
RACCORDO
100
AcDbLine
 62
253
  6
CONTINUOUS
 10
109.086039659
 20
173.8608910757
 11
109.0958605681
 21
173.8586830327
  0
LINE
  5
3FE
100
AcDbEntity
  8
RACCORDO
100
AcDbLine
 62
253
  6
CONTINUOUS
 10
109.0763075999
 20
173.8631563435
 11
109.086039659
 21
173.8608910757
  0
LINE
  5
3FF
100
AcDbEntity
  8
RACCORDO
100
AcDbLine
 62
253
  6
CONTINUOUS
 10
109.0666644447
 20
173.8654780296
 11
109.0763075999
 21
173.8631563435
  0
LINE
  5
400
100
AcDbEntity
  8
RACCORDO
100
AcDbLine
 62
253
  6
CONTINUOUS
 10
109.0571102232
 20
173.8678553772
 11
109.0666644447
 21
173.8654780296
  0
LINE
  5
401
100
AcDbEntity
  8
RACCORDO
100
AcDbLine
 62
253
  6
CONTINUOUS
 10
109.0476449542
 20
173.8702878914
 11
109.0571102232
 21
173.8678553772
  0
LINE
  5
402
100
AcDbEntity
  8
RACCORDO
100
AcDbLine
 62
253
  6
CONTINUOUS
 10
109.0382686574
 20
173.8727748466
 11
109.0476449542
 21
173.8702878914
  0
LINE
  5
403
100
AcDbEntity
  8
RACCORDO
100
AcDbLine
 62
253
  6
CONTINUOUS
 10
109.0289813723
 20
173.8753155559
 11
109.0382686574
 21
173.8727748466
  0
LINE
  5
404
100
AcDbEntity
  8
RACCORDO
100
AcDbLine
 62
253
  6
CONTINUOUS
 10
109.0197831239
 20
173.877909571
 11
109.0289813723
 21
173.8753155559
  0
LINE
  5
405
100
AcDbEntity
  8
RACCORDO
100
AcDbLine
 62
253
  6
CONTINUOUS
 10
109.0106739521
 20
173.8805562329
 11
109.0197831239
 21
173.877909571
  0
LINE
  5
406
100
AcDbEntity
  8
RACCORDO
100
AcDbLine
 62
253
  6
CONTINUOUS
 10
109.0016538878
 20
173.8832549291
 11
109.0106739521
 21
173.8805562329
  0
LINE
  5
407
100
AcDbEntity
  8
RACCORDO
100
AcDbLine
 62
253
  6
CONTINUOUS
 10
108.9927229449
 20
173.8860052632
 11
109.0016538878
 21
173.8832549291
  0
LINE
  5
408
100
AcDbEntity
  8
RACCORDO
100
AcDbLine
 62
253
  6
CONTINUOUS
 10
108.9838811361
 20
173.8888066575
 11
108.9927229449
 21
173.8860052632
  0
LINE
  5
409
100
AcDbEntity
  8
RACCORDO
100
AcDbLine
 62
253
  6
CONTINUOUS
 10
108.9751284519
 20
173.8916585888
 11
108.9838811361
 21
173.8888066575
  0
LINE
  5
40A
100
AcDbEntity
  8
RACCORDO
100
AcDbLine
 62
253
  6
CONTINUOUS
 10
108.9664648879
 20
173.8945607188
 11
108.9751284519
 21
173.8916585888
  0
LINE
  5
40B
100
AcDbEntity
  8
RACCORDO
100
AcDbLine
 62
7
  6
CONTINUOUS
 10
119.4914879089
 20
170.6580635475
 11
118.0300864486
 21
171.3887642776
  0
LINE
  5
40C
100
AcDbEntity
  8
RACCORDO
100
AcDbLine
 62
7
  6
CONTINUOUS
 10
112.4676079949
 20
174.1700035044
 11
111.0062065346
 21
174.9007042346
  0
LINE
  5
40D
100
AcDbEntity
  8
0
100
AcDbLine
 62
253
  6
CONTINUOUS
 10
119.4914879089
 20
170.9178711686
 11
111.0062065346
 21
175.1605118557
  0
LINE
  5
40E
100
AcDbEntity
  8
RACCORDO
100
AcDbLine
 62
7
  6
CONTINUOUS
 10
125.1836705694
 20
169.1121738313
 11
124.1230642537
 21
169.6424769891
  0
LINE
  5
40F
100
AcDbEntity
  8
RACCORDO
100
AcDbLine
 62
7
  6
CONTINUOUS
 10
109.0616359583
 20
177.1731911368
 11
108.0010296426
 21
177.7034942946
  0
LINE
  5
410
100
AcDbEntity
  8
0
100
AcDbLine
 62
253
  6
CONTINUOUS
 10
119.9864626557
 20
171.7715763247
 11
111.5011812815
 21
176.0142170118
  0
LINE
  5
411
100
AcDbEntity
  8
0
100
AcDbLine
 62
253
  6
CONTINUOUS
 10
120.3500307883
 20
171.953360391
 11
111.8647494141
 21
176.1960010781
  0
LINE
  5
412
100
AcDbEntity
  8
0
100
AcDbLine
 62
253
  6
CONTINUOUS
 10
120.5029863969
 20
172.0001677851
 11
112.0177050226
 21
176.2428084722
  0
LINE
  5
413
100
AcDbEntity
  8
ASSI
100
AcDbLine
 62
7
  6
CONTINUOUS
 10
121.2825379344
 20
171.6653052275
 11
121.1991844636
 21
171.7069819629
  0
LINE
  5
414
100
AcDbEntity
  8
RACCORDO
100
AcDbLine
 62
7
  6
CONTINUOUS
 10
119.4914879089
 20
172.620658743
 11
117.4408782434
 21
173.6459635757
  0
LINE
  5
415
100
AcDbEntity
  8
RACCORDO
100
AcDbLine
 62
7
  6
CONTINUOUS
 10
115.4609792561
 20
174.6359130693
 11
113.4103695907
 21
175.6612179021
  0
LWPOLYLINE
  5
416
100
AcDbEntity
  8
RACCORDO
100
AcDbPolyline
 62
7
  6
CONTINUOUS
 90
15
 70
0
 10
113.4103695907
 20
175.6612179021
 10
113.4013533252
 20
175.6659055606
 10
113.3930181372
 20
175.6705918008
 10
113.3853640268
 20
175.6752766226
 10
113.3783641277
 20
175.6799800178
 10
113.3720453061
 20
175.6846819945
 10
113.3664881609
 20
175.6893225775
 10
113.3617024489
 20
175.6939009804
 10
113.3576784132
 20
175.6984179894
 10
113.3544673818
 20
175.7028159887
 10
113.3520797692
 20
175.7070934537
 10
113.3505051608
 20
175.711251909
 10
113.3497636414
 20
175.7152383119
 10
113.3498658827
 20
175.7190504585
 10
113.3501460472
 20
175.7205525672
  0
LWPOLYLINE
  5
417
100
AcDbEntity
  8
RACCORDO
100
AcDbPolyline
 62
7
  6
CONTINUOUS
 90
15
 70
0
 10
117.4408782434
 20
173.6459635757
 10
117.4318619779
 20
173.6506512343
 10
117.42352679
 20
173.6553374744
 10
117.4158726796
 20
173.6600222962
 10
117.4088727805
 20
173.6647256914
 10
117.4025539589
 20
173.6694276681
 10
117.3969968136
 20
173.6740682512
 10
117.3922111016
 20
173.678646654
 10
117.388187066
 20
173.683163663
 10
117.3849760346
 20
173.6875616623
 10
117.3825884219
 20
173.6918391273
 10
117.3810138136
 20
173.6959975826
 10
117.3802722942
 20
173.6999839855
 10
117.3803745355
 20
173.7037961321
 10
117.3806546999
 20
173.7052982408
  0
LWPOLYLINE
  5
418
100
AcDbEntity
  8
RACCORDO
100
AcDbPolyline
 62
253
  6
CONTINUOUS
 90
40
 70
0
 10
117.5013809225
 20
129.9340096889
 10
117.4940878943
 20
129.9302859794
 10
117.4865309689
 20
129.9267108027
 10
117.4787221332
 20
129.9232898298
 10
117.4706737734
 20
129.920028487
 10
117.4623986559
 20
129.9169319474
 10
117.4539099064
 20
129.9140051228
 10
117.4452209898
 20
129.9112526556
 10
117.4363456884
 20
129.9086789117
 10
117.42729808
 20
129.9062879737
 10
117.4180925161
 20
129.904083634
 10
117.4087435982
 20
129.9020693891
 10
117.3992661556
 20
129.900248434
 10
117.3896752214
 20
129.8986236571
 10
117.3799860086
 20
129.8971976356
 10
117.3702138861
 20
129.8959726314
 10
117.3603743544
 20
129.8949505876
 10
117.3504830209
 20
129.8941331254
 10
117.3405555751
 20
129.8935215414
 10
117.3306077639
 20
129.8931168057
 10
117.3206553664
 20
129.8929195603
 10
117.3107141689
 20
129.8929301181
 10
117.3007999402
 20
129.8931484623
 10
117.2909284061
 20
129.8935742466
 10
117.2811152248
 20
129.8942067957
 10
117.2713759618
 20
129.895045106
 10
117.2617260655
 20
129.8960878481
 10
117.2521808424
 20
129.8973333678
 10
117.2427554331
 20
129.8987796895
 10
117.2334647881
 20
129.9004245191
 10
117.2243236442
 20
129.9022652476
 10
117.2153465009
 20
129.9042989552
 10
117.2065475977
 20
129.9065224161
 10
117.1979408914
 20
129.9089321034
 10
117.1895400339
 20
129.911524195
 10
117.1813583505
 20
129.9142945792
 10
117.1734088189
 20
129.9172388617
 10
117.1657040486
 20
129.9203523722
 10
117.1582562609
 20
129.9236301723
 10
117.1510772693
 20
129.9270670627
  0
LINE
  5
419
100
AcDbEntity
  8
RACCORDO
100
AcDbLine
 62
7
  6
CONTINUOUS
 10
125.3604741927
 20
133.6097291739
 11
127.9793493026
 21
134.9160686881
  0
LWPOLYLINE
  5
41A
100
AcDbEntity
  8
RACCORDO
100
AcDbPolyline
 62
253
  6
CONTINUOUS
 90
11
 70
0
 10
109.7477696034
 20
173.8537730498
 10
109.754409278
 20
173.8550889327
 10
109.7610484279
 20
173.8564352571
 10
109.7676870364
 20
173.857812019
 10
109.7743236726
 20
173.8592196197
 10
109.7809583528
 20
173.8606580637
 10
109.7875910607
 20
173.8621273465
 10
109.7942203158
 20
173.8636278561
 10
109.8008456247
 20
173.8651597216
 10
109.8074674809
 20
173.8667228138
 10
109.8140858844
 20
173.8683171327
  0
LINE
  5
41B
100
AcDbEntity
  8
RACCORDO
100
AcDbLine
 62
253
  6
CONTINUOUS
 10
109.7344900118
 20
173.8512321827
 11
109.7477696034
 21
173.8537730498
  0
LINE
  5
41C
100
AcDbEntity
  8
RACCORDO
100
AcDbLine
 62
253
  6
CONTINUOUS
 10
109.7212138144
 20
173.848811418
 11
109.7344900118
 21
173.8512321827
  0
LINE
  5
41D
100
AcDbEntity
  8
RACCORDO
100
AcDbLine
 62
253
  6
CONTINUOUS
 10
109.7079449911
 20
173.8465094768
 11
109.7212138144
 21
173.848811418
  0
LINE
  5
41E
100
AcDbEntity
  8
RACCORDO
100
AcDbLine
 62
253
  6
CONTINUOUS
 10
109.6946861555
 20
173.8443254988
 11
109.7079449911
 21
173.8465094768
  0
LINE
  5
41F
100
AcDbEntity
  8
RACCORDO
100
AcDbLine
 62
253
  6
CONTINUOUS
 10
109.681441171
 20
173.8422581813
 11
109.6946861555
 21
173.8443254988
  0
LINE
  5
420
100
AcDbEntity
  8
RACCORDO
100
AcDbLine
 62
253
  6
CONTINUOUS
 10
109.6682137067
 20
173.8403061865
 11
109.681441171
 21
173.8422581813
  0
LINE
  5
421
100
AcDbEntity
  8
RACCORDO
100
AcDbLine
 62
253
  6
CONTINUOUS
 10
109.655006182
 20
173.8384686184
 11
109.6682137067
 21
173.8403061865
  0
LINE
  5
422
100
AcDbEntity
  8
RACCORDO
100
AcDbLine
 62
253
  6
CONTINUOUS
 10
109.641822183
 20
173.8367441252
 11
109.655006182
 21
173.8384686184
  0
LINE
  5
423
100
AcDbEntity
  8
RACCORDO
100
AcDbLine
 62
253
  6
CONTINUOUS
 10
109.628665122
 20
173.8351313291
 11
109.641822183
 21
173.8367441252
  0
LINE
  5
424
100
AcDbEntity
  8
RACCORDO
100
AcDbLine
 62
253
  6
CONTINUOUS
 10
109.6155372276
 20
173.8336293063
 11
109.628665122
 21
173.8351313291
  0
LINE
  5
425
100
AcDbEntity
  8
RACCORDO
100
AcDbLine
 62
253
  6
CONTINUOUS
 10
109.6024417865
 20
173.8322366627
 11
109.6155372276
 21
173.8336293063
  0
LINE
  5
426
100
AcDbEntity
  8
RACCORDO
100
AcDbLine
 62
7
  6
CONTINUOUS
 10
117.4339565896
 20
173.7304007915
 11
119.3842022743
 21
173.9294355886
  0
LINE
  5
427
100
AcDbEntity
  8
RACCORDO
100
AcDbLine
 62
7
  6
CONTINUOUS
 10
117.6871459994
 20
174.777963726
 11
115.7369003147
 21
174.578928929
  0
LINE
  5
428
100
AcDbEntity
  8
RACCORDO
100
AcDbLine
 62
253
  6
CONTINUOUS
 10
109.5893818277
 20
173.830951979
 11
109.6024417865
 21
173.8322366627
  0
LINE
  5
429
100
AcDbEntity
  8
RACCORDO
100
AcDbLine
 62
253
  6
CONTINUOUS
 10
109.5763593377
 20
173.8297743079
 11
109.5893818277
 21
173.830951979
  0
LWPOLYLINE
  5
42A
100
AcDbEntity
  8
RACCORDO
100
AcDbPolyline
 62
7
  6
CONTINUOUS
 90
25
 70
0
 10
119.3842022743
 20
173.9294355886
 10
119.393374379
 20
173.9301828948
 10
119.4030266996
 20
173.9306226377
 10
119.4131592362
 20
173.9307548174
 10
119.4238193551
 20
173.9305773718
 10
119.4349596899
 20
173.9300923629
 10
119.4464381418
 20
173.9293059773
 10
119.458259042
 20
173.9282143544
 10
119.4704180594
 20
173.9268213547
 10
119.4827601013
 20
173.9251447464
 10
119.4952875123
 20
173.9231808966
 10
119.507997948
 20
173.9209334382
 10
119.5207292822
 20
173.9184310384
 10
119.5334817826
 20
173.9156704314
 10
119.5462551817
 20
173.912654883
 10
119.5588865501
 20
173.9094228574
 10
119.5713740685
 20
173.9059715818
 10
119.5837195564
 20
173.9023038291
 10
119.5957655427
 20
173.8984663828
 10
119.6075081908
 20
173.8944570691
 10
119.6189513373
 20
173.8902780618
 10
119.6299490209
 20
173.8859826656
 10
119.6404525878
 20
173.8815886487
 10
119.6505106918
 20
173.8770782429
 10
119.6601233329
 20
173.8724514482
  0
LWPOLYLINE
  5
42B
100
AcDbEntity
  8
RACCORDO
100
AcDbPolyline
 62
7
  6
CONTINUOUS
 90
25
 70
0
 10
115.7369003147
 20
174.578928929
 10
115.72772821
 20
174.5781816228
 10
115.7180758894
 20
174.5777418799
 10
115.7079433528
 20
174.5776097001
 10
115.6972832339
 20
174.5777871458
 10
115.6861428991
 20
174.5782721546
 10
115.6746644472
 20
174.5790585403
 10
115.662843547
 20
174.5801501632
 10
115.6506845297
 20
174.5815431629
 10
115.6383424877
 20
174.5832197712
 10
115.6258150767
 20
174.585183621
 10
115.6131046411
 20
174.5874310794
 10
115.6003733069
 20
174.5899334792
 10
115.5876208064
 20
174.5926940862
 10
115.5748474074
 20
174.5957096346
 10
115.5622160389
 20
174.5989416602
 10
115.5497285205
 20
174.6023929358
 10
115.5373830326
 20
174.6060606885
 10
115.5253370464
 20
174.6098981348
 10
115.5135943982
 20
174.6139074485
 10
115.5021512517
 20
174.6180864558
 10
115.4911535681
 20
174.622381852
 10
115.4806500012
 20
174.6267758688
 10
115.4705918972
 20
174.6312862746
 10
115.4609792561
 20
174.6359130693
  0
LINE
  5
42C
100
AcDbEntity
  8
RACCORDO
100
AcDbLine
 62
253
  6
CONTINUOUS
 10
109.5633770369
 20
173.8287022114
 11
109.5763593377
 21
173.8297743079
  0
LINE
  5
42D
100
AcDbEntity
  8
RACCORDO
100
AcDbLine
 62
253
  6
CONTINUOUS
 10
109.5504385177
 20
173.8277343178
 11
109.5633770369
 21
173.8287022114
  0
LINE
  5
42E
100
AcDbEntity
  8
RACCORDO
100
AcDbLine
 62
253
  6
CONTINUOUS
 10
109.5375468811
 20
173.8268697325
 11
109.5504385177
 21
173.8277343178
  0
LINE
  5
42F
100
AcDbEntity
  8
RACCORDO
100
AcDbLine
 62
253
  6
CONTINUOUS
 10
109.5247086284
 20
173.8261072095
 11
109.5375468811
 21
173.8268697325
  0
LINE
  5
430
100
AcDbEntity
  8
RACCORDO
100
AcDbLine
 62
253
  6
CONTINUOUS
 10
109.5119260191
 20
173.8254451432
 11
109.5247086284
 21
173.8261072095
  0
LINE
  5
431
100
AcDbEntity
  8
RACCORDO
100
AcDbLine
 62
253
  6
CONTINUOUS
 10
109.4992008081
 20
173.8248824917
 11
109.5119260191
 21
173.8254451432
  0
LINE
  5
432
100
AcDbEntity
  8
RACCORDO
100
AcDbLine
 62
253
  6
CONTINUOUS
 10
109.4865354273
 20
173.8244176798
 11
109.4992008081
 21
173.8248824917
  0
LINE
  5
433
100
AcDbEntity
  8
RACCORDO
100
AcDbLine
 62
253
  6
CONTINUOUS
 10
109.4739320396
 20
173.8240491361
 11
109.4865354273
 21
173.8244176798
  0
LINE
  5
434
100
AcDbEntity
  8
RACCORDO
100
AcDbLine
 62
253
  6
CONTINUOUS
 10
109.4613920252
 20
173.8237758167
 11
109.4739320396
 21
173.8240491361
  0
LINE
  5
435
100
AcDbEntity
  8
RACCORDO
100
AcDbLine
 62
253
  6
CONTINUOUS
 10
109.4489173409
 20
173.823596158
 11
109.4613920252
 21
173.8237758167
  0
LINE
  5
436
100
AcDbEntity
  8
RACCORDO
100
AcDbLine
 62
253
  6
CONTINUOUS
 10
109.4365097899
 20
173.8235086179
 11
109.4489173409
 21
173.823596158
  0
LINE
  5
437
100
AcDbEntity
  8
RACCORDO
100
AcDbLine
 62
253
  6
CONTINUOUS
 10
109.4241705316
 20
173.8235121738
 11
109.4365097899
 21
173.8235086179
  0
LINE
  5
438
100
AcDbEntity
  8
RACCORDO
100
AcDbLine
 62
253
  6
CONTINUOUS
 10
109.4119012402
 20
173.8236052991
 11
109.4241705316
 21
173.8235121738
  0
LINE
  5
439
100
AcDbEntity
  8
RACCORDO
100
AcDbLine
 62
253
  6
CONTINUOUS
 10
109.3997034273
 20
173.8237864953
 11
109.4119012402
 21
173.8236052991
  0
LINE
  5
43A
100
AcDbEntity
  8
RACCORDO
100
AcDbLine
 62
253
  6
CONTINUOUS
 10
109.3875780906
 20
173.8240547696
 11
109.3997034273
 21
173.8237864953
  0
LINE
  5
43B
100
AcDbEntity
  8
RACCORDO
100
AcDbLine
 62
253
  6
CONTINUOUS
 10
109.3755267071
 20
173.8244086413
 11
109.3875780906
 21
173.8240547696
  0
LINE
  5
43C
100
AcDbEntity
  8
RACCORDO
100
AcDbLine
 62
253
  6
CONTINUOUS
 10
109.3635506122
 20
173.8248466601
 11
109.3755267071
 21
173.8244086413
  0
LINE
  5
43D
100
AcDbEntity
  8
RACCORDO
100
AcDbLine
 62
253
  6
CONTINUOUS
 10
109.3516506725
 20
173.8253678655
 11
109.3635506122
 21
173.8248466601
  0
LINE
  5
43E
100
AcDbEntity
  8
RACCORDO
100
AcDbLine
 62
253
  6
CONTINUOUS
 10
109.3398281502
 20
173.825970827
 11
109.3516506725
 21
173.8253678655
  0
LINE
  5
43F
100
AcDbEntity
  8
RACCORDO
100
AcDbLine
 62
253
  6
CONTINUOUS
 10
109.3280841834
 20
173.826654147
 11
109.3398281502
 21
173.825970827
  0
LINE
  5
440
100
AcDbEntity
  8
RACCORDO
100
AcDbLine
 62
253
  6
CONTINUOUS
 10
109.3164195033
 20
173.8274169017
 11
109.3280841834
 21
173.826654147
  0
LINE
  5
441
100
AcDbEntity
  8
RACCORDO
100
AcDbLine
 62
253
  6
CONTINUOUS
 10
109.3048351769
 20
173.828257715
 11
109.3164195033
 21
173.8274169017
  0
LINE
  5
442
100
AcDbEntity
  8
RACCORDO
100
AcDbLine
 62
253
  6
CONTINUOUS
 10
109.2933320716
 20
173.8291752552
 11
109.3048351769
 21
173.828257715
  0
LINE
  5
443
100
AcDbEntity
  8
RACCORDO
100
AcDbLine
 62
253
  6
CONTINUOUS
 10
109.2819107498
 20
173.8301686435
 11
109.2933320716
 21
173.8291752552
  0
LINE
  5
444
100
AcDbEntity
  8
RACCORDO
100
AcDbLine
 62
253
  6
CONTINUOUS
 10
109.2705720074
 20
173.8312365753
 11
109.2819107498
 21
173.8301686435
  0
LWPOLYLINE
  5
445
100
AcDbEntity
  8
RACCORDO
100
AcDbPolyline
 62
253
  6
CONTINUOUS
 90
3
 70
0
 10
109.2537202222
 20
173.8329757076
 10
109.2593165898
 20
173.8323777838
 10
109.2705720074
 20
173.8312365753
  0
LWPOLYLINE
  5
446
100
AcDbEntity
  8
RACCORDO
100
AcDbPolyline
 62
7
  6
CONTINUOUS
 90
25
 70
0
 10
119.572720128
 20
173.4992942044
 10
119.5631074869
 20
173.5039209991
 10
119.5530493829
 20
173.5084314049
 10
119.542545816
 20
173.5128254218
 10
119.5315481324
 20
173.517120818
 10
119.5201049859
 20
173.5212998252
 10
119.5083623378
 20
173.5253091389
 10
119.4963163515
 20
173.5291465852
 10
119.4839708637
 20
173.5328143379
 10
119.4714833452
 20
173.5362656136
 10
119.4588519768
 20
173.5394976391
 10
119.4460785777
 20
173.5425131875
 10
119.4333260773
 20
173.5452737946
 10
119.4205947431
 20
173.5477761944
 10
119.4078843074
 20
173.5500236527
 10
119.3953568964
 20
173.5519875025
 10
119.3830148545
 20
173.5536641108
 10
119.3708558371
 20
173.5550571105
 10
119.3590349369
 20
173.5561487335
 10
119.347556485
 20
173.5569351191
 10
119.3364161502
 20
173.5574201279
 10
119.3257560314
 20
173.5575975736
 10
119.3156234947
 20
173.5574653939
 10
119.3059711741
 20
173.5570256509
 10
119.2967990694
 20
173.5562783448
  0
LWPOLYLINE
  5
447
100
AcDbEntity
  8
RACCORDO
100
AcDbPolyline
 62
7
  6
CONTINUOUS
 90
25
 70
0
 10
115.5422114753
 20
175.5145485308
 10
115.5325988342
 20
175.5191753255
 10
115.5225407302
 20
175.5236857313
 10
115.5120371633
 20
175.5280797481
 10
115.5010394797
 20
175.5323751443
 10
115.4895963331
 20
175.5365541516
 10
115.477853685
 20
175.5405634653
 10
115.4658076988
 20
175.5444009116
 10
115.4534622109
 20
175.5480686643
 10
115.4409746924
 20
175.5515199399
 10
115.428343324
 20
175.5547519655
 10
115.415569925
 20
175.5577675139
 10
115.4028174245
 20
175.5605281209
 10
115.3900860903
 20
175.5630305207
 10
115.3773756547
 20
175.5652779791
 10
115.3648482436
 20
175.5672418289
 10
115.3525062017
 20
175.5689184372
 10
115.3403471844
 20
175.5703114369
 10
115.3285262841
 20
175.5714030598
 10
115.3170478322
 20
175.5721894455
 10
115.3059074974
 20
175.5726744543
 10
115.2952473786
 20
175.5728519
 10
115.285114842
 20
175.5727197202
 10
115.2754625213
 20
175.5722799773
 10
115.2662904166
 20
175.5715326711
  0
LINE
  5
448
100
AcDbEntity
  8
ASSI
100
AcDbLine
 62
7
  6
CONTINUOUS
 10
120.1089140405
 20
172.598527336
 11
118.6783151105
 21
173.3138268009
  0
LINE
  5
449
100
AcDbEntity
  8
RACCORDO
100
AcDbLine
 62
7
  6
CONTINUOUS
 10
115.5422114753
 20
175.5145485308
 11
117.1292538638
 21
174.7210273365
  0
LINE
  5
44A
100
AcDbEntity
  8
RACCORDO
100
AcDbLine
 62
7
  6
CONTINUOUS
 10
119.572720128
 20
173.4992942044
 11
121.1597625165
 21
172.7057730101
  0
LINE
  5
44B
100
AcDbEntity
  8
RACCORDO
100
AcDbLine
 62
7
  6
CONTINUOUS
 10
115.6296146802
 20
175.8877057746
 11
117.6802243456
 21
174.8624009419
  0
LINE
  5
44C
100
AcDbEntity
  8
RACCORDO
100
AcDbLine
 62
7
  6
CONTINUOUS
 10
119.6601233329
 20
173.8724514482
 11
121.7107329984
 21
172.8471466155
  0
LWPOLYLINE
  5
44D
100
AcDbEntity
  8
RACCORDO
100
AcDbPolyline
 62
7
  6
CONTINUOUS
 90
15
 70
0
 10
117.6802243456
 20
174.8624009419
 10
117.6892406111
 20
174.8577132833
 10
117.697575799
 20
174.8530270431
 10
117.7052299095
 20
174.8483422214
 10
117.7122298086
 20
174.8436388262
 10
117.7185486301
 20
174.8389368494
 10
117.7241057754
 20
174.8342962664
 10
117.7288914874
 20
174.8297178636
 10
117.7329155231
 20
174.8252008545
 10
117.7361265544
 20
174.8208028553
 10
117.7385141671
 20
174.8165253902
 10
117.7400887755
 20
174.812366935
 10
117.7408302948
 20
174.8083805321
 10
117.7407280535
 20
174.8045683854
 10
117.7404478891
 20
174.8030662767
  0
LWPOLYLINE
  5
44E
100
AcDbEntity
  8
RACCORDO
100
AcDbPolyline
 62
7
  6
CONTINUOUS
 90
15
 70
0
 10
121.7107329984
 20
172.8471466155
 10
121.7197492639
 20
172.8424589569
 10
121.7280844518
 20
172.8377727168
 10
121.7357385622
 20
172.833087895
 10
121.7427384613
 20
172.8283844998
 10
121.7490572829
 20
172.823682523
 10
121.7546144281
 20
172.81904194
 10
121.7594001401
 20
172.8144635372
 10
121.7634241758
 20
172.8099465282
 10
121.7666352072
 20
172.8055485289
 10
121.7690228199
 20
172.8012710639
 10
121.7705974282
 20
172.7971126086
 10
121.7713389476
 20
172.7931262057
 10
121.7712367063
 20
172.7893140591
 10
121.7709565419
 20
172.7878119504
  0
LWPOLYLINE
  5
44F
100
AcDbEntity
  8
RACCORDO
100
AcDbPolyline
 62
7
  6
CONTINUOUS
 90
25
 70
0
 10
123.8837974964
 20
128.2570920397
 10
123.8713315215
 20
128.2436105599
 10
123.8586390187
 20
128.2302217538
 10
123.8457186373
 20
128.2169357519
 10
123.83256581
 20
128.2037628422
 10
123.8191833277
 20
128.1907128734
 10
123.8055807574
 20
128.1777956627
 10
123.7917578246
 20
128.1650222723
 10
123.7777135838
 20
128.1524024446
 10
123.7634558591
 20
128.1399449175
 10
123.7489845512
 20
128.1276611477
 10
123.7342991155
 20
128.1155614544
 10
123.719405787
 20
128.1036541618
 10
123.7043046555
 20
128.0919513547
 10
123.6889955782
 20
128.0804641261
 10
123.6734833663
 20
128.069201075
 10
123.6577684584
 20
128.0581752434
 10
123.6418510736
 20
128.047398672
 10
123.625734481
 20
128.0368808075
 10
123.6094195727
 20
128.0266359346
 10
123.5929070526
 20
128.0166773762
 10
123.5761985762
 20
128.0070162414
 10
123.5592957079
 20
127.9976684124
 10
123.5421998153
 20
127.9886488921
 10
123.5249108453
 20
127.9799715586
  0
LINE
  5
450
100
AcDbEntity
  8
ASSI
100
AcDbLine
 62
7
  6
CONTINUOUS
 10
129.5164994286
 20
133.6668510396
 11
125.3604741927
 21
131.5421312454
  0
LINE
  5
451
100
AcDbEntity
  8
RACCORDO
100
AcDbLine
 62
7
  6
CONTINUOUS
 10
120.324328561
 20
129.5262100852
 11
120.1413271863
 21
129.4378488985
  0
LINE
  5
452
100
AcDbEntity
  8
RACCORDO
100
AcDbLine
 62
7
  6
CONTINUOUS
 10
113.8739368676
 20
175.4294342636
 11
115.2662904166
 21
175.5715326711
  0
LINE
  5
453
100
AcDbEntity
  8
RACCORDO
100
AcDbLine
 62
7
  6
CONTINUOUS
 10
119.7235004589
 20
176.071367542
 11
118.3885507442
 21
175.9351275556
  0
LINE
  5
454
100
AcDbEntity
  8
RACCORDO
100
AcDbLine
 62
7
  6
CONTINUOUS
 10
113.4034479368
 20
175.7456551179
 11
115.3536936215
 21
175.944689915
  0
LINE
  5
455
100
AcDbEntity
  8
0
100
AcDbLine
 62
7
  6
CONTINUOUS
 10
112.0177050226
 20
176.2428084722
 11
116.6630607841
 21
176.7168961467
  0
LWPOLYLINE
  5
456
100
AcDbEntity
  8
RACCORDO
100
AcDbPolyline
 62
7
  6
CONTINUOUS
 90
25
 70
0
 10
118.3885507442
 20
175.9351275556
 10
118.3793786395
 20
175.9343802495
 10
118.3697263188
 20
175.9339405065
 10
118.3595937822
 20
175.9338083268
 10
118.3489336634
 20
175.9339857724
 10
118.3377933286
 20
175.9344707813
 10
118.3263148767
 20
175.9352571669
 10
118.3144939765
 20
175.9363487899
 10
118.3023349591
 20
175.9377417896
 10
118.2899929172
 20
175.9394183978
 10
118.2774655062
 20
175.9413822476
 10
118.2647550705
 20
175.943629706
 10
118.2520237363
 20
175.9461321058
 10
118.2392712359
 20
175.9488927128
 10
118.2264978368
 20
175.9519082613
 10
118.2138664684
 20
175.9551402868
 10
118.2013789499
 20
175.9585915624
 10
118.1890334621
 20
175.9622593151
 10
118.1769874758
 20
175.9660967615
 10
118.1652448277
 20
175.9701060751
 10
118.1538016812
 20
175.9742850824
 10
118.1428039976
 20
175.9785804786
 10
118.1323004306
 20
175.9829744955
 10
118.1222423266
 20
175.9874849013
 10
118.1126296856
 20
175.992111696
  0
LWPOLYLINE
  5
457
100
AcDbEntity
  8
RACCORDO
100
AcDbPolyline
 62
7
  6
CONTINUOUS
 90
25
 70
0
 10
115.3536936215
 20
175.944689915
 10
115.3628657262
 20
175.9454372212
 10
115.3725180469
 20
175.9458769641
 10
115.3826505835
 20
175.9460091438
 10
115.3933107023
 20
175.9458316982
 10
115.4044510371
 20
175.9453466893
 10
115.415929489
 20
175.9445603037
 10
115.4277503893
 20
175.9434686808
 10
115.4399094066
 20
175.942075681
 10
115.4522514485
 20
175.9403990728
 10
115.4647788596
 20
175.938435223
 10
115.4774892952
 20
175.9361877646
 10
115.4902206294
 20
175.9336853648
 10
115.5029731299
 20
175.9309247578
 10
115.5157465289
 20
175.9279092093
 10
115.5283778973
 20
175.9246771838
 10
115.5408654158
 20
175.9212259082
 10
115.5532109036
 20
175.9175581555
 10
115.5652568899
 20
175.9137207092
 10
115.576999538
 20
175.9097113955
 10
115.5884426846
 20
175.9055323882
 10
115.5994403682
 20
175.901236992
 10
115.6099439351
 20
175.8968429751
 10
115.6200020391
 20
175.8923325693
 10
115.6296146802
 20
175.8877057746
  0
LINE
  5
458
100
AcDbEntity
  8
RACCORDO
100
AcDbLine
 62
7
  6
CONTINUOUS
 10
116.8620738792
 20
177.2832868115
 11
118.1707428966
 21
177.3671401624
  0
LINE
  5
459
100
AcDbEntity
  8
ASSI
100
AcDbLine
 62
7
  6
CONTINUOUS
 10
118.438972092
 20
176.4948377051
 11
119.4333475181
 21
176.5537269837
  0
LWPOLYLINE
  5
45A
100
AcDbEntity
  8
0
100
AcDbPolyline
 62
7
  6
CONTINUOUS
 90
7
 70
0
 10
119.8096859604
 20
176.0713971018
 10
119.7957374178
 20
176.0726445817
 10
119.7816225921
 20
176.073391099
 10
119.7673414834
 20
176.0736366537
 10
119.7528940916
 20
176.0733812458
 10
119.7382804168
 20
176.0726248752
 10
119.7235004589
 20
176.071367542
  0
LWPOLYLINE
  5
45B
100
AcDbEntity
  8
0
100
AcDbPolyline
 62
7
  6
CONTINUOUS
 90
5
 70
0
 10
119.9292665582
 20
176.0367652715
 10
119.9095308289
 20
176.0458637647
 10
119.8776772674
 20
176.0574635272
 10
119.8443956446
 20
176.0659746396
 10
119.8096859604
 20
176.0713971018
  0
LWPOLYLINE
  5
45C
100
AcDbEntity
  8
ASSI
100
AcDbPolyline
 62
7
  6
CONTINUOUS
 90
58
 70
0
 10
116.4083558639
 20
178.564754109
 10
116.3888004747
 20
178.5742676299
 10
116.3687648576
 20
178.5834981763
 10
116.3482490125
 20
178.5924457481
 10
116.3272369992
 20
178.6011165667
 10
116.3057447579
 20
178.6095044107
 10
116.2838201103
 20
178.6175906167
 10
116.2614620936
 20
178.6253745131
 10
116.2386716706
 20
178.6328567715
 10
116.2154995514
 20
178.6400207434
 10
116.1919448861
 20
178.6468657201
 10
116.1680085247
 20
178.6533924104
 10
116.1437437269
 20
178.6595862918
 10
116.1191497615
 20
178.6654466235
 10
116.0942273597
 20
178.6709741464
 10
116.0690319756
 20
178.6761565614
 10
116.0435630013
 20
178.6809931001
 10
116.0178210445
 20
178.685484531
 10
115.9918633828
 20
178.6896208603
 10
115.9656895358
 20
178.6934012973
 10
115.9392999839
 20
178.6968266328
 10
115.9127534454
 20
178.6998892451
 10
115.8860495708
 20
178.7025883266
 10
115.8591887096
 20
178.704924685
 10
115.832230629
 20
178.7068931216
 10
115.8051751124
 20
178.7084928174
 10
115.7780223764
 20
178.7097245914
 10
115.7508328374
 20
178.710585703
 10
115.7236064136
 20
178.7110753267
 10
115.6963431867
 20
178.711194288
 10
115.6691038194
 20
178.7109423221
 10
115.6418883646
 20
178.7103186032
 10
115.6146967692
 20
178.709323957
 10
115.5875895362
 20
178.7079605969
 10
115.5605668535
 20
178.7062277017
 10
115.5336285332
 20
178.7041260925
 10
115.5068345148
 20
178.7016604455
 10
115.4801851196
 20
178.6988299501
 10
115.4536800263
 20
178.695635417
 10
115.4273782102
 20
178.692083954
 10
115.4012801242
 20
178.6881747665
 10
115.3753853155
 20
178.6839086493
 10
115.3497514017
 20
178.6792950946
 10
115.3243789637
 20
178.6743333289
 10
115.2992674207
 20
178.6690241259
 10
115.2744726473
 20
178.6633792987
 10
115.2499953488
 20
178.6573981002
 10
115.2258348201
 20
178.6510812775
 10
115.2020448196
 20
178.6444428861
 10
115.1786261726
 20
178.63748221
 10
115.1555780538
 20
178.630199965
 10
115.1329517469
 20
178.6226123547
 10
115.1107481911
 20
178.6147186992
 10
115.0889664471
 20
178.6065196784
 10
115.0676549806
 20
178.5980335356
 10
115.046829947
 20
178.5892663519
 10
115.0264751908
 20
178.5802120462
 10
115.0065907123
 20
178.5708706186
  0
LWPOLYLINE
  5
45D
100
AcDbEntity
  8
ASSI
100
AcDbPolyline
 62
7
  6
CONTINUOUS
 90
14
 70
0
 10
125.7767689494
 20
173.6140403689
 10
125.7720902283
 20
173.6163665556
 10
125.7466934477
 20
173.6285461074
 10
125.7216352507
 20
173.6398189591
 10
125.6968966665
 20
173.650217143
 10
125.672491647
 20
173.6597560418
 10
125.6484425764
 20
173.6684480659
 10
125.6247411897
 20
173.6763188876
 10
125.6013993287
 20
173.6833840036
 10
125.5784378565
 20
173.6896567833
 10
125.5558611739
 20
173.6951600803
 10
125.5336808496
 20
173.6999124946
 10
125.5119154001
 20
173.7039277014
 10
125.4905790228
 20
173.7072220993
  0
LINE
  5
45E
100
AcDbEntity
  8
RACCORDO
100
AcDbLine
 62
7
  6
CONTINUOUS
 10
124.9759240327
 20
172.5604645224
 11
123.6987732569
 21
173.1990399103
  0
LINE
  5
45F
100
AcDbEntity
  8
RACCORDO
100
AcDbLine
 62
7
  6
CONTINUOUS
 10
116.6630607841
 20
176.7168961467
 11
118.1126296856
 21
175.992111696
  0
LINE
  5
460
100
AcDbEntity
  8
DRAFT
100
AcDbLine
 62
7
  6
CONTINUOUS
 10
116.5216394279
 20
177.1070217144
 11
118.0955833614
 21
176.3200497477
  0
LINE
  5
461
100
AcDbEntity
  8
DRAFT
100
AcDbLine
 62
7
  6
CONTINUOUS
 10
123.7158195811
 20
173.5099316378
 11
125.2897635146
 21
172.7229596711
  0
LINE
  5
462
100
AcDbEntity
  8
DRAFT
100
AcDbLine
 62
7
  6
CONTINUOUS
 10
116.8620738792
 20
177.2832868115
 11
118.438972092
 21
176.4948377051
  0
LINE
  5
463
100
AcDbEntity
  8
DRAFT
100
AcDbLine
 62
7
  6
CONTINUOUS
 10
124.0653954961
 20
173.6816260031
 11
125.6422937088
 21
172.8931768967
  0
LINE
  5
464
100
AcDbEntity
  8
0
100
AcDbLine
 62
253
  6
CONTINUOUS
 10
124.4636918863
 20
173.7012718284
 11
119.7235004589
 21
176.071367542
  0
LINE
  5
465
100
AcDbEntity
  8
0
100
AcDbLine
 62
7
  6
CONTINUOUS
 10
119.9293354839
 20
176.0367482152
 11
124.5880230758
 21
173.7074044193
  0
LINE
  5
466
100
AcDbEntity
  8
ASSI
100
AcDbLine
 62
253
  6
CONTINUOUS
 10
126.3933666854
 20
173.255828268
 11
125.4905790228
 21
173.7072220993
  0
LINE
  5
467
100
AcDbEntity
  8
ASSI
100
AcDbLine
 62
253
  6
CONTINUOUS
 10
119.6776240209
 20
176.6136996002
 11
118.1707428966
 21
177.3671401624
  0
LINE
  5
468
100
AcDbEntity
  8
RACCORDO
100
AcDbLine
 62
7
  6
CONTINUOUS
 10
126.44415116
 20
173.2803492665
 11
125.7769294409
 21
173.6139601261
  0
LINE
  5
469
100
AcDbEntity
  8
RACCORDO
100
AcDbLine
 62
7
  6
CONTINUOUS
 10
119.7198643904
 20
176.6424926513
 11
118.332173202
 21
177.3363382455
  0
LINE
  5
46A
100
AcDbEntity
  8
ASSI
100
AcDbLine
 62
7
  6
CONTINUOUS
 10
116.4083558639
 20
178.564754109
 11
116.5501918786
 21
178.4938361017
  0
LINE
  5
46B
100
AcDbEntity
  8
ASSI
100
AcDbLine
 62
7
  6
CONTINUOUS
 10
128.7242487392
 20
172.4068076714
 11
129.5042664094
 21
172.0167988362
  0
LINE
  5
46C
100
AcDbEntity
  8
RACCORDO
100
AcDbLine
 62
253
  6
CONTINUOUS
 10
128.1846617072
 20
172.7957901543
 11
126.8365796729
 21
173.4698311714
  0
LINE
  5
46D
100
AcDbEntity
  8
RACCORDO
100
AcDbLine
 62
253
  6
CONTINUOUS
 10
118.0153824287
 20
177.8804297936
 11
116.6673003944
 21
178.5544708107
  0
LINE
  5
46E
100
AcDbEntity
  8
RACCORDO
100
AcDbLine
 62
7
  6
CONTINUOUS
 10
128.5259236757
 20
172.8141656088
 11
127.1778416414
 21
173.4882066259
  0
LINE
  5
46F
100
AcDbEntity
  8
RACCORDO
100
AcDbLine
 62
7
  6
CONTINUOUS
 10
118.3449408534
 20
177.9046570199
 11
116.9968588192
 21
178.578698037
  0
LWPOLYLINE
  5
470
100
AcDbEntity
  8
RACCORDO
100
AcDbPolyline
 62
7
  6
CONTINUOUS
 90
15
 70
0
 10
123.6987732569
 20
173.1990399103
 10
123.6897569914
 20
173.2037275689
 10
123.6814218035
 20
173.2084138091
 10
123.6737676931
 20
173.2130986308
 10
123.666767794
 20
173.217802026
 10
123.6604489724
 20
173.2225040028
 10
123.6548918271
 20
173.2271445858
 10
123.6501061151
 20
173.2317229886
 10
123.6460820795
 20
173.2362399977
 10
123.6428710481
 20
173.2406379969
 10
123.6404834354
 20
173.244915462
 10
123.6389088271
 20
173.2490739172
 10
123.6381673077
 20
173.2530603201
 10
123.638269549
 20
173.2568724668
 10
123.6385497134
 20
173.2583745755
  0
LWPOLYLINE
  5
471
100
AcDbEntity
  8
ASSI
100
AcDbPolyline
 62
7
  6
CONTINUOUS
 90
30
 70
0
 10
129.5164994286
 20
132.3447730901
 10
129.5351822839
 20
132.3547153294
 10
129.5532908952
 20
132.3648927074
 10
129.5708252626
 20
132.3753052243
 10
129.5877975482
 20
132.3859609575
 10
129.6041955899
 20
132.3968518295
 10
129.6199829009
 20
132.4079536074
 10
129.6351581215
 20
132.4192667609
 10
129.6497226114
 20
132.4307908203
 10
129.6636439638
 20
132.4425001438
 10
129.6769207466
 20
132.454395144
 10
129.6895543918
 20
132.4664754084
 10
129.7015167889
 20
132.4787140576
 10
129.7128064432
 20
132.4911114443
 10
129.7234248493
 20
132.5036672158
 10
129.7333483807
 20
132.5163534348
 10
129.74257549
 20
132.5291703917
 10
129.7511077245
 20
132.5421177961
 10
129.7589260995
 20
132.5551668391
 10
129.7660290254
 20
132.5683177471
 10
129.7724180918
 20
132.5815702938
 10
129.7780790825
 20
132.5948949914
 10
129.7830103765
 20
132.6082920006
 10
129.7872135949
 20
132.6217611607
 10
129.7906793852
 20
132.6352725021
 10
129.7934061055
 20
132.6488261185
 10
129.7953953978
 20
132.6624219162
 10
129.7966428357
 20
132.6760296437
 10
129.7971467675
 20
132.6896493273
 10
129.797158675
 20
132.6920999543
  0
LWPOLYLINE
  5
472
100
AcDbEntity
  8
RACCORDO
100
AcDbPolyline
 62
253
  6
CONTINUOUS
 90
25
 70
0
 10
120.0763655191
 20
126.3148483816
 10
120.0809418212
 20
126.3172210016
 10
120.0857845151
 20
126.3201089295
 10
120.0904620047
 20
126.3233043652
 10
120.0949677483
 20
126.3268028396
 10
120.0992954442
 20
126.3305994598
 10
120.1034390395
 20
126.3346889158
 10
120.1073927393
 20
126.3390654882
 10
120.1111510138
 20
126.3437230559
 10
120.1147086068
 20
126.348655105
 10
120.1180605426
 20
126.3538547374
 10
120.1212021333
 20
126.359314681
 10
120.124128985
 20
126.3650272997
 10
120.1268370044
 20
126.3709846038
 10
120.129322404
 20
126.3771782614
 10
120.1315817077
 20
126.3835996102
 10
120.1336117557
 20
126.3902396693
 10
120.1354097088
 20
126.3970891521
 10
120.1369730523
 20
126.4041384789
 10
120.1382995999
 20
126.4113777905
 10
120.1393874962
 20
126.4187969622
 10
120.1402352198
 20
126.4263856175
 10
120.1408415848
 20
126.4341331431
 10
120.1412057434
 20
126.4420287033
 10
120.1413271863
 20
126.4500612555
  0
LINE
  5
473
100
AcDbEntity
  8
ASSI
100
AcDbLine
 62
7
  6
CONTINUOUS
 10
129.5164994286
 20
132.3447730901
 11
125.3604741927
 21
130.1929280318
  0
LINE
  5
474
100
AcDbEntity
  8
RACCORDO
100
AcDbLine
 62
253
  6
CONTINUOUS
 10
123.8837974964
 20
128.2570920397
 11
120.1413271863
 21
126.4500612555
  0
LINE
  5
475
100
AcDbEntity
  8
RACCORDO
100
AcDbLine
 62
7
  6
CONTINUOUS
 10
123.5249108453
 20
127.9799715586
 11
120.0763655191
 21
126.3148483816
  0
LWPOLYLINE
  5
476
100
AcDbEntity
  8
RACCORDO
100
AcDbPolyline
 62
253
  6
CONTINUOUS
 90
40
 70
0
 10
120.1413271863
 20
126.4500612555
 10
120.1340352692
 20
126.4466779631
 10
120.1264781529
 20
126.4434416675
 10
120.1186676298
 20
126.4403575994
 10
120.1106152794
 20
126.437430535
 10
120.1023343015
 20
126.4346654703
 10
120.0938396657
 20
126.4320674863
 10
120.0851455491
 20
126.4296408911
 10
120.0762650745
 20
126.4273893203
 10
120.0672122549
 20
126.4253163294
 10
120.0580013905
 20
126.4234252001
 10
120.0486471432
 20
126.42171895
 10
120.0391644445
 20
126.4202003045
 10
120.0295683808
 20
126.4188716771
 10
120.0198741333
 20
126.4177351671
 10
120.0100970486
 20
126.4167925736
 10
120.0002526239
 20
126.4160453916
 10
119.9903564876
 20
126.4154948087
 10
119.9804243418
 20
126.415141699
 10
119.9704719437
 20
126.4149866232
 10
119.9605150797
 20
126.4150298279
 10
119.9505695448
 20
126.4152712451
 10
119.940651115
 20
126.4157104924
 10
119.9307755257
 20
126.4163468735
 10
119.9209584457
 20
126.4171793794
 10
119.9112154491
 20
126.4182066895
 10
119.9015619916
 20
126.4194271747
 10
119.8920133889
 20
126.420838899
 10
119.8825847886
 20
126.4224396231
 10
119.8732911482
 20
126.424226808
 10
119.8641472133
 20
126.4261976182
 10
119.8551674902
 20
126.4283489275
 10
119.8463662236
 20
126.4306773231
 10
119.8377573763
 20
126.4331791114
 10
119.829354603
 20
126.4358503245
 10
119.821171236
 20
126.4386867242
 10
119.8132202651
 20
126.441683808
 10
119.8055143053
 20
126.4448368199
 10
119.7980655778
 20
126.4481407587
 10
119.7908858983
 20
126.4515903829
  0
LWPOLYLINE
  5
477
100
AcDbEntity
  8
RACCORDO
100
AcDbPolyline
 62
7
  6
CONTINUOUS
 90
25
 70
0
 10
120.0763655191
 20
126.3148483816
 10
120.0678581805
 20
126.3109354068
 10
120.0592062489
 20
126.307342192
 10
120.0504244086
 20
126.3040751867
 10
120.041574265
 20
126.3011543916
 10
120.0326254211
 20
126.2985665705
 10
120.0234513565
 20
126.29628299
 10
120.013951513
 20
126.2943014302
 10
120.0042543725
 20
126.2926711453
 10
119.9945766566
 20
126.2914316862
 10
119.9850733617
 20
126.2905857371
 10
119.9756228428
 20
126.290105494
 10
119.9660276766
 20
126.2899840765
 10
119.9561645064
 20
126.2902432828
 10
119.946196296
 20
126.2909020394
 10
119.9363517087
 20
126.2919472235
 10
119.9267550702
 20
126.2933482893
 10
119.9173047369
 20
126.295103076
 10
119.9078861489
 20
126.2972303491
 10
119.8984523294
 20
126.2997497995
 10
119.8890830627
 20
126.3026493026
 10
119.8798533009
 20
126.3059071002
 10
119.8707755613
 20
126.3095163628
 10
119.8618563924
 20
126.3134725545
 10
119.8558597954
 20
126.3163716324
  0
LWPOLYLINE
  5
478
100
AcDbEntity
  8
RACCORDO
100
AcDbPolyline
 62
253
  6
CONTINUOUS
 90
24
 70
0
 10
123.8188358292
 20
126.8228410602
 10
123.8199662677
 20
126.8233966218
 10
123.8252938257
 20
126.8262877607
 10
123.8304345922
 20
126.8295384713
 10
123.835380229
 20
126.8331434809
 10
123.8401227142
 20
126.8370969423
 10
123.8446543554
 20
126.8413924428
 10
123.8489678024
 20
126.8460230152
 10
123.8530560586
 20
126.8509811487
 10
123.856912493
 20
126.8562588011
 10
123.8605308504
 20
126.8618474121
 10
123.8639052617
 20
126.867737917
 10
123.8670302537
 20
126.8739207613
 10
123.8699007576
 20
126.8803859164
 10
123.8725121174
 20
126.8871228958
 10
123.8748600975
 20
126.8941207722
 10
123.8769408895
 20
126.9013681949
 10
123.8787511184
 20
126.9088534086
 10
123.8802878478
 20
126.9165642722
 10
123.8815485853
 20
126.9244882788
 10
123.8825312858
 20
126.9326125754
 10
123.8832343556
 20
126.9409239845
 10
123.8836566541
 20
126.949409025
 10
123.8837974964
 20
126.9580539341
  0
LINE
  5
479
100
AcDbEntity
  8
RACCORDO
100
AcDbLine
 62
253
  6
CONTINUOUS
 10
125.3604741927
 20
127.6710589889
 11
123.8837974964
 21
126.9580539341
  0
LINE
  5
47A
100
AcDbEntity
  8
RACCORDO
100
AcDbLine
 62
7
  6
CONTINUOUS
 10
125.2943379847
 20
127.5352789946
 11
123.8188358292
 21
126.8228410602
  0
LWPOLYLINE
  5
47B
100
AcDbEntity
  8
RACCORDO
100
AcDbPolyline
 62
253
  6
CONTINUOUS
 90
84
 70
0
 10
123.8837974964
 20
126.9580539341
 10
123.8641224807
 20
126.9488164885
 10
123.8439383807
 20
126.9398580673
 10
123.8232610241
 20
126.9311856782
 10
123.802106762
 20
126.9228061572
 10
123.7804920482
 20
126.9147260006
 10
123.7584333969
 20
126.9069513795
 10
123.735947849
 20
126.8994883176
 10
123.7130532253
 20
126.8923427473
 10
123.689767698
 20
126.8855203437
 10
123.6661096105
 20
126.8790264749
 10
123.6420973992
 20
126.8728661952
 10
123.6177498239
 20
126.8670443152
 10
123.5930859707
 20
126.8615653977
 10
123.5681251447
 20
126.85643373
 10
123.5428867998
 20
126.851653313
 10
123.5173906329
 20
126.8472278833
 10
123.4916566802
 20
126.8431609241
 10
123.4657052073
 20
126.8394556394
 10
123.4395565842
 20
126.8361149355
 10
123.4132312523
 20
126.8331414217
 10
123.3867498188
 20
126.830537425
 10
123.3601330198
 20
126.8283049839
 10
123.3334017107
 20
126.8264458472
 10
123.3065768367
 20
126.8249614709
 10
123.2796794315
 20
126.8238530176
 10
123.2527305417
 20
126.8231213533
 10
123.2257512159
 20
126.82276705
 10
123.1987625435
 20
126.8227903871
 10
123.1717857076
 20
126.8231913489
 10
123.1448419078
 20
126.8239696205
 10
123.1179522901
 20
126.8251245891
 10
123.0911378751
 20
126.8266553495
 10
123.0644196113
 20
126.828560706
 10
123.0378183901
 20
126.8308391705
 10
123.0113550854
 20
126.8334889569
 10
122.9850504828
 20
126.836507984
 10
122.958925226
 20
126.8398938801
 10
122.9329997368
 20
126.8436439961
 10
122.9072942572
 20
126.8477554042
 10
122.8818288793
 20
126.8522248933
 10
122.856623595
 20
126.8570489572
 10
122.8316982136
 20
126.8622238047
 10
122.8070723006
 20
126.8677453709
 10
122.7827651001
 20
126.8736093383
 10
122.7587955872
 20
126.8798111292
 10
122.7351824965
 20
126.8863458993
 10
122.7119443685
 20
126.8932085203
 10
122.6890994681
 20
126.9003935983
 10
122.6666657287
 20
126.9078954899
 10
122.6446606783
 20
126.9157083307
 10
122.6231014918
 20
126.9238260226
 10
122.6020050192
 20
126.9322422244
 10
122.5813878278
 20
126.9409503302
 10
122.5612661246
 20
126.9499434947
 10
122.5416557049
 20
126.9592146548
 10
122.5225718888
 20
126.9687565638
 10
122.5040295708
 20
126.9785617747
 10
122.4860432442
 20
126.9886226272
 10
122.4686270349
 20
126.9989312238
 10
122.4517946336
 20
127.0094794609
 10
122.4355592519
 20
127.0202590552
 10
122.4199335726
 20
127.0312615815
 10
122.4049297916
 20
127.0424784521
 10
122.3905596384
 20
127.0539009029
 10
122.3768343992
 20
127.0655199673
 10
122.3637648619
 20
127.0773265132
 10
122.3513612824
 20
127.0893112705
 10
122.3396333498
 20
127.1014648719
 10
122.32859022
 20
127.1137778291
 10
122.318240528
 20
127.1262405201
 10
122.3085924033
 20
127.1388431623
 10
122.2996534279
 20
127.1515758516
 10
122.2914306143
 20
127.1644285922
 10
122.2839303847
 20
127.1773913379
 10
122.2771585952
 20
127.190453967
 10
122.2711205442
 20
127.2036062682
 10
122.2658209744
 20
127.21683792
 10
122.2612640485
 20
127.2301385304
 10
122.2574533385
 20
127.2434976626
 10
122.2543918203
 20
127.2569048708
 10
122.252081886
 20
127.2703496801
 10
122.2505253457
 20
127.2838215798
 10
122.2497234251
 20
127.2973099973
  0
LWPOLYLINE
  5
47C
100
AcDbEntity
  8
RACCORDO
100
AcDbPolyline
 62
7
  6
CONTINUOUS
 90
82
 70
0
 10
123.8188358292
 20
126.8228410602
 10
123.7962968079
 20
126.8123046912
 10
123.7733804551
 20
126.8022674692
 10
123.7501075402
 20
126.7927225553
 10
123.7265098411
 20
126.7836678158
 10
123.702593264
 20
126.7750916
 10
123.6783388211
 20
126.7669761341
 10
123.6537274437
 20
126.759307554
 10
123.6288112177
 20
126.7520953773
 10
123.6036832317
 20
126.7453569617
 10
123.5783903814
 20
126.7390928885
 10
123.5529269673
 20
126.7332905351
 10
123.5273132958
 20
126.7279448033
 10
123.5015851172
 20
126.7230536125
 10
123.4757465053
 20
126.718608785
 10
123.4497713306
 20
126.7145990436
 10
123.4236617449
 20
126.7110200063
 10
123.3974519577
 20
126.707872052
 10
123.3711645565
 20
126.7051534457
 10
123.3448296321
 20
126.7028628174
 10
123.3184535594
 20
126.700996589
 10
123.2920240283
 20
126.6995511049
 10
123.2655498022
 20
126.6985253056
 10
123.2390574386
 20
126.697918973
 10
123.2125615094
 20
126.6977313397
 10
123.1860852051
 20
126.6979616908
 10
123.1596404459
 20
126.698609322
 10
123.1332249012
 20
126.699674571
 10
123.1068520574
 20
126.7011580235
 10
123.0805434611
 20
126.7030598858
 10
123.0543085476
 20
126.7053812895
 10
123.0281715333
 20
126.7081222452
 10
123.0021431468
 20
126.7112841018
 10
122.9762121385
 20
126.7148719326
 10
122.950380196
 20
126.7188907382
 10
122.9246819315
 20
126.7233407809
 10
122.899154037
 20
126.7282208588
 10
122.8738408053
 20
126.7335268563
 10
122.8487323918
 20
126.7392656508
 10
122.8237835067
 20
126.7454555202
 10
122.7989654673
 20
126.7521154821
 10
122.7743476973
 20
126.7592395888
 10
122.7500281784
 20
126.7668089045
 10
122.7260665285
 20
126.7748109688
 10
122.7024346007
 20
126.783261999
 10
122.6790942622
 20
126.7921868255
 10
122.6560123746
 20
126.8016144841
 10
122.6332628441
 20
126.8115324499
 10
122.6109610512
 20
126.8219030994
 10
122.5891187479
 20
126.8327306579
 10
122.5677513622
 20
126.8440183599
 10
122.5469628407
 20
126.8557186454
 10
122.5267650945
 20
126.8678281673
 10
122.507159684
 20
126.8803503818
 10
122.4882196215
 20
126.8932402626
 10
122.4699100171
 20
126.9065223117
 10
122.4522718735
 20
126.9201684862
 10
122.4354687143
 20
126.9340394993
 10
122.4195497297
 20
126.9480636893
 10
122.4044326036
 20
126.9622820611
 10
122.3900718849
 20
126.9767141861
 10
122.3764357395
 20
126.991374224
 10
122.3635413439
 20
127.0062255337
 10
122.3514181368
 20
127.0212080429
 10
122.3400638567
 20
127.036290873
 10
122.3294540453
 20
127.0514713512
 10
122.3195806859
 20
127.0667249002
 10
122.3104640475
 20
127.0819746213
 10
122.3020523516
 20
127.097258794
 10
122.29424919
 20
127.1127298236
 10
122.2870124566
 20
127.1284838633
 10
122.2804031634
 20
127.1444016789
 10
122.2744816421
 20
127.1603109563
 10
122.2692698234
 20
127.176076626
 10
122.2647091398
 20
127.1917910489
 10
122.2607413484
 20
127.2076208186
 10
122.2573623784
 20
127.2235966679
 10
122.254588893
 20
127.2396557994
 10
122.252418892
 20
127.2558278533
 10
122.2508590726
 20
127.2721109713
 10
122.2499188278
 20
127.288471517
 10
122.2496042254
 20
127.3048908782
  0
ELLIPSE
  5
47D
100
AcDbEntity
  8
ASSI
100
AcDbEllipse
 62
7
  6
CONTINUOUS
 10
125.7784529925
 20
173.3776752849
 30
0.0
 11
0.9980068092
 21
-0.2399287748
 31
0.0
 40
0.2630210944
 41
1.9259507046
 42
2.4104144461
  0
ELLIPSE
  5
47E
100
AcDbEntity
  8
RACCORDO
100
AcDbEllipse
 62
7
  6
CONTINUOUS
 10
124.1230642537
 20
169.4259706382
 30
0.0
 11
-0.1118429119
 21
0.2236040717
 31
0.0
 40
0.6123910759
 41
-0.6848833758
 42
0.0085373337
  0
ELLIPSE
  5
47F
100
AcDbEntity
  8
RACCORDO
100
AcDbEllipse
 62
7
  6
CONTINUOUS
 10
108.0010296426
 20
177.4869879437
 30
0.0
 11
-0.1118429119
 21
0.2236040717
 31
0.0
 40
0.6123910759
 41
-0.6848833758
 42
0.0085373337
  0
ELLIPSE
  5
480
100
AcDbEntity
  8
ASSI
100
AcDbEllipse
 62
7
  6
CONTINUOUS
 10
128.7971596283
 20
170.3410883575
 30
0.0
 11
0.999997666
 21
0.0042935901
 31
0.0
 40
0.5031994763
 41
-0.7701054048
 42
-0.0021651645
  0
ELLIPSE
  5
481
100
AcDbEntity
  8
RACCORDO
100
AcDbEllipse
 62
7
  6
CONTINUOUS
 10
109.0616359583
 20
176.9566847858
 30
0.0
 11
-0.1118429119
 21
0.2236040717
 31
0.0
 40
0.6123910759
 41
-2.2556797026
 42
-0.6848833758
  0
ELLIPSE
  5
482
100
AcDbEntity
  8
RACCORDO
100
AcDbEllipse
 62
7
  6
CONTINUOUS
 10
125.1836705694
 20
168.8956674803
 30
0.0
 11
-0.1118429119
 21
0.2236040717
 31
0.0
 40
0.6123910759
 41
-2.2556797026
 42
-0.6848833758
  0
ELLIPSE
  5
483
100
AcDbEntity
  8
RACCORDO
100
AcDbEllipse
 62
7
  6
CONTINUOUS
 10
125.1836705694
 20
127.7594608006
 30
0.0
 11
-0.1118429119
 21
0.2236040717
 31
0.0
 40
0.6123910759
 41
-3.1501491744
 42
-2.2556797026
  0
ELLIPSE
  5
484
100
AcDbEntity
  8
RACCORDO
100
AcDbEllipse
 62
7
  6
CONTINUOUS
 10
126.8365796729
 20
172.8203121186
 30
0.0
 11
0.3449653854
 21
0.6660096921
 31
0.0
 40
0.6229838795
 41
0.0088762019
 42
0.6936054221
  0
ELLIPSE
  5
485
100
AcDbEntity
  8
RACCORDO
100
AcDbEllipse
 62
7
  6
CONTINUOUS
 10
116.6673003944
 20
177.9049517579
 30
0.0
 11
0.3262229419
 21
0.6753856277
 31
0.0
 40
0.6016116119
 41
-0.008239327
 42
0.6764898932
  0
ELLIPSE
  5
486
100
AcDbEntity
  8
RACCORDO
100
AcDbEllipse
 62
7
  6
CONTINUOUS
 10
127.7661094605
 20
135.0215850163
 30
0.0
 11
0.2999993291
 21
-0.0012771105
 31
0.0
 40
0.4967868151
 41
-0.7780473351
 42
0.0021199273
  0
ELLIPSE
  5
487
100
AcDbEntity
  8
ASSI
100
AcDbEllipse
 62
7
  6
CONTINUOUS
 10
128.7971596283
 20
134.0142593635
 30
0.0
 11
0.9999977637
 21
-0.0042570351
 31
0.0
 40
0.4967868151
 41
-0.7658300304
 42
0.7875130039
  0
ELLIPSE
  5
488
100
AcDbEntity
  8
RACCORDO
100
AcDbEllipse
 62
7
  6
CONTINUOUS
 10
120.1475249376
 20
161.5243080669
 30
0.0
 11
-0.1092649321
 21
0.2270579893
 31
0.0
 40
0.6121735965
 41
-2.2369946326
 42
-0.669228889
  0
ELLIPSE
  5
489
100
AcDbEntity
  8
RACCORDO
100
AcDbEllipse
 62
7
  6
CONTINUOUS
 10
120.1475249376
 20
130.2674709091
 30
0.0
 11
-0.1098985543
 21
0.2275784384
 31
0.0
 40
0.6085747011
 41
-3.2553715609
 42
-2.2415613143
  0
ELLIPSE
  5
48A
100
AcDbEntity
  8
RACCORDO
100
AcDbEllipse
 62
7
  6
CONTINUOUS
 10
118.0153824287
 20
177.2309107407
 30
0.0
 11
0.3262229419
 21
0.6753856277
 31
0.0
 40
0.6016116119
 41
5.3888788736
 42
6.9596752004
  0
ELLIPSE
  5
48B
100
AcDbEntity
  8
RACCORDO
100
AcDbEllipse
 62
7
  6
CONTINUOUS
 10
128.1846617072
 20
172.1462711015
 30
0.0
 11
0.3449653854
 21
0.6660096921
 31
0.0
 40
0.6229838795
 41
5.4059944025
 42
6.9767907293
  0
ELLIPSE
  5
48C
100
AcDbEntity
  8
RACCORDO
100
AcDbEllipse
 62
7
  6
CONTINUOUS
 10
103.1376803378
 20
170.0292303668
 30
0.0
 11
-0.1098985543
 21
0.2275784384
 31
0.0
 40
0.6085747011
 41
-0.6677344043
 42
0.11377396
  0
ELLIPSE
  5
48D
100
AcDbEntity
  8
RACCORDO
100
AcDbEllipse
 62
7
  6
CONTINUOUS
 10
117.9806442194
 20
176.6176755458
 30
0.0
 11
0.347971138
 21
0.7204113362
 31
0.0
 40
0.6016116119
 41
-0.0082393402
 42
0.3274240428
  0
ELLIPSE
  5
48E
100
AcDbEntity
  8
ASSI
100
AcDbEllipse
 62
7
  6
CONTINUOUS
 10
118.7199557185
 20
176.9069239219
 30
0.0
 11
0.9980068092
 21
-0.2399287748
 31
0.0
 40
0.2630210944
 41
-0.7133215392
 42
-0.2288577977
  0
ENDSEC
  0
SECTION
  2
OBJECTS
  0
DICTIONARY
  5
C
100
AcDbDictionary
280
0
281
1
  3
ACAD_GROUP
350
D
  3
ACAD_MLINESTYLE
350
17
  3
ACAD_LAYOUT
350
1A
  3
ACAD_PLOTSETTINGS
350
19
  3
ACAD_PLOTSTYLENAME
350
E
  0
DICTIONARY
  5
D
102
{ACAD_REACTORS
330
C
102
}
100
AcDbDictionary
280
0
281
1
  0
ACDBDICTIONARYWDFLT
  5
E
102
{ACAD_REACTORS
330
C
102
}
100
AcDbDictionary
281
1
  3
Normal
350
F
100
AcDbDictionaryWithDefault
340
F
  0
DICTIONARY
  5
17
102
{ACAD_REACTORS
330
C
102
}
100
AcDbDictionary
280
0
281
1
  3
Standard
350
18
  0
DICTIONARY
  5
19
102
{ACAD_REACTORS
330
C
102
}
100
AcDbDictionary
281
1
  0
DICTIONARY
  5
1A
102
{ACAD_REACTORS
330
C
102
}
100
AcDbDictionary
281
1
  3
Model
350
48F
  3
Layout1
350
490
  0
ACDBPLACEHOLDER
  5
F
102
{ACAD_REACTORS
330
E
102
}
  0
MLINESTYLE
  5
18
102
{ACAD_REACTORS
330
17
102
}
100
AcDbMlineStyle
  2
STANDARD
 70
0
  3

 62
256
 51
90.0
 52
90.0
 71
2
 49
0.5
 62
256
  6
BYLAYER
 49
-0.5
 62
256
  6
BYLAYER
  0
LAYOUT
  5
48F
102
{ACAD_REACTORS
330
1A
102
}
100
AcDbPlotSettings
  1

  2
none_device
  4
ISO_A4_(297.00_x_210.00_MM)
  6

 40
0.0
 41
0.0
 42
0.0
 43
0.0
 44
297.0
 45
210.0
 46
0.0
 47
0.0
 48
0.0
 49
0.0
140
0.0
141
0.0
142
1.0
143
1.0
 70
1024
 72
1
 73
0
 74
0
  7

 75
0
147
1.0
148
0.0
149
0.0
100
AcDbLayout
  1
Model
 70
0
 71
0
 10
0.0
 20
0.0
 11
297.0
 21
210.0
 12
0.0
 22
0.0
 32
0.0
 14
0.0
 24
0.0
 34
0.0
 15
0.0
 25
0.0
 35
0.0
146
0.0
 13
0.0
 23
0.0
 33
0.0
 16
1.0
 26
0.0
 36
0.0
 17
0.0
 27
1.0
 37
0.0
 76
0
330
20D
345
0
346
0
  0
LAYOUT
  5
490
102
{ACAD_REACTORS
330
1A
102
}
100
AcDbPlotSettings
  1

  2
none_device
  4
ISO_A4_(297.00_x_210.00_MM)
  6

 40
0.0
 41
0.0
 42
0.0
 43
0.0
 44
297.0
 45
210.0
 46
0.0
 47
0.0
 48
0.0
 49
0.0
140
0.0
141
0.0
142
1.0
143
1.0
 70
0
 72
1
 73
0
 74
0
  7

 75
0
147
1.0
148
0.0
149
0.0
100
AcDbLayout
  1
Layout1
 70
0
 71
1
 10
0.0
 20
0.0
 11
297.0
 21
210.0
 12
0.0
 22
0.0
 32
0.0
 14
0.0
 24
0.0
 34
0.0
 15
0.0
 25
0.0
 35
0.0
146
0.0
 13
0.0
 23
0.0
 33
0.0
 16
1.0
 26
0.0
 36
0.0
 17
0.0
 27
1.0
 37
0.0
 76
0
330
20E
345
0
346
0
  0
ENDSEC
  0
EOF
