  0
SECTION
  2
HEADER
  9
$ACADVER
  1
AC1021
  9
$DWGCODEPAGE
  3
ANSI_1252
  9
$EXTMAX
 10
210.0
 20
297.0
 30
0.0
  9
$EXTMIN
 10
0.0
 20
0.0
 30
0.0
  9
$LIMMIN
 10
0.0
 20
0.0
  9
$LIMMAX
 10
210.0
 20
297.0
  9
$VIEWCTR
 10
105.0
 20
148.5
  9
$VIEWSIZE
 40
297.0
  9
$CLAYER
  8
0
  9
$LTSCALE
 40
19.36
  9
$CELTYPE
  6
BYLAYER
  9
$DIMSCALE
 40
1.0
  9
$DIMASZ
 40
3.0
  9
$DIMEXO
 40
0.5
  9
$DIMDLI
 40
13.376
  9
$DIMEXE
 40
1.5
  9
$DIMCEN
 40
3.168
  9
$DIMLFAC
 40
1.0
  9
$DIMBLK
  1
_FILLED
  9
$DIMALT
 70
0
  9
$DIMALTF
 40
0.0393700787
  9
$DIMTXT
 40
3.0
  9
$DIMTOL
 70
1
  9
$DIMLIM
 70
0
  9
$DIMTFAC
 40
1.0
  9
$DIMTP
 40
0.01
  9
$DIMTM
 40
0.01
  9
$DIMGAP
 40
0.625
  9
$DIMDSEP
 70
44
  9
$AUNITS
 70
0
  9
$PDMODE
 70
3
  9
$PDSIZE
 40
3.0
  9
$HANDSEED
  5
51A
  9
$TILEMODE
 70
1
  9
$MEASUREMENT
 70
1
  9
$INSUNITS
 70
4
  0
ENDSEC
  0
SECTION
  2
CLASSES
  0
CLASS
  1
ACDBDICTIONARYWDFLT
  2
AcDbDictionaryWithDefault
  3
AutoCAD 2000
 90
0
 91
1
280
0
281
0
  0
CLASS
  1
ACDBPLACEHOLDER
  2
AcDbPlaceHolder
  3
AutoCAD 2000
 90
0
 91
1
280
0
281
0
  0
CLASS
  1
LAYOUT
  2
AcDbLayout
  3
AutoCAD 2000
 90
0
 91
0
280
0
281
0
  0
ENDSEC
  0
SECTION
  2
TABLES
  0
TABLE
  2
VPORT
  5
8
100
AcDbSymbolTable
 70
2
  0
VPORT
  5
1F4
100
AcDbSymbolTableRecord
100
AcDbViewportTableRecord
  2
*ACTIVE
 70
0
 10
0.0
 20
0.0
 11
1.0
 21
1.0
 12
105.0
 22
148.5
 13
0.0
 23
0.0
 14
1.0
 24
1.0
 15
0.0
 25
0.0
 16
0.0
 26
0.0
 36
1.0
 17
0.0
 27
0.0
 37
0.0
 40
297.0
 41
0.7070707071
 42
50.0
 43
0.0
 44
0.0
 50
0.0
 51
0.0
 71
0
 72
100
 73
1
 74
1
 75
0
 76
0
 77
0
 78
0
  0
ENDTAB
  0
TABLE
  2
LTYPE
  5
5
100
AcDbSymbolTable
 70
6
  0
LTYPE
  5
14
100
AcDbSymbolTableRecord
100
AcDbLinetypeTableRecord
  2
BYBLOCK
 70
0
  3

 72
65
 73
0
 40
0.0
  0
LTYPE
  5
15
100
AcDbSymbolTableRecord
100
AcDbLinetypeTableRecord
  2
BYLAYER
 70
0
  3

 72
65
 73
0
 40
0.0
  0
LTYPE
  5
16
100
AcDbSymbolTableRecord
100
AcDbLinetypeTableRecord
  2
CONTINUOUS
 70
64
  3
Solid line
 72
65
 73
0
 40
0.0
  0
LTYPE
  5
1F5
100
AcDbSymbolTableRecord
100
AcDbLinetypeTableRecord
  2
CENTER
 70
64
  3
____ _ ____ _ ____ _ ____ _ ____ _ ____ _ ____
 72
65
 73
4
 40
0.6
 49
0.375
 74
0
 49
-0.075
 74
0
 49
0.075
 74
0
 49
-0.075
 74
0
  0
LTYPE
  5
1F6
100
AcDbSymbolTableRecord
100
AcDbLinetypeTableRecord
  2
HIDDEN
 70
64
  3
- - - - - - - - - - - - - - - - - - - -
 72
65
 73
2
 40
0.2
 49
0.1
 74
0
 49
-0.1
 74
0
  0
LTYPE
  5
1F7
100
AcDbSymbolTableRecord
100
AcDbLinetypeTableRecord
  2
PHANTOM
 70
64
  3
_____ _ _ _____ _ _ _____ _ _ _____
 72
65
 73
6
 40
0.8
 49
0.45
 74
0
 49
-0.05
 74
0
 49
0.1
 74
0
 49
-0.05
 74
0
 49
0.1
 74
0
 49
-0.05
 74
0
  0
LTYPE
  5
1F8
100
AcDbSymbolTableRecord
100
AcDbLinetypeTableRecord
  2
DOT
 70
64
  3
. . . . . . . . . . . . . . . . . . . .
 72
65
 73
2
 40
0.2
 49
0.1
 74
0
 49
-0.1
 74
0
  0
LTYPE
  5
1F9
100
AcDbSymbolTableRecord
100
AcDbLinetypeTableRecord
  2
DASHED
 70
64
  3
- - - - - - - - - - - - - - - - - - - -
 72
65
 73
2
 40
0.2
 49
0.1
 74
0
 49
-0.1
 74
0
  0
ENDTAB
  0
TABLE
  2
LAYER
  5
2
100
AcDbSymbolTable
 70
36
  0
LAYER
  5
10
100
AcDbSymbolTableRecord
100
AcDbLayerTableRecord
  2
0
 70
0
 62
7
  6
CONTINUOUS
370
-3
390
F
  0
LAYER
  5
1FA
100
AcDbSymbolTableRecord
100
AcDbLayerTableRecord
  2
DEFAULT_1
 70
0
 62
7
  6
CENTER
370
-3
390
F
  0
LAYER
  5
1FB
100
AcDbSymbolTableRecord
100
AcDbLayerTableRecord
  2
DEFAULT_2
 70
0
 62
7
  6
HIDDEN
370
-3
390
F
  0
LAYER
  5
1FC
100
AcDbSymbolTableRecord
100
AcDbLayerTableRecord
  2
DEFAULT_3
 70
0
 62
7
  6
PHANTOM
370
-3
390
F
  0
LAYER
  5
1FD
100
AcDbSymbolTableRecord
100
AcDbLayerTableRecord
  2
ASSI
 70
0
 62
7
  6
CONTINUOUS
370
-3
390
F
  0
LAYER
  5
1FE
100
AcDbSymbolTableRecord
100
AcDbLayerTableRecord
  2
COLOR5
 70
0
 62
7
  6
CONTINUOUS
370
-3
390
F
  0
LAYER
  5
1FF
100
AcDbSymbolTableRecord
100
AcDbLayerTableRecord
  2
COORDINATE
 70
0
 62
7
  6
CONTINUOUS
370
-3
390
F
  0
LAYER
  5
200
100
AcDbSymbolTableRecord
100
AcDbLayerTableRecord
  2
COORD_ORIGINE
 70
0
 62
7
  6
CONTINUOUS
370
-3
390
F
  0
LAYER
  5
201
100
AcDbSymbolTableRecord
100
AcDbLayerTableRecord
  2
COSMETICHE
 70
0
 62
7
  6
CONTINUOUS
370
-3
390
F
  0
LAYER
  5
202
100
AcDbSymbolTableRecord
100
AcDbLayerTableRecord
  2
COSMETICI
 70
0
 62
7
  6
CONTINUOUS
370
-3
390
F
  0
LAYER
  5
203
100
AcDbSymbolTableRecord
100
AcDbLayerTableRecord
  2
CURVE
 70
0
 62
7
  6
CONTINUOUS
370
-3
390
F
  0
LAYER
  5
204
100
AcDbSymbolTableRecord
100
AcDbLayerTableRecord
  2
CURVE1
 70
0
 62
7
  6
CONTINUOUS
370
-3
390
F
  0
LAYER
  5
205
100
AcDbSymbolTableRecord
100
AcDbLayerTableRecord
  2
DRAFT
 70
0
 62
7
  6
CONTINUOUS
370
-3
390
F
  0
LAYER
  5
206
100
AcDbSymbolTableRecord
100
AcDbLayerTableRecord
  2
IGES_SCRITTE
 70
0
 62
7
  6
CONTINUOUS
370
-3
390
F
  0
LAYER
  5
207
100
AcDbSymbolTableRecord
100
AcDbLayerTableRecord
  2
IMPORT
 70
0
 62
7
  6
CONTINUOUS
370
-3
390
F
  0
LAYER
  5
208
100
AcDbSymbolTableRecord
100
AcDbLayerTableRecord
  2
INTF_1
 70
0
 62
7
  6
CONTINUOUS
370
-3
390
F
  0
LAYER
  5
209
100
AcDbSymbolTableRecord
100
AcDbLayerTableRecord
  2
INTF_2
 70
0
 62
7
  6
CONTINUOUS
370
-3
390
F
  0
LAYER
  5
20A
100
AcDbSymbolTableRecord
100
AcDbLayerTableRecord
  2
INTF_YELLOW
 70
0
 62
7
  6
CONTINUOUS
370
-3
390
F
  0
LAYER
  5
20B
100
AcDbSymbolTableRecord
100
AcDbLayerTableRecord
  2
LAY0001
 70
0
 62
7
  6
CONTINUOUS
370
-3
390
F
  0
LAYER
  5
20C
100
AcDbSymbolTableRecord
100
AcDbLayerTableRecord
  2
NOTE
 70
0
 62
7
  6
CONTINUOUS
370
-3
390
F
  0
LAYER
  5
20D
100
AcDbSymbolTableRecord
100
AcDbLayerTableRecord
  2
PIANI
 70
0
 62
7
  6
CONTINUOUS
370
-3
390
F
  0
LAYER
  5
20E
100
AcDbSymbolTableRecord
100
AcDbLayerTableRecord
  2
PIANI_DI_RIFERIMENTO
 70
0
 62
7
  6
CONTINUOUS
370
-3
390
F
  0
LAYER
  5
20F
100
AcDbSymbolTableRecord
100
AcDbLayerTableRecord
  2
PIANI_ORIGINE
 70
0
 62
7
  6
CONTINUOUS
370
-3
390
F
  0
LAYER
  5
210
100
AcDbSymbolTableRecord
100
AcDbLayerTableRecord
  2
PUNTI
 70
0
 62
7
  6
CONTINUOUS
370
-3
390
F
  0
LAYER
  5
211
100
AcDbSymbolTableRecord
100
AcDbLayerTableRecord
  2
RACCORDO
 70
0
 62
7
  6
CONTINUOUS
370
-3
390
F
  0
LAYER
  5
212
100
AcDbSymbolTableRecord
100
AcDbLayerTableRecord
  2
RGB__255__255__255__
 70
0
 62
7
  6
CONTINUOUS
370
-3
390
F
  0
LAYER
  5
213
100
AcDbSymbolTableRecord
100
AcDbLayerTableRecord
  2
RGB____0____0____0__
 70
0
 62
7
  6
CONTINUOUS
370
-3
390
F
  0
LAYER
  5
214
100
AcDbSymbolTableRecord
100
AcDbLayerTableRecord
  2
SMUSSO
 70
0
 62
7
  6
CONTINUOUS
370
-3
390
F
  0
LAYER
  5
215
100
AcDbSymbolTableRecord
100
AcDbLayerTableRecord
  2
SNAPLINE
 70
0
 62
7
  6
CONTINUOUS
370
-3
390
F
  0
LAYER
  5
216
100
AcDbSymbolTableRecord
100
AcDbLayerTableRecord
  2
SUPERFICI
 70
0
 62
7
  6
CONTINUOUS
370
-3
390
F
  0
LAYER
  5
217
100
AcDbSymbolTableRecord
100
AcDbLayerTableRecord
  2
TRASH
 70
0
 62
7
  6
CONTINUOUS
370
-3
390
F
  0
LAYER
  5
218
100
AcDbSymbolTableRecord
100
AcDbLayerTableRecord
  2
XSEC_DATUMS
 70
0
 62
7
  6
CONTINUOUS
370
-3
390
F
  0
ENDTAB
  0
TABLE
  2
STYLE
  5
3
100
AcDbSymbolTable
 70
1
  0
STYLE
  5
11
100
AcDbSymbolTableRecord
100
AcDbTextStyleTableRecord
  2
STANDARD
 70
0
 40
0.0
 41
0.8
 50
0.0
 71
0
 42
0.2
  3
txt
  4

  0
STYLE
  5
219
100
AcDbSymbolTableRecord
100
AcDbTextStyleTableRecord
  2
TEXTSTYLE_1
 70
0
 40
0.0
 41
0.8
 50
0.0
 71
0
 42
0.2
  3
gdt
  4

  0
ENDTAB
  0
TABLE
  2
VIEW
  5
6
100
AcDbSymbolTable
 70
0
  0
ENDTAB
  0
TABLE
  2
UCS
  5
7
100
AcDbSymbolTable
 70
0
  0
ENDTAB
  0
TABLE
  2
APPID
  5
9
100
AcDbSymbolTable
 70
1
  0
APPID
  5
21A
100
AcDbSymbolTableRecord
100
AcDbRegAppTableRecord
  2
ACAD
 70
0
  0
ENDTAB
  0
TABLE
  2
BLOCK_RECORD
  5
1
100
AcDbSymbolTable
 70
0
  0
BLOCK_RECORD
  5
21B
100
AcDbSymbolTableRecord
100
AcDbBlockTableRecord
  2
*Model_Space
  0
BLOCK_RECORD
  5
21C
100
AcDbSymbolTableRecord
100
AcDbBlockTableRecord
  2
*Paper_Space
  0
ENDTAB
  0
TABLE
  2
DIMSTYLE
  5
A
100
AcDbSymbolTable
 70
1
100
AcDbDimStyleTable
 71
0
  0
DIMSTYLE
105
21D
100
AcDbSymbolTableRecord
100
AcDbDimStyleTableRecord
  2
STANDARD
 70
0
  3

  4

 40
1.0
 41
3.0
 42
0.5
 43
0.38
 44
1.5
 45
0.0
 46
0.0
 47
0.01
 48
0.01
140
3.0
141
0.09
142
0.0
143
25.4
144
1.0
145
0.0
146
1.0
147
0.625
 71
1.0
 72
0.0
 73
0
 74
0
 75
0
 76
0
 77
1
 78
8
170
0
171
2
172
0
173
0
174
0
175
0
176
0
177
0
178
0
270
2
271
2
272
2
273
2
274
2
275
0
280
0
281
0
282
0
283
1
284
8
285
0
286
0
287
3
288
0
340
11
278
44
  0
ENDTAB
  0
ENDSEC
  0
SECTION
  2
BLOCKS
  0
BLOCK
  5
20
100
AcDbEntity
  8
0
100
AcDbBlockBegin
  2
*Model_Space
 70
0
 10
0.0
 20
0.0
 30
0.0
  3
*Model_Space
  1

  0
ENDBLK
  5
21
100
AcDbEntity
  8
0
100
AcDbBlockEnd
  0
BLOCK
  5
1C
100
AcDbEntity
  8
0
100
AcDbBlockBegin
  2
*Paper_Space
 70
0
 10
0.0
 20
0.0
 30
0.0
  3
*Paper_Space
  1

  0
ENDBLK
  5
1D
100
AcDbEntity
  8
0
100
AcDbBlockEnd
  0
ENDSEC
  0
SECTION
  2
ENTITIES
  0
LWPOLYLINE
  5
21E
100
AcDbEntity
  8
0
100
AcDbPolyline
 62
7
  6
CONTINUOUS
 90
98
 70
0
 10
-14.7439981538
 20
-4.1788120185
 10
-14.7212487989
 20
-4.1001547187
 10
-14.6942804496
 20
-4.0236601994
 10
-14.6632612645
 20
-3.9493672271
 10
-14.6283594026
 20
-3.8773145685
 10
-14.5897430226
 20
-3.8075409901
 10
-14.5475802834
 20
-3.7400852585
 10
-14.5020393438
 20
-3.6749861403
 10
-14.4532883625
 20
-3.612282402
 10
-14.4014954984
 20
-3.5520128102
 10
-14.3468289103
 20
-3.4942161316
 10
-14.2894567571
 20
-3.4389311326
 10
-14.2155996927
 20
-3.3745750926
 10
-14.1382320581
 20
-3.3141316936
 10
-14.0576646388
 20
-3.2576725829
 10
-13.9742082203
 20
-3.2052694074
 10
-13.8881735882
 20
-3.1569938144
 10
-13.799871528
 20
-3.1129174508
 10
-13.7096128252
 20
-3.0731119639
 10
-13.6177082655
 20
-3.0376490007
 10
-13.5244686342
 20
-3.0066002083
 10
-13.430204717
 20
-2.9800372339
 10
-13.3352272994
 20
-2.9580317246
 10
-13.239847167
 20
-2.9406553274
 10
-13.137492839
 20
-2.9272083871
 10
-13.0351471625
 20
-2.9189765971
 10
-12.9329243672
 20
-2.9157764184
 10
-12.8309386828
 20
-2.9174243125
 10
-12.7293043391
 20
-2.9237367404
 10
-12.6281355658
 20
-2.9345301634
 10
-12.5275465927
 20
-2.9496210428
 10
-12.4276516493
 20
-2.9688258398
 10
-12.3285649655
 20
-2.9919610157
 10
-12.230400771
 20
-3.0188430317
 10
-12.1332732955
 20
-3.049288349
 10
-12.0372967688
 20
-3.0831134288
 10
-11.9425854205
 20
-3.1201347325
 10
-11.8492534803
 20
-3.1601687212
 10
-11.7574151781
 20
-3.2030318562
 10
-11.6453179575
 20
-3.2601167013
 10
-11.5358090256
 20
-3.321218289
 10
-11.4289845319
 20
-3.3862527614
 10
-11.3249406258
 20
-3.4551362606
 10
-11.2237734567
 20
-3.5277849288
 10
-11.1255791741
 20
-3.6041149082
 10
-11.0304539274
 20
-3.6840423408
 10
-10.938493866
 20
-3.767483369
 10
-10.8497951394
 20
-3.8543541348
 10
-10.7644538969
 20
-3.9445707803
 10
-10.682566288
 20
-4.0380494478
 10
-10.6042284621
 20
-4.1347062794
 10
-10.5295365687
 20
-4.2344574173
 10
-10.4585867571
 20
-4.3372190036
 10
-10.3914751769
 20
-4.4429071805
 10
-10.3282979773
 20
-4.5514380901
 10
-10.2691513079
 20
-4.6627278746
 10
-10.2141313181
 20
-4.7766926761
 10
-10.1633341573
 20
-4.8932486369
 10
-10.1269451984
 20
-4.9852933742
 10
-10.0932804023
 20
-5.0786985332
 10
-10.0624696914
 20
-5.1733184987
 10
-10.0346429882
 20
-5.2690076551
 10
-10.0099302153
 20
-5.3656203871
 10
-9.9884612952
 20
-5.4630110793
 10
-9.9703661503
 20
-5.5610341162
 10
-9.9557747032
 20
-5.6595438826
 10
-9.9448168763
 20
-5.7583947629
 10
-9.9376225921
 20
-5.8574411419
 10
-9.9343217733
 20
-5.956537404
 10
-9.9350443422
 20
-6.0555379339
 10
-9.9399202213
 20
-6.1542971161
 10
-9.9490793332
 20
-6.2526693354
 10
-9.9626516004
 20
-6.3505089762
 10
-9.9807669453
 20
-6.4476704232
 10
-10.0035552905
 20
-6.544008061
 10
-10.0311465584
 20
-6.6393762742
 10
-10.0636706717
 20
-6.7336294474
 10
-10.0968356655
 20
-6.8164251873
 10
-10.1339127826
 20
-6.8979738593
 10
-10.1748048486
 20
-6.9780267317
 10
-10.219414689
 20
-7.0563350724
 10
-10.2676451296
 20
-7.1326501495
 10
-10.3193989959
 20
-7.2067232311
 10
-10.3745791137
 20
-7.2783055853
 10
-10.4330883086
 20
-7.3471484802
 10
-10.4948294061
 20
-7.4130031837
 10
-10.559705232
 20
-7.4756209641
 10
-10.6224578793
 20
-7.5304745687
 10
-10.6877354179
 20
-7.5821452137
 10
-10.7554608091
 20
-7.6304357072
 10
-10.8255570142
 20
-7.6751488574
 10
-10.8979469944
 20
-7.7160874725
 10
-10.972553711
 20
-7.7530543606
 10
-11.0493001253
 20
-7.7858523298
 10
-11.1281091986
 20
-7.8142841883
 10
-11.208903892
 20
-7.8381527443
 10
-11.291607167
 20
-7.8572608059
 10
-11.3761419848
 20
-7.8714111813
  0
LWPOLYLINE
  5
21F
100
AcDbEntity
  8
0
100
AcDbPolyline
 62
7
  6
CONTINUOUS
 90
85
 70
0
 10
-10.9404297163
 20
-7.4998954394
 10
-10.882761405
 20
-7.4569985911
 10
-10.827804608
 20
-7.4113314803
 10
-10.7755517635
 20
-7.3630631113
 10
-10.7259953095
 20
-7.3123624886
 10
-10.6791276844
 20
-7.2593986167
 10
-10.6349413261
 20
-7.2043404999
 10
-10.5934286729
 20
-7.1473571427
 10
-10.5505644523
 20
-7.0822053968
 10
-10.5109601507
 20
-7.015129097
 10
-10.4746054961
 20
-6.9463578225
 10
-10.4414902162
 20
-6.8761211525
 10
-10.4116040388
 20
-6.8046486662
 10
-10.3849366918
 20
-6.732169943
 10
-10.361477903
 20
-6.658914562
 10
-10.3396410951
 20
-6.5788964174
 10
-10.3213832719
 20
-6.4983550475
 10
-10.3065280805
 20
-6.4174095911
 10
-10.2948991683
 20
-6.3361791872
 10
-10.2863201824
 20
-6.2547829745
 10
-10.2806147701
 20
-6.173340092
 10
-10.2773150576
 20
-6.0726424053
 10
-10.2780886473
 20
-5.9721919806
 10
-10.2828774313
 20
-5.872125077
 10
-10.2916233019
 20
-5.7725779535
 10
-10.3042681514
 20
-5.6736868693
 10
-10.3207538719
 20
-5.5755880836
 10
-10.3410223558
 20
-5.4784178554
 10
-10.3650154953
 20
-5.3823124438
 10
-10.3950555879
 20
-5.2797967122
 10
-10.429253252
 20
-5.1787749287
 10
-10.4674842165
 20
-5.0793384092
 10
-10.5096242104
 20
-4.9815784697
 10
-10.5555489626
 20
-4.8855864263
 10
-10.605134202
 20
-4.7914535948
 10
-10.6582556576
 20
-4.6992712914
 10
-10.7147890582
 20
-4.609130832
 10
-10.7746101327
 20
-4.5211235326
 10
-10.8375946102
 20
-4.4353407092
 10
-10.9036182194
 20
-4.3518736779
 10
-10.9725566894
 20
-4.2708137546
 10
-11.0442857491
 20
-4.1922522553
 10
-11.1186811273
 20
-4.1162804961
 10
-11.195618553
 20
-4.0429897929
 10
-11.275515554
 20
-3.971999836
 10
-11.3577435786
 20
-3.9038656596
 10
-11.4421833067
 20
-3.8386333285
 10
-11.5287154181
 20
-3.7763489075
 10
-11.6172205929
 20
-3.7170584615
 10
-11.707579511
 20
-3.6608080552
 10
-11.7996728522
 20
-3.6076437537
 10
-11.8933812966
 20
-3.5576116216
 10
-11.988585524
 20
-3.5107577238
 10
-12.0766181804
 20
-3.4708704607
 10
-12.1661285434
 20
-3.4337201921
 10
-12.2574512007
 20
-3.3993662107
 10
-12.3509207403
 20
-3.3678678095
 10
-12.4468717497
 20
-3.3392842814
 10
-12.5171981679
 20
-3.3206688628
 10
-12.5887879488
 20
-3.3037063504
 10
-12.6614621969
 20
-3.2885264162
 10
-12.7350420163
 20
-3.2752587318
 10
-12.8093485113
 20
-3.2640329691
 10
-12.8842027863
 20
-3.2549787999
 10
-12.9594259454
 20
-3.2482258959
 10
-13.0348390931
 20
-3.2439039291
 10
-13.1102633334
 20
-3.2421425711
 10
-13.1855197708
 20
-3.2430714938
 10
-13.2604295095
 20
-3.2468203691
 10
-13.3348136537
 20
-3.2535188686
 10
-13.4084933078
 20
-3.2632966641
 10
-13.481289576
 20
-3.2762834276
 10
-13.5530235626
 20
-3.2926088308
 10
-13.6235163719
 20
-3.3124025454
 10
-13.6925891082
 20
-3.3357942434
 10
-13.7600628756
 20
-3.3629135964
 10
-13.8257587786
 20
-3.3938902763
 10
-13.8894979213
 20
-3.4288539549
 10
-13.9411454789
 20
-3.4612329123
 10
-13.9911963556
 20
-3.4965639512
 10
-14.0395460691
 20
-3.5349228053
 10
-14.086090137
 20
-3.576385208
 10
-14.1307240769
 20
-3.6210268931
 10
-14.1733434066
 20
-3.668923594
 10
-14.2138436437
 20
-3.7201510444
  0
LWPOLYLINE
  5
220
100
AcDbEntity
  8
RACCORDO
100
AcDbPolyline
 62
253
  6
CONTINUOUS
 90
8
 70
0
 10
-36.2987348266
 20
-20.0362844911
 10
-36.2924855433
 20
-20.1131733962
 10
-36.2802170469
 20
-20.1857653889
 10
-36.2618609245
 20
-20.2532966034
 10
-36.2374720002
 20
-20.3149159147
 10
-36.2070962036
 20
-20.3699765003
 10
-36.1706829836
 20
-20.4179762953
 10
-36.1584436208
 20
-20.4310461049
  0
LWPOLYLINE
  5
221
100
AcDbEntity
  8
RACCORDO
100
AcDbPolyline
 62
7
  6
CONTINUOUS
 90
3
 70
0
 10
-36.3189733755
 20
17.1402275513
 10
-36.3278964769
 20
17.04824284
 10
-36.329923148
 20
17.0064869797
  0
LINE
  5
222
100
AcDbEntity
  8
RACCORDO
100
AcDbLine
 62
253
  6
CONTINUOUS
 10
-36.280217328
 20
17.116287083
 11
-36.2924856646
 21
17.0280833877
  0
LWPOLYLINE
  5
223
100
AcDbEntity
  8
RACCORDO
100
AcDbPolyline
 62
253
  6
CONTINUOUS
 90
11
 70
0
 10
-35.8387782141
 20
18.0169710677
 10
-35.905674645
 20
17.9396085718
 10
-35.9686241154
 20
17.8561079456
 10
-36.027090178
 20
17.7682396726
 10
-36.0804993198
 20
17.6772303822
 10
-36.1284026381
 20
17.5838262795
 10
-36.1706831706
 20
17.4891840324
 10
-36.2070965392
 20
17.3944054012
 10
-36.2374724681
 20
17.3002528532
 10
-36.2618613621
 20
17.2073053287
 10
-36.280217328
 20
17.116287083
  0
LINE
  5
224
100
AcDbEntity
  8
RACCORDO
100
AcDbLine
 62
253
  6
CONTINUOUS
 10
-35.7687397308
 20
18.0871401616
 11
-35.8387782141
 21
18.0169710677
  0
LWPOLYLINE
  5
225
100
AcDbEntity
  8
RACCORDO
100
AcDbPolyline
 62
7
  6
CONTINUOUS
 90
13
 70
0
 10
-35.8245339479
 20
18.1664159957
 10
-35.8539269142
 20
18.1379625207
 10
-35.9225301267
 20
18.0628412164
 10
-35.9856230038
 20
17.9819751962
 10
-36.0432681045
 20
17.8967255852
 10
-36.0958398765
 20
17.8077628367
 10
-36.1436057999
 20
17.7154758165
 10
-36.1863667279
 20
17.6207861651
 10
-36.22395345
 20
17.5245452795
 10
-36.2562378944
 20
17.4274756698
 10
-36.2829686403
 20
17.3304611935
 10
-36.303921004
 20
17.2344849235
 10
-36.3189733755
 20
17.1402275513
  0
LINE
  5
226
100
AcDbEntity
  8
RACCORDO
100
AcDbLine
 62
7
  6
CONTINUOUS
 10
-33.1890521302
 20
20.6258549552
 11
-35.8252430825
 21
18.1657629545
  0
LINE
  5
227
100
AcDbEntity
  8
RACCORDO
100
AcDbLine
 62
253
  6
CONTINUOUS
 10
-32.9880234768
 20
20.6630604012
 11
-35.623181149
 21
18.2039326568
  0
LINE
  5
228
100
AcDbEntity
  8
RACCORDO
100
AcDbLine
 62
7
  6
CONTINUOUS
 10
-32.4523045353
 20
22.7038915209
 11
-26.7762907417
 21
27.260560751
  0
LINE
  5
229
100
AcDbEntity
  8
RACCORDO
100
AcDbLine
 62
253
  6
CONTINUOUS
 10
-32.3246128272
 20
22.7232162925
 11
-26.649340978
 21
27.2792898942
  0
LWPOLYLINE
  5
22A
100
AcDbEntity
  8
RACCORDO
100
AcDbPolyline
 62
253
  6
CONTINUOUS
 90
11
 70
0
 10
-26.649340978
 20
27.2792898942
 10
-26.6279905243
 20
27.2958109063
 10
-26.6057031726
 20
27.3114449564
 10
-26.5825308605
 20
27.3259327343
 10
-26.5584564715
 20
27.3390394009
 10
-26.5336396744
 20
27.3504235482
 10
-26.5084094141
 20
27.3597117303
 10
-26.4828502601
 20
27.3666660816
 10
-26.4570790759
 20
27.371039315
 10
-26.431466419
 20
27.3725886532
 10
-26.4061263647
 20
27.3711588872
  0
LINE
  5
22B
100
AcDbEntity
  8
RACCORDO
100
AcDbLine
 62
7
  6
CONTINUOUS
 10
-26.751296271
 20
27.2797153203
 11
-26.7762770678
 21
27.2605715443
  0
LWPOLYLINE
  5
22C
100
AcDbEntity
  8
RACCORDO
100
AcDbPolyline
 62
253
  6
CONTINUOUS
 90
6
 70
0
 10
-26.7762771564
 20
27.2605716555
 10
-26.7599270364
 20
27.2715018258
 10
-26.7352766617
 20
27.2816154913
 10
-26.7080691892
 20
27.2863527023
 10
-26.6791309837
 20
27.2855695753
 10
-26.649340978
 20
27.2792898942
  0
LINE
  5
22D
100
AcDbEntity
  8
RACCORDO
100
AcDbLine
 62
7
  6
CONTINUOUS
 10
-26.7002606043
 20
27.3133136497
 11
-26.751296271
 21
27.2797153203
  0
LINE
  5
22E
100
AcDbEntity
  8
RACCORDO
100
AcDbLine
 62
253
  6
CONTINUOUS
 10
-35.8802872572
 20
-20.4331936776
 11
-36.2987844752
 21
-20.0362975423
  0
LWPOLYLINE
  5
22F
100
AcDbEntity
  8
RACCORDO
100
AcDbPolyline
 62
7
  6
CONTINUOUS
 90
13
 70
0
 10
-36.1574356963
 20
-20.4320653232
 10
-35.8476707116
 20
-20.7328409434
 10
-35.2371600276
 20
-21.2715912459
 10
-34.5752579764
 20
-21.7909828086
 10
-33.8641629459
 20
-22.2900509122
 10
-33.1056760153
 20
-22.7681945843
 10
-32.3012550388
 20
-23.2249099911
 10
-31.4529916694
 20
-23.6593972976
 10
-30.5631444817
 20
-24.0707753789
 10
-29.6337591614
 20
-24.4582804543
 10
-28.6672329584
 20
-24.8211460202
 10
-27.6660583034
 20
-25.1585738781
 10
-26.7724290773
 20
-25.4298200877
  0
LINE
  5
230
100
AcDbEntity
  8
RACCORDO
100
AcDbLine
 62
7
  6
CONTINUOUS
 10
-36.1584436208
 20
-20.4310461049
 11
-36.1574221164
 21
-20.4320789816
  0
LWPOLYLINE
  5
231
100
AcDbEntity
  8
RACCORDO
100
AcDbPolyline
 62
253
  6
CONTINUOUS
 90
5
 70
0
 10
-36.2986519064
 20
-20.0362599929
 10
-36.3113933764
 20
-20.0204662656
 10
-36.3208978196
 20
-20.0039416131
 10
-36.3270558672
 20
-19.9868761895
 10
-36.3297966582
 20
-19.9694663724
  0
LWPOLYLINE
  5
232
100
AcDbEntity
  8
RACCORDO
100
AcDbPolyline
 62
7
  6
CONTINUOUS
 90
5
 70
0
 10
-36.3038871738
 20
-20.1600803573
 10
-36.2795683005
 20
-20.2378235427
 10
-36.2470830581
 20
-20.3096661283
 10
-36.206269535
 20
-20.3747777561
 10
-36.1584989751
 20
-20.4309748607
  0
LINE
  5
233
100
AcDbEntity
  8
RACCORDO
100
AcDbLine
 62
7
  6
CONTINUOUS
 10
-36.3199955729
 20
-20.0788659223
 11
-36.3038871738
 21
-20.1600803573
  0
LWPOLYLINE
  5
234
100
AcDbEntity
  8
RACCORDO
100
AcDbPolyline
 62
7
  6
CONTINUOUS
 90
3
 70
0
 10
-36.3299121223
 20
-19.9667825025
 10
-36.3285551549
 20
-19.9954317466
 10
-36.3199955729
 20
-20.0788659223
  0
LINE
  5
235
100
AcDbEntity
  8
RACCORDO
100
AcDbLine
 62
253
  6
CONTINUOUS
 10
-36.3851194926
 20
-17.3048698486
 11
-36.2987844752
 21
-20.0362975423
  0
LWPOLYLINE
  5
236
100
AcDbEntity
  8
RACCORDO
100
AcDbPolyline
 62
7
  6
CONTINUOUS
 90
10
 70
0
 10
-36.329989326
 20
17.0067314595
 10
-36.4506062937
 20
12.903562542
 10
-36.5443279845
 20
8.682420316
 10
-36.6066953719
 20
4.4875293374
 10
-36.6378580324
 20
0.3195332964
 10
-36.6379103303
 20
-3.8209239558
 10
-36.6068490849
 20
-7.9331270041
 10
-36.5445732242
 20
-12.016254846
 10
-36.4509267507
 20
-16.0693888703
 10
-36.3299681725
 20
-19.9675047936
  0
LWPOLYLINE
  5
237
100
AcDbEntity
  8
RACCORDO
100
AcDbPolyline
 62
253
  6
CONTINUOUS
 90
12
 70
0
 10
-36.2987844651
 20
16.9434308232
 10
-36.3851215862
 20
14.0500491615
 10
-36.4606479823
 20
11.0615120642
 10
-36.5231877756
 20
7.9787573707
 10
-36.5705181039
 20
4.7667769423
 10
-36.5993725768
 20
1.4627180113
 10
-36.6086431396
 20
-1.8248860073
 10
-36.5994366495
 20
-5.0954235398
 10
-36.5705893876
 20
-8.348980584
 10
-36.5232285081
 20
-11.4796361041
 10
-36.4606640839
 20
-14.4529068941
 10
-36.3851194926
 20
-17.3048698486
  0
LINE
  5
238
100
AcDbEntity
  8
RACCORDO
100
AcDbLine
 62
253
  6
CONTINUOUS
 10
-36.2924856646
 20
17.0280833877
 11
-36.2987348575
 21
16.9434390904
  0
LWPOLYLINE
  5
239
100
AcDbEntity
  8
RACCORDO
100
AcDbPolyline
 62
7
  6
CONTINUOUS
 90
13
 70
0
 10
-33.0588692357
 20
17.9887439703
 10
-33.0166722951
 20
18.0299399708
 10
-32.9761128506
 20
18.077670062
 10
-32.937190902
 20
18.131934244
 10
-32.8993913006
 20
18.1936723465
 10
-32.8632291952
 20
18.2619445398
 10
-32.8302500323
 20
18.3339313344
 10
-32.800586587
 20
18.409880251
 10
-32.7741060843
 20
18.4895437688
 10
-32.751955645
 20
18.5693598362
 10
-32.7345176429
 20
18.6481411025
 10
-32.7214097042
 20
18.7270749183
 10
-32.7126318291
 20
18.8061612837
  0
LINE
  5
23A
100
AcDbEntity
  8
DRAFT
100
AcDbLine
 62
7
  6
CONTINUOUS
 10
-30.8523432608
 20
20.9991705715
 11
-29.8825763201
 21
21.8739235078
  0
LINE
  5
23B
100
AcDbEntity
  8
RACCORDO
100
AcDbLine
 62
7
  6
CONTINUOUS
 10
-33.6824429482
 20
17.9369598606
 11
-32.7126318291
 21
18.8061612837
  0
LINE
  5
23C
100
AcDbEntity
  8
RACCORDO
100
AcDbLine
 62
253
  6
CONTINUOUS
 10
-31.0255219616
 20
22.348201062
 11
-25.6833414044
 21
27.0004298372
  0
LINE
  5
23D
100
AcDbEntity
  8
RACCORDO
100
AcDbLine
 62
253
  6
CONTINUOUS
 10
-30.8523432608
 20
22.1250299764
 11
-25.5101627036
 21
26.7772587517
  0
LINE
  5
23E
100
AcDbEntity
  8
RACCORDO
100
AcDbLine
 62
7
  6
CONTINUOUS
 10
-28.7361819112
 20
21.5429879475
 11
-25.129025834
 21
24.6842736302
  0
LINE
  5
23F
100
AcDbEntity
  8
RACCORDO
100
AcDbLine
 62
253
  6
CONTINUOUS
 10
-35.6965417601
 20
18.1496751077
 11
-35.7687397308
 21
18.0871401616
  0
LINE
  5
240
100
AcDbEntity
  8
RACCORDO
100
AcDbLine
 62
253
  6
CONTINUOUS
 10
-32.8147788261
 20
20.6130489783
 11
-32.0647788261
 21
21.2625680312
  0
LINE
  5
241
100
AcDbEntity
  8
RACCORDO
100
AcDbLine
 62
7
  6
CONTINUOUS
 10
-33.2775316534
 20
17.7993767618
 11
-33.0588692357
 21
17.9887439703
  0
LINE
  5
242
100
AcDbEntity
  8
0
100
AcDbLine
 62
7
  6
CONTINUOUS
 10
-26.198530214
 20
22.3981442425
 11
-25.7672756207
 21
22.7716216758
  0
LWPOLYLINE
  5
243
100
AcDbEntity
  8
RACCORDO
100
AcDbPolyline
 62
7
  6
CONTINUOUS
 90
28
 70
0
 10
-33.0141950636
 20
20.6687745766
 10
-32.3902912138
 20
21.2090797744
 10
-32.3807933755
 20
21.2168134854
 10
-32.3709692094
 20
21.2241269317
 10
-32.3608198095
 20
21.2310216694
 10
-32.3503440819
 20
21.2374961426
 10
-32.3395555929
 20
21.2435371662
 10
-32.3284411588
 20
21.2491498875
 10
-32.3170139632
 20
21.2543291594
 10
-32.3053271239
 20
21.2590463552
 10
-32.293377642
 20
21.263297043
 10
-32.2811685165
 20
21.2670856548
 10
-32.2687618621
 20
21.2703968601
 10
-32.2561704747
 20
21.2732255558
 10
-32.2433815584
 20
21.2755768451
 10
-32.2304188403
 20
21.2774507069
 10
-32.2172839119
 20
21.2788485333
 10
-32.2039751816
 20
21.2797689322
 10
-32.1905116028
 20
21.280207707
 10
-32.1768784708
 20
21.2801637908
 10
-32.1630904901
 20
21.2796382505
 10
-32.1492107272
 20
21.2786300901
 10
-32.1352362051
 20
21.277134388
 10
-32.1211699008
 20
21.2751560658
 10
-32.107083811
 20
21.2727088921
 10
-32.0930019348
 20
21.2697974566
 10
-32.0789002732
 20
21.2664171696
 10
-32.0647788261
 20
21.2625680312
  0
LWPOLYLINE
  5
244
100
AcDbEntity
  8
RACCORDO
100
AcDbPolyline
 62
253
  6
CONTINUOUS
 90
23
 70
0
 10
-25.5101627036
 20
26.7772587517
 10
-25.4946718006
 20
26.7905083573
 10
-25.4784932418
 20
26.8027776406
 10
-25.4616270272
 20
26.8140666017
 10
-25.4439474875
 20
26.8246264931
 10
-25.425580292
 20
26.8342060623
 10
-25.4069024492
 20
26.8420515513
 10
-25.3878954402
 20
26.8480994347
 10
-25.368577784
 20
26.852413238
 10
-25.3493820457
 20
26.8544297796
 10
-25.3303088315
 20
26.8540508142
 10
-25.3113575352
 20
26.8513745873
 10
-25.2929589038
 20
26.8461326534
 10
-25.2751375718
 20
26.838212075
 10
-25.2578689047
 20
26.8277257898
 10
-25.2415097457
 20
26.8147441654
 10
-25.2260983036
 20
26.799153737
 10
-25.2115963697
 20
26.7810679696
 10
-25.1982461611
 20
26.7608976259
 10
-25.1860998593
 20
26.7385455025
 10
-25.1751052828
 20
26.7141088029
 10
-25.1653481037
 20
26.6882899002
 10
-25.1568828446
 20
26.6609914385
  0
LWPOLYLINE
  5
245
100
AcDbEntity
  8
0
100
AcDbPolyline
 62
7
  6
CONTINUOUS
 90
13
 70
0
 10
-25.7672756207
 20
22.7716216758
 10
-25.762728242
 20
22.7754880642
 10
-25.7581853669
 20
22.7792076764
 10
-25.7536469953
 20
22.7827805126
 10
-25.7491116306
 20
22.7862076563
 10
-25.7445807694
 20
22.7894880239
 10
-25.740058902
 20
22.7926183646
 10
-25.7355460372
 20
22.7955985294
 10
-25.7310421662
 20
22.7984286673
 10
-25.7265517524
 20
22.8011059735
 10
-25.7220762835
 20
22.803629513
 10
-25.7176142718
 20
22.8060002207
 10
-25.7131657172
 20
22.8082180968
  0
LINE
  5
246
100
AcDbEntity
  8
RACCORDO
100
AcDbLine
 62
7
  6
CONTINUOUS
 10
-23.0189962859
 20
25.6818496813
 11
-28.6866198346
 21
20.9655948884
  0
LINE
  5
247
100
AcDbEntity
  8
RACCORDO
100
AcDbLine
 62
253
  6
CONTINUOUS
 10
-22.8910677306
 20
25.7013203002
 11
-28.5573495568
 21
20.986182008
  0
LWPOLYLINE
  5
248
100
AcDbEntity
  8
RACCORDO
100
AcDbPolyline
 62
253
  6
CONTINUOUS
 90
13
 70
0
 10
-25.6833414044
 20
27.0004298372
 10
-25.6639534478
 20
27.0164922957
 10
-25.6435860453
 20
27.031882011
 10
-25.6222862325
 20
27.0463353638
 10
-25.6000363082
 20
27.0596160952
 10
-25.5769871324
 20
27.0713684071
 10
-25.5534509574
 20
27.0811924712
 10
-25.5295162012
 20
27.0888366715
 10
-25.5052897642
 20
27.0940411216
 10
-25.4811072728
 20
27.096532171
 10
-25.4570766794
 20
27.0961309795
 10
-25.433316233
 20
27.0926635983
 10
-25.4217796233
 20
27.0897857953
  0
LINE
  5
249
100
AcDbEntity
  8
RACCORDO
100
AcDbLine
 62
7
  6
CONTINUOUS
 10
-25.1039497755
 20
25.8462789057
 11
-20.7876022568
 21
29.311416349
  0
LINE
  5
24A
100
AcDbEntity
  8
RACCORDO
100
AcDbLine
 62
253
  6
CONTINUOUS
 10
-25.1039497755
 20
25.6383155248
 11
-20.4702278473
 21
29.3582392069
  0
LINE
  5
24B
100
AcDbEntity
  8
RACCORDO
100
AcDbLine
 62
7
  6
CONTINUOUS
 10
-22.9844879943
 20
25.7088156204
 11
-23.0189810104
 21
25.6818622058
  0
LWPOLYLINE
  5
24C
100
AcDbEntity
  8
RACCORDO
100
AcDbPolyline
 62
253
  6
CONTINUOUS
 90
7
 70
0
 10
-20.4702278473
 20
29.3582392069
 10
-20.4448095862
 20
29.3772346245
 10
-20.4195884733
 20
29.3915503075
 10
-20.3948348027
 20
29.4009709935
 10
-20.3707846838
 20
29.4053325216
 10
-20.3477462715
 20
29.4045016951
 10
-20.3359324993
 20
29.4019031497
  0
LINE
  5
24D
100
AcDbEntity
  8
RACCORDO
100
AcDbLine
 62
253
  6
CONTINUOUS
 10
-35.6231811489
 20
18.2039326569
 11
-35.6965417601
 21
18.1496751077
  0
LWPOLYLINE
  5
24E
100
AcDbEntity
  8
RACCORDO
100
AcDbPolyline
 62
7
  6
CONTINUOUS
 90
4
 70
0
 10
-20.7876022568
 20
29.311416349
 10
-20.7457867447
 20
29.34157591
 10
-20.7004041513
 20
29.367616913
 10
-20.6519648361
 20
29.3889949183
  0
LWPOLYLINE
  5
24F
100
AcDbEntity
  8
RACCORDO
100
AcDbPolyline
 62
253
  6
CONTINUOUS
 90
9
 70
0
 10
-20.7876022568
 20
29.311416349
 10
-20.7580821833
 20
29.3321599283
 10
-20.7229345092
 20
29.3504554506
 10
-20.6850669851
 20
29.3640532202
 10
-20.644894335
 20
29.3728043148
 10
-20.6028565282
 20
29.3766128928
 10
-20.5594139614
 20
29.3754372427
 10
-20.5150424159
 20
29.3692902401
 10
-20.4702278473
 20
29.3582392069
  0
LINE
  5
250
100
AcDbEntity
  8
RACCORDO
100
AcDbLine
 62
7
  6
CONTINUOUS
 10
-22.9320394968
 20
25.7433005885
 11
-22.9844879943
 21
25.7088156204
  0
LWPOLYLINE
  5
251
100
AcDbEntity
  8
RACCORDO
100
AcDbPolyline
 62
7
  6
CONTINUOUS
 90
7
 70
0
 10
-20.6519648361
 20
29.3889949183
 10
-20.6011525083
 20
29.4052309251
 10
-20.5486144671
 20
29.4160039552
 10
-20.4948781832
 20
29.4211021568
 10
-20.4406108933
 20
29.4203578748
 10
-20.3867849399
 20
29.4137435489
 10
-20.3359324993
 20
29.4019031497
  0
LINE
  5
252
100
AcDbEntity
  8
RACCORDO
100
AcDbLine
 62
7
  6
CONTINUOUS
 10
-32.497791528
 20
22.6000299764
 11
-32.497791528
 21
21.115993157
  0
LINE
  5
253
100
AcDbEntity
  8
RACCORDO
100
AcDbLine
 62
7
  6
CONTINUOUS
 10
-30.8523432608
 20
20.9991705715
 11
-30.8523432608
 21
22.1250299764
  0
LINE
  5
254
100
AcDbEntity
  8
RACCORDO
100
AcDbLine
 62
7
  6
CONTINUOUS
 10
-20.9529377522
 20
22.3757608468
 11
-21.6717730415
 21
21.7299197231
  0
LINE
  5
255
100
AcDbEntity
  8
RACCORDO
100
AcDbLine
 62
7
  6
CONTINUOUS
 10
-23.326447917
 20
20.2432688908
 11
-24.1307043063
 21
19.520680757
  0
LINE
  5
256
100
AcDbEntity
  8
0
100
AcDbLine
 62
7
  6
CONTINUOUS
 10
-20.6940555343
 20
23.9701319973
 11
-20.5956020083
 21
24.0571809663
  0
LINE
  5
257
100
AcDbEntity
  8
0
100
AcDbLine
 62
7
  6
CONTINUOUS
 10
-21.5633868525
 20
22.551982323
 11
-22.2909816868
 21
21.9086698621
  0
LINE
  5
258
100
AcDbEntity
  8
0
100
AcDbLine
 62
7
  6
CONTINUOUS
 10
-23.9658200118
 20
20.4278397164
 11
-24.779876866
 21
19.708080733
  0
LINE
  5
259
100
AcDbEntity
  8
RACCORDO
100
AcDbLine
 62
7
  6
CONTINUOUS
 10
-21.6717352947
 20
25.3493293452
 11
-22.5217352947
 21
24.613207752
  0
LINE
  5
25A
100
AcDbEntity
  8
DRAFT
100
AcDbLine
 62
7
  6
CONTINUOUS
 10
-22.6217352947
 20
24.5266052116
 11
-23.2735394665
 21
23.9842130568
  0
LINE
  5
25B
100
AcDbEntity
  8
DRAFT
100
AcDbLine
 62
7
  6
CONTINUOUS
 10
-26.440482492
 20
21.3488739073
 11
-27.3092957146
 21
20.6258998971
  0
LINE
  5
25C
100
AcDbEntity
  8
DRAFT
100
AcDbLine
 62
7
  6
CONTINUOUS
 10
-26.0453606962
 20
21.0281514033
 11
-27.3092957146
 21
19.9763808442
  0
LINE
  5
25D
100
AcDbEntity
  8
0
100
AcDbLine
 62
7
  6
CONTINUOUS
 10
-25.7131657172
 20
22.8082180968
 11
-22.448530214
 21
24.381899679
  0
LINE
  5
25E
100
AcDbEntity
  8
RACCORDO
100
AcDbLine
 62
7
  6
CONTINUOUS
 10
-24.2018625076
 20
22.5355381519
 11
-22.7862332973
 21
23.2179266186
  0
LINE
  5
25F
100
AcDbEntity
  8
RACCORDO
100
AcDbLine
 62
7
  6
CONTINUOUS
 10
-23.8391128013
 20
22.3555768199
 11
-22.82952122
 21
22.8422393203
  0
LINE
  5
260
100
AcDbEntity
  8
RACCORDO
100
AcDbLine
 62
7
  6
CONTINUOUS
 10
-19.4633972099
 20
24.3190696467
 11
-20.4023434547
 21
23.8664609525
  0
LWPOLYLINE
  5
261
100
AcDbEntity
  8
RACCORDO
100
AcDbPolyline
 62
7
  6
CONTINUOUS
 90
25
 70
0
 10
-22.7862332973
 20
23.2179266186
 10
-22.7794191079
 20
23.2209153707
 10
-22.7719608822
 20
23.2236555251
 10
-22.76385862
 20
23.2261470817
 10
-22.7550722252
 20
23.2283985563
 10
-22.745641794
 20
23.2304014332
 10
-22.7356876148
 20
23.232130165
 10
-22.7252029786
 20
23.2335812398
 10
-22.7141945943
 20
23.2347581695
 10
-22.7028028778
 20
23.235645942
 10
-22.6910229187
 20
23.2362408531
 10
-22.6788596274
 20
23.2365466068
 10
-22.6664681509
 20
23.2365593034
 10
-22.6538455662
 20
23.2362751886
 10
-22.6409947964
 20
23.2356980165
 10
-22.6280797573
 20
23.2348351492
 10
-22.6150996259
 20
23.2336829269
 10
-22.6020552253
 20
23.2322450093
 10
-22.5891129414
 20
23.2305397377
 10
-22.5762740824
 20
23.2285636871
 10
-22.5635373401
 20
23.2263202825
 10
-22.5510651762
 20
23.2238381391
 10
-22.5389117444
 20
23.2211267955
 10
-22.5270228909
 20
23.2181767132
 10
-22.5153986158
 20
23.2149878922
  0
LWPOLYLINE
  5
262
100
AcDbEntity
  8
RACCORDO
100
AcDbPolyline
 62
7
  6
CONTINUOUS
 90
25
 70
0
 10
-20.4023434547
 20
23.8664609525
 10
-20.4091576441
 20
23.8634722004
 10
-20.4166158699
 20
23.8607320461
 10
-20.424718132
 20
23.8582404895
 10
-20.4335045268
 20
23.8559890148
 10
-20.442934958
 20
23.8539861379
 10
-20.4528891372
 20
23.8522574062
 10
-20.4633737734
 20
23.8508063313
 10
-20.4743821577
 20
23.8496294016
 10
-20.4857738742
 20
23.8487416292
 10
-20.4975538333
 20
23.8481467181
 10
-20.5097171246
 20
23.8478409643
 10
-20.5221086011
 20
23.8478282678
 10
-20.5347311858
 20
23.8481123826
 10
-20.5475819557
 20
23.8486895546
 10
-20.5604969947
 20
23.849552422
 10
-20.5734771261
 20
23.8507046443
 10
-20.5865215267
 20
23.8521425618
 10
-20.5994638106
 20
23.8538478335
 10
-20.6123026696
 20
23.855823884
 10
-20.6250394119
 20
23.8580672887
 10
-20.6375115758
 20
23.860549432
 10
-20.6496650076
 20
23.8632607756
 10
-20.6615538611
 20
23.8662108579
 10
-20.6731781362
 20
23.869399679
  0
LWPOLYLINE
  5
263
100
AcDbEntity
  8
RACCORDO
100
AcDbPolyline
 62
253
  6
CONTINUOUS
 90
4
 70
0
 10
6.8556154791
 20
-32.5533940109
 10
6.8127254194
 20
-32.564755009
 10
6.7717132235
 20
-32.568391758
 10
6.7339244006
 20
-32.5647563405
  0
LWPOLYLINE
  5
264
100
AcDbEntity
  8
RACCORDO
100
AcDbPolyline
 62
253
  6
CONTINUOUS
 90
10
 70
0
 10
6.3213114164
 20
-32.339659532
 10
6.3532548024
 20
-32.336755974
 10
6.3846074995
 20
-32.3320164266
 10
6.4150086698
 20
-32.325495438
 10
6.4441084251
 20
-32.3172680597
 10
6.4715718587
 20
-32.3074289809
 10
6.4970828985
 20
-32.2960914389
 10
6.520347939
 20
-32.2833859168
 10
6.5410992217
 20
-32.2694586429
 10
6.5590979201
 20
-32.2544699064
  0
LWPOLYLINE
  5
265
100
AcDbEntity
  8
RACCORDO
100
AcDbPolyline
 62
7
  6
CONTINUOUS
 90
7
 70
0
 10
6.5296098263
 20
-32.7912225736
 10
6.5713197481
 20
-32.788341871
 10
6.6493630021
 20
-32.7739798356
 10
6.7267262216
 20
-32.7482863964
 10
6.802198714
 20
-32.7121240892
 10
6.8755411002
 20
-32.666233045
 10
6.9252502241
 20
-32.6288837118
  0
LINE
  5
266
100
AcDbEntity
  8
RACCORDO
100
AcDbLine
 62
7
  6
CONTINUOUS
 10
6.5301990307
 20
-32.7912077986
 11
6.5296525645
 21
-32.7912228027
  0
LWPOLYLINE
  5
267
100
AcDbEntity
  8
RACCORDO
100
AcDbPolyline
 62
253
  6
CONTINUOUS
 90
16
 70
0
 10
6.3213114164
 20
-32.3396595578
 10
5.4123279211
 20
-32.3533224748
 10
4.5000039768
 20
-32.3497693594
 10
3.5857194049
 20
-32.3288552808
 10
2.6704971788
 20
-32.2904320966
 10
1.7561386714
 20
-32.2344244479
 10
0.8452054701
 20
-32.1609043348
 10
-0.0608498869
 20
-32.0699110726
 10
-0.9606206374
 20
-31.9614996813
 10
-1.8516535034
 20
-31.8359362584
 10
-2.732403137
 20
-31.6934302915
 10
-3.6016532012
 20
-31.5341630114
 10
-4.4575166413
 20
-31.3584923995
 10
-5.2985083185
 20
-31.1667543009
 10
-6.1235214581
 20
-30.9592264076
 10
-6.9312977976
 20
-30.7362492503
  0
LWPOLYLINE
  5
268
100
AcDbEntity
  8
RACCORDO
100
AcDbPolyline
 62
253
  6
CONTINUOUS
 90
12
 70
0
 10
6.5296525645
 20
-32.7912228027
 10
6.5235824539
 20
-32.7912378594
 10
6.4876686186
 20
-32.7851049557
 10
6.4550182608
 20
-32.7686253586
 10
6.4254037447
 20
-32.7423536524
 10
6.3993530901
 20
-32.70688793
 10
6.3770483303
 20
-32.6629606549
 10
6.3583819778
 20
-32.6112799334
 10
6.3434456135
 20
-32.5523890846
 10
6.3322832384
 20
-32.486934526
 10
6.3248971088
 20
-32.4157521892
 10
6.3213049809
 20
-32.3396308545
  0
LWPOLYLINE
  5
269
100
AcDbEntity
  8
RACCORDO
100
AcDbPolyline
 62
7
  6
CONTINUOUS
 90
13
 70
0
 10
-6.7092661453
 20
-31.2215564878
 10
-5.783597015
 20
-31.4752400231
 10
-4.7032703976
 20
-31.7387227663
 10
-3.5988113567
 20
-31.9743232741
 10
-2.4730364576
 20
-32.1815533574
 10
-1.3288632696
 20
-32.3599216006
 10
-0.1694522906
 20
-32.5090579711
 10
1.0021125006
 20
-32.628652512
 10
2.182868704
 20
-32.7184425874
 10
3.3698050659
 20
-32.7782877314
 10
4.559951835
 20
-32.8080685381
 10
5.7502060814
 20
-32.8077453734
 10
6.5301646538
 20
-32.7912088135
  0
LINE
  5
26A
100
AcDbEntity
  8
RACCORDO
100
AcDbLine
 62
7
  6
CONTINUOUS
 10
-6.709263645
 20
-31.2215723378
 11
-26.7724756278
 21
-25.4298219182
  0
LINE
  5
26B
100
AcDbEntity
  8
RACCORDO
100
AcDbLine
 62
7
  6
CONTINUOUS
 10
-26.7724331501
 20
-25.4298341751
 11
-26.7724756278
 21
-25.4298219182
  0
LINE
  5
26C
100
AcDbEntity
  8
RACCORDO
100
AcDbLine
 62
253
  6
CONTINUOUS
 10
-6.9312977976
 20
-30.7362492503
 11
-26.9945097795
 21
-24.944498831
  0
LWPOLYLINE
  5
26D
100
AcDbEntity
  8
RACCORDO
100
AcDbPolyline
 62
253
  6
CONTINUOUS
 90
15
 70
0
 10
-26.9945097795
 20
-24.944498831
 10
-27.784098743
 20
-24.7063575359
 10
-28.5546455196
 20
-24.4532903971
 10
-29.3049311187
 20
-24.185671746
 10
-30.0339124058
 20
-23.9038444458
 10
-30.7402738132
 20
-23.608280789
 10
-31.4224773383
 20
-23.2996103452
 10
-32.0795931394
 20
-22.978270431
 10
-32.7104917682
 20
-22.6448231493
 10
-33.3135311636
 20
-22.3001835032
 10
-33.8879044996
 20
-21.9449343317
 10
-34.4328230131
 20
-21.5796827605
 10
-34.946947182
 20
-21.2054827138
 10
-35.4295281109
 20
-20.8231453206
 10
-35.8802872572
 20
-20.4331936776
  0
LWPOLYLINE
  5
26E
100
AcDbEntity
  8
RACCORDO
100
AcDbPolyline
 62
253
  6
CONTINUOUS
 90
9
 70
0
 10
-26.7724756278
 20
-25.4298219182
 10
-26.79532416
 20
-25.4215947966
 10
-26.8429442719
 20
-25.3924194426
 10
-26.8851099665
 20
-25.3487639787
 10
-26.9211599977
 20
-25.2913129833
 10
-26.9505290191
 20
-25.2209673911
 10
-26.9727564619
 20
-25.1388303486
 10
-26.9874937537
 20
-25.0461899055
 10
-26.9945097793
 20
-24.944498831
  0
LWPOLYLINE
  5
26F
100
AcDbEntity
  8
RACCORDO
100
AcDbPolyline
 62
253
  6
CONTINUOUS
 90
9
 70
0
 10
-6.7092701829
 20
-31.2215704503
 10
-6.7321126075
 20
-31.2133450292
 10
-6.7797326734
 20
-31.1841695504
 10
-6.8218982963
 20
-31.1405139941
 10
-6.8579482418
 20
-31.0830629596
 10
-6.8873171806
 20
-31.0127173846
 10
-6.9095445536
 20
-30.9305804171
 10
-6.924281795
 20
-30.8379401156
 10
-6.9312977976
 20
-30.7362492503
  0
LWPOLYLINE
  5
270
100
AcDbEntity
  8
RACCORDO
100
AcDbPolyline
 62
253
  6
CONTINUOUS
 90
10
 70
0
 10
-26.9945097795
 20
-24.944498831
 10
-27.0988549201
 20
-20.9410615232
 10
-27.1771248876
 20
-16.9132980013
 10
-27.2293101584
 20
-12.861698254
 10
-27.2554043824
 20
-8.786755108
 10
-27.2554043824
 20
-4.6889643529
 10
-27.2293101584
 20
-0.5688246851
 10
-27.1771248876
 20
3.5731626026
 10
-27.0988549201
 20
7.7364936849
 10
-26.9945097795
 20
11.9206620776
  0
LWPOLYLINE
  5
271
100
AcDbEntity
  8
0
100
AcDbPolyline
 62
7
  6
CONTINUOUS
 90
10
 70
0
 10
-27.293040895
 20
-5.8539547668
 10
-27.2827639158
 20
-6.3220120086
 10
-27.252991316
 20
-6.7932362513
 10
-27.2036786373
 20
-7.2675857656
 10
-27.1345777574
 20
-7.7459005325
 10
-27.0457486209
 20
-8.2271649435
 10
-26.9375709836
 20
-8.7085167961
 10
-26.810060571
 20
-9.1888937633
 10
-26.6628597688
 20
-9.6690238184
 10
-26.4957579456
 20
-10.1486941824
  0
LINE
  5
272
100
AcDbEntity
  8
RACCORDO
100
AcDbLine
 62
7
  6
CONTINUOUS
 10
-28.7305810215
 20
20.3866705715
 11
-28.7305810215
 21
20.8629845436
  0
LINE
  5
273
100
AcDbEntity
  8
DRAFT
100
AcDbLine
 62
7
  6
CONTINUOUS
 10
-27.3092957146
 20
19.9763808442
 11
-27.3092957146
 21
20.6258998971
  0
LWPOLYLINE
  5
274
100
AcDbEntity
  8
0
100
AcDbPolyline
 62
7
  6
CONTINUOUS
 90
16
 70
0
 10
-26.4483779207
 20
21.7336451541
 10
-26.4477628473
 20
21.7813565637
 10
-26.4444231096
 20
21.8300386489
 10
-26.4383587076
 20
21.8796914097
 10
-26.4294388352
 20
21.9309010009
 10
-26.4177942986
 20
21.9830812678
 10
-26.4038175163
 20
22.0344737457
 10
-26.3874289991
 20
22.0850515848
 10
-26.3687082362
 20
22.134841635
 10
-26.3482861136
 20
22.1821659816
 10
-26.3261046444
 20
22.2269405868
 10
-26.3022218154
 20
22.2692494885
 10
-26.2774424732
 20
22.307666885
 10
-26.2520349
 20
22.3417175093
 10
-26.2257308136
 20
22.3718766284
 10
-26.198530214
 20
22.3981442425
  0
LINE
  5
275
100
AcDbEntity
  8
RACCORDO
100
AcDbLine
 62
253
  6
CONTINUOUS
 10
-24.2018625076
 20
22.5355381519
 11
-24.2086861402
 21
22.4763171974
  0
LWPOLYLINE
  5
276
100
AcDbEntity
  8
RACCORDO
100
AcDbPolyline
 62
7
  6
CONTINUOUS
 90
9
 70
0
 10
-24.2273362843
 20
22.508430582
 10
-24.2271743379
 20
22.5095724913
 10
-24.2260392866
 20
22.5137225588
 10
-24.2240506308
 20
22.5177507391
 10
-24.2212191667
 20
22.5216585737
 10
-24.2175810108
 20
22.5253962169
 10
-24.2131482016
 20
22.5289470534
 10
-24.2079087006
 20
22.5323276984
 10
-24.2018625076
 20
22.5355381519
  0
LWPOLYLINE
  5
277
100
AcDbEntity
  8
RACCORDO
100
AcDbPolyline
 62
253
  6
CONTINUOUS
 90
4
 70
0
 10
-25.1039509566
 20
26.4764757859
 10
-25.1065349393
 20
26.4607930638
 10
-25.1149726878
 20
26.4440793533
 10
-25.129025834
 20
26.4283385055
  0
LWPOLYLINE
  5
278
100
AcDbEntity
  8
RACCORDO
100
AcDbPolyline
 62
253
  6
CONTINUOUS
 90
13
 70
0
 10
-26.5038517321
 20
13.1685115272
 10
-26.5662645069
 20
13.1057820805
 10
-26.6275616918
 20
13.0305760551
 10
-26.6867820344
 20
12.9440728197
 10
-26.7429968509
 20
12.847628904
 10
-26.7953245896
 20
12.7427567258
 10
-26.8429446555
 20
12.6311008734
 10
-26.8851102784
 20
12.5144123158
 10
-26.921160224
 20
12.3945209441
 10
-26.9505291627
 20
12.273306875
 10
-26.9727565358
 20
12.1526709681
 10
-26.987493777
 20
12.0345050159
 10
-26.9945097795
 20
11.9206620776
  0
LINE
  5
279
100
AcDbEntity
  8
0
100
AcDbLine
 62
7
  6
CONTINUOUS
 10
-19.905349128
 20
19.2556827374
 11
-19.9401530397
 21
19.2234365669
  0
LINE
  5
27A
100
AcDbEntity
  8
ASSI
100
AcDbLine
 62
7
  6
CONTINUOUS
 10
-22.5514158969
 20
19.0682435645
 11
-22.3514158969
 21
19.2414486452
  0
LINE
  5
27B
100
AcDbEntity
  8
ASSI
100
AcDbLine
 62
7
  6
CONTINUOUS
 10
-21.2942118019
 20
19.6143196624
 11
-21.4344285988
 21
19.4928883542
  0
LINE
  5
27C
100
AcDbEntity
  8
ASSI
100
AcDbLine
 62
7
  6
CONTINUOUS
 10
-19.9533396856
 20
18.3182435645
 11
-19.7533396856
 21
18.4914486452
  0
LINE
  5
27D
100
AcDbEntity
  8
RACCORDO
100
AcDbLine
 62
7
  6
CONTINUOUS
 10
-1.3568560001
 20
33.4288867521
 11
-9.7622454587
 21
26.6810913968
  0
LINE
  5
27E
100
AcDbEntity
  8
RACCORDO
100
AcDbLine
 62
253
  6
CONTINUOUS
 10
-1.0394815907
 20
33.47570961
 11
-9.4448710471
 21
26.7279142565
  0
LWPOLYLINE
  5
27F
100
AcDbEntity
  8
RACCORDO
100
AcDbPolyline
 62
7
  6
CONTINUOUS
 90
21
 70
0
 10
-9.7622921321
 20
26.6810553145
 10
-9.7636732942
 20
26.6799671832
 10
-9.7734798119
 20
26.6729904572
 10
-9.7895902238
 20
26.6631307426
 10
-9.8119387469
 20
26.6513642417
 10
-9.8407134085
 20
26.6383569658
 10
-9.8759638811
 20
26.6247537778
 10
-9.9171845152
 20
26.611308305
 10
-9.9641958638
 20
26.5985540124
 10
-10.0165817016
 20
26.5870159652
 10
-10.0733246613
 20
26.5772301723
 10
-10.1338012213
 20
26.5695610225
 10
-10.1973021846
 20
26.5643159236
 10
-10.2625363037
 20
26.5617328381
 10
-10.3286600267
 20
26.56192667
 10
-10.3947966362
 20
26.5649582735
 10
-10.4595448982
 20
26.5707389763
 10
-10.5220687425
 20
26.579100608
 10
-10.5815322622
 20
26.5898254929
 10
-10.6365541189
 20
26.6024589253
 10
-10.6676401502
 20
26.6109041918
  0
LWPOLYLINE
  5
280
100
AcDbEntity
  8
RACCORDO
100
AcDbPolyline
 62
7
  6
CONTINUOUS
 90
5
 70
0
 10
-1.3572253104
 20
33.4285897613
 10
-1.3329241455
 20
33.4469463947
 10
-1.2886003689
 20
33.4749826801
 10
-1.2415015489
 20
33.4982573866
 10
-1.1919555627
 20
33.5165438997
  0
LWPOLYLINE
  5
281
100
AcDbEntity
  8
RACCORDO
100
AcDbPolyline
 62
253
  6
CONTINUOUS
 90
7
 70
0
 10
-10.8020383436
 20
26.5672733007
 10
-10.7762224034
 20
26.5865299159
 10
-10.7507298459
 20
26.6009008204
 10
-10.725833814
 20
26.6102320488
 10
-10.701801036
 20
26.6144236361
 10
-10.6788890348
 20
26.6134306746
 10
-10.6677263976
 20
26.6109324537
  0
LINE
  5
282
100
AcDbEntity
  8
RACCORDO
100
AcDbLine
 62
7
  6
CONTINUOUS
 10
-19.9283494648
 20
22.3929266186
 11
-21.3439786751
 21
21.7105381519
  0
LINE
  5
283
100
AcDbEntity
  8
RACCORDO
100
AcDbLine
 62
7
  6
CONTINUOUS
 10
-19.265517706
 20
21.1105381519
 11
-17.8498884957
 21
21.7929266186
  0
LINE
  5
284
100
AcDbEntity
  8
RACCORDO
100
AcDbLine
 62
7
  6
CONTINUOUS
 10
-18.9027679997
 20
20.9305768199
 11
-17.8931764185
 21
21.4172393203
  0
LWPOLYLINE
  5
285
100
AcDbEntity
  8
RACCORDO
100
AcDbPolyline
 62
7
  6
CONTINUOUS
 90
25
 70
0
 10
-21.3439786751
 20
21.7105381519
 10
-21.3507928644
 20
21.7075493998
 10
-21.3582510902
 20
21.7048092455
 10
-21.3663533524
 20
21.7023176889
 10
-21.3751397472
 20
21.7000662142
 10
-21.3845701783
 20
21.6980633373
 10
-21.3945243575
 20
21.6963346056
 10
-21.4050089938
 20
21.6948835307
 10
-21.4160173781
 20
21.693706601
 10
-21.4274090945
 20
21.6928188286
 10
-21.4391890536
 20
21.6922239175
 10
-21.4513523449
 20
21.6919181637
 10
-21.4637438214
 20
21.6919054672
 10
-21.4763664061
 20
21.692189582
 10
-21.489217176
 20
21.692766754
 10
-21.502132215
 20
21.6936296214
 10
-21.5151123465
 20
21.6947818437
 10
-21.5281567471
 20
21.6962197612
 10
-21.5410990309
 20
21.6979250329
 10
-21.5539378899
 20
21.6999010834
 10
-21.5666746322
 20
21.7021444881
 10
-21.5791467962
 20
21.7046266314
 10
-21.591300228
 20
21.707337975
 10
-21.6031890814
 20
21.7102880573
 10
-21.6148133566
 20
21.7134768783
  0
LWPOLYLINE
  5
286
100
AcDbEntity
  8
RACCORDO
100
AcDbPolyline
 62
7
  6
CONTINUOUS
 90
25
 70
0
 10
-17.8498884957
 20
21.7929266186
 10
-17.8430743063
 20
21.7959153707
 10
-17.8356160806
 20
21.7986555251
 10
-17.8275138184
 20
21.8011470817
 10
-17.8187274236
 20
21.8033985563
 10
-17.8092969924
 20
21.8054014332
 10
-17.7993428133
 20
21.807130165
 10
-17.788858177
 20
21.8085812398
 10
-17.7778497927
 20
21.8097581695
 10
-17.7664580763
 20
21.810645942
 10
-17.7546781172
 20
21.8112408531
 10
-17.7425148259
 20
21.8115466068
 10
-17.7301233494
 20
21.8115593034
 10
-17.7175007647
 20
21.8112751886
 10
-17.7046499948
 20
21.8106980165
 10
-17.6917349558
 20
21.8098351492
 10
-17.6787548243
 20
21.8086829269
 10
-17.6657104237
 20
21.8072450093
 10
-17.6527681399
 20
21.8055397377
 10
-17.6399292809
 20
21.8035636871
 10
-17.6271925386
 20
21.8013202825
 10
-17.6147203746
 20
21.7988381391
 10
-17.6025669428
 20
21.7961267955
 10
-17.5906780894
 20
21.7931767132
 10
-17.5790538142
 20
21.7899878922
  0
LWPOLYLINE
  5
287
100
AcDbEntity
  8
0
100
AcDbPolyline
 62
7
  6
CONTINUOUS
 90
11
 70
0
 10
-10.3709260034
 20
26.7884589061
 10
-10.4233788424
 20
26.7697378466
 10
-10.4696166856
 20
26.7500439601
 10
-10.5096015532
 20
26.729609161
 10
-10.5433280141
 20
26.7086636536
 10
-10.5708226349
 20
26.6874347899
 10
-10.5921432749
 20
26.6661459573
 10
-10.6073782328
 20
26.6450155007
 10
-10.6166452508
 20
26.6242556848
 10
-10.6200903813
 20
26.6040717006
 10
-10.6201202831
 20
26.6016495677
  0
LINE
  5
288
100
AcDbEntity
  8
0
100
AcDbLine
 62
7
  6
CONTINUOUS
 10
-12.5039206866
 20
-25.8650429708
 11
-12.676480527
 21
-25.8152292357
  0
LINE
  5
289
100
AcDbEntity
  8
0
100
AcDbLine
 62
7
  6
CONTINUOUS
 10
-18.7730164645
 20
-24.0553109033
 11
-21.5971874263
 21
-23.2400429708
  0
LINE
  5
28A
100
AcDbEntity
  8
0
100
AcDbLine
 62
7
  6
CONTINUOUS
 10
-18.7730164645
 20
-23.1885697784
 11
-20.8465675937
 21
-22.5899871271
  0
LINE
  5
28B
100
AcDbEntity
  8
0
100
AcDbLine
 62
7
  6
CONTINUOUS
 10
-18.7730164645
 20
-23.1308347515
 11
-20.7965675937
 21
-22.5466858569
  0
LINE
  5
28C
100
AcDbEntity
  8
RACCORDO
100
AcDbLine
 62
7
  6
CONTINUOUS
 10
9.172154554
 20
-30.8250879982
 11
10.3704923393
 21
-31.1710183197
  0
LINE
  5
28D
100
AcDbEntity
  8
DRAFT
100
AcDbLine
 62
7
  6
CONTINUOUS
 10
-18.7911618591
 20
-22.0599535459
 11
-18.7730164645
 21
-22.0651916701
  0
LINE
  5
28E
100
AcDbEntity
  8
DRAFT
100
AcDbLine
 62
7
  6
CONTINUOUS
 10
-19.8736936138
 20
-21.5453809517
 11
-18.7730164645
 21
-21.8631190759
  0
LWPOLYLINE
  5
28F
100
AcDbEntity
  8
RACCORDO
100
AcDbPolyline
 62
253
  6
CONTINUOUS
 90
10
 70
0
 10
6.7339244006
 20
-32.5647563405
 10
6.6996229969
 20
-32.5535741011
 10
6.6685449664
 20
-32.5351196953
 10
6.6412436801
 20
-32.5106691718
 10
6.6178575362
 20
-32.480134167
 10
6.5982481365
 20
-32.4436030445
 10
6.5825536575
 20
-32.4026169433
 10
6.5708201581
 20
-32.3576895765
 10
6.5630015795
 20
-32.308307231
 10
6.5590979216
 20
-32.2544699068
  0
LWPOLYLINE
  5
290
100
AcDbEntity
  8
ASSI
100
AcDbPolyline
 62
7
  6
CONTINUOUS
 90
3
 70
0
 10
-18.8281580882
 20
-21.1227509426
 10
-18.7847413853
 20
-21.1804231332
 10
-18.7730164645
 20
-21.1941951997
  0
LINE
  5
291
100
AcDbEntity
  8
DRAFT
100
AcDbLine
 62
7
  6
CONTINUOUS
 10
-18.6028932689
 20
-24.4762960223
 11
-18.7730164645
 21
-24.1623545196
  0
LINE
  5
292
100
AcDbEntity
  8
DRAFT
100
AcDbLine
 62
7
  6
CONTINUOUS
 10
-17.7368678651
 20
-24.7262960223
 11
-17.919880567
 21
-24.3885685159
  0
LINE
  5
293
100
AcDbEntity
  8
DRAFT
100
AcDbLine
 62
7
  6
CONTINUOUS
 10
-16.8708424613
 20
-24.9762960223
 11
-17.0538551632
 21
-24.6385685159
  0
LINE
  5
294
100
AcDbEntity
  8
DRAFT
100
AcDbLine
 62
7
  6
CONTINUOUS
 10
-16.0048170575
 20
-25.2262960223
 11
-16.1878297594
 21
-24.8885685159
  0
LINE
  5
295
100
AcDbEntity
  8
DRAFT
100
AcDbLine
 62
7
  6
CONTINUOUS
 10
-18.6028932689
 20
-21.4266237715
 11
-18.7730164645
 21
-21.1056568644
  0
LWPOLYLINE
  5
296
100
AcDbEntity
  8
0
100
AcDbPolyline
 62
7
  6
CONTINUOUS
 90
25
 70
0
 10
-26.4957579456
 20
-10.1486941824
 10
-26.2785611881
 20
-10.699393675
 10
-26.038300671
 20
-11.2431562577
 10
-25.7750061159
 20
-11.7800075369
 10
-25.4879273747
 20
-12.3112928744
 10
-25.1778700476
 20
-12.8357149419
 10
-24.8472030683
 20
-13.3493405014
 10
-24.4958269116
 20
-13.852080701
 10
-24.1239057327
 20
-14.3440813776
 10
-23.734214069
 20
-14.8217705606
 10
-23.3266824159
 20
-15.2850866848
 10
-22.9014460318
 20
-15.734150025
 10
-22.4615929698
 20
-16.1656672888
 10
-22.0070228106
 20
-16.579504422
 10
-21.5378973764
 20
-16.9758508392
 10
-21.0577008612
 20
-17.3519010987
 10
-20.5663918906
 20
-17.7075605947
 10
-20.0640630614
 20
-18.0429704516
 10
-19.5543991737
 20
-18.3556785845
 10
-19.037343268
 20
-18.6455412926
 10
-18.5129892213
 20
-18.9127359763
 10
-17.9852454141
 20
-19.155289798
 10
-17.4554212579
 20
-19.3725512073
 10
-16.9222266576
 20
-19.5651894411
 10
-16.3856664362
 20
-19.7332089192
  0
LINE
  5
297
100
AcDbEntity
  8
0
100
AcDbLine
 62
7
  6
CONTINUOUS
 10
-26.4362165873
 20
21.1409817803
 11
-26.4483779207
 21
21.7336451541
  0
LWPOLYLINE
  5
298
100
AcDbEntity
  8
RACCORDO
100
AcDbPolyline
 62
7
  6
CONTINUOUS
 90
3
 70
0
 10
-25.1039511266
 20
26.4764757862
 10
-25.1050958593
 20
26.5332807855
 10
-25.1106413914
 20
26.6099288474
  0
LINE
  5
299
100
AcDbEntity
  8
RACCORDO
100
AcDbLine
 62
253
  6
CONTINUOUS
 10
-25.1292050955
 20
26.4568860968
 11
-25.129025834
 21
26.4283385055
  0
LINE
  5
29A
100
AcDbEntity
  8
RACCORDO
100
AcDbLine
 62
253
  6
CONTINUOUS
 10
-25.129025834
 20
26.4283385055
 11
-25.129025834
 21
24.6842736302
  0
LINE
  5
29B
100
AcDbEntity
  8
RACCORDO
100
AcDbLine
 62
7
  6
CONTINUOUS
 10
-25.1039497755
 20
26.4768194676
 11
-25.1039497755
 21
24.7312957033
  0
LINE
  5
29C
100
AcDbEntity
  8
DRAFT
100
AcDbLine
 62
7
  6
CONTINUOUS
 10
-22.6217352947
 20
24.5266052116
 11
-22.6217352947
 21
24.2984080777
  0
LWPOLYLINE
  5
29D
100
AcDbEntity
  8
ASSI
100
AcDbPolyline
 62
7
  6
CONTINUOUS
 90
7
 70
0
 10
-21.6246209777
 20
19.6343947051
 10
-21.6234593708
 20
19.6474336468
 10
-21.6200261523
 20
19.6604725884
 10
-21.6143987256
 20
19.6732175619
 10
-21.6066028916
 20
19.6855705778
 10
-21.5966128494
 20
19.6976296256
 10
-21.5934351507
 20
19.7006980029
  0
LINE
  5
29E
100
AcDbEntity
  8
RACCORDO
100
AcDbLine
 62
253
  6
CONTINUOUS
 10
-22.7862332973
 20
23.2179266186
 11
-22.82952122
 21
22.8422393203
  0
LINE
  5
29F
100
AcDbEntity
  8
RACCORDO
100
AcDbLine
 62
253
  6
CONTINUOUS
 10
-22.5153986158
 20
23.2149878922
 11
-22.5586865386
 21
22.8393005939
  0
LINE
  5
2A0
100
AcDbEntity
  8
RACCORDO
100
AcDbLine
 62
253
  6
CONTINUOUS
 10
-20.0039249448
 20
22.4899878922
 11
-20.0202108379
 21
22.3486458556
  0
LWPOLYLINE
  5
2A1
100
AcDbEntity
  8
RACCORDO
100
AcDbPolyline
 62
7
  6
CONTINUOUS
 90
9
 70
0
 10
-19.902875688
 20
22.4200341885
 10
-19.9030376345
 20
22.4188922793
 10
-19.9041726858
 20
22.4147422117
 10
-19.9061613416
 20
22.4107140314
 10
-19.9089928056
 20
22.4068061968
 10
-19.9126309616
 20
22.4030685536
 10
-19.9170637707
 20
22.3995177172
 10
-19.9223032718
 20
22.3961370722
 10
-19.9283494648
 20
22.3929266186
  0
LWPOLYLINE
  5
2A2
100
AcDbEntity
  8
0
100
AcDbPolyline
 62
7
  6
CONTINUOUS
 90
7
 70
0
 10
-26.9338153772
 20
-3.1931546412
 10
-27.0387284227
 20
-3.5830609799
 10
-27.1255246851
 20
-3.9942934798
 10
-27.1943002922
 20
-4.4269453811
 10
-27.2451232757
 20
-4.8810835623
 10
-27.2780331739
 20
-5.3567486017
 10
-27.293040895
 20
-5.8539547668
  0
LWPOLYLINE
  5
2A3
100
AcDbEntity
  8
0
100
AcDbPolyline
 62
7
  6
CONTINUOUS
 90
7
 70
0
 10
-26.4957579456
 20
-2.0112790542
 10
-26.5790592354
 20
-2.1913001253
 10
-26.6582201677
 20
-2.3780795723
 10
-26.7332594524
 20
-2.5716371241
 10
-26.804194536
 20
-2.7719911033
 10
-26.871041569
 20
-2.9791584328
 10
-26.9338153772
 20
-3.1931546412
  0
LWPOLYLINE
  5
2A4
100
AcDbEntity
  8
ASSI
100
AcDbPolyline
 62
7
  6
CONTINUOUS
 90
3
 70
0
 10
-15.6552257584
 20
20.846443124
 10
-15.6581427332
 20
20.842922024
 10
-15.6703269837
 20
20.8311569444
  0
LINE
  5
2A5
100
AcDbEntity
  8
0
100
AcDbLine
 62
253
  6
CONTINUOUS
 10
-15.8561949099
 20
18.9188342633
 11
-16.0560730753
 21
18.7336451541
  0
LINE
  5
2A6
100
AcDbEntity
  8
0
100
AcDbLine
 62
7
  6
CONTINUOUS
 10
-15.8440335765
 20
18.3261708895
 11
-16.0439117419
 21
18.1409817803
  0
LINE
  5
2A7
100
AcDbEntity
  8
DRAFT
100
AcDbLine
 62
7
  6
CONTINUOUS
 10
-11.8830202878
 20
21.4266052116
 11
-16.295459868
 21
17.4464793517
  0
LINE
  5
2A8
100
AcDbEntity
  8
RACCORDO
100
AcDbLine
 62
253
  6
CONTINUOUS
 10
-9.7136878519
 20
21.8973383901
 11
-15.0474060257
 21
17.0861972408
  0
LINE
  5
2A9
100
AcDbEntity
  8
RACCORDO
100
AcDbLine
 62
253
  6
CONTINUOUS
 10
-9.5387639105
 20
21.6756523474
 11
-14.874174561
 21
16.8629845436
  0
LINE
  5
2AA
100
AcDbEntity
  8
ASSI
100
AcDbLine
 62
7
  6
CONTINUOUS
 10
-18.1203269837
 20
18.7093947051
 11
-18.093483206
 21
18.7326420985
  0
LINE
  5
2AB
100
AcDbEntity
  8
ASSI
100
AcDbLine
 62
7
  6
CONTINUOUS
 10
-16.1656781694
 20
20.4021702338
 11
-15.6703269837
 21
20.8311569444
  0
LINE
  5
2AC
100
AcDbEntity
  8
0
100
AcDbLine
 62
7
  6
CONTINUOUS
 10
-15.8062253686
 20
19.3981442425
 11
-15.3749707753
 21
19.7716216758
  0
LINE
  5
2AD
100
AcDbEntity
  8
0
100
AcDbLine
 62
7
  6
CONTINUOUS
 10
-15.8062253686
 20
19.051734081
 11
-15.3749707753
 21
19.4252115143
  0
LINE
  5
2AE
100
AcDbEntity
  8
0
100
AcDbLine
 62
7
  6
CONTINUOUS
 10
-17.169141881
 20
16.9625680312
 11
-17.919141881
 21
16.3130489783
  0
LINE
  5
2AF
100
AcDbEntity
  8
RACCORDO
100
AcDbLine
 62
7
  6
CONTINUOUS
 10
-10.9330202878
 20
22.2493293452
 11
-11.7830202878
 21
21.513207752
  0
LWPOLYLINE
  5
2B0
100
AcDbEntity
  8
0
100
AcDbPolyline
 62
7
  6
CONTINUOUS
 90
13
 70
0
 10
-15.3749707753
 20
19.7716216758
 10
-15.3704233966
 20
19.7754880642
 10
-15.3658805214
 20
19.7792076764
 10
-15.3613421499
 20
19.7827805126
 10
-15.3568067852
 20
19.7862076563
 10
-15.352275924
 20
19.7894880239
 10
-15.3477540566
 20
19.7926183646
 10
-15.3432411918
 20
19.7955985294
 10
-15.3387373208
 20
19.7984286673
 10
-15.3342469069
 20
19.8011059735
 10
-15.3297714381
 20
19.803629513
 10
-15.3253094263
 20
19.8060002207
 10
-15.3208608718
 20
19.8082180968
  0
LINE
  5
2B1
100
AcDbEntity
  8
0
100
AcDbLine
 62
7
  6
CONTINUOUS
 10
-13.7091535743
 20
22.0692345377
 11
-13.8107000482
 21
21.9830784259
  0
LINE
  5
2B2
100
AcDbEntity
  8
0
100
AcDbLine
 62
7
  6
CONTINUOUS
 10
-17.1852480153
 20
18.4704571826
 11
-18.0248787165
 21
17.758080733
  0
LWPOLYLINE
  5
2B3
100
AcDbEntity
  8
0
100
AcDbPolyline
 62
7
  6
CONTINUOUS
 90
10
 70
0
 10
-15.3749707753
 20
19.4252115143
 10
-15.3737576753
 20
19.4262365221
 10
-15.3725467091
 20
19.4272089504
 10
-15.3713378768
 20
19.428128799
 10
-15.3701304706
 20
19.4289965464
 10
-15.3689251983
 20
19.4298117143
 10
-15.3677241823
 20
19.4305728669
 10
-15.3665281301
 20
19.431279526
 10
-15.3653363342
 20
19.4319321698
 10
-15.3641487946
 20
19.4325307985
  0
LINE
  5
2B4
100
AcDbEntity
  8
DRAFT
100
AcDbLine
 62
7
  6
CONTINUOUS
 10
-17.0892380705
 20
16.8606036195
 11
-17.7892380705
 21
16.2755489783
  0
LWPOLYLINE
  5
2B5
100
AcDbEntity
  8
RACCORDO
100
AcDbPolyline
 62
7
  6
CONTINUOUS
 90
8
 70
0
 10
-10.9330202878
 20
22.2493293452
 10
-10.8902969307
 20
22.2833265155
 10
-10.848151655
 20
22.3104434048
 10
-10.8065844606
 20
22.330680013
 10
-10.7651109463
 20
22.3441568204
 10
-10.7242155133
 20
22.3507533467
 10
-10.6853513655
 20
22.3501081518
 10
-10.6556655177
 20
22.3440890305
  0
LWPOLYLINE
  5
2B6
100
AcDbEntity
  8
ASSI
100
AcDbPolyline
 62
7
  6
CONTINUOUS
 90
19
 70
0
 10
-18.1203269837
 20
18.7093947051
 10
-18.134612574
 20
18.6982362301
 10
-18.1505044363
 20
18.687880891
 10
-18.1680025705
 20
18.678328688
 10
-18.1872637987
 20
18.6695194539
 10
-18.2081312989
 20
18.6615133559
 10
-18.2301346048
 20
18.6544908946
 10
-18.2532995177
 20
18.6484744143
 10
-18.2776002363
 20
18.6434415707
 10
-18.3024888913
 20
18.6395058312
 10
-18.3279788383
 20
18.6366921178
 10
-18.3540567215
 20
18.6349755086
 10
-18.3801346048
 20
18.6343947051
 10
-18.4062124881
 20
18.6349755086
 10
-18.4322903714
 20
18.6366921178
 10
-18.4577803184
 20
18.6395058312
 10
-18.4824863502
 20
18.6434037482
 10
-18.5066044457
 20
18.6483987693
 10
-18.5301346048
 20
18.6544908946
  0
LINE
  5
2B7
100
AcDbEntity
  8
RACCORDO
100
AcDbLine
 62
7
  6
CONTINUOUS
 10
-12.9682066815
 20
22.4440696467
 11
-13.9071529264
 21
21.9914609525
  0
LINE
  5
2B8
100
AcDbEntity
  8
RACCORDO
100
AcDbLine
 62
7
  6
CONTINUOUS
 10
-14.9920046632
 20
20.9679266186
 11
-16.4076338735
 21
20.2855381519
  0
LINE
  5
2B9
100
AcDbEntity
  8
0
100
AcDbLine
 62
7
  6
CONTINUOUS
 10
-15.3208608718
 20
19.8082180968
 11
-12.0562253686
 21
21.381899679
  0
LINE
  5
2BA
100
AcDbEntity
  8
0
100
AcDbLine
 62
7
  6
CONTINUOUS
 10
-15.3641487946
 20
19.4325307985
 11
-12.635511076
 21
20.7478405529
  0
LWPOLYLINE
  5
2BB
100
AcDbEntity
  8
RACCORDO
100
AcDbPolyline
 62
7
  6
CONTINUOUS
 90
25
 70
0
 10
-16.4076338735
 20
20.2855381519
 10
-16.4144480629
 20
20.2825493998
 10
-16.4219062886
 20
20.2798092455
 10
-16.4300085508
 20
20.2773176889
 10
-16.4387949456
 20
20.2750662142
 10
-16.4482253768
 20
20.2730633373
 10
-16.4581795559
 20
20.2713346056
 10
-16.4686641922
 20
20.2698835307
 10
-16.4796725765
 20
20.268706601
 10
-16.491064293
 20
20.2678188286
 10
-16.5028442521
 20
20.2672239175
 10
-16.5150075434
 20
20.2669181637
 10
-16.5273990199
 20
20.2669054672
 10
-16.5400216045
 20
20.267189582
 10
-16.5528723744
 20
20.267766754
 10
-16.5657874135
 20
20.2686296214
 10
-16.5787675449
 20
20.2697818437
 10
-16.5918119455
 20
20.2712197612
 10
-16.6047542293
 20
20.2729250329
 10
-16.6175930884
 20
20.2749010834
 10
-16.6303298306
 20
20.2771444881
 10
-16.6428019946
 20
20.2796266314
 10
-16.6549554264
 20
20.282337975
 10
-16.6668442799
 20
20.2852880573
 10
-16.678468555
 20
20.2884768783
  0
LINE
  5
2BC
100
AcDbEntity
  8
DRAFT
100
AcDbLine
 62
7
  6
CONTINUOUS
 10
-12.7718324365
 20
-25.8947471266
 11
-13.4067408462
 21
-25.9762960223
  0
LINE
  5
2BD
100
AcDbEntity
  8
DRAFT
100
AcDbLine
 62
7
  6
CONTINUOUS
 10
-13.5897535481
 20
-25.6385685159
 11
-14.27276625
 21
-25.7262960223
  0
LINE
  5
2BE
100
AcDbEntity
  8
DRAFT
100
AcDbLine
 62
7
  6
CONTINUOUS
 10
-14.4557789519
 20
-25.3885685159
 11
-15.1387916537
 21
-25.4762960223
  0
LINE
  5
2BF
100
AcDbEntity
  8
DRAFT
100
AcDbLine
 62
7
  6
CONTINUOUS
 10
-15.3218043556
 20
-25.1385685159
 11
-16.0048170575
 21
-25.2262960223
  0
LINE
  5
2C0
100
AcDbEntity
  8
DRAFT
100
AcDbLine
 62
7
  6
CONTINUOUS
 10
-16.1878297594
 20
-24.8885685159
 11
-16.8708424613
 21
-24.9762960223
  0
LWPOLYLINE
  5
2C1
100
AcDbEntity
  8
0
100
AcDbPolyline
 62
7
  6
CONTINUOUS
 90
25
 70
0
 10
-16.3856664362
 20
-19.7332089192
 10
-15.8495581775
 20
-19.874842159
 10
-15.3176932309
 20
-19.9896601332
 10
-14.7900667734
 20
-20.0776584221
 10
-14.2653823854
 20
-20.1389144513
 10
-13.7449171699
 20
-20.1733331087
 10
-13.2325222909
 20
-20.1806472445
 10
-12.7282637604
 20
-20.1606333022
 10
-12.2320386487
 20
-20.1134811385
 10
-11.7474420331
 20
-20.039541319
 10
-11.2745222525
 20
-19.9386320345
 10
-10.8131797454
 20
-19.8108885755
 10
-10.3667873871
 20
-19.6571369182
 10
-9.9354535799
 20
-19.4771096412
 10
-9.5190085186
 20
-19.2710188056
 10
-9.120410546
 20
-19.0404122596
 10
-8.7397340145
 20
-18.785109219
 10
-8.376838818
 20
-18.5052317584
 10
-8.0343679829
 20
-18.2027879326
 10
-7.7124256947
 20
-17.8775544412
 10
-7.410843138
 20
-17.5296975995
 10
-7.1318639202
 20
-17.1618191195
 10
-6.876219955
 20
-16.7747724875
 10
-6.6431238767
 20
-16.3676561837
 10
-6.4325459636
 20
-15.9404446016
  0
LINE
  5
2C2
100
AcDbEntity
  8
0
100
AcDbLine
 62
7
  6
CONTINUOUS
 10
-12.5726142317
 20
-22.6336367916
 11
-21.6658809715
 21
-20.0086367916
  0
LINE
  5
2C3
100
AcDbEntity
  8
DRAFT
100
AcDbLine
 62
7
  6
CONTINUOUS
 10
-15.1387916537
 20
-25.4762960223
 11
-15.3218043556
 21
-25.1385685159
  0
LINE
  5
2C4
100
AcDbEntity
  8
DRAFT
100
AcDbLine
 62
7
  6
CONTINUOUS
 10
-14.27276625
 20
-25.7262960223
 11
-14.4557789519
 21
-25.3885685159
  0
LINE
  5
2C5
100
AcDbEntity
  8
DRAFT
100
AcDbLine
 62
7
  6
CONTINUOUS
 10
-13.4067408462
 20
-25.9762960223
 11
-13.5897535481
 21
-25.6385685159
  0
LINE
  5
2C6
100
AcDbEntity
  8
DRAFT
100
AcDbLine
 62
7
  6
CONTINUOUS
 10
-17.7368678651
 20
-21.6766237715
 11
-17.919880567
 21
-21.3313385759
  0
LINE
  5
2C7
100
AcDbEntity
  8
DRAFT
100
AcDbLine
 62
7
  6
CONTINUOUS
 10
-16.8708424613
 20
-21.9266237715
 11
-17.0538551632
 21
-21.5813385759
  0
LINE
  5
2C8
100
AcDbEntity
  8
DRAFT
100
AcDbLine
 62
7
  6
CONTINUOUS
 10
-16.0048170575
 20
-22.1766237715
 11
-16.1878297594
 21
-21.8313385759
  0
LINE
  5
2C9
100
AcDbEntity
  8
DRAFT
100
AcDbLine
 62
7
  6
CONTINUOUS
 10
-15.1387916537
 20
-22.4266237715
 11
-15.3218043556
 21
-22.0813385759
  0
LINE
  5
2CA
100
AcDbEntity
  8
DRAFT
100
AcDbLine
 62
7
  6
CONTINUOUS
 10
-14.27276625
 20
-22.6766237715
 11
-14.4557789519
 21
-22.3313385759
  0
LINE
  5
2CB
100
AcDbEntity
  8
DRAFT
100
AcDbLine
 62
7
  6
CONTINUOUS
 10
-13.4067408462
 20
-22.9266237715
 11
-13.5897535481
 21
-22.5813385759
  0
LWPOLYLINE
  5
2CC
100
AcDbEntity
  8
ASSI
100
AcDbPolyline
 62
7
  6
CONTINUOUS
 90
5
 70
0
 10
-18.67404769
 20
-20.8723046668
 10
-18.6702690181
 20
-20.8853431745
 10
-18.6586461636
 20
-20.9167584564
 10
-18.6447516976
 20
-20.9475179806
 10
-18.6292068814
 20
-20.9763584782
  0
LWPOLYLINE
  5
2CD
100
AcDbEntity
  8
ASSI
100
AcDbPolyline
 62
7
  6
CONTINUOUS
 90
7
 70
0
 10
-18.9912482836
 20
-20.7807367428
 10
-18.9840594459
 20
-20.807566467
 10
-18.9617061683
 20
-20.8729600514
 10
-18.9348963685
 20
-20.9373011595
 10
-18.9035437143
 20
-21.0005694029
 10
-18.8677345378
 20
-21.0627851701
 10
-18.8281580882
 20
-21.1227509426
  0
LWPOLYLINE
  5
2CE
100
AcDbEntity
  8
ASSI
100
AcDbPolyline
 62
7
  6
CONTINUOUS
 90
14
 70
0
 10
-19.1165232757
 20
-20.7445729676
 10
-19.1153804566
 20
-20.7550456708
 10
-19.1046328025
 20
-20.8149945635
 10
-19.0895443553
 20
-20.8755361686
 10
-19.0702221734
 20
-20.9363336253
 10
-19.0469874324
 20
-20.9963763513
 10
-19.019774735
 20
-21.0556517316
 10
-18.9886494785
 20
-21.1141723812
 10
-18.9541290304
 20
-21.1709655634
 10
-18.916156641
 20
-21.2260024038
 10
-18.8747890601
 20
-21.2793117767
 10
-18.8307139043
 20
-21.3300075676
 10
-18.7838859171
 20
-21.3780460912
 10
-18.7730164645
 20
-21.3880135616
  0
LWPOLYLINE
  5
2CF
100
AcDbEntity
  8
RACCORDO
100
AcDbPolyline
 62
7
  6
CONTINUOUS
 90
13
 70
0
 10
-21.1718104264
 20
24.9312641787
 10
-21.1742961279
 20
25.0030762801
 10
-21.1804415031
 20
25.0705715993
 10
-21.190246552
 20
25.1337501364
 10
-21.2038896135
 20
25.1932714518
 10
-21.2211923488
 20
25.2484759852
 10
-21.2416197412
 20
25.2973850547
 10
-21.2651662477
 20
25.3395083303
 10
-21.2918374113
 20
25.3753361421
 10
-21.3211148443
 20
25.4043607992
 10
-21.3530174123
 20
25.4265592603
 10
-21.3875262497
 20
25.4419545667
 10
-21.3943805246
 20
25.4440890305
  0
LWPOLYLINE
  5
2D0
100
AcDbEntity
  8
0
100
AcDbPolyline
 62
7
  6
CONTINUOUS
 90
4
 70
0
 10
-20.8465675937
 20
-22.5899871271
 10
-20.8592303601
 20
-22.0525444001
 10
-20.8714236797
 20
-21.5146656198
 10
-20.8831475526
 20
-20.976350786
  0
LWPOLYLINE
  5
2D1
100
AcDbEntity
  8
0
100
AcDbPolyline
 62
7
  6
CONTINUOUS
 90
4
 70
0
 10
-20.7965675937
 20
-22.5466858569
 10
-20.8092303601
 20
-22.0092431299
 10
-20.8214236797
 20
-21.4713643496
 10
-20.8331475526
 20
-20.9330495158
  0
LWPOLYLINE
  5
2D2
100
AcDbEntity
  8
0
100
AcDbPolyline
 62
7
  6
CONTINUOUS
 90
7
 70
0
 10
-21.5971874263
 20
-23.2400429708
 10
-21.6098058586
 20
-22.7025613338
 10
-21.6219564876
 20
-22.1646452729
 10
-21.6336393134
 20
-21.6262947883
 10
-21.6448543359
 20
-21.0875098798
 10
-21.6556015553
 20
-20.5482905476
 10
-21.6658809715
 20
-20.0086367916
  0
LINE
  5
2D3
100
AcDbEntity
  8
0
100
AcDbLine
 62
7
  6
CONTINUOUS
 10
-22.538229251
 20
19.9734365669
 11
-22.5391022702
 21
20.0159817803
  0
LINE
  5
2D4
100
AcDbEntity
  8
0
100
AcDbLine
 62
7
  6
CONTINUOUS
 10
-19.9410260589
 20
19.2659817803
 11
-19.9401530397
 21
19.2234365669
  0
LINE
  5
2D5
100
AcDbEntity
  8
0
100
AcDbLine
 62
7
  6
CONTINUOUS
 10
-20.8831475526
 20
-20.976350786
 11
-20.8985515395
 21
-20.2301457187
  0
LINE
  5
2D6
100
AcDbEntity
  8
0
100
AcDbLine
 62
7
  6
CONTINUOUS
 10
-20.8331475526
 20
-20.9330495158
 11
-20.8473899992
 21
-20.2449147832
  0
LINE
  5
2D7
100
AcDbEntity
  8
ASSI
100
AcDbLine
 62
253
  6
CONTINUOUS
 10
-21.5844285988
 20
19.5593947051
 11
-21.5844285988
 21
19.6980980353
  0
LINE
  5
2D8
100
AcDbEntity
  8
0
100
AcDbLine
 62
7
  6
CONTINUOUS
 10
-20.6940555343
 20
23.9701319973
 11
-20.6940555343
 21
23.869399679
  0
LINE
  5
2D9
100
AcDbEntity
  8
ASSI
100
AcDbLine
 62
7
  6
CONTINUOUS
 10
-19.8736936138
 20
-20.5259967183
 11
-19.8736936138
 21
-21.7474535459
  0
LINE
  5
2DA
100
AcDbEntity
  8
RACCORDO
100
AcDbLine
 62
253
  6
CONTINUOUS
 10
-19.7543519652
 20
24.2623162244
 11
-19.7543519652
 21
24.178818112
  0
LINE
  5
2DB
100
AcDbEntity
  8
0
100
AcDbLine
 62
7
  6
CONTINUOUS
 10
-19.7533396856
 20
18.4914486452
 11
-19.7533396856
 21
18.2570444359
  0
LINE
  5
2DC
100
AcDbEntity
  8
RACCORDO
100
AcDbLine
 62
7
  6
CONTINUOUS
 10
-19.6248069593
 20
24.353650735
 11
-19.6248069593
 21
24.241263855
  0
LINE
  5
2DD
100
AcDbEntity
  8
DRAFT
100
AcDbLine
 62
7
  6
CONTINUOUS
 10
-18.7730164645
 20
-21.1056568644
 11
-18.7730164645
 21
-24.1623545196
  0
LINE
  5
2DE
100
AcDbEntity
  8
DRAFT
100
AcDbLine
 62
7
  6
CONTINUOUS
 10
-18.6028932689
 20
-21.4266237715
 11
-18.6028932689
 21
-24.4762960223
  0
LINE
  5
2DF
100
AcDbEntity
  8
RACCORDO
100
AcDbLine
 62
253
  6
CONTINUOUS
 10
-19.265517706
 20
21.1105381519
 11
-19.2723413386
 21
21.0513171974
  0
LINE
  5
2E0
100
AcDbEntity
  8
RACCORDO
100
AcDbLine
 62
253
  6
CONTINUOUS
 10
-17.8498884957
 20
21.7929266186
 11
-17.8931764185
 21
21.4172393203
  0
LINE
  5
2E1
100
AcDbEntity
  8
RACCORDO
100
AcDbLine
 62
253
  6
CONTINUOUS
 10
-17.5790538142
 20
21.7899878922
 11
-17.622341737
 21
21.4143005939
  0
LWPOLYLINE
  5
2E2
100
AcDbEntity
  8
RACCORDO
100
AcDbPolyline
 62
7
  6
CONTINUOUS
 90
9
 70
0
 10
-19.2909914828
 20
21.083430582
 10
-19.2908295363
 20
21.0845724913
 10
-19.289694485
 20
21.0887225588
 10
-19.2877058292
 20
21.0927507391
 10
-19.2848743652
 20
21.0966585737
 10
-19.2812362092
 20
21.1003962169
 10
-19.2768034001
 20
21.1039470534
 10
-19.271563899
 20
21.1073276984
 10
-19.265517706
 20
21.1105381519
  0
LINE
  5
2E3
100
AcDbEntity
  8
0
100
AcDbLine
 62
7
  6
CONTINUOUS
 10
-15.69715855
 20
14.4274373636
 11
-15.4911618591
 21
14.9626324659
  0
LINE
  5
2E4
100
AcDbEntity
  8
0
100
AcDbLine
 62
7
  6
CONTINUOUS
 10
-9.4268284187
 20
28.4825644485
 11
-10.3415402242
 21
26.6118664815
  0
LWPOLYLINE
  5
2E5
100
AcDbEntity
  8
RACCORDO
100
AcDbPolyline
 62
253
  6
CONTINUOUS
 90
4
 70
0
 10
-9.1508571342
 20
21.3327331988
 10
-9.1368039981
 20
21.3484740319
 10
-9.1283662481
 20
21.3651877307
 10
-9.1257815489
 20
21.380996608
  0
LINE
  5
2E6
100
AcDbEntity
  8
DRAFT
100
AcDbLine
 62
7
  6
CONTINUOUS
 10
-14.874174561
 20
16.3866705715
 11
-13.9044076203
 21
17.2614235078
  0
LINE
  5
2E7
100
AcDbEntity
  8
DRAFT
100
AcDbLine
 62
7
  6
CONTINUOUS
 10
-0.1259298773
 20
26.1870028174
 11
-0.3072721952
 21
26.0235407743
  0
LINE
  5
2E8
100
AcDbEntity
  8
DRAFT
100
AcDbLine
 62
7
  6
CONTINUOUS
 10
-16.45766821
 20
14.6469775921
 11
-15.40766821
 21
15.5880489783
  0
LINE
  5
2E9
100
AcDbEntity
  8
RACCORDO
100
AcDbLine
 62
7
  6
CONTINUOUS
 10
-12.7580132114
 20
16.9304879475
 11
-9.1508571342
 21
20.0717736302
  0
LINE
  5
2EA
100
AcDbEntity
  8
RACCORDO
100
AcDbLine
 62
7
  6
CONTINUOUS
 10
5.2605078353
 20
31.6570593145
 11
-1.2411618591
 21
25.995091413
  0
LINE
  5
2EB
100
AcDbEntity
  8
DRAFT
100
AcDbLine
 62
7
  6
CONTINUOUS
 10
-0.1259298773
 20
26.152930089
 11
5.4987183787
 21
31.0511453753
  0
LINE
  5
2EC
100
AcDbEntity
  8
0
100
AcDbLine
 62
7
  6
CONTINUOUS
 10
-15.4911618591
 20
14.9626324659
 11
-15.1911618591
 21
15.222440087
  0
LINE
  5
2ED
100
AcDbEntity
  8
DRAFT
100
AcDbLine
 62
7
  6
CONTINUOUS
 10
-15.40766821
 20
15.5880489783
 11
-15.35766821
 21
15.6298385955
  0
LINE
  5
2EE
100
AcDbEntity
  8
DRAFT
100
AcDbLine
 62
7
  6
CONTINUOUS
 10
-0.4402042906
 20
26.0619149648
 11
-0.7053254273
 21
25.84977371
  0
LINE
  5
2EF
100
AcDbEntity
  8
DRAFT
100
AcDbLine
 62
7
  6
CONTINUOUS
 10
-12.7718324365
 20
-22.8380494715
 11
-13.4067408462
 21
-22.9266237715
  0
LINE
  5
2F0
100
AcDbEntity
  8
DRAFT
100
AcDbLine
 62
7
  6
CONTINUOUS
 10
-13.5897535481
 20
-22.5813385759
 11
-14.27276625
 21
-22.6766237715
  0
LINE
  5
2F1
100
AcDbEntity
  8
DRAFT
100
AcDbLine
 62
7
  6
CONTINUOUS
 10
-14.4557789519
 20
-22.3313385759
 11
-15.1387916537
 21
-22.4266237715
  0
LINE
  5
2F2
100
AcDbEntity
  8
DRAFT
100
AcDbLine
 62
7
  6
CONTINUOUS
 10
-15.3218043556
 20
-22.0813385759
 11
-16.0048170575
 21
-22.1766237715
  0
LINE
  5
2F3
100
AcDbEntity
  8
DRAFT
100
AcDbLine
 62
7
  6
CONTINUOUS
 10
-16.1878297594
 20
-21.8313385759
 11
-16.8708424613
 21
-21.9266237715
  0
LINE
  5
2F4
100
AcDbEntity
  8
DRAFT
100
AcDbLine
 62
7
  6
CONTINUOUS
 10
-17.0538551632
 20
-21.5813385759
 11
-17.7368678651
 21
-21.6766237715
  0
LINE
  5
2F5
100
AcDbEntity
  8
DRAFT
100
AcDbLine
 62
7
  6
CONTINUOUS
 10
-17.919880567
 20
-21.3313385759
 11
-18.6028932689
 21
-21.4266237715
  0
LINE
  5
2F6
100
AcDbEntity
  8
DRAFT
100
AcDbLine
 62
7
  6
CONTINUOUS
 10
-17.0538551632
 20
-24.6385685159
 11
-17.7368678651
 21
-24.7262960223
  0
LINE
  5
2F7
100
AcDbEntity
  8
DRAFT
100
AcDbLine
 62
7
  6
CONTINUOUS
 10
-17.919880567
 20
-24.3885685159
 11
-18.6028932689
 21
-24.4762960223
  0
LWPOLYLINE
  5
2F8
100
AcDbEntity
  8
RACCORDO
100
AcDbPolyline
 62
7
  6
CONTINUOUS
 90
11
 70
0
 10
-25.1106413914
 20
26.6099288474
 10
-25.1211787056
 20
26.6844346712
 10
-25.1369851134
 20
26.7553253275
 10
-25.1577016341
 20
26.8201137629
 10
-25.1831032118
 20
26.8784500945
 10
-25.2134294692
 20
26.9309373589
 10
-25.2485244371
 20
26.9771539811
 10
-25.2882670302
 20
27.0168453722
 10
-25.3324130763
 20
27.0496282827
 10
-25.3800268067
 20
27.0748154607
 10
-25.4217612539
 20
27.0897796525
  0
LINE
  5
2F9
100
AcDbEntity
  8
0
100
AcDbLine
 62
7
  6
CONTINUOUS
 10
-16.0439117419
 20
18.1409817803
 11
-16.0560730753
 21
18.7336451541
  0
LINE
  5
2FA
100
AcDbEntity
  8
0
100
AcDbLine
 62
7
  6
CONTINUOUS
 10
-15.8440335765
 20
18.3261708895
 11
-15.8561949099
 21
18.9188342633
  0
LINE
  5
2FB
100
AcDbEntity
  8
DRAFT
100
AcDbLine
 62
7
  6
CONTINUOUS
 10
-17.919880567
 20
-21.3313385759
 11
-17.919880567
 21
-24.3885685159
  0
LINE
  5
2FC
100
AcDbEntity
  8
DRAFT
100
AcDbLine
 62
7
  6
CONTINUOUS
 10
-17.7368678651
 20
-21.6766237715
 11
-17.7368678651
 21
-24.7262960223
  0
LINE
  5
2FD
100
AcDbEntity
  8
RACCORDO
100
AcDbLine
 62
7
  6
CONTINUOUS
 10
-17.169141881
 20
16.9625680312
 11
-17.169141881
 21
16.7938206263
  0
LINE
  5
2FE
100
AcDbEntity
  8
DRAFT
100
AcDbLine
 62
7
  6
CONTINUOUS
 10
-17.0538551632
 20
-21.5813385759
 11
-17.0538551632
 21
-24.6385685159
  0
LINE
  5
2FF
100
AcDbEntity
  8
DRAFT
100
AcDbLine
 62
7
  6
CONTINUOUS
 10
-16.8708424613
 20
-21.9266237715
 11
-16.8708424613
 21
-24.9762960223
  0
LINE
  5
300
100
AcDbEntity
  8
DRAFT
100
AcDbLine
 62
7
  6
CONTINUOUS
 10
-16.295459868
 20
17.4464793517
 11
-16.295459868
 21
16.7969602988
  0
LINE
  5
301
100
AcDbEntity
  8
DRAFT
100
AcDbLine
 62
7
  6
CONTINUOUS
 10
-16.1878297594
 20
-21.8313385759
 11
-16.1878297594
 21
-24.8885685159
  0
LINE
  5
302
100
AcDbEntity
  8
DRAFT
100
AcDbLine
 62
7
  6
CONTINUOUS
 10
-16.0048170575
 20
-22.1766237715
 11
-16.0048170575
 21
-25.2262960223
  0
LINE
  5
303
100
AcDbEntity
  8
0
100
AcDbLine
 62
253
  6
CONTINUOUS
 10
-15.8062253686
 20
19.051734081
 11
-15.8062253686
 21
19.3981442425
  0
LINE
  5
304
100
AcDbEntity
  8
ASSI
100
AcDbLine
 62
253
  6
CONTINUOUS
 10
-15.7801346048
 20
20.736060755
 11
-15.7801346048
 21
20.882501202
  0
LINE
  5
305
100
AcDbEntity
  8
0
100
AcDbLine
 62
253
  6
CONTINUOUS
 10
-15.3749707753
 20
19.4252115143
 11
-15.3749707753
 21
19.7716216758
  0
LINE
  5
306
100
AcDbEntity
  8
DRAFT
100
AcDbLine
 62
7
  6
CONTINUOUS
 10
-15.35766821
 20
15.0782413572
 11
-15.35766821
 21
15.6298385955
  0
LINE
  5
307
100
AcDbEntity
  8
DRAFT
100
AcDbLine
 62
7
  6
CONTINUOUS
 10
-15.3218043556
 20
-22.0813385759
 11
-15.3218043556
 21
-25.1385685159
  0
LINE
  5
308
100
AcDbEntity
  8
DRAFT
100
AcDbLine
 62
7
  6
CONTINUOUS
 10
-15.1387916537
 20
-22.4266237715
 11
-15.1387916537
 21
-25.4762960223
  0
LINE
  5
309
100
AcDbEntity
  8
RACCORDO
100
AcDbLine
 62
7
  6
CONTINUOUS
 10
-14.874174561
 20
16.8629845436
 11
-14.874174561
 21
16.3866705715
  0
LWPOLYLINE
  5
30A
100
AcDbEntity
  8
0
100
AcDbPolyline
 62
7
  6
CONTINUOUS
 90
16
 70
0
 10
-16.0560730753
 20
18.7336451541
 10
-16.0554580019
 20
18.7813565637
 10
-16.0521182642
 20
18.8300386489
 10
-16.0460538622
 20
18.8796914097
 10
-16.0371339898
 20
18.9309010009
 10
-16.0254894532
 20
18.9830812678
 10
-16.0115126708
 20
19.0344737457
 10
-15.9951241537
 20
19.0850515848
 10
-15.9764033908
 20
19.134841635
 10
-15.9559812682
 20
19.1821659816
 10
-15.933799799
 20
19.2269405868
 10
-15.90991697
 20
19.2692494885
 10
-15.8851376278
 20
19.307666885
 10
-15.8597300546
 20
19.3417175093
 10
-15.8334259682
 20
19.3718766284
 10
-15.8062253686
 20
19.3981442425
  0
LWPOLYLINE
  5
30B
100
AcDbEntity
  8
0
100
AcDbPolyline
 62
7
  6
CONTINUOUS
 90
13
 70
0
 10
-15.8561949099
 20
18.9188342633
 10
-15.8559226823
 20
18.9309709344
 10
-15.8548258423
 20
18.943273479
 10
-15.8529043899
 20
18.9557418971
 10
-15.850095247
 20
18.9686023114
 10
-15.8464614918
 20
18.9816285991
 10
-15.8421923586
 20
18.9941423931
 10
-15.8372541743
 20
19.0061165329
 10
-15.831680612
 20
19.0175781788
 10
-15.825761925
 20
19.0279304452
 10
-15.8195948643
 20
19.03697437
 10
-15.8130826788
 20
19.0449089153
 10
-15.8062253686
 20
19.051734081
  0
LINE
  5
30C
100
AcDbEntity
  8
0
100
AcDbLine
 62
253
  6
CONTINUOUS
 10
-15.3641487946
 20
19.4325307985
 11
-15.3208608718
 21
19.8082180968
  0
LINE
  5
30D
100
AcDbEntity
  8
RACCORDO
100
AcDbLine
 62
253
  6
CONTINUOUS
 10
-15.0675801432
 20
21.0649878922
 11
-15.0838660363
 21
20.9236458556
  0
LINE
  5
30E
100
AcDbEntity
  8
RACCORDO
100
AcDbLine
 62
253
  6
CONTINUOUS
 10
-13.9071529264
 20
21.9914609525
 11
-13.913976559
 21
21.932239998
  0
LINE
  5
30F
100
AcDbEntity
  8
0
100
AcDbLine
 62
253
  6
CONTINUOUS
 10
-12.9682066815
 20
22.4440696467
 11
-12.9926028527
 21
22.2323401144
  0
LWPOLYLINE
  5
310
100
AcDbEntity
  8
RACCORDO
100
AcDbPolyline
 62
7
  6
CONTINUOUS
 90
9
 70
0
 10
-14.9665308865
 20
20.9950341885
 10
-14.9666928329
 20
20.9938922793
 10
-14.9678278842
 20
20.9897422117
 10
-14.96981654
 20
20.9857140314
 10
-14.9726480041
 20
20.9818061968
 10
-14.97628616
 20
20.9780685536
 10
-14.9807189691
 20
20.9745177172
 10
-14.9859584702
 20
20.9711370722
 10
-14.9920046632
 20
20.9679266186
  0
LWPOLYLINE
  5
311
100
AcDbEntity
  8
RACCORDO
100
AcDbPolyline
 62
7
  6
CONTINUOUS
 90
9
 70
0
 10
-13.9326267031
 20
21.9643533826
 10
-13.9324647567
 20
21.9654952919
 10
-13.9313297053
 20
21.9696453594
 10
-13.9293410496
 20
21.9736735397
 10
-13.9265095855
 20
21.9775813744
 10
-13.9228714295
 20
21.9813190175
 10
-13.9184386204
 20
21.984869854
 10
-13.9131991194
 20
21.988250499
 10
-13.9071529264
 20
21.9914609525
  0
LINE
  5
312
100
AcDbEntity
  8
0
100
AcDbLine
 62
253
  6
CONTINUOUS
 10
-12.9047825271
 20
22.4648604896
 11
-12.9479784585
 21
22.2424977869
  0
LINE
  5
313
100
AcDbEntity
  8
DRAFT
100
AcDbLine
 62
7
  6
CONTINUOUS
 10
-8.0464522779
 20
13.4630489783
 11
-9.0964522779
 21
12.5219775921
  0
LINE
  5
314
100
AcDbEntity
  8
0
100
AcDbLine
 62
7
  6
CONTINUOUS
 10
-4.5478951194
 20
16.1481442425
 11
-4.1166405261
 21
16.5216216758
  0
LWPOLYLINE
  5
315
100
AcDbEntity
  8
0
100
AcDbPolyline
 62
7
  6
CONTINUOUS
 90
13
 70
0
 10
-4.1166405261
 20
16.5216216758
 10
-4.1120931474
 20
16.5254880642
 10
-4.1075502722
 20
16.5292076764
 10
-4.1030119007
 20
16.5327805126
 10
-4.098476536
 20
16.5362076563
 10
-4.0939456748
 20
16.5394880239
 10
-4.0894238074
 20
16.5426183646
 10
-4.0849109426
 20
16.5455985294
 10
-4.0804070716
 20
16.5484286673
 10
-4.0759166577
 20
16.5511059735
 10
-4.0714411889
 20
16.553629513
 10
-4.0669791772
 20
16.5560002207
 10
-4.0625306226
 20
16.5582180968
  0
LINE
  5
316
100
AcDbEntity
  8
DRAFT
100
AcDbLine
 62
7
  6
CONTINUOUS
 10
-7.9964522779
 20
13.5048385955
 11
-8.0464522779
 21
13.4630489783
  0
LINE
  5
317
100
AcDbEntity
  8
RACCORDO
100
AcDbLine
 62
7
  6
CONTINUOUS
 10
-7.03598474
 20
14.7155948884
 11
-1.3683611912
 21
19.4318496813
  0
LINE
  5
318
100
AcDbEntity
  8
RACCORDO
100
AcDbLine
 62
253
  6
CONTINUOUS
 10
-6.9067144622
 20
14.736182008
 11
-1.240432636
 21
19.4513203002
  0
LINE
  5
319
100
AcDbEntity
  8
RACCORDO
100
AcDbLine
 62
7
  6
CONTINUOUS
 10
12.59409788
 20
29.5400342213
 11
5.6870413712
 21
23.995091413
  0
LWPOLYLINE
  5
31A
100
AcDbEntity
  8
RACCORDO
100
AcDbPolyline
 62
253
  6
CONTINUOUS
 90
12
 70
0
 10
-1.240432636
 20
19.4513203002
 10
-1.2184266653
 20
19.4689753171
 10
-1.195624578
 20
19.4855796978
 10
-1.1720779806
 20
19.5009034971
 10
-1.1478401454
 20
19.5147089747
 10
-1.1229928559
 20
19.5267416173
 10
-1.0976464315
 20
19.5367374102
 10
-1.0718125711
 20
19.544456881
 10
-1.0456879624
 20
19.5495959395
 10
-1.0196622985
 20
19.5518802278
 10
-0.9938463106
 20
19.5511331841
 10
-0.9684291061
 20
19.5471939777
  0
LINE
  5
31B
100
AcDbEntity
  8
RACCORDO
100
AcDbLine
 62
7
  6
CONTINUOUS
 10
-1.3411747026
 20
19.4533837595
 11
-1.3683658245
 21
19.4318457175
  0
LWPOLYLINE
  5
31C
100
AcDbEntity
  8
RACCORDO
100
AcDbPolyline
 62
253
  6
CONTINUOUS
 90
6
 70
0
 10
-1.3683611912
 20
19.4318496813
 10
-1.3506279575
 20
19.4439040089
 10
-1.326149383
 20
19.4538671184
 10
-1.2990663466
 20
19.4584900944
 10
-1.2702017522
 20
19.4576324692
 10
-1.240432636
 20
19.4513203002
  0
LINE
  5
31D
100
AcDbEntity
  8
RACCORDO
100
AcDbLine
 62
7
  6
CONTINUOUS
 10
-1.2894310056
 20
19.4885186625
 11
-1.3411747026
 21
19.4533837595
  0
LINE
  5
31E
100
AcDbEntity
  8
0
100
AcDbLine
 62
7
  6
CONTINUOUS
 10
-4.0625306226
 20
16.5582180968
 11
-0.7978951194
 21
18.131899679
  0
LINE
  5
31F
100
AcDbEntity
  8
RACCORDO
100
AcDbLine
 62
7
  6
CONTINUOUS
 10
-2.551227413
 20
16.2855381519
 11
-1.1355982027
 21
16.9679266186
  0
LINE
  5
320
100
AcDbEntity
  8
RACCORDO
100
AcDbLine
 62
7
  6
CONTINUOUS
 10
-2.1884777067
 20
16.1055768199
 11
-1.1788861254
 21
16.5922393203
  0
LINE
  5
321
100
AcDbEntity
  8
RACCORDO
100
AcDbLine
 62
7
  6
CONTINUOUS
 10
2.1872378847
 20
18.0690696467
 11
1.2482916399
 21
17.6164609525
  0
LWPOLYLINE
  5
322
100
AcDbEntity
  8
RACCORDO
100
AcDbPolyline
 62
7
  6
CONTINUOUS
 90
25
 70
0
 10
-1.1355982027
 20
16.9679266186
 10
-1.1287840133
 20
16.9709153707
 10
-1.1213257875
 20
16.9736555251
 10
-1.1132235254
 20
16.9761470817
 10
-1.1044371306
 20
16.9783985563
 10
-1.0950066994
 20
16.9804014332
 10
-1.0850525202
 20
16.982130165
 10
-1.074567884
 20
16.9835812398
 10
-1.0635594997
 20
16.9847581695
 10
-1.0521677832
 20
16.985645942
 10
-1.0403878241
 20
16.9862408531
 10
-1.0282245328
 20
16.9865466068
 10
-1.0158330563
 20
16.9865593034
 10
-1.0032104716
 20
16.9862751886
 10
-0.9903597017
 20
16.9856980165
 10
-0.9774446627
 20
16.9848351492
 10
-0.9644645313
 20
16.9836829269
 10
-0.9514201307
 20
16.9822450093
 10
-0.9384778468
 20
16.9805397377
 10
-0.9256389878
 20
16.9785636871
 10
-0.9129022455
 20
16.9763202825
 10
-0.9004300816
 20
16.9738381391
 10
-0.8882766498
 20
16.9711267955
 10
-0.8763877963
 20
16.9681767132
 10
-0.8647635212
 20
16.9649878922
  0
LWPOLYLINE
  5
323
100
AcDbEntity
  8
RACCORDO
100
AcDbPolyline
 62
7
  6
CONTINUOUS
 90
25
 70
0
 10
1.2482916399
 20
17.6164609525
 10
1.2414774505
 20
17.6134722004
 10
1.2340192248
 20
17.6107320461
 10
1.2259169626
 20
17.6082404895
 10
1.2171305678
 20
17.6059890148
 10
1.2077001366
 20
17.6039861379
 10
1.1977459574
 20
17.6022574062
 10
1.1872613212
 20
17.6008063313
 10
1.1762529369
 20
17.5996294016
 10
1.1648612204
 20
17.5987416292
 10
1.1530812613
 20
17.5981467181
 10
1.14091797
 20
17.5978409643
 10
1.1285264935
 20
17.5978282678
 10
1.1159039088
 20
17.5981123826
 10
1.103053139
 20
17.5986895546
 10
1.0901380999
 20
17.599552422
 10
1.0771579685
 20
17.6007046443
 10
1.0641135679
 20
17.6021425618
 10
1.051171284
 20
17.6038478335
 10
1.038332425
 20
17.605823884
 10
1.0255956827
 20
17.6080672887
 10
1.0131235188
 20
17.610549432
 10
1.000970087
 20
17.6132607756
 10
0.9890812335
 20
17.6162108579
 10
0.9774569584
 20
17.619399679
  0
LWPOLYLINE
  5
324
100
AcDbEntity
  8
ASSI
100
AcDbPolyline
 62
7
  6
CONTINUOUS
 90
31
 70
0
 10
-16.0204354892
 20
-10.3930338272
 10
-16.1938074748
 20
-10.336052065
 10
-16.3638464312
 20
-10.2659900619
 10
-16.5300551499
 20
-10.1826414095
 10
-16.6942089313
 20
-10.0841722536
 10
-16.8530712169
 20
-9.9713362231
 10
-17.0000375564
 20
-9.8488377949
 10
-17.1351706144
 20
-9.7175925702
 10
-17.2598963658
 20
-9.5767168527
 10
-17.3716473552
 20
-9.429744046
 10
-17.4708557865
 20
-9.2772455224
 10
-17.5584158644
 20
-9.1185208837
 10
-17.6331509375
 20
-8.9564848743
 10
-17.6951578375
 20
-8.792431508
 10
-17.7451665714
 20
-8.6257466158
 10
-17.7831697284
 20
-8.4575085617
 10
-17.8092170237
 20
-8.2892684479
 10
-17.8236945949
 20
-8.1207915652
 10
-17.8267369936
 20
-7.9509101825
 10
-17.8181016645
 20
-7.7796579394
 10
-17.797614148
 20
-7.6085369051
 10
-17.765296319
 20
-7.438839085
 10
-17.7213816608
 20
-7.2719280354
 10
-17.6660153297
 20
-7.1083380073
 10
-17.599190466
 20
-6.9483151573
 10
-17.5214297027
 20
-6.7933041002
 10
-17.4329307631
 20
-6.6437773628
 10
-17.3328119262
 20
-6.4988112188
 10
-17.2207762165
 20
-6.3589843285
 10
-17.0975747062
 20
-6.2260966493
 10
-16.9636944207
 20
-6.101289155
  0
LWPOLYLINE
  5
325
100
AcDbEntity
  8
RACCORDO
100
AcDbPolyline
 62
253
  6
CONTINUOUS
 90
6
 70
0
 10
-36.2987844771
 20
16.9434307859
 10
-36.3115145206
 20
16.9571664462
 10
-36.3210063554
 20
16.971358931
 10
-36.3271507411
 20
16.985844899
 10
-36.3298769634
 20
17.0004576302
 10
-36.3299968261
 20
17.0064891952
  0
LWPOLYLINE
  5
326
100
AcDbEntity
  8
RACCORDO
100
AcDbPolyline
 62
253
  6
CONTINUOUS
 90
8
 70
0
 10
-25.1568828446
 20
26.6609914385
 10
-25.149654983
 20
26.6323107738
 10
-25.1435866235
 20
26.6032423473
 10
-25.1387386302
 20
26.5739079789
 10
-25.135050139
 20
26.5441858487
 10
-25.1322606626
 20
26.5147049382
 10
-25.1302833717
 20
26.4856749077
 10
-25.1292050955
 20
26.4568860968
  0
LWPOLYLINE
  5
327
100
AcDbEntity
  8
0
100
AcDbPolyline
 62
7
  6
CONTINUOUS
 90
7
 70
0
 10
-12.5039206866
 20
-25.8650429708
 10
-12.5165391188
 20
-25.3275613338
 10
-12.5286897478
 20
-24.7896452729
 10
-12.5403725736
 20
-24.2512947883
 10
-12.5515875962
 20
-23.7125098798
 10
-12.5623348156
 20
-23.1732905476
 10
-12.5726142317
 20
-22.6336367916
  0
LINE
  5
328
100
AcDbEntity
  8
DRAFT
100
AcDbLine
 62
7
  6
CONTINUOUS
 10
-14.4557789519
 20
-22.3313385759
 11
-14.4557789519
 21
-25.3885685159
  0
LINE
  5
329
100
AcDbEntity
  8
DRAFT
100
AcDbLine
 62
7
  6
CONTINUOUS
 10
-14.27276625
 20
-22.6766237715
 11
-14.27276625
 21
-25.7262960223
  0
LINE
  5
32A
100
AcDbEntity
  8
0
100
AcDbLine
 62
7
  6
CONTINUOUS
 10
-13.8107000482
 20
21.9830784259
 11
-13.8107000482
 21
21.894399679
  0
LINE
  5
32B
100
AcDbEntity
  8
DRAFT
100
AcDbLine
 62
7
  6
CONTINUOUS
 10
-13.5897535481
 20
-22.5813385759
 11
-13.5897535481
 21
-25.6385685159
  0
LINE
  5
32C
100
AcDbEntity
  8
DRAFT
100
AcDbLine
 62
7
  6
CONTINUOUS
 10
-13.4067408462
 20
-22.9266237715
 11
-13.4067408462
 21
-25.9762960223
  0
LINE
  5
32D
100
AcDbEntity
  8
DRAFT
100
AcDbLine
 62
7
  6
CONTINUOUS
 10
-12.7718324365
 20
-22.8380494715
 11
-12.7718324365
 21
-25.8947471266
  0
LINE
  5
32E
100
AcDbEntity
  8
0
100
AcDbLine
 62
7
  6
CONTINUOUS
 10
-12.0562253686
 20
21.381899679
 11
-12.0705667305
 21
21.2574338421
  0
LINE
  5
32F
100
AcDbEntity
  8
DRAFT
100
AcDbLine
 62
7
  6
CONTINUOUS
 10
5.3860838026
 20
24.3800104653
 11
5.1512049394
 21
24.1591390182
  0
LINE
  5
330
100
AcDbEntity
  8
RACCORDO
100
AcDbLine
 62
7
  6
CONTINUOUS
 10
0.6976973424
 20
16.1257608468
 11
-0.0211379469
 21
15.4799197231
  0
LINE
  5
331
100
AcDbEntity
  8
RACCORDO
100
AcDbLine
 62
7
  6
CONTINUOUS
 10
-1.6758128224
 20
13.9932688908
 11
-2.4800692117
 21
13.270680757
  0
LINE
  5
332
100
AcDbEntity
  8
0
100
AcDbLine
 62
7
  6
CONTINUOUS
 10
1.0550330863
 20
17.8071809663
 11
0.9565795603
 21
17.7201319973
  0
LINE
  5
333
100
AcDbEntity
  8
0
100
AcDbLine
 62
7
  6
CONTINUOUS
 10
0.0872482421
 20
16.301982323
 11
-0.6403465922
 21
15.6586698621
  0
LINE
  5
334
100
AcDbEntity
  8
0
100
AcDbLine
 62
7
  6
CONTINUOUS
 10
-2.3151849172
 20
14.1778397164
 11
-3.1292417714
 21
13.458080733
  0
LINE
  5
335
100
AcDbEntity
  8
RACCORDO
100
AcDbLine
 62
7
  6
CONTINUOUS
 10
-0.0211002001
 20
19.0993293452
 11
-0.8711002001
 21
18.363207752
  0
LINE
  5
336
100
AcDbEntity
  8
0
100
AcDbLine
 62
7
  6
CONTINUOUS
 10
-4.7849786069
 20
13.3875680312
 11
-5.5349786069
 21
12.7380489783
  0
LINE
  5
337
100
AcDbEntity
  8
DRAFT
100
AcDbLine
 62
7
  6
CONTINUOUS
 10
-4.9648824175
 20
13.3606036195
 11
-5.6648824175
 21
12.7755489783
  0
LINE
  5
338
100
AcDbEntity
  8
DRAFT
100
AcDbLine
 62
7
  6
CONTINUOUS
 10
-0.9711002001
 20
18.2766052116
 11
-1.6229043719
 21
17.7342130568
  0
LINE
  5
339
100
AcDbEntity
  8
DRAFT
100
AcDbLine
 62
7
  6
CONTINUOUS
 10
-4.7898473974
 20
15.0988739073
 11
-5.65866062
 21
14.3758998971
  0
LINE
  5
33A
100
AcDbEntity
  8
DRAFT
100
AcDbLine
 62
7
  6
CONTINUOUS
 10
-4.3947256016
 20
14.7781514033
 11
-5.65866062
 21
13.7263808442
  0
LINE
  5
33B
100
AcDbEntity
  8
RACCORDO
100
AcDbLine
 62
7
  6
CONTINUOUS
 10
1.7222856298
 20
16.1429266186
 11
0.3066564195
 21
15.4605381519
  0
LINE
  5
33C
100
AcDbEntity
  8
RACCORDO
100
AcDbLine
 62
7
  6
CONTINUOUS
 10
2.3851173886
 20
14.8605381519
 11
3.8007465989
 21
15.5429266186
  0
LINE
  5
33D
100
AcDbEntity
  8
RACCORDO
100
AcDbLine
 62
7
  6
CONTINUOUS
 10
2.7478670949
 20
14.6805768199
 11
3.7574586761
 21
15.1672393203
  0
LWPOLYLINE
  5
33E
100
AcDbEntity
  8
RACCORDO
100
AcDbPolyline
 62
7
  6
CONTINUOUS
 90
25
 70
0
 10
0.3066564195
 20
15.4605381519
 10
0.2998422302
 20
15.4575493998
 10
0.2923840044
 20
15.4548092455
 10
0.2842817422
 20
15.4523176889
 10
0.2754953475
 20
15.4500662142
 10
0.2660649163
 20
15.4480633373
 10
0.2561107371
 20
15.4463346056
 10
0.2456261008
 20
15.4448835307
 10
0.2346177166
 20
15.443706601
 10
0.2232260001
 20
15.4428188286
 10
0.211446041
 20
15.4422239175
 10
0.1992827497
 20
15.4419181637
 10
0.1868912732
 20
15.4419054672
 10
0.1742686885
 20
15.442189582
 10
0.1614179186
 20
15.442766754
 10
0.1485028796
 20
15.4436296214
 10
0.1355227481
 20
15.4447818437
 10
0.1224783476
 20
15.4462197612
 10
0.1095360637
 20
15.4479250329
 10
0.0966972047
 20
15.4499010834
 10
0.0839604624
 20
15.4521444881
 10
0.0714882984
 20
15.4546266314
 10
0.0593348666
 20
15.457337975
 10
0.0474460132
 20
15.4602880573
 10
0.035821738
 20
15.4634768783
  0
LWPOLYLINE
  5
33F
100
AcDbEntity
  8
RACCORDO
100
AcDbPolyline
 62
7
  6
CONTINUOUS
 90
25
 70
0
 10
3.8007465989
 20
15.5429266186
 10
3.8075607883
 20
15.5459153707
 10
3.815019014
 20
15.5486555251
 10
3.8231212762
 20
15.5511470817
 10
3.831907671
 20
15.5533985563
 10
3.8413381022
 20
15.5554014332
 10
3.8512922813
 20
15.557130165
 10
3.8617769176
 20
15.5585812398
 10
3.8727853019
 20
15.5597581695
 10
3.8841770183
 20
15.560645942
 10
3.8959569774
 20
15.5612408531
 10
3.9081202688
 20
15.5615466068
 10
3.9205117452
 20
15.5615593034
 10
3.9331343299
 20
15.5612751886
 10
3.9459850998
 20
15.5606980165
 10
3.9589001389
 20
15.5598351492
 10
3.9718802703
 20
15.5586829269
 10
3.9849246709
 20
15.5572450093
 10
3.9978669547
 20
15.5555397377
 10
4.0107058138
 20
15.5535636871
 10
4.023442556
 20
15.5513202825
 10
4.03591472
 20
15.5488381391
 10
4.0480681518
 20
15.5461267955
 10
4.0599570052
 20
15.5431767132
 10
4.0715812804
 20
15.5399878922
  0
LWPOLYLINE
  5
340
100
AcDbEntity
  8
RACCORDO
100
AcDbPolyline
 62
253
  6
CONTINUOUS
 90
16
 70
0
 10
-36.2987844651
 20
16.9434308232
 10
-35.8802872249
 20
16.5322542772
 10
-35.4295280603
 20
16.1289152655
 10
-34.9469471185
 20
15.734083548
 10
-34.4328229461
 20
15.3482559463
 10
-33.8879044375
 20
14.9722698678
 10
-33.3135311073
 20
14.6072580683
 10
-32.7104917158
 20
14.2538366731
 10
-32.0795930915
 20
13.9125795252
 10
-31.4224772956
 20
13.5844534668
 10
-30.7402737763
 20
13.2700300273
 10
-30.0339123753
 20
12.9697370994
 10
-29.3049310952
 20
12.684227816
 10
-28.5546455035
 20
12.4139823245
 10
-27.7840987347
 20
12.1593356345
 10
-26.9945097795
 20
11.9206620776
  0
LWPOLYLINE
  5
341
100
AcDbEntity
  8
RACCORDO
100
AcDbPolyline
 62
253
  6
CONTINUOUS
 90
16
 70
0
 10
-35.623181149
 20
18.2039326568
 10
-35.2250178717
 20
17.7907602895
 10
-34.7941316258
 20
17.3865211543
 10
-34.3305224113
 20
16.9912152511
 10
-33.8332360243
 20
16.6039276446
 10
-33.3032266687
 20
16.2255732701
 10
-32.7433569563
 20
15.858896934
 10
-32.1533601069
 20
15.5040631582
 10
-31.5335029008
 20
15.1609074208
 10
-30.8874482898
 20
14.8316809621
 10
-30.2151005651
 20
14.51657227
 10
-29.5165554355
 20
14.2153928566
 10
-28.7957629796
 20
13.929828498
 10
-28.0540398901
 20
13.6604411196
 10
-27.2900694743
 20
13.406668796
 10
-26.5038517321
 20
13.1685115272
  0
LWPOLYLINE
  5
342
100
AcDbEntity
  8
RACCORDO
100
AcDbPolyline
 62
253
  6
CONTINUOUS
 90
10
 70
0
 10
-9.5387639105
 20
21.6756523474
 10
-9.5414213982
 20
21.7064656287
 10
-9.549313115
 20
21.7378157337
 10
-9.5621992749
 20
21.768750105
 10
-9.5796883386
 20
21.7983288177
 10
-9.6012489097
 20
21.8256531373
 10
-9.6262258812
 20
21.8498928284
 10
-9.6538603404
 20
21.8703113801
 10
-9.6833126283
 20
21.8862883851
 10
-9.7136878519
 20
21.8973383901
  0
LWPOLYLINE
  5
343
100
AcDbEntity
  8
RACCORDO
100
AcDbPolyline
 62
253
  6
CONTINUOUS
 90
10
 70
0
 10
-6.9312977976
 20
-30.7362492503
 10
-7.0356429382
 20
-26.7328119409
 10
-7.1139129057
 20
-22.7050484181
 10
-7.1660981765
 20
-18.6534486709
 10
-7.1921924005
 20
-14.5785055262
 10
-7.1921924005
 20
-10.4807147734
 10
-7.1660981765
 20
-6.360575107
 10
-7.1139129057
 20
-2.2185878194
 10
-7.0356429382
 20
1.9447432638
 10
-6.9312977976
 20
6.1289116583
  0
LWPOLYLINE
  5
344
100
AcDbEntity
  8
RACCORDO
100
AcDbPolyline
 62
7
  6
CONTINUOUS
 90
3
 70
0
 10
-9.1257817003
 20
21.3809966082
 10
-9.1268701476
 20
21.4362891187
 10
-9.1323962937
 20
21.5135977715
  0
LINE
  5
345
100
AcDbEntity
  8
0
100
AcDbLine
 62
7
  6
CONTINUOUS
 10
-10.6201202831
 20
26.6016495677
 11
-10.6201051236
 21
26.5986821122
  0
LWPOLYLINE
  5
346
100
AcDbEntity
  8
RACCORDO
100
AcDbPolyline
 62
253
  6
CONTINUOUS
 90
5
 70
0
 10
-9.1508571342
 20
21.3327331988
 10
-9.150994545
 20
21.3597644117
 10
-9.1519717249
 20
21.3872202238
 10
-9.153788674
 20
21.4151006353
 10
-9.1563539155
 20
21.443619709
  0
LINE
  5
347
100
AcDbEntity
  8
RACCORDO
100
AcDbLine
 62
253
  6
CONTINUOUS
 10
-9.1508571342
 20
20.0717736302
 11
-9.1508571342
 21
21.3327331988
  0
LINE
  5
348
100
AcDbEntity
  8
RACCORDO
100
AcDbLine
 62
7
  6
CONTINUOUS
 10
-9.1257810756
 20
20.1187957033
 11
-9.1257810756
 21
21.381214161
  0
LWPOLYLINE
  5
349
100
AcDbEntity
  8
RACCORDO
100
AcDbPolyline
 62
253
  6
CONTINUOUS
 90
13
 70
0
 10
-6.4406397501
 20
7.3767611079
 10
-6.5030522423
 20
7.3140319759
 10
-6.5643492168
 20
7.2388262965
 10
-6.6235694267
 20
7.1523233907
 10
-6.6797841917
 20
7.0558797387
 10
-6.73211195
 20
6.9510077285
 10
-6.779732086
 20
6.8393519453
 10
-6.8218978182
 20
6.7226633396
 10
-6.8579478947
 20
6.6027718009
 10
-6.8873169599
 20
6.4815574871
 10
-6.90954444
 20
6.3609212807
 10
-6.9242817592
 20
6.2427549779
 10
-6.9312977979
 20
6.1289116584
  0
LWPOLYLINE
  5
34A
100
AcDbEntity
  8
RACCORDO
100
AcDbPolyline
 62
253
  6
CONTINUOUS
 90
18
 70
0
 10
10.982024356
 20
20.8311774767
 10
10.9429743118
 20
20.7930660163
 10
10.9111929784
 20
20.754098106
 10
10.886680356
 20
20.7142737458
 10
10.8694086409
 20
20.6732824243
 10
10.8594056367
 20
20.6314346529
 10
10.8567547537
 20
20.5896619659
 10
10.8615877308
 20
20.5479980939
 10
10.8737728291
 20
20.5064093064
 10
10.8929982414
 20
20.4657259457
 10
10.9193666096
 20
20.4259643942
 10
10.9527752919
 20
20.3871082696
 10
10.9926045553
 20
20.3499387672
 10
11.0389637044
 20
20.3144677866
 10
11.0917434348
 20
20.2806834282
 10
11.1499961004
 20
20.2493311881
 10
11.2134058193
 20
20.2206595652
 10
11.2822884736
 20
20.1944200606
  0
LINE
  5
34B
100
AcDbEntity
  8
0
100
AcDbLine
 62
7
  6
CONTINUOUS
 10
1.7452859667
 20
13.0056827374
 11
1.710482055
 21
12.9734365669
  0
LINE
  5
34C
100
AcDbEntity
  8
RACCORDO
100
AcDbLine
 62
253
  6
CONTINUOUS
 10
10.982024356
 20
20.8311774767
 11
18.894087306
 21
27.7213839258
  0
LINE
  5
34D
100
AcDbEntity
  8
RACCORDO
100
AcDbLine
 62
253
  6
CONTINUOUS
 10
11.4149711079
 20
20.2732497628
 11
19.327034058
 21
27.163456212
  0
LINE
  5
34E
100
AcDbEntity
  8
ASSI
100
AcDbLine
 62
7
  6
CONTINUOUS
 10
-0.9007808023
 20
12.8182435645
 11
-0.7007808023
 21
12.9914486452
  0
LINE
  5
34F
100
AcDbEntity
  8
ASSI
100
AcDbLine
 62
7
  6
CONTINUOUS
 10
0.3564232927
 20
13.3643196624
 11
0.2162064958
 21
13.2428883542
  0
LINE
  5
350
100
AcDbEntity
  8
ASSI
100
AcDbLine
 62
7
  6
CONTINUOUS
 10
1.697295409
 20
12.0682435645
 11
1.897295409
 21
12.2414486452
  0
LINE
  5
351
100
AcDbEntity
  8
ASSI
100
AcDbLine
 62
7
  6
CONTINUOUS
 10
3.5303081109
 20
12.4593947051
 11
3.5571518886
 21
12.4826420985
  0
LINE
  5
352
100
AcDbEntity
  8
ASSI
100
AcDbLine
 62
7
  6
CONTINUOUS
 10
5.4849569252
 20
14.1521702338
 11
5.9803081109
 21
14.5811569444
  0
LWPOLYLINE
  5
353
100
AcDbEntity
  8
ASSI
100
AcDbPolyline
 62
7
  6
CONTINUOUS
 90
19
 70
0
 10
3.5303081109
 20
12.4593947051
 10
3.5160225206
 20
12.4482362301
 10
3.5001306583
 20
12.437880891
 10
3.4826325241
 20
12.428328688
 10
3.4633712959
 20
12.4195194539
 10
3.4425037957
 20
12.4115133559
 10
3.4205004898
 20
12.4044908946
 10
3.3973355769
 20
12.3984744143
 10
3.3730348583
 20
12.3934415707
 10
3.3481462033
 20
12.3895058312
 10
3.3226562564
 20
12.3866921178
 10
3.2965783731
 20
12.3849755086
 10
3.2705004898
 20
12.3843947051
 10
3.2444226065
 20
12.3849755086
 10
3.2183447232
 20
12.3866921178
 10
3.1928547762
 20
12.3895058312
 10
3.1681487444
 20
12.3934037482
 10
3.1440306489
 20
12.3983987693
 10
3.1205004898
 20
12.4044908946
  0
LWPOLYLINE
  5
354
100
AcDbEntity
  8
RACCORDO
100
AcDbPolyline
 62
253
  6
CONTINUOUS
 90
7
 70
0
 10
11.3566440588
 20
20.1706126757
 10
11.382459998
 20
20.1898692917
 10
11.4079525551
 20
20.2042401965
 10
11.4328485875
 20
20.2135714248
 10
11.4568813672
 20
20.2177630115
 10
11.4797933708
 20
20.216770049
 10
11.4908877957
 20
20.214291491
  0
LINE
  5
355
100
AcDbEntity
  8
RACCORDO
100
AcDbLine
 62
7
  6
CONTINUOUS
 10
8.6824284131
 20
16.1940696467
 11
7.7434821682
 21
15.7414609525
  0
LINE
  5
356
100
AcDbEntity
  8
RACCORDO
100
AcDbLine
 62
7
  6
CONTINUOUS
 10
6.6586304314
 20
14.7179266186
 11
5.2430012211
 21
14.0355381519
  0
LINE
  5
357
100
AcDbEntity
  8
0
100
AcDbLine
 62
7
  6
CONTINUOUS
 10
6.3297742228
 20
13.5582180968
 11
9.594409726
 21
15.131899679
  0
LINE
  5
358
100
AcDbEntity
  8
0
100
AcDbLine
 62
7
  6
CONTINUOUS
 10
6.2864863
 20
13.1825307985
 11
9.0151240186
 21
14.4978405529
  0
LWPOLYLINE
  5
359
100
AcDbEntity
  8
RACCORDO
100
AcDbPolyline
 62
7
  6
CONTINUOUS
 90
25
 70
0
 10
5.2430012211
 20
14.0355381519
 10
5.2361870317
 20
14.0325493998
 10
5.228728806
 20
14.0298092455
 10
5.2206265438
 20
14.0273176889
 10
5.211840149
 20
14.0250662142
 10
5.2024097178
 20
14.0230633373
 10
5.1924555387
 20
14.0213346056
 10
5.1819709024
 20
14.0198835307
 10
5.1709625181
 20
14.018706601
 10
5.1595708017
 20
14.0178188286
 10
5.1477908426
 20
14.0172239175
 10
5.1356275513
 20
14.0169181637
 10
5.1232360748
 20
14.0169054672
 10
5.1106134901
 20
14.017189582
 10
5.0977627202
 20
14.017766754
 10
5.0848476812
 20
14.0186296214
 10
5.0718675497
 20
14.0197818437
 10
5.0588231491
 20
14.0212197612
 10
5.0458808653
 20
14.0229250329
 10
5.0330420062
 20
14.0249010834
 10
5.020305264
 20
14.0271444881
 10
5.0078331
 20
14.0296266314
 10
4.9956796682
 20
14.032337975
 10
4.9837908148
 20
14.0352880573
 10
4.9721665396
 20
14.0384768783
  0
LINE
  5
35A
100
AcDbEntity
  8
RACCORDO
100
AcDbLine
 62
7
  6
CONTINUOUS
 10
-33.20297474
 20
17.5144563376
 11
-33.6824429482
 21
17.9369598606
  0
LWPOLYLINE
  5
35B
100
AcDbEntity
  8
0
100
AcDbPolyline
 62
7
  6
CONTINUOUS
 90
25
 70
0
 10
-6.4325459636
 20
-7.8030294735
 10
-6.6431238767
 20
-7.2465978934
 10
-6.876219955
 20
-6.6966307247
 10
-7.1318639202
 20
-6.1531538403
 10
-7.410843138
 20
-5.6148541099
 10
-7.7124256947
 20
-5.0830926758
 10
-8.0343679829
 20
-4.5619113123
 10
-8.376838818
 20
-4.0514588779
 10
-8.7397340145
 20
-3.5516414713
 10
-9.120410546
 20
-3.0661449547
 10
-9.5190085186
 20
-2.5950920363
 10
-9.9354535799
 20
-2.1384151872
 10
-10.3667873871
 20
-1.6995200324
 10
-10.8131797454
 20
-1.2786007158
 10
-11.2745222525
 20
-0.875514086
 10
-11.7474420331
 20
-0.4931619895
 10
-12.2320386487
 20
-0.1316894236
 10
-12.7282637604
 20
0.2090064077
 10
-13.2325222909
 20
0.5263957173
 10
-13.7449171699
 20
0.820294993
 10
-14.2653823854
 20
1.0908575032
 10
-14.7900667734
 20
1.3360608597
 10
-15.3176932309
 20
1.5552255319
 10
-15.8495581775
 20
1.7490152796
 10
-16.3856664362
 20
1.9174261688
  0
LWPOLYLINE
  5
35C
100
AcDbEntity
  8
0
100
AcDbPolyline
 62
7
  6
CONTINUOUS
 90
10
 70
0
 10
-5.6424058286
 20
-12.1039547478
 10
-5.6528293778
 20
-11.6360244394
 10
-5.6829620483
 20
-11.1651120271
 10
-5.7327550102
 20
-10.6911784501
 10
-5.8022962138
 20
-10.2132450147
 10
-5.8912899347
 20
-9.732123138
 10
-5.9990663795
 20
-9.2504238425
 10
-6.1252707526
 20
-8.7689158119
 10
-6.2698514312
 20
-8.2865166633
 10
-6.4325459636
 20
-7.8030294735
  0
LINE
  5
35D
100
AcDbEntity
  8
0
100
AcDbLine
 62
7
  6
CONTINUOUS
 10
-4.7855814927
 20
14.8909817803
 11
-4.7977428261
 21
15.4836451541
  0
LINE
  5
35E
100
AcDbEntity
  8
RACCORDO
100
AcDbLine
 62
7
  6
CONTINUOUS
 10
-7.0799459269
 20
14.6129845436
 11
-7.0799459269
 21
14.1366705715
  0
LINE
  5
35F
100
AcDbEntity
  8
DRAFT
100
AcDbLine
 62
7
  6
CONTINUOUS
 10
-5.65866062
 20
14.3758998971
 11
-5.65866062
 21
13.7263808442
  0
LINE
  5
360
100
AcDbEntity
  8
DRAFT
100
AcDbLine
 62
7
  6
CONTINUOUS
 10
-4.9648824175
 20
13.231766761
 11
-4.9648824175
 21
13.3606036195
  0
LWPOLYLINE
  5
361
100
AcDbEntity
  8
0
100
AcDbPolyline
 62
7
  6
CONTINUOUS
 90
16
 70
0
 10
-4.7977428261
 20
15.4836451541
 10
-4.7971277527
 20
15.5313565637
 10
-4.793788015
 20
15.5800386489
 10
-4.787723613
 20
15.6296914097
 10
-4.7788037406
 20
15.6809010009
 10
-4.767159204
 20
15.7330812678
 10
-4.7531824216
 20
15.7844737457
 10
-4.7367939045
 20
15.8350515848
 10
-4.7180731416
 20
15.884841635
 10
-4.697651019
 20
15.9321659816
 10
-4.6754695498
 20
15.9769405868
 10
-4.6515867208
 20
16.0192494885
 10
-4.6268073786
 20
16.057666885
 10
-4.6013998054
 20
16.0917175093
 10
-4.575095719
 20
16.1218766284
 10
-4.5478951194
 20
16.1481442425
  0
LINE
  5
362
100
AcDbEntity
  8
RACCORDO
100
AcDbLine
 62
253
  6
CONTINUOUS
 10
-2.551227413
 20
16.2855381519
 11
-2.5580510456
 21
16.2263171974
  0
LWPOLYLINE
  5
363
100
AcDbEntity
  8
RACCORDO
100
AcDbPolyline
 62
7
  6
CONTINUOUS
 90
9
 70
0
 10
-2.5767011897
 20
16.258430582
 10
-2.5765392433
 20
16.2595724913
 10
-2.575404192
 20
16.2637225588
 10
-2.5734155362
 20
16.2677507391
 10
-2.5705840721
 20
16.2716585737
 10
-2.5669459162
 20
16.2753962169
 10
-2.562513107
 20
16.2789470534
 10
-2.557273606
 20
16.2823276984
 10
-2.551227413
 20
16.2855381519
  0
LWPOLYLINE
  5
364
100
AcDbEntity
  8
ASSI
100
AcDbPolyline
 62
7
  6
CONTINUOUS
 90
3
 70
0
 10
5.9954093362
 20
14.596443124
 10
5.9924923615
 20
14.592922024
 10
5.9803081109
 20
14.5811569444
  0
LINE
  5
365
100
AcDbEntity
  8
RACCORDO
100
AcDbLine
 62
253
  6
CONTINUOUS
 10
11.3922453218
 20
20.2515739611
 11
11.4149711079
 21
20.2732497627
  0
LINE
  5
366
100
AcDbEntity
  8
0
100
AcDbLine
 62
253
  6
CONTINUOUS
 10
5.7944401847
 20
12.6688342633
 11
5.5945620193
 21
12.4836451541
  0
LINE
  5
367
100
AcDbEntity
  8
0
100
AcDbLine
 62
7
  6
CONTINUOUS
 10
5.8066015182
 20
12.0761708895
 11
5.6067233528
 21
11.8909817803
  0
LINE
  5
368
100
AcDbEntity
  8
DRAFT
100
AcDbLine
 62
7
  6
CONTINUOUS
 10
9.7676148068
 20
15.1766052116
 11
5.3551752266
 21
11.1964793517
  0
LINE
  5
369
100
AcDbEntity
  8
RACCORDO
100
AcDbLine
 62
253
  6
CONTINUOUS
 10
6.6032290689
 20
10.8361972408
 11
11.9369472427
 21
15.6473383901
  0
LINE
  5
36A
100
AcDbEntity
  8
RACCORDO
100
AcDbLine
 62
253
  6
CONTINUOUS
 10
6.7764605336
 20
10.6129845436
 11
12.1118711841
 21
15.4256523474
  0
LWPOLYLINE
  5
36B
100
AcDbEntity
  8
RACCORDO
100
AcDbPolyline
 62
253
  6
CONTINUOUS
 90
23
 70
0
 10
12.1118711841
 20
15.4256523474
 10
12.1277409057
 20
15.4396596788
 10
12.1442045725
 20
15.4526305726
 10
12.1612621843
 20
15.4645650286
 10
12.1789720964
 20
15.4756810786
 10
12.1972759536
 20
15.4857606909
 10
12.2159986908
 20
15.4941497701
 10
12.2352558041
 20
15.5008469574
 10
12.2549317973
 20
15.5058536116
 10
12.274505117
 20
15.5085197132
 10
12.2939508647
 20
15.508727068
 10
12.3132939388
 20
15.5065938701
 10
12.3320874814
 20
15.5018246825
 10
12.3503074033
 20
15.4943013141
 10
12.3679777938
 20
15.4841419559
 10
12.3847240627
 20
15.4714057436
 10
12.40050687
 20
15.4559723144
 10
12.4153655558
 20
15.4379620311
 10
12.42904355
 20
15.4177951178
 10
12.4414859007
 20
15.3953678634
 10
12.4527475599
 20
15.3707839791
 10
12.4627368142
 20
15.3447748223
 10
12.4713957885
 20
15.3172387038
  0
LINE
  5
36C
100
AcDbEntity
  8
RACCORDO
100
AcDbLine
 62
253
  6
CONTINUOUS
 10
19.327034058
 20
22.2732591431
 11
15.6004442118
 21
19.0279647675
  0
LINE
  5
36D
100
AcDbEntity
  8
RACCORDO
100
AcDbLine
 62
253
  6
CONTINUOUS
 10
19.7599808099
 20
21.7153314292
 11
16.4067743252
 21
18.7951973135
  0
LINE
  5
36E
100
AcDbEntity
  8
ASSI
100
AcDbLine
 62
7
  6
CONTINUOUS
 10
-16.9636944207
 20
-6.101289155
 11
-14.2136944207
 21
-3.7197192946
  0
LINE
  5
36F
100
AcDbEntity
  8
0
100
AcDbLine
 62
7
  6
CONTINUOUS
 10
5.844409726
 20
13.1481442425
 11
6.2756643193
 21
13.5216216758
  0
LINE
  5
370
100
AcDbEntity
  8
0
100
AcDbLine
 62
7
  6
CONTINUOUS
 10
5.844409726
 20
12.801734081
 11
6.2756643193
 21
13.1752115143
  0
LINE
  5
371
100
AcDbEntity
  8
RACCORDO
100
AcDbLine
 62
7
  6
CONTINUOUS
 10
10.7176148068
 20
15.9993293452
 11
9.8676148068
 21
15.263207752
  0
LWPOLYLINE
  5
372
100
AcDbEntity
  8
RACCORDO
100
AcDbPolyline
 62
253
  6
CONTINUOUS
 90
13
 70
0
 10
11.9369472427
 20
15.6473383901
 10
11.9568165926
 20
15.6643985398
 10
11.9775422992
 20
15.6806557554
 10
11.9990785744
 20
15.6958734109
 10
12.02136102
 20
15.7097987639
 10
12.0443299465
 20
15.7221737526
 10
12.0679288809
 20
15.7327303678
 10
12.0921810058
 20
15.7412151079
 10
12.1168554818
 20
15.7472681817
 10
12.1415129496
 20
15.7505571729
 10
12.1660127947
 20
15.7508934967
 10
12.1902626242
 20
15.74809787
 10
12.2070067549
 20
15.7441854528
  0
LWPOLYLINE
  5
373
100
AcDbEntity
  8
0
100
AcDbPolyline
 62
7
  6
CONTINUOUS
 90
13
 70
0
 10
6.2756643193
 20
13.5216216758
 10
6.280211698
 20
13.5254880642
 10
6.2847545732
 20
13.5292076764
 10
6.2892929447
 20
13.5327805126
 10
6.2938283095
 20
13.5362076563
 10
6.2983591706
 20
13.5394880239
 10
6.302881038
 20
13.5426183646
 10
6.3073939028
 20
13.5455985294
 10
6.3118977738
 20
13.5484286673
 10
6.3163881877
 20
13.5511059735
 10
6.3208636566
 20
13.553629513
 10
6.3253256683
 20
13.5560002207
 10
6.3297742228
 20
13.5582180968
  0
LINE
  5
374
100
AcDbEntity
  8
0
100
AcDbLine
 62
7
  6
CONTINUOUS
 10
7.8399350464
 20
15.7330784259
 11
7.9414815204
 21
15.8192345377
  0
LINE
  5
375
100
AcDbEntity
  8
0
100
AcDbLine
 62
7
  6
CONTINUOUS
 10
4.4653870793
 20
12.2204571826
 11
3.6257563781
 21
11.508080733
  0
LWPOLYLINE
  5
376
100
AcDbEntity
  8
0
100
AcDbPolyline
 62
7
  6
CONTINUOUS
 90
10
 70
0
 10
6.2756643193
 20
13.1752115143
 10
6.2768774193
 20
13.1762365221
 10
6.2780883855
 20
13.1772089504
 10
6.2792972179
 20
13.178128799
 10
6.280504624
 20
13.1789965464
 10
6.2817098963
 20
13.1798117143
 10
6.2829109123
 20
13.1805728669
 10
6.2841069645
 20
13.181279526
 10
6.2852987604
 20
13.1819321698
 10
6.2864863
 20
13.1825307985
  0
LWPOLYLINE
  5
377
100
AcDbEntity
  8
RACCORDO
100
AcDbPolyline
 62
7
  6
CONTINUOUS
 90
8
 70
0
 10
10.7176148068
 20
15.9993293452
 10
10.7603381639
 20
16.0333265155
 10
10.8024834396
 20
16.0604434048
 10
10.844050634
 20
16.080680013
 10
10.8855241483
 20
16.0941568204
 10
10.9264195814
 20
16.1007533467
 10
10.9652837291
 20
16.1001081518
 10
10.9949695769
 20
16.0940890305
  0
LWPOLYLINE
  5
378
100
AcDbEntity
  8
RACCORDO
100
AcDbPolyline
 62
253
  6
CONTINUOUS
 90
6
 70
0
 10
14.6197371445
 20
15.3105716555
 10
14.6360872645
 20
15.3215018258
 10
14.6607376392
 20
15.3316154913
 10
14.6879451117
 20
15.3363527023
 10
14.7168833172
 20
15.3355695753
 10
14.7466733229
 20
15.3292898942
  0
LINE
  5
379
100
AcDbEntity
  8
RACCORDO
100
AcDbLine
 62
7
  6
CONTINUOUS
 10
14.6957536966
 20
15.3633136497
 11
14.6447180299
 21
15.3297153203
  0
LWPOLYLINE
  5
37A
100
AcDbEntity
  8
0
100
AcDbPolyline
 62
7
  6
CONTINUOUS
 90
4
 70
0
 10
-12.6884430722
 20
22.2874176229
 10
-12.6966133548
 20
22.3112901251
 10
-12.7091584435
 20
22.3407334338
 10
-12.7231399318
 20
22.3672553746
  0
LWPOLYLINE
  5
37B
100
AcDbEntity
  8
RACCORDO
100
AcDbPolyline
 62
7
  6
CONTINUOUS
 90
12
 70
0
 10
-9.1323962937
 20
21.5135977715
 10
-9.142536405
 20
21.5861780202
 10
-9.1572067549
 20
21.6536501869
 10
-9.1762384445
 20
21.715523458
 10
-9.1996363469
 20
21.7720099896
 10
-9.2274198363
 20
21.8230973243
 10
-9.2592495862
 20
21.8682547506
 10
-9.2945743976
 20
21.9070563122
 10
-9.3334639257
 20
21.9398657211
 10
-9.3763080664
 20
21.9668682905
 10
-9.4230305668
 20
21.9875636397
 10
-9.4430275285
 20
21.9940103703
  0
LINE
  5
37C
100
AcDbEntity
  8
0
100
AcDbLine
 62
7
  6
CONTINUOUS
 10
-10.6201202831
 20
26.6016495677
 11
-10.6197184738
 21
26.5985933345
  0
LWPOLYLINE
  5
37D
100
AcDbEntity
  8
RACCORDO
100
AcDbPolyline
 62
253
  6
CONTINUOUS
 90
5
 70
0
 10
-9.1563539155
 20
21.443619709
 10
-9.1597589263
 20
21.472563382
 10
-9.1642781363
 20
21.5012894656
 10
-9.1699621747
 20
21.5299077758
 10
-9.1767604124
 20
21.5583084966
  0
LINE
  5
37E
100
AcDbEntity
  8
0
100
AcDbLine
 62
7
  6
CONTINUOUS
 10
-0.8875941564
 20
13.7234365669
 11
-0.8884671756
 21
13.7659817803
  0
LINE
  5
37F
100
AcDbEntity
  8
DRAFT
100
AcDbLine
 62
7
  6
CONTINUOUS
 10
-0.9711002001
 20
18.2766052116
 11
-0.9711002001
 21
18.0484080777
  0
LINE
  5
380
100
AcDbEntity
  8
DRAFT
100
AcDbLine
 62
7
  6
CONTINUOUS
 10
-0.7053254273
 20
25.84977371
 11
-0.7053254273
 21
25.8404087589
  0
LINE
  5
381
100
AcDbEntity
  8
DRAFT
100
AcDbLine
 62
7
  6
CONTINUOUS
 10
-0.1259298773
 20
26.1870028174
 11
-0.1259298773
 21
26.152930089
  0
LINE
  5
382
100
AcDbEntity
  8
ASSI
100
AcDbLine
 62
253
  6
CONTINUOUS
 10
0.0662064958
 20
13.3093947051
 11
0.0662064958
 21
13.4480980353
  0
LWPOLYLINE
  5
383
100
AcDbEntity
  8
ASSI
100
AcDbPolyline
 62
7
  6
CONTINUOUS
 90
7
 70
0
 10
0.0260141169
 20
13.3843947051
 10
0.0271757238
 20
13.3974336468
 10
0.0306089423
 20
13.4104725884
 10
0.036236369
 20
13.4232175619
 10
0.044032203
 20
13.4355705778
 10
0.0540222452
 20
13.4476296256
 10
0.0571999439
 20
13.4506980029
  0
LINE
  5
384
100
AcDbEntity
  8
RACCORDO
100
AcDbLine
 62
253
  6
CONTINUOUS
 10
-1.1355982027
 20
16.9679266186
 11
-1.1788861254
 21
16.5922393203
  0
LINE
  5
385
100
AcDbEntity
  8
RACCORDO
100
AcDbLine
 62
253
  6
CONTINUOUS
 10
-0.8647635212
 20
16.9649878922
 11
-0.908051444
 21
16.5893005939
  0
LINE
  5
386
100
AcDbEntity
  8
RACCORDO
100
AcDbLine
 62
253
  6
CONTINUOUS
 10
1.6467101498
 20
16.2399878922
 11
1.6304242567
 21
16.0986458556
  0
LWPOLYLINE
  5
387
100
AcDbEntity
  8
RACCORDO
100
AcDbPolyline
 62
7
  6
CONTINUOUS
 90
9
 70
0
 10
1.7477594066
 20
16.1700341885
 10
1.7475974602
 20
16.1688922793
 10
1.7464624088
 20
16.1647422117
 10
1.744473753
 20
16.1607140314
 10
1.741642289
 20
16.1568061968
 10
1.738004133
 20
16.1530685536
 10
1.7335713239
 20
16.1495177172
 10
1.7283318228
 20
16.1461370722
 10
1.7222856298
 20
16.1429266186
  0
LWPOLYLINE
  5
388
100
AcDbEntity
  8
RACCORDO
100
AcDbPolyline
 62
7
  6
CONTINUOUS
 90
9
 70
0
 10
2.3596436119
 20
14.833430582
 10
2.3598055583
 20
14.8345724913
 10
2.3609406096
 20
14.8387225588
 10
2.3629292654
 20
14.8427507391
 10
2.3657607294
 20
14.8466585737
 10
2.3693988854
 20
14.8503962169
 10
2.3738316945
 20
14.8539470534
 10
2.3790711956
 20
14.8573276984
 10
2.3851173886
 20
14.8605381519
  0
LWPOLYLINE
  5
389
100
AcDbEntity
  8
0
100
AcDbPolyline
 62
7
  6
CONTINUOUS
 90
7
 70
0
 10
-6.0027990138
 20
-14.7657661031
 10
-5.8982134279
 20
-14.3761433527
 10
-5.8113152559
 20
-13.9648225964
 10
-5.7422184076
 20
-13.5318924921
 10
-5.6910054072
 20
-13.0774165464
 10
-5.6577277203
 20
-12.6014329926
 10
-5.6424058286
 20
-12.1039547478
  0
LINE
  5
38A
100
AcDbEntity
  8
DRAFT
100
AcDbLine
 62
7
  6
CONTINUOUS
 10
6.7764605336
 20
10.1366705715
 11
7.7462274743
 21
11.0114235078
  0
LINE
  5
38B
100
AcDbEntity
  8
RACCORDO
100
AcDbLine
 62
7
  6
CONTINUOUS
 10
6.2585113412
 20
7.5561612837
 11
5.2887002221
 21
6.6869598606
  0
LINE
  5
38C
100
AcDbEntity
  8
RACCORDO
100
AcDbLine
 62
7
  6
CONTINUOUS
 10
9.3685725766
 20
11.0949687924
 11
12.4997779604
 21
13.8217736302
  0
LINE
  5
38D
100
AcDbEntity
  8
RACCORDO
100
AcDbLine
 62
253
  6
CONTINUOUS
 10
10.3704923393
 20
10.398201062
 11
15.7126728965
 21
15.0504298372
  0
LINE
  5
38E
100
AcDbEntity
  8
RACCORDO
100
AcDbLine
 62
253
  6
CONTINUOUS
 10
10.5436710401
 20
10.1750299764
 11
15.8858515973
 21
14.8272587517
  0
LINE
  5
38F
100
AcDbEntity
  8
ASSI
100
AcDbLine
 62
7
  6
CONTINUOUS
 10
-13.6904260672
 20
-9.8809338851
 11
-10.9404260672
 21
-7.4993640247
  0
LINE
  5
390
100
AcDbEntity
  8
RACCORDO
100
AcDbLine
 62
253
  6
CONTINUOUS
 10
9.3606583382
 20
8.4380489783
 11
10.1106583382
 21
9.0875680312
  0
LINE
  5
391
100
AcDbEntity
  8
RACCORDO
100
AcDbLine
 62
253
  6
CONTINUOUS
 10
9.7936710401
 20
7.8800362764
 11
10.5436710401
 21
8.5295553293
  0
LINE
  5
392
100
AcDbEntity
  8
RACCORDO
100
AcDbLine
 62
253
  6
CONTINUOUS
 10
6.7344393244
 20
5.9763399604
 11
9.5339029889
 21
8.3880375555
  0
LINE
  5
393
100
AcDbEntity
  8
RACCORDO
100
AcDbLine
 62
253
  6
CONTINUOUS
 10
6.9942073757
 20
5.6415833322
 11
9.7936710401
 21
8.0532809271
  0
LWPOLYLINE
  5
394
100
AcDbEntity
  8
RACCORDO
100
AcDbPolyline
 62
253
  6
CONTINUOUS
 90
23
 70
0
 10
15.8858515973
 20
14.8272587517
 10
15.9013425003
 20
14.8405083573
 10
15.9175210591
 20
14.8527776406
 10
15.9343872737
 20
14.8640666017
 10
15.9520668134
 20
14.8746264931
 10
15.9704340089
 20
14.8842060623
 10
15.9891118517
 20
14.8920515513
 10
16.0081188607
 20
14.8980994347
 10
16.0274365169
 20
14.902413238
 10
16.0466322552
 20
14.9044297796
 10
16.0657054694
 20
14.9040508142
 10
16.0846567657
 20
14.9013745873
 10
16.1030553971
 20
14.8961326534
 10
16.1208767291
 20
14.888212075
 10
16.1381453962
 20
14.8777257898
 10
16.1545045552
 20
14.8647441654
 10
16.1699159973
 20
14.849153737
 10
16.1844179312
 20
14.8310679696
 10
16.1977681398
 20
14.8108976259
 10
16.2099144416
 20
14.7885455025
 10
16.2209090181
 20
14.7641088029
 10
16.2306661972
 20
14.7382899002
 10
16.2391314563
 20
14.7109914385
  0
LWPOLYLINE
  5
395
100
AcDbEntity
  8
RACCORDO
100
AcDbPolyline
 62
253
  6
CONTINUOUS
 90
13
 70
0
 10
15.7126728965
 20
15.0504298372
 10
15.7320608531
 20
15.0664922957
 10
15.7524282556
 20
15.081882011
 10
15.7737280684
 20
15.0963353638
 10
15.7959779927
 20
15.1096160952
 10
15.8190271685
 20
15.1213684071
 10
15.8425633435
 20
15.1311924712
 10
15.8664980997
 20
15.1388366715
 10
15.8907245367
 20
15.1440411216
 10
15.9149070281
 20
15.146532171
 10
15.9389376215
 20
15.1461309795
 10
15.9626980679
 20
15.1426635983
 10
15.9742346776
 20
15.1397857953
  0
LWPOLYLINE
  5
396
100
AcDbEntity
  8
ASSI
100
AcDbPolyline
 62
7
  6
CONTINUOUS
 90
16
 70
0
 10
-13.6904260672
 20
-9.8809338851
 10
-13.8166013393
 20
-9.9832242489
 10
-13.9498762864
 20
-10.077583146
 10
-14.089631949
 20
-10.1633848028
 10
-14.2349823023
 20
-10.2399702861
 10
-14.3853610755
 20
-10.3069704574
 10
-14.5406055137
 20
-10.3641873632
 10
-14.7001755071
 20
-10.4112386841
 10
-14.8629587954
 20
-10.4476557993
 10
-15.0279786477
 20
-10.4731570875
 10
-15.1942197864
 20
-10.4875797009
 10
-15.3609290503
 20
-10.4908820784
 10
-15.5276474599
 20
-10.483051481
 10
-15.6937311691
 20
-10.4640756651
 10
-15.8582533366
 20
-10.4340263189
 10
-16.0204354892
 20
-10.3930338272
  0
LINE
  5
397
100
AcDbEntity
  8
RACCORDO
100
AcDbLine
 62
7
  6
CONTINUOUS
 10
8.9437097656
 20
10.7538915209
 11
14.6197235592
 21
15.310560751
  0
LINE
  5
398
100
AcDbEntity
  8
RACCORDO
100
AcDbLine
 62
253
  6
CONTINUOUS
 10
9.0714014737
 20
10.7732162925
 11
14.7466733229
 21
15.3292898942
  0
LWPOLYLINE
  5
399
100
AcDbEntity
  8
RACCORDO
100
AcDbPolyline
 62
253
  6
CONTINUOUS
 90
11
 70
0
 10
14.7466733229
 20
15.3292898942
 10
14.7680237766
 20
15.3458109063
 10
14.7903111283
 20
15.3614449564
 10
14.8134834404
 20
15.3759327343
 10
14.8375578294
 20
15.3890394009
 10
14.8623746265
 20
15.4004235482
 10
14.8876048868
 20
15.4097117303
 10
14.9131640408
 20
15.4166660816
 10
14.938935225
 20
15.421039315
 10
14.9645478819
 20
15.4225886532
 10
14.9898879362
 20
15.4211588872
  0
LINE
  5
39A
100
AcDbEntity
  8
RACCORDO
100
AcDbLine
 62
7
  6
CONTINUOUS
 10
14.6447180299
 20
15.3297153203
 11
14.6197372331
 21
15.3105715443
  0
LWPOLYLINE
  5
39B
100
AcDbEntity
  8
RACCORDO
100
AcDbPolyline
 62
253
  6
CONTINUOUS
 90
7
 70
0
 10
21.0248335626
 20
17.3796467694
 10
21.0502518238
 20
17.398642187
 10
21.0754729367
 20
17.41295787
 10
21.1002266073
 20
17.422378556
 10
21.1242767262
 20
17.4267400841
 10
21.1473151385
 20
17.4259092575
 10
21.1591455101
 20
17.423305922
  0
LWPOLYLINE
  5
39C
100
AcDbEntity
  8
0
100
AcDbPolyline
 62
7
  6
CONTINUOUS
 90
25
 70
0
 10
-16.3856664362
 20
1.9174261688
 10
-16.9222266576
 20
2.0586679974
 10
-17.4554212579
 20
2.1723344578
 10
-17.9852454141
 20
2.2584294839
 10
-18.5129892213
 20
2.3170359783
 10
-19.037343268
 20
2.3480868092
 10
-19.5543991737
 20
2.3513643773
 10
-20.0640630614
 20
2.3266692583
 10
-20.5663918906
 20
2.2742311203
 10
-21.0577008612
 20
2.1944782309
 10
-21.5378973764
 20
2.0872671093
 10
-22.0070228106
 20
1.9527834377
 10
-22.4615929698
 20
1.7919495971
 10
-22.9014460318
 20
1.6045444291
 10
-23.3266824159
 20
1.3908400845
 10
-23.734214069
 20
1.1524967443
 10
-24.1239057327
 20
0.8893863701
 10
-24.4958269116
 20
0.6016921795
 10
-24.8472030683
 20
0.291536119
 10
-25.1778700476
 20
-0.0412531765
 10
-25.4879273747
 20
-0.3964493848
 10
-25.7750061159
 20
-0.7713422577
 10
-26.038300671
 20
-1.1650144949
 10
-26.2785611881
 20
-1.5783353847
 10
-26.4957579456
 20
-2.0112790542
  0
LWPOLYLINE
  5
39D
100
AcDbEntity
  8
RACCORDO
100
AcDbPolyline
 62
253
  6
CONTINUOUS
 90
23
 70
0
 10
-9.1767604124
 20
21.5583084966
 10
-9.1847953928
 20
21.5855199917
 10
-9.1941167315
 20
21.611469388
 10
-9.2046748128
 20
21.6362295585
 10
-9.2164433333
 20
21.6590474857
 10
-9.2294757685
 20
21.6798450535
 10
-9.2437186427
 20
21.698700378
 10
-9.2589852254
 20
21.7150947897
 10
-9.2753236717
 20
21.7289229857
 10
-9.2926858265
 20
21.7402902689
 10
-9.3107404935
 20
21.748993879
 10
-9.3295350177
 20
21.7549073623
 10
-9.3490220542
 20
21.7581571724
 10
-9.3687283717
 20
21.7589199104
 10
-9.3886627979
 20
21.7570654693
 10
-9.4088165052
 20
21.752723956
 10
-9.4286897787
 20
21.7464622923
 10
-9.4482003793
 20
21.738249106
 10
-9.4674305461
 20
21.7281157693
 10
-9.4861272823
 20
21.7167233211
 10
-9.5042062556
 20
21.7042921079
 10
-9.5217517984
 20
21.6906017834
 10
-9.5387639105
 20
21.6756523474
  0
LWPOLYLINE
  5
39E
100
AcDbEntity
  8
RACCORDO
100
AcDbPolyline
 62
7
  6
CONTINUOUS
 90
13
 70
0
 10
0.4788246682
 20
18.6812641787
 10
0.4763389667
 20
18.7530762801
 10
0.4701935916
 20
18.8205715993
 10
0.4603885426
 20
18.8837501364
 10
0.4467454811
 20
18.9432714518
 10
0.4294427458
 20
18.9984759852
 10
0.4090153534
 20
19.0473850547
 10
0.3854688469
 20
19.0895083303
 10
0.3587976833
 20
19.1253361421
 10
0.3295202503
 20
19.1543607992
 10
0.2976176823
 20
19.1765592603
 10
0.2631088449
 20
19.1919545667
 10
0.25625457
 20
19.1940890305
  0
LINE
  5
39F
100
AcDbEntity
  8
0
100
AcDbLine
 62
7
  6
CONTINUOUS
 10
1.7096090357
 20
13.0159817803
 11
1.710482055
 21
12.9734365669
  0
LINE
  5
3A0
100
AcDbEntity
  8
0
100
AcDbLine
 62
7
  6
CONTINUOUS
 10
0.9565795603
 20
17.7201319973
 11
0.9565795603
 21
17.619399679
  0
LINE
  5
3A1
100
AcDbEntity
  8
RACCORDO
100
AcDbLine
 62
253
  6
CONTINUOUS
 10
1.8962831294
 20
18.0123162244
 11
1.8962831294
 21
17.928818112
  0
LINE
  5
3A2
100
AcDbEntity
  8
0
100
AcDbLine
 62
7
  6
CONTINUOUS
 10
1.897295409
 20
12.2414486452
 11
1.897295409
 21
12.0070444359
  0
LINE
  5
3A3
100
AcDbEntity
  8
RACCORDO
100
AcDbLine
 62
7
  6
CONTINUOUS
 10
2.0258281353
 20
18.103650735
 11
2.0258281353
 21
17.991263855
  0
LINE
  5
3A4
100
AcDbEntity
  8
RACCORDO
100
AcDbLine
 62
253
  6
CONTINUOUS
 10
2.3851173886
 20
14.8605381519
 11
2.378293756
 21
14.8013171974
  0
LINE
  5
3A5
100
AcDbEntity
  8
RACCORDO
100
AcDbLine
 62
253
  6
CONTINUOUS
 10
3.8007465989
 20
15.5429266186
 11
3.7574586761
 21
15.1672393203
  0
LINE
  5
3A6
100
AcDbEntity
  8
RACCORDO
100
AcDbLine
 62
253
  6
CONTINUOUS
 10
4.0715812804
 20
15.5399878922
 11
4.0282933576
 21
15.1643005939
  0
LWPOLYLINE
  5
3A7
100
AcDbEntity
  8
0
100
AcDbPolyline
 62
7
  6
CONTINUOUS
 90
7
 70
0
 10
-6.4325459636
 20
-15.9404446016
 10
-6.3515532641
 20
-15.7624228284
 10
-6.2742766142
 20
-15.5772752177
 10
-6.2007407721
 20
-15.3850196855
 10
-6.1309687074
 20
-15.1856729103
 10
-6.0649816298
 20
-14.979250324
 10
-6.0027990138
 20
-14.7657661031
  0
LWPOLYLINE
  5
3A8
100
AcDbEntity
  8
RACCORDO
100
AcDbPolyline
 62
253
  6
CONTINUOUS
 90
6
 70
0
 10
21.4577803146
 20
16.8217190555
 10
21.4801811334
 20
16.844602976
 10
21.4978758049
 20
16.868617797
 10
21.5106128539
 20
16.8935240044
 10
21.518196487
 20
16.9191054833
 10
21.5204704067
 20
16.9428049296
  0
LINE
  5
3A9
100
AcDbEntity
  8
RACCORDO
100
AcDbLine
 62
7
  6
CONTINUOUS
 10
25.4974115025
 20
18.7720852237
 11
24.0342987081
 21
17.4523225474
  0
LINE
  5
3AA
100
AcDbEntity
  8
DRAFT
100
AcDbLine
 62
7
  6
CONTINUOUS
 10
-18.7730164645
 20
-22.0435859668
 11
-18.7911618591
 21
-22.0599535459
  0
LINE
  5
3AB
100
AcDbEntity
  8
DRAFT
100
AcDbLine
 62
7
  6
CONTINUOUS
 10
-18.7730164645
 20
-21.1056568644
 11
-18.5525005973
 21
-20.9073922902
  0
LINE
  5
3AC
100
AcDbEntity
  8
RACCORDO
100
AcDbLine
 62
253
  6
CONTINUOUS
 10
16.2920645254
 20
13.2581229711
 11
21.0248335626
 21
17.3796467694
  0
LINE
  5
3AD
100
AcDbEntity
  8
RACCORDO
100
AcDbLine
 62
253
  6
CONTINUOUS
 10
21.4577803146
 20
16.8217190555
 11
16.2669884669
 21
12.3013268783
  0
LINE
  5
3AE
100
AcDbEntity
  8
RACCORDO
100
AcDbLine
 62
253
  6
CONTINUOUS
 10
25.0644647505
 20
19.9078481098
 11
21.520470461
 21
16.8215667615
  0
LINE
  5
3AF
100
AcDbEntity
  8
RACCORDO
100
AcDbLine
 62
253
  6
CONTINUOUS
 10
25.4974115025
 20
19.3499203959
 11
21.520470461
 21
15.8866081113
  0
LINE
  5
3B0
100
AcDbEntity
  8
ASSI
100
AcDbLine
 62
7
  6
CONTINUOUS
 10
-19.8736936138
 20
-21.7474535459
 11
-20.7965675937
 21
-22.5466858569
  0
LINE
  5
3B1
100
AcDbEntity
  8
0
100
AcDbLine
 62
7
  6
CONTINUOUS
 10
-20.8465675937
 20
-22.5899871271
 11
-21.5971874263
 21
-23.2400429708
  0
LWPOLYLINE
  5
3B2
100
AcDbEntity
  8
RACCORDO
100
AcDbPolyline
 62
253
  6
CONTINUOUS
 90
16
 70
0
 10
-6.9312977976
 20
6.1289116583
 10
-6.1235214493
 20
5.9064668486
 10
-5.2985083006
 20
5.7005186861
 10
-4.4575166139
 20
5.5114077011
 10
-3.6016531641
 20
5.3394194841
 10
-2.73240309
 20
5.1848819803
 10
-1.8516534464
 20
5.0481294737
 10
-0.9606205702
 20
4.9293526103
 10
-0.0608498094
 20
4.82875146
 10
0.8452055579
 20
4.746540173
 10
1.7561387739
 20
4.6827827671
 10
2.6704972959
 20
4.6375095564
 10
3.5857195228
 20
4.6107135939
 10
4.5000040771
 20
4.6022932027
 10
5.4123279899
 20
4.6121265522
 10
6.3213114399
 20
4.6400687087
  0
LINE
  5
3B3
100
AcDbEntity
  8
RACCORDO
100
AcDbLine
 62
253
  6
CONTINUOUS
 10
-26.9945097795
 20
11.9206620776
 11
-6.9312977976
 21
6.1289116583
  0
LWPOLYLINE
  5
3B4
100
AcDbEntity
  8
RACCORDO
100
AcDbPolyline
 62
253
  6
CONTINUOUS
 90
13
 70
0
 10
-28.7785419453
 20
14.9018720117
 10
-29.0229846812
 20
15.0110968488
 10
-29.4868814259
 20
15.2319472996
 10
-29.9362303932
 20
15.4598338299
 10
-30.3709997138
 20
15.6947796734
 10
-30.7912212571
 20
15.9367615964
 10
-31.1956665607
 20
16.1850882136
 10
-31.5843353505
 20
16.4398078394
 10
-31.9572279005
 20
16.7008721593
 10
-32.3131165699
 20
16.9674448444
 10
-32.6515921451
 20
17.2392471184
 10
-32.9730638395
 20
17.5165577575
 10
-33.2775316534
 20
17.7993767618
  0
LWPOLYLINE
  5
3B5
100
AcDbEntity
  8
0
100
AcDbPolyline
 62
7
  6
CONTINUOUS
 90
7
 70
0
 10
-12.7231399318
 20
22.3672553746
 10
-12.7385763788
 20
22.3908182193
 10
-12.7554492254
 20
22.4114596962
 10
-12.773540669
 20
22.4289127481
 10
-12.7928692842
 20
22.4431357461
 10
-12.8134164963
 20
22.4541703191
 10
-12.8329026757
 20
22.4613094018
  0
LWPOLYLINE
  5
3B6
100
AcDbEntity
  8
RACCORDO
100
AcDbPolyline
 62
253
  6
CONTINUOUS
 90
10
 70
0
 10
6.3213114164
 20
-32.3396595578
 10
6.224039425
 20
-29.6051055811
 10
6.1428666295
 20
-26.7521254593
 10
6.0781830872
 20
-23.7794354664
 10
6.0291768956
 20
-20.6508073458
 10
5.9971379939
 20
-17.3994418079
 10
5.9856486177
 20
-14.1298072596
 10
5.9971290952
 20
-10.8413798932
 10
6.0291561829
 20
-7.5351634259
 10
6.0781551538
 20
-4.3211427834
  0
LWPOLYLINE
  5
3B7
100
AcDbEntity
  8
RACCORDO
100
AcDbPolyline
 62
253
  6
CONTINUOUS
 90
13
 70
0
 10
6.5590979216
 20
-32.2544699068
 10
6.4626730933
 20
-29.524001559
 10
6.3827473364
 20
-26.6725720783
 10
6.3193206508
 20
-23.7001814648
 10
6.2711318504
 20
-20.57239324
 10
6.2394421213
 20
-17.3236438825
 10
6.228035022
 20
-14.0572428271
 10
6.2394308804
 20
-10.7703734348
 10
6.2711093686
 20
-7.4658523447
 10
6.3192930609
 20
-4.2554389096
 10
6.3827228155
 20
-1.176386247
 10
6.4626577743
 20
1.8085587607
 10
6.5590979373
 20
4.6993961133
  0
LINE
  5
3B8
100
AcDbEntity
  8
0
100
AcDbLine
 62
7
  6
CONTINUOUS
 10
5.6067233528
 20
11.8909817803
 11
5.5945620193
 21
12.4836451541
  0
LINE
  5
3B9
100
AcDbEntity
  8
0
100
AcDbLine
 62
7
  6
CONTINUOUS
 10
5.8066015182
 20
12.0761708895
 11
5.7944401847
 21
12.6688342633
  0
LINE
  5
3BA
100
AcDbEntity
  8
DRAFT
100
AcDbLine
 62
7
  6
CONTINUOUS
 10
5.1512049394
 20
24.1591390182
 11
5.1512049394
 21
24.1497740671
  0
LINE
  5
3BB
100
AcDbEntity
  8
DRAFT
100
AcDbLine
 62
7
  6
CONTINUOUS
 10
5.3551752266
 20
10.5469602988
 11
5.3551752266
 21
11.1964793517
  0
LINE
  5
3BC
100
AcDbEntity
  8
RACCORDO
100
AcDbLine
 62
7
  6
CONTINUOUS
 10
5.4987183787
 20
31.4389841607
 11
5.4987183787
 21
31.0511453753
  0
LINE
  5
3BD
100
AcDbEntity
  8
0
100
AcDbLine
 62
253
  6
CONTINUOUS
 10
5.844409726
 20
12.801734081
 11
5.844409726
 21
13.1481442425
  0
LINE
  5
3BE
100
AcDbEntity
  8
ASSI
100
AcDbLine
 62
253
  6
CONTINUOUS
 10
5.8705004898
 20
14.486060755
 11
5.8705004898
 21
14.632501202
  0
LINE
  5
3BF
100
AcDbEntity
  8
0
100
AcDbLine
 62
253
  6
CONTINUOUS
 10
6.2756643193
 20
13.1752115143
 11
6.2756643193
 21
13.5216216758
  0
LINE
  5
3C0
100
AcDbEntity
  8
RACCORDO
100
AcDbLine
 62
7
  6
CONTINUOUS
 10
6.7764605336
 20
10.1366705715
 11
6.7764605336
 21
10.6129845436
  0
LINE
  5
3C1
100
AcDbEntity
  8
0
100
AcDbLine
 62
7
  6
CONTINUOUS
 10
7.8399350464
 20
15.7330784259
 11
7.8399350464
 21
15.644399679
  0
LWPOLYLINE
  5
3C2
100
AcDbEntity
  8
0
100
AcDbPolyline
 62
7
  6
CONTINUOUS
 90
16
 70
0
 10
5.5945620193
 20
12.4836451541
 10
5.5951770928
 20
12.5313565637
 10
5.5985168305
 20
12.5800386489
 10
5.6045812324
 20
12.6296914097
 10
5.6135011048
 20
12.6809010009
 10
5.6251456414
 20
12.7330812678
 10
5.6391224238
 20
12.7844737457
 10
5.6555109409
 20
12.8350515848
 10
5.6742317038
 20
12.884841635
 10
5.6946538264
 20
12.9321659816
 10
5.7168352957
 20
12.9769405868
 10
5.7407181246
 20
13.0192494885
 10
5.7654974668
 20
13.057666885
 10
5.79090504
 20
13.0917175093
 10
5.8172091264
 20
13.1218766284
 10
5.844409726
 20
13.1481442425
  0
LWPOLYLINE
  5
3C3
100
AcDbEntity
  8
RACCORDO
100
AcDbPolyline
 62
253
  6
CONTINUOUS
 90
4
 70
0
 10
6.0781551538
 20
-4.3211427834
 10
6.1428406432
 20
-1.2377784356
 10
6.2240224181
 20
1.749779087
 10
6.3213114399
 20
4.6400687087
  0
LWPOLYLINE
  5
3C4
100
AcDbEntity
  8
0
100
AcDbPolyline
 62
7
  6
CONTINUOUS
 90
13
 70
0
 10
5.7944401847
 20
12.6688342633
 10
5.7947124123
 20
12.6809709344
 10
5.7958092524
 20
12.693273479
 10
5.7977307047
 20
12.7057418971
 10
5.8005398476
 20
12.7186023114
 10
5.8041736028
 20
12.7316285991
 10
5.808442736
 20
12.7441423931
 10
5.8133809203
 20
12.7561165329
 10
5.8189544826
 20
12.7675781788
 10
5.8248731696
 20
12.7779304452
 10
5.8310402303
 20
12.78697437
 10
5.8375524158
 20
12.7949089153
 10
5.844409726
 20
12.801734081
  0
LWPOLYLINE
  5
3C5
100
AcDbEntity
  8
RACCORDO
100
AcDbPolyline
 62
253
  6
CONTINUOUS
 90
16
 70
0
 10
6.321305007
 20
4.6400927413
 10
6.3248971529
 20
4.7255047732
 10
6.3322833001
 20
4.8151183321
 10
6.343445698
 20
4.9082134256
 10
6.3583821115
 20
5.0038894998
 10
6.3770485303
 20
5.1014218567
 10
6.3993533257
 20
5.2002729011
 10
6.4254039637
 20
5.2996001509
 10
6.4550184294
 20
5.3982836859
 10
6.4876687125
 20
5.4952853695
 10
6.523582423
 20
5.5896635943
 10
6.562480146
 20
5.680106982
 10
6.6031093528
 20
5.7650520008
 10
6.6450801873
 20
5.8433236005
 10
6.6888414592
 20
5.9140677158
 10
6.7344393245
 20
5.9763399605
  0
LWPOLYLINE
  5
3C6
100
AcDbEntity
  8
RACCORDO
100
AcDbPolyline
 62
253
  6
CONTINUOUS
 90
16
 70
0
 10
6.5590979373
 20
4.6993961133
 10
6.5630015657
 20
4.7597302164
 10
6.5708201293
 20
4.8221248622
 10
6.5825536281
 20
4.886580051
 10
6.5982481297
 20
4.9536861493
 10
6.6178575666
 20
5.0228527904
 10
6.6412437361
 20
5.0923088743
 10
6.6685450235
 20
5.1621963714
 10
6.6996230436
 20
5.2323733111
 10
6.7339244383
 20
5.300642682
 10
6.7717132581
 20
5.3671692802
 10
6.8127254524
 20
5.4317883095
 10
6.8556155122
 20
5.4918083694
 10
6.8999349346
 20
5.5463323264
 10
6.9461322224
 20
5.596257314
 10
6.9942073757
 20
5.6415833322
  0
LINE
  5
3C7
100
AcDbEntity
  8
0
100
AcDbLine
 62
253
  6
CONTINUOUS
 10
6.2864863
 20
13.1825307985
 11
6.3297742228
 21
13.5582180968
  0
LINE
  5
3C8
100
AcDbEntity
  8
RACCORDO
100
AcDbLine
 62
253
  6
CONTINUOUS
 10
6.5830549514
 20
14.8149878922
 11
6.5667690583
 21
14.6736458556
  0
LINE
  5
3C9
100
AcDbEntity
  8
RACCORDO
100
AcDbLine
 62
253
  6
CONTINUOUS
 10
7.7434821682
 20
15.7414609525
 11
7.7366585356
 21
15.682239998
  0
LINE
  5
3CA
100
AcDbEntity
  8
0
100
AcDbLine
 62
253
  6
CONTINUOUS
 10
8.6824284131
 20
16.1940696467
 11
8.6580322419
 21
15.9823401144
  0
LINE
  5
3CB
100
AcDbEntity
  8
0
100
AcDbLine
 62
7
  6
CONTINUOUS
 10
9.594409726
 20
15.131899679
 11
9.5800683641
 21
15.0074338421
  0
LWPOLYLINE
  5
3CC
100
AcDbEntity
  8
RACCORDO
100
AcDbPolyline
 62
7
  6
CONTINUOUS
 90
9
 70
0
 10
6.6841042082
 20
14.7450341885
 10
6.6839422617
 20
14.7438922793
 10
6.6828072104
 20
14.7397422117
 10
6.6808185546
 20
14.7357140314
 10
6.6779870906
 20
14.7318061968
 10
6.6743489346
 20
14.7280685536
 10
6.6699161255
 20
14.7245177172
 10
6.6646766244
 20
14.7211370722
 10
6.6586304314
 20
14.7179266186
  0
LWPOLYLINE
  5
3CD
100
AcDbEntity
  8
RACCORDO
100
AcDbPolyline
 62
7
  6
CONTINUOUS
 90
9
 70
0
 10
7.7180083915
 20
15.7143533826
 10
7.7181703379
 20
15.7154952919
 10
7.7193053893
 20
15.7196453594
 10
7.7212940451
 20
15.7236735397
 10
7.7241255091
 20
15.7275813744
 10
7.7277636651
 20
15.7313190175
 10
7.7321964742
 20
15.734869854
 10
7.7374359753
 20
15.738250499
 10
7.7434821682
 20
15.7414609525
  0
LINE
  5
3CE
100
AcDbEntity
  8
0
100
AcDbLine
 62
253
  6
CONTINUOUS
 10
8.7458525675
 20
16.2148604896
 11
8.7026566361
 21
15.9924977869
  0
LINE
  5
3CF
100
AcDbEntity
  8
RACCORDO
100
AcDbLine
 62
7
  6
CONTINUOUS
 10
23.2003769448
 20
13.7372265094
 11
23.1861556589
 21
13.7214552983
  0
LINE
  5
3D0
100
AcDbEntity
  8
RACCORDO
100
AcDbLine
 62
7
  6
CONTINUOUS
 10
23.1861556589
 20
13.7214552983
 11
23.1711960509
 21
13.7050313282
  0
LINE
  5
3D1
100
AcDbEntity
  8
RACCORDO
100
AcDbLine
 62
7
  6
CONTINUOUS
 10
23.1711960509
 20
13.7050313282
 11
23.1501751963
 21
13.6821953362
  0
LINE
  5
3D2
100
AcDbEntity
  8
RACCORDO
100
AcDbLine
 62
7
  6
CONTINUOUS
 10
23.1501751963
 20
13.6821953362
 11
23.1280257839
 21
13.6583902802
  0
LINE
  5
3D3
100
AcDbEntity
  8
RACCORDO
100
AcDbLine
 62
7
  6
CONTINUOUS
 10
23.1280257839
 20
13.6583902802
 11
23.104854203
 21
13.6337226691
  0
LINE
  5
3D4
100
AcDbEntity
  8
RACCORDO
100
AcDbLine
 62
7
  6
CONTINUOUS
 10
23.104854203
 20
13.6337226691
 11
23.0746192732
 21
13.6018390029
  0
LINE
  5
3D5
100
AcDbEntity
  8
RACCORDO
100
AcDbLine
 62
7
  6
CONTINUOUS
 10
23.0746192732
 20
13.6018390029
 11
23.0367741065
 21
13.5623300979
  0
LINE
  5
3D6
100
AcDbEntity
  8
RACCORDO
100
AcDbLine
 62
7
  6
CONTINUOUS
 10
23.0367741065
 20
13.5623300979
 11
22.9969840431
 21
13.5211843169
  0
LINE
  5
3D7
100
AcDbEntity
  8
RACCORDO
100
AcDbLine
 62
7
  6
CONTINUOUS
 10
22.9969840431
 20
13.5211843169
 11
22.9446723189
 21
13.4675894005
  0
LINE
  5
3D8
100
AcDbEntity
  8
RACCORDO
100
AcDbLine
 62
7
  6
CONTINUOUS
 10
22.9446723189
 20
13.4675894005
 11
22.8812038313
 21
13.4031784709
  0
LINE
  5
3D9
100
AcDbEntity
  8
RACCORDO
100
AcDbLine
 62
7
  6
CONTINUOUS
 10
22.8812038313
 20
13.4031784709
 11
22.8139628931
 21
13.3355315269
  0
LINE
  5
3DA
100
AcDbEntity
  8
RACCORDO
100
AcDbLine
 62
7
  6
CONTINUOUS
 10
22.8139628931
 20
13.3355315269
 11
22.7313488525
 21
13.2530898831
  0
LINE
  5
3DB
100
AcDbEntity
  8
RACCORDO
100
AcDbLine
 62
7
  6
CONTINUOUS
 10
22.7313488525
 20
13.2530898831
 11
22.6482944431
 21
13.1708178784
  0
LINE
  5
3DC
100
AcDbEntity
  8
RACCORDO
100
AcDbLine
 62
7
  6
CONTINUOUS
 10
22.6482944431
 20
13.1708178784
 11
22.6016614551
 21
13.1248530467
  0
LINE
  5
3DD
100
AcDbEntity
  8
RACCORDO
100
AcDbLine
 62
253
  6
CONTINUOUS
 10
22.5913957962
 20
13.2275037594
 11
23.3186162711
 21
13.9061455215
  0
LINE
  5
3DE
100
AcDbEntity
  8
RACCORDO
100
AcDbLine
 62
253
  6
CONTINUOUS
 10
21.520470461
 20
9.2868183547
 11
25.4974115025
 21
12.9980976288
  0
LINE
  5
3DF
100
AcDbEntity
  8
RACCORDO
100
AcDbLine
 62
7
  6
CONTINUOUS
 10
21.520470461
 20
9.1322209327
 11
25.401820411
 21
12.754296222
  0
LINE
  5
3E0
100
AcDbEntity
  8
RACCORDO
100
AcDbLine
 62
7
  6
CONTINUOUS
 10
25.4974115025
 20
13.575932801
 11
24.0342987081
 21
12.2561701247
  0
LWPOLYLINE
  5
3E1
100
AcDbEntity
  8
RACCORDO
100
AcDbPolyline
 62
253
  6
CONTINUOUS
 90
10
 70
0
 10
6.3212990646
 20
4.6401349076
 10
6.3532392899
 20
4.6409677463
 10
6.3845898314
 20
4.6433623343
 10
6.4149899289
 20
4.6472911159
 10
6.4440897583
 20
4.6527088806
 10
6.4715544612
 20
4.6595532846
 10
6.4970679973
 20
4.6677455683
 10
6.5203367759
 20
4.6771914618
 10
6.5410930346
 20
4.6877822683
 10
6.559097925
 20
4.699396117
  0
LWPOLYLINE
  5
3E2
100
AcDbEntity
  8
RACCORDO
100
AcDbPolyline
 62
7
  6
CONTINUOUS
 90
12
 70
0
 10
5.2887002221
 20
6.6869598606
 10
4.3297671459
 20
6.6796973964
 10
3.37549977
 20
6.6946509963
 10
2.4258980943
 20
6.7318206603
 10
1.4789581437
 20
6.7913651584
 10
0.5366838934
 20
6.8731257206
 10
-0.3949127314
 20
6.9766260366
 10
-1.3157827278
 20
7.1020247521
 10
-2.2259750988
 20
7.2491632215
 10
-3.1196249284
 20
7.4170891974
 10
-3.9947772446
 20
7.6054852639
 10
-4.8533870195
 20
7.8146688369
  0
LINE
  5
3E3
100
AcDbEntity
  8
RACCORDO
100
AcDbLine
 62
7
  6
CONTINUOUS
 10
-4.8533870195
 20
7.8146688369
 11
-5.695454253
 21
8.0446399163
  0
LWPOLYLINE
  5
3E4
100
AcDbEntity
  8
RACCORDO
100
AcDbPolyline
 62
253
  6
CONTINUOUS
 90
16
 70
0
 10
-6.4406397501
 20
7.3767611079
 10
-5.6354833524
 20
7.1555298484
 10
-4.8153810534
 20
6.9520228637
 10
-3.9803328531
 20
6.766240154
 10
-3.1287122472
 20
6.5978949039
 10
-2.26214574
 20
6.4472739287
 10
-1.3855128452
 20
6.3152376742
 10
-0.4985466112
 20
6.2019252386
 10
0.3984860103
 20
6.1071975237
 10
1.2999046514
 20
6.031497681
 10
2.2058426281
 20
5.9750264011
 10
3.1161666242
 20
5.9375829934
 10
4.0247963236
 20
5.9190085375
 10
4.929704954
 20
5.91925006
 10
5.8329192876
 20
5.9383605343
 10
6.7344393244
 20
5.9763399604
  0
LINE
  5
3E5
100
AcDbEntity
  8
RACCORDO
100
AcDbLine
 62
253
  6
CONTINUOUS
 10
-26.5038517321
 20
13.1685115272
 11
-6.4406397501
 21
7.3767611079
  0
LINE
  5
3E6
100
AcDbEntity
  8
RACCORDO
100
AcDbLine
 62
7
  6
CONTINUOUS
 10
-5.695454253
 20
8.0446399163
 11
-25.7586662349
 21
13.8363903356
  0
LWPOLYLINE
  5
3E7
100
AcDbEntity
  8
RACCORDO
100
AcDbPolyline
 62
7
  6
CONTINUOUS
 90
12
 70
0
 10
-25.7586662349
 20
13.8363903356
 10
-26.5786114341
 20
14.0862018605
 10
-27.3719487784
 20
14.3538949986
 10
-28.1386782679
 20
14.6394697499
 10
-28.8803382265
 20
14.9436177388
 10
-29.5953903304
 20
15.2656473408
 10
-30.2792196074
 20
15.6034836836
 10
-30.9315782155
 20
15.9572252797
 10
-31.5527139968
 20
16.3267736164
 10
-32.1387555052
 20
16.7097582839
 10
-32.688412259
 20
17.1053891454
 10
-33.20297474
 20
17.5144563376
  0
LWPOLYLINE
  5
3E8
100
AcDbEntity
  8
RACCORDO
100
AcDbPolyline
 62
253
  6
CONTINUOUS
 90
10
 70
0
 10
6.7344393245
 20
5.9763399605
 10
6.7791243122
 20
5.9590031001
 10
6.8225316059
 20
5.9343717987
 10
6.8633428072
 20
5.9031941768
 10
6.9003183678
 20
5.8664171839
 10
6.9323352388
 20
5.8251578384
 10
6.95842098
 20
5.7806692996
 10
6.9777832958
 20
5.7343028064
 10
6.9898340997
 20
5.6874666363
 10
6.9942073757
 20
5.6415833322
  0
LINE
  5
3E9
100
AcDbEntity
  8
0
100
AcDbLine
 62
7
  6
CONTINUOUS
 10
-9.4268284187
 20
28.4825644485
 11
-8.878839952
 21
27.3902839457
  0
LWPOLYLINE
  5
3EA
100
AcDbEntity
  8
RACCORDO
100
AcDbPolyline
 62
7
  6
CONTINUOUS
 90
5
 70
0
 10
16.2669884669
 20
-22.848990949
 10
16.278339016
 20
-22.8734832809
 10
16.2863004891
 20
-22.8961544929
 10
16.290850388
 20
-22.9172416198
 10
16.2920645153
 20
-22.9344037856
  0
LINE
  5
3EB
100
AcDbEntity
  8
RACCORDO
100
AcDbLine
 62
7
  6
CONTINUOUS
 10
8.8982227729
 20
10.6500299764
 11
8.8982227729
 21
9.5241705715
  0
LINE
  5
3EC
100
AcDbEntity
  8
RACCORDO
100
AcDbLine
 62
7
  6
CONTINUOUS
 10
9.7936710401
 20
8.0532809271
 11
9.7936710401
 21
-30.22512106
  0
LINE
  5
3ED
100
AcDbEntity
  8
RACCORDO
100
AcDbLine
 62
7
  6
CONTINUOUS
 10
10.5436710401
 20
-31.0478320037
 11
10.5436710401
 21
10.1750299764
  0
LINE
  5
3EE
100
AcDbEntity
  8
RACCORDO
100
AcDbLine
 62
253
  6
CONTINUOUS
 10
11.4149711079
 20
20.2732497628
 11
11.4149711079
 21
20.2401004553
  0
LWPOLYLINE
  5
3EF
100
AcDbEntity
  8
RACCORDO
100
AcDbPolyline
 62
7
  6
CONTINUOUS
 90
23
 70
0
 10
10.5436710401
 20
-29.4023573565
 10
10.5434436708
 20
-29.4164126057
 10
10.5427532224
 20
-29.4303143032
 10
10.5415996949
 20
-29.4440624492
 10
10.5399807272
 20
-29.457680403
 10
10.5378986805
 20
-29.4711448052
 10
10.5353606378
 20
-29.4843855773
 10
10.5323626136
 20
-29.4973983578
 10
10.5289085936
 20
-29.5101875082
 10
10.5250176175
 20
-29.5226960342
 10
10.5206928607
 20
-29.5349103151
 10
10.5159311479
 20
-29.5468439716
 10
10.510741993
 20
-29.5584808719
 10
10.5051262091
 20
-29.569823051
 10
10.4990829831
 20
-29.5808684739
 10
10.4926193891
 20
-29.5915949039
 10
10.4857266319
 20
-29.6020124776
 10
10.4784135068
 20
-29.6121110585
 10
10.4707134738
 20
-29.6218380002
 10
10.4626231092
 20
-29.6311891232
 10
10.4541458367
 20
-29.6401686069
 10
10.4453253885
 20
-29.6487363432
 10
10.4379862012
 20
-29.6553230161
  0
LWPOLYLINE
  5
3F0
100
AcDbEntity
  8
RACCORDO
100
AcDbPolyline
 62
253
  6
CONTINUOUS
 90
4
 70
0
 10
12.5248527744
 20
15.1308613771
 10
12.5222688551
 20
15.1151877571
 10
12.5138311067
 20
15.0984740466
 10
12.4997779604
 20
15.0827331988
  0
LINE
  5
3F1
100
AcDbEntity
  8
RACCORDO
100
AcDbLine
 62
7
  6
CONTINUOUS
 10
23.2857142369
 20
13.8377893054
 11
23.2810883563
 21
13.8318595036
  0
LINE
  5
3F2
100
AcDbEntity
  8
RACCORDO
100
AcDbLine
 62
7
  6
CONTINUOUS
 10
23.2810883563
 20
13.8318595036
 11
23.2761231468
 21
13.825602114
  0
LINE
  5
3F3
100
AcDbEntity
  8
RACCORDO
100
AcDbLine
 62
7
  6
CONTINUOUS
 10
23.2761231468
 20
13.825602114
 11
23.2708027393
 21
13.8190001896
  0
LINE
  5
3F4
100
AcDbEntity
  8
RACCORDO
100
AcDbLine
 62
7
  6
CONTINUOUS
 10
23.2708027393
 20
13.8190001896
 11
23.2651028811
 21
13.8120284282
  0
LINE
  5
3F5
100
AcDbEntity
  8
RACCORDO
100
AcDbLine
 62
7
  6
CONTINUOUS
 10
23.2651028811
 20
13.8120284282
 11
23.2589984337
 21
13.8046618071
  0
LINE
  5
3F6
100
AcDbEntity
  8
RACCORDO
100
AcDbLine
 62
7
  6
CONTINUOUS
 10
23.2589984337
 20
13.8046618071
 11
23.2524802077
 21
13.7968925896
  0
LINE
  5
3F7
100
AcDbEntity
  8
RACCORDO
100
AcDbLine
 62
7
  6
CONTINUOUS
 10
23.2524802077
 20
13.7968925896
 11
23.2455428538
 21
13.788719657
  0
LINE
  5
3F8
100
AcDbEntity
  8
RACCORDO
100
AcDbLine
 62
7
  6
CONTINUOUS
 10
23.2455428538
 20
13.788719657
 11
23.2381988119
 21
13.7801611998
  0
LINE
  5
3F9
100
AcDbEntity
  8
RACCORDO
100
AcDbLine
 62
7
  6
CONTINUOUS
 10
23.2381988119
 20
13.7801611998
 11
23.230455227
 21
13.7712275386
  0
LINE
  5
3FA
100
AcDbEntity
  8
RACCORDO
100
AcDbLine
 62
7
  6
CONTINUOUS
 10
23.230455227
 20
13.7712275386
 11
23.2223240188
 21
13.7619348949
  0
LINE
  5
3FB
100
AcDbEntity
  8
RACCORDO
100
AcDbLine
 62
7
  6
CONTINUOUS
 10
23.2223240188
 20
13.7619348949
 11
23.2094258275
 21
13.7473541318
  0
LINE
  5
3FC
100
AcDbEntity
  8
RACCORDO
100
AcDbLine
 62
7
  6
CONTINUOUS
 10
23.2094258275
 20
13.7473541318
 11
23.2003769448
 21
13.7372265094
  0
LWPOLYLINE
  5
3FD
100
AcDbEntity
  8
RACCORDO
100
AcDbPolyline
 62
7
  6
CONTINUOUS
 90
9
 70
0
 10
25.4018014158
 20
12.7543164911
 10
25.4553283717
 20
12.8096592306
 10
25.499649452
 20
12.8657697766
 10
25.53774001
 20
12.9255428057
 10
25.5691593829
 20
12.9884492618
 10
25.593435387
 20
13.0534421893
 10
25.610430496
 20
13.1197020485
 10
25.6201617235
 20
13.1865466433
 10
25.6227876257
 20
13.2437482278
  0
LWPOLYLINE
  5
3FE
100
AcDbEntity
  8
RACCORDO
100
AcDbPolyline
 62
253
  6
CONTINUOUS
 90
7
 70
0
 10
25.4974115025
 20
12.9980976288
 10
25.5359464611
 20
13.0373544548
 10
25.5676831674
 20
13.0781124153
 10
25.5923857598
 20
13.120072823
 10
25.6098708795
 20
13.1629327054
 10
25.6200085307
 20
13.2063728506
 10
25.6227916334
 20
13.2438612382
  0
LWPOLYLINE
  5
3FF
100
AcDbEntity
  8
RACCORDO
100
AcDbPolyline
 62
7
  6
CONTINUOUS
 90
7
 70
0
 10
25.4974115025
 20
13.575932801
 10
25.5358140871
 20
13.6141618787
 10
25.5672095135
 20
13.6536600786
 10
25.5915977817
 20
13.6944274008
 10
25.6091434039
 20
13.7369664129
 10
25.6196818679
 20
13.7807745473
 10
25.6227644352
 20
13.8183376481
  0
LINE
  5
400
100
AcDbEntity
  8
DRAFT
100
AcDbLine
 62
7
  6
CONTINUOUS
 10
-12.5720081181
 20
-22.6654568384
 11
-12.7718324365
 21
-22.8380494715
  0
LINE
  5
401
100
AcDbEntity
  8
DRAFT
100
AcDbLine
 62
7
  6
CONTINUOUS
 10
-12.508381276
 20
-25.6750443356
 11
-12.7718324365
 21
-25.8947471266
  0
LWPOLYLINE
  5
402
100
AcDbEntity
  8
RACCORDO
100
AcDbPolyline
 62
253
  6
CONTINUOUS
 90
6
 70
0
 10
-35.6231811489
 20
18.2039326569
 10
-35.6686952282
 20
18.2126340415
 10
-35.7127474787
 20
18.2132501725
 10
-35.753999907
 20
18.2057623006
 10
-35.7911995848
 20
18.1903977978
 10
-35.8245364965
 20
18.1664185608
  0
LINE
  5
403
100
AcDbEntity
  8
RACCORDO
100
AcDbLine
 62
253
  6
CONTINUOUS
 10
-33.0588692357
 20
17.9887439703
 11
5.4843182175
 21
6.8622841446
  0
LINE
  5
404
100
AcDbEntity
  8
RACCORDO
100
AcDbLine
 62
7
  6
CONTINUOUS
 10
-32.7126318291
 20
18.8061612837
 11
6.2585113412
 21
7.5561612837
  0
LINE
  5
405
100
AcDbEntity
  8
DRAFT
100
AcDbLine
 62
7
  6
CONTINUOUS
 10
-9.0964522779
 20
12.5219775921
 11
-16.45766821
 21
14.6469775921
  0
LINE
  5
406
100
AcDbEntity
  8
0
100
AcDbLine
 62
7
  6
CONTINUOUS
 10
-8.5946003379
 20
12.9717666405
 11
-15.4911618591
 21
14.9626324659
  0
LINE
  5
407
100
AcDbEntity
  8
0
100
AcDbLine
 62
7
  6
CONTINUOUS
 10
-8.3022547059
 20
13.2337838873
 11
-15.1911618591
 21
15.222440087
  0
LINE
  5
408
100
AcDbEntity
  8
RACCORDO
100
AcDbLine
 62
7
  6
CONTINUOUS
 10
-32.9880234768
 20
20.6630604012
 11
-17.7892380705
 21
16.2755489783
  0
LINE
  5
409
100
AcDbEntity
  8
DRAFT
100
AcDbLine
 62
7
  6
CONTINUOUS
 10
-17.7892380705
 20
16.2755489783
 11
-15.40766821
 21
15.5880489783
  0
LINE
  5
40A
100
AcDbEntity
  8
DRAFT
100
AcDbLine
 62
7
  6
CONTINUOUS
 10
-8.0464522779
 20
13.4630489783
 11
-5.6648824175
 21
12.7755489783
  0
LINE
  5
40B
100
AcDbEntity
  8
RACCORDO
100
AcDbLine
 62
7
  6
CONTINUOUS
 10
-5.6648824175
 20
12.7755489783
 11
9.5339029889
 21
8.3880375555
  0
LINE
  5
40C
100
AcDbEntity
  8
DRAFT
100
AcDbLine
 62
7
  6
CONTINUOUS
 10
-15.35766821
 20
15.6298385955
 11
-7.9964522779
 21
13.5048385955
  0
LINE
  5
40D
100
AcDbEntity
  8
DRAFT
100
AcDbLine
 62
7
  6
CONTINUOUS
 10
-17.0892380705
 20
16.8606036195
 11
-4.9648824175
 21
13.3606036195
  0
LINE
  5
40E
100
AcDbEntity
  8
RACCORDO
100
AcDbLine
 62
7
  6
CONTINUOUS
 10
10.1106583382
 20
9.0875680312
 11
-4.7849786069
 21
13.3875680312
  0
LINE
  5
40F
100
AcDbEntity
  8
RACCORDO
100
AcDbLine
 62
7
  6
CONTINUOUS
 10
-17.169141881
 20
16.9625680312
 11
-32.0647788261
 21
21.2625680312
  0
LINE
  5
410
100
AcDbEntity
  8
DRAFT
100
AcDbLine
 62
7
  6
CONTINUOUS
 10
8.8982227729
 20
9.5241705715
 11
6.7764605336
 21
10.1366705715
  0
LINE
  5
411
100
AcDbEntity
  8
DRAFT
100
AcDbLine
 62
7
  6
CONTINUOUS
 10
5.3551752266
 20
10.5469602988
 11
-5.65866062
 21
13.7263808442
  0
LINE
  5
412
100
AcDbEntity
  8
DRAFT
100
AcDbLine
 62
7
  6
CONTINUOUS
 10
-7.0799459269
 20
14.1366705715
 11
-14.874174561
 21
16.3866705715
  0
LINE
  5
413
100
AcDbEntity
  8
DRAFT
100
AcDbLine
 62
7
  6
CONTINUOUS
 10
-16.295459868
 20
16.7969602988
 11
-27.3092957146
 21
19.9763808442
  0
LINE
  5
414
100
AcDbEntity
  8
DRAFT
100
AcDbLine
 62
7
  6
CONTINUOUS
 10
-28.7305810215
 20
20.3866705715
 11
-30.8523432608
 21
20.9991705715
  0
LWPOLYLINE
  5
415
100
AcDbEntity
  8
RACCORDO
100
AcDbPolyline
 62
7
  6
CONTINUOUS
 90
49
 70
0
 10
10.1106583382
 20
9.0875680312
 10
10.1247792232
 20
9.0832643135
 10
10.1388802361
 20
9.0785032533
 10
10.1529613767
 20
9.0732848506
 10
10.1670466862
 20
9.0675998044
 10
10.1811121236
 20
9.0614574156
 10
10.1950855655
 20
9.0548855877
 10
10.208963801
 20
9.047881262
 10
10.2227500411
 20
9.0404474972
 10
10.2363817952
 20
9.0326213727
 10
10.2498445258
 20
9.0244102604
 10
10.2631527704
 20
9.0158067883
 10
10.2762876507
 20
9.00682592
 10
10.289250967
 20
8.997467949
 10
10.3020409189
 20
8.9877325819
 10
10.3146332278
 20
8.9776339014
 10
10.3270405692
 20
8.9671594533
 10
10.3392502674
 20
8.9563216919
 10
10.3512000171
 20
8.9451720634
 10
10.3628866272
 20
8.933708065
 10
10.3743132888
 20
8.9219321995
 10
10.3854272691
 20
8.9099034215
 10
10.396215451
 20
8.897634479
 10
10.4066909517
 20
8.885112624
 10
10.4168403906
 20
8.8723585673
 10
10.4266650076
 20
8.8593730448
 10
10.4361635628
 20
8.8461553205
 10
10.4453189549
 20
8.8327238975
 10
10.4541401371
 20
8.8190630074
 10
10.4626181561
 20
8.8051884185
 10
10.4707090519
 20
8.7911659388
 10
10.478409258
 20
8.7769935989
 10
10.4857223407
 20
8.7626733682
 10
10.4926150387
 20
8.7482769633
 10
10.4990785548
 20
8.7338197195
 10
10.5051216862
 20
8.7192863014
 10
10.5107375625
 20
8.7047024196
 10
10.515927116
 20
8.690069396
 10
10.5206894144
 20
8.6753859087
 10
10.5250147897
 20
8.6606737015
 10
10.5289064197
 20
8.6459171527
 10
10.5323611266
 20
8.6311318841
 10
10.5353597087
 20
8.616386505
 10
10.5378981036
 20
8.6016792115
 10
10.5399803737
 20
8.5870118075
 10
10.5415995038
 20
8.5724583152
 10
10.5427531558
 20
8.5580434083
 10
10.5434436679
 20
8.543742413
 10
10.5436710401
 20
8.5295553293
  0
LWPOLYLINE
  5
416
100
AcDbEntity
  8
0
100
AcDbPolyline
 62
7
  6
CONTINUOUS
 90
5
 70
0
 10
-10.3303874178
 20
26.5620058511
 10
-10.3380996151
 20
26.5703359793
 10
-10.3445257315
 20
26.5833456746
 10
-10.3458848942
 20
26.5968288921
 10
-10.3415402242
 20
26.6118664815
  0
LINE
  5
417
100
AcDbEntity
  8
RACCORDO
100
AcDbLine
 62
253
  6
CONTINUOUS
 10
11.4130186279
 20
20.3195569616
 11
11.4149711056
 21
20.2732497608
  0
LWPOLYLINE
  5
418
100
AcDbEntity
  8
RACCORDO
100
AcDbPolyline
 62
7
  6
CONTINUOUS
 90
3
 70
0
 10
12.5248525912
 20
15.1308613775
 10
12.5237747468
 20
15.1860294448
 10
12.5183713329
 20
15.2623208336
  0
LINE
  5
419
100
AcDbEntity
  8
RACCORDO
100
AcDbLine
 62
253
  6
CONTINUOUS
 10
12.4996043831
 20
15.1114041587
 11
12.4997779604
 21
15.0827331988
  0
LINE
  5
41A
100
AcDbEntity
  8
RACCORDO
100
AcDbLine
 62
253
  6
CONTINUOUS
 10
12.4997779604
 20
15.0827331988
 11
12.4997779604
 21
13.8217736302
  0
LINE
  5
41B
100
AcDbEntity
  8
RACCORDO
100
AcDbLine
 62
7
  6
CONTINUOUS
 10
12.524854019
 20
15.1312141609
 11
12.524854019
 21
13.8687957033
  0
LWPOLYLINE
  5
41C
100
AcDbEntity
  8
RACCORDO
100
AcDbPolyline
 62
253
  6
CONTINUOUS
 90
4
 70
0
 10
16.2920633443
 20
14.5264757859
 10
16.2894793616
 20
14.5107930638
 10
16.2810416131
 20
14.4940793533
 10
16.2669884669
 20
14.4783385055
  0
LWPOLYLINE
  5
41D
100
AcDbEntity
  8
0
100
AcDbPolyline
 62
7
  6
CONTINUOUS
 90
12
 70
0
 10
22.6952190583
 20
14.6559766979
 10
22.7361329871
 20
14.7573001783
 10
22.7769510933
 20
14.8657820603
 10
22.8154043738
 20
14.9757532606
 10
22.851401995
 20
15.0869235988
 10
22.8848815434
 20
15.1990810312
 10
22.9157592753
 20
15.311938927
 10
22.9439564424
 20
15.4252083636
 10
22.969415783
 20
15.5386751009
 10
22.9920637053
 20
15.6520472047
 10
23.0118335642
 20
15.765039663
 10
23.0149034581
 20
15.7851374023
  0
LWPOLYLINE
  5
41E
100
AcDbEntity
  8
0
100
AcDbPolyline
 62
253
  6
CONTINUOUS
 90
13
 70
0
 10
22.6960883799
 20
14.6604044639
 10
22.7044337107
 20
14.6800545391
 10
22.7446312816
 20
14.7811285839
 10
22.7828380017
 20
14.8839224927
 10
22.8189556386
 20
14.9881719722
 10
22.8528913367
 20
15.093609002
 10
22.8845578441
 20
15.1999624906
 10
22.9138737445
 20
15.3069589909
 10
22.9407636706
 20
15.4143234228
 10
22.9651584935
 20
15.5217797695
 10
22.986995495
 20
15.6290517656
 10
23.0062185305
 20
15.7358636068
 10
23.0132226079
 20
15.7807300237
  0
LINE
  5
41F
100
AcDbEntity
  8
RACCORDO
100
AcDbLine
 62
7
  6
CONTINUOUS
 10
8.8091596928
 20
16.016740652
 11
7.9414815204
 21
15.8192345377
  0
LWPOLYLINE
  5
420
100
AcDbEntity
  8
0
100
AcDbPolyline
 62
7
  6
CONTINUOUS
 90
7
 70
0
 10
8.7458525675
 20
16.2148604896
 10
8.7355609013
 20
16.2128781856
 10
8.7251576246
 20
16.2103027471
 10
8.7146427374
 20
16.2071341739
 10
8.7040162398
 20
16.2033724661
 10
8.6932781317
 20
16.1990176237
 10
8.6824284131
 20
16.1940696467
  0
LWPOLYLINE
  5
421
100
AcDbEntity
  8
RACCORDO
100
AcDbPolyline
 62
7
  6
CONTINUOUS
 90
5
 70
0
 10
14.9023838929
 20
15.4285045421
 10
14.8506996622
 20
15.4225633026
 10
14.7988883128
 20
15.4097056803
 10
14.7471618532
 20
15.3899501687
 10
14.6957536966
 20
15.3633136497
  0
LWPOLYLINE
  5
422
100
AcDbEntity
  8
RACCORDO
100
AcDbPolyline
 62
7
  6
CONTINUOUS
 90
25
 70
0
 10
4.0282933576
 20
15.1643005939
 10
4.0166690825
 20
15.1674894149
 10
4.004780229
 20
15.1704394972
 10
3.9926267972
 20
15.1731508408
 10
3.9801546333
 20
15.1756329842
 10
3.967417891
 20
15.1778763888
 10
3.9545790319
 20
15.1798524393
 10
3.9416367481
 20
15.181557711
 10
3.9285923475
 20
15.1829956286
 10
3.9156122161
 20
15.1841478508
 10
3.902697177
 20
15.1850107182
 10
3.8898464072
 20
15.1855878902
 10
3.8772238225
 20
15.185872005
 10
3.864832346
 20
15.1858593085
 10
3.8526690547
 20
15.1855535547
 10
3.8408890956
 20
15.1849586436
 10
3.8294973791
 20
15.1840708712
 10
3.8184889948
 20
15.1828939415
 10
3.8080043586
 20
15.1814428666
 10
3.7980501794
 20
15.1797141349
 10
3.7886197482
 20
15.177711258
 10
3.7798333534
 20
15.1754597833
 10
3.7717310912
 20
15.1729682267
 10
3.7642728655
 20
15.1702280724
 10
3.7574586761
 20
15.1672393203
  0
LINE
  5
423
100
AcDbEntity
  8
0
100
AcDbLine
 62
7
  6
CONTINUOUS
 10
-18.0248787165
 20
17.758080733
 11
-24.779876866
 21
19.708080733
  0
LINE
  5
424
100
AcDbEntity
  8
0
100
AcDbLine
 62
7
  6
CONTINUOUS
 10
-3.1292417714
 20
13.458080733
 11
3.6257563781
 21
11.508080733
  0
LINE
  5
425
100
AcDbEntity
  8
RACCORDO
100
AcDbLine
 62
7
  6
CONTINUOUS
 10
6.6032290689
 20
10.8361972408
 11
5.3551752266
 21
11.1964793517
  0
LINE
  5
426
100
AcDbEntity
  8
RACCORDO
100
AcDbLine
 62
7
  6
CONTINUOUS
 10
-5.65866062
 20
14.3758998971
 11
-6.9067144622
 21
14.736182008
  0
LINE
  5
427
100
AcDbEntity
  8
RACCORDO
100
AcDbLine
 62
7
  6
CONTINUOUS
 10
-28.5573495568
 20
20.986182008
 11
-27.3092957146
 21
20.6258998971
  0
LINE
  5
428
100
AcDbEntity
  8
RACCORDO
100
AcDbLine
 62
7
  6
CONTINUOUS
 10
-16.295459868
 20
17.4464793517
 11
-15.0474060257
 21
17.0861972408
  0
LINE
  5
429
100
AcDbEntity
  8
ASSI
100
AcDbLine
 62
7
  6
CONTINUOUS
 10
1.897295409
 20
12.2414486452
 11
-0.7007808023
 21
12.9914486452
  0
LINE
  5
42A
100
AcDbEntity
  8
ASSI
100
AcDbLine
 62
7
  6
CONTINUOUS
 10
-19.7533396856
 20
18.4914486452
 11
-22.3514158969
 21
19.2414486452
  0
LINE
  5
42B
100
AcDbEntity
  8
DRAFT
100
AcDbLine
 62
7
  6
CONTINUOUS
 10
8.9059080511
 20
10.6766525612
 11
7.7462274743
 21
11.0114235078
  0
LINE
  5
42C
100
AcDbEntity
  8
DRAFT
100
AcDbLine
 62
7
  6
CONTINUOUS
 10
-6.5335951553
 20
15.1336532274
 11
-13.9044076203
 21
17.2614235078
  0
LINE
  5
42D
100
AcDbEntity
  8
DRAFT
100
AcDbLine
 62
7
  6
CONTINUOUS
 10
-28.1842302499
 20
21.3836532274
 11
-29.8825763201
 21
21.8739235078
  0
LINE
  5
42E
100
AcDbEntity
  8
ASSI
100
AcDbLine
 62
7
  6
CONTINUOUS
 10
-21.4746209777
 20
19.5044908946
 11
-18.5301346048
 21
18.6544908946
  0
LINE
  5
42F
100
AcDbEntity
  8
ASSI
100
AcDbLine
 62
7
  6
CONTINUOUS
 10
0.1760141169
 20
13.2544908946
 11
3.1205004898
 21
12.4044908946
  0
LINE
  5
430
100
AcDbEntity
  8
RACCORDO
100
AcDbLine
 62
7
  6
CONTINUOUS
 10
10.3704923393
 20
10.398201062
 11
9.0714014737
 21
10.7732162925
  0
LINE
  5
431
100
AcDbEntity
  8
RACCORDO
100
AcDbLine
 62
7
  6
CONTINUOUS
 10
-31.0255219616
 20
22.348201062
 11
-32.3246128272
 21
22.7232162925
  0
LINE
  5
432
100
AcDbEntity
  8
0
100
AcDbLine
 62
7
  6
CONTINUOUS
 10
1.710482055
 20
12.9734365669
 11
-0.8875941564
 21
13.7234365669
  0
LINE
  5
433
100
AcDbEntity
  8
0
100
AcDbLine
 62
7
  6
CONTINUOUS
 10
-19.9401530397
 20
19.2234365669
 11
-22.538229251
 21
19.9734365669
  0
LINE
  5
434
100
AcDbEntity
  8
0
100
AcDbLine
 62
7
  6
CONTINUOUS
 10
5.6067233528
 20
11.8909817803
 11
1.7096090357
 21
13.0159817803
  0
LINE
  5
435
100
AcDbEntity
  8
0
100
AcDbLine
 62
7
  6
CONTINUOUS
 10
-16.0439117419
 20
18.1409817803
 11
-19.9410260589
 21
19.2659817803
  0
LINE
  5
436
100
AcDbEntity
  8
0
100
AcDbLine
 62
7
  6
CONTINUOUS
 10
-26.4362165873
 20
21.1409817803
 11
-22.5391022702
 21
20.0159817803
  0
LINE
  5
437
100
AcDbEntity
  8
0
100
AcDbLine
 62
7
  6
CONTINUOUS
 10
-4.7855814927
 20
14.8909817803
 11
-0.8884671756
 21
13.7659817803
  0
LINE
  5
438
100
AcDbEntity
  8
0
100
AcDbLine
 62
253
  6
CONTINUOUS
 10
5.5945620193
 20
12.4836451541
 11
-4.7977428261
 21
15.4836451541
  0
LINE
  5
439
100
AcDbEntity
  8
0
100
AcDbLine
 62
253
  6
CONTINUOUS
 10
-16.0560730753
 20
18.7336451541
 11
-26.4483779207
 21
21.7336451541
  0
LINE
  5
43A
100
AcDbEntity
  8
0
100
AcDbLine
 62
253
  6
CONTINUOUS
 10
5.844409726
 20
13.1481442425
 11
-4.5478951194
 21
16.1481442425
  0
LINE
  5
43B
100
AcDbEntity
  8
0
100
AcDbLine
 62
253
  6
CONTINUOUS
 10
-15.8062253686
 20
19.3981442425
 11
-26.198530214
 21
22.3981442425
  0
LINE
  5
43C
100
AcDbEntity
  8
0
100
AcDbLine
 62
253
  6
CONTINUOUS
 10
6.2756643193
 20
13.5216216758
 11
-4.1166405261
 21
16.5216216758
  0
LINE
  5
43D
100
AcDbEntity
  8
0
100
AcDbLine
 62
253
  6
CONTINUOUS
 10
-15.3749707753
 20
19.7716216758
 11
-25.7672756207
 21
22.7716216758
  0
LINE
  5
43E
100
AcDbEntity
  8
0
100
AcDbLine
 62
253
  6
CONTINUOUS
 10
6.3297742228
 20
13.5582180968
 11
-4.0625306226
 21
16.5582180968
  0
LINE
  5
43F
100
AcDbEntity
  8
0
100
AcDbLine
 62
253
  6
CONTINUOUS
 10
-15.3208608718
 20
19.8082180968
 11
-25.7131657172
 21
22.8082180968
  0
LINE
  5
440
100
AcDbEntity
  8
RACCORDO
100
AcDbLine
 62
7
  6
CONTINUOUS
 10
4.9721665396
 20
14.0384768783
 11
2.4606928686
 21
14.7634768783
  0
LINE
  5
441
100
AcDbEntity
  8
RACCORDO
100
AcDbLine
 62
7
  6
CONTINUOUS
 10
0.035821738
 20
15.4634768783
 11
-2.4756519329
 21
16.1884768783
  0
LINE
  5
442
100
AcDbEntity
  8
RACCORDO
100
AcDbLine
 62
7
  6
CONTINUOUS
 10
-16.678468555
 20
20.2884768783
 11
-19.189942226
 21
21.0134768783
  0
LINE
  5
443
100
AcDbEntity
  8
RACCORDO
100
AcDbLine
 62
7
  6
CONTINUOUS
 10
-21.6148133566
 20
21.7134768783
 11
-24.1262870275
 21
22.4384768783
  0
LINE
  5
444
100
AcDbEntity
  8
ASSI
100
AcDbLine
 62
7
  6
CONTINUOUS
 10
5.8303081109
 20
14.4512531338
 11
3.6048650049
 21
15.093683222
  0
LINE
  5
445
100
AcDbEntity
  8
ASSI
100
AcDbLine
 62
7
  6
CONTINUOUS
 10
-15.8203269837
 20
20.7012531338
 11
-18.0457700897
 21
21.343683222
  0
LINE
  5
446
100
AcDbEntity
  8
RACCORDO
100
AcDbLine
 62
7
  6
CONTINUOUS
 10
-22.5586865386
 20
22.8393005939
 11
-20.3343870939
 21
22.1972006523
  0
LINE
  5
447
100
AcDbEntity
  8
RACCORDO
100
AcDbLine
 62
7
  6
CONTINUOUS
 10
-17.622341737
 20
21.4143005939
 11
-15.3980422923
 21
20.7722006523
  0
LINE
  5
448
100
AcDbEntity
  8
RACCORDO
100
AcDbLine
 62
7
  6
CONTINUOUS
 10
-0.908051444
 20
16.5893005939
 11
1.3162480007
 21
15.9472006523
  0
LINE
  5
449
100
AcDbEntity
  8
RACCORDO
100
AcDbLine
 62
7
  6
CONTINUOUS
 10
4.0282933576
 20
15.1643005939
 11
6.2525928023
 21
14.5222006523
  0
LWPOLYLINE
  5
44A
100
AcDbEntity
  8
RACCORDO
100
AcDbPolyline
 62
7
  6
CONTINUOUS
 90
18
 70
0
 10
-24.1262870275
 20
22.4384768783
 10
-24.1374784102
 20
22.4418743704
 10
-24.1481166467
 20
22.4454272988
 10
-24.1582017371
 20
22.4491356636
 10
-24.1677720203
 20
22.4530166267
 10
-24.1767891573
 20
22.457053026
 10
-24.1851381315
 20
22.4611933761
 10
-24.1928103838
 20
22.4654390084
 10
-24.1998144732
 20
22.4697885914
 10
-24.2060610602
 20
22.4741866447
 10
-24.2115404412
 20
22.478633789
 10
-24.2162623198
 20
22.4831294036
 10
-24.2201664667
 20
22.4876161453
 10
-24.2232424069
 20
22.4920939004
 10
-24.2255006155
 20
22.4965627826
 10
-24.2269122882
 20
22.5009657898
 10
-24.227466581
 20
22.5053020781
 10
-24.2273362843
 20
22.508430582
  0
LWPOLYLINE
  5
44B
100
AcDbEntity
  8
RACCORDO
100
AcDbPolyline
 62
7
  6
CONTINUOUS
 90
18
 70
0
 10
-19.189942226
 20
21.0134768783
 10
-19.2011336086
 20
21.0168743704
 10
-19.2117718452
 20
21.0204272988
 10
-19.2218569355
 20
21.0241356636
 10
-19.2314272187
 20
21.0280166267
 10
-19.2404443558
 20
21.032053026
 10
-19.2487933299
 20
21.0361933761
 10
-19.2564655822
 20
21.0404390084
 10
-19.2634696716
 20
21.0447885914
 10
-19.2697162586
 20
21.0491866447
 10
-19.2751956396
 20
21.053633789
 10
-19.2799175182
 20
21.0581294036
 10
-19.2838216651
 20
21.0626161453
 10
-19.2868976054
 20
21.0670939004
 10
-19.2891558139
 20
21.0715627826
 10
-19.2905674866
 20
21.0759657898
 10
-19.2911217794
 20
21.0803020781
 10
-19.2909914828
 20
21.083430582
  0
LWPOLYLINE
  5
44C
100
AcDbEntity
  8
RACCORDO
100
AcDbPolyline
 62
7
  6
CONTINUOUS
 90
18
 70
0
 10
-2.4756519329
 20
16.1884768783
 10
-2.4868433156
 20
16.1918743704
 10
-2.4974815521
 20
16.1954272988
 10
-2.5075666425
 20
16.1991356636
 10
-2.5171369257
 20
16.2030166267
 10
-2.5261540627
 20
16.207053026
 10
-2.5345030369
 20
16.2111933761
 10
-2.5421752892
 20
16.2154390084
 10
-2.5491793786
 20
16.2197885914
 10
-2.5554259655
 20
16.2241866447
 10
-2.5609053466
 20
16.228633789
 10
-2.5656272252
 20
16.2331294036
 10
-2.5695313721
 20
16.2376161453
 10
-2.5726073123
 20
16.2420939004
 10
-2.5748655209
 20
16.2465627826
 10
-2.5762771936
 20
16.2509657898
 10
-2.5768314864
 20
16.2553020781
 10
-2.5767011897
 20
16.258430582
  0
LWPOLYLINE
  5
44D
100
AcDbEntity
  8
RACCORDO
100
AcDbPolyline
 62
7
  6
CONTINUOUS
 90
18
 70
0
 10
2.4606928686
 20
14.7634768783
 10
2.449501486
 20
14.7668743704
 10
2.4388632495
 20
14.7704272988
 10
2.4287781591
 20
14.7741356636
 10
2.4192078759
 20
14.7780166267
 10
2.4101907389
 20
14.782053026
 10
2.4018417647
 20
14.7861933761
 10
2.3941695124
 20
14.7904390084
 10
2.387165423
 20
14.7947885914
 10
2.380918836
 20
14.7991866447
 10
2.375439455
 20
14.803633789
 10
2.3707175764
 20
14.8081294036
 10
2.3668134295
 20
14.8126161453
 10
2.3637374893
 20
14.8170939004
 10
2.3614792807
 20
14.8215627826
 10
2.360067608
 20
14.8259657898
 10
2.3595133152
 20
14.8303020781
 10
2.3596436119
 20
14.833430582
  0
LWPOLYLINE
  5
44E
100
AcDbEntity
  8
ASSI
100
AcDbPolyline
 62
7
  6
CONTINUOUS
 90
13
 70
0
 10
-21.4746209777
 20
19.5044908946
 10
-21.4969379278
 20
19.5116336897
 10
-21.5176486059
 20
19.5195796208
 10
-21.5367530121
 20
19.528328688
 10
-21.5543714801
 20
19.5379593021
 10
-21.5703836761
 20
19.5483930521
 10
-21.5844285988
 20
19.5593947051
 10
-21.5964615594
 20
19.5709771616
 10
-21.6065272466
 20
19.5831275209
 10
-21.6143987256
 20
19.5955718484
 10
-21.6200261523
 20
19.6083168218
 10
-21.6234593708
 20
19.6213557635
 10
-21.6246209777
 20
19.6343947051
  0
LWPOLYLINE
  5
44F
100
AcDbEntity
  8
ASSI
100
AcDbPolyline
 62
7
  6
CONTINUOUS
 90
13
 70
0
 10
0.1760141169
 20
13.2544908946
 10
0.1536971668
 20
13.2616336897
 10
0.1329864887
 20
13.2695796208
 10
0.1138820826
 20
13.278328688
 10
0.0962636145
 20
13.2879593021
 10
0.0802514185
 20
13.2983930521
 10
0.0662064958
 20
13.3093947051
 10
0.0541735352
 20
13.3209771616
 10
0.044107848
 20
13.3331275209
 10
0.036236369
 20
13.3455718484
 10
0.0306089423
 20
13.3583168218
 10
0.0271757238
 20
13.3713557635
 10
0.0260141169
 20
13.3843947051
  0
LWPOLYLINE
  5
450
100
AcDbEntity
  8
0
100
AcDbPolyline
 62
7
  6
CONTINUOUS
 90
4
 70
0
 10
8.9621920224
 20
16.0374176229
 10
8.9540217398
 20
16.0612901251
 10
8.9414766511
 20
16.0907334338
 10
8.9274951628
 20
16.1172553746
  0
LINE
  5
451
100
AcDbEntity
  8
RACCORDO
100
AcDbLine
 62
253
  6
CONTINUOUS
 10
11.4062984492
 20
20.3666845707
 11
11.4130186279
 21
20.3195569616
  0
LWPOLYLINE
  5
452
100
AcDbEntity
  8
RACCORDO
100
AcDbPolyline
 62
7
  6
CONTINUOUS
 90
11
 70
0
 10
12.5183713329
 20
15.2623208336
 10
12.5079882966
 20
15.3368011396
 10
12.492306925
 20
15.4078980463
 10
12.4716845244
 20
15.4729497216
 10
12.4463372948
 20
15.5315727916
 10
12.4160062945
 20
15.5843762141
 10
12.3808663249
 20
15.6308724605
 10
12.3410435568
 20
15.6708014754
 10
12.2967730085
 20
15.7037811955
 10
12.2490160553
 20
15.7291057167
 10
12.2070212341
 20
15.7441809288
  0
LWPOLYLINE
  5
453
100
AcDbEntity
  8
RACCORDO
100
AcDbPolyline
 62
7
  6
CONTINUOUS
 90
3
 70
0
 10
16.2920631743
 20
14.5264757862
 10
16.2909184416
 20
14.5832807855
 10
16.2853729095
 20
14.6599288474
  0
LINE
  5
454
100
AcDbEntity
  8
RACCORDO
100
AcDbLine
 62
253
  6
CONTINUOUS
 10
16.2668092054
 20
14.5068860968
 11
16.2669884669
 21
14.4783385055
  0
LINE
  5
455
100
AcDbEntity
  8
RACCORDO
100
AcDbLine
 62
253
  6
CONTINUOUS
 10
16.2669884669
 20
-25.0260025763
 11
16.2669884669
 21
-22.848990949
  0
LINE
  5
456
100
AcDbEntity
  8
RACCORDO
100
AcDbLine
 62
253
  6
CONTINUOUS
 10
16.2669884669
 20
14.4783385055
 11
16.2669884669
 21
12.3013268783
  0
LINE
  5
457
100
AcDbEntity
  8
RACCORDO
100
AcDbLine
 62
7
  6
CONTINUOUS
 10
16.2920645254
 20
-24.9775216143
 11
16.2920645254
 21
-22.9344735123
  0
LINE
  5
458
100
AcDbEntity
  8
RACCORDO
100
AcDbLine
 62
7
  6
CONTINUOUS
 10
16.2920645254
 20
14.5268194676
 11
16.2920645254
 21
12.4837713656
  0
LINE
  5
459
100
AcDbEntity
  8
RACCORDO
100
AcDbLine
 62
253
  6
CONTINUOUS
 10
19.327034058
 20
27.163456212
 11
19.327034058
 21
22.2732591431
  0
LINE
  5
45A
100
AcDbEntity
  8
RACCORDO
100
AcDbLine
 62
7
  6
CONTINUOUS
 10
19.3897242044
 20
27.284658617
 11
19.3897242044
 21
22.3944615462
  0
LINE
  5
45B
100
AcDbEntity
  8
RACCORDO
100
AcDbLine
 62
7
  6
CONTINUOUS
 10
16.2894378641
 20
-25.0663495854
 11
16.292063761
 21
-24.9772767512
  0
LWPOLYLINE
  5
45C
100
AcDbEntity
  8
RACCORDO
100
AcDbPolyline
 62
7
  6
CONTINUOUS
 90
5
 70
0
 10
16.2920645161
 20
12.4837656802
 10
16.2908819579
 20
12.4450536001
 10
16.2863531881
 20
12.3981832316
 10
16.2783846061
 20
12.3501939098
 10
16.2669884669
 20
12.3013268783
  0
LWPOLYLINE
  5
45D
100
AcDbEntity
  8
RACCORDO
100
AcDbPolyline
 62
253
  6
CONTINUOUS
 90
5
 70
0
 10
16.2614050404
 20
-25.1477595041
 10
16.2640144302
 20
-25.1143085527
 10
16.2658599916
 20
-25.0828992246
 10
16.2668513372
 20
-25.0534638992
 10
16.2669884669
 20
-25.0260025763
  0
LWPOLYLINE
  5
45E
100
AcDbEntity
  8
RACCORDO
100
AcDbPolyline
 62
253
  6
CONTINUOUS
 90
5
 70
0
 10
15.8858515973
 20
-26.0625119364
 10
15.88348889
 20
-26.0915770964
 10
15.8758850294
 20
-26.1182869748
 10
15.8632709629
 20
-26.1418303189
 10
15.8473808447
 20
-26.1602517911
  0
LINE
  5
45F
100
AcDbEntity
  8
RACCORDO
100
AcDbLine
 62
7
  6
CONTINUOUS
 10
16.2808554245
 20
-25.1648224917
 11
16.2894378641
 21
-25.0663495854
  0
LWPOLYLINE
  5
460
100
AcDbEntity
  8
RACCORDO
100
AcDbPolyline
 62
253
  6
CONTINUOUS
 90
6
 70
0
 10
19.3897242044
 20
27.284658617
 10
19.3876739964
 20
27.2620422253
 10
19.3802969516
 20
27.2363409709
 10
19.3676309092
 20
27.2111651114
 10
19.3498123874
 20
27.1867825936
 10
19.327034058
 20
27.163456212
  0
LWPOLYLINE
  5
461
100
AcDbEntity
  8
RACCORDO
100
AcDbPolyline
 62
253
  6
CONTINUOUS
 90
6
 70
0
 10
19.3897241571
 20
22.394352828
 10
19.3876130308
 20
22.3715120549
 10
19.3802012609
 20
22.345901642
 10
19.3675345343
 20
22.3208115481
 10
19.3497486021
 20
22.296510597
 10
19.327034058
 20
22.273259141
  0
LINE
  5
462
100
AcDbEntity
  8
RACCORDO
100
AcDbLine
 62
7
  6
CONTINUOUS
 10
1.8962831294
 20
18.0123162244
 11
1.0550330863
 21
17.8071809663
  0
LINE
  5
463
100
AcDbEntity
  8
RACCORDO
100
AcDbLine
 62
7
  6
CONTINUOUS
 10
0.4788246682
 20
18.6812641787
 11
-0.8711002001
 21
18.363207752
  0
LWPOLYLINE
  5
464
100
AcDbEntity
  8
0
100
AcDbPolyline
 62
7
  6
CONTINUOUS
 90
7
 70
0
 10
2.2506620392
 20
18.0898604896
 10
2.2403703729
 20
18.0878781856
 10
2.2299670962
 20
18.0853027471
 10
2.2194522091
 20
18.0821341739
 10
2.2088257114
 20
18.0783724661
 10
2.1980876033
 20
18.0740176237
 10
2.1872378847
 20
18.0690696467
  0
LWPOLYLINE
  5
465
100
AcDbEntity
  8
RACCORDO
100
AcDbPolyline
 62
253
  6
CONTINUOUS
 90
3
 70
0
 10
14.9898879362
 20
15.4211588872
 10
15.0148467353
 20
15.416601332
 10
15.021795172
 20
15.4147324016
  0
LWPOLYLINE
  5
466
100
AcDbEntity
  8
0
100
AcDbPolyline
 62
7
  6
CONTINUOUS
 90
4
 70
0
 10
8.8177324189
 20
16.2113094018
 10
8.7933801369
 20
16.2162002896
 10
8.7700888876
 20
16.2171956871
 10
8.7458525675
 20
16.2148604896
  0
LWPOLYLINE
  5
467
100
AcDbEntity
  8
0
100
AcDbPolyline
 62
7
  6
CONTINUOUS
 90
4
 70
0
 10
2.3225418904
 20
18.0863094014
 10
2.2981895512
 20
18.0912003002
 10
2.2748983267
 20
18.092195691
 10
2.2506620392
 20
18.0898604896
  0
LWPOLYLINE
  5
468
100
AcDbEntity
  8
0
100
AcDbPolyline
 62
7
  6
CONTINUOUS
 90
4
 70
0
 10
-12.8329026757
 20
22.4613094018
 10
-12.8572549577
 20
22.4662002896
 10
-12.880546207
 20
22.4671956871
 10
-12.9047825271
 20
22.4648604896
  0
LWPOLYLINE
  5
469
100
AcDbEntity
  8
RACCORDO
100
AcDbPolyline
 62
7
  6
CONTINUOUS
 90
8
 70
0
 10
0.25625457
 20
19.1940890305
 10
0.2265687222
 20
19.2001081518
 10
0.1877045744
 20
19.2007533467
 10
0.1468091414
 20
19.1941568204
 10
0.1053356271
 20
19.180680013
 10
0.0637684327
 20
19.1604434048
 10
0.0216231569
 20
19.1333265155
 10
-0.0211002001
 20
19.0993293452
  0
LWPOLYLINE
  5
46A
100
AcDbEntity
  8
RACCORDO
100
AcDbPolyline
 62
7
  6
CONTINUOUS
 90
4
 70
0
 10
-0.9557648276
 20
19.5439478107
 10
-0.9779778973
 20
19.5496415685
 10
-1.027881439
 20
19.5571495201
 10
-1.0797121328
 20
19.5576909893
  0
LWPOLYLINE
  5
46B
100
AcDbEntity
  8
RACCORDO
100
AcDbPolyline
 62
7
  6
CONTINUOUS
 90
4
 70
0
 10
15.0223085971
 20
15.4145808968
 10
15.0023511602
 20
15.4197593343
 10
14.9533271335
 20
15.4274983117
 10
14.9023838929
 20
15.4285045421
  0
LWPOLYLINE
  5
46C
100
AcDbEntity
  8
RACCORDO
100
AcDbPolyline
 62
253
  6
CONTINUOUS
 90
13
 70
0
 10
-9.4430466895
 20
21.9940186121
 10
-9.4505611206
 20
21.996011669
 10
-9.4750016203
 20
22.0001729338
 10
-9.4998404708
 20
22.0010410308
 10
-9.5249525594
 20
21.9987721257
 10
-9.5502249974
 20
21.9935298186
 10
-9.5752538897
 20
21.9855976643
 10
-9.5998408119
 20
21.975286104
 10
-9.6239655624
 20
21.9628390045
 10
-9.647489514
 20
21.9485542853
 10
-9.6703181644
 20
21.93271303
 10
-9.6924024183
 20
21.9155597426
 10
-9.7136878519
 20
21.8973383901
  0
LWPOLYLINE
  5
46D
100
AcDbEntity
  8
RACCORDO
100
AcDbPolyline
 62
7
  6
CONTINUOUS
 90
4
 70
0
 10
-22.6066386364
 20
25.7940194167
 10
-22.6177342302
 20
25.7970431958
 10
-22.6676243374
 20
25.8061095145
 10
-22.7197334475
 20
25.8081621912
  0
LWPOLYLINE
  5
46E
100
AcDbEntity
  8
RACCORDO
100
AcDbPolyline
 62
7
  6
CONTINUOUS
 90
25
 70
0
 10
-0.908051444
 20
16.5893005939
 10
-0.9196757191
 20
16.5924894149
 10
-0.9315645726
 20
16.5954394972
 10
-0.9437180044
 20
16.5981508408
 10
-0.9561901683
 20
16.6006329842
 10
-0.9689269106
 20
16.6028763888
 10
-0.9817657696
 20
16.6048524393
 10
-0.9947080535
 20
16.606557711
 10
-1.0077524541
 20
16.6079956286
 10
-1.0207325855
 20
16.6091478508
 10
-1.0336476245
 20
16.6100107182
 10
-1.0464983944
 20
16.6105878902
 10
-1.0591209791
 20
16.610872005
 10
-1.0715124556
 20
16.6108593085
 10
-1.0836757469
 20
16.6105535547
 10
-1.095455706
 20
16.6099586436
 10
-1.1068474225
 20
16.6090708712
 10
-1.1178558067
 20
16.6078939415
 10
-1.128340443
 20
16.6064428666
 10
-1.1382946222
 20
16.6047141349
 10
-1.1477250534
 20
16.602711258
 10
-1.1565114481
 20
16.6004597833
 10
-1.1646137103
 20
16.5979682267
 10
-1.1720719361
 20
16.5952280724
 10
-1.1788861254
 20
16.5922393203
  0
LWPOLYLINE
  5
46F
100
AcDbEntity
  8
RACCORDO
100
AcDbPolyline
 62
7
  6
CONTINUOUS
 90
25
 70
0
 10
-17.622341737
 20
21.4143005939
 10
-17.6339660121
 20
21.4174894149
 10
-17.6458548656
 20
21.4204394972
 10
-17.6580082974
 20
21.4231508408
 10
-17.6704804614
 20
21.4256329842
 10
-17.6832172036
 20
21.4278763888
 10
-17.6960560627
 20
21.4298524393
 10
-17.7089983465
 20
21.431557711
 10
-17.7220427471
 20
21.4329956286
 10
-17.7350228785
 20
21.4341478508
 10
-17.7479379176
 20
21.4350107182
 10
-17.7607886875
 20
21.4355878902
 10
-17.7734112722
 20
21.435872005
 10
-17.7858027486
 20
21.4358593085
 10
-17.79796604
 20
21.4355535547
 10
-17.809745999
 20
21.4349586436
 10
-17.8211377155
 20
21.4340708712
 10
-17.8321460998
 20
21.4328939415
 10
-17.8426307361
 20
21.4314428666
 10
-17.8525849152
 20
21.4297141349
 10
-17.8620153464
 20
21.427711258
 10
-17.8708017412
 20
21.4254597833
 10
-17.8789040034
 20
21.4229682267
 10
-17.8863622291
 20
21.4202280724
 10
-17.8931764185
 20
21.4172393203
  0
LWPOLYLINE
  5
470
100
AcDbEntity
  8
RACCORDO
100
AcDbPolyline
 62
7
  6
CONTINUOUS
 90
25
 70
0
 10
-22.5586865386
 20
22.8393005939
 10
-22.5703108137
 20
22.8424894149
 10
-22.5821996672
 20
22.8454394972
 10
-22.594353099
 20
22.8481508408
 10
-22.6068252629
 20
22.8506329842
 10
-22.6195620052
 20
22.8528763888
 10
-22.6324008642
 20
22.8548524393
 10
-22.6453431481
 20
22.856557711
 10
-22.6583875487
 20
22.8579956286
 10
-22.6713676801
 20
22.8591478508
 10
-22.6842827191
 20
22.8600107182
 10
-22.697133489
 20
22.8605878902
 10
-22.7097560737
 20
22.860872005
 10
-22.7221475502
 20
22.8608593085
 10
-22.7343108415
 20
22.8605535547
 10
-22.7460908006
 20
22.8599586436
 10
-22.7574825171
 20
22.8590708712
 10
-22.7684909014
 20
22.8578939415
 10
-22.7789755376
 20
22.8564428666
 10
-22.7889297168
 20
22.8547141349
 10
-22.798360148
 20
22.852711258
 10
-22.8071465427
 20
22.8504597833
 10
-22.8152488049
 20
22.8479682267
 10
-22.8227070307
 20
22.8452280724
 10
-22.82952122
 20
22.8422393203
  0
LINE
  5
471
100
AcDbEntity
  8
RACCORDO
100
AcDbLine
 62
7
  6
CONTINUOUS
 10
1.5258281353
 20
18.3790597024
 11
0.4788997999
 21
18.6737992619
  0
LINE
  5
472
100
AcDbEntity
  8
RACCORDO
100
AcDbLine
 62
7
  6
CONTINUOUS
 10
-20.1248069593
 20
24.6290597024
 11
-21.1717352947
 21
24.9237992619
  0
LINE
  5
473
100
AcDbEntity
  8
RACCORDO
100
AcDbLine
 62
7
  6
CONTINUOUS
 10
-22.5153986158
 20
23.2149878922
 11
-20.0039249448
 21
22.4899878922
  0
LINE
  5
474
100
AcDbEntity
  8
RACCORDO
100
AcDbLine
 62
7
  6
CONTINUOUS
 10
-17.5790538142
 20
21.7899878922
 11
-15.0675801432
 21
21.0649878922
  0
LINE
  5
475
100
AcDbEntity
  8
RACCORDO
100
AcDbLine
 62
7
  6
CONTINUOUS
 10
-0.8647635212
 20
16.9649878922
 11
1.6467101498
 21
16.2399878922
  0
LINE
  5
476
100
AcDbEntity
  8
RACCORDO
100
AcDbLine
 62
7
  6
CONTINUOUS
 10
4.0715812804
 20
15.5399878922
 11
6.5830549514
 21
14.8149878922
  0
LINE
  5
477
100
AcDbEntity
  8
RACCORDO
100
AcDbLine
 62
7
  6
CONTINUOUS
 10
9.594409726
 20
15.131899679
 11
7.8190576483
 21
15.644399679
  0
LINE
  5
478
100
AcDbEntity
  8
RACCORDO
100
AcDbLine
 62
7
  6
CONTINUOUS
 10
-12.0562253686
 20
21.381899679
 11
-13.8315774463
 21
21.894399679
  0
LINE
  5
479
100
AcDbEntity
  8
RACCORDO
100
AcDbLine
 62
7
  6
CONTINUOUS
 10
-22.448530214
 20
24.381899679
 11
-20.6731781362
 21
23.869399679
  0
LINE
  5
47A
100
AcDbEntity
  8
RACCORDO
100
AcDbLine
 62
7
  6
CONTINUOUS
 10
-0.7978951194
 20
18.131899679
 11
0.9774569584
 21
17.619399679
  0
LINE
  5
47B
100
AcDbEntity
  8
DRAFT
100
AcDbLine
 62
7
  6
CONTINUOUS
 10
-11.8830202878
 20
21.4266052116
 11
-13.8107000482
 21
21.9830784259
  0
LINE
  5
47C
100
AcDbEntity
  8
DRAFT
100
AcDbLine
 62
7
  6
CONTINUOUS
 10
-20.6940555343
 20
23.9701319973
 11
-22.6217352947
 21
24.5266052116
  0
LINE
  5
47D
100
AcDbEntity
  8
DRAFT
100
AcDbLine
 62
7
  6
CONTINUOUS
 10
-0.9711002001
 20
18.2766052116
 11
0.9565795603
 21
17.7201319973
  0
LINE
  5
47E
100
AcDbEntity
  8
DRAFT
100
AcDbLine
 62
7
  6
CONTINUOUS
 10
7.8399350464
 20
15.7330784259
 11
9.7676148068
 21
15.1766052116
  0
LINE
  5
47F
100
AcDbEntity
  8
0
100
AcDbLine
 62
7
  6
CONTINUOUS
 10
9.8676148068
 20
15.263207752
 11
7.9414815204
 21
15.8192345377
  0
LINE
  5
480
100
AcDbEntity
  8
0
100
AcDbLine
 62
7
  6
CONTINUOUS
 10
1.0550330863
 20
17.8071809663
 11
-0.8711002001
 21
18.363207752
  0
LINE
  5
481
100
AcDbEntity
  8
0
100
AcDbLine
 62
7
  6
CONTINUOUS
 10
-22.5217352947
 20
24.613207752
 11
-20.5956020083
 21
24.0571809663
  0
LINE
  5
482
100
AcDbEntity
  8
0
100
AcDbLine
 62
7
  6
CONTINUOUS
 10
-13.7091535743
 20
22.0692345377
 11
-11.7830202878
 21
21.513207752
  0
LINE
  5
483
100
AcDbEntity
  8
0
100
AcDbLine
 62
253
  6
CONTINUOUS
 10
8.6824284131
 20
16.1940696467
 11
2.1872378847
 21
18.0690696467
  0
LINE
  5
484
100
AcDbEntity
  8
0
100
AcDbLine
 62
253
  6
CONTINUOUS
 10
-12.9682066815
 20
22.4440696467
 11
-19.4633972099
 21
24.3190696467
  0
LINE
  5
485
100
AcDbEntity
  8
0
100
AcDbLine
 62
7
  6
CONTINUOUS
 10
-19.328092977
 20
24.3363101883
 11
-12.8329024486
 21
22.4613101883
  0
LINE
  5
486
100
AcDbEntity
  8
0
100
AcDbLine
 62
7
  6
CONTINUOUS
 10
2.3225421176
 20
18.0863101883
 11
8.817732646
 21
16.2113101883
  0
LINE
  5
487
100
AcDbEntity
  8
RACCORDO
100
AcDbLine
 62
253
  6
CONTINUOUS
 10
-22.8910677306
 20
25.7013203002
 11
-21.6717352947
 21
25.3493293452
  0
LINE
  5
488
100
AcDbEntity
  8
RACCORDO
100
AcDbLine
 62
253
  6
CONTINUOUS
 10
-10.9330202878
 20
22.2493293452
 11
-9.7136878519
 21
21.8973383901
  0
LINE
  5
489
100
AcDbEntity
  8
RACCORDO
100
AcDbLine
 62
253
  6
CONTINUOUS
 10
-1.240432636
 20
19.4513203002
 11
-0.0211002001
 21
19.0993293452
  0
LINE
  5
48A
100
AcDbEntity
  8
RACCORDO
100
AcDbLine
 62
253
  6
CONTINUOUS
 10
10.7176148068
 20
15.9993293452
 11
11.9369472427
 21
15.6473383901
  0
LINE
  5
48B
100
AcDbEntity
  8
RACCORDO
100
AcDbLine
 62
253
  6
CONTINUOUS
 10
24.0342987081
 20
12.2561701247
 11
22.6932272182
 21
12.6433041176
  0
LINE
  5
48C
100
AcDbEntity
  8
RACCORDO
100
AcDbLine
 62
7
  6
CONTINUOUS
 10
-22.6070094222
 20
25.7941273258
 11
-21.3943851966
 21
25.4440728642
  0
LINE
  5
48D
100
AcDbEntity
  8
RACCORDO
100
AcDbLine
 62
7
  6
CONTINUOUS
 10
-10.6556701897
 20
22.3440728642
 11
-9.4430458436
 21
21.9940183679
  0
LINE
  5
48E
100
AcDbEntity
  8
RACCORDO
100
AcDbLine
 62
7
  6
CONTINUOUS
 10
-0.9563744185
 20
19.544127352
 11
0.256249898
 21
19.1940728642
  0
LINE
  5
48F
100
AcDbEntity
  8
RACCORDO
100
AcDbLine
 62
7
  6
CONTINUOUS
 10
10.9949649049
 20
16.0940728642
 11
12.2075891491
 21
15.7440183973
  0
LINE
  5
490
100
AcDbEntity
  8
RACCORDO
100
AcDbLine
 62
253
  6
CONTINUOUS
 10
-26.649340978
 20
27.2792898942
 11
-25.6833414044
 21
27.0004298372
  0
LINE
  5
491
100
AcDbEntity
  8
RACCORDO
100
AcDbLine
 62
253
  6
CONTINUOUS
 10
14.7466733229
 20
15.3292898942
 11
15.7126728965
 21
15.0504298372
  0
LINE
  5
492
100
AcDbEntity
  8
RACCORDO
100
AcDbLine
 62
7
  6
CONTINUOUS
 10
-26.3742200568
 20
27.3647326695
 11
-25.4212146678
 21
27.0896237105
  0
LINE
  5
493
100
AcDbEntity
  8
RACCORDO
100
AcDbLine
 62
7
  6
CONTINUOUS
 10
15.0217942441
 20
15.4147326695
 11
15.9747996331
 21
15.1396237105
  0
LINE
  5
494
100
AcDbEntity
  8
RACCORDO
100
AcDbLine
 62
7
  6
CONTINUOUS
 10
-11.1719663201
 20
22.0423960111
 11
-11.4799486232
 21
22.1335040587
  0
LINE
  5
495
100
AcDbEntity
  8
RACCORDO
100
AcDbLine
 62
7
  6
CONTINUOUS
 10
10.4786687745
 20
15.7923960111
 11
10.1706864714
 21
15.8835040587
  0
LWPOLYLINE
  5
496
100
AcDbEntity
  8
RACCORDO
100
AcDbPolyline
 62
7
  6
CONTINUOUS
 90
18
 70
0
 10
-20.0039249448
 20
22.4899878922
 10
-19.9927335622
 20
22.4865904001
 10
-19.9820953256
 20
22.4830374717
 10
-19.9720102352
 20
22.4793291069
 10
-19.9624399521
 20
22.4754481439
 10
-19.953422815
 20
22.4714117445
 10
-19.9450738409
 20
22.4672713944
 10
-19.9374015886
 20
22.4630257621
 10
-19.9303974992
 20
22.4586761791
 10
-19.9241509122
 20
22.4542781259
 10
-19.9186715312
 20
22.4498309815
 10
-19.9139496526
 20
22.4453353669
 10
-19.9100455057
 20
22.4408486252
 10
-19.9069695654
 20
22.4363708701
 10
-19.9047113568
 20
22.4319019879
 10
-19.9032996842
 20
22.4274989807
 10
-19.9027453914
 20
22.4231626925
 10
-19.902875688
 20
22.4200341885
  0
LWPOLYLINE
  5
497
100
AcDbEntity
  8
RACCORDO
100
AcDbPolyline
 62
7
  6
CONTINUOUS
 90
18
 70
0
 10
-15.0675801432
 20
21.0649878922
 10
-15.0563887606
 20
21.0615904001
 10
-15.0457505241
 20
21.0580374717
 10
-15.0356654337
 20
21.0543291069
 10
-15.0260951505
 20
21.0504481439
 10
-15.0170780135
 20
21.0464117445
 10
-15.0087290393
 20
21.0422713944
 10
-15.001056787
 20
21.0380257621
 10
-14.9940526976
 20
21.0336761791
 10
-14.9878061106
 20
21.0292781259
 10
-14.9823267296
 20
21.0248309815
 10
-14.977604851
 20
21.0203353669
 10
-14.9737007041
 20
21.0158486252
 10
-14.9706247639
 20
21.0113708701
 10
-14.9683665553
 20
21.0069019879
 10
-14.9669548826
 20
21.0024989807
 10
-14.9664005898
 20
20.9981626925
 10
-14.9665308865
 20
20.9950341885
  0
LWPOLYLINE
  5
498
100
AcDbEntity
  8
RACCORDO
100
AcDbPolyline
 62
7
  6
CONTINUOUS
 90
18
 70
0
 10
1.6467101498
 20
16.2399878922
 10
1.6579015325
 20
16.2365904001
 10
1.668539769
 20
16.2330374717
 10
1.6786248594
 20
16.2293291069
 10
1.6881951425
 20
16.2254481439
 10
1.6972122796
 20
16.2214117445
 10
1.7055612538
 20
16.2172713944
 10
1.713233506
 20
16.2130257621
 10
1.7202375955
 20
16.2086761791
 10
1.7264841824
 20
16.2042781259
 10
1.7319635634
 20
16.1998309815
 10
1.736685442
 20
16.1953353669
 10
1.7405895889
 20
16.1908486252
 10
1.7436655292
 20
16.1863708701
 10
1.7459237378
 20
16.1819019879
 10
1.7473354104
 20
16.1774989807
 10
1.7478897033
 20
16.1731626925
 10
1.7477594066
 20
16.1700341885
  0
LWPOLYLINE
  5
499
100
AcDbEntity
  8
RACCORDO
100
AcDbPolyline
 62
7
  6
CONTINUOUS
 90
18
 70
0
 10
6.5830549514
 20
14.8149878922
 10
6.594246334
 20
14.8115904001
 10
6.6048845705
 20
14.8080374717
 10
6.6149696609
 20
14.8043291069
 10
6.6245399441
 20
14.8004481439
 10
6.6335570811
 20
14.7964117445
 10
6.6419060553
 20
14.7922713944
 10
6.6495783076
 20
14.7880257621
 10
6.656582397
 20
14.7836761791
 10
6.662828984
 20
14.7792781259
 10
6.668308365
 20
14.7748309815
 10
6.6730302436
 20
14.7703353669
 10
6.6769343905
 20
14.7658486252
 10
6.6800103308
 20
14.7613708701
 10
6.6822685393
 20
14.7569019879
 10
6.683680212
 20
14.7524989807
 10
6.6842345048
 20
14.7481626925
 10
6.6841042082
 20
14.7450341885
  0
LWPOLYLINE
  5
49A
100
AcDbEntity
  8
RACCORDO
100
AcDbPolyline
 62
7
  6
CONTINUOUS
 90
18
 70
0
 10
-13.8315774463
 20
21.894399679
 10
-13.842768829
 20
21.897797171
 10
-13.8534070655
 20
21.9013500994
 10
-13.8634921559
 20
21.9050584642
 10
-13.8730624391
 20
21.9089394273
 10
-13.8820795761
 20
21.9129758266
 10
-13.8904285503
 20
21.9171161767
 10
-13.8981008026
 20
21.921361809
 10
-13.905104892
 20
21.925711392
 10
-13.9113514789
 20
21.9301094453
 10
-13.91683086
 20
21.9345565896
 10
-13.9215527385
 20
21.9390522042
 10
-13.9254568855
 20
21.9435389459
 10
-13.9285328257
 20
21.948016701
 10
-13.9307910343
 20
21.9524855832
 10
-13.932202707
 20
21.9568885904
 10
-13.9327569998
 20
21.9612248787
 10
-13.9326267031
 20
21.9643533826
  0
LWPOLYLINE
  5
49B
100
AcDbEntity
  8
RACCORDO
100
AcDbPolyline
 62
7
  6
CONTINUOUS
 90
18
 70
0
 10
7.8190576483
 20
15.644399679
 10
7.8078662656
 20
15.647797171
 10
7.7972280291
 20
15.6513500994
 10
7.7871429387
 20
15.6550584642
 10
7.7775726555
 20
15.6589394273
 10
7.7685555185
 20
15.6629758266
 10
7.7602065443
 20
15.6671161767
 10
7.7525342921
 20
15.671361809
 10
7.7455302026
 20
15.675711392
 10
7.7392836157
 20
15.6801094453
 10
7.7338042346
 20
15.6845565896
 10
7.7290823561
 20
15.6890522042
 10
7.7251782092
 20
15.6935389459
 10
7.7221022689
 20
15.698016701
 10
7.7198440603
 20
15.7024855832
 10
7.7184323876
 20
15.7068885904
 10
7.7178780948
 20
15.7112248787
 10
7.7180083915
 20
15.7143533826
  0
LWPOLYLINE
  5
49C
100
AcDbEntity
  8
RACCORDO
100
AcDbPolyline
 62
253
  6
CONTINUOUS
 90
10
 70
0
 10
11.9369472427
 20
15.6473383901
 10
11.9673224789
 20
15.6362883795
 10
11.9967747755
 20
15.6203113666
 10
12.0244092391
 20
15.5998928067
 10
12.0493862113
 20
15.5756531082
 10
12.0709467794
 20
15.5483287837
 10
12.0884358368
 20
15.5187500712
 10
12.1013219889
 20
15.487815706
 10
12.1092136991
 20
15.4564656128
 10
12.1118711841
 20
15.4256523474
  0
LWPOLYLINE
  5
49D
100
AcDbEntity
  8
RACCORDO
100
AcDbPolyline
 62
253
  6
CONTINUOUS
 90
10
 70
0
 10
-25.6833414044
 20
27.0004298372
 10
-25.6529985978
 20
26.9893506717
 10
-25.6236303953
 20
26.9733021914
 10
-25.5961287898
 20
26.9527718336
 10
-25.5713290801
 20
26.9283831621
 10
-25.5499845013
 20
26.9008769287
 10
-25.5327433467
 20
26.8710885746
 10
-25.5201292762
 20
26.8399228544
 10
-25.5125254122
 20
26.8083263561
 10
-25.5101627036
 20
26.7772587517
  0
LWPOLYLINE
  5
49E
100
AcDbEntity
  8
0
100
AcDbPolyline
 62
7
  6
CONTINUOUS
 90
7
 70
0
 10
8.9274951628
 20
16.1172553746
 10
8.9120587158
 20
16.1408182193
 10
8.8951858692
 20
16.1614596962
 10
8.8770944256
 20
16.1789127481
 10
8.8577658104
 20
16.1931357461
 10
8.8372185983
 20
16.2041703191
 10
8.8177324189
 20
16.2113094018
  0
LWPOLYLINE
  5
49F
100
AcDbEntity
  8
RACCORDO
100
AcDbPolyline
 62
253
  6
CONTINUOUS
 90
8
 70
0
 10
12.4713957885
 20
15.3172387038
 10
12.4787823578
 20
15.2882773128
 10
12.484978434
 20
15.2589270746
 10
12.4899202248
 20
15.2293112237
 10
12.4936715226
 20
15.1993065255
 10
12.4965056161
 20
15.1695797017
 10
12.4985136017
 20
15.140352993
 10
12.4996043831
 20
15.1114041587
  0
LWPOLYLINE
  5
4A0
100
AcDbEntity
  8
RACCORDO
100
AcDbPolyline
 62
253
  6
CONTINUOUS
 90
8
 70
0
 10
16.2391314563
 20
14.7109914385
 10
16.2463593179
 20
14.6823107738
 10
16.2524276774
 20
14.6532423473
 10
16.2572756707
 20
14.6239079789
 10
16.2609641619
 20
14.5941858487
 10
16.2637536383
 20
14.5647049382
 10
16.2657309292
 20
14.5356749077
 10
16.2668092054
 20
14.5068860968
  0
LWPOLYLINE
  5
4A1
100
AcDbEntity
  8
RACCORDO
100
AcDbPolyline
 62
7
  6
CONTINUOUS
 90
11
 70
0
 10
16.2853729095
 20
14.6599288474
 10
16.2748355953
 20
14.7344346712
 10
16.2590291875
 20
14.8053253275
 10
16.2383126668
 20
14.8701137629
 10
16.2129110891
 20
14.9284500945
 10
16.1825848317
 20
14.9809373589
 10
16.1474898638
 20
15.0271539811
 10
16.1077472707
 20
15.0668453722
 10
16.0636012246
 20
15.0996282827
 10
16.0159874942
 20
15.1248154607
 10
15.974253047
 20
15.1397796525
  0
LWPOLYLINE
  5
4A2
100
AcDbEntity
  8
RACCORDO
100
AcDbPolyline
 62
253
  6
CONTINUOUS
 90
16
 70
0
 10
19.327034058
 20
22.273259143
 10
19.3298317737
 20
22.2277282226
 10
19.3372761047
 20
22.181265543
 10
19.349297122
 20
22.1343859335
 10
19.3657796882
 20
22.0876068668
 10
19.3865468725
 20
22.0414473533
 10
19.4113570289
 20
21.9964211816
 10
19.4399310622
 20
21.9530268858
 10
19.4719644267
 20
21.9117367244
 10
19.5071111814
 20
21.8729965323
 10
19.544983102
 20
21.8372249701
 10
19.585165888
 20
21.8048171855
 10
19.6272294908
 20
21.7761351237
 10
19.6707127104
 20
21.7514928025
 10
19.7151280291
 20
21.731152453
 10
19.7599808099
 20
21.7153314292
  0
LWPOLYLINE
  5
4A3
100
AcDbEntity
  8
RACCORDO
100
AcDbPolyline
 62
7
  6
CONTINUOUS
 90
14
 70
0
 10
21.5204704067
 20
16.9428049296
 10
21.5189066744
 20
16.9824349762
 10
21.5121899029
 20
17.0335414944
 10
21.5002232852
 20
17.0837661403
 10
21.4830981293
 20
17.1325939165
 10
21.4609213943
 20
17.1795709384
 10
21.4338602523
 20
17.2241844693
 10
21.4021664749
 20
17.2658891873
 10
21.3661307061
 20
17.3041955878
 10
21.3260824047
 20
17.3386503322
 10
21.2824446178
 20
17.3687964849
 10
21.2357378033
 20
17.3942084772
 10
21.1864949159
 20
17.4145525148
 10
21.159247486
 20
17.4232764215
  0
LINE
  5
4A4
100
AcDbEntity
  8
RACCORDO
100
AcDbLine
 62
253
  6
CONTINUOUS
 10
21.4577803146
 20
-18.0049467453
 11
21.4577803146
 21
16.8217190555
  0
LINE
  5
4A5
100
AcDbEntity
  8
RACCORDO
100
AcDbLine
 62
7
  6
CONTINUOUS
 10
21.520470461
 20
-17.8837443402
 11
21.520470461
 21
16.9429214606
  0
LINE
  5
4A6
100
AcDbEntity
  8
RACCORDO
100
AcDbLine
 62
253
  6
CONTINUOUS
 10
21.5204704067
 20
16.9428049296
 11
21.520470461
 21
16.9429214606
  0
LWPOLYLINE
  5
4A7
100
AcDbEntity
  8
RACCORDO
100
AcDbPolyline
 62
253
  6
CONTINUOUS
 90
7
 70
0
 10
21.4577803146
 20
-18.0049467453
 10
21.4558139643
 20
-18.0492673793
 10
21.4490493928
 20
-18.0917651307
 10
21.4375606933
 20
-18.1319714004
 10
21.4214715616
 20
-18.1694476449
 10
21.4009601983
 20
-18.2037747456
 10
21.3762632172
 20
-18.234562105
  0
LINE
  5
4A8
100
AcDbEntity
  8
RACCORDO
100
AcDbLine
 62
7
  6
CONTINUOUS
 10
21.5175284895
 20
-17.9379044364
 11
21.5204703841
 21
-17.8836056426
  0
LWPOLYLINE
  5
4A9
100
AcDbEntity
  8
RACCORDO
100
AcDbPolyline
 62
7
  6
CONTINUOUS
 90
5
 70
0
 10
-1.0797121328
 20
19.5576909893
 10
-1.1322446396
 20
19.5510608181
 10
-1.1848423065
 20
19.5373099882
 10
-1.2373061319
 20
19.5164604871
 10
-1.2894310056
 20
19.4885186625
  0
LWPOLYLINE
  5
4AA
100
AcDbEntity
  8
RACCORDO
100
AcDbPolyline
 62
253
  6
CONTINUOUS
 90
3
 70
0
 10
-26.4061263647
 20
27.3711588872
 10
-26.3811675656
 20
27.366601332
 10
-26.3742191289
 20
27.3647324016
  0
LWPOLYLINE
  5
4AB
100
AcDbEntity
  8
0
100
AcDbPolyline
 62
7
  6
CONTINUOUS
 90
4
 70
0
 10
-19.3280932042
 20
24.3363094014
 10
-19.3524455434
 20
24.3412003002
 10
-19.3757367679
 20
24.342195691
 10
-19.3999730555
 20
24.3398604896
  0
LWPOLYLINE
  5
4AC
100
AcDbEntity
  8
RACCORDO
100
AcDbPolyline
 62
7
  6
CONTINUOUS
 90
8
 70
0
 10
-21.3943805246
 20
25.4440890305
 10
-21.4240663724
 20
25.4501081518
 10
-21.4629305202
 20
25.4507533467
 10
-21.5038259532
 20
25.4441568204
 10
-21.5452994675
 20
25.430680013
 10
-21.5868666619
 20
25.4104434048
 10
-21.6290119377
 20
25.3833265155
 10
-21.6717352947
 20
25.3493293452
  0
LWPOLYLINE
  5
4AD
100
AcDbEntity
  8
RACCORDO
100
AcDbPolyline
 62
253
  6
CONTINUOUS
 90
6
 70
0
 10
-22.8910677306
 20
25.7013203002
 10
-22.9208368386
 20
25.7076324682
 10
-22.9497014272
 20
25.7084900954
 10
-22.9767844607
 20
25.7038671232
 10
-23.0012630347
 20
25.6939040184
 10
-23.0189811007
 20
25.6818623152
  0
LWPOLYLINE
  5
4AE
100
AcDbEntity
  8
RACCORDO
100
AcDbPolyline
 62
253
  6
CONTINUOUS
 90
13
 70
0
 10
-22.6070086196
 20
25.7941270941
 10
-22.622262986
 20
25.7978789103
 10
-22.6478883122
 20
25.8014128013
 10
-22.6738201741
 20
25.8017441706
 10
-22.6999665966
 20
25.7990459131
 10
-22.7261830233
 20
25.793499493
 10
-22.7519623136
 20
25.7854322566
 10
-22.7770614673
 20
25.7752087105
 10
-22.8015076597
 20
25.7630923276
 10
-22.8251982648
 20
25.7493746444
 10
-22.8480559935
 20
25.7343345653
 10
-22.8700282956
 20
25.7182335243
 10
-22.8910677306
 20
25.7013203002
  0
LWPOLYLINE
  5
4AF
100
AcDbEntity
  8
RACCORDO
100
AcDbPolyline
 62
253
  6
CONTINUOUS
 90
3
 70
0
 10
-10.8020383478
 20
26.5672733019
 10
-10.7235158481
 20
26.5469485898
 10
-10.643330429
 20
26.5301558507
  0
LWPOLYLINE
  5
4B0
100
AcDbEntity
  8
RACCORDO
100
AcDbPolyline
 62
7
  6
CONTINUOUS
 90
4
 70
0
 10
-26.3737057038
 20
27.3645808968
 10
-26.3936631407
 20
27.3697593343
 10
-26.4426871674
 20
27.3774983117
 10
-26.493630408
 20
27.3785045421
  0
LINE
  5
4B1
100
AcDbEntity
  8
RACCORDO
100
AcDbLine
 62
7
  6
CONTINUOUS
 10
23.3186162711
 20
13.9061455215
 11
22.611947166
 21
14.1101433206
  0
LINE
  5
4B2
100
AcDbEntity
  8
RACCORDO
100
AcDbLine
 62
7
  6
CONTINUOUS
 10
25.1227917954
 20
14.251350313
 11
22.7968822759
 21
14.9227825566
  0
LINE
  5
4B3
100
AcDbEntity
  8
RACCORDO
100
AcDbLine
 62
253
  6
CONTINUOUS
 10
21.0248335626
 20
17.3796467694
 11
11.3566440631
 21
20.1706126745
  0
LINE
  5
4B4
100
AcDbEntity
  8
RACCORDO
100
AcDbLine
 62
253
  6
CONTINUOUS
 10
-10.8020383478
 20
26.5672733019
 11
-20.4702278473
 21
29.3582392069
  0
LINE
  5
4B5
100
AcDbEntity
  8
RACCORDO
100
AcDbLine
 62
7
  6
CONTINUOUS
 10
21.1591455101
 20
17.423305922
 11
11.4909560071
 21
20.2142718281
  0
LINE
  5
4B6
100
AcDbEntity
  8
RACCORDO
100
AcDbLine
 62
7
  6
CONTINUOUS
 10
-10.6677263976
 20
26.6109324537
 11
-20.3359158999
 21
29.4018983596
  0
LWPOLYLINE
  5
4B7
100
AcDbEntity
  8
RACCORDO
100
AcDbPolyline
 62
7
  6
CONTINUOUS
 90
6
 70
0
 10
11.4908869079
 20
20.2142884103
 10
11.4458236942
 20
20.2285238789
 10
11.4056725802
 20
20.2435894697
 10
11.372649745
 20
20.2581822405
 10
11.3468375511
 20
20.2715030975
 10
11.3280053374
 20
20.2827955795
  0
LINE
  5
4B8
100
AcDbEntity
  8
RACCORDO
100
AcDbLine
 62
253
  6
CONTINUOUS
 10
11.2822884736
 20
20.1944200606
 11
11.3566440631
 21
20.1706126745
  0
LWPOLYLINE
  5
4B9
100
AcDbEntity
  8
RACCORDO
100
AcDbPolyline
 62
253
  6
CONTINUOUS
 90
16
 70
0
 10
21.0248335626
 20
17.3796467694
 10
21.0705120293
 20
17.3645747135
 10
21.1156424425
 20
17.344884726
 10
21.1597305355
 20
17.3207924512
 10
21.2022934571
 20
17.2925617466
 10
21.2428650596
 20
17.2605017939
 10
21.2810010044
 20
17.2249637127
 10
21.3162836279
 20
17.1863367147
 10
21.3483265161
 20
17.1450438415
 10
21.3767787364
 20
17.1015373311
 10
21.401328681
 20
17.0562936653
 10
21.4217074799
 20
17.0098083511
 10
21.4376919452
 20
16.9625904941
 10
21.4491070155
 20
16.9151572225
 10
21.4558276734
 20
16.8680280239
 10
21.4577803146
 20
16.8217190555
  0
LWPOLYLINE
  5
4BA
100
AcDbEntity
  8
RACCORDO
100
AcDbPolyline
 62
253
  6
CONTINUOUS
 90
14
 70
0
 10
10.9820243522
 20
20.8311774734
 10
11.0277040774
 20
20.8161049348
 10
11.0728356405
 20
20.7964142466
 10
11.1169247397
 20
20.7723210915
 10
11.1594885564
 20
20.7440893238
 10
11.2000608513
 20
20.7120282019
 10
11.2381971024
 20
20.6764890555
 10
11.2734796455
 20
20.6378612146
 10
11.3055221476
 20
20.5965677605
 10
11.3339736885
 20
20.5530610675
 10
11.3585227194
 20
20.5078177384
 10
11.378900531
 20
20.4613332286
 10
11.3948840979
 20
20.41411649
 10
11.4062984492
 20
20.3666845707
  0
LWPOLYLINE
  5
4BB
100
AcDbEntity
  8
RACCORDO
100
AcDbPolyline
 62
253
  6
CONTINUOUS
 90
10
 70
0
 10
15.7126728965
 20
15.0504298372
 10
15.7430157031
 20
15.0393506717
 10
15.7723839056
 20
15.0233021914
 10
15.7998855111
 20
15.0027718336
 10
15.8246852208
 20
14.9783831621
 10
15.8460297996
 20
14.9508769287
 10
15.8632709542
 20
14.9210885746
 10
15.8758850247
 20
14.8899228544
 10
15.8834888887
 20
14.8583263561
 10
15.8858515973
 20
14.8272587517
  0
LINE
  5
4BC
100
AcDbEntity
  8
RACCORDO
100
AcDbLine
 62
7
  6
CONTINUOUS
 10
11.3280053374
 20
20.2827955795
 11
11.3185033799
 21
20.289286459
  0
LINE
  5
4BD
100
AcDbEntity
  8
DRAFT
100
AcDbLine
 62
7
  6
CONTINUOUS
 10
5.7577089132
 20
24.0518228844
 11
5.3860838026
 21
24.3800104653
  0
LWPOLYLINE
  5
4BE
100
AcDbEntity
  8
RACCORDO
100
AcDbPolyline
 62
253
  6
CONTINUOUS
 90
13
 70
0
 10
25.4974115025
 20
19.3499203959
 10
25.4942237105
 20
19.4079548189
 10
25.4836108462
 20
19.4670696453
 10
25.4657544282
 20
19.5262537956
 10
25.4409598668
 20
19.5844950049
 10
25.4096512393
 20
19.6407971356
 10
25.3723640373
 20
19.6941972155
 10
25.3297360081
 20
19.7437819081
 10
25.2824962467
 20
19.7887031343
 10
25.2314527255
 20
19.8281925769
 10
25.1774784751
 20
19.8615748225
 10
25.1214966522
 20
19.8882789126
 10
25.0644647505
 20
19.9078481098
  0
LWPOLYLINE
  5
4BF
100
AcDbEntity
  8
RACCORDO
100
AcDbPolyline
 62
7
  6
CONTINUOUS
 90
13
 70
0
 10
25.6227861499
 20
19.5875991194
 10
25.6207426826
 20
19.6388211036
 10
25.6101721036
 20
19.7129759768
 10
25.5915209091
 20
19.7832165947
 10
25.5638866117
 20
19.8532134805
 10
25.525959679
 20
19.9233875297
 10
25.478191421
 20
19.9907955033
 10
25.4209207301
 20
20.0541019191
 10
25.3535278082
 20
20.1131420528
 10
25.2765848051
 20
20.1666080107
 10
25.1925100141
 20
20.2128113906
 10
25.1021942414
 20
20.2516672038
 10
25.0112705667
 20
20.2818272333
  0
LWPOLYLINE
  5
4C0
100
AcDbEntity
  8
RACCORDO
100
AcDbPolyline
 62
7
  6
CONTINUOUS
 90
14
 70
0
 10
25.6227644352
 20
13.8183376481
 10
25.6227196369
 20
13.8243441012
 10
25.6179656247
 20
13.867426444
 10
25.6057109173
 20
13.9102702063
 10
25.5863352367
 20
13.9521135774
 10
25.5598044557
 20
13.9929483232
 10
25.5261527014
 20
14.0327826778
 10
25.4858620767
 20
14.0708795331
 10
25.4384590033
 20
14.1073690626
 10
25.3844170595
 20
14.1421210929
 10
25.325639083
 20
14.1740079959
 10
25.2627593531
 20
14.2026538955
 10
25.1951435906
 20
14.2284346679
 10
25.1227917954
 20
14.251350313
  0
LINE
  5
4C1
100
AcDbEntity
  8
RACCORDO
100
AcDbLine
 62
253
  6
CONTINUOUS
 10
25.4974115025
 20
19.3499203959
 11
25.4974115025
 21
18.7720852237
  0
LINE
  5
4C2
100
AcDbEntity
  8
RACCORDO
100
AcDbLine
 62
253
  6
CONTINUOUS
 10
25.4974115025
 20
13.575932801
 11
25.4974115025
 21
12.9980976288
  0
LINE
  5
4C3
100
AcDbEntity
  8
RACCORDO
100
AcDbLine
 62
7
  6
CONTINUOUS
 10
25.6227917954
 20
19.5886794622
 11
25.6227917954
 21
19.0144900338
  0
LINE
  5
4C4
100
AcDbEntity
  8
RACCORDO
100
AcDbLine
 62
7
  6
CONTINUOUS
 10
25.6227916334
 20
13.2438612382
 11
25.6227917954
 21
13.8183376111
  0
LWPOLYLINE
  5
4C5
100
AcDbEntity
  8
RACCORDO
100
AcDbPolyline
 62
253
  6
CONTINUOUS
 90
7
 70
0
 10
25.4974115025
 20
12.9980976288
 10
25.4942234705
 20
12.9431302443
 10
25.4836099457
 20
12.8911764661
 10
25.46575258
 20
12.8431248915
 10
25.4409569022
 20
12.7997973216
 10
25.4096471376
 20
12.7619348022
 10
25.401820411
 20
12.754296222
  0
LWPOLYLINE
  5
4C6
100
AcDbEntity
  8
RACCORDO
100
AcDbPolyline
 62
253
  6
CONTINUOUS
 90
7
 70
0
 10
25.622789858
 20
19.5877067338
 10
25.6200085307
 20
19.5518975493
 10
25.6098708795
 20
19.5096611055
 10
25.5923857598
 20
19.468035505
 10
25.5676831674
 20
19.4273312118
 10
25.5359464611
 20
19.3878599464
 10
25.4974115025
 20
19.3499203959
  0
LWPOLYLINE
  5
4C7
100
AcDbEntity
  8
RACCORDO
100
AcDbPolyline
 62
7
  6
CONTINUOUS
 90
7
 70
0
 10
25.6227644352
 20
19.0144900708
 10
25.6196818679
 20
18.97692697
 10
25.6091434039
 20
18.9331188356
 10
25.5915977817
 20
18.8905798235
 10
25.5672095135
 20
18.8498125013
 10
25.5358140871
 20
18.8103143014
 10
25.4974115025
 20
18.7720852237
  0
LWPOLYLINE
  5
4C8
100
AcDbEntity
  8
RACCORDO
100
AcDbPolyline
 62
7
  6
CONTINUOUS
 90
9
 70
0
 10
16.0325513646
 20
-25.9224248468
 10
16.0785667735
 20
-25.8388949376
 10
16.1208407299
 20
-25.7503216279
 10
16.1590747423
 20
-25.6577097329
 10
16.1930025012
 20
-25.5620198996
 10
16.2224449732
 20
-25.4638994708
 10
16.2470895356
 20
-25.3643577835
 10
16.266637914
 20
-25.2644388258
 10
16.2808554245
 20
-25.1648224917
  0
LINE
  5
4C9
100
AcDbEntity
  8
RACCORDO
100
AcDbLine
 62
7
  6
CONTINUOUS
 10
-12.8414754018
 20
22.266740652
 11
-13.7091535743
 21
22.0692345377
  0
LWPOLYLINE
  5
4CA
100
AcDbEntity
  8
RACCORDO
100
AcDbPolyline
 62
7
  6
CONTINUOUS
 90
5
 70
0
 10
-33.4261479764
 20
17.7111147959
 10
-33.4244289919
 20
17.7114683646
 10
-33.3779988152
 20
17.7308510344
 10
-33.3290403946
 20
17.7601474604
 10
-33.2775537302
 20
17.7993576427
  0
LWPOLYLINE
  5
4CB
100
AcDbEntity
  8
0
100
AcDbPolyline
 62
7
  6
CONTINUOUS
 90
7
 70
0
 10
-12.9047825271
 20
22.4648604896
 10
-12.9150741933
 20
22.4628781856
 10
-12.92547747
 20
22.4603027471
 10
-12.9359923572
 20
22.4571341739
 10
-12.9466188548
 20
22.4533724661
 10
-12.9573569629
 20
22.4490176237
 10
-12.9682066815
 20
22.4440696467
  0
LWPOLYLINE
  5
4CC
100
AcDbEntity
  8
RACCORDO
100
AcDbPolyline
 62
253
  6
CONTINUOUS
 90
8
 70
0
 10
-10.4773751538
 20
26.5071516443
 10
-10.3916052978
 20
26.5009401768
 10
-10.305959559
 20
26.4983046253
 10
-10.2204699549
 20
26.4992976878
 10
-10.135104468
 20
26.5038666663
 10
-10.0515540829
 20
26.5118974089
 10
-9.9698396021
 20
26.5234419319
 10
-9.8899402229
 20
26.5384482191
  0
LWPOLYLINE
  5
4CD
100
AcDbEntity
  8
RACCORDO
100
AcDbPolyline
 62
253
  6
CONTINUOUS
 90
3
 70
0
 10
-10.643330429
 20
26.5301558507
 10
-10.5614820906
 20
26.5168950848
 10
-10.4773751538
 20
26.5071516443
  0
LWPOLYLINE
  5
4CE
100
AcDbEntity
  8
RACCORDO
100
AcDbPolyline
 62
253
  6
CONTINUOUS
 90
6
 70
0
 10
25.0112756224
 20
20.2818446449
 10
25.0002971227
 20
20.2842890307
 10
24.9714729765
 20
20.2847174502
 10
24.9409980847
 20
20.2770593719
 10
24.9093823946
 20
20.2614432086
 10
24.877154897
 20
20.2381305109
  0
LWPOLYLINE
  5
4CF
100
AcDbEntity
  8
RACCORDO
100
AcDbPolyline
 62
253
  6
CONTINUOUS
 90
7
 70
0
 10
19.8942043268
 20
21.7590160625
 10
19.883125384
 20
21.7614895658
 10
19.8602138966
 20
21.7624814785
 10
19.8361818805
 20
21.7582892242
 10
19.8112867993
 20
21.7489577731
 10
19.7857954039
 20
21.7345871667
 10
19.7599808063
 20
21.7153314303
  0
LWPOLYLINE
  5
4D0
100
AcDbEntity
  8
RACCORDO
100
AcDbPolyline
 62
253
  6
CONTINUOUS
 90
9
 70
0
 10
-9.4448710511
 20
26.7279142533
 10
-9.4896868578
 20
26.7389655244
 10
-9.5340595389
 20
26.7451124858
 10
-9.5775031041
 20
26.7462878342
 10
-9.6195418033
 20
26.7424787092
 10
-9.6597151494
 20
26.7337268461
 10
-9.6975829913
 20
26.7201281916
 10
-9.7327306028
 20
26.7018317853
 10
-9.7622454587
 20
26.6810913968
  0
LINE
  5
4D1
100
AcDbEntity
  8
0
100
AcDbLine
 62
7
  6
CONTINUOUS
 10
-10.2676582958
 20
26.7629640976
 11
-10.3709260034
 21
26.7884589061
  0
LINE
  5
4D2
100
AcDbEntity
  8
DRAFT
100
AcDbLine
 62
7
  6
CONTINUOUS
 10
-1.2411618591
 20
25.995091413
 11
5.6870413712
 21
23.995091413
  0
LINE
  5
4D3
100
AcDbEntity
  8
DRAFT
100
AcDbLine
 62
7
  6
CONTINUOUS
 10
-0.7053254273
 20
25.84977371
 11
5.1512049394
 21
24.1591390182
  0
LINE
  5
4D4
100
AcDbEntity
  8
DRAFT
100
AcDbLine
 62
7
  6
CONTINUOUS
 10
-0.4402042906
 20
26.0619149648
 11
5.3860838026
 21
24.3800104653
  0
LINE
  5
4D5
100
AcDbEntity
  8
DRAFT
100
AcDbLine
 62
7
  6
CONTINUOUS
 10
6.1266126323
 20
24.3479765385
 11
-0.1259298773
 21
26.152930089
  0
LINE
  5
4D6
100
AcDbEntity
  8
RACCORDO
100
AcDbLine
 62
253
  6
CONTINUOUS
 10
19.7599808099
 20
21.7153314292
 11
24.877154897
 21
20.2381305109
  0
LINE
  5
4D7
100
AcDbEntity
  8
RACCORDO
100
AcDbLine
 62
7
  6
CONTINUOUS
 10
19.8942043268
 20
21.7590160625
 11
25.0114667988
 21
20.2817896767
  0
LWPOLYLINE
  5
4D8
100
AcDbEntity
  8
RACCORDO
100
AcDbPolyline
 62
253
  6
CONTINUOUS
 90
10
 70
0
 10
24.877154897
 20
20.2381305109
 10
24.9136670304
 20
20.2265262549
 10
24.9476611004
 20
20.2136267792
 10
24.9791371069
 20
20.1994320837
 10
25.0083230488
 20
20.1838103785
 10
25.0349909273
 20
20.1668934536
 10
25.0584567457
 20
20.1490766791
 10
25.0786227921
 20
20.1303456011
 10
25.0955867783
 20
20.1107146734
 10
25.108957843
 20
20.0906226277
  0
LWPOLYLINE
  5
4D9
100
AcDbEntity
  8
RACCORDO
100
AcDbPolyline
 62
7
  6
CONTINUOUS
 90
7
 70
0
 10
19.8942055012
 20
21.7590201199
 10
19.8595656708
 20
21.7704132027
 10
19.8170267957
 20
21.7881042001
 10
19.7731155637
 20
21.8105560375
 10
19.7288192339
 20
21.8375964248
 10
19.6849957253
 20
21.8689392595
 10
19.6423405895
 20
21.9042564098
  0
LWPOLYLINE
  5
4DA
100
AcDbEntity
  8
RACCORDO
100
AcDbPolyline
 62
7
  6
CONTINUOUS
 90
34
 70
0
 10
23.3186162711
 20
13.9061455215
 10
23.3203219962
 20
13.9049529052
 10
23.3215961444
 20
13.9036492235
 10
23.3224387157
 20
13.9022344764
 10
23.3227605341
 20
13.9006855146
 10
23.3226507756
 20
13.8990254873
 10
23.3223769683
 20
13.8973238433
 10
23.322007059
 20
13.8956022486
 10
23.3214731008
 20
13.893839037
 10
23.3208387819
 20
13.8920386586
 10
23.3201168736
 20
13.8902015445
 10
23.3192946046
 20
13.8883272635
 10
23.318397348
 20
13.8864189721
 10
23.3174282293
 20
13.8844756421
 10
23.316384123
 20
13.8824983016
 10
23.3152810262
 20
13.8804931912
 10
23.3141220378
 20
13.8784629314
 10
23.312904059
 20
13.8764049016
 10
23.3116337903
 20
13.8743174819
 10
23.3103140509
 20
13.8722032392
 10
23.3089420216
 20
13.8700596066
 10
23.3075159451
 20
13.8678772629
 10
23.3060367342
 20
13.8656562603
 10
23.3045034762
 20
13.8633965466
 10
23.3029116755
 20
13.8610886453
 10
23.3012618218
 20
13.858732479
 10
23.2995534253
 20
13.8563281249
 10
23.2977805213
 20
13.8538663378
 10
23.295943428
 20
13.8513470627
 10
23.2940418271
 20
13.8487703546
 10
23.2920687995
 20
13.8461271328
 10
23.2900245462
 20
13.8434173329
 10
23.2879088662
 20
13.8406410193
 10
23.2857142369
 20
13.8377893054
  0
LWPOLYLINE
  5
4DB
100
AcDbEntity
  8
RACCORDO
100
AcDbPolyline
 62
7
  6
CONTINUOUS
 90
3
 70
0
 10
15.9289385735
 20
-26.0723859393
 10
15.9827218185
 20
-26.000477765
 10
16.0325513646
 20
-25.9224248468
  0
LWPOLYLINE
  5
4DC
100
AcDbEntity
  8
RACCORDO
100
AcDbPolyline
 62
253
  6
CONTINUOUS
 90
4
 70
0
 10
16.2669884669
 20
-25.0260025763
 10
16.2810416131
 20
-25.0102617285
 10
16.2894793616
 20
-24.993548018
 10
16.2920645254
 20
-24.9775216143
  0
LWPOLYLINE
  5
4DD
100
AcDbEntity
  8
RACCORDO
100
AcDbPolyline
 62
253
  6
CONTINUOUS
 90
6
 70
0
 10
21.4577803146
 20
-18.0049467453
 10
21.480558644
 20
-17.9816203637
 10
21.4983771659
 20
-17.9572378459
 10
21.5110432082
 20
-17.9320619863
 10
21.518420253
 20
-17.906360732
 10
21.520470461
 20
-17.8837443402
  0
LWPOLYLINE
  5
4DE
100
AcDbEntity
  8
RACCORDO
100
AcDbPolyline
 62
7
  6
CONTINUOUS
 90
8
 70
0
 10
21.3616959192
 20
-18.2492100351
 10
21.3897156363
 20
-18.2208762961
 10
21.4227669033
 20
-18.1806577493
 10
21.4515674886
 20
-18.1370334098
 10
21.4757522575
 20
-18.0904288369
 10
21.4949736624
 20
-18.0413727183
 10
21.5089741962
 20
-17.9903468763
 10
21.5175284895
 20
-17.9379044364
  0
LWPOLYLINE
  5
4DF
100
AcDbEntity
  8
RACCORDO
100
AcDbPolyline
 62
7
  6
CONTINUOUS
 90
3
 70
0
 10
15.846803968
 20
-26.1607861773
 10
15.8713055666
 20
-26.136939093
 10
15.9289385735
 20
-26.0723859393
  0
LWPOLYLINE
  5
4E0
100
AcDbEntity
  8
RACCORDO
100
AcDbPolyline
 62
253
  6
CONTINUOUS
 90
27
 70
0
 10
15.8858515973
 20
-26.0625119364
 10
15.9021079556
 20
-26.0470313339
 10
15.9189796549
 20
-26.0293067054
 10
15.936466695
 20
-26.0093380511
 10
15.9546951616
 20
-25.9871381555
 10
15.9735389691
 20
-25.9626942341
 10
15.9926198608
 20
-25.935967933
 10
16.0119582491
 20
-25.9068535193
 10
16.0315337215
 20
-25.8754567259
 10
16.050906784
 20
-25.842056398
 10
16.0700680224
 20
-25.8065676816
 10
16.0890268509
 20
-25.7690754306
 10
16.1073720179
 20
-25.7301130523
 10
16.1250785661
 20
-25.6896145486
 10
16.1421714528
 20
-25.6476459176
 10
16.1583142979
 20
-25.6049385604
 10
16.1734685182
 20
-25.561449283
 10
16.187672697
 20
-25.5172212795
 10
16.2007062039
 20
-25.4731155325
 10
16.2125151039
 20
-25.4291371788
 10
16.223153332
 20
-25.3852810816
 10
16.2325620632
 20
-25.3423928131
 10
16.2406869831
 20
-25.3004864603
 10
16.247582406
 20
-25.2595479362
 10
16.2533524504
 20
-25.2203805523
 10
16.2579414346
 20
-25.1831844581
 10
16.2614050404
 20
-25.1477595041
  0
LINE
  5
4E1
100
AcDbEntity
  8
RACCORDO
100
AcDbLine
 62
253
  6
CONTINUOUS
 10
16.2669884669
 20
-22.848990949
 11
21.4577803146
 21
-18.0049467453
  0
LINE
  5
4E2
100
AcDbEntity
  8
RACCORDO
100
AcDbLine
 62
7
  6
CONTINUOUS
 10
16.2920645254
 20
-22.9801874064
 11
21.361603433
 21
-18.2492963822
  0
LINE
  5
4E3
100
AcDbEntity
  8
RACCORDO
100
AcDbLine
 62
253
  6
CONTINUOUS
 10
10.5436710401
 20
-31.0478320037
 11
15.8858515973
 21
-26.0625119364
  0
LINE
  5
4E4
100
AcDbEntity
  8
RACCORDO
100
AcDbLine
 62
7
  6
CONTINUOUS
 10
10.5045114416
 20
-31.1462146891
 11
15.8473808447
 21
-26.1602517911
  0
LINE
  5
4E5
100
AcDbEntity
  8
RACCORDO
100
AcDbLine
 62
253
  6
CONTINUOUS
 10
9.7936710401
 20
-30.0518764093
 11
10.5436710401
 21
-29.4023573565
  0
LINE
  5
4E6
100
AcDbEntity
  8
RACCORDO
100
AcDbLine
 62
7
  6
CONTINUOUS
 10
9.7936710401
 20
-30.2133142371
 11
10.4379851735
 21
-29.6553218295
  0
LWPOLYLINE
  5
4E7
100
AcDbEntity
  8
RACCORDO
100
AcDbPolyline
 62
253
  6
CONTINUOUS
 90
6
 70
0
 10
6.9252524928
 20
-32.6288863157
 10
6.9323352729
 20
-32.6228363663
 10
6.9584210531
 20
-32.5931496761
 10
6.9777833282
 20
-32.5574525388
 10
6.9898340791
 20
-32.5168291734
 10
6.9942073305
 20
-32.4725134397
  0
LINE
  5
4E8
100
AcDbEntity
  8
RACCORDO
100
AcDbLine
 62
253
  6
CONTINUOUS
 10
9.7936710401
 20
-30.22512106
 11
6.9942073305
 21
-32.4725134397
  0
LINE
  5
4E9
100
AcDbEntity
  8
RACCORDO
100
AcDbLine
 62
7
  6
CONTINUOUS
 10
9.725440551
 20
-30.3809133768
 11
6.9248639128
 21
-32.6291992087
  0
LWPOLYLINE
  5
4EA
100
AcDbEntity
  8
RACCORDO
100
AcDbPolyline
 62
253
  6
CONTINUOUS
 90
4
 70
0
 10
6.9942073305
 20
-32.4725134397
 10
6.946132183
 20
-32.5071978792
 10
6.8999348992
 20
-32.5341580696
 10
6.8556154791
 20
-32.5533940109
  0
LINE
  5
4EB
100
AcDbEntity
  8
RACCORDO
100
AcDbLine
 62
7
  6
CONTINUOUS
 10
-19.7543519652
 20
24.2623162244
 11
-20.5956020083
 21
24.0571809663
  0
LWPOLYLINE
  5
4EC
100
AcDbEntity
  8
RACCORDO
100
AcDbPolyline
 62
253
  6
CONTINUOUS
 90
8
 70
0
 10
-9.8899402229
 20
26.5384482191
 10
-9.8134845216
 20
26.5566460698
 10
-9.7404766034
 20
26.5781084303
 10
-9.670912363
 20
26.6027623544
 10
-9.6064080611
 20
26.630118803
 10
-9.5475024512
 20
26.660014763
 10
-9.4936567799
 20
26.6926132475
 10
-9.4448710471
 20
26.7279142565
  0
LINE
  5
4ED
100
AcDbEntity
  8
RACCORDO
100
AcDbLine
 62
7
  6
CONTINUOUS
 10
-21.1718104264
 20
24.9312641787
 11
-22.5217352947
 21
24.613207752
  0
LWPOLYLINE
  5
4EE
100
AcDbEntity
  8
0
100
AcDbPolyline
 62
7
  6
CONTINUOUS
 90
7
 70
0
 10
-19.3999730555
 20
24.3398604896
 10
-19.4102647217
 20
24.3378781856
 10
-19.4206679984
 20
24.3353027471
 10
-19.4311828855
 20
24.3321341739
 10
-19.4418093832
 20
24.3283724661
 10
-19.4525474913
 20
24.3240176237
 10
-19.4633972099
 20
24.3190696467
  0
LWPOLYLINE
  5
4EF
100
AcDbEntity
  8
RACCORDO
100
AcDbPolyline
 62
7
  6
CONTINUOUS
 90
5
 70
0
 10
-26.493630408
 20
27.3785045421
 10
-26.5453146387
 20
27.3725633026
 10
-26.5971259881
 20
27.3597056803
 10
-26.6488524477
 20
27.3399501687
 10
-26.7002606043
 20
27.3133136497
  0
LWPOLYLINE
  5
4F0
100
AcDbEntity
  8
RACCORDO
100
AcDbPolyline
 62
7
  6
CONTINUOUS
 90
5
 70
0
 10
-22.7197334475
 20
25.8081621912
 10
-22.7727435308
 20
25.8028938993
 10
-22.8259738715
 20
25.7903205527
 10
-22.8791761978
 20
25.7704457368
 10
-22.9320394968
 20
25.7433005885
  0
LWPOLYLINE
  5
4F1
100
AcDbEntity
  8
0
100
AcDbPolyline
 62
7
  6
CONTINUOUS
 90
3
 70
0
 10
-10.2504108017
 20
26.7982373411
 10
-10.283821719
 20
26.7965051626
 10
-10.3709260034
 20
26.7884589061
  0
LWPOLYLINE
  5
4F2
100
AcDbEntity
  8
RACCORDO
100
AcDbPolyline
 62
7
  6
CONTINUOUS
 90
6
 70
0
 10
19.6423405895
 20
21.9042564098
 10
19.6014520229
 20
21.9431933248
 10
19.5629987343
 20
21.9852106416
 10
19.5275472651
 20
22.0297135256
 10
19.4954725097
 20
22.0762190098
 10
19.4672184087
 20
22.1240318131
  0
LWPOLYLINE
  5
4F3
100
AcDbEntity
  8
RACCORDO
100
AcDbPolyline
 62
7
  6
CONTINUOUS
 90
7
 70
0
 10
19.4672184087
 20
22.1240318131
 10
19.4431621582
 20
22.172343564
 10
19.4235291845
 20
22.2203733992
 10
19.408432078
 20
22.2673443275
 10
19.397909471
 20
22.3122714474
 10
19.3918211888
 20
22.353948455
 10
19.3897272153
 20
22.3943528266
  0
LWPOLYLINE
  5
4F4
100
AcDbEntity
  8
RACCORDO
100
AcDbPolyline
 62
7
  6
CONTINUOUS
 90
6
 70
0
 10
-1.1919555627
 20
33.5165438997
 10
-1.1404767807
 20
33.5295576719
 10
-1.0876909236
 20
33.5370580877
 10
-1.0341090337
 20
33.5388895092
 10
-0.9803493057
 20
33.5349362498
 10
-0.9270996823
 20
33.5251637998
  0
LWPOLYLINE
  5
4F5
100
AcDbEntity
  8
RACCORDO
100
AcDbPolyline
 62
253
  6
CONTINUOUS
 90
7
 70
0
 10
19.0283992535
 20
27.7650430784
 10
19.0172348518
 20
27.7675415835
 10
18.9943230923
 20
27.7685341576
 10
18.9702906282
 20
27.7643423406
 10
18.9453949507
 20
27.7550110449
 10
18.9199027997
 20
27.740640249
 10
18.894087306
 20
27.7213839258
  0
LWPOLYLINE
  5
4F6
100
AcDbEntity
  8
RACCORDO
100
AcDbPolyline
 62
253
  6
CONTINUOUS
 90
7
 70
0
 10
-0.9051696433
 20
33.5193687627
 10
-0.9159721236
 20
33.5218082743
 10
-0.9389436141
 20
33.5228800136
 10
-0.9630458145
 20
33.5187320514
 10
-0.988015259
 20
33.5094112803
 10
-1.0135857693
 20
33.4950185572
 10
-1.0394815907
 20
33.47570961
  0
LWPOLYLINE
  5
4F7
100
AcDbEntity
  8
RACCORDO
100
AcDbPolyline
 62
253
  6
CONTINUOUS
 90
9
 70
0
 10
-1.0394815907
 20
33.47570961
 10
-1.0844368819
 20
33.4867877553
 10
-1.1289462419
 20
33.4929307742
 10
-1.1725190334
 20
33.494070476
 10
-1.2146804574
 20
33.4901929464
 10
-1.2549594969
 20
33.4813399585
 10
-1.2928969028
 20
33.4676152054
 10
-1.3280682948
 20
33.4491809543
 10
-1.3568560001
 20
33.4288867521
  0
LINE
  5
4F8
100
AcDbEntity
  8
RACCORDO
100
AcDbLine
 62
7
  6
CONTINUOUS
 10
-0.9270996823
 20
33.5251637998
 11
-0.9050328917
 21
33.5193291734
  0
LINE
  5
4F9
100
AcDbEntity
  8
DRAFT
100
AcDbLine
 62
7
  6
CONTINUOUS
 10
5.4987183787
 20
31.0511453753
 11
12.1019643762
 21
29.1449524482
  0
LINE
  5
4FA
100
AcDbEntity
  8
RACCORDO
100
AcDbLine
 62
253
  6
CONTINUOUS
 10
-1.0394815907
 20
33.47570961
 11
5.2605078353
 21
31.6570593145
  0
LINE
  5
4FB
100
AcDbEntity
  8
RACCORDO
100
AcDbLine
 62
253
  6
CONTINUOUS
 10
12.59409788
 20
29.5400342213
 11
18.894087306
 21
27.7213839258
  0
LINE
  5
4FC
100
AcDbEntity
  8
RACCORDO
100
AcDbLine
 62
7
  6
CONTINUOUS
 10
-0.9051696433
 20
33.5193687627
 11
5.3907591216
 21
31.701890679
  0
LINE
  5
4FD
100
AcDbEntity
  8
RACCORDO
100
AcDbLine
 62
7
  6
CONTINUOUS
 10
12.7324704886
 20
29.582521162
 11
19.0283992535
 21
27.7650430784
  0
LWPOLYLINE
  5
4FE
100
AcDbEntity
  8
RACCORDO
100
AcDbPolyline
 62
253
  6
CONTINUOUS
 90
16
 70
0
 10
18.894087306
 20
27.7213839258
 10
18.9390707696
 20
27.7065773562
 10
18.9837263683
 20
27.687194264
 10
19.0275654047
 20
27.6633836719
 10
19.0701589296
 20
27.6353027737
 10
19.1109521804
 20
27.6032384687
 10
19.1493029401
 20
27.567660357
 10
19.1847338498
 20
27.529025859
 10
19.2169193546
 20
27.4877057046
 10
19.2455169606
 20
27.4441361491
 10
19.2702139417
 20
27.398781831
 10
19.290725305
 20
27.3521524278
 10
19.3068144367
 20
27.3047803274
 10
19.3183031362
 20
27.2571943474
 10
19.3250677077
 20
27.2099126185
 10
19.327034058
 20
27.163456212
  0
LWPOLYLINE
  5
4FF
100
AcDbEntity
  8
RACCORDO
100
AcDbPolyline
 62
7
  6
CONTINUOUS
 90
13
 70
0
 10
19.0283992535
 20
27.7650430784
 10
19.0793736319
 20
27.7472954195
 10
19.1283611134
 20
27.7240357232
 10
19.1746620288
 20
27.6955240892
 10
19.2174752995
 20
27.6622552401
 10
19.256392101
 20
27.624591902
 10
19.2912603534
 20
27.5825994182
 10
19.3216017458
 20
27.5366145175
 10
19.346782317
 20
27.4873847113
 10
19.3664146243
 20
27.4355434857
 10
19.3802162136
 20
27.3817027782
 10
19.3879581311
 20
27.3266461185
 10
19.3897241971
 20
27.2847014563
  0
LWPOLYLINE
  5
500
100
AcDbEntity
  8
RACCORDO
100
AcDbPolyline
 62
253
  6
CONTINUOUS
 90
10
 70
0
 10
25.108957843
 20
20.0906226277
 10
25.1186497816
 20
20.0700561359
 10
25.1247487986
 20
20.049028526
 10
25.1271226465
 20
20.0280185129
 10
25.1256682772
 20
20.0070166789
 10
25.1204887388
 20
19.9860324418
 10
25.1117609273
 20
19.9655727694
 10
25.0995438081
 20
19.9458066514
 10
25.0837784159
 20
19.9265650981
 10
25.0644647505
 20
19.9078481098
  0
ARC
  5
501
100
AcDbEntity
  8
0
100
AcDbCircle
 62
7
  6
CONTINUOUS
 10
-16.2593523848
 20
-8.7842569591
 40
2.7005043861
100
AcDbArc
 50
333.8278273791
 51
107.8083924737
  0
ELLIPSE
  5
502
100
AcDbEntity
  8
RACCORDO
100
AcDbEllipse
 62
7
  6
CONTINUOUS
 10
-32.9879443309
 20
20.4031903566
 30
0.0
 11
-0.1964387199
 21
0.2268620518
 31
0.0
 40
0.7497739347
 41
-0.8568420343
 42
0.0279009047
  0
ELLIPSE
  5
503
100
AcDbEntity
  8
RACCORDO
100
AcDbEllipse
 62
7
  6
CONTINUOUS
 10
9.533823843
 20
-30.1500304895
 30
0.0
 11
-0.1964387199
 21
0.2268620518
 31
0.0
 40
0.7497739347
 41
-3.1694962043
 42
-2.4279429475
  0
ELLIPSE
  5
504
100
AcDbEntity
  8
RACCORDO
100
AcDbEllipse
 62
7
  6
CONTINUOUS
 10
9.533823843
 20
8.1282132058
 30
0.0
 11
-0.196413342
 21
0.2267643723
 31
0.0
 40
0.7502261284
 41
-2.4277937625
 42
-0.8573020222
  0
ELLIPSE
  5
505
100
AcDbEntity
  8
RACCORDO
100
AcDbEllipse
 62
7
  6
CONTINUOUS
 10
9.6706864714
 20
15.7656988259
 30
0.0
 11
0.9993268114
 21
-0.1658263684
 31
0.0
 40
0.2212364469
 41
1.0838926223
 42
2.645760615
  0
ELLIPSE
  5
506
100
AcDbEntity
  8
RACCORDO
100
AcDbEllipse
 62
7
  6
CONTINUOUS
 10
-11.9799486232
 20
22.0156988259
 30
0.0
 11
0.9993268114
 21
-0.1658263684
 31
0.0
 40
0.2212364469
 41
1.0838926223
 42
2.645760615
  0
ELLIPSE
  5
507
100
AcDbEntity
  8
RACCORDO
100
AcDbEllipse
 62
7
  6
CONTINUOUS
 10
12.5896028685
 20
29.1033469916
 30
0.0
 11
0.1439074542
 21
0.4788678499
 31
0.0
 40
0.4460615836
 41
0.0048597325
 42
0.5754094072
  0
ELLIPSE
  5
508
100
AcDbEntity
  8
RACCORDO
100
AcDbEllipse
 62
7
  6
CONTINUOUS
 10
10.3704395753
 20
-30.9977716233
 30
0.0
 11
-0.1309591466
 21
0.1512413679
 31
0.0
 40
0.7497739347
 41
2.2847506193
 42
3.8552423596
  0
ELLIPSE
  5
509
100
AcDbEntity
  8
RACCORDO
100
AcDbEllipse
 62
7
  6
CONTINUOUS
 10
-6.9067144622
 20
14.5629769272
 30
0.0
 11
0.130981201
 21
-0.1511651092
 31
0.0
 40
0.7499836501
 41
2.284251522
 42
3.8550478488
  0
ELLIPSE
  5
50A
100
AcDbEntity
  8
RACCORDO
100
AcDbEllipse
 62
7
  6
CONTINUOUS
 10
1.0258281353
 20
18.2612544696
 30
0.0
 11
0.9993268114
 21
-0.1658263684
 31
0.0
 40
0.2212364469
 41
-0.4779753703
 42
1.0838926223
  0
ELLIPSE
  5
50B
100
AcDbEntity
  8
RACCORDO
100
AcDbEllipse
 62
7
  6
CONTINUOUS
 10
12.324854019
 20
13.8703073562
 30
0.0
 11
0.1999976736
 21
-0.0019813354
 31
0.0
 40
0.4868722452
 41
-0.5013221784
 42
0.0048204519
  0
ELLIPSE
  5
50C
100
AcDbEntity
  8
RACCORDO
100
AcDbEllipse
 62
7
  6
CONTINUOUS
 10
6.6032290689
 20
10.66299216
 30
0.0
 11
0.130981201
 21
-0.1511651092
 31
0.0
 40
0.7499836501
 41
0.7134551952
 42
2.284251522
  0
ELLIPSE
  5
50D
100
AcDbEntity
  8
RACCORDO
100
AcDbEllipse
 62
7
  6
CONTINUOUS
 10
-31.0255747256
 20
22.1749848289
 30
0.0
 11
-0.130942228
 21
0.1511762482
 31
0.0
 40
0.7502261284
 41
-2.4277937625
 42
-0.8573020222
  0
ELLIPSE
  5
50E
100
AcDbEntity
  8
RACCORDO
100
AcDbEllipse
 62
7
  6
CONTINUOUS
 10
9.0714542376
 20
10.5999695961
 30
0.0
 11
-0.1309591466
 21
0.1512413679
 31
0.0
 40
0.7497739347
 41
-0.8568420343
 42
0.713649706
  0
ELLIPSE
  5
50F
100
AcDbEntity
  8
RACCORDO
100
AcDbEllipse
 62
7
  6
CONTINUOUS
 10
-9.3257810756
 20
20.1203073562
 30
0.0
 11
0.1999976736
 21
-0.0019813354
 31
0.0
 40
0.4868722452
 41
-0.5013221784
 42
0.0048215502
  0
ELLIPSE
  5
510
100
AcDbEntity
  8
RACCORDO
100
AcDbEllipse
 62
7
  6
CONTINUOUS
 10
10.3704395753
 20
10.2249848289
 30
0.0
 11
-0.130942228
 21
0.1511762482
 31
0.0
 40
0.7502261284
 41
-2.4277937625
 42
-0.8573020222
  0
ELLIPSE
  5
511
100
AcDbEntity
  8
RACCORDO
100
AcDbEllipse
 62
7
  6
CONTINUOUS
 10
-28.5573495568
 20
20.8129769272
 30
0.0
 11
0.130981201
 21
-0.1511651092
 31
0.0
 40
0.7499836501
 41
2.284251522
 42
3.8550478488
  0
ELLIPSE
  5
512
100
AcDbEntity
  8
RACCORDO
100
AcDbEllipse
 62
7
  6
CONTINUOUS
 10
-20.6248069593
 20
24.5112544696
 30
0.0
 11
0.9993268114
 21
-0.1658263684
 31
0.0
 40
0.2212364469
 41
-0.4779753703
 42
1.0838926223
  0
ELLIPSE
  5
513
100
AcDbEntity
  8
DRAFT
100
AcDbEllipse
 62
7
  6
CONTINUOUS
 10
24.0342987081
 20
14.8542463361
 30
0.0
 11
0.8015021584
 21
2.8910943539
 31
0.0
 40
0.4198825747
 41
0.5835536618
 42
3.7251463154
  0
ELLIPSE
  5
514
100
AcDbEntity
  8
RACCORDO
100
AcDbEllipse
 62
7
  6
CONTINUOUS
 10
5.2562766436
 20
31.2202959266
 30
0.0
 11
0.1335836931
 21
0.481849059
 31
0.0
 40
0.4198825747
 41
5.2959426422
 42
6.8492856765
  0
ELLIPSE
  5
515
100
AcDbEntity
  8
RACCORDO
100
AcDbEllipse
 62
7
  6
CONTINUOUS
 10
-15.0474060257
 20
16.91299216
 30
0.0
 11
0.130981201
 21
-0.1511651092
 31
0.0
 40
0.7499836501
 41
0.7134551952
 42
2.284251522
  0
ELLIPSE
  5
516
100
AcDbEntity
  8
RACCORDO
100
AcDbEllipse
 62
7
  6
CONTINUOUS
 10
-25.3039497755
 20
24.7328073562
 30
0.0
 11
0.1999976736
 21
-0.0019813354
 31
0.0
 40
0.4868722452
 41
-0.5013221784
 42
0.0048204519
  0
ELLIPSE
  5
517
100
AcDbEntity
  8
RACCORDO
100
AcDbEllipse
 62
7
  6
CONTINUOUS
 10
-32.3245600633
 20
22.5499695961
 30
0.0
 11
-0.1309591466
 21
0.1512413679
 31
0.0
 40
0.7497739347
 41
-0.8568420343
 42
0.713649706
  0
ENDSEC
  0
SECTION
  2
OBJECTS
  0
DICTIONARY
  5
C
100
AcDbDictionary
280
0
281
1
  3
ACAD_GROUP
350
D
  3
ACAD_MLINESTYLE
350
17
  3
ACAD_LAYOUT
350
1A
  3
ACAD_PLOTSETTINGS
350
19
  3
ACAD_PLOTSTYLENAME
350
E
  0
DICTIONARY
  5
D
102
{ACAD_REACTORS
330
C
102
}
100
AcDbDictionary
280
0
281
1
  0
ACDBDICTIONARYWDFLT
  5
E
102
{ACAD_REACTORS
330
C
102
}
100
AcDbDictionary
281
1
  3
Normal
350
F
100
AcDbDictionaryWithDefault
340
F
  0
DICTIONARY
  5
17
102
{ACAD_REACTORS
330
C
102
}
100
AcDbDictionary
280
0
281
1
  3
Standard
350
18
  0
DICTIONARY
  5
19
102
{ACAD_REACTORS
330
C
102
}
100
AcDbDictionary
281
1
  0
DICTIONARY
  5
1A
102
{ACAD_REACTORS
330
C
102
}
100
AcDbDictionary
281
1
  3
Model
350
518
  3
Layout1
350
519
  0
ACDBPLACEHOLDER
  5
F
102
{ACAD_REACTORS
330
E
102
}
  0
MLINESTYLE
  5
18
102
{ACAD_REACTORS
330
17
102
}
100
AcDbMlineStyle
  2
STANDARD
 70
0
  3

 62
256
 51
90.0
 52
90.0
 71
2
 49
0.5
 62
256
  6
BYLAYER
 49
-0.5
 62
256
  6
BYLAYER
  0
LAYOUT
  5
518
102
{ACAD_REACTORS
330
1A
102
}
100
AcDbPlotSettings
  1

  2
none_device
  4

  6

 40
0.0
 41
0.0
 42
0.0
 43
0.0
 44
210.0
 45
297.0
 46
0.0
 47
0.0
 48
0.0
 49
0.0
140
0.0
141
0.0
142
1.0
143
1.0
 70
1024
 72
1
 73
0
 74
0
  7

 75
0
147
1.0
148
0.0
149
0.0
100
AcDbLayout
  1
Model
 70
0
 71
0
 10
0.0
 20
0.0
 11
210.0
 21
297.0
 12
0.0
 22
0.0
 32
0.0
 14
0.0
 24
0.0
 34
0.0
 15
0.0
 25
0.0
 35
0.0
146
0.0
 13
0.0
 23
0.0
 33
0.0
 16
1.0
 26
0.0
 36
0.0
 17
0.0
 27
1.0
 37
0.0
 76
0
330
21B
345
0
346
0
  0
LAYOUT
  5
519
102
{ACAD_REACTORS
330
1A
102
}
100
AcDbPlotSettings
  1

  2
none_device
  4

  6

 40
0.0
 41
0.0
 42
0.0
 43
0.0
 44
210.0
 45
297.0
 46
0.0
 47
0.0
 48
0.0
 49
0.0
140
0.0
141
0.0
142
1.0
143
1.0
 70
0
 72
1
 73
0
 74
0
  7

 75
0
147
1.0
148
0.0
149
0.0
100
AcDbLayout
  1
Layout1
 70
0
 71
1
 10
0.0
 20
0.0
 11
210.0
 21
297.0
 12
0.0
 22
0.0
 32
0.0
 14
0.0
 24
0.0
 34
0.0
 15
0.0
 25
0.0
 35
0.0
146
0.0
 13
0.0
 23
0.0
 33
0.0
 16
1.0
 26
0.0
 36
0.0
 17
0.0
 27
1.0
 37
0.0
 76
0
330
21C
345
0
346
0
  0
ENDSEC
  0
EOF
