  0
SECTION
  2
HEADER
  9
$ACADVER
  1
AC1024
  9
$DWGCODEPAGE
  3
ANSI_1252
  9
$EXTMAX
 10
297.0
 20
210.0
 30
0.0
  9
$EXTMIN
 10
0.0
 20
0.0
 30
0.0
  9
$LIMMIN
 10
0.0
 20
0.0
  9
$LIMMAX
 10
297.0
 20
210.0
  9
$VIEWCTR
 10
148.5
 20
105.0
  9
$VIEWSIZE
 40
210.0
  9
$CLAYER
  8
0
  9
$LTSCALE
 40
16.335
  9
$CELTYPE
  6
BYLAYER
  9
$DIMSCALE
 40
1.0
  9
$DIMASZ
 40
3.0
  9
$DIMEXO
 40
0.5
  9
$DIMDLI
 40
11.286
  9
$DIMEXE
 40
1.5
  9
$DIMCEN
 40
2.673
  9
$DIMLFAC
 40
1.0
  9
$DIMBLK
  1
_FILLED
  9
$DIMALT
 70
0
  9
$DIMALTF
 40
0.0393700787
  9
$DIMTXT
 40
3.0
  9
$DIMTOL
 70
1
  9
$DIMLIM
 70
0
  9
$DIMTFAC
 40
1.0
  9
$DIMTP
 40
0.01
  9
$DIMTM
 40
0.01
  9
$DIMGAP
 40
0.625
  9
$DIMDSEP
 70
44
  9
$AUNITS
 70
0
  9
$PDMODE
 70
3
  9
$PDSIZE
 40
3.0
  9
$HANDSEED
  5
321
  9
$TILEMODE
 70
1
  9
$MEASUREMENT
 70
1
  9
$INSUNITS
 70
4
  0
ENDSEC
  0
SECTION
  2
CLASSES
  0
CLASS
  1
ACDBDICTIONARYWDFLT
  2
AcDbDictionaryWithDefault
  3
AutoCAD 2000
 90
0
 91
1
280
0
281
0
  0
CLASS
  1
ACDBPLACEHOLDER
  2
AcDbPlaceHolder
  3
AutoCAD 2000
 90
0
 91
1
280
0
281
0
  0
CLASS
  1
LAYOUT
  2
AcDbLayout
  3
AutoCAD 2000
 90
0
 91
0
280
0
281
0
  0
ENDSEC
  0
SECTION
  2
TABLES
  0
TABLE
  2
VPORT
  5
8
100
AcDbSymbolTable
 70
2
  0
VPORT
  5
1F4
100
AcDbSymbolTableRecord
100
AcDbViewportTableRecord
  2
*ACTIVE
 70
0
 10
0.0
 20
0.0
 11
1.0
 21
1.0
 12
148.5
 22
105.0
 13
0.0
 23
0.0
 14
1.0
 24
1.0
 15
0.0
 25
0.0
 16
0.0
 26
0.0
 36
1.0
 17
0.0
 27
0.0
 37
0.0
 40
210.0
 41
1.4142857143
 42
50.0
 43
0.0
 44
0.0
 50
0.0
 51
0.0
 71
0
 72
100
 73
1
 74
1
 75
0
 76
0
 77
0
 78
0
  0
ENDTAB
  0
TABLE
  2
LTYPE
  5
5
100
AcDbSymbolTable
 70
6
  0
LTYPE
  5
14
100
AcDbSymbolTableRecord
100
AcDbLinetypeTableRecord
  2
BYBLOCK
 70
0
  3

 72
65
 73
0
 40
0.0
  0
LTYPE
  5
15
100
AcDbSymbolTableRecord
100
AcDbLinetypeTableRecord
  2
BYLAYER
 70
0
  3

 72
65
 73
0
 40
0.0
  0
LTYPE
  5
16
100
AcDbSymbolTableRecord
100
AcDbLinetypeTableRecord
  2
CONTINUOUS
 70
64
  3
Solid line
 72
65
 73
0
 40
0.0
  0
LTYPE
  5
1F5
100
AcDbSymbolTableRecord
100
AcDbLinetypeTableRecord
  2
CENTER
 70
64
  3
____ _ ____ _ ____ _ ____ _ ____ _ ____ _ ____
 72
65
 73
4
 40
0.6
 49
0.375
 74
0
 49
-0.075
 74
0
 49
0.075
 74
0
 49
-0.075
 74
0
  0
LTYPE
  5
1F6
100
AcDbSymbolTableRecord
100
AcDbLinetypeTableRecord
  2
HIDDEN
 70
64
  3
- - - - - - - - - - - - - - - - - - - -
 72
65
 73
2
 40
0.2
 49
0.1
 74
0
 49
-0.1
 74
0
  0
LTYPE
  5
1F7
100
AcDbSymbolTableRecord
100
AcDbLinetypeTableRecord
  2
PHANTOM
 70
64
  3
_____ _ _ _____ _ _ _____ _ _ _____
 72
65
 73
6
 40
0.8
 49
0.45
 74
0
 49
-0.05
 74
0
 49
0.1
 74
0
 49
-0.05
 74
0
 49
0.1
 74
0
 49
-0.05
 74
0
  0
LTYPE
  5
1F8
100
AcDbSymbolTableRecord
100
AcDbLinetypeTableRecord
  2
DOT
 70
64
  3
. . . . . . . . . . . . . . . . . . . .
 72
65
 73
2
 40
0.2
 49
0.1
 74
0
 49
-0.1
 74
0
  0
LTYPE
  5
1F9
100
AcDbSymbolTableRecord
100
AcDbLinetypeTableRecord
  2
DASHED
 70
64
  3
- - - - - - - - - - - - - - - - - - - -
 72
65
 73
2
 40
0.2
 49
0.1
 74
0
 49
-0.1
 74
0
  0
ENDTAB
  0
TABLE
  2
LAYER
  5
2
100
AcDbSymbolTable
 70
36
  0
LAYER
  5
10
100
AcDbSymbolTableRecord
100
AcDbLayerTableRecord
  2
0
 70
0
 62
7
  6
CONTINUOUS
370
-3
390
F
  0
LAYER
  5
1FA
100
AcDbSymbolTableRecord
100
AcDbLayerTableRecord
  2
DEFAULT_1
 70
0
 62
7
  6
CENTER
370
-3
390
F
  0
LAYER
  5
1FB
100
AcDbSymbolTableRecord
100
AcDbLayerTableRecord
  2
DEFAULT_2
 70
0
 62
7
  6
HIDDEN
370
-3
390
F
  0
LAYER
  5
1FC
100
AcDbSymbolTableRecord
100
AcDbLayerTableRecord
  2
DEFAULT_3
 70
0
 62
7
  6
PHANTOM
370
-3
390
F
  0
LAYER
  5
1FD
100
AcDbSymbolTableRecord
100
AcDbLayerTableRecord
  2
ASSI
 70
0
 62
7
  6
CONTINUOUS
370
-3
390
F
  0
LAYER
  5
1FE
100
AcDbSymbolTableRecord
100
AcDbLayerTableRecord
  2
COORDINATE
 70
0
 62
7
  6
CONTINUOUS
370
-3
390
F
  0
LAYER
  5
1FF
100
AcDbSymbolTableRecord
100
AcDbLayerTableRecord
  2
COORD_ORIGINE
 70
0
 62
7
  6
CONTINUOUS
370
-3
390
F
  0
LAYER
  5
200
100
AcDbSymbolTableRecord
100
AcDbLayerTableRecord
  2
COSMETICI
 70
0
 62
7
  6
CONTINUOUS
370
-3
390
F
  0
LAYER
  5
201
100
AcDbSymbolTableRecord
100
AcDbLayerTableRecord
  2
CURVA_VIMAR
 70
0
 62
7
  6
CONTINUOUS
370
-3
390
F
  0
LAYER
  5
202
100
AcDbSymbolTableRecord
100
AcDbLayerTableRecord
  2
CURVE
 70
0
 62
7
  6
CONTINUOUS
370
-3
390
F
  0
LAYER
  5
203
100
AcDbSymbolTableRecord
100
AcDbLayerTableRecord
  2
DRAFT
 70
0
 62
7
  6
CONTINUOUS
370
-3
390
F
  0
LAYER
  5
204
100
AcDbSymbolTableRecord
100
AcDbLayerTableRecord
  2
IMPORT_IGES
 70
0
 62
7
  6
CONTINUOUS
370
-3
390
F
  0
LAYER
  5
205
100
AcDbSymbolTableRecord
100
AcDbLayerTableRecord
  2
INTF_1
 70
0
 62
7
  6
CONTINUOUS
370
-3
390
F
  0
LAYER
  5
206
100
AcDbSymbolTableRecord
100
AcDbLayerTableRecord
  2
INTF_7
 70
0
 62
7
  6
CONTINUOUS
370
-3
390
F
  0
LAYER
  5
207
100
AcDbSymbolTableRecord
100
AcDbLayerTableRecord
  2
NOTE
 70
0
 62
7
  6
CONTINUOUS
370
-3
390
F
  0
LAYER
  5
208
100
AcDbSymbolTableRecord
100
AcDbLayerTableRecord
  2
PIANI
 70
0
 62
7
  6
CONTINUOUS
370
-3
390
F
  0
LAYER
  5
209
100
AcDbSymbolTableRecord
100
AcDbLayerTableRecord
  2
PIANI_DI_RIFERIMENTO
 70
0
 62
7
  6
CONTINUOUS
370
-3
390
F
  0
LAYER
  5
20A
100
AcDbSymbolTableRecord
100
AcDbLayerTableRecord
  2
PIANI_ORIGINE
 70
0
 62
7
  6
CONTINUOUS
370
-3
390
F
  0
LAYER
  5
20B
100
AcDbSymbolTableRecord
100
AcDbLayerTableRecord
  2
PUNTI
 70
0
 62
7
  6
CONTINUOUS
370
-3
390
F
  0
LAYER
  5
20C
100
AcDbSymbolTableRecord
100
AcDbLayerTableRecord
  2
PUNZONE_ITERC
 70
0
 62
7
  6
CONTINUOUS
370
-3
390
F
  0
LAYER
  5
20D
100
AcDbSymbolTableRecord
100
AcDbLayerTableRecord
  2
RACCORDO
 70
0
 62
7
  6
CONTINUOUS
370
-3
390
F
  0
LAYER
  5
20E
100
AcDbSymbolTableRecord
100
AcDbLayerTableRecord
  2
RGB__255__255__255__
 70
0
 62
7
  6
CONTINUOUS
370
-3
390
F
  0
LAYER
  5
20F
100
AcDbSymbolTableRecord
100
AcDbLayerTableRecord
  2
RGB____0____0____0__
 70
0
 62
7
  6
CONTINUOUS
370
-3
390
F
  0
LAYER
  5
210
100
AcDbSymbolTableRecord
100
AcDbLayerTableRecord
  2
SIMBOLI
 70
0
 62
7
  6
CONTINUOUS
370
-3
390
F
  0
LAYER
  5
211
100
AcDbSymbolTableRecord
100
AcDbLayerTableRecord
  2
SNAPLINE
 70
0
 62
7
  6
CONTINUOUS
370
-3
390
F
  0
LAYER
  5
212
100
AcDbSymbolTableRecord
100
AcDbLayerTableRecord
  2
SUPERFICI
 70
0
 62
7
  6
CONTINUOUS
370
-3
390
F
  0
LAYER
  5
213
100
AcDbSymbolTableRecord
100
AcDbLayerTableRecord
  2
TRASH
 70
0
 62
7
  6
CONTINUOUS
370
-3
390
F
  0
LAYER
  5
214
100
AcDbSymbolTableRecord
100
AcDbLayerTableRecord
  2
XSEC_DATUMS
 70
0
 62
7
  6
CONTINUOUS
370
-3
390
F
  0
ENDTAB
  0
TABLE
  2
STYLE
  5
3
100
AcDbSymbolTable
 70
1
  0
STYLE
  5
11
100
AcDbSymbolTableRecord
100
AcDbTextStyleTableRecord
  2
STANDARD
 70
0
 40
0.0
 41
0.8
 50
0.0
 71
0
 42
0.2
  3
txt
  4

  0
STYLE
  5
215
100
AcDbSymbolTableRecord
100
AcDbTextStyleTableRecord
  2
TEXTSTYLE_1
 70
0
 40
0.0
 41
0.8
 50
0.0
 71
0
 42
0.2
  3
gdt
  4

  0
ENDTAB
  0
TABLE
  2
VIEW
  5
6
100
AcDbSymbolTable
 70
0
  0
ENDTAB
  0
TABLE
  2
UCS
  5
7
100
AcDbSymbolTable
 70
0
  0
ENDTAB
  0
TABLE
  2
APPID
  5
9
100
AcDbSymbolTable
 70
1
  0
APPID
  5
216
100
AcDbSymbolTableRecord
100
AcDbRegAppTableRecord
  2
ACAD
 70
0
  0
ENDTAB
  0
TABLE
  2
BLOCK_RECORD
  5
1
100
AcDbSymbolTable
 70
0
  0
BLOCK_RECORD
  5
217
100
AcDbSymbolTableRecord
100
AcDbBlockTableRecord
  2
*Model_Space
  0
BLOCK_RECORD
  5
218
100
AcDbSymbolTableRecord
100
AcDbBlockTableRecord
  2
*Paper_Space
  0
BLOCK_RECORD
  5
219
100
AcDbSymbolTableRecord
100
AcDbBlockTableRecord
  2
_FILLED
  0
ENDTAB
  0
TABLE
  2
DIMSTYLE
  5
A
100
AcDbSymbolTable
 70
1
100
AcDbDimStyleTable
 71
0
  0
DIMSTYLE
105
21A
100
AcDbSymbolTableRecord
100
AcDbDimStyleTableRecord
  2
STANDARD
 70
0
  3

  4

 40
1.0
 41
3.0
 42
0.5
 43
0.38
 44
1.5
 45
0.0
 46
0.0
 47
0.01
 48
0.01
140
3.0
141
0.09
142
0.0
143
25.4
144
1.0
145
0.0
146
1.0
147
0.625
 71
1
 72
0
 73
0
 74
0
 75
0
 76
0
 77
1
 78
8
 79
2
170
0
171
1
172
0
173
0
174
0
175
0
176
0
177
0
178
0
270
2
179
2
271
2
272
2
273
2
274
2
275
0
280
0
281
0
282
0
283
1
284
8
285
0
286
0
287
3
288
0
340
11
278
44
341
219
342
219
343
219
344
219
  0
ENDTAB
  0
ENDSEC
  0
SECTION
  2
BLOCKS
  0
BLOCK
  5
20
100
AcDbEntity
  8
0
100
AcDbBlockBegin
  2
*Model_Space
 70
0
 10
0.0
 20
0.0
 30
0.0
  3
*Model_Space
  1

  0
ENDBLK
  5
21
100
AcDbEntity
  8
0
100
AcDbBlockEnd
  0
BLOCK
  5
1C
100
AcDbEntity
  8
0
100
AcDbBlockBegin
  2
*Paper_Space
 70
0
 10
0.0
 20
0.0
 30
0.0
  3
*Paper_Space
  1

  0
ENDBLK
  5
1D
100
AcDbEntity
  8
0
100
AcDbBlockEnd
  0
BLOCK
  5
21B
100
AcDbEntity
  8
0
100
AcDbBlockBegin
  2
_FILLED
 70
64
 10
0.0
 20
0.0
  3
_FILLED
  1

  0
SOLID
  5
21C
100
AcDbEntity
  8
0
  6
BYBLOCK
 62
0
100
AcDbTrace
 10
0.0
 20
0.0
 11
-1.0
 21
0.3166666667
 12
-1.0
 22
-0.3166666667
 13
-1.0
 23
-0.3166666667
  0
ENDBLK
  5
21D
100
AcDbEntity
  8
0
  6
BYBLOCK
 62
0
100
AcDbBlockEnd
  0
ENDSEC
  0
SECTION
  2
ENTITIES
  0
LWPOLYLINE
  5
21E
100
AcDbEntity
  8
RACCORDO
100
AcDbPolyline
 62
7
  6
CONTINUOUS
 90
35
 70
0
 10
-52.6694518057
 20
62.945574839
 10
-52.6822261842
 20
62.9351785933
 10
-52.6947576068
 20
62.9244801563
 10
-52.7070377953
 20
62.9134860211
 10
-52.7190528153
 20
62.902208594
 10
-52.7308010581
 20
62.890649442
 10
-52.7422919222
 20
62.8787978777
 10
-52.7534886987
 20
62.8666912975
 10
-52.7644127681
 20
62.8543062276
 10
-52.7751512257
 20
62.8415333759
 10
-52.7857720688
 20
62.8282650542
 10
-52.7961675554
 20
62.8146081962
 10
-52.8061692846
 20
62.8007797622
 10
-52.8156987086
 20
62.7869091707
 10
-52.8248408175
 20
62.7728939801
 10
-52.8336796529
 20
62.7586072453
 10
-52.8422439264
 20
62.7439881938
 10
-52.8504825852
 20
62.7291090651
 10
-52.8583548346
 20
62.7140390789
 10
-52.8658598031
 20
62.6987801456
 10
-52.872990133
 20
62.6833473819
 10
-52.8797071344
 20
62.6678330874
 10
-52.8859762297
 20
62.6523435333
 10
-52.8918431807
 20
62.6367929498
 10
-52.8973812975
 20
62.6209827727
 10
-52.9026266502
 20
62.6047636619
 10
-52.9075114147
 20
62.5882949595
 10
-52.9119573975
 20
62.5718405081
 10
-52.915937672
 20
62.5555580274
 10
-52.9195017503
 20
62.539306721
 10
-52.9226917896
 20
62.5229028374
 10
-52.9255192058
 20
62.5062377114
 10
-52.9279537222
 20
62.4894313405
 10
-52.9299721978
 20
62.4726416161
 10
-52.9313611897
 20
62.4584202768
  0
LINE
  5
21F
100
AcDbEntity
  8
RACCORDO
100
AcDbLine
 62
7
  6
CONTINUOUS
 10
-52.6694518056
 20
62.9455748391
 11
-48.1909416249
 21
66.5035878992
  0
LINE
  5
220
100
AcDbEntity
  8
RACCORDO
100
AcDbLine
 62
250
  6
CONTINUOUS
 10
-52.2512924223
 20
62.8799479817
 11
-47.7792145975
 21
66.4328507696
  0
LWPOLYLINE
  5
221
100
AcDbEntity
  8
RACCORDO
100
AcDbPolyline
 62
7
  6
CONTINUOUS
 90
61
 70
0
 10
-52.9313613444
 20
62.4584184902
 10
-53.0176689402
 20
61.4549733804
 10
-53.1015736242
 20
60.4473753637
 10
-53.1825431423
 20
59.4417151994
 10
-53.2605764809
 20
58.4380043318
 10
-53.335672798
 20
57.4362528912
 10
-53.4078312846
 20
56.4364706992
 10
-53.4770511312
 20
55.4386678244
 10
-53.5433315534
 20
54.4428546908
 10
-53.6066717789
 20
53.4490416622
 10
-53.6670710642
 20
52.4572389553
 10
-53.7245287125
 20
51.4674569911
 10
-53.7790440259
 20
50.4797064315
 10
-53.8306163498
 20
49.493997557
 10
-53.8792450935
 20
48.5103405178
 10
-53.9249296619
 20
47.5287457732
 10
-53.9676694924
 20
46.5492235169
 10
-54.0074640843
 20
45.5717838754
 10
-54.0443129392
 20
44.5964372006
 10
-54.0782155862
 20
43.6231936364
 10
-54.1091716171
 20
42.6520632204
 10
-54.1371806308
 20
41.683056139
 10
-54.1622422467
 20
40.7161824877
 10
-54.1843561478
 20
39.7514522206
 10
-54.2035220283
 20
38.7888753082
 10
-54.2197395983
 20
37.8284617354
 10
-54.2330086289
 20
36.8702214333
 10
-54.2433289046
 20
35.9141642887
 10
-54.2507002246
 20
34.960300215
 10
-54.2551224492
 20
34.00863908
 10
-54.2565954525
 20
33.0591907003
 10
-54.255119123
 20
32.1119649189
 10
-54.2506934101
 20
31.1669715375
 10
-54.2433182777
 20
30.2242203078
 10
-54.2329937033
 20
29.2837210064
 10
-54.2197197255
 20
28.3454833632
 10
-54.2034963978
 20
27.409517058
 10
-54.1843237867
 20
26.4758317909
 10
-54.1622020199
 20
25.5444372283
 10
-54.1371312408
 20
24.6153429965
 10
-54.1091116027
 20
23.6885586473
 10
-54.0781433246
 20
22.7640938543
 10
-54.044226649
 20
21.841958422
 10
-54.0073618215
 20
20.9221618588
 10
-53.9675491519
 20
20.0047137331
 10
-53.9247889848
 20
19.0896239304
 10
-53.8790816606
 20
18.1769019296
 10
-53.830427581
 20
17.266557182
 10
-53.77882719
 20
16.3585995226
 10
-53.724280919
 20
15.4530383148
 10
-53.6667892627
 20
14.549882954
 10
-53.60635277
 20
13.6491433106
 10
-53.5429719792
 20
12.7508288562
 10
-53.4766474747
 20
11.8549487842
 10
-53.4073798818
 20
10.9615125405
 10
-53.3351698266
 20
10.0705294625
 10
-53.2600179605
 20
9.1820084935
 10
-53.1819249466
 20
8.2959584718
 10
-53.1008914738
 20
7.4123883986
 10
-53.0169183941
 20
6.5313082373
 10
-52.9304943448
 20
5.6575702555
  0
LWPOLYLINE
  5
222
100
AcDbEntity
  8
RACCORDO
100
AcDbPolyline
 62
250
  6
CONTINUOUS
 90
61
 70
0
 10
-52.734766084
 20
62.1026639196
 10
-52.8215527265
 20
61.0935767977
 10
-52.9054059853
 20
60.0864283996
 10
-52.9863249534
 20
59.0812291665
 10
-53.0643087432
 20
58.0779892931
 10
-53.1393565213
 20
57.07671941
 10
-53.2114675148
 20
56.0774305798
 10
-53.2806409391
 20
55.0801333546
 10
-53.3468760609
 20
54.0848378807
 10
-53.4101722387
 20
53.0915545778
 10
-53.4705287952
 20
52.1002937551
 10
-53.5279450791
 20
51.1110656814
 10
-53.5824205356
 20
50.1238806861
 10
-53.633954582
 20
49.1387490303
 10
-53.6825466627
 20
48.1556809083
 10
-53.7281963114
 20
47.1746865175
 10
-53.7709030407
 20
46.1957760358
 10
-53.8106663885
 20
45.2189596173
 10
-53.8474859728
 20
44.2442473935
 10
-53.8813614013
 20
43.271649464
 10
-53.9122923058
 20
42.3011759356
 10
-53.9402783875
 20
41.332836919
 10
-53.9653193487
 20
40.3666424649
 10
-53.9874149168
 20
39.402602601
 10
-54.0065648785
 20
38.4407273709
 10
-54.022769031
 20
37.4810267685
 10
-54.0360271971
 20
36.5235107481
 10
-54.0463392491
 20
35.5681892617
 10
-54.0537050795
 20
34.6150722322
 10
-54.0581246057
 20
33.6641695533
 10
-54.0595977854
 20
32.7154910988
 10
-54.058124606
 20
31.7690467242
 10
-54.0537050799
 20
30.8248462574
 10
-54.0463392498
 20
29.8828994981
 10
-54.036027198
 20
28.9432162327
 10
-54.0227690321
 20
28.0058062229
 10
-54.0065648798
 20
27.0706791977
 10
-53.9874149184
 20
26.1378448699
 10
-53.9653193504
 20
25.2073129377
 10
-53.9402783894
 20
24.2790930725
 10
-53.912292308
 20
23.3531949258
 10
-53.8813614037
 20
22.429628118
 10
-53.8474859754
 20
21.5084022387
 10
-53.8106663914
 20
20.5895268834
 10
-53.7709030438
 20
19.6730115874
 10
-53.7281963147
 20
18.7588658155
 10
-53.6825466663
 20
17.8470990774
 10
-53.6339545858
 20
16.9377208523
 10
-53.5824205396
 20
16.0307405237
 10
-53.5279450832
 20
15.1261675093
 10
-53.4705287995
 20
14.2240112369
 10
-53.4101722432
 20
13.3242810684
 10
-53.3468760656
 20
12.4269863612
 10
-53.2806409438
 20
11.532136457
 10
-53.2114675197
 20
10.6397406572
 10
-53.1393565264
 20
9.7498080844
 10
-53.0643087486
 20
8.8623481675
 10
-52.9863249586
 20
7.9773706259
 10
-52.9054059895
 20
7.094884828
 10
-52.8215527289
 20
6.2148997967
 10
-52.734766084
 20
5.3374246905
  0
LWPOLYLINE
  5
223
100
AcDbEntity
  8
RACCORDO
100
AcDbPolyline
 62
250
  6
CONTINUOUS
 90
61
 70
0
 10
-52.734766084
 20
62.1026639196
 10
-52.7334432441
 20
62.1153477113
 10
-52.7318429592
 20
62.1282050527
 10
-52.7299610527
 20
62.1412230392
 10
-52.7277887721
 20
62.1543828004
 10
-52.7253275823
 20
62.1676767565
 10
-52.7225886352
 20
62.1811087936
 10
-52.7195683655
 20
62.1946652335
 10
-52.7162639225
 20
62.208332519
 10
-52.7126869969
 20
62.2221147031
 10
-52.7088343967
 20
62.235997667
 10
-52.7047037613
 20
62.2499674954
 10
-52.7003073962
 20
62.2640284893
 10
-52.6956424322
 20
62.2781661309
 10
-52.6907069439
 20
62.2923661592
 10
-52.6855139196
 20
62.306633174
 10
-52.6800607628
 20
62.3209523265
 10
-52.6743459289
 20
62.3353090337
 10
-52.6683831495
 20
62.3497082023
 10
-52.6621700507
 20
62.3641347556
 10
-52.655705413
 20
62.3785738293
 10
-52.6490037681
 20
62.3930305844
 10
-52.6420629119
 20
62.4074898667
 10
-52.6348818924
 20
62.4219365943
 10
-52.6274760981
 20
62.43637605
 10
-52.619843437
 20
62.4507932115
 10
-52.611983162
 20
62.4651728742
 10
-52.6039115833
 20
62.4795202093
 10
-52.5956266531
 20
62.493820606
 10
-52.5871277572
 20
62.5080588728
 10
-52.578432212
 20
62.5222397146
 10
-52.5695379289
 20
62.5363492901
 10
-52.5604443397
 20
62.5503726071
 10
-52.5511698851
 20
62.5643134166
 10
-52.5417123267
 20
62.5781590805
 10
-52.5320710319
 20
62.5918950515
 10
-52.5222657336
 20
62.605523509
 10
-52.5122939042
 20
62.6190335104
 10
-52.5021547039
 20
62.632411263
 10
-52.4918693878
 20
62.6456566564
 10
-52.48143497
 20
62.6587609526
 10
-52.4708502181
 20
62.6717114839
 10
-52.4601382029
 20
62.6845050984
 10
-52.4492952944
 20
62.6971357206
 10
-52.4383196356
 20
62.7095922182
 10
-52.427236444
 20
62.7218677252
 10
-52.4160412792
 20
62.7339591427
 10
-52.4047313869
 20
62.7458572815
 10
-52.3933344363
 20
62.7575511187
 10
-52.3818450881
 20
62.7690406023
 10
-52.3702594084
 20
62.7803188258
 10
-52.3586076829
 20
62.7913705538
 10
-52.3468837422
 20
62.8021985362
 10
-52.3350822412
 20
62.8127983358
 10
-52.3232359566
 20
62.8231509549
 10
-52.3113381883
 20
62.8332613759
 10
-52.299382091
 20
62.8431275892
 10
-52.2874023688
 20
62.8527278018
 10
-52.2754065301
 20
62.8620590874
 10
-52.2633727525
 20
62.8711320115
 10
-52.2512924223
 20
62.8799479817
  0
LWPOLYLINE
  5
224
100
AcDbEntity
  8
RACCORDO
100
AcDbPolyline
 62
250
  6
CONTINUOUS
 90
67
 70
0
 10
-37.7541877826
 20
45.2867924857
 10
-37.7422245522
 20
45.29583313
 10
-37.7300091963
 20
45.3046727936
 10
-37.7175483314
 20
45.3133066881
 10
-37.7048487038
 20
45.3217301378
 10
-37.6919171951
 20
45.3299385778
 10
-37.6787608182
 20
45.3379275559
 10
-37.6653867028
 20
45.3456927429
 10
-37.6518020905
 20
45.3532299345
 10
-37.6380143398
 20
45.3605350478
 10
-37.6240309193
 20
45.3676041258
 10
-37.6098594037
 20
45.3744333392
 10
-37.5955074693
 20
45.3810189889
 10
-37.5809828904
 20
45.3873575074
 10
-37.5662935347
 20
45.3934454613
 10
-37.5514473592
 20
45.3992795529
 10
-37.5364524058
 20
45.4048566218
 10
-37.521316797
 20
45.4101736472
 10
-37.5060487314
 20
45.4152277489
 10
-37.4906564797
 20
45.4200161891
 10
-37.4751483794
 20
45.424536374
 10
-37.459532831
 20
45.4287858551
 10
-37.4438182933
 20
45.4327623306
 10
-37.4280132784
 20
45.4364636464
 10
-37.4121263478
 20
45.4398877976
 10
-37.3961661072
 20
45.4430329294
 10
-37.3801412018
 20
45.4458973381
 10
-37.3640603121
 20
45.4484794722
 10
-37.3479321489
 20
45.4507779328
 10
-37.3317654485
 20
45.4527914751
 10
-37.3155689682
 20
45.4545190082
 10
-37.2993514812
 20
45.4559595963
 10
-37.2831217724
 20
45.4571124592
 10
-37.2668886331
 20
45.4579769724
 10
-37.2506608565
 20
45.4585526675
 10
-37.234447233
 20
45.4588392327
 10
-37.2182565452
 20
45.4588365128
 10
-37.2020975632
 20
45.4585445092
 10
-37.1859790402
 20
45.4579633801
 10
-37.1699097073
 20
45.4570934403
 10
-37.153898269
 20
45.4559351611
 10
-37.1379533984
 20
45.4544891697
 10
-37.1220837326
 20
45.4527562495
 10
-37.1062978679
 20
45.4507373392
 10
-37.0906043552
 20
45.4484335324
 10
-37.0750116956
 20
45.445846077
 10
-37.0595283351
 20
45.4429763746
 10
-37.0441626611
 20
45.4398259796
 10
-37.0289229966
 20
45.4363965986
 10
-37.013817597
 20
45.4326900892
 10
-36.9988546444
 20
45.4287084591
 10
-36.9840422441
 20
45.4244538651
 10
-36.9693884197
 20
45.4199286119
 10
-36.9549011089
 20
45.4151351507
 10
-36.9405881594
 20
45.410076078
 10
-36.9264573241
 20
45.4047541343
 10
-36.9125162576
 20
45.3991722023
 10
-36.8987725114
 20
45.3933333058
 10
-36.8852335305
 20
45.3872406074
 10
-36.8719066487
 20
45.3808974077
 10
-36.8587990848
 20
45.3743071425
 10
-36.8459179392
 20
45.3674733817
 10
-36.8332701892
 20
45.3603998271
 10
-36.820862686
 20
45.3530903103
 10
-36.8087021505
 20
45.3455487906
 10
-36.7967951699
 20
45.3377793534
 10
-36.785148194
 20
45.329786207
  0
LINE
  5
225
100
AcDbEntity
  8
RACCORDO
100
AcDbLine
 62
7
  6
CONTINUOUS
 10
-38.1699264661
 20
51.8059821859
 11
-38.1516852459
 21
51.812055012
  0
LWPOLYLINE
  5
226
100
AcDbEntity
  8
RACCORDO
100
AcDbPolyline
 62
7
  6
CONTINUOUS
 90
61
 70
0
 10
-38.1516852459
 20
51.812055012
 10
-38.1511828489
 20
51.8122092736
 10
-38.1506560802
 20
51.8123431535
 10
-38.1501049486
 20
51.8124566463
 10
-38.1495281141
 20
51.8125495469
 10
-38.1489269331
 20
51.8126220499
 10
-38.1483054641
 20
51.8126747469
 10
-38.147664094
 20
51.8127073822
 10
-38.1470024621
 20
51.8127201953
 10
-38.1463235109
 20
51.812714517
 10
-38.1456288441
 20
51.8126905326
 10
-38.1449168861
 20
51.8126480397
 10
-38.1441858078
 20
51.8125877884
 10
-38.1434362202
 20
51.8125101939
 10
-38.1426675306
 20
51.8124148298
 10
-38.1418760963
 20
51.8123011882
 10
-38.1410619805
 20
51.8121695957
 10
-38.1402251304
 20
51.8120197193
 10
-38.1393617225
 20
51.8118500656
 10
-38.1384718254
 20
51.8116609035
 10
-38.1375553769
 20
51.81145196
 10
-38.1366083546
 20
51.8112209307
 10
-38.1356307627
 20
51.8109680387
 10
-38.1346226017
 20
51.810693058
 10
-38.1335798434
 20
51.8103930103
 10
-38.1325024076
 20
51.81006807
 10
-38.1313903798
 20
51.8097180595
 10
-38.1302399827
 20
51.8093394719
 10
-38.1290510109
 20
51.8089324059
 10
-38.1278236779
 20
51.808496758
 10
-38.1265548394
 20
51.8080287158
 10
-38.1252441356
 20
51.8075282654
 10
-38.1238919395
 20
51.806995413
 10
-38.1224962122
 20
51.8064263725
 10
-38.1210572976
 20
51.8058214102
 10
-38.119574872
 20
51.8051802481
 10
-38.1180459024
 20
51.8044982795
 10
-38.1164717476
 20
51.8037763924
 10
-38.1148510751
 20
51.8030136838
 10
-38.1131768208
 20
51.8022028567
 10
-38.1114485594
 20
51.8013440589
 10
-38.1096667458
 20
51.8004371258
 10
-38.1078256438
 20
51.799474288
 10
-38.1059249198
 20
51.798455679
 10
-38.1039649417
 20
51.7973811459
 10
-38.1019410335
 20
51.7962424846
 10
-38.0998529909
 20
51.7950399073
 10
-38.0977010549
 20
51.7937731813
 10
-38.095481225
 20
51.7924334308
 10
-38.093193819
 20
51.7910212557
 10
-38.0908385519
 20
51.7895360379
 10
-38.0884105223
 20
51.7879670728
 10
-38.0859117403
 20
51.7863163205
 10
-38.0833402128
 20
51.7845818115
 10
-38.0806850312
 20
51.7827469482
 10
-38.077960182
 20
51.7808234693
 10
-38.075151661
 20
51.7787996463
 10
-38.0722065544
 20
51.7766236925
 10
-38.0691071871
 20
51.7742783667
 10
-38.0658711317
 20
51.7717809685
 10
-38.0624983169
 20
51.7691315389
  0
LINE
  5
227
100
AcDbEntity
  8
RACCORDO
100
AcDbLine
 62
7
  6
CONTINUOUS
 10
33.9372450722
 20
-55.946833979
 11
33.9324959578
 21
-55.9479204519
  0
LINE
  5
228
100
AcDbEntity
  8
RACCORDO
100
AcDbLine
 62
7
  6
CONTINUOUS
 10
33.9324959578
 20
-55.9479204519
 11
33.9278067809
 21
-55.948961191
  0
LINE
  5
229
100
AcDbEntity
  8
RACCORDO
100
AcDbLine
 62
7
  6
CONTINUOUS
 10
33.9278067809
 20
-55.948961191
 11
33.9231774763
 21
-55.9499556141
  0
LWPOLYLINE
  5
22A
100
AcDbEntity
  8
RACCORDO
100
AcDbPolyline
 62
7
  6
CONTINUOUS
 90
61
 70
0
 10
33.9231774763
 20
-55.9499556141
 10
33.9227996714
 20
-55.9500217741
 10
33.9223980981
 20
-55.9500671265
 10
33.921972747
 20
-55.9500916785
 10
33.9215224651
 20
-55.9500950932
 10
33.9210483885
 20
-55.9500777207
 10
33.9205539381
 20
-55.9500406029
 10
33.9200393487
 20
-55.9499835916
 10
33.9195043583
 20
-55.9499068567
 10
33.9189516361
 20
-55.9498119221
 10
33.9183825018
 20
-55.9496991742
 10
33.9177956066
 20
-55.94956825
 10
33.9171896195
 20
-55.9494195474
 10
33.9165651151
 20
-55.9492535074
 10
33.9159214997
 20
-55.9490697043
 10
33.9152556979
 20
-55.9488672291
 10
33.914567828
 20
-55.9486463693
 10
33.9138577609
 20
-55.9484068459
 10
33.9131220551
 20
-55.9481468954
 10
33.912360824
 20
-55.947866755
 10
33.9115739476
 20
-55.9475661927
 10
33.9107576377
 20
-55.9472427384
 10
33.9099119469
 20
-55.946896581
 10
33.9090368178
 20
-55.9465275354
 10
33.9081282968
 20
-55.9461325706
 10
33.9071863575
 20
-55.9457118228
 10
33.9062110209
 20
-55.9452651601
 10
33.9051984035
 20
-55.9447891507
 10
33.9041483584
 20
-55.9442838517
 10
33.9030610241
 20
-55.9437492126
 10
33.9019329412
 20
-55.9431816439
 10
33.9007638081
 20
-55.9425810905
 10
33.8995539129
 20
-55.9419476186
 10
33.8983006737
 20
-55.9412778262
 10
33.8970044137
 20
-55.9405719941
 10
33.8956647889
 20
-55.9398298587
 10
33.8942782096
 20
-55.9390472071
 10
33.8928459571
 20
-55.9382249823
 10
33.8913667232
 20
-55.9373622639
 10
33.8898330267
 20
-55.9364520497
 10
33.888244543
 20
-55.9354944162
 10
33.8866015662
 20
-55.9344893126
 10
33.884897536
 20
-55.9334295528
 10
33.8831321934
 20
-55.9323152177
 10
33.8813057618
 20
-55.9311462564
 10
33.8794123959
 20
-55.9299152925
 10
33.8774519573
 20
-55.9286224921
 10
33.8754245464
 20
-55.9272677214
 10
33.8733246688
 20
-55.9258431608
 10
33.8711527016
 20
-55.9243493677
 10
33.8689082338
 20
-55.9227858136
 10
33.8665845842
 20
-55.9211430531
 10
33.8641838313
 20
-55.9194229983
 10
33.8617038787
 20
-55.9176237525
 10
33.8591317868
 20
-55.9157301551
 10
33.8564816551
 20
-55.9137538658
 10
33.8537394018
 20
-55.9116832101
 10
33.8508498349
 20
-55.9094680103
 10
33.8477945951
 20
-55.9070915087
 10
33.8445921467
 20
-55.904570375
 10
33.841242563
 20
-55.9019045477
  0
LWPOLYLINE
  5
22B
100
AcDbEntity
  8
RACCORDO
100
AcDbPolyline
 62
7
  6
CONTINUOUS
 90
37
 70
0
 10
-52.9304945267
 20
5.6575720467
 10
-52.9295315783
 20
5.6485923981
 10
-52.9274558465
 20
5.6320940718
 10
-52.9249864694
 20
5.615635258
 10
-52.9221235579
 20
5.5992240619
 10
-52.9188680222
 20
5.5828719361
 10
-52.9152212098
 20
5.5665903912
 10
-52.9111845739
 20
5.5503896753
 10
-52.9067595598
 20
5.5342789101
 10
-52.9019480147
 20
5.5182678445
 10
-52.8967529489
 20
5.5023688395
 10
-52.891175868
 20
5.4865886205
 10
-52.8852161549
 20
5.4709286142
 10
-52.8788748129
 20
5.4553955788
 10
-52.8721554103
 20
5.4400020975
 10
-52.8650610247
 20
5.4247584635
 10
-52.8575944025
 20
5.4096736084
 10
-52.8497591075
 20
5.3947575845
 10
-52.8415600502
 20
5.3800221671
 10
-52.8330026473
 20
5.3654789731
 10
-52.8240897827
 20
5.3511346797
 10
-52.8148227643
 20
5.3369936505
 10
-52.805204569
 20
5.3230631092
 10
-52.7952411094
 20
5.3093541814
 10
-52.7849382211
 20
5.2958771041
 10
-52.774301082
 20
5.282640673
 10
-52.7633351862
 20
5.2696536609
 10
-52.7520474009
 20
5.2569259558
 10
-52.7404442259
 20
5.2444664363
 10
-52.7285315124
 20
5.2322828687
 10
-52.7163155965
 20
5.2203832002
 10
-52.7038032465
 20
5.20877544
 10
-52.6910014213
 20
5.1974673998
 10
-52.6779170661
 20
5.1864665301
 10
-52.6645567655
 20
5.1757796933
 10
-52.6509289992
 20
5.1654149406
 10
-52.6468894969
 20
5.1624422835
  0
LWPOLYLINE
  5
22C
100
AcDbEntity
  8
RACCORDO
100
AcDbPolyline
 62
250
  6
CONTINUOUS
 90
64
 70
0
 10
-36.75354092
 20
40.0559121186
 10
-36.7411857471
 20
40.0663666754
 10
-36.7285539172
 20
40.076599656
 10
-36.7156529448
 20
40.0866049726
 10
-36.7024905049
 20
40.096376673
 10
-36.6890744279
 20
40.1059089441
 10
-36.6754126951
 20
40.115196115
 10
-36.6615134339
 20
40.1242326607
 10
-36.6473849131
 20
40.1330132054
 10
-36.6330355378
 20
40.1415325253
 10
-36.6184738446
 20
40.1497855525
 10
-36.6037084962
 20
40.1577673769
 10
-36.5887482767
 20
40.1654732504
 10
-36.573602086
 20
40.1728985885
 10
-36.5582789346
 20
40.1800389739
 10
-36.5427879384
 20
40.1868901587
 10
-36.527138313
 20
40.1934480671
 10
-36.5113393685
 20
40.1997087979
 10
-36.4954005039
 20
40.2056686264
 10
-36.4793312011
 20
40.2113240071
 10
-36.4631410199
 20
40.2166715756
 10
-36.446839592
 20
40.2217081506
 10
-36.4304366152
 20
40.2264307358
 10
-36.4139418477
 20
40.2308365217
 10
-36.3973651023
 20
40.2349228873
 10
-36.3807162406
 20
40.2386874016
 10
-36.3640051671
 20
40.242127825
 10
-36.3472418234
 20
40.2452421109
 10
-36.330436182
 20
40.2480284065
 10
-36.3135982407
 20
40.2504850542
 10
-36.2967380165
 20
40.2526105926
 10
-36.2798655397
 20
40.2544037572
 10
-36.2629908478
 20
40.2558634812
 10
-36.2461239796
 20
40.2569888961
 10
-36.2292749693
 20
40.2577793326
 10
-36.2124538405
 20
40.2582343203
 10
-36.1956706002
 20
40.2583535886
 10
-36.1789352329
 20
40.2581370666
 10
-36.1622576944
 20
40.2575848829
 10
-36.1456479064
 20
40.2566973662
 10
-36.1291157501
 20
40.2554750445
 10
-36.1126710606
 20
40.2539186448
 10
-36.0963236209
 20
40.2520290931
 10
-36.0800831562
 20
40.2498075135
 10
-36.0639593281
 20
40.2472552277
 10
-36.0479617287
 20
40.244373754
 10
-36.032099875
 20
40.2411648065
 10
-36.0163832035
 20
40.2376302944
 10
-36.000821064
 20
40.2337723204
 10
-35.9854227145
 20
40.2295931795
 10
-35.9701973155
 20
40.225095358
 10
-35.9551539249
 20
40.2202815316
 10
-35.9403014919
 20
40.2151545641
 10
-35.9256488524
 20
40.2097175056
 10
-35.9112047233
 20
40.2039735906
 10
-35.8969776975
 20
40.1979262362
 10
-35.8829762387
 20
40.19157904
 10
-35.8692086765
 20
40.184935778
 10
-35.8556832013
 20
40.1780004023
 10
-35.8424078594
 20
40.1707770388
 10
-35.8293905485
 20
40.1632699847
 10
-35.8166390126
 20
40.155483706
 10
-35.8041608377
 20
40.1474228348
 10
-35.7919634471
 20
40.1390921666
  0
LINE
  5
22D
100
AcDbEntity
  8
RACCORDO
100
AcDbLine
 62
250
  6
CONTINUOUS
 10
-35.7513679051
 20
39.9324145327
 11
-35.6721881229
 21
39.9846244078
  0
LWPOLYLINE
  5
22E
100
AcDbEntity
  8
RACCORDO
100
AcDbPolyline
 62
250
  6
CONTINUOUS
 90
22
 70
0
 10
-52.734766084
 20
5.3374246905
 10
-52.733443244
 20
5.3265072541
 10
-52.731842959
 20
5.3158250349
 10
-52.7299610524
 20
5.3053821144
 10
-52.7277887717
 20
5.2951799547
 10
-52.7253275817
 20
5.2852243915
 10
-52.7225886345
 20
5.2755258796
 10
-52.7195683645
 20
5.2660874741
 10
-52.7162639213
 20
5.2569122191
 10
-52.7126869954
 20
5.248010545
 10
-52.708834395
 20
5.2393847719
 10
-52.7047037593
 20
5.2310372868
 10
-52.7003073939
 20
5.2229785516
 10
-52.6956424296
 20
5.2152100829
 10
-52.690706941
 20
5.2077335439
 10
-52.6855139163
 20
5.2005594844
 10
-52.6800607592
 20
5.1936885549
 10
-52.6743459249
 20
5.1871216314
 10
-52.6683831452
 20
5.1808694017
 10
-52.6621700461
 20
5.1749316004
 10
-52.6557054081
 20
5.1693082575
 10
-52.6490037628
 20
5.164010235
  0
LINE
  5
22F
100
AcDbEntity
  8
RACCORDO
100
AcDbLine
 62
250
  6
CONTINUOUS
 10
-36.649094817
 20
29.8454744398
 11
-35.5003711531
 21
30.7000379126
  0
LINE
  5
230
100
AcDbEntity
  8
RACCORDO
100
AcDbLine
 62
7
  6
CONTINUOUS
 10
-36.6916561893
 20
29.7028801291
 11
-35.5429325253
 21
30.557443602
  0
LINE
  5
231
100
AcDbEntity
  8
ASSI
100
AcDbLine
 62
7
  6
CONTINUOUS
 10
-34.9802803328
 20
30.4774031018
 11
-36.5359152514
 21
29.3774031018
  0
LWPOLYLINE
  5
232
100
AcDbEntity
  8
RACCORDO
100
AcDbPolyline
 62
250
  6
CONTINUOUS
 90
34
 70
0
 10
-35.5003711531
 20
30.7000379126
 10
-35.4911627174
 20
30.706266853
 10
-35.4821817691
 20
30.7126597105
 10
-35.473434142
 20
30.7192123323
 10
-35.4649255185
 20
30.725920462
 10
-35.4566614256
 20
30.7327797423
 10
-35.4486472314
 20
30.7397857174
 10
-35.4408881418
 20
30.7469338364
 10
-35.4333891969
 20
30.754219456
 10
-35.426155268
 20
30.7616378436
 10
-35.4191910541
 20
30.7691841803
 10
-35.4125010789
 20
30.7768535642
 10
-35.4060896881
 20
30.7846410134
 10
-35.3999610465
 20
30.7925414692
 10
-35.3941191351
 20
30.8005497998
 10
-35.3885677485
 20
30.8086608031
 10
-35.383310493
 20
30.8168692102
 10
-35.3783507834
 20
30.8251696892
 10
-35.3736918415
 20
30.8335568482
 10
-35.3693366936
 20
30.8420252391
 10
-35.3652881686
 20
30.850569361
 10
-35.3615488965
 20
30.8591836638
 10
-35.3581213061
 20
30.8678625517
 10
-35.3550076239
 20
30.8766003872
 10
-35.3522098725
 20
30.8853914943
 10
-35.3497298691
 20
30.8942301624
 10
-35.3475692246
 20
30.9031106502
 10
-35.3457293427
 20
30.9120271889
 10
-35.3442114182
 20
30.9209739866
 10
-35.3430164373
 20
30.9299452317
 10
-35.342145176
 20
30.9389350964
 10
-35.3415982004
 20
30.9479377412
 10
-35.3413758655
 20
30.9569473182
 10
-35.3413703332
 20
30.958608257
  0
LINE
  5
233
100
AcDbEntity
  8
RACCORDO
100
AcDbLine
 62
7
  6
CONTINUOUS
 10
-37.6033862105
 20
51.4194671863
 11
-37.6061915927
 21
51.3885187301
  0
LWPOLYLINE
  5
234
100
AcDbEntity
  8
RACCORDO
100
AcDbPolyline
 62
250
  6
CONTINUOUS
 90
61
 70
0
 10
-37.6033861505
 20
51.4194671439
 10
-37.6020925284
 20
51.4321708042
 10
-37.6005154362
 20
51.445040251
 10
-37.5986557229
 20
51.4580681108
 10
-37.5965138982
 20
51.4712468192
 10
-37.5940916276
 20
51.4845689211
 10
-37.5913917806
 20
51.4980270506
 10
-37.5884159505
 20
51.5116132445
 10
-37.5851657888
 20
51.5253199028
 10
-37.5816445378
 20
51.5391400698
 10
-37.5778542165
 20
51.5530657982
 10
-37.5737969925
 20
51.5670890717
 10
-37.56947657
 20
51.5812027391
 10
-37.5648954349
 20
51.5953986852
 10
-37.5600562177
 20
51.6096687404
 10
-37.5549630732
 20
51.6240056007
 10
-37.5496189466
 20
51.6384010292
 10
-37.5440269124
 20
51.6528467423
 10
-37.5381915453
 20
51.6673353171
 10
-37.5321165525
 20
51.6818586376
 10
-37.5258051189
 20
51.6964081507
 10
-37.5192612516
 20
51.7109757514
 10
-37.5124892588
 20
51.7255533987
 10
-37.5054925545
 20
51.7401324041
 10
-37.4982740022
 20
51.7547036874
 10
-37.4908378371
 20
51.7692589193
 10
-37.4831883269
 20
51.7837897243
 10
-37.4753285661
 20
51.7982869687
 10
-37.4672630399
 20
51.8127423037
 10
-37.4589965037
 20
51.8271474811
 10
-37.4505326313
 20
51.8414935541
 10
-37.44187602
 20
51.8557721455
 10
-37.4330320069
 20
51.8699752268
 10
-37.424005545
 20
51.8840944333
 10
-37.4148018006
 20
51.8981216381
 10
-37.405426198
 20
51.9120488432
 10
-37.395884239
 20
51.9258679603
 10
-37.3861814819
 20
51.939571081
 10
-37.3763235609
 20
51.9531503572
 10
-37.3663162393
 20
51.9665978975
 10
-37.3561654225
 20
51.9799060341
 10
-37.345876939
 20
51.9930671314
 10
-37.3354565675
 20
52.0060734723
 10
-37.3249104282
 20
52.0189176391
 10
-37.3142446092
 20
52.0315922756
 10
-37.303464952
 20
52.044089899
 10
-37.2925777362
 20
52.0564033716
 10
-37.281589299
 20
52.0685256601
 10
-37.2705056623
 20
52.0804495976
 10
-37.2593332817
 20
52.0921683781
 10
-37.2480786624
 20
52.1036753126
 10
-37.2367479767
 20
52.1149635871
 10
-37.2253478243
 20
52.1260267623
 10
-37.2138848436
 20
52.1368585279
 10
-37.202365325
 20
52.1474524567
 10
-37.1907959782
 20
52.1578025094
 10
-37.1791835405
 20
52.1679027866
 10
-37.1675343874
 20
52.1777472804
 10
-37.1558551742
 20
52.1873302978
 10
-37.1441528321
 20
52.1966464653
 10
-37.1324341769
 20
52.2056904788
  0
LWPOLYLINE
  5
235
100
AcDbEntity
  8
RACCORDO
100
AcDbPolyline
 62
250
  6
CONTINUOUS
 90
32
 70
0
 10
-37.1835099896
 20
28.9295548053
 10
-37.1738471192
 20
28.9360994846
 10
-37.1644353745
 20
28.9428246528
 10
-37.1552814955
 20
28.9497254937
 10
-37.1463920378
 20
28.9567970654
 10
-37.1377733675
 20
28.9640343036
 10
-37.1294316569
 20
28.9714320252
 10
-37.1213728799
 20
28.9789849325
 10
-37.1136028076
 20
28.9866876164
 10
-37.1061270047
 20
28.9945345608
 10
-37.0989508249
 20
29.002520146
 10
-37.0920794073
 20
29.0106386532
 10
-37.085517673
 20
29.0188842683
 10
-37.0792703211
 20
29.0272510862
 10
-37.0733418255
 20
29.0357331152
 10
-37.0677364321
 20
29.0443242808
 10
-37.0624581549
 20
29.0530184305
 10
-37.0575107741
 20
29.0618093379
 10
-37.0528978327
 20
29.0706907076
 10
-37.0486226343
 20
29.0796561791
 10
-37.0446882405
 20
29.0886993319
 10
-37.0410974688
 20
29.0978136897
 10
-37.0378528909
 20
29.1069927253
 10
-37.0349568303
 20
29.1162298652
 10
-37.0324113609
 20
29.1255184942
 10
-37.0302183058
 20
29.1348519603
 10
-37.0283792355
 20
29.1442235793
 10
-37.026895467
 20
29.1536266399
 10
-37.0257680629
 20
29.1630544081
 10
-37.0249978305
 20
29.1725001321
 10
-37.0245853215
 20
29.1819570475
 10
-37.0245091696
 20
29.1881273862
  0
LWPOLYLINE
  5
236
100
AcDbEntity
  8
ASSI
100
AcDbPolyline
 62
7
  6
CONTINUOUS
 90
3
 70
0
 10
-35.4166330061
 20
30.6948514664
 10
-35.3815834657
 20
30.7081194788
 10
-35.3338337234
 20
30.7274031018
  0
LWPOLYLINE
  5
237
100
AcDbEntity
  8
RACCORDO
100
AcDbPolyline
 62
250
  6
CONTINUOUS
 90
61
 70
0
 10
-38.1699264698
 20
-4.9593640148
 10
-38.2629919372
 20
-4.0774477767
 10
-38.3529116134
 20
-3.1931722043
 10
-38.4396845968
 20
-2.3065464607
 10
-38.5233100461
 20
-1.4175797114
 10
-38.6037870938
 20
-0.5262811929
 10
-38.6811148462
 20
0.3673397874
 10
-38.7552925247
 20
1.2632739653
 10
-38.8263193887
 20
2.1615120536
 10
-38.8941946493
 20
3.062044673
 10
-38.9589176223
 20
3.9648624821
 10
-39.0204876626
 20
4.869956123
 10
-39.0789040865
 20
5.7773161549
 10
-39.1341663048
 20
6.6869331605
 10
-39.1862737674
 20
7.5987977116
 10
-39.2352258965
 20
8.5129003151
 10
-39.281022198
 20
9.4292314855
 10
-39.3236622162
 20
10.3477817186
 10
-39.3631454784
 20
11.2685414573
 10
-39.3994715854
 20
12.1915011475
 10
-39.4326401764
 20
13.1166512112
 10
-39.4626508834
 20
14.0439820206
 10
-39.489503402
 20
14.9734839491
 10
-39.5131974665
 20
15.9051473505
 10
-39.533732814
 20
16.838962533
 10
-39.5511092352
 20
17.7749197993
 10
-39.5653265594
 20
18.7130094351
 10
-39.5763846288
 20
19.6532216888
 10
-39.5842833292
 20
20.5955467951
 10
-39.5890225848
 20
21.5399749705
 10
-39.5906023431
 20
22.4864964031
 10
-39.5890225848
 20
23.4351012597
 10
-39.5842833292
 20
24.3857796893
 10
-39.5763846288
 20
25.3385218196
 10
-39.5653265594
 20
26.2933177507
 10
-39.5511092352
 20
27.2501575651
 10
-39.533732814
 20
28.2090313303
 10
-39.5131974665
 20
29.1699290812
 10
-39.489503402
 20
30.132840834
 10
-39.4626508834
 20
31.0977565953
 10
-39.4326401764
 20
32.0646663338
 10
-39.3994715854
 20
33.033560002
 10
-39.3631454784
 20
34.00442755
 10
-39.3236622162
 20
34.9772588802
 10
-39.281022198
 20
35.9520438835
 10
-39.2352258965
 20
36.9287724606
 10
-39.1862737674
 20
37.9074344537
 10
-39.1341663048
 20
38.8880196879
 10
-39.0789040865
 20
39.8705180078
 10
-39.0204876626
 20
40.8549191977
 10
-38.9589176224
 20
41.8412130163
 10
-38.8941946493
 20
42.8293892393
 10
-38.8263193887
 20
43.8194375866
 10
-38.7552925247
 20
44.811347759
 10
-38.6811148462
 20
45.8051094724
 10
-38.6037870938
 20
46.800712383
 10
-38.5233100461
 20
47.7981461348
 10
-38.4396845968
 20
48.7974003952
 10
-38.3529116134
 20
49.7984647806
 10
-38.2629919372
 20
50.8013288562
 10
-38.1699264699
 20
51.8059821838
  0
LINE
  5
238
100
AcDbEntity
  8
RACCORDO
100
AcDbLine
 62
7
  6
CONTINUOUS
 10
-37.6061915927
 20
-5.3195989867
 11
-37.6033862106
 21
-5.3465798635
  0
LWPOLYLINE
  5
239
100
AcDbEntity
  8
RACCORDO
100
AcDbPolyline
 62
250
  6
CONTINUOUS
 90
24
 70
0
 10
-36.649094817
 20
29.8454744398
 10
-36.6483767308
 20
29.8368766135
 10
-36.6478937484
 20
29.8284626023
 10
-36.647646202
 20
29.820238195
 10
-36.647634262
 20
29.81220905
 10
-36.6478579366
 20
29.8043806916
 10
-36.6483170719
 20
29.7967585055
 10
-36.649011352
 20
29.7893477361
 10
-36.6499402993
 20
29.7821534818
 10
-36.6511032746
 20
29.7751806925
 10
-36.6524994777
 20
29.7684341654
 10
-36.6541279482
 20
29.7619185422
 10
-36.6559875655
 20
29.7556383057
 10
-36.6580770503
 20
29.7495977767
 10
-36.660394965
 20
29.7438011111
 10
-36.6629397148
 20
29.7382522972
 10
-36.665709549
 20
29.7329551524
 10
-36.6687025618
 20
29.7279133214
 10
-36.6719166941
 20
29.7231302729
 10
-36.6753497345
 20
29.7186092976
 10
-36.6789993211
 20
29.7143535061
 10
-36.6828629429
 20
29.7103658263
 10
-36.6869379417
 20
29.7066490018
 10
-36.6916561893
 20
29.7028801291
  0
LINE
  5
23A
100
AcDbEntity
  8
RACCORDO
100
AcDbLine
 62
250
  6
CONTINUOUS
 10
-37.9868051421
 20
50.8052176653
 11
-37.9810677175
 21
50.7355433299
  0
LWPOLYLINE
  5
23B
100
AcDbEntity
  8
RACCORDO
100
AcDbPolyline
 62
250
  6
CONTINUOUS
 90
49
 70
0
 10
-37.7541879244
 20
0.8240682798
 10
-37.8253354185
 20
1.7018105879
 10
-37.8934593072
 20
2.5817407803
 10
-37.9585595903
 20
3.4638588571
 10
-38.0206368567
 20
4.3481736672
 10
-38.0796905175
 20
5.2346763617
 10
-38.1357188063
 20
6.1233403932
 10
-38.1887216325
 20
7.0141658217
 10
-38.2386990867
 20
7.9071525871
 10
-38.2856496738
 20
8.8022739616
 10
-38.3295733034
 20
9.699530009
 10
-38.370470066
 20
10.5989206654
 10
-38.4083387383
 20
11.5004190112
 10
-38.4431792297
 20
12.4040251114
 10
-38.4749916309
 20
13.3097389009
 10
-38.5037749898
 20
14.2175332647
 10
-38.5295292159
 20
15.127408265
 10
-38.5522543998
 20
16.0393638396
 10
-38.5719498615
 20
16.9533726858
 10
-38.5886155103
 20
17.8694348643
 10
-38.6022514369
 20
18.7875503146
 10
-38.6128572334
 20
19.7076915521
 10
-38.6204328092
 20
20.6298586373
 10
-38.6249782547
 20
21.5540515097
 10
-38.6264934342
 20
22.4802425035
 10
-38.6249782568
 20
23.4084316786
 10
-38.6204328133
 20
24.3386189751
 10
-38.6128572395
 20
25.2707765479
 10
-38.602251445
 20
26.2049044562
 10
-38.5886155202
 20
27.1410026409
 10
-38.5719498731
 20
28.0790430795
 10
-38.552254413
 20
29.0190258309
 10
-38.5295292306
 20
29.9609508363
 10
-38.5037750058
 20
30.9047898964
 10
-38.4749916479
 20
31.8505430683
 10
-38.4431792476
 20
32.798210295
 10
-38.4083387568
 20
33.747763206
 10
-38.3704700849
 20
34.6992018555
 10
-38.3295733225
 20
35.6525261892
 10
-38.2856496927
 20
36.6077076743
 10
-38.238699105
 20
37.5647463668
 10
-38.1887216499
 20
38.5236422107
 10
-38.1357188225
 20
39.4843665049
 10
-38.0796905325
 20
40.4469193056
 10
-38.0206368701
 20
41.4113005566
 10
-37.9585596014
 20
42.3774813877
 10
-37.8934593154
 20
43.3454521754
 10
-37.8253354231
 20
44.3152225431
 10
-37.7541879246
 20
45.2867924909
  0
LINE
  5
23C
100
AcDbEntity
  8
RACCORDO
100
AcDbLine
 62
250
  6
CONTINUOUS
 10
-37.9810677175
 20
50.7355433299
 11
-37.9752274896
 21
50.6616274275
  0
LWPOLYLINE
  5
23D
100
AcDbEntity
  8
RACCORDO
100
AcDbPolyline
 62
250
  6
CONTINUOUS
 90
31
 70
0
 10
-37.9752274896
 20
50.6616274275
 10
-37.9641456114
 20
50.5129420612
 10
-37.9561423162
 20
50.3984879897
 10
-37.9482537193
 20
50.2797652312
 10
-37.9404744751
 20
50.1569617304
 10
-37.9327896447
 20
50.0299299103
 10
-37.9251618404
 20
49.8981887071
 10
-37.9175888655
 20
49.7618744716
 10
-37.9100636657
 20
49.6208999541
 10
-37.9025397141
 20
49.4744566951
 10
-37.895009787
 20
49.3224823402
 10
-37.8874823375
 20
49.1651077522
 10
-37.8799330035
 20
49.0018238484
 10
-37.8723737119
 20
48.8329381471
 10
-37.8647975958
 20
48.6582272514
 10
-37.8571533283
 20
48.4764013443
 10
-37.8494292035
 20
48.2870469277
 10
-37.8416582828
 20
48.0907041596
 10
-37.8338561656
 20
47.8875265209
 10
-37.8259908599
 20
47.6764129275
 10
-37.8181265205
 20
47.4586198245
 10
-37.8104062215
 20
47.2378027759
 10
-37.8028191696
 20
47.0134599967
 10
-37.7954012862
 20
46.7861976518
 10
-37.7883316678
 20
46.5612382124
 10
-37.7816425842
 20
46.339659454
 10
-37.7753068568
 20
46.1203748295
 10
-37.7693853966
 20
45.9052768861
 10
-37.7638957627
 20
45.6949728344
 10
-37.7588271374
 20
45.4888158115
 10
-37.7541877826
 20
45.2867924857
  0
LINE
  5
23E
100
AcDbEntity
  8
RACCORDO
100
AcDbLine
 62
7
  6
CONTINUOUS
 10
-37.0244934811
 20
18.1914315548
 11
-37.0245091831
 21
18.192464485
  0
LWPOLYLINE
  5
23F
100
AcDbEntity
  8
RACCORDO
100
AcDbPolyline
 62
250
  6
CONTINUOUS
 90
67
 70
0
 10
-35.7513679051
 20
8.8197161605
 10
-35.7512327032
 20
8.8078343797
 10
-35.7508271741
 20
8.7957542873
 10
-35.7501515475
 20
8.7834827257
 10
-35.7492062059
 20
8.7710266454
 10
-35.747991685
 20
8.7583931019
 10
-35.7465086727
 20
8.7455892509
 10
-35.7447580088
 20
8.7326223445
 10
-35.7427406851
 20
8.7194997275
 10
-35.7404578441
 20
8.7062288326
 10
-35.7379107789
 20
8.6928171766
 10
-35.7351009321
 20
8.679272356
 10
-35.7320298954
 20
8.6656020427
 10
-35.7286994081
 20
8.6518139797
 10
-35.7251113567
 20
8.6379159767
 10
-35.7212677735
 20
8.6239159058
 10
-35.7171708356
 20
8.6098216967
 10
-35.7128228634
 20
8.5956413325
 10
-35.7082263198
 20
8.5813828452
 10
-35.7033838083
 20
8.5670543108
 10
-35.6982980717
 20
8.5526638452
 10
-35.6929719906
 20
8.5382195994
 10
-35.6874085819
 20
8.5237297547
 10
-35.6816109966
 20
8.5092025183
 10
-35.6755825185
 20
8.4946461186
 10
-35.6693265624
 20
8.4800688005
 10
-35.6628466715
 20
8.4654788208
 10
-35.6561465163
 20
8.4508844433
 10
-35.6492298917
 20
8.4362939345
 10
-35.6421007154
 20
8.4217155586
 10
-35.6347630254
 20
8.4071575729
 10
-35.6272209779
 20
8.3926282232
 10
-35.6194788448
 20
8.3781357392
 10
-35.6115410113
 20
8.3636883294
 10
-35.6034119735
 20
8.3492941772
 10
-35.5950963357
 20
8.3349614354
 10
-35.586598808
 20
8.3206982223
 10
-35.5779242035
 20
8.3065126167
 10
-35.5690774357
 20
8.2924126536
 10
-35.5600635153
 20
8.2784063192
 10
-35.550887548
 20
8.2645015469
 10
-35.5415547312
 20
8.2507062125
 10
-35.532070351
 20
8.2370281299
 10
-35.5224397795
 20
8.2234750464
 10
-35.5126684716
 20
8.2100546386
 10
-35.5027619618
 20
8.1967745081
 10
-35.4927258613
 20
8.1836421768
 10
-35.4825658547
 20
8.170665083
 10
-35.4722876966
 20
8.1578505771
 10
-35.4618972088
 20
8.1452059173
 10
-35.4514002765
 20
8.1327382657
 10
-35.4408028452
 20
8.1204546842
 10
-35.4301109176
 20
8.1083621302
 10
-35.4193305495
 20
8.0964674531
 10
-35.4084678472
 20
8.0847773902
 10
-35.3975289634
 20
8.0732985629
 10
-35.3865200939
 20
8.0620374728
 10
-35.3754474744
 20
8.0510004984
 10
-35.3643173764
 20
8.0401938912
 10
-35.3531361041
 20
8.0296237721
 10
-35.3419099908
 20
8.0192961282
 10
-35.3306453951
 20
8.0092168091
 10
-35.3193486972
 20
7.9993915238
 10
-35.3080262959
 20
7.9898258376
 10
-35.2966846042
 20
7.9805251684
 10
-35.2853300461
 20
7.9714947844
 10
-35.2739690531
 20
7.9627398004
  0
LINE
  5
240
100
AcDbEntity
  8
RACCORDO
100
AcDbLine
 62
250
  6
CONTINUOUS
 10
-37.1835099896
 20
17.9339020204
 11
-37.1835099896
 21
28.9295548053
  0
LINE
  5
241
100
AcDbEntity
  8
RACCORDO
100
AcDbLine
 62
7
  6
CONTINUOUS
 10
-37.0245091696
 20
18.1924746013
 11
-37.0245091696
 21
29.1881273862
  0
LINE
  5
242
100
AcDbEntity
  8
ASSI
100
AcDbLine
 62
7
  6
CONTINUOUS
 10
-36.5359152514
 20
29.3774031018
 11
-36.5359152514
 21
18.205115959
  0
LINE
  5
243
100
AcDbEntity
  8
RACCORDO
100
AcDbLine
 62
250
  6
CONTINUOUS
 10
-35.5003711531
 20
8.9852213014
 11
-35.5003711531
 21
18.3831011432
  0
LINE
  5
244
100
AcDbEntity
  8
RACCORDO
100
AcDbLine
 62
250
  6
CONTINUOUS
 10
-35.5003711531
 20
30.7000379126
 11
-35.5003711531
 21
39.8631314633
  0
LINE
  5
245
100
AcDbEntity
  8
RACCORDO
100
AcDbLine
 62
7
  6
CONTINUOUS
 10
-35.3413620198
 20
9.2413746842
 11
-35.3413703332
 21
18.6416737241
  0
LINE
  5
246
100
AcDbEntity
  8
RACCORDO
100
AcDbLine
 62
7
  6
CONTINUOUS
 10
-35.3413703332
 20
30.9586104936
 11
-35.3413703332
 21
39.7507009053
  0
LINE
  5
247
100
AcDbEntity
  8
ASSI
100
AcDbLine
 62
7
  6
CONTINUOUS
 10
-34.9802803328
 20
30.4774031018
 11
-34.9802803328
 21
19.305115959
  0
LWPOLYLINE
  5
248
100
AcDbEntity
  8
RACCORDO
100
AcDbPolyline
 62
7
  6
CONTINUOUS
 90
83
 70
0
 10
-37.02450918
 20
29.1881296808
 10
-37.0245053657
 20
29.1887511562
 10
-37.0244854158
 20
29.1897701464
 10
-37.0244420793
 20
29.1910295295
 10
-37.0243685983
 20
29.1925275575
 10
-37.0242585112
 20
29.1942609359
 10
-37.0241054566
 20
29.1962285034
 10
-37.0239031614
 20
29.1984297686
 10
-37.0236455791
 20
29.2008631771
 10
-37.0233267797
 20
29.2035272736
 10
-37.0229408483
 20
29.206421325
 10
-37.0224818196
 20
29.2095455297
 10
-37.0219439725
 20
29.2128988439
 10
-37.0213217544
 20
29.2164796958
 10
-37.0206093908
 20
29.2202879956
 10
-37.0198013158
 20
29.2243227426
 10
-37.0188923227
 20
29.2285816177
 10
-37.0178772131
 20
29.2330627591
 10
-37.0167508671
 20
29.2377641297
 10
-37.0155083735
 20
29.2426832132
 10
-37.0141449899
 20
29.2478173061
 10
-37.0126560495
 20
29.2531638049
 10
-37.01103708
 20
29.2587195517
 10
-37.0092838672
 20
29.2644808993
 10
-37.0073920628
 20
29.270445068
 10
-37.0053578758
 20
29.2766078313
 10
-37.0031782512
 20
29.2829630569
 10
-37.0008493906
 20
29.2895073045
 10
-36.9983682132
 20
29.2962355107
 10
-36.9957333004
 20
29.3031386842
 10
-36.9929418882
 20
29.3102118909
 10
-36.9899914664
 20
29.3174499536
 10
-36.9868816796
 20
29.3248430494
 10
-36.9836105668
 20
29.3323857303
 10
-36.9801765156
 20
29.3400719788
 10
-36.976580443
 20
29.3478907799
 10
-36.9728211399
 20
29.3558364671
 10
-36.9688980757
 20
29.3639020781
 10
-36.9648140659
 20
29.3720744245
 10
-36.9605691428
 20
29.380346771
 10
-36.9561635659
 20
29.3887122252
 10
-36.9516013813
 20
29.3971571521
 10
-36.9468835817
 20
29.4056744098
 10
-36.9420114325
 20
29.4142567709
 10
-36.936990215
 20
29.4228903399
 10
-36.9318217432
 20
29.4315678974
 10
-36.9265083379
 20
29.44028181
 10
-36.9210568494
 20
29.4490175474
 10
-36.9154701481
 20
29.457767563
 10
-36.9097513281
 20
29.4665243808
 10
-36.9039083482
 20
29.4752736847
 10
-36.8979449355
 20
29.4840080298
 10
-36.8918650174
 20
29.4927200218
 10
-36.8856775715
 20
29.5013956653
 10
-36.8793870512
 20
29.5100278886
 10
-36.872998194
 20
29.5186094548
 10
-36.8665211104
 20
29.5271265397
 10
-36.8599610105
 20
29.535572442
 10
-36.8533232437
 20
29.5439404278
 10
-36.8466188136
 20
29.552217204
 10
-36.8398535323
 20
29.5603966099
 10
-36.8330332849
 20
29.5684725618
 10
-36.8261697616
 20
29.576432565
 10
-36.8192694722
 20
29.5842708537
 10
-36.8123384711
 20
29.5919824325
 10
-36.8053881552
 20
29.5995566755
 10
-36.7984251398
 20
29.6069887884
 10
-36.7914558987
 20
29.6142744399
 10
-36.7844918413
 20
29.621404422
 10
-36.7775394938
 20
29.6283750326
 10
-36.7706056437
 20
29.6351826229
 10
-36.7637022249
 20
29.6418188609
 10
-36.7568356984
 20
29.648281085
 10
-36.7500128572
 20
29.6545666015
 10
-36.7432461679
 20
29.6606679298
 10
-36.7365420028
 20
29.6665834723
 10
-36.7299069993
 20
29.6723115999
 10
-36.7233539673
 20
29.6778458086
 10
-36.716889105
 20
29.6831856572
 10
-36.7105185605
 20
29.6883308503
 10
-36.7042549329
 20
29.6932762715
 10
-36.6981062585
 20
29.6980209614
 10
-36.6916565799
 20
29.7028798836
  0
LWPOLYLINE
  5
249
100
AcDbEntity
  8
RACCORDO
100
AcDbPolyline
 62
250
  6
CONTINUOUS
 90
70
 70
0
 10
-37.1835099896
 20
28.9295548053
 10
-37.1833783754
 20
28.9417132782
 10
-37.1829779591
 20
28.954050475
 10
-37.1823087408
 20
28.9665663957
 10
-37.1813709142
 20
28.9792688012
 10
-37.1801642855
 20
28.9921499306
 10
-37.1786882734
 20
29.0051865009
 10
-37.1769419464
 20
29.0183789495
 10
-37.1749262359
 20
29.031726839
 10
-37.1726433553
 20
29.0452055746
 10
-37.170092384
 20
29.0588155963
 10
-37.1672742425
 20
29.0725564641
 10
-37.1641939054
 20
29.0864022632
 10
-37.1608507556
 20
29.1003525018
 10
-37.1572454102
 20
29.1144076718
 10
-37.1533846948
 20
29.1285433334
 10
-37.1492688875
 20
29.1427571137
 10
-37.1448977101
 20
29.1570513857
 10
-37.1402771544
 20
29.1714088291
 10
-37.1354073363
 20
29.1858288382
 10
-37.1302881398
 20
29.2003120187
 10
-37.124925209
 20
29.214842867
 10
-37.1193180881
 20
29.2294223032
 10
-37.1134672329
 20
29.2440494073
 10
-37.1073796547
 20
29.2587059148
 10
-37.1010544599
 20
29.2733932002
 10
-37.0944925422
 20
29.288109889
 10
-37.0877035933
 20
29.3028335943
 10
-37.0806871724
 20
29.3175643345
 10
-37.0734437202
 20
29.3323020912
 10
-37.065984251
 20
29.3470244219
 10
-37.0583088166
 20
29.3617305233
 10
-37.0504173651
 20
29.3764211988
 10
-37.0423207553
 20
29.3910764164
 10
-37.034018939
 20
29.4056957968
 10
-37.0255119644
 20
29.4202797193
 10
-37.016810835
 20
29.4348092898
 10
-37.0079151756
 20
29.4492847055
 10
-36.9988253614
 20
29.4637057692
 10
-36.9895535225
 20
29.4780529948
 10
-36.9800989016
 20
29.4923269989
 10
-36.9704622561
 20
29.5065271649
 10
-36.9606579875
 20
29.5206321569
 10
-36.9506856665
 20
29.5346419492
 10
-36.9405457225
 20
29.5485565675
 10
-36.9302538458
 20
29.5623547526
 10
-36.9198106075
 20
29.5760352662
 10
-36.9092154366
 20
29.5895993467
 10
-36.8984823104
 20
29.6030294495
 10
-36.8876118899
 20
29.6163245619
 10
-36.8766035142
 20
29.6294856968
 10
-36.865469178
 20
29.6424983474
 10
-36.854208579
 20
29.655362759
 10
-36.8428220195
 20
29.6680786865
 10
-36.8313224014
 20
29.6806308876
 10
-36.8197077738
 20
29.6930210656
 10
-36.8079800875
 20
29.7052475173
 10
-36.7961580972
 20
29.71728989
 10
-36.7842404783
 20
29.7291487226
 10
-36.7722285554
 20
29.7408234762
 10
-36.7601450572
 20
29.7522921824
 10
-36.7479896754
 20
29.7635541911
 10
-36.7357627183
 20
29.7746101523
 10
-36.7234878392
 20
29.7854400467
 10
-36.7111649482
 20
29.7960430358
 10
-36.6987941352
 20
29.8064199582
 10
-36.6863993233
 20
29.8165533101
 10
-36.6739884868
 20
29.826437257
 10
-36.6615536514
 20
29.8360776336
 10
-36.649094817
 20
29.8454744398
  0
LWPOLYLINE
  5
24A
100
AcDbEntity
  8
RACCORDO
100
AcDbPolyline
 62
250
  6
CONTINUOUS
 90
11
 70
0
 10
-35.7513679051
 20
39.9324145327
 10
-35.7512327033
 20
39.9440912712
 10
-35.7508271742
 20
39.9555563544
 10
-35.7501515476
 20
39.9668032882
 10
-35.7492062062
 20
39.9778257023
 10
-35.7479916854
 20
39.9886173535
 10
-35.7465086732
 20
39.9991721293
 10
-35.7447580095
 20
40.0094840513
 10
-35.742740686
 20
40.0195472787
 10
-35.7404578452
 20
40.0293561117
 10
-35.7403512443
 20
40.0297557556
  0
LWPOLYLINE
  5
24B
100
AcDbEntity
  8
RACCORDO
100
AcDbPolyline
 62
7
  6
CONTINUOUS
 90
38
 70
0
 10
-35.3413703332
 20
30.958608257
 10
-35.3415042184
 20
30.9470403911
 10
-35.341947049
 20
30.9346025108
 10
-35.3426988706
 20
30.9221856065
 10
-35.3437593934
 20
30.9097909005
 10
-35.3451294065
 20
30.8974145569
 10
-35.3468094798
 20
30.8850607667
 10
-35.3487989599
 20
30.8727417433
 10
-35.3510973414
 20
30.8604657356
 10
-35.3537037804
 20
30.8482414159
 10
-35.3566174119
 20
30.8360763949
 10
-35.3598374592
 20
30.8239773206
 10
-35.363362611
 20
30.8119523281
 10
-35.3671913489
 20
30.8000094504
 10
-35.3713224718
 20
30.7881551972
 10
-35.3757541853
 20
30.7763974237
 10
-35.3804843416
 20
30.7647442955
 10
-35.385511061
 20
30.7532027917
 10
-35.390831944
 20
30.7417806989
 10
-35.3964442438
 20
30.730486021
 10
-35.4023453386
 20
30.7193260307
 10
-35.4085321165
 20
30.7083085196
 10
-35.415001274
 20
30.6974411512
 10
-35.4217496548
 20
30.6867309498
 10
-35.4287734428
 20
30.6761856256
 10
-35.4360687898
 20
30.6658125104
 10
-35.4436322814
 20
30.6556180148
 10
-35.451459549
 20
30.6456095664
 10
-35.4595461214
 20
30.6357943364
 10
-35.4678882638
 20
30.6261783292
 10
-35.4764812904
 20
30.6167684445
 10
-35.4853199036
 20
30.6075719037
 10
-35.4943992408
 20
30.5985951313
 10
-35.5037144939
 20
30.5898442611
 10
-35.5132592373
 20
30.5813266365
 10
-35.5230257721
 20
30.5730501994
 10
-35.5330090795
 20
30.565020177
 10
-35.5429333171
 20
30.5574430131
  0
LWPOLYLINE
  5
24C
100
AcDbEntity
  8
RACCORDO
100
AcDbPolyline
 62
250
  6
CONTINUOUS
 90
30
 70
0
 10
-37.7541877753
 20
0.8240681544
 10
-37.7588166651
 20
0.6174435374
 10
-37.7638740966
 20
0.408255259
 10
-37.76935164
 20
0.1965352544
 10
-37.775260388
 20
-0.018300078
 10
-37.7815832288
 20
-0.2355928148
 10
-37.7882602626
 20
-0.4534701931
 10
-37.795318946
 20
-0.672963045
 10
-37.8027275866
 20
-0.8929922276
 10
-37.8103096031
 20
-1.1086033825
 10
-37.8180326508
 20
-1.3193805419
 10
-37.8259054958
 20
-1.5258085577
 10
-37.8337793418
 20
-1.7243906501
 10
-37.8415883989
 20
-1.9140592269
 10
-37.849366344
 20
-2.0960250117
 10
-37.8570964817
 20
-2.2702550893
 10
-37.864745078
 20
-2.4363652348
 10
-37.8723244614
 20
-2.5948631769
 10
-37.8798870053
 20
-2.747043563
 10
-37.8874402107
 20
-2.8931991011
 10
-37.8949717652
 20
-3.0331149536
 10
-37.9025056767
 20
-3.1673094152
 10
-37.9100334497
 20
-3.2957327855
 10
-37.9175624686
 20
-3.4184966856
 10
-37.9251391209
 20
-3.5363540754
 10
-37.9327702592
 20
-3.6494229071
 10
-37.9404582679
 20
-3.7576206296
 10
-37.9482409858
 20
-3.8613939215
 10
-37.9561334561
 20
-3.9608997982
 10
-37.9641408941
 20
-4.0559913183
  0
LWPOLYLINE
  5
24D
100
AcDbEntity
  8
RACCORDO
100
AcDbPolyline
 62
250
  6
CONTINUOUS
 90
61
 70
0
 10
-36.649094817
 20
17.7227560126
 10
-36.6483767307
 20
17.7326334332
 10
-36.6478937483
 20
17.7426819577
 10
-36.647646202
 20
17.7528946728
 10
-36.6476342621
 20
17.7632645518
 10
-36.6478579369
 20
17.7737844604
 10
-36.6483170724
 20
17.7844471607
 10
-36.6490113528
 20
17.7952453167
 10
-36.6499403003
 20
17.8061714992
 10
-36.651103276
 20
17.817218191
 10
-36.6524994795
 20
17.8283777917
 10
-36.6541279504
 20
17.8396426236
 10
-36.6559875682
 20
17.8510049363
 10
-36.6580770535
 20
17.8624569126
 10
-36.6603949687
 20
17.8739906733
 10
-36.662939719
 20
17.8855982831
 10
-36.6657095537
 20
17.897271756
 10
-36.6687025671
 20
17.9090030605
 10
-36.6719166999
 20
17.9207841254
 10
-36.6753497409
 20
17.9326068452
 10
-36.678999328
 20
17.9444630859
 10
-36.6828629503
 20
17.9563446902
 10
-36.6869379496
 20
17.9682434836
 10
-36.6912215223
 20
17.9801512795
 10
-36.6957107213
 20
17.9920598854
 10
-36.7004024579
 20
18.003961108
 10
-36.7052935042
 20
18.0158467592
 10
-36.7103804951
 20
18.0277086617
 10
-36.7156599308
 20
18.0395386543
 10
-36.7211281789
 20
18.0513285979
 10
-36.7267814773
 20
18.063070381
 10
-36.7326159364
 20
18.0747559251
 10
-36.7386275421
 20
18.0863771906
 10
-36.7448121584
 20
18.0979261819
 10
-36.7511655302
 20
18.1093949532
 10
-36.7576832864
 20
18.120775614
 10
-36.7643609426
 20
18.1320603342
 10
-36.7711939046
 20
18.14324135
 10
-36.7781774714
 20
18.1543109686
 10
-36.7853068381
 20
18.1652615742
 10
-36.7925770996
 20
18.1760856327
 10
-36.7999832541
 20
18.1867756969
 10
-36.807520206
 20
18.1973244122
 10
-36.8151827699
 20
18.2077245209
 10
-36.8229656738
 20
18.2179688676
 10
-36.8308635631
 20
18.2280504043
 10
-36.8388710039
 20
18.2379621947
 10
-36.8469824872
 20
18.2476974194
 10
-36.8551924321
 20
18.2572493807
 10
-36.8634951901
 20
18.2666115065
 10
-36.8718850489
 20
18.2757773558
 10
-36.8803562362
 20
18.2847406225
 10
-36.8889029238
 20
18.2934951396
 10
-36.8975192316
 20
18.3020348841
 10
-36.9061992313
 20
18.3103539805
 10
-36.9149369512
 20
18.3184467053
 10
-36.9237263796
 20
18.3263074905
 10
-36.9325614694
 20
18.3339309281
 10
-36.9414361419
 20
18.3413117729
 10
-36.9503442913
 20
18.3484449469
 10
-36.9592797887
 20
18.3553255424
  0
LWPOLYLINE
  5
24E
100
AcDbEntity
  8
RACCORDO
100
AcDbPolyline
 62
250
  6
CONTINUOUS
 90
41
 70
0
 10
-35.5003711531
 20
18.3831011432
 10
-35.4996530642
 20
18.3929786084
 10
-35.4991700811
 20
18.403027179
 10
-35.4989225363
 20
18.4132399416
 10
-35.4989106001
 20
18.4236098694
 10
-35.4991342806
 20
18.434129828
 10
-35.499593424
 20
18.4447925796
 10
-35.5002877143
 20
18.4555907883
 10
-35.501216674
 20
18.4665170245
 10
-35.5023796638
 20
18.4775637706
 10
-35.5037758836
 20
18.488723426
 10
-35.5054043726
 20
18.499988313
 10
-35.5072640106
 20
18.5113506809
 10
-35.5093535179
 20
18.5228027126
 10
-35.5116714571
 20
18.5343365286
 10
-35.5142162331
 20
18.5459441936
 10
-35.5169860953
 20
18.5576177212
 10
-35.5199791378
 20
18.56934908
 10
-35.5231933014
 20
18.5811301984
 10
-35.5266263746
 20
18.5929529708
 10
-35.5302759954
 20
18.6048092632
 10
-35.5341396527
 20
18.616690918
 10
-35.5382146882
 20
18.6285897605
 10
-35.5424982983
 20
18.6404976041
 10
-35.5469875355
 20
18.6524062561
 10
-35.5516793114
 20
18.6643075229
 10
-35.5565703977
 20
18.6761932165
 10
-35.5616574294
 20
18.6880551593
 10
-35.5669369063
 20
18.69988519
 10
-35.572405196
 20
18.7116751695
 10
-35.5780585364
 20
18.7234169861
 10
-35.5838930378
 20
18.7351025614
 10
-35.5899046858
 20
18.7467238555
 10
-35.5960893446
 20
18.7582728731
 10
-35.6024427588
 20
18.7697416682
 10
-35.6089605573
 20
18.7811223503
 10
-35.615638256
 20
18.7924070899
 10
-35.6224712605
 20
18.8035881228
 10
-35.6294548696
 20
18.8146577564
 10
-35.6365842791
 20
18.8256083757
 10
-35.6436112499
 20
18.8360701694
  0
LINE
  5
24F
100
AcDbEntity
  8
RACCORDO
100
AcDbLine
 62
250
  6
CONTINUOUS
 10
-37.9641408941
 20
-4.0559913183
 11
-37.9752284718
 21
-4.1781558325
  0
LINE
  5
250
100
AcDbEntity
  8
RACCORDO
100
AcDbLine
 62
250
  6
CONTINUOUS
 10
-37.9752284718
 20
-4.1781558325
 11
-37.981070554
 21
-4.2382467248
  0
LINE
  5
251
100
AcDbEntity
  8
RACCORDO
100
AcDbLine
 62
250
  6
CONTINUOUS
 10
-37.981070554
 20
-4.2382467248
 11
-37.9868097118
 21
-4.2944648549
  0
LINE
  5
252
100
AcDbEntity
  8
RACCORDO
100
AcDbLine
 62
250
  6
CONTINUOUS
 10
-37.9868097118
 20
-4.2944648549
 11
-37.9924548865
 21
-4.3471021667
  0
LINE
  5
253
100
AcDbEntity
  8
RACCORDO
100
AcDbLine
 62
250
  6
CONTINUOUS
 10
-37.9924548865
 20
-4.3471021667
 11
-37.9980039565
 21
-4.3963270714
  0
LINE
  5
254
100
AcDbEntity
  8
RACCORDO
100
AcDbLine
 62
250
  6
CONTINUOUS
 10
-37.9980039565
 20
-4.3963270714
 11
-38.0034631911
 21
-4.4423769834
  0
LINE
  5
255
100
AcDbEntity
  8
RACCORDO
100
AcDbLine
 62
250
  6
CONTINUOUS
 10
-38.0034631911
 20
-4.4423769834
 11
-38.008840225
 21
-4.4854819412
  0
LINE
  5
256
100
AcDbEntity
  8
RACCORDO
100
AcDbLine
 62
250
  6
CONTINUOUS
 10
-38.008840225
 20
-4.4854819412
 11
-38.0141361432
 21
-4.5258023813
  0
LINE
  5
257
100
AcDbEntity
  8
RACCORDO
100
AcDbLine
 62
250
  6
CONTINUOUS
 10
-38.0141361432
 20
-4.5258023813
 11
-38.0193623382
 21
-4.5635668317
  0
LINE
  5
258
100
AcDbEntity
  8
RACCORDO
100
AcDbLine
 62
250
  6
CONTINUOUS
 10
-38.0193623382
 20
-4.5635668317
 11
-38.0245340721
 21
-4.5990048371
  0
LWPOLYLINE
  5
259
100
AcDbEntity
  8
RACCORDO
100
AcDbPolyline
 62
250
  6
CONTINUOUS
 90
56
 70
0
 10
-38.0245340721
 20
-4.5990048371
 10
-38.0296592448
 20
-4.6322724103
 10
-38.0322125057
 20
-4.6481731113
 10
-38.0347583141
 20
-4.6635884609
 10
-38.0373084801
 20
-4.678596573
 10
-38.0398649053
 20
-4.6932126512
 10
-38.0424247264
 20
-4.7074220979
 10
-38.0449933584
 20
-4.7212574072
 10
-38.0475777168
 20
-4.7347567059
 10
-38.0501706777
 20
-4.7478812189
 10
-38.0527552372
 20
-4.7605499919
 10
-38.0553266055
 20
-4.7727516519
 10
-38.0578858011
 20
-4.7845014709
 10
-38.0604219645
 20
-4.795762051
 10
-38.062925132
 20
-4.8065080072
 10
-38.0653987687
 20
-4.8167723058
 10
-38.0678516924
 20
-4.8266058381
 10
-38.0702804733
 20
-4.8360096244
 10
-38.072682782
 20
-4.8449892399
 10
-38.0750705502
 20
-4.8536004181
 10
-38.0774435172
 20
-4.8618526313
 10
-38.0797973081
 20
-4.8697413919
 10
-38.0821391661
 20
-4.8772993338
 10
-38.0844679272
 20
-4.8845313739
 10
-38.0867804045
 20
-4.8914371085
 10
-38.089081904
 20
-4.8980394342
 10
-38.0913700158
 20
-4.9043391716
 10
-38.0936427937
 20
-4.9103399445
 10
-38.0959074375
 20
-4.9160667505
 10
-38.0981621807
 20
-4.921521061
 10
-38.1004048405
 20
-4.9267050552
 10
-38.1026434906
 20
-4.9316419815
 10
-38.1048781947
 20
-4.9363357345
 10
-38.107105591
 20
-4.9407846837
 10
-38.1093299338
 20
-4.9450010044
 10
-38.1115526063
 20
-4.948990149
 10
-38.1137689519
 20
-4.95274839
 10
-38.1159744871
 20
-4.9562728908
 10
-38.1181667824
 20
-4.9595650272
 10
-38.1203431968
 20
-4.9626280305
 10
-38.1224984688
 20
-4.9654620076
 10
-38.1246258429
 20
-4.9680662641
 10
-38.1267248812
 20
-4.9704502975
 10
-38.1288000488
 20
-4.9726282462
 10
-38.1308456312
 20
-4.9746022023
 10
-38.1328598228
 20
-4.9763799883
 10
-38.1348544567
 20
-4.9779802617
 10
-38.1368282807
 20
-4.9794079872
 10
-38.1387759826
 20
-4.9806663422
 10
-38.1407048522
 20
-4.981766908
 10
-38.1426164763
 20
-4.9827157706
 10
-38.144502896
 20
-4.9835148986
 10
-38.1463572446
 20
-4.9841689636
 10
-38.1481743625
 20
-4.9846845295
 10
-38.1499513316
 20
-4.9850696618
 10
-38.1516842003
 20
-4.9853328442
  0
LWPOLYLINE
  5
25A
100
AcDbEntity
  8
RACCORDO
100
AcDbPolyline
 62
250
  6
CONTINUOUS
 90
16
 70
0
 10
-36.7535409439
 20
7.3745773243
 10
-36.8378545538
 20
6.9293875364
 10
-36.9196630774
 20
6.4853539361
 10
-36.9989665145
 20
6.0424765235
 10
-37.0757689897
 20
5.6007330205
 10
-37.1500663785
 20
5.1601457051
 10
-37.2218463074
 20
4.7207814116
 10
-37.2911081406
 20
4.282640405
 10
-37.3578525138
 20
3.8457224204
 10
-37.4220689605
 20
3.4100934966
 10
-37.4837566705
 20
2.9757554258
 10
-37.5429164541
 20
2.5427064159
 10
-37.5995402748
 20
2.1110071301
 10
-37.6536254541
 20
1.6806777893
 10
-37.7051746706
 20
1.2516981725
 10
-37.7541879244
 20
0.8240682798
  0
LWPOLYLINE
  5
25B
100
AcDbEntity
  8
RACCORDO
100
AcDbPolyline
 62
250
  6
CONTINUOUS
 90
16
 70
0
 10
-35.7919636489
 20
7.2521250952
 10
-35.8756426953
 20
6.8104158692
 10
-35.9568422624
 20
6.3698188184
 10
-36.0355588199
 20
5.9303512444
 10
-36.1117899134
 20
5.4920253791
 10
-36.1855311548
 20
5.0548635034
 10
-36.2567765033
 20
4.6188977999
 10
-36.3255230288
 20
4.1841452458
 10
-36.3917679335
 20
3.7506228236
 10
-36.4555060226
 20
3.3183623826
 10
-36.5167346846
 20
2.8873821624
 10
-36.5754518877
 20
2.4576973039
 10
-36.6316538792
 20
2.0293346937
 10
-36.6853382395
 20
1.6023142056
 10
-36.7365036843
 20
1.1766488107
 10
-36.8101701387
 20
0.5328364232
  0
LWPOLYLINE
  5
25C
100
AcDbEntity
  8
RACCORDO
100
AcDbPolyline
 62
250
  6
CONTINUOUS
 90
30
 70
0
 10
-37.6667300293
 20
-4.3284720107
 10
-37.6408460593
 20
-4.2412140011
 10
-37.6148496832
 20
-4.1492455065
 10
-37.5887194642
 20
-4.052552455
 10
-37.5624505765
 20
-3.9512721112
 10
-37.5360028951
 20
-3.8452379034
 10
-37.509298125
 20
-3.733977524
 10
-37.4823073721
 20
-3.6175864924
 10
-37.4550034448
 20
-3.4959331479
 10
-37.4273015237
 20
-3.3681985803
 10
-37.3991249609
 20
-3.234293557
 10
-37.3704761553
 20
-3.0942600266
 10
-37.3413781629
 20
-2.9474690836
 10
-37.3118053424
 20
-2.7941693253
 10
-37.2816939876
 20
-2.634056185
 10
-37.2509934292
 20
-2.4656605992
 10
-37.2195291128
 20
-2.288510026
 10
-37.1873485402
 20
-2.1029984653
 10
-37.1547207005
 20
-1.9089485509
 10
-37.1214051821
 20
-1.7051230269
 10
-37.0874963384
 20
-1.4926709855
 10
-37.0537988862
 20
-1.2750162705
 10
-37.0202941338
 20
-1.0515946706
 10
-36.9869224432
 20
-0.8229269121
 10
-36.9545160157
 20
-0.5941197845
 10
-36.9233213726
 20
-0.3662279239
 10
-36.8931290458
 20
-0.1382247418
 10
-36.8641598213
 20
0.0878604544
 10
-36.8365180604
 20
0.3113311005
 10
-36.8101701387
 20
0.5328364232
  0
LWPOLYLINE
  5
25D
100
AcDbEntity
  8
RACCORDO
100
AcDbPolyline
 62
250
  6
CONTINUOUS
 90
52
 70
0
 10
-37.6667300293
 20
-4.3284720107
 10
-37.6767862047
 20
-4.3611733011
 10
-37.6866973487
 20
-4.3928042971
 10
-37.6964653557
 20
-4.4233662614
 10
-37.7060909402
 20
-4.4528321883
 10
-37.7155770376
 20
-4.4812315215
 10
-37.7249286574
 20
-4.5086500549
 10
-37.7341473514
 20
-4.5350911828
 10
-37.743234609
 20
-4.5605535488
 10
-37.7521950319
 20
-4.5851156115
 10
-37.7610286557
 20
-4.6087773819
 10
-37.7697380041
 20
-4.6315405691
 10
-37.7783311325
 20
-4.6534859918
 10
-37.7868078383
 20
-4.674614367
 10
-37.795170445
 20
-4.6949264069
 10
-37.8034305388
 20
-4.7145027495
 10
-37.8115876305
 20
-4.7333446674
 10
-37.8196439451
 20
-4.7514520603
 10
-37.827614907
 20
-4.7689033495
 10
-37.8354996237
 20
-4.7857002071
 10
-37.8433003916
 20
-4.8018419111
 10
-37.8510372107
 20
-4.8174031511
 10
-37.8587087648
 20
-4.8323862012
 10
-37.8663174911
 20
-4.8467895475
 10
-37.8738888364
 20
-4.860682073
 10
-37.8814289608
 20
-4.87407848
 10
-37.8889325787
 20
-4.88696466
 10
-37.8964078497
 20
-4.8993662001
 10
-37.9038635719
 20
-4.9112960392
 10
-37.9112917041
 20
-4.9227417533
 10
-37.918675124
 20
-4.9336908703
 10
-37.9260169177
 20
-4.9441426661
 10
-37.9333147337
 20
-4.9540983655
 10
-37.940543312
 20
-4.963548433
 10
-37.9476967548
 20
-4.9724815639
 10
-37.9547816622
 20
-4.9809095426
 10
-37.9617915078
 20
-4.9888574584
 10
-37.9687192829
 20
-4.9963186076
 10
-37.9755725943
 20
-5.003300103
 10
-37.9823667788
 20
-5.0098477178
 10
-37.9890969345
 20
-5.015962042
 10
-37.9957684314
 20
-5.021642806
 10
-38.0024119392
 20
-5.0269344429
 10
-38.0090228818
 20
-5.0318417734
 10
-38.0156061891
 20
-5.0363602192
 10
-38.0222067237
 20
-5.0405200685
 10
-38.0288179538
 20
-5.044329815
 10
-38.035446676
 20
-5.0477811467
 10
-38.0421576937
 20
-5.0508791081
 10
-38.0489726671
 20
-5.0536254213
 10
-38.0558701339
 20
-5.0560185001
 10
-38.0628501895
 20
-5.0580584099
  0
LINE
  5
25E
100
AcDbEntity
  8
ASSI
100
AcDbLine
 62
7
  6
CONTINUOUS
 10
-34.9802803328
 20
19.305115959
 11
-36.5359152514
 21
18.205115959
  0
LWPOLYLINE
  5
25F
100
AcDbEntity
  8
RACCORDO
100
AcDbPolyline
 62
250
  6
CONTINUOUS
 90
32
 70
0
 10
-37.1835099896
 20
17.9339020204
 10
-37.1738471206
 20
17.9404466987
 10
-37.1644353771
 20
17.9471718659
 10
-37.1552814993
 20
17.9540727059
 10
-37.1463920426
 20
17.9611442766
 10
-37.1377733732
 20
17.9683815137
 10
-37.1294316634
 20
17.9757792344
 10
-37.121372887
 20
17.9833321407
 10
-37.1136028153
 20
17.9910348237
 10
-37.1061270129
 20
17.9988817671
 10
-37.0989508334
 20
18.0068673513
 10
-37.0920794161
 20
18.0149858576
 10
-37.0855176819
 20
18.0232314719
 10
-37.07927033
 20
18.031598289
 10
-37.0733418344
 20
18.0400803172
 10
-37.0677364408
 20
18.0486714821
 10
-37.0624581634
 20
18.057365631
 10
-37.0575107823
 20
18.0661565378
 10
-37.0528978406
 20
18.0750379069
 10
-37.0486226418
 20
18.0840033779
 10
-37.0446882474
 20
18.0930465301
 10
-37.0410974753
 20
18.1021608875
 10
-37.0378528968
 20
18.1113399227
 10
-37.0349568356
 20
18.1205770622
 10
-37.0324113656
 20
18.1298656909
 10
-37.0302183098
 20
18.1391991568
 10
-37.0283792388
 20
18.1485707757
 10
-37.0268954696
 20
18.1579738362
 10
-37.0257680648
 20
18.1674016043
 10
-37.0249978317
 20
18.1768473284
 10
-37.024585322
 20
18.1863042438
 10
-37.0245091698
 20
18.192464485
  0
LWPOLYLINE
  5
260
100
AcDbEntity
  8
RACCORDO
100
AcDbPolyline
 62
250
  6
CONTINUOUS
 90
34
 70
0
 10
-35.5003711531
 20
18.3831011432
 10
-35.4911627174
 20
18.3893300835
 10
-35.4821817691
 20
18.395722941
 10
-35.4734341421
 20
18.4022755628
 10
-35.4649255185
 20
18.4089836926
 10
-35.4566614255
 20
18.4158429729
 10
-35.4486472313
 20
18.422848948
 10
-35.4408881416
 20
18.4299970671
 10
-35.4333891967
 20
18.4372826868
 10
-35.4261552677
 20
18.4447010745
 10
-35.4191910537
 20
18.4522474113
 10
-35.4125010784
 20
18.4599167953
 10
-35.4060896876
 20
18.4677042446
 10
-35.399961046
 20
18.4756047005
 10
-35.3941191345
 20
18.4836130312
 10
-35.3885677479
 20
18.4917240345
 10
-35.3833104924
 20
18.4999324418
 10
-35.3783507828
 20
18.5082329209
 10
-35.3736918408
 20
18.51662008
 10
-35.3693366929
 20
18.525088471
 10
-35.365288168
 20
18.533632593
 10
-35.3615488959
 20
18.5422468958
 10
-35.3581213056
 20
18.5509257838
 10
-35.3550076234
 20
18.5596636194
 10
-35.352209872
 20
18.5684547265
 10
-35.3497298686
 20
18.5772933947
 10
-35.3475692243
 20
18.5861738825
 10
-35.3457293423
 20
18.5950904212
 10
-35.344211418
 20
18.604037219
 10
-35.3430164371
 20
18.613008464
 10
-35.3421451759
 20
18.6219983287
 10
-35.3415982003
 20
18.6310009735
 10
-35.3413758655
 20
18.6400105505
 10
-35.3413703332
 20
18.6416737241
  0
LINE
  5
261
100
AcDbEntity
  8
RACCORDO
100
AcDbLine
 62
250
  6
CONTINUOUS
 10
-36.8429309234
 20
18.4222088226
 11
-36.9592794783
 21
18.3553257208
  0
LINE
  5
262
100
AcDbEntity
  8
RACCORDO
100
AcDbLine
 62
250
  6
CONTINUOUS
 10
-35.5003711531
 20
18.3831011432
 11
-36.649094817
 21
17.7227560126
  0
LINE
  5
263
100
AcDbEntity
  8
RACCORDO
100
AcDbLine
 62
7
  6
CONTINUOUS
 10
-38.1516848943
 20
-4.985331924
 11
-38.1578215995
 21
-4.9767246018
  0
LINE
  5
264
100
AcDbEntity
  8
RACCORDO
100
AcDbLine
 62
7
  6
CONTINUOUS
 10
-38.1578215995
 20
-4.9767246018
 11
-38.1639021442
 21
-4.9680684356
  0
LINE
  5
265
100
AcDbEntity
  8
RACCORDO
100
AcDbLine
 62
7
  6
CONTINUOUS
 10
-38.1639021442
 20
-4.9680684356
 11
-38.1699264661
 21
-4.9593640119
  0
LWPOLYLINE
  5
266
100
AcDbEntity
  8
RACCORDO
100
AcDbPolyline
 62
250
  6
CONTINUOUS
 90
22
 70
0
 10
-37.6033861505
 20
-5.346579906
 10
-37.6021375237
 20
-5.3574439805
 10
-37.600612072
 20
-5.3680702729
 10
-37.5988106617
 20
-5.3784526228
 10
-37.5967347767
 20
-5.3885848214
 10
-37.5943851437
 20
-5.3984611619
 10
-37.5917617764
 20
-5.4080764844
 10
-37.5888662827
 20
-5.4174250781
 10
-37.5857003277
 20
-5.4265017054
 10
-37.5822642885
 20
-5.4353021809
 10
-37.5785601951
 20
-5.4438214099
 10
-37.5745902245
 20
-5.4520544663
 10
-37.5703552055
 20
-5.459997656
 10
-37.5658576307
 20
-5.4676463739
 10
-37.5611001354
 20
-5.4749961913
 10
-37.5560839881
 20
-5.4820439286
 10
-37.5508121254
 20
-5.4887854977
 10
-37.5452876327
 20
-5.4952169855
 10
-37.5395122193
 20
-5.5013357367
 10
-37.5334889436
 20
-5.507138417
 10
-37.5272216324
 20
-5.5126214327
 10
-37.5207133555
 20
-5.5177820089
  0
LINE
  5
267
100
AcDbEntity
  8
RACCORDO
100
AcDbLine
 62
250
  6
CONTINUOUS
 10
-38.0219211514
 20
51.1713165541
 11
-38.016732981
 21
51.1234813115
  0
LINE
  5
268
100
AcDbEntity
  8
RACCORDO
100
AcDbLine
 62
250
  6
CONTINUOUS
 10
-38.016732981
 20
51.1234813115
 11
-38.0088233217
 21
51.0464995193
  0
LINE
  5
269
100
AcDbEntity
  8
RACCORDO
100
AcDbLine
 62
250
  6
CONTINUOUS
 10
-38.0088233217
 20
51.0464995193
 11
-38.0034507333
 21
50.991347908
  0
LINE
  5
26A
100
AcDbEntity
  8
RACCORDO
100
AcDbLine
 62
250
  6
CONTINUOUS
 10
-38.0034507333
 20
50.991347908
 11
-37.997994925
 21
50.9329158611
  0
LINE
  5
26B
100
AcDbEntity
  8
RACCORDO
100
AcDbLine
 62
250
  6
CONTINUOUS
 10
-37.997994925
 20
50.9329158611
 11
-37.9924483369
 21
50.8709553331
  0
LINE
  5
26C
100
AcDbEntity
  8
RACCORDO
100
AcDbLine
 62
250
  6
CONTINUOUS
 10
-37.9924483369
 20
50.8709553331
 11
-37.9868051421
 21
50.8052176653
  0
LWPOLYLINE
  5
26D
100
AcDbEntity
  8
RACCORDO
100
AcDbPolyline
 62
250
  6
CONTINUOUS
 90
24
 70
0
 10
-35.5003711531
 20
30.7000379126
 10
-35.4996530642
 20
30.6914400471
 10
-35.4991700811
 20
30.6830259984
 10
-35.4989225363
 20
30.6748015554
 10
-35.4989106001
 20
30.6667723767
 10
-35.4991342806
 20
30.6589439864
 10
-35.499593424
 20
30.6513217705
 10
-35.5002877143
 20
30.6439109731
 10
-35.501216674
 20
30.636716693
 10
-35.5023796638
 20
30.6297438802
 10
-35.5037758836
 20
30.6229973321
 10
-35.5054043728
 20
30.6164816904
 10
-35.5072640108
 20
30.610201438
 10
-35.5093535182
 20
30.6041608956
 10
-35.5116714574
 20
30.5983642194
 10
-35.5142162335
 20
30.5928153974
 10
-35.5169860958
 20
30.5875182473
 10
-35.5199791384
 20
30.5824764137
 10
-35.523193302
 20
30.5776933653
 10
-35.5266263753
 20
30.573172393
 10
-35.5302759961
 20
30.5689166071
 10
-35.5341396535
 20
30.5649289357
 10
-35.5382146891
 20
30.5612121223
 10
-35.5429325253
 20
30.557443602
  0
LWPOLYLINE
  5
26E
100
AcDbEntity
  8
RACCORDO
100
AcDbPolyline
 62
250
  6
CONTINUOUS
 90
70
 70
0
 10
-36.649094817
 20
17.7227560126
 10
-36.6615408198
 20
17.7157293518
 10
-36.6739645018
 20
17.7089766806
 10
-36.6863658632
 20
17.7024979989
 10
-36.6987530578
 20
17.6962884525
 10
-36.7111179318
 20
17.6903528956
 10
-36.7234360232
 20
17.6847058914
 10
-36.73570706
 20
17.6793484977
 10
-36.7479313143
 20
17.6742796565
 10
-36.7600851408
 20
17.6695107573
 10
-36.7721682835
 20
17.6650428372
 10
-36.7841809983
 20
17.660874859
 10
-36.7961004086
 20
17.6570151002
 10
-36.8079255372
 20
17.6534647195
 10
-36.8196573612
 20
17.6502225583
 10
-36.8312759351
 20
17.647293418
 10
-36.8427790502
 20
17.6446783085
 10
-36.8541689152
 20
17.64237622
 10
-36.8654322109
 20
17.6403889245
 10
-36.8765684077
 20
17.6387166241
 10
-36.8875780352
 20
17.6373591168
 10
-36.8984493626
 20
17.6363175688
 10
-36.9091829763
 20
17.6355920876
 10
-36.9197782898
 20
17.6351825657
 10
-36.9302218135
 20
17.6350898462
 10
-36.9405142559
 20
17.6353143803
 10
-36.9506549084
 20
17.6358557168
 10
-36.960628156
 20
17.6367133456
 10
-36.9704336705
 20
17.6378878769
 10
-36.9800717801
 20
17.6393787005
 10
-36.9895278541
 20
17.6411834759
 10
-36.9988011038
 20
17.6433026048
 10
-37.0078923179
 20
17.6457356854
 10
-37.016789232
 20
17.6484791723
 10
-37.0254914178
 20
17.6515333576
 10
-37.0339993037
 20
17.6548979491
 10
-37.0423019104
 20
17.6585685246
 10
-37.0503991525
 20
17.6625454971
 10
-37.0582911153
 20
17.6668284536
 10
-37.0659670755
 20
17.6714117331
 10
-37.0734270868
 20
17.6762960396
 10
-37.0806710953
 20
17.681480669
 10
-37.0876882162
 20
17.6869578484
 10
-37.0944780878
 20
17.6927281947
 10
-37.1010410717
 20
17.698791091
 10
-37.1073673673
 20
17.7051369124
 10
-37.1134561272
 20
17.7117655708
 10
-37.1193081989
 20
17.7186771544
 10
-37.1249163243
 20
17.7258623027
 10
-37.1302799674
 20
17.7333206679
 10
-37.1353996643
 20
17.741052598
 10
-37.1402697651
 20
17.749049776
 10
-37.1448903005
 20
17.7573124812
 10
-37.1492612399
 20
17.7658404345
 10
-37.1533768413
 20
17.7746244821
 10
-37.1572373753
 20
17.7836663844
 10
-37.1608425713
 20
17.792964381
 10
-37.1641858759
 20
17.8025040369
 10
-37.1672668099
 20
17.8122867846
 10
-37.1700858525
 20
17.8223111917
 10
-37.172637888
 20
17.8325585256
 10
-37.1749221568
 20
17.8430312128
 10
-37.1769394186
 20
17.8537268269
 10
-37.178686837
 20
17.8646193562
 10
-37.1801630582
 20
17.875705897
 10
-37.1813694361
 20
17.886989353
 10
-37.1823071956
 20
17.8984524234
 10
-37.1829767452
 20
17.9100893413
 10
-37.1833776765
 20
17.9219058736
 10
-37.1835099896
 20
17.9339020204
  0
LWPOLYLINE
  5
26F
100
AcDbEntity
  8
RACCORDO
100
AcDbPolyline
 62
250
  6
CONTINUOUS
 90
15
 70
0
 10
-36.959279461
 20
18.3553257086
 10
-36.964206116
 20
18.352878789
 10
-36.9691280617
 20
18.3505310718
 10
-36.9740431898
 20
18.3482842205
 10
-36.9789504549
 20
18.3461396247
 10
-36.983846644
 20
18.3440991478
 10
-36.9887264102
 20
18.3421649306
 10
-36.9935876037
 20
18.3403383137
 10
-36.9984281392
 20
18.3386205678
 10
-37.0032428306
 20
18.3370133116
 10
-37.0080295785
 20
18.3355175556
 10
-37.012786341
 20
18.3341342641
 10
-37.0175081124
 20
18.3328645609
 10
-37.0221926165
 20
18.3317091857
 10
-37.0245091696
 20
18.3311903325
  0
LWPOLYLINE
  5
270
100
AcDbEntity
  8
RACCORDO
100
AcDbPolyline
 62
250
  6
CONTINUOUS
 90
64
 70
0
 10
48.4990276659
 20
-66.2456773552
 10
48.5112926052
 20
-66.2537960142
 10
48.5238368542
 20
-66.2616882973
 10
48.53665094
 20
-66.2693434394
 10
48.5497226329
 20
-66.2767450129
 10
48.5630442184
 20
-66.2838888338
 10
48.5766128737
 20
-66.2907825913
 10
48.5904182469
 20
-66.297416268
 10
48.6044497253
 20
-66.3037802647
 10
48.6187043103
 20
-66.3098826005
 10
48.6331711157
 20
-66.3157136887
 10
48.6478390346
 20
-66.3212644993
 10
48.6627049475
 20
-66.3265434995
 10
48.677757476
 20
-66.3315415072
 10
48.6929850538
 20
-66.3362500294
 10
48.7083844904
 20
-66.3406780868
 10
48.7239439676
 20
-66.3448168812
 10
48.7396514976
 20
-66.3486584252
 10
48.7555038568
 20
-66.3522123835
 10
48.7714888546
 20
-66.355470327
 10
48.7875941252
 20
-66.3584247457
 10
48.8038164288
 20
-66.3610860202
 10
48.8201432904
 20
-66.3634460839
 10
48.8365620195
 20
-66.3654978791
 10
48.8530693432
 20
-66.3672525531
 10
48.8696526201
 20
-66.3687024055
 10
48.8862989008
 20
-66.3698408094
 10
48.9030048152
 20
-66.3706797073
 10
48.919757712
 20
-66.3712117786
 10
48.936544469
 20
-66.3714308099
 10
48.9533614877
 20
-66.3713495454
 10
48.9701963142
 20
-66.370961067
 10
48.9870357659
 20
-66.3702595614
 10
49.0038757988
 20
-66.3692585615
 10
49.0207044253
 20
-66.367951581
 10
49.0375085508
 20
-66.3663331941
 10
49.0542833618
 20
-66.3644176996
 10
49.0710176759
 20
-66.362199071
 10
49.0876986813
 20
-66.3596722536
 10
49.1043203486
 20
-66.3568522963
 10
49.1208727112
 20
-66.3537336461
 10
49.1373434906
 20
-66.350311592
 10
49.1537248706
 20
-66.3466019482
 10
49.1700085688
 20
-66.3425996185
 10
49.1861831546
 20
-66.3383001843
 10
49.2022383496
 20
-66.3337203045
 10
49.2181680466
 20
-66.3288552733
 10
49.2339620408
 20
-66.3237008742
 10
49.2496068708
 20
-66.3182747865
 10
49.2650990533
 20
-66.3125725664
 10
49.2804300348
 20
-66.3065900513
 10
49.2955825123
 20
-66.3003462345
 10
49.3105559371
 20
-66.2938367475
 10
49.3253438419
 20
-66.2870572633
 10
49.3399246422
 20
-66.2800284846
 10
49.3543007857
 20
-66.2727459101
 10
49.3684682652
 20
-66.2652047622
 10
49.3824011782
 20
-66.257427878
 10
49.3961046861
 20
-66.249410466
 10
49.4095774587
 20
-66.2411469813
 10
49.4227898024
 20
-66.232662704
 10
49.4357362077
 20
-66.2239635527
 10
49.4484315098
 20
-66.2150327694
 10
49.4608791249
 20
-66.2058625809
  0
LINE
  5
271
100
AcDbEntity
  8
RACCORDO
100
AcDbLine
 62
250
  6
CONTINUOUS
 10
-38.072571758
 20
51.5373800596
 11
-38.0677409104
 21
51.5097640953
  0
LINE
  5
272
100
AcDbEntity
  8
RACCORDO
100
AcDbLine
 62
250
  6
CONTINUOUS
 10
-38.0677409104
 20
51.5097640953
 11
-38.0628151038
 21
51.4801233663
  0
LINE
  5
273
100
AcDbEntity
  8
RACCORDO
100
AcDbLine
 62
250
  6
CONTINUOUS
 10
-38.0628151038
 20
51.4801233663
 11
-38.0577773307
 21
51.4482240824
  0
LINE
  5
274
100
AcDbEntity
  8
RACCORDO
100
AcDbLine
 62
250
  6
CONTINUOUS
 10
-38.0577773307
 20
51.4482240824
 11
-38.0526502676
 21
51.414071342
  0
LINE
  5
275
100
AcDbEntity
  8
RACCORDO
100
AcDbLine
 62
250
  6
CONTINUOUS
 10
-38.0526502676
 20
51.414071342
 11
-38.0474815173
 21
51.377876183
  0
LWPOLYLINE
  5
276
100
AcDbEntity
  8
RACCORDO
100
AcDbPolyline
 62
250
  6
CONTINUOUS
 90
16
 70
0
 10
-36.7851484789
 20
45.3297874962
 10
-36.7365036931
 20
44.9696100119
 10
-36.6853382617
 20
44.6113837903
 10
-36.6316539153
 20
44.2551227333
 10
-36.5754519386
 20
43.9008377479
 10
-36.5167347506
 20
43.548545534
 10
-36.4555061012
 20
43.1982684163
 10
-36.3917680209
 20
42.8500185793
 10
-36.3255231217
 20
42.5038106531
 10
-36.2567765972
 20
42.1596701365
 10
-36.1855312431
 20
41.8176099878
 10
-36.1117899906
 20
41.4776431088
 10
-36.0355588836
 20
41.1397943389
 10
-35.9568423116
 20
40.8040801533
 10
-35.8756427277
 20
40.470508913
 10
-35.7919636618
 20
40.1390929274
  0
LWPOLYLINE
  5
277
100
AcDbEntity
  8
RACCORDO
100
AcDbPolyline
 62
250
  6
CONTINUOUS
 90
19
 70
0
 10
-37.7541879246
 20
45.2867924909
 10
-37.7135201701
 20
44.9841641291
 10
-37.6710907872
 20
44.6829171855
 10
-37.6268997759
 20
44.3830516601
 10
-37.5809457801
 20
44.0845586582
 10
-37.5332301559
 20
43.7874470744
 10
-37.4837569712
 20
43.4917435925
 10
-37.4325257518
 20
43.1974471181
 10
-37.379536972
 20
42.9045587456
 10
-37.3247961227
 20
42.6131084414
 10
-37.2683028475
 20
42.3230961657
 10
-37.2100575029
 20
42.0345219584
 10
-37.1500666484
 20
41.747415906
 10
-37.0883301743
 20
41.4617791071
 10
-37.0248481905
 20
41.1776104631
 10
-36.9596275865
 20
40.8949367649
 10
-36.8926706591
 20
40.613766943
 10
-36.8239751115
 20
40.3340920669
 10
-36.7535409439
 20
40.0559121368
  0
LINE
  5
278
100
AcDbEntity
  8
RACCORDO
100
AcDbLine
 62
250
  6
CONTINUOUS
 10
-38.0474815173
 20
51.377876183
 11
-38.0423425281
 21
51.3400886341
  0
LINE
  5
279
100
AcDbEntity
  8
RACCORDO
100
AcDbLine
 62
250
  6
CONTINUOUS
 10
-38.0423425281
 20
51.3400886341
 11
-38.0372432366
 21
51.3007740858
  0
LINE
  5
27A
100
AcDbEntity
  8
RACCORDO
100
AcDbLine
 62
250
  6
CONTINUOUS
 10
-38.0372432366
 20
51.3007740858
 11
-38.0321595473
 21
51.2597352943
  0
LINE
  5
27B
100
AcDbEntity
  8
RACCORDO
100
AcDbLine
 62
250
  6
CONTINUOUS
 10
-38.0321595473
 20
51.2597352943
 11
-38.0270566564
 21
51.2166447932
  0
LINE
  5
27C
100
AcDbEntity
  8
RACCORDO
100
AcDbLine
 62
250
  6
CONTINUOUS
 10
-38.0270566564
 20
51.2166447932
 11
-38.0219211514
 21
51.1713165541
  0
LWPOLYLINE
  5
27D
100
AcDbEntity
  8
RACCORDO
100
AcDbPolyline
 62
250
  6
CONTINUOUS
 90
38
 70
0
 10
-34.9923249802
 20
8.1484524493
 10
-34.9830700318
 20
8.1548755323
 10
-34.9738214261
 20
8.1610519053
 10
-34.9645855019
 20
8.1669773355
 10
-34.955368589
 20
8.1726477619
 10
-34.946177004
 20
8.1780592982
 10
-34.9370170467
 20
8.1832082356
 10
-34.9278949945
 20
8.1880910453
 10
-34.9188170995
 20
8.1927043809
 10
-34.9097895831
 20
8.1970450807
 10
-34.9008186323
 20
8.2011101696
 10
-34.8919103954
 20
8.2048968618
 10
-34.8830709777
 20
8.208402562
 10
-34.8743064371
 20
8.2116248675
 10
-34.8656227806
 20
8.21456157
 10
-34.8570259594
 20
8.2172106568
 10
-34.8485218653
 20
8.2195703124
 10
-34.8401163268
 20
8.2216389195
 10
-34.8318151044
 20
8.2234150604
 10
-34.8236238874
 20
8.2248975179
 10
-34.8155482898
 20
8.226085276
 10
-34.807593846
 20
8.2269775205
 10
-34.7997660078
 20
8.2275736401
 10
-34.7920701398
 20
8.2278732261
 10
-34.7845115164
 20
8.2278760733
 10
-34.777095318
 20
8.2275821797
 10
-34.7698266273
 20
8.2269917467
 10
-34.7627104258
 20
8.2261051789
 10
-34.7557515906
 20
8.224923084
 10
-34.748954891
 20
8.2234462722
 10
-34.7423249851
 20
8.2216757554
 10
-34.7358664167
 20
8.2196127473
 10
-34.7295836121
 20
8.2172586616
 10
-34.7234808774
 20
8.2146151117
 10
-34.7175623949
 20
8.2116839094
 10
-34.711832221
 20
8.2084670636
 10
-34.7062942828
 20
8.2049667789
 10
-34.7036505899
 20
8.2031478754
  0
LWPOLYLINE
  5
27E
100
AcDbEntity
  8
RACCORDO
100
AcDbPolyline
 62
250
  6
CONTINUOUS
 90
32
 70
0
 10
-35.5003711531
 20
8.9852203418
 10
-35.4907082842
 20
8.9917650201
 10
-35.4812965407
 20
8.9984901873
 10
-35.4721426628
 20
9.0053910273
 10
-35.4632532062
 20
9.012462598
 10
-35.4546345368
 20
9.0196998351
 10
-35.446292827
 20
9.0270975558
 10
-35.4382340506
 20
9.0346504621
 10
-35.4304639789
 20
9.0423531451
 10
-35.4229881764
 20
9.0502000885
 10
-35.4158119969
 20
9.0581856728
 10
-35.4089405796
 20
9.0663041791
 10
-35.4023788454
 20
9.0745497933
 10
-35.3961314935
 20
9.0829166105
 10
-35.390202998
 20
9.0913986387
 10
-35.3845976043
 20
9.0999898035
 10
-35.379319327
 20
9.1086839525
 10
-35.3743719459
 20
9.1174748593
 10
-35.3697590042
 20
9.1263562283
 10
-35.3654838053
 20
9.1353216993
 10
-35.361549411
 20
9.1443648516
 10
-35.3579586389
 20
9.1534792089
 10
-35.3547140604
 20
9.1626582441
 10
-35.3518179991
 20
9.1718953837
 10
-35.3492725292
 20
9.1811840124
 10
-35.3470794734
 20
9.1905174783
 10
-35.3452404024
 20
9.1998890972
 10
-35.3437566332
 20
9.2092921577
 10
-35.3426292283
 20
9.2187199258
 10
-35.3418589953
 20
9.2281656498
 10
-35.3414464856
 20
9.2376225653
 10
-35.3413703332
 20
9.2437914662
  0
LWPOLYLINE
  5
27F
100
AcDbEntity
  8
RACCORDO
100
AcDbPolyline
 62
250
  6
CONTINUOUS
 90
70
 70
0
 10
-35.7513679051
 20
8.8197161605
 10
-35.7714890741
 20
8.806259386
 10
-35.7916097348
 20
8.7924188455
 10
-35.8117298871
 20
8.7781945388
 10
-35.8318607061
 20
8.763579169
 10
-35.8519910168
 20
8.7485800331
 10
-35.8720872947
 20
8.7332190223
 10
-35.8921491417
 20
8.7174952818
 10
-35.912176956
 20
8.7014096664
 10
-35.9321384074
 20
8.6849866307
 10
-35.9520331475
 20
8.6682253423
 10
-35.9718615247
 20
8.6511266337
 10
-35.9915922538
 20
8.6337174567
 10
-36.0112231059
 20
8.6159989317
 10
-36.0307563099
 20
8.5979699384
 10
-36.050167268
 20
8.579654068
 10
-36.0694535954
 20
8.5610532417
 10
-36.0886176769
 20
8.5421655382
 10
-36.1076420691
 20
8.5230087844
 10
-36.1265272021
 20
8.5035824073
 10
-36.1452726457
 20
8.4838869799
 10
-36.1638596661
 20
8.4639420482
 10
-36.1822896042
 20
8.4437457513
 10
-36.200561119
 20
8.4232999502
 10
-36.2186514535
 20
8.4026297732
 10
-36.2365604989
 20
8.3817346954
 10
-36.254288364
 20
8.3606152416
 10
-36.2718126185
 20
8.3392981151
 10
-36.2891324825
 20
8.3177836549
 10
-36.3062487358
 20
8.2960715218
 10
-36.3231412873
 20
8.2741874016
 10
-36.3398096841
 20
8.2521313558
 10
-36.3562543791
 20
8.2299033229
 10
-36.3724566392
 20
8.2075288031
 10
-36.3884161843
 20
8.1850076708
 10
-36.4041332947
 20
8.1623400517
 10
-36.419590078
 20
8.1395518232
 10
-36.4347862632
 20
8.1166428497
 10
-36.4497221215
 20
8.0936132669
 10
-36.4643805735
 20
8.0704893592
 10
-36.4787614603
 20
8.0472707756
 10
-36.4928649409
 20
8.0239578673
 10
-36.5066744126
 20
8.000577972
 10
-36.5201898738
 20
7.9771303136
 10
-36.5334113262
 20
7.9536156683
 10
-36.5463221722
 20
7.9300637023
 10
-36.5589218695
 20
7.9064744961
 10
-36.5712109604
 20
7.8828479693
 10
-36.583174474
 20
7.8592135471
 10
-36.5948111448
 20
7.8355731043
 10
-36.6061222382
 20
7.8119247662
 10
-36.6170965794
 20
7.7882923336
 10
-36.6277337076
 20
7.7646765777
 10
-36.6380340835
 20
7.7410767273
 10
-36.6479879149
 20
7.7175142703
 10
-36.6575960115
 20
7.6939866249
 10
-36.6668575634
 20
7.670496373
 10
-36.6757603489
 20
7.6470727478
 10
-36.6843045542
 20
7.6237133778
 10
-36.6924899929
 20
7.6004206344
 10
-36.7003038845
 20
7.5772308657
 10
-36.7077452863
 20
7.5541440259
 10
-36.7148151409
 20
7.5311601607
 10
-36.7215034947
 20
7.5083157556
 10
-36.7278092986
 20
7.4856108849
 10
-36.7337336018
 20
7.4630454743
 10
-36.7392695985
 20
7.4406557867
 10
-36.7444150201
 20
7.4184539096
 10
-36.7491721352
 20
7.3964277555
 10
-36.7535409439
 20
7.3745773243
  0
LINE
  5
280
100
AcDbEntity
  8
RACCORDO
100
AcDbLine
 62
250
  6
CONTINUOUS
 10
-35.5003711531
 20
8.9852213014
 11
-35.7513679051
 21
8.8197161605
  0
LINE
  5
281
100
AcDbEntity
  8
RACCORDO
100
AcDbLine
 62
250
  6
CONTINUOUS
 10
-34.9923240286
 20
8.1484517764
 11
-35.2739681076
 21
7.9627404238
  0
LWPOLYLINE
  5
282
100
AcDbEntity
  8
RACCORDO
100
AcDbPolyline
 62
250
  6
CONTINUOUS
 90
70
 70
0
 10
-35.2739680757
 20
7.9627404013
 10
-35.2843630243
 20
7.9562549916
 10
-35.2947649802
 20
7.9495734484
 10
-35.3051701696
 20
7.9426979146
 10
-35.3155766525
 20
7.9356297127
 10
-35.3259787513
 20
7.9283720199
 10
-35.3363670781
 20
7.9209301426
 10
-35.3467377355
 20
7.9133068844
 10
-35.3570869723
 20
7.905505007
 10
-35.3674056731
 20
7.8975303435
 10
-35.3776899492
 20
7.8893861547
 10
-35.3879361234
 20
7.8810756402
 10
-35.3981354952
 20
7.8726050661
 10
-35.4082833242
 20
7.8639789043
 10
-35.4183769843
 20
7.8551999436
 10
-35.4284110428
 20
7.8462722538
 10
-35.4383807244
 20
7.8372006926
 10
-35.448283627
 20
7.8279880739
 10
-35.4581178893
 20
7.8186354178
 10
-35.4678801882
 20
7.8091463182
 10
-35.4775667285
 20
7.7995249054
 10
-35.4871748985
 20
7.7897729109
 10
-35.4967019307
 20
7.7798934577
 10
-35.506143554
 20
7.7698913073
 10
-35.515494923
 20
7.7597706838
 10
-35.5247526885
 20
7.7495355869
 10
-35.5339133888
 20
7.7391902515
 10
-35.5429721045
 20
7.7287393751
 10
-35.551925281
 20
7.7181875062
 10
-35.5607699402
 20
7.7075386398
 10
-35.5695021147
 20
7.69679673
 10
-35.5781185345
 20
7.6859662515
 10
-35.5866161865
 20
7.6750514784
 10
-35.5949915485
 20
7.664056108
 10
-35.603241562
 20
7.6529845882
 10
-35.6113632513
 20
7.6418413811
 10
-35.6193532693
 20
7.6306302339
 10
-35.6272087006
 20
7.6193556481
 10
-35.6349266917
 20
7.6080221685
 10
-35.6425040418
 20
7.5966336317
 10
-35.6499380486
 20
7.5851944802
 10
-35.6572259248
 20
7.5737094287
 10
-35.6643644123
 20
7.5621827451
 10
-35.6713510922
 20
7.5506186986
 10
-35.6781832134
 20
7.5390222675
 10
-35.6848571446
 20
7.5273988085
 10
-35.6913704371
 20
7.5157530268
 10
-35.6977208045
 20
7.5040895286
 10
-35.703905025
 20
7.4924135361
 10
-35.7099204355
 20
7.4807306277
 10
-35.7157654254
 20
7.4690445413
 10
-35.7214384044
 20
7.4573577378
 10
-35.7269371228
 20
7.4456752469
 10
-35.7322597674
 20
7.4340013336
 10
-35.7374052914
 20
7.4223373226
 10
-35.7423722154
 20
7.4106865818
 10
-35.7471580275
 20
7.3990550541
 10
-35.7517601342
 20
7.3874479305
 10
-35.7561771932
 20
7.3758685875
 10
-35.7604070132
 20
7.364322913
 10
-35.7644460699
 20
7.3528197874
 10
-35.7682930172
 20
7.3413635406
 10
-35.7719465275
 20
7.3299588825
 10
-35.7754036576
 20
7.3186150899
 10
-35.7786634814
 20
7.3073363969
 10
-35.7817251713
 20
7.2961272417
 10
-35.7845865395
 20
7.2849969607
 10
-35.7872467118
 20
7.2739513391
 10
-35.7897058419
 20
7.2629927235
 10
-35.7919636571
 20
7.252125101
  0
LINE
  5
283
100
AcDbEntity
  8
RACCORDO
100
AcDbLine
 62
7
  6
CONTINUOUS
 10
-37.6061915927
 20
-5.3195989867
 11
-37.7543469192
 21
-5.2379785563
  0
LINE
  5
284
100
AcDbEntity
  8
RACCORDO
100
AcDbLine
 62
7
  6
CONTINUOUS
 10
-37.7543469192
 20
-5.2379785563
 11
-37.7965737117
 21
-5.2146434632
  0
LWPOLYLINE
  5
285
100
AcDbEntity
  8
RACCORDO
100
AcDbPolyline
 62
7
  6
CONTINUOUS
 90
5
 70
0
 10
-37.9072610492
 20
-5.151395682
 10
-37.8784471433
 20
-5.1681858727
 10
-37.850393418
 20
-5.1843190233
 10
-37.8231022802
 20
-5.199804891
 10
-37.7965737117
 20
-5.2146434632
  0
LINE
  5
286
100
AcDbEntity
  8
RACCORDO
100
AcDbLine
 62
7
  6
CONTINUOUS
 10
-37.9671840202
 20
-5.115902844
 11
-37.9072610492
 21
-5.151395682
  0
LWPOLYLINE
  5
287
100
AcDbEntity
  8
RACCORDO
100
AcDbPolyline
 62
7
  6
CONTINUOUS
 90
3
 70
0
 10
-38.0628501895
 20
-5.0580584099
 10
-38.0301915268
 20
-5.0779578094
 10
-37.9671840202
 20
-5.115902844
  0
LWPOLYLINE
  5
288
100
AcDbEntity
  8
RACCORDO
100
AcDbPolyline
 62
7
  6
CONTINUOUS
 90
55
 70
0
 10
-38.0624948866
 20
-5.05828393
 10
-38.0659599658
 20
-5.0561384441
 10
-38.0692830904
 20
-5.0540507436
 10
-38.0724643367
 20
-5.052020896
 10
-38.075487558
 20
-5.0500565234
 10
-38.078369009
 20
-5.0481500984
 10
-38.0811573369
 20
-5.0462789354
 10
-38.0838651614
 20
-5.0444357176
 10
-38.0864798793
 20
-5.0426277755
 10
-38.0890122838
 20
-5.0408543778
 10
-38.0914619848
 20
-5.0391163688
 10
-38.0938293528
 20
-5.0374128859
 10
-38.0961263201
 20
-5.0357406358
 10
-38.0983525442
 20
-5.0341004124
 10
-38.1005083331
 20
-5.0324913904
 10
-38.1026065984
 20
-5.0309078513
 10
-38.1046474293
 20
-5.0293501965
 10
-38.1066306961
 20
-5.027817988
 10
-38.1085689863
 20
-5.0263042515
 10
-38.1104646423
 20
-5.0248074589
 10
-38.1123152762
 20
-5.0233290974
 10
-38.1141263828
 20
-5.0218667188
 10
-38.1159000925
 20
-5.0204186739
 10
-38.1176342267
 20
-5.0189865687
 10
-38.1193278228
 20
-5.0175728421
 10
-38.1209808924
 20
-5.0161774437
 10
-38.1225933786
 20
-5.0148003837
 10
-38.1241642236
 20
-5.0134442
 10
-38.1256932529
 20
-5.0121090011
 10
-38.1271806015
 20
-5.0107946437
 10
-38.1286256855
 20
-5.0095032957
 10
-38.1300281622
 20
-5.0082352524
 10
-38.1313883429
 20
-5.0069901911
 10
-38.132706634
 20
-5.0057693601
 10
-38.1339825678
 20
-5.0045732344
 10
-38.1352165888
 20
-5.0034013191
 10
-38.1364104791
 20
-5.0022534146
 10
-38.1375641333
 20
-5.0011297049
 10
-38.1386776393
 20
-5.0000299911
 10
-38.1397530742
 20
-4.9989535039
 10
-38.1407902975
 20
-4.9979005041
 10
-38.141789436
 20
-4.9968707194
 10
-38.1427529703
 20
-4.9958625827
 10
-38.143680874
 20
-4.9948762937
 10
-38.1445731604
 20
-4.9939116418
 10
-38.1454323696
 20
-4.9929664442
 10
-38.1462592048
 20
-4.9920400642
 10
-38.1470529456
 20
-4.9911331243
 10
-38.1478139954
 20
-4.990245328
 10
-38.1485428256
 20
-4.9893761161
 10
-38.1492389469
 20
-4.9885260333
 10
-38.1499013234
 20
-4.9876964408
 10
-38.1505296066
 20
-4.98688779
 10
-38.1511241324
 20
-4.9860996195
 10
-38.1516848943
 20
-4.985331924
  0
LINE
  5
289
100
AcDbEntity
  8
RACCORDO
100
AcDbLine
 62
250
  6
CONTINUOUS
 10
-37.7965737159
 20
-5.2146434662
 11
-37.6033872292
 21
-5.3465700833
  0
LINE
  5
28A
100
AcDbEntity
  8
RACCORDO
100
AcDbLine
 62
7
  6
CONTINUOUS
 10
-37.5164736069
 20
-5.5208786374
 11
33.478797618
 21
-55.7221163528
  0
LINE
  5
28B
100
AcDbEntity
  8
RACCORDO
100
AcDbLine
 62
250
  6
CONTINUOUS
 10
-37.6033862106
 20
-5.3465798635
 11
33.3901347407
 21
-55.5465799485
  0
LINE
  5
28C
100
AcDbEntity
  8
DRAFT
100
AcDbLine
 62
7
  6
CONTINUOUS
 10
-37.6061915927
 20
-5.3195989867
 11
33.3873292384
 21
-55.5195989867
  0
LWPOLYLINE
  5
28D
100
AcDbEntity
  8
RACCORDO
100
AcDbPolyline
 62
7
  6
CONTINUOUS
 90
16
 70
0
 10
-52.6468878263
 20
5.1624410656
 10
-51.6590303167
 20
4.4425449224
 10
-50.6631993661
 20
3.7201009762
 10
-49.6650070211
 20
2.9992081952
 10
-48.6644593561
 20
2.2798709716
 10
-47.6615616083
 20
1.5620930486
 10
-46.6563185576
 20
0.8458778295
 10
-45.6487352333
 20
0.1312288984
 10
-44.6388171307
 20
-0.5818498552
 10
-43.6265697928
 20
-1.2933545325
 10
-42.6119987045
 20
-2.0032812775
 10
-41.5951093123
 20
-2.7116262751
 10
-40.5759070952
 20
-3.4183857262
 10
-39.5543975088
 20
-4.1235558538
 10
-38.5305859917
 20
-4.8271328969
 10
-37.516493557
 20
-5.5209077985
  0
LWPOLYLINE
  5
28E
100
AcDbEntity
  8
RACCORDO
100
AcDbPolyline
 62
250
  6
CONTINUOUS
 90
16
 70
0
 10
-52.734766084
 20
5.3374246905
 10
-51.7789808869
 20
4.6408513305
 10
-50.8210020736
 20
3.9457084097
 10
-49.8608343071
 20
3.2519992619
 10
-48.8984815567
 20
2.5597266909
 10
-47.9339492089
 20
1.8688945744
 10
-46.9672440836
 20
1.1795078525
 10
-45.99837139
 20
0.4915702362
 10
-45.0273353734
 20
-0.1949153075
 10
-44.054141442
 20
-0.8799449644
 10
-43.078794711
 20
-1.5635151099
 10
-42.1012995925
 20
-2.2456226743
 10
-41.1216604578
 20
-2.9262646715
 10
-40.1398819578
 20
-3.6054378644
 10
-39.1559690257
 20
-4.2831387677
 10
-38.1699264698
 20
-4.9593640148
  0
LWPOLYLINE
  5
28F
100
AcDbEntity
  8
RACCORDO
100
AcDbPolyline
 62
250
  6
CONTINUOUS
 90
16
 70
0
 10
33.9372450688
 20
-55.9468339819
 10
34.8928196204
 20
-56.6435393878
 10
35.8505875113
 20
-57.3388141752
 10
36.8105440747
 20
-58.0326550145
 10
37.7726846287
 20
-58.7250585977
 10
38.737004489
 20
-59.416021562
 10
39.7034989688
 20
-60.1055404895
 10
40.6721633516
 20
-60.7936120019
 10
41.6429929227
 20
-61.4802327833
 10
42.6159829818
 20
-62.1653995035
 10
43.5911287843
 20
-62.8491087754
 10
44.5684255791
 20
-63.5313572687
 10
45.5478686407
 20
-64.2121417321
 10
46.5294532074
 20
-64.8914588352
 10
47.5131744811
 20
-65.5693051681
 10
48.4990276659
 20
-66.2456773552
  0
LINE
  5
290
100
AcDbEntity
  8
RACCORDO
100
AcDbLine
 62
250
  6
CONTINUOUS
 10
-37.5207133555
 20
-5.5177820089
 11
-37.5164736069
 21
-5.5208786374
  0
LWPOLYLINE
  5
291
100
AcDbEntity
  8
RACCORDO
100
AcDbPolyline
 62
7
  6
CONTINUOUS
 90
16
 70
0
 10
33.4763931955
 20
-55.7203673762
 10
34.4599200108
 20
-56.4392020718
 10
35.4542224038
 20
-57.1626491358
 10
36.4508893192
 20
-57.8845472659
 10
37.4499154282
 20
-58.6048926274
 10
38.4512953796
 20
-59.323681373
 10
39.455023789
 20
-60.0409096384
 10
40.4610952484
 20
-60.7565735818
 10
41.469504292
 20
-61.4706693335
 10
42.4802453933
 20
-62.1831929823
 10
43.4933130386
 20
-62.8941406522
 10
44.5087021519
 20
-63.6035087989
 10
45.5264079199
 20
-64.3112940599
 10
46.5464250203
 20
-65.0174927305
 10
47.5687472081
 20
-65.7221005099
 10
48.5880525487
 20
-66.4214740845
  0
LINE
  5
292
100
AcDbEntity
  8
RACCORDO
100
AcDbLine
 62
250
  6
CONTINUOUS
 10
33.390133722
 20
-55.5465701682
 11
33.5765383283
 21
-55.6830549875
  0
LINE
  5
293
100
AcDbEntity
  8
RACCORDO
100
AcDbLine
 62
250
  6
CONTINUOUS
 10
33.4744781194
 20
-55.7189634095
 11
33.4763844076
 21
-55.7203794833
  0
LWPOLYLINE
  5
294
100
AcDbEntity
  8
RACCORDO
100
AcDbPolyline
 62
250
  6
CONTINUOUS
 90
30
 70
0
 10
-52.734766084
 20
5.3374246905
 10
-52.7463629409
 20
5.3461788695
 10
-52.7576641476
 20
5.3551478697
 10
-52.768661771
 20
5.3643301486
 10
-52.7793471908
 20
5.3737273906
 10
-52.7897143268
 20
5.3833340252
 10
-52.799759187
 20
5.3931375445
 10
-52.8094748867
 20
5.4031357778
 10
-52.8188549151
 20
5.4133262163
 10
-52.827895571
 20
5.4236961031
 10
-52.8365907
 20
5.4342429756
 10
-52.844934529
 20
5.4449639278
 10
-52.8529236603
 20
5.4558458841
 10
-52.8605527085
 20
5.4668861729
 10
-52.8678166719
 20
5.4780815718
 10
-52.8747124602
 20
5.4894186188
 10
-52.881235496
 20
5.5008945189
 10
-52.8873815822
 20
5.5125058149
 10
-52.8931479303
 20
5.5242385909
 10
-52.8985308095
 20
5.5360900178
 10
-52.9035268594
 20
5.5480564858
 10
-52.9081335814
 20
5.5601235563
 10
-52.9123481256
 20
5.5722884597
 10
-52.916168
 20
5.584547518
 10
-52.9195909799
 20
5.5968856966
 10
-52.9226151248
 20
5.6093003848
 10
-52.9252388382
 20
5.6217879243
 10
-52.927460159
 20
5.6343326025
 10
-52.9292780701
 20
5.6469320753
 10
-52.9304944924
 20
5.6575717061
  0
LINE
  5
295
100
AcDbEntity
  8
RACCORDO
100
AcDbLine
 62
7
  6
CONTINUOUS
 10
33.7772921018
 20
-55.8502494582
 11
33.8415930308
 21
-55.9021781632
  0
LINE
  5
296
100
AcDbEntity
  8
RACCORDO
100
AcDbLine
 62
250
  6
CONTINUOUS
 10
-37.8112031218
 20
51.1202580487
 11
-37.7937167585
 21
51.0585359739
  0
LWPOLYLINE
  5
297
100
AcDbEntity
  8
RACCORDO
100
AcDbPolyline
 62
250
  6
CONTINUOUS
 90
22
 70
0
 10
-35.7919636706
 20
40.1390929337
 10
-35.7897066079
 20
40.1310038895
 10
-35.7872482798
 20
40.1230711718
 10
-35.7845889422
 20
40.1152983941
 10
-35.7817284311
 20
40.1076879373
 10
-35.7786675979
 20
40.1002445604
 10
-35.7754085919
 20
40.0929751134
 10
-35.7719522177
 20
40.0858827683
 10
-35.7682993855
 20
40.0789705825
 10
-35.7644530068
 20
40.0722446271
 10
-35.7604143618
 20
40.0657076258
 10
-35.7561848018
 20
40.0593621594
 10
-35.7517679077
 20
40.0532134688
 10
-35.7471658398
 20
40.0472643454
 10
-35.7423799503
 20
40.0415162909
 10
-35.7374129769
 20
40.0359721737
 10
-35.7322674806
 20
40.0306344984
 10
-35.7269449067
 20
40.0255044091
 10
-35.7214463395
 20
40.0205827038
 10
-35.7157736412
 20
40.0158710606
 10
-35.7099290313
 20
40.0113713252
 10
-35.7063468036
 20
40.0087782427
  0
LINE
  5
298
100
AcDbEntity
  8
RACCORDO
100
AcDbLine
 62
250
  6
CONTINUOUS
 10
-37.7937167585
 20
51.0585359739
 11
-37.7757409416
 21
50.9930332546
  0
LWPOLYLINE
  5
299
100
AcDbEntity
  8
RACCORDO
100
AcDbPolyline
 62
250
  6
CONTINUOUS
 90
70
 70
0
 10
-36.7535409439
 20
40.0559121368
 10
-36.7491736581
 20
40.0398282376
 10
-36.7444180875
 20
40.0240800599
 10
-36.739274232
 20
40.0086676037
 10
-36.7337398691
 20
39.9935817586
 10
-36.7278172214
 20
39.978831635
 10
-36.7215129557
 20
39.9644445642
 10
-36.7148260222
 20
39.9504218423
 10
-36.7077574708
 20
39.9367621731
 10
-36.7003171185
 20
39.923489
 10
-36.6925039599
 20
39.9106035325
 10
-36.6843190002
 20
39.8981045609
 10
-36.6757750725
 20
39.8860119
 10
-36.6668722901
 20
39.8743276634
 10
-36.6576105395
 20
39.8630497373
 10
-36.6480023137
 20
39.8521915956
 10
-36.6380484795
 20
39.8417548709
 10
-36.6277481702
 20
39.8317379305
 10
-36.6171112779
 20
39.8221493494
 10
-36.606137425
 20
39.8129890215
 10
-36.5948269891
 20
39.8042570529
 10
-36.5831909955
 20
39.795962336
 10
-36.5712281658
 20
39.7881046242
 10
-36.5589397783
 20
39.7806841641
 10
-36.5463406934
 20
39.7737105879
 10
-36.5334303216
 20
39.7671844993
 10
-36.5202092523
 20
39.7611052946
 10
-36.5066941149
 20
39.7554807947
 10
-36.4928848959
 20
39.7503117829
 10
-36.4787816088
 20
39.7455974759
 10
-36.4644009231
 20
39.7413433446
 10
-36.4497426935
 20
39.7375499601
 10
-36.4348070653
 20
39.7342167513
 10
-36.4196111441
 20
39.7313474753
 10
-36.4041546657
 20
39.7289426277
 10
-36.3884378942
 20
39.7270017129
 10
-36.3724787276
 20
39.7255270011
 10
-36.3562768942
 20
39.7245189869
 10
-36.3398326657
 20
39.7239771757
 10
-36.3231647561
 20
39.723902354
 10
-36.3062727346
 20
39.7242950513
 10
-36.2891570319
 20
39.7251547382
 10
-36.2718376537
 20
39.7264806134
 10
-36.2543138152
 20
39.728273359
 10
-36.2365863012
 20
39.7305322929
 10
-36.2186774712
 20
39.7332545676
 10
-36.2005871447
 20
39.7364408673
 10
-36.1823155023
 20
39.7400905077
 10
-36.1638854453
 20
39.7441985884
 10
-36.1452982626
 20
39.7487652339
 10
-36.1265526652
 20
39.7537903197
 10
-36.1076676882
 20
39.7592685721
 10
-36.0886438905
 20
39.7651999665
 10
-36.0694807131
 20
39.7715845276
 10
-36.0501955139
 20
39.7784170556
 10
-36.0307860769
 20
39.7856986844
 10
-36.0112546181
 20
39.7934282801
 10
-35.9916251435
 20
39.8015972421
 10
-35.9718953497
 20
39.8102073831
 10
-35.9520675401
 20
39.8192568904
 10
-35.9321726303
 20
39.8287317252
 10
-35.9122101377
 20
39.8386332338
 10
-35.8921805448
 20
39.8489600699
 10
-35.8721162151
 20
39.8596941569
 10
-35.8520167354
 20
39.8708368862
 10
-35.8318825189
 20
39.8823868663
 10
-35.8117471674
 20
39.8943218462
 10
-35.7916218816
 20
39.9066344087
 10
-35.7714954608
 20
39.9193319708
 10
-35.7513679051
 20
39.9324145327
  0
LINE
  5
29A
100
AcDbEntity
  8
RACCORDO
100
AcDbLine
 62
250
  6
CONTINUOUS
 10
-37.7757409416
 20
50.9930332546
 11
-37.7572433907
 21
50.9235511144
  0
LINE
  5
29B
100
AcDbEntity
  8
RACCORDO
100
AcDbLine
 62
250
  6
CONTINUOUS
 10
-37.7572433907
 20
50.9235511144
 11
-37.7381846825
 21
50.8497942325
  0
LINE
  5
29C
100
AcDbEntity
  8
RACCORDO
100
AcDbLine
 62
250
  6
CONTINUOUS
 10
-37.7381846825
 20
50.8497942325
 11
-37.7185419813
 21
50.771505944
  0
LINE
  5
29D
100
AcDbEntity
  8
RACCORDO
100
AcDbLine
 62
250
  6
CONTINUOUS
 10
-37.7185419813
 20
50.771505944
 11
-37.6982938735
 21
50.6885139783
  0
LWPOLYLINE
  5
29E
100
AcDbEntity
  8
RACCORDO
100
AcDbPolyline
 62
250
  6
CONTINUOUS
 90
3
 70
0
 10
-37.6982938735
 20
50.6885139783
 10
-37.6774142339
 20
50.6004923687
 10
-37.6667328038
 20
50.5546225719
  0
LWPOLYLINE
  5
29F
100
AcDbEntity
  8
RACCORDO
100
AcDbPolyline
 62
250
  6
CONTINUOUS
 90
31
 70
0
 10
-37.6667328038
 20
50.5546225719
 10
-37.6408634286
 20
50.4409755527
 10
-37.6148810083
 20
50.3233758995
 10
-37.5887641231
 20
50.2018398435
 10
-37.5625074934
 20
50.0765402486
 10
-37.5360714735
 20
49.9473384935
 10
-37.5093792235
 20
49.8137865998
 10
-37.4824025435
 20
49.6760061214
 10
-37.4551136784
 20
49.53391858
 10
-37.4274274196
 20
49.3867829241
 10
-37.3992673607
 20
49.234518374
 10
-37.3706358071
 20
49.0772633135
 10
-37.341554903
 20
48.9146138108
 10
-37.3119973434
 20
48.746850463
 10
-37.2819011384
 20
48.5737630142
 10
-37.251219995
 20
48.3942241872
 10
-37.219782683
 20
48.2077949949
 10
-37.1876341312
 20
48.0150149701
 10
-37.1550389714
 20
47.8162353986
 10
-37.1217622424
 20
47.6103787991
 10
-37.0878936018
 20
47.3986404353
 10
-37.0542164749
 20
47.1847562566
 10
-37.0206977594
 20
46.9682859215
 10
-36.987288904
 20
46.7497396889
 10
-36.9548382354
 20
46.5342098818
 10
-36.9235945473
 20
46.3227692302
 10
-36.8933448626
 20
46.1143216651
 10
-36.8643187604
 20
45.9106469726
 10
-36.8366236868
 20
45.7123149191
 10
-36.8102228193
 20
45.5187031584
 10
-36.7851484789
 20
45.3297874962
  0
LWPOLYLINE
  5
2A0
100
AcDbEntity
  8
RACCORDO
100
AcDbPolyline
 62
250
  6
CONTINUOUS
 90
63
 70
0
 10
-36.7535409439
 20
7.3745773243
 10
-36.7411857704
 20
7.3800138404
 10
-36.7285539398
 20
7.3852317654
 10
-36.7156529668
 20
7.3902279953
 10
-36.7024905264
 20
7.3949995576
 10
-36.6890744489
 20
7.3995436139
 10
-36.6754127155
 20
7.4038574608
 10
-36.6615134539
 20
7.407938532
 10
-36.6473849326
 20
7.4117843996
 10
-36.6330355569
 20
7.4153927757
 10
-36.6184738632
 20
7.4187615136
 10
-36.6037085145
 20
7.4218886093
 10
-36.5887482946
 20
7.4247722025
 10
-36.5736021036
 20
7.4274105777
 10
-36.5582789519
 20
7.4298021652
 10
-36.5427879554
 20
7.4319455424
 10
-36.5271383297
 20
7.4338394341
 10
-36.511339385
 20
7.4354827137
 10
-36.4954005201
 20
7.4368744035
 10
-36.4793312171
 20
7.4380136756
 10
-36.4631410358
 20
7.4388998523
 10
-36.4468396077
 20
7.4395324063
 10
-36.4304366308
 20
7.4399109614
 10
-36.4139418631
 20
7.4400352923
 10
-36.3973651176
 20
7.4399053251
 10
-36.3807162558
 20
7.4395211372
 10
-36.3640051822
 20
7.4388829569
 10
-36.3472418384
 20
7.4379911641
 10
-36.330436197
 20
7.4368462893
 10
-36.3135982557
 20
7.4354490135
 10
-36.2967380315
 20
7.433800168
 10
-36.2798655546
 20
7.4319007336
 10
-36.2629908627
 20
7.4297518405
 10
-36.2461239945
 20
7.4273547669
 10
-36.2292749842
 20
7.4247109389
 10
-36.2124538555
 20
7.4218219294
 10
-36.1956706152
 20
7.418689457
 10
-36.1789352479
 20
7.4153153852
 10
-36.1622577094
 20
7.4117017213
 10
-36.1456479215
 20
7.4078506151
 10
-36.1291157652
 20
7.4037643576
 10
-36.1126710757
 20
7.3994453798
 10
-36.0963236361
 20
7.3948962511
 10
-36.0800831715
 20
7.3901196777
 10
-36.0639593434
 20
7.3851185013
 10
-36.0479617441
 20
7.379895697
 10
-36.0320998905
 20
7.3744543721
 10
-36.016383219
 20
7.3687977635
 10
-36.0008210795
 20
7.3629292363
 10
-35.98542273
 20
7.3568522819
 10
-35.9701973312
 20
7.3505705155
 10
-35.9551539406
 20
7.344087674
 10
-35.9403015076
 20
7.3374076141
 10
-35.9256488681
 20
7.33053431
 10
-35.911204739
 20
7.3234718504
 10
-35.8969777132
 20
7.316224437
 10
-35.8829762544
 20
7.3087963813
 10
-35.8692086922
 20
7.3011921022
 10
-35.855683217
 20
7.2934161236
 10
-35.8424078751
 20
7.2854730715
 10
-35.8293905641
 20
7.2773676712
 10
-35.8166390282
 20
7.2691047446
 10
-35.8041608532
 20
7.2606892075
  0
LWPOLYLINE
  5
2A1
100
AcDbEntity
  8
RACCORDO
100
AcDbPolyline
 62
250
  6
CONTINUOUS
 90
67
 70
0
 10
-36.7851480977
 20
0.7523565784
 10
-36.7967950784
 20
0.7604733829
 10
-36.8087020637
 20
0.7684285452
 10
-36.8208626038
 20
0.7762177563
 10
-36.8332701115
 20
0.7838367969
 10
-36.8459178659
 20
0.7912815398
 10
-36.8587990159
 20
0.7985479523
 10
-36.871906584
 20
0.8056320985
 10
-36.8852334701
 20
0.8125301408
 10
-36.8987724551
 20
0.8192383427
 10
-36.9125162052
 20
0.8257530706
 10
-36.9264572756
 20
0.8320707953
 10
-36.9405881146
 20
0.8381880948
 10
-36.9549010676
 20
0.8441016554
 10
-36.9693883816
 20
0.8498082738
 10
-36.984042209
 20
0.8553048588
 10
-36.9988546121
 20
0.860588433
 10
-37.0138175673
 20
0.8656561345
 10
-37.0289229694
 20
0.8705052181
 10
-37.0441626359
 20
0.8751330571
 10
-37.0595283119
 20
0.8795371449
 10
-37.075011674
 20
0.8837150957
 10
-37.0906043352
 20
0.8876646465
 10
-37.1062978491
 20
0.8913836578
 10
-37.1220837148
 20
0.8948701151
 10
-37.1379533814
 20
0.89812213
 10
-37.1538982525
 20
0.9011379408
 10
-37.1699096912
 20
0.9039159139
 10
-37.1859790242
 20
0.9064545446
 10
-37.2020975471
 20
0.9087524577
 10
-37.2182565288
 20
0.9108084086
 10
-37.2344472161
 20
0.9126212834
 10
-37.250660839
 20
0.9141901004
 10
-37.2668886146
 20
0.9155140096
 10
-37.2831217529
 20
0.9165922939
 10
-37.2993514604
 20
0.9174243693
 10
-37.3155689459
 20
0.9180097851
 10
-37.3317654247
 20
0.918348224
 10
-37.3479321233
 20
0.9184395029
 10
-37.3640602847
 20
0.9182835723
 10
-37.3801411723
 20
0.9178805167
 10
-37.3961660756
 20
0.9172305543
 10
-37.412126314
 20
0.9163340373
 10
-37.4280132422
 20
0.9151914513
 10
-37.4438182545
 20
0.9138034153
 10
-37.4595327897
 20
0.9121706811
 10
-37.4751483354
 20
0.9102941331
 10
-37.490656433
 20
0.9081747879
 10
-37.506048682
 20
0.9058137935
 10
-37.5213167447
 20
0.9032124287
 10
-37.5364523507
 20
0.9003721028
 10
-37.5514473012
 20
0.8972943542
 10
-37.5662934739
 20
0.8939808501
 10
-37.5809828266
 20
0.8904333854
 10
-37.5955074026
 20
0.8866538818
 10
-37.6098593341
 20
0.8826443864
 10
-37.624030847
 20
0.8784070712
 10
-37.6380142646
 20
0.8739442315
 10
-37.6518020126
 20
0.8692582847
 10
-37.6653866223
 20
0.8643517691
 10
-37.6787607351
 20
0.8592273425
 10
-37.6919171058
 20
0.853887781
 10
-37.7048486086
 20
0.8483359766
 10
-37.7175482411
 20
0.8425749357
 10
-37.7300091245
 20
0.8366077784
 10
-37.7422245083
 20
0.8304377373
 10
-37.7541877753
 20
0.8240681544
  0
LINE
  5
2A2
100
AcDbEntity
  8
RACCORDO
100
AcDbLine
 62
7
  6
CONTINUOUS
 10
33.7160855104
 20
-55.8002262529
 11
33.7772921018
 21
-55.8502494582
  0
LWPOLYLINE
  5
2A3
100
AcDbEntity
  8
RACCORDO
100
AcDbPolyline
 62
7
  6
CONTINUOUS
 90
4
 70
0
 10
33.6029141261
 20
-55.7056254922
 10
33.630057155
 20
-55.7286304373
 10
33.6579674009
 20
-55.7520698326
 10
33.7160855104
 20
-55.8002262529
  0
LINE
  5
2A4
100
AcDbEntity
  8
RACCORDO
100
AcDbLine
 62
7
  6
CONTINUOUS
 10
33.6029141261
 20
-55.7056254922
 11
33.5135656907
 21
-55.6287263123
  0
LINE
  5
2A5
100
AcDbEntity
  8
RACCORDO
100
AcDbLine
 62
7
  6
CONTINUOUS
 10
33.5135656907
 20
-55.6287263123
 11
33.3873292384
 21
-55.5195989867
  0
LWPOLYLINE
  5
2A6
100
AcDbEntity
  8
RACCORDO
100
AcDbPolyline
 62
250
  6
CONTINUOUS
 90
79
 70
0
 10
-34.9923240041
 20
8.1484517926
 10
-35.002496638
 20
8.155394184
 10
-35.0126768594
 20
8.1625412325
 10
-35.0228608031
 20
8.1698906002
 10
-35.0330464427
 20
8.1774408983
 10
-35.0432279965
 20
8.1851886026
 10
-35.0533959561
 20
8.1931277589
 10
-35.0635463325
 20
8.2012553187
 10
-35.0736752679
 20
8.2095682602
 10
-35.0837735045
 20
8.2180600307
 10
-35.0938370814
 20
8.2267270946
 10
-35.1038621952
 20
8.2355659446
 10
-35.113839929
 20
8.2445695014
 10
-35.1237655967
 20
8.2537330324
 10
-35.1336363281
 20
8.2630533592
 10
-35.1434460426
 20
8.272525349
 10
-35.1531897109
 20
8.282143514
 10
-35.1628650294
 20
8.2919049286
 10
-35.1724700314
 20
8.3018082542
 10
-35.1820011802
 20
8.3118493967
 10
-35.1914547525
 20
8.3220239781
 10
-35.2008284526
 20
8.332330342
 10
-35.2101194657
 20
8.3427651017
 10
-35.2193234175
 20
8.3533230359
 10
-35.2284356817
 20
8.3639997235
 10
-35.2374529599
 20
8.3747909643
 10
-35.2463715865
 20
8.3856920031
 10
-35.2551864805
 20
8.3966974661
 10
-35.2638940219
 20
8.4078024054
 10
-35.2724911716
 20
8.4190024787
 10
-35.280973823
 20
8.4302931225
 10
-35.2893385657
 20
8.4416693505
 10
-35.2975824283
 20
8.4531266401
 10
-35.3057020251
 20
8.4646610783
 10
-35.3136943
 20
8.4762679158
 10
-35.3215561766
 20
8.4879422417
 10
-35.3292842877
 20
8.4996798749
 10
-35.336875794
 20
8.5114761238
 10
-35.3443276826
 20
8.5233258844
 10
-35.3516364025
 20
8.5352243259
 10
-35.3587991606
 20
8.5471665062
 10
-35.3658132433
 20
8.5591474536
 10
-35.3726753209
 20
8.5711622665
 10
-35.3793826735
 20
8.5832057668
 10
-35.3859328836
 20
8.5952731443
 10
-35.3923231617
 20
8.6073600357
 10
-35.3985510306
 20
8.6194613712
 10
-35.4046141678
 20
8.631572202
 10
-35.4105100769
 20
8.6436883434
 10
-35.4162366084
 20
8.655805062
 10
-35.4217914408
 20
8.6679170686
 10
-35.4271719074
 20
8.6800193481
 10
-35.4323760888
 20
8.6921072741
 10
-35.4374018472
 20
8.7041754817
 10
-35.4422463565
 20
8.7162178713
 10
-35.4469076994
 20
8.7282292235
 10
-35.4513842825
 20
8.740204869
 10
-35.455673952
 20
8.7521395762
 10
-35.4597747935
 20
8.7640274404
 10
-35.4636857108
 20
8.7758646276
 10
-35.4674057944
 20
8.7876490189
 10
-35.4709335426
 20
8.7993756152
 10
-35.4742676274
 20
8.8110397452
 10
-35.4774072537
 20
8.8226397246
 10
-35.4803514279
 20
8.8341723109
 10
-35.4830984148
 20
8.8456310833
 10
-35.4856463657
 20
8.857009611
 10
-35.4879943924
 20
8.8683042274
 10
-35.4901412934
 20
8.8795091934
 10
-35.4920851994
 20
8.8906151943
 10
-35.4938254971
 20
8.9016178772
 10
-35.4953616971
 20
8.9125127238
 10
-35.4966927412
 20
8.9232905366
 10
-35.4978185083
 20
8.933947285
 10
-35.498739016
 20
8.9444788015
 10
-35.499454071
 20
8.9548761254
 10
-35.4999640398
 20
8.9651338937
 10
-35.5002695416
 20
8.9752501386
 10
-35.5003711549
 20
8.9852213002
  0
LINE
  5
2A7
100
AcDbEntity
  8
RACCORDO
100
AcDbLine
 62
250
  6
CONTINUOUS
 10
-35.8041608532
 20
7.2606892075
 11
32.7001966286
 21
-41.1791458953
  0
LINE
  5
2A8
100
AcDbEntity
  8
RACCORDO
100
AcDbLine
 62
250
  6
CONTINUOUS
 10
-35.2739681076
 20
7.9627404238
 11
32.6529825876
 21
-40.0688670378
  0
LINE
  5
2A9
100
AcDbEntity
  8
RACCORDO
100
AcDbLine
 62
250
  6
CONTINUOUS
 10
32.6370977488
 20
-39.6727709701
 11
-34.9923240286
 21
8.1484517764
  0
LINE
  5
2AA
100
AcDbEntity
  8
RACCORDO
100
AcDbLine
 62
7
  6
CONTINUOUS
 10
32.5908672323
 20
-38.4279490241
 11
-35.3413703332
 21
9.6073968197
  0
LINE
  5
2AB
100
AcDbEntity
  8
0
100
AcDbLine
 62
7
  6
CONTINUOUS
 10
-35.3413703332
 20
10.3073968197
 11
32.5668345358
 21
-37.7109553414
  0
LWPOLYLINE
  5
2AC
100
AcDbEntity
  8
RACCORDO
100
AcDbPolyline
 62
7
  6
CONTINUOUS
 90
87
 70
0
 10
32.6265584969
 20
-39.4064995485
 10
-34.7083925281
 20
8.2065203726
 10
-34.7187915325
 20
8.2140515824
 10
-34.729351676
 20
8.2218882376
 10
-34.7400676085
 20
8.2300332483
 10
-34.7509291182
 20
8.2384856559
 10
-34.7619211902
 20
8.2472402464
 10
-34.7730361098
 20
8.2562970531
 10
-34.7842660416
 20
8.2656558008
 10
-34.7955957494
 20
8.275309652
 10
-34.8070169072
 20
8.2852570629
 10
-34.818521477
 20
8.2954964834
 10
-34.830094745
 20
8.3060200485
 10
-34.8417285655
 20
8.3168253104
 10
-34.8534144657
 20
8.3279092475
 10
-34.8651373774
 20
8.339262161
 10
-34.8768889297
 20
8.350880265
 10
-34.8886607416
 20
8.36275947
 10
-34.9004379274
 20
8.3748886765
 10
-34.9122120645
 20
8.3872628728
 10
-34.9239749633
 20
8.3998769864
 10
-34.9357123613
 20
8.4127189651
 10
-34.9474160492
 20
8.4257828317
 10
-34.9590779887
 20
8.43906249
 10
-34.9706845152
 20
8.4525449397
 10
-34.9822277013
 20
8.4662232966
 10
-34.9936998187
 20
8.4800906066
 10
-35.0050879168
 20
8.4941330816
 10
-35.0163844827
 20
8.5083430788
 10
-35.0275821769
 20
8.5227128774
 10
-35.038668796
 20
8.5372279708
 10
-35.0496373265
 20
8.5518800582
 10
-35.0604809324
 20
8.5666607942
 10
-35.0711882337
 20
8.5815550746
 10
-35.0817528131
 20
8.5965540718
 10
-35.0921684258
 20
8.6116489337
 10
-35.1024245684
 20
8.6268240533
 10
-35.1125155266
 20
8.6420702362
 10
-35.1224357107
 20
8.6573782154
 10
-35.1321754783
 20
8.6727318646
 10
-35.1417298869
 20
8.6881217347
 10
-35.1510940997
 20
8.7035382828
 10
-35.16025936
 20
8.7189648864
 10
-35.1692215388
 20
8.734391912
 10
-35.1779766722
 20
8.7498097262
 10
-35.1865170268
 20
8.7652014207
 10
-35.1948393923
 20
8.7805573752
 10
-35.2029407114
 20
8.7958679313
 10
-35.2108142989
 20
8.8111159216
 10
-35.2184579303
 20
8.8262918832
 10
-35.2258695189
 20
8.8413862548
 10
-35.2330434571
 20
8.8563816251
 10
-35.2399784496
 20
8.8712685735
 10
-35.2466735685
 20
8.8860380268
 10
-35.253124658
 20
8.9006731145
 10
-35.2593315061
 20
8.915164852
 10
-35.265294232
 20
8.929504525
 10
-35.2710100869
 20
8.9436757932
 10
-35.2764800216
 20
8.9576703916
 10
-35.2817051539
 20
8.9714799333
 10
-35.2866839353
 20
8.9850881129
 10
-35.2914183904
 20
8.9984871916
 10
-35.2959108047
 20
9.0116695757
 10
-35.3001610194
 20
9.0246194883
 10
-35.3041720829
 20
9.0373296069
 10
-35.3079475217
 20
9.0497934876
 10
-35.3114888701
 20
9.0619970363
 10
-35.3148003573
 20
9.0739340782
 10
-35.3178864655
 20
9.0855987105
 10
-35.3207500571
 20
9.0969776387
 10
-35.3233964229
 20
9.1080655799
 10
-35.3258310917
 20
9.1188575896
 10
-35.3280582454
 20
9.1293412963
 10
-35.330084094
 20
9.1395118268
 10
-35.3319153184
 20
9.1493658907
 10
-35.3335576898
 20
9.1588939114
 10
-35.3350181704
 20
9.1680909062
 10
-35.3363045173
 20
9.1769558118
 10
-35.3374242345
 20
9.1854851215
 10
-35.3383851453
 20
9.1936763111
 10
-35.339195292
 20
9.2015273682
 10
-35.3398628043
 20
9.2090354919
 10
-35.3403961313
 20
9.2161994013
 10
-35.3408038613
 20
9.223017644
 10
-35.3410946928
 20
9.2294871151
 10
-35.3412776537
 20
9.2356061029
 10
-35.3413620198
 20
9.2413746842
  0
LWPOLYLINE
  5
2AD
100
AcDbEntity
  8
RACCORDO
100
AcDbPolyline
 62
7
  6
CONTINUOUS
 90
30
 70
0
 10
-35.4604729175
 20
18.9655685261
 10
-35.4599710608
 20
18.964991826
 10
-35.4516261127
 20
18.9548820296
 10
-35.4435866148
 20
18.9446062469
 10
-35.4359063015
 20
18.9342466535
 10
-35.4285308671
 20
18.9237438844
 10
-35.4214353596
 20
18.9130675671
 10
-35.4146345662
 20
18.902243456
 10
-35.4081203877
 20
18.8912623551
 10
-35.4018438822
 20
18.8800358413
 10
-35.3957702774
 20
18.8684789055
 10
-35.3899612169
 20
18.8566849092
 10
-35.3845053505
 20
18.8448347135
 10
-35.3794437702
 20
18.8330473127
 10
-35.3747213913
 20
18.8212252906
 10
-35.3702797071
 20
18.8092255728
 10
-35.3661009065
 20
18.7969765639
 10
-35.3622220167
 20
18.7845614102
 10
-35.3586720714
 20
18.7720669299
 10
-35.355454384
 20
18.7595112834
 10
-35.3525662994
 20
18.7468907217
 10
-35.3500172933
 20
18.7342598473
 10
-35.3478132075
 20
18.7216822466
 10
-35.3459385129
 20
18.7091074801
 10
-35.3443763217
 20
18.6964181535
 10
-35.343124574
 20
18.6835206285
 10
-35.3422031354
 20
18.670520017
 10
-35.3416239124
 20
18.6575958752
 10
-35.341380436
 20
18.6448521965
 10
-35.3413703332
 20
18.6416777918
  0
LINE
  5
2AE
100
AcDbEntity
  8
RACCORDO
100
AcDbLine
 62
250
  6
CONTINUOUS
 10
-36.9592794783
 20
18.3553257208
 11
-37.0245091696
 21
18.4014500634
  0
LINE
  5
2AF
100
AcDbEntity
  8
ASSI
100
AcDbLine
 62
7
  6
CONTINUOUS
 10
-36.5359152514
 20
18.205115959
 11
-37.0245091696
 21
18.5506040318
  0
LWPOLYLINE
  5
2B0
100
AcDbEntity
  8
RACCORDO
100
AcDbPolyline
 62
250
  6
CONTINUOUS
 90
34
 70
0
 10
-38.0628535948
 20
51.7694017537
 10
-38.0554744718
 20
51.7571974018
 10
-38.0481804181
 20
51.7447363769
 10
-38.0409713176
 20
51.7320187631
 10
-38.0338718079
 20
51.7190819083
 10
-38.02685701
 20
51.7058886405
 10
-38.0198525015
 20
51.6923272882
 10
-38.012850117
 20
51.6783963541
 10
-38.0058576917
 20
51.664097576
 10
-37.9988247358
 20
51.6493241856
 10
-37.9917452269
 20
51.6340732605
 10
-37.9846247381
 20
51.6183480504
 10
-37.977430085
 20
51.6020511098
 10
-37.9701531116
 20
51.5851696451
 10
-37.9628013704
 20
51.5677168901
 10
-37.9553651477
 20
51.5496345071
 10
-37.947834195
 20
51.5308975736
 10
-37.9402179971
 20
51.5115315701
 10
-37.9325363859
 20
51.491553804
 10
-37.9247861593
 20
51.4709517545
 10
-37.9169696628
 20
51.4497385693
 10
-37.9091150544
 20
51.4279700549
 10
-37.9012300322
 20
51.4056655881
 10
-37.8933060177
 20
51.3828064376
 10
-37.8853467572
 20
51.3593912467
 10
-37.8773607164
 20
51.3354492708
 10
-37.8693384612
 20
51.310951966
 10
-37.8612567928
 20
51.2858113467
 10
-37.8531161961
 20
51.2600373108
 10
-37.8449149724
 20
51.2336208534
 10
-37.8366264472
 20
51.2064457824
 10
-37.8282474589
 20
51.1785106349
 10
-37.8197796108
 20
51.149818022
 10
-37.8112031218
 20
51.1202580487
  0
LWPOLYLINE
  5
2B1
100
AcDbEntity
  8
RACCORDO
100
AcDbPolyline
 62
250
  6
CONTINUOUS
 90
38
 70
0
 10
-38.1516842253
 20
51.8120552714
 10
-38.1499437307
 20
51.809157675
 10
-38.14815955
 20
51.8060577944
 10
-38.1463356539
 20
51.8027522086
 10
-38.1444749337
 20
51.7992363391
 10
-38.1425825809
 20
51.795510649
 10
-38.1406656713
 20
51.7915807735
 10
-38.1387327373
 20
51.7874579417
 10
-38.1367815619
 20
51.7831317662
 10
-38.1348034077
 20
51.7785751756
 10
-38.1328032073
 20
51.7737916303
 10
-38.1307827768
 20
51.7687784876
 10
-38.1287303671
 20
51.7634971468
 10
-38.1266475029
 20
51.7579409311
 10
-38.1245403166
 20
51.7521170103
 10
-38.1224053904
 20
51.7460055716
 10
-38.1202430555
 20
51.7395968746
 10
-38.1180600802
 20
51.7329021865
 10
-38.1158627845
 20
51.7259324365
 10
-38.1136540482
 20
51.718689651
 10
-38.1114357366
 20
51.7111749408
 10
-38.1092121324
 20
51.7033974341
 10
-38.1069879612
 20
51.6953692137
 10
-38.104761504
 20
51.6870817224
 10
-38.1025278104
 20
51.6785121797
 10
-38.1002900327
 20
51.6696669056
 10
-38.0980482146
 20
51.660542437
 10
-38.0957941936
 20
51.651100125
 10
-38.0935300861
 20
51.6413406697
 10
-38.0912576628
 20
51.6312656765
 10
-38.0889698392
 20
51.6208369022
 10
-38.0866685808
 20
51.6100533697
 10
-38.0843562317
 20
51.5989181389
 10
-38.0820275892
 20
51.5873983951
 10
-38.0796859188
 20
51.5754996897
 10
-38.0773322815
 20
51.5632185362
 10
-38.0749594272
 20
51.5505081627
 10
-38.072571758
 20
51.5373800596
  0
LWPOLYLINE
  5
2B2
100
AcDbEntity
  8
RACCORDO
100
AcDbPolyline
 62
250
  6
CONTINUOUS
 90
34
 70
0
 10
53.4644827899
 20
-36.9588718708
 10
53.459206024
 20
-36.9554810936
 10
53.4535376127
 20
-36.9522408947
 10
53.4476824903
 20
-36.9492826895
 10
53.4416446228
 20
-36.9466084818
 10
53.4354280999
 20
-36.9442200831
 10
53.4290371326
 20
-36.942119111
 10
53.4224760498
 20
-36.9403069888
 10
53.4157492956
 20
-36.9387849438
 10
53.4088614266
 20
-36.9375540071
 10
53.4018171082
 20
-36.9366150124
 10
53.394621112
 20
-36.9359685958
 10
53.3872783123
 20
-36.9356151951
 10
53.3797936827
 20
-36.9355550497
 10
53.372172293
 20
-36.9357882004
 10
53.3644193057
 20
-36.9363144891
 10
53.3565399723
 20
-36.9371335595
 10
53.3485396299
 20
-36.9382448567
 10
53.3404236976
 20
-36.939647628
 10
53.3321976728
 20
-36.9413409232
 10
53.3238671275
 20
-36.9433235953
 10
53.3154377045
 20
-36.9455943014
 10
53.3069151134
 20
-36.9481515034
 10
53.2983051271
 20
-36.950993469
 10
53.2896135778
 20
-36.9541182734
 10
53.2808463525
 20
-36.9575237999
 10
53.27200939
 20
-36.9612077416
 10
53.263108676
 20
-36.9651676034
 10
53.2541502395
 20
-36.9694007029
 10
53.2451401485
 20
-36.9739041728
 10
53.2360845061
 20
-36.9786749627
 10
53.2269894462
 20
-36.983709841
 10
53.2178611295
 20
-36.9890053973
 10
53.208705739
 20
-36.9945580445
  0
LWPOLYLINE
  5
2B3
100
AcDbEntity
  8
RACCORDO
100
AcDbPolyline
 62
7
  6
CONTINUOUS
 90
46
 70
0
 10
53.4665666653
 20
-36.960306703
 10
53.4562827023
 20
-36.9532257801
 10
53.4458149345
 20
-36.9463973811
 10
53.4351706296
 20
-36.9398272649
 10
53.4243573669
 20
-36.9335209815
 10
53.4133827449
 20
-36.9274836976
 10
53.4022544029
 20
-36.9217202347
 10
53.3909771426
 20
-36.9162337337
 10
53.3795624909
 20
-36.9110303233
 10
53.3680288262
 20
-36.9061181774
 10
53.356392489
 20
-36.9015031678
 10
53.3446552258
 20
-36.8971847886
 10
53.3328136803
 20
-36.8931613381
 10
53.3208753769
 20
-36.8894353636
 10
53.3088505817
 20
-36.8860099417
 10
53.2967396612
 20
-36.8828852272
 10
53.2845725825
 20
-36.8800683988
 10
53.2723375591
 20
-36.877556065
 10
53.2599712739
 20
-36.875338088
 10
53.2474273736
 20
-36.8734138352
 10
53.2347692988
 20
-36.871800608
 10
53.2220984838
 20
-36.8705130822
 10
53.2094652896
 20
-36.8695528915
 10
53.1968387454
 20
-36.8689141194
 10
53.1841985526
 20
-36.8685947735
 10
53.1715735565
 20
-36.8685949118
 10
53.1589535944
 20
-36.8689137676
 10
53.146260269
 20
-36.8695565332
 10
53.1334260521
 20
-36.870536097
 10
53.1205399826
 20
-36.8718550841
 10
53.1077572421
 20
-36.8734982476
 10
53.0951704584
 20
-36.8754452448
 10
53.0827022805
 20
-36.8776996108
 10
53.0702522048
 20
-36.8802786623
 10
53.0577905986
 20
-36.8831935136
 10
53.0453674955
 20
-36.8864373936
 10
53.0330035908
 20
-36.8900077284
 10
53.0206735787
 20
-36.8939156403
 10
53.0084225432
 20
-36.898150633
 10
52.9963718619
 20
-36.9026680867
 10
52.9846322555
 20
-36.907414177
 10
52.9730990522
 20
-36.9124190042
 10
52.9615739593
 20
-36.9177704459
 10
52.9499368537
 20
-36.9235418866
 10
52.9383378278
 20
-36.9296768516
 10
52.7929964647
 20
-37.0101205104
  0
LINE
  5
2B4
100
AcDbEntity
  8
RACCORDO
100
AcDbLine
 62
250
  6
CONTINUOUS
 10
52.7929964647
 20
-37.8917817689
 11
52.9934021544
 21
-38.0334899911
  0
LINE
  5
2B5
100
AcDbEntity
  8
RACCORDO
100
AcDbLine
 62
250
  6
CONTINUOUS
 10
53.208705739
 20
-36.9945580445
 11
53.9225859701
 21
-37.4993475969
  0
LINE
  5
2B6
100
AcDbEntity
  8
DRAFT
100
AcDbLine
 62
7
  6
CONTINUOUS
 10
52.7929964647
 20
-36.5022468249
 11
53.0545139249
 21
-36.6871675944
  0
LINE
  5
2B7
100
AcDbEntity
  8
RACCORDO
100
AcDbLine
 62
7
  6
CONTINUOUS
 10
53.4665666653
 20
-36.960306703
 11
54.1894515983
 21
-37.4714635411
  0
LWPOLYLINE
  5
2B8
100
AcDbEntity
  8
RACCORDO
100
AcDbPolyline
 62
250
  6
CONTINUOUS
 90
39
 70
0
 10
33.923176692
 20
-55.9499557028
 10
33.9213161052
 20
-55.9471457934
 10
33.9193993998
 20
-55.9441426247
 10
33.9174301002
 20
-55.9409430917
 10
33.9154106209
 20
-55.9375429386
 10
33.9133459354
 20
-55.9339427851
 10
33.9112431956
 20
-55.9301482517
 10
33.9091113134
 20
-55.9261702564
 10
33.9069474655
 20
-55.9219988702
 10
33.9047414793
 20
-55.9176082014
 10
33.9024982992
 20
-55.9130016731
 10
33.9002194941
 20
-55.9081768379
 10
33.8978912353
 20
-55.9030968204
 10
33.8955145694
 20
-55.8977554354
 10
33.8930958201
 20
-55.892159557
 10
33.890630287
 20
-55.8862900709
 10
33.8881176913
 20
-55.8801378518
 10
33.8855652702
 20
-55.8737136396
 10
33.8829796439
 20
-55.8670273768
 10
33.8803637431
 20
-55.8600809578
 10
33.8777195325
 20
-55.8528755133
 10
33.8750516855
 20
-55.8454194083
 10
33.8723656019
 20
-55.8377240745
 10
33.8696591853
 20
-55.8297814032
 10
33.8669262219
 20
-55.8215695593
 10
33.8641702471
 20
-55.8130945311
 10
33.8613911857
 20
-55.8043530125
 10
33.8585787146
 20
-55.7953081339
 10
33.8557350095
 20
-55.7859605135
 10
33.8528620109
 20
-55.7763116871
 10
33.8499505129
 20
-55.766325295
 10
33.8470024876
 20
-55.7560004571
 10
33.8440205115
 20
-55.7453399715
 10
33.8409975183
 20
-55.734312423
 10
33.8379372539
 20
-55.7229233425
 10
33.8348405974
 20
-55.7111690544
 10
33.8316974051
 20
-55.6990039644
 10
33.8285129607
 20
-55.686439233
 10
33.8252870257
 20
-55.6734655174
  0
LINE
  5
2B9
100
AcDbEntity
  8
ASSI
100
AcDbLine
 62
7
  6
CONTINUOUS
 10
-36.5359152514
 20
29.3774031018
 11
-36.8227995368
 21
29.5802609254
  0
LINE
  5
2BA
100
AcDbEntity
  8
ASSI
100
AcDbLine
 62
7
  6
CONTINUOUS
 10
-35.3338337234
 20
30.7274031018
 11
-34.9802803328
 21
30.4774031018
  0
LWPOLYLINE
  5
2BB
100
AcDbEntity
  8
RACCORDO
100
AcDbPolyline
 62
250
  6
CONTINUOUS
 90
36
 70
0
 10
53.208705739
 20
-36.9945580445
 10
53.1999590089
 20
-36.9878721169
 10
53.1911972425
 20
-36.9814455773
 10
53.1824264099
 20
-36.9752828046
 10
53.1736524874
 20
-36.9693879981
 10
53.1648814533
 20
-36.9637651743
 10
53.1561192839
 20
-36.9584181644
 10
53.1473719496
 20
-36.9533506118
 10
53.1386454106
 20
-36.9485659694
 10
53.1299456129
 20
-36.9440674973
 10
53.1212784844
 20
-36.9398582607
 10
53.1126499307
 20
-36.9359411276
 10
53.104065831
 20
-36.9323187671
 10
53.0955320344
 20
-36.9289936474
 10
53.0870543555
 20
-36.9259680341
 10
53.0786385709
 20
-36.9232439888
 10
53.0702904148
 20
-36.9208233676
 10
53.0620155755
 20
-36.9187078198
 10
53.0538196913
 20
-36.916898787
 10
53.0457083466
 20
-36.9153975018
 10
53.0376870683
 20
-36.914204987
 10
53.029761322
 20
-36.9133220554
 10
53.0219365079
 20
-36.9127493084
 10
53.0142179579
 20
-36.9124871363
 10
53.006610931
 20
-36.9125357178
 10
52.9991206106
 20
-36.9128950197
 10
52.9917521003
 20
-36.9135647973
 10
52.9845104209
 20
-36.9145445942
 10
52.9774005067
 20
-36.9158337427
 10
52.9704272022
 20
-36.9174313645
 10
52.9635952589
 20
-36.9193363709
 10
52.9569093319
 20
-36.9215474641
 10
52.9503739767
 20
-36.9240631372
 10
52.9439936465
 20
-36.9268816764
 10
52.9377726886
 20
-36.930001161
 10
52.9357407977
 20
-36.9311043991
  0
LWPOLYLINE
  5
2BC
100
AcDbEntity
  8
RACCORDO
100
AcDbPolyline
 62
250
  6
CONTINUOUS
 90
43
 70
0
 10
33.8415930308
 20
-55.9021781632
 10
33.8349335515
 20
-55.8905543998
 10
33.8283628805
 20
-55.8786951237
 10
33.8218811135
 20
-55.8666002693
 10
33.8155081398
 20
-55.8543000491
 10
33.8092242695
 20
-55.8417641139
 10
33.8029702525
 20
-55.8289015391
 10
33.7967403408
 20
-55.8157126183
 10
33.7905405471
 20
-55.8021968765
 10
33.7843293132
 20
-55.7882622009
 10
33.7781021808
 20
-55.7739067564
 10
33.7718639626
 20
-55.7591321352
 10
33.7655870751
 20
-55.7438513195
 10
33.75926635
 20
-55.7280563286
 10
33.7529074265
 20
-55.7117548209
 10
33.7464990077
 20
-55.694883185
 10
33.740033574
 20
-55.6774209424
 10
33.7335192465
 20
-55.6593881603
 10
33.7269682433
 20
-55.6407820095
 10
33.7203770945
 20
-55.6215869713
 10
33.7137499621
 20
-55.6018180917
 10
33.7071105209
 20
-55.5815183835
 10
33.7004625497
 20
-55.5606933759
 10
33.693802994
 20
-55.5393370459
 10
33.6871452663
 20
-55.5174750866
 10
33.68049663
 20
-55.495129667
 10
33.6738505824
 20
-55.4722781006
 10
33.6671999189
 20
-55.4488787752
 10
33.6605486948
 20
-55.4249487596
 10
33.6538937444
 20
-55.400470381
 10
33.6472171495
 20
-55.3753498346
 10
33.6405185241
 20
-55.3495894047
 10
33.633799378
 20
-55.323186045
 10
33.6270448176
 20
-55.2960378325
 10
33.6202536944
 20
-55.2681423612
 10
33.6134285719
 20
-55.2395010793
 10
33.6065603356
 20
-55.2100177016
 10
33.599648486
 20
-55.1796903669
 10
33.5926952725
 20
-55.1485197543
 10
33.5856959397
 20
-55.1164132296
 10
33.5786503022
 20
-55.0833682468
 10
33.5715606842
 20
-55.0493859104
 10
33.5644263549
 20
-55.0143788878
  0
LINE
  5
2BD
100
AcDbEntity
  8
RACCORDO
100
AcDbLine
 62
7
  6
CONTINUOUS
 10
-35.706340375
 20
40.0087736968
 11
33.0195892795
 21
-8.5877972053
  0
LINE
  5
2BE
100
AcDbEntity
  8
RACCORDO
100
AcDbLine
 62
250
  6
CONTINUOUS
 10
-35.7919636618
 20
40.1390929274
 11
33.0236651984
 21
-8.5209048911
  0
LINE
  5
2BF
100
AcDbEntity
  8
RACCORDO
100
AcDbLine
 62
7
  6
CONTINUOUS
 10
33.3873292384
 20
1.1885187301
 11
33.5345673242
 21
1.1062497118
  0
LINE
  5
2C0
100
AcDbEntity
  8
RACCORDO
100
AcDbLine
 62
7
  6
CONTINUOUS
 10
33.5345673242
 20
1.1062497118
 11
33.5765383317
 21
1.0827337515
  0
LINE
  5
2C1
100
AcDbEntity
  8
RACCORDO
100
AcDbLine
 62
7
  6
CONTINUOUS
 10
-37.9983053315
 20
51.7176480313
 11
-38.0628535948
 21
51.7694017537
  0
LINE
  5
2C2
100
AcDbEntity
  8
RACCORDO
100
AcDbLine
 62
7
  6
CONTINUOUS
 10
-37.9368392936
 20
51.6678083669
 11
-37.9983053315
 21
51.7176480313
  0
LINE
  5
2C3
100
AcDbEntity
  8
RACCORDO
100
AcDbLine
 62
7
  6
CONTINUOUS
 10
-37.8784481196
 20
51.6198451103
 11
-37.9368392936
 21
51.6678083669
  0
LINE
  5
2C4
100
AcDbEntity
  8
RACCORDO
100
AcDbLine
 62
7
  6
CONTINUOUS
 10
-37.8231025876
 20
51.5736074986
 11
-37.8784481196
 21
51.6198451103
  0
LINE
  5
2C5
100
AcDbEntity
  8
RACCORDO
100
AcDbLine
 62
7
  6
CONTINUOUS
 10
-37.8231025876
 20
51.5736074986
 11
-37.7332163535
 21
51.4970886347
  0
LINE
  5
2C6
100
AcDbEntity
  8
RACCORDO
100
AcDbLine
 62
7
  6
CONTINUOUS
 10
-37.7332163535
 20
51.4970886347
 11
-37.6061915927
 21
51.3885187301
  0
LWPOLYLINE
  5
2C7
100
AcDbEntity
  8
RACCORDO
100
AcDbPolyline
 62
7
  6
CONTINUOUS
 90
5
 70
0
 10
33.6866414576
 20
1.0190728472
 10
33.6579663727
 20
1.0359612054
 10
33.6300564877
 20
1.0521960725
 10
33.6029138013
 20
1.0677869167
 10
33.5765383317
 20
1.0827337515
  0
LINE
  5
2C8
100
AcDbEntity
  8
RACCORDO
100
AcDbLine
 62
7
  6
CONTINUOUS
 10
33.7462990431
 20
0.9833923396
 11
33.6866414576
 21
1.0190728472
  0
LWPOLYLINE
  5
2C9
100
AcDbEntity
  8
RACCORDO
100
AcDbPolyline
 62
7
  6
CONTINUOUS
 90
3
 70
0
 10
33.841589444
 20
0.925282174
 10
33.809052914
 20
0.9452679424
 10
33.7462990431
 20
0.9833923396
  0
LWPOLYLINE
  5
2CA
100
AcDbEntity
  8
RACCORDO
100
AcDbPolyline
 62
7
  6
CONTINUOUS
 90
55
 70
0
 10
33.8412389835
 20
0.9255111182
 10
33.8446799123
 20
0.9233485552
 10
33.847967955
 20
0.9212360482
 10
33.851103033
 20
0.919173555
 10
33.8540679616
 20
0.9171679638
 10
33.856879815
 20
0.9152123266
 10
33.859589935
 20
0.9132858636
 10
33.8622110338
 20
0.9113813237
 10
33.8647303827
 20
0.9095059485
 10
33.8671611828
 20
0.9076607088
 10
33.8695033163
 20
0.9058466411
 10
33.8717569215
 20
0.9040627188
 10
33.8739355861
 20
0.9023068191
 10
33.8760392518
 20
0.9005799367
 10
33.8780680127
 20
0.8988810951
 10
33.880035681
 20
0.8972052128
 10
33.8819425834
 20
0.8955528591
 10
33.8837884353
 20
0.8939234864
 10
33.8855861287
 20
0.8923103356
 10
33.8873380167
 20
0.8907118858
 10
33.8890417934
 20
0.8891296825
 10
33.8907033598
 20
0.8875615645
 10
33.8923247607
 20
0.8860058225
 10
33.8939040015
 20
0.8844641923
 10
33.8954409178
 20
0.8829396774
 10
33.8969355625
 20
0.8814322564
 10
33.8983879295
 20
0.8799419757
 10
33.8997977577
 20
0.8784719364
 10
33.9011649247
 20
0.8770222842
 10
33.9024895936
 20
0.8755928952
 10
33.903771921
 20
0.8741864612
 10
33.9050116389
 20
0.8728033304
 10
33.9062090478
 20
0.8714431723
 10
33.9073651473
 20
0.8701076548
 10
33.9084795723
 20
0.8687973255
 10
33.9095527119
 20
0.8675116502
 10
33.9105866892
 20
0.8662506705
 10
33.9115814651
 20
0.8650146174
 10
33.9125370969
 20
0.8638032703
 10
33.9134558468
 20
0.8626159906
 10
33.9143376543
 20
0.8614530959
 10
33.9151825941
 20
0.8603142768
 10
33.9159931277
 20
0.8591979529
 10
33.9167693085
 20
0.8581043802
 10
33.9175110968
 20
0.8570333107
 10
33.9182208154
 20
0.8559824078
 10
33.9188991134
 20
0.8549509967
 10
33.9195453594
 20
0.8539397625
 10
33.9201599579
 20
0.8529484099
 10
33.9207433089
 20
0.8519763296
 10
33.9212950308
 20
0.8510241418
 10
33.9218143535
 20
0.8500933944
 10
33.9223010238
 20
0.8491846054
 10
33.9227553078
 20
0.8482972647
 10
33.9231772125
 20
0.8474313766
  0
LWPOLYLINE
  5
2CB
100
AcDbEntity
  8
RACCORDO
100
AcDbPolyline
 62
250
  6
CONTINUOUS
 90
64
 70
0
 10
48.4990276659
 20
-9.4804381262
 10
48.5112926049
 20
-9.4887198997
 10
48.5238368536
 20
-9.4968099366
 10
48.5366509391
 20
-9.5047077828
 10
48.5497226318
 20
-9.5124176751
 10
48.563044217
 20
-9.5199351986
 10
48.5766128719
 20
-9.5272470187
 10
48.5904182448
 20
-9.5343534164
 10
48.6044497229
 20
-9.5412547833
 10
48.6187043076
 20
-9.5479378657
 10
48.6331711126
 20
-9.554403547
 10
48.6478390312
 20
-9.5606526925
 10
48.6627049438
 20
-9.5666720301
 10
48.677757472
 20
-9.5724631258
 10
48.6929850495
 20
-9.5780273992
 10
48.7083844857
 20
-9.5833514591
 10
48.7239439626
 20
-9.5884376304
 10
48.7396514924
 20
-9.5932879648
 10
48.7555038513
 20
-9.5978888543
 10
48.7714888488
 20
-9.6022434514
 10
48.7875941192
 20
-9.6063545142
 10
48.8038164226
 20
-9.6102081284
 10
48.820143284
 20
-9.6138083301
 10
48.8365620129
 20
-9.617158653
 10
48.8530693364
 20
-9.6202448035
 10
48.8696526131
 20
-9.6230717377
 10
48.8862988937
 20
-9.6256438247
 10
48.903004808
 20
-9.6279463488
 10
48.9197577047
 20
-9.6299851919
 10
48.9365444616
 20
-9.6317656056
 10
48.9533614802
 20
-9.633272455
 10
48.9701963067
 20
-9.6345125117
 10
48.9870357584
 20
-9.6354919357
 10
49.0038757913
 20
-9.6361952458
 10
49.0207044178
 20
-9.6366300077
 10
49.0375085434
 20
-9.636803286
 10
49.0542833545
 20
-9.6366994237
 10
49.0710176687
 20
-9.6363266075
 10
49.0876986742
 20
-9.6356927605
 10
49.1043203416
 20
-9.6347823498
 10
49.1208727044
 20
-9.6336039153
 10
49.137343484
 20
-9.632166134
 10
49.1537248642
 20
-9.6304540578
 10
49.1700085626
 20
-9.6284762052
 10
49.1861831486
 20
-9.6262418262
 10
49.2022383439
 20
-9.6237372016
 10
49.2181680411
 20
-9.6209703476
 10
49.2339620356
 20
-9.6179508134
 10
49.2496068659
 20
-9.6146669365
 10
49.2650990487
 20
-9.6111256683
 10
49.2804300305
 20
-9.607336478
 10
49.2955825084
 20
-9.6032907353
 10
49.3105559335
 20
-9.5989937379
 10
49.3253438386
 20
-9.5944543943
 10
49.3399246392
 20
-9.58966814
 10
49.3543007831
 20
-9.5846380928
 10
49.368468263
 20
-9.5793720463
 10
49.3824011762
 20
-9.5738704497
 10
49.3961046845
 20
-9.5681338878
 10
49.4095774574
 20
-9.5621684724
 10
49.4227898015
 20
-9.5559803481
 10
49.4357362071
 20
-9.5495716731
 10
49.4484315095
 20
-9.5429419151
 10
49.4608791249
 20
-9.53609147
  0
LINE
  5
2CC
100
AcDbEntity
  8
RACCORDO
100
AcDbLine
 62
250
  6
CONTINUOUS
 10
-37.6033872291
 20
51.4194559654
 11
-37.7965737151
 21
51.5511452676
  0
LWPOLYLINE
  5
2CD
100
AcDbEntity
  8
RACCORDO
100
AcDbPolyline
 62
250
  6
CONTINUOUS
 90
16
 70
0
 10
-37.1324341769
 20
52.2056904788
 10
-38.1565711831
 20
52.905146272
 10
-39.1784058588
 20
53.6063490818
 10
-40.1979382041
 20
54.309298908
 10
-41.2151733786
 20
55.013999333
 10
-42.2301062226
 20
55.7204467745
 10
-43.2427212574
 20
56.4286304853
 10
-44.2530188981
 20
57.1385508067
 10
-45.2609987296
 20
57.8502073974
 10
-46.266644027
 20
58.563588487
 10
-47.2699553162
 20
59.2786945216
 10
-48.2709320712
 20
59.9955250552
 10
-49.2695559896
 20
60.7140669789
 10
-50.2658209705
 20
61.4343159231
 10
-51.2597331147
 20
62.1562762573
 10
-52.2512924223
 20
62.8799479817
  0
LWPOLYLINE
  5
2CE
100
AcDbEntity
  8
RACCORDO
100
AcDbPolyline
 62
250
  6
CONTINUOUS
 90
16
 70
0
 10
-38.1699264699
 20
51.8059821838
 10
-39.1559690268
 20
52.4811413932
 10
-40.1398819595
 20
53.1579273184
 10
-41.1216604596
 20
53.8363367298
 10
-42.1012995938
 20
54.516366321
 10
-43.0787947115
 20
55.1980128813
 10
-44.0541414419
 20
55.8812732968
 10
-45.0273353733
 20
56.5661444768
 10
-45.9983713903
 20
57.2526228847
 10
-46.9672440844
 20
57.9407047087
 10
-47.9339492106
 20
58.6303868961
 10
-48.8984815594
 20
59.3216657529
 10
-49.8608343103
 20
60.0145364651
 10
-50.8210020763
 20
60.7089951314
 10
-51.7789808886
 20
61.4050387722
 10
-52.734766084
 20
62.1026639196
  0
LWPOLYLINE
  5
2CF
100
AcDbEntity
  8
RACCORDO
100
AcDbPolyline
 62
250
  6
CONTINUOUS
 90
16
 70
0
 10
48.4990276659
 20
-9.4804381262
 10
47.5131744811
 20
-8.8051177273
 10
46.5294532074
 20
-8.1281721187
 10
45.5478686408
 20
-7.4496045391
 10
44.5684255793
 20
-6.7694182175
 10
43.5911287845
 20
-6.0876164598
 10
42.6159829821
 20
-5.4042026489
 10
41.6429929231
 20
-4.719180136
 10
40.6721633521
 20
-4.032552219
 10
39.7034989693
 20
-3.3443222293
 10
38.7370044897
 20
-2.6544935724
 10
37.7726846296
 20
-1.9630696059
 10
36.8105440756
 20
-1.2700536175
 10
35.8505875121
 20
-0.5754489954
 10
34.8928196209
 20
0.1207407716
 10
33.9372450688
 20
0.8185122166
  0
LWPOLYLINE
  5
2D0
100
AcDbEntity
  8
RACCORDO
100
AcDbPolyline
 62
250
  6
CONTINUOUS
 90
16
 70
0
 10
48.9662059033
 20
-8.691631459
 10
47.9435412196
 20
-7.9910318304
 10
46.923184057
 20
-7.2886887336
 10
45.9051344156
 20
-6.5846021687
 10
44.8893869277
 20
-5.8787683781
 10
43.8759469609
 20
-5.1711911193
 10
42.8648306186
 20
-4.4618816653
 10
41.8560379392
 20
-3.7508399916
 10
40.8495688842
 20
-3.0380661225
 10
39.8454394426
 20
-2.3235714046
 10
38.8436497223
 20
-1.6073558661
 10
37.8441996153
 20
-0.8894194787
 10
36.8471047857
 20
-0.1697735038
 10
35.852370455
 20
0.5515783045
 10
34.8599914017
 20
1.2746397003
 10
33.8699676259
 20
1.9994106834
  0
LINE
  5
2D1
100
AcDbEntity
  8
DRAFT
100
AcDbLine
 62
7
  6
CONTINUOUS
 10
-37.6061915927
 20
51.3885187301
 11
33.3873292384
 21
1.1885187301
  0
LINE
  5
2D2
100
AcDbEntity
  8
RACCORDO
100
AcDbLine
 62
250
  6
CONTINUOUS
 10
33.3901347406
 20
1.2194671014
 11
-37.6033862105
 21
51.4194671863
  0
LINE
  5
2D3
100
AcDbEntity
  8
RACCORDO
100
AcDbLine
 62
250
  6
CONTINUOUS
 10
33.8699676259
 20
1.9994106834
 11
-37.1324341769
 21
52.2056904788
  0
LINE
  5
2D4
100
AcDbEntity
  8
RACCORDO
100
AcDbLine
 62
250
  6
CONTINUOUS
 10
33.5765383275
 20
1.0827337484
 11
33.3901337219
 21
1.2194558807
  0
LWPOLYLINE
  5
2D5
100
AcDbEntity
  8
RACCORDO
100
AcDbPolyline
 62
250
  6
CONTINUOUS
 90
36
 70
0
 10
-52.734766084
 20
62.1026639196
 10
-52.7463629411
 20
62.1112549839
 10
-52.7576641481
 20
62.1200262305
 10
-52.7686617717
 20
62.1289658053
 10
-52.7793471917
 20
62.1380547286
 10
-52.7897143279
 20
62.1472876606
 10
-52.7997591882
 20
62.1566731174
 10
-52.8094748881
 20
62.1661986299
 10
-52.8188549167
 20
62.1758516982
 10
-52.8278955727
 20
62.1856408386
 10
-52.8365907018
 20
62.1955531183
 10
-52.8449345309
 20
62.2055757357
 10
-52.8529236622
 20
62.2157173548
 10
-52.8605527104
 20
62.2259645557
 10
-52.8678166739
 20
62.2363042037
 10
-52.8747124622
 20
62.2467452484
 10
-52.881235498
 20
62.2572737717
 10
-52.8873815841
 20
62.2678762776
 10
-52.8931479323
 20
62.2785621227
 10
-52.8985308113
 20
62.2893168962
 10
-52.9035268612
 20
62.3001267203
 10
-52.9081335831
 20
62.3110014513
 10
-52.9123481272
 20
62.3219262169
 10
-52.9161680015
 20
62.3328867478
 10
-52.9195909812
 20
62.3438934501
 10
-52.922615126
 20
62.3549310568
 10
-52.9252388392
 20
62.3659849132
 10
-52.9274601599
 20
62.3770659656
 10
-52.9292780708
 20
62.3881586667
 10
-52.9306918919
 20
62.3992480052
 10
-52.9316999325
 20
62.4103453763
 10
-52.9323020892
 20
62.4214351287
 10
-52.9324986072
 20
62.4325019545
 10
-52.9322881086
 20
62.443557501
 10
-52.9316713568
 20
62.4545862658
 10
-52.9313612491
 20
62.4584195969
  0
LINE
  5
2D6
100
AcDbEntity
  8
RACCORDO
100
AcDbLine
 62
250
  6
CONTINUOUS
 10
33.8252870257
 20
-55.6734655174
 11
33.818662576
 21
-55.6460576736
  0
LINE
  5
2D7
100
AcDbEntity
  8
RACCORDO
100
AcDbLine
 62
250
  6
CONTINUOUS
 10
33.818662576
 20
-55.6460576736
 11
33.8118143272
 21
-55.6166470145
  0
LINE
  5
2D8
100
AcDbEntity
  8
RACCORDO
100
AcDbLine
 62
250
  6
CONTINUOUS
 10
33.8118143272
 20
-55.6166470145
 11
33.8047056209
 21
-55.5849710597
  0
LINE
  5
2D9
100
AcDbEntity
  8
RACCORDO
100
AcDbLine
 62
250
  6
CONTINUOUS
 10
33.8047056209
 20
-55.5849710597
 11
33.7974189219
 21
-55.5512996688
  0
LINE
  5
2DA
100
AcDbEntity
  8
RACCORDO
100
AcDbLine
 62
250
  6
CONTINUOUS
 10
33.7974189219
 20
-55.5512996688
 11
33.7900077317
 21
-55.5158123034
  0
LINE
  5
2DB
100
AcDbEntity
  8
RACCORDO
100
AcDbLine
 62
250
  6
CONTINUOUS
 10
33.7900077317
 20
-55.5158123034
 11
33.7825730709
 21
-55.4789642216
  0
LINE
  5
2DC
100
AcDbEntity
  8
RACCORDO
100
AcDbLine
 62
250
  6
CONTINUOUS
 10
33.5644263549
 20
-55.0143788878
 11
33.5500263978
 21
-54.9412823608
  0
LINE
  5
2DD
100
AcDbEntity
  8
RACCORDO
100
AcDbLine
 62
250
  6
CONTINUOUS
 10
33.7825730709
 20
-55.4789642216
 11
33.7750654489
 21
-55.4404909943
  0
LINE
  5
2DE
100
AcDbEntity
  8
RACCORDO
100
AcDbLine
 62
250
  6
CONTINUOUS
 10
33.7750654489
 20
-55.4404909943
 11
33.7674633662
 21
-55.4002439349
  0
LWPOLYLINE
  5
2DF
100
AcDbEntity
  8
RACCORDO
100
AcDbPolyline
 62
250
  6
CONTINUOUS
 90
7
 70
0
 10
33.5500263978
 20
-54.9412823608
 10
33.5354676439
 20
-54.8638365828
 10
33.5281330064
 20
-54.8234502196
 10
33.5207684928
 20
-54.7818817763
 10
33.5133774061
 20
-54.7391059107
 10
33.5059600837
 20
-54.6951455335
 10
33.4985184162
 20
-54.6499993844
  0
LINE
  5
2E0
100
AcDbEntity
  8
RACCORDO
100
AcDbLine
 62
250
  6
CONTINUOUS
 10
33.7674633662
 20
-55.4002439349
 11
33.7597204721
 21
-55.357920874
  0
LINE
  5
2E1
100
AcDbEntity
  8
RACCORDO
100
AcDbLine
 62
250
  6
CONTINUOUS
 10
33.7597204721
 20
-55.357920874
 11
33.7518048957
 21
-55.3132653909
  0
LINE
  5
2E2
100
AcDbEntity
  8
RACCORDO
100
AcDbLine
 62
7
  6
CONTINUOUS
 10
33.3873292384
 20
-55.5195989867
 11
33.3901347407
 21
-55.5465799485
  0
LWPOLYLINE
  5
2E3
100
AcDbEntity
  8
RACCORDO
100
AcDbPolyline
 62
250
  6
CONTINUOUS
 90
44
 70
0
 10
-52.2512924223
 20
62.8799479817
 10
-52.2629309527
 20
62.8874873728
 10
-52.2745548093
 20
62.8947734469
 10
-52.2861579771
 20
62.9018024158
 10
-52.2977345476
 20
62.908570676
 10
-52.3092784318
 20
62.9150746498
 10
-52.3207833658
 20
62.9213108097
 10
-52.3322432977
 20
62.927275886
 10
-52.3436523972
 20
62.9329668394
 10
-52.3550047708
 20
62.9383807172
 10
-52.3662945487
 20
62.9435147149
 10
-52.3775158849
 20
62.9483661792
 10
-52.3886629701
 20
62.9529326025
 10
-52.3997300349
 20
62.9572116228
 10
-52.4107113543
 20
62.9612010252
 10
-52.4216012471
 20
62.9648987445
 10
-52.4323940788
 20
62.9683028672
 10
-52.4430842645
 20
62.9714116323
 10
-52.4536662727
 20
62.974223431
 10
-52.4641346279
 20
62.9767368086
 10
-52.4744839135
 20
62.9789504646
 10
-52.4847087744
 20
62.9808632534
 10
-52.49480392
 20
62.9824741853
 10
-52.5047641268
 20
62.9837824268
 10
-52.514584241
 20
62.9847873009
 10
-52.5242591815
 20
62.9854882875
 10
-52.5337839421
 20
62.985885024
 10
-52.5431535945
 20
62.9859773051
 10
-52.5523632904
 20
62.9857650831
 10
-52.5614082644
 20
62.9852484676
 10
-52.5702838366
 20
62.9844277261
 10
-52.5789854142
 20
62.9833032832
 10
-52.5875084949
 20
62.9818757206
 10
-52.5958486686
 20
62.9801457771
 10
-52.6040016198
 20
62.9781143478
 10
-52.6119631299
 20
62.9757824838
 10
-52.6197290794
 20
62.9731513917
 10
-52.6272954498
 20
62.9702224328
 10
-52.6346583262
 20
62.9669971227
 10
-52.6418138987
 20
62.9634771304
 10
-52.6487584648
 20
62.9596642771
 10
-52.6554884312
 20
62.9555605359
 10
-52.6620003151
 20
62.9511680302
 10
-52.668290747
 20
62.9464890332
  0
LINE
  5
2E4
100
AcDbEntity
  8
RACCORDO
100
AcDbLine
 62
7
  6
CONTINUOUS
 10
-47.7792145975
 20
66.4328507696
 11
53.7619222313
 21
-5.3675756515
  0
LINE
  5
2E5
100
AcDbEntity
  8
RACCORDO
100
AcDbLine
 62
250
  6
CONTINUOUS
 10
33.7518048957
 20
-55.3132653909
 11
33.7437036503
 21
-55.2661072391
  0
LINE
  5
2E6
100
AcDbEntity
  8
RACCORDO
100
AcDbLine
 62
250
  6
CONTINUOUS
 10
33.7437036503
 20
-55.2661072391
 11
33.7353918413
 21
-55.2161893905
  0
LINE
  5
2E7
100
AcDbEntity
  8
RACCORDO
100
AcDbLine
 62
250
  6
CONTINUOUS
 10
33.7353918413
 20
-55.2161893905
 11
33.7268501453
 21
-55.1632627752
  0
LWPOLYLINE
  5
2E8
100
AcDbEntity
  8
RACCORDO
100
AcDbPolyline
 62
250
  6
CONTINUOUS
 90
24
 70
0
 10
33.4985184162
 20
-54.6499993844
 10
33.4798392536
 20
-54.5314027548
 10
33.4616929734
 20
-54.4083965356
 10
33.444100965
 20
-54.2809666852
 10
33.4270899446
 20
-54.1492658776
 10
33.4106780505
 20
-54.0131121923
 10
33.3948777071
 20
-53.871987219
 10
33.3797049977
 20
-53.725970752
 10
33.365199835
 20
-53.5749469102
 10
33.3514193307
 20
-53.4180980262
 10
33.3383701666
 20
-53.2553076941
 10
33.3261194074
 20
-53.0866453568
 10
33.3148255798
 20
-52.9115652585
 10
33.3045172779
 20
-52.7302717352
 10
33.2952556389
 20
-52.5425042213
 10
33.2872642526
 20
-52.3470094389
 10
33.2805571396
 20
-52.1432641125
 10
33.2752457061
 20
-51.9317139967
 10
33.271713042
 20
-51.7125512448
 10
33.2700377348
 20
-51.4844747295
 10
33.2702870083
 20
-51.2486975356
 10
33.2727963539
 20
-51.0092029216
 10
33.2777090931
 20
-50.7653747695
 10
33.2837841066
 20
-50.5581054178
  0
LINE
  5
2E9
100
AcDbEntity
  8
RACCORDO
100
AcDbLine
 62
250
  6
CONTINUOUS
 10
33.7268501453
 20
-55.1632627752
 11
33.7180759029
 21
-55.107165205
  0
LINE
  5
2EA
100
AcDbEntity
  8
RACCORDO
100
AcDbLine
 62
250
  6
CONTINUOUS
 10
33.7180759029
 20
-55.107165205
 11
33.7090562949
 21
-55.0476537018
  0
LINE
  5
2EB
100
AcDbEntity
  8
RACCORDO
100
AcDbLine
 62
250
  6
CONTINUOUS
 10
33.7090562949
 20
-55.0476537018
 11
33.6997814435
 21
-54.9844819913
  0
LINE
  5
2EC
100
AcDbEntity
  8
RACCORDO
100
AcDbLine
 62
250
  6
CONTINUOUS
 10
33.6997814435
 20
-54.9844819913
 11
33.6902562142
 21
-54.9174885073
  0
LINE
  5
2ED
100
AcDbEntity
  8
RACCORDO
100
AcDbLine
 62
250
  6
CONTINUOUS
 10
33.6902562142
 20
-54.9174885073
 11
33.6804682673
 21
-54.8463703087
  0
LWPOLYLINE
  5
2EE
100
AcDbEntity
  8
RACCORDO
100
AcDbPolyline
 62
250
  6
CONTINUOUS
 90
9
 70
0
 10
33.6804682673
 20
-54.8463703087
 10
33.6616823296
 20
-54.7032373953
 10
33.6479639834
 20
-54.5929313522
 10
33.6343461017
 20
-54.4783715621
 10
33.6208609061
 20
-54.3597244907
 10
33.6075133264
 20
-54.2368245967
 10
33.5942725513
 20
-54.1091734373
 10
33.5811749608
 20
-53.9768697972
 10
33.5724544142
 20
-53.8851736946
  0
LWPOLYLINE
  5
2EF
100
AcDbEntity
  8
RACCORDO
100
AcDbPolyline
 62
250
  6
CONTINUOUS
 90
22
 70
0
 10
33.3901346806
 20
-55.546579906
 10
33.3914138498
 20
-55.5574643281
 10
33.3929748503
 20
-55.5681148082
 10
33.3948168333
 20
-55.5785251735
 10
33.3969383639
 20
-55.5886892345
 10
33.3993387018
 20
-55.5986012373
 10
33.4020177524
 20
-55.6082559118
 10
33.4049739307
 20
-55.6176475423
 10
33.408205577
 20
-55.6267708703
 10
33.4117121996
 20
-55.6356215802
 10
33.4154917877
 20
-55.6441945743
 10
33.4195421653
 20
-55.6524849076
 10
33.4238623546
 20
-55.6604887399
 10
33.4284498778
 20
-55.6682014656
 10
33.4333020962
 20
-55.675618641
 10
33.4384175571
 20
-55.6827369272
 10
33.4437933339
 20
-55.6895522393
 10
33.4494263336
 20
-55.6960606548
 10
33.4553146277
 20
-55.7022593492
 10
33.461455157
 20
-55.7081449911
 10
33.4678440886
 20
-55.7137139899
 10
33.4744781194
 20
-55.7189634095
  0
LWPOLYLINE
  5
2F0
100
AcDbEntity
  8
RACCORDO
100
AcDbPolyline
 62
7
  6
CONTINUOUS
 90
57
 70
0
 10
33.5206810074
 20
-1.4519589076
 10
33.4907891824
 20
-1.8270563194
 10
33.4126657985
 20
-2.8313704328
 10
33.3374828135
 20
-3.8337230453
 10
33.2652410309
 20
-4.834104369
 10
33.1959412623
 20
-5.8325043625
 10
33.1295842944
 20
-6.8289126062
 10
33.0661708966
 20
-7.8233187461
 10
33.0057018169
 20
-8.815712565
 10
32.9481777595
 20
-9.806083584
 10
32.8935994248
 20
-10.7944210616
 10
32.8419674721
 20
-11.780714692
 10
32.7932824951
 20
-12.7649543145
 10
32.74754509
 20
-13.7471294134
 10
32.7047558226
 20
-14.7272297734
 10
32.6649151968
 20
-15.7052452499
 10
32.6280237111
 20
-16.6811654391
 10
32.5940818391
 20
-17.6549801735
 10
32.5630899911
 20
-18.6266794017
 10
32.535048568
 20
-19.5962528988
 10
32.509957952
 20
-20.5636905446
 10
32.4878184617
 20
-21.5289823732
 10
32.4686304021
 20
-22.4921183956
 10
32.4523940641
 20
-23.4530886085
 10
32.439109678
 20
-24.4118830634
 10
32.4287774588
 20
-25.3684918563
 10
32.4213976078
 20
-26.3229050563
 10
32.4169702655
 20
-27.2751127779
 10
32.4154955576
 20
-28.2251051876
 10
32.4169735957
 20
-29.1728724248
 10
32.4214044306
 20
-30.1184046711
 10
32.4287880988
 20
-31.0616921586
 10
32.4391246223
 20
-32.0027250943
 10
32.4524139622
 20
-32.9414937313
 10
32.4686560658
 20
-33.877988374
 10
32.4878508656
 20
-34.8121993065
 10
32.5099982331
 20
-35.7441168454
 10
32.5350980261
 20
-36.6737313468
 10
32.5631500901
 20
-37.6010332493
 10
32.5941542046
 20
-38.5260128568
 10
32.6281101276
 20
-39.4486603274
 10
32.665017612
 20
-40.3689661417
 10
32.7048763457
 20
-41.2869207117
 10
32.7476859839
 20
-42.2025141012
 10
32.7934461839
 20
-43.1157368175
 10
32.8421565407
 20
-44.0265793929
 10
32.8938166098
 20
-44.9350319384
 10
32.9484259571
 20
-45.8410850844
 10
33.0059840837
 20
-46.744729417
 10
33.0664904384
 20
-47.6459549915
 10
33.1299444761
 20
-48.5447522894
 10
33.1963456079
 20
-49.4411121236
 10
33.2656932123
 20
-50.335025054
 10
33.3379866611
 20
-51.2264817506
 10
33.4132253011
 20
-52.1154732995
 10
33.4914084751
 20
-53.0019908882
 10
33.5724565945
 20
-53.885182287
  0
LWPOLYLINE
  5
2F1
100
AcDbEntity
  8
RACCORDO
100
AcDbPolyline
 62
250
  6
CONTINUOUS
 90
13
 70
0
 10
33.5206817528
 20
-1.4519479665
 10
33.530237385
 20
-1.3356373332
 10
33.5426624496
 20
-1.1922687915
 10
33.5553097331
 20
-1.0544656682
 10
33.568121062
 20
-0.9223119732
 10
33.5810622877
 20
-0.7957262195
 10
33.5941721158
 20
-0.67396183
 10
33.6074269013
 20
-0.5569229216
 10
33.620790369
 20
-0.4447187374
 10
33.6342919245
 20
-0.3369078806
 10
33.6479265639
 20
-0.2333472
 10
33.6616635306
 20
-0.1342091835
 10
33.6754886027
 20
-0.039513735
  0
LWPOLYLINE
  5
2F2
100
AcDbEntity
  8
RACCORDO
100
AcDbPolyline
 62
250
  6
CONTINUOUS
 90
61
 70
0
 10
33.9372450688
 20
0.8185122166
 10
33.8504568405
 20
-0.1905797893
 10
33.7666021058
 20
-1.1977324262
 10
33.6856817662
 20
-2.2029352556
 10
33.6076967191
 20
-3.2061778828
 10
33.5326477759
 20
-4.207449884
 10
33.4605356615
 20
-5.2067408076
 10
33.3913611478
 20
-6.2040402927
 10
33.3251249819
 20
-7.1993380003
 10
33.2618278037
 20
-8.1926235407
 10
33.2014702904
 20
-9.1838866099
 10
33.1440530941
 20
-10.1731169326
 10
33.0895767689
 20
-11.1603041929
 10
33.0380418973
 20
-12.145438145
 10
32.9894490363
 20
-13.1285085778
 10
32.9437986541
 20
-14.1095052585
 10
32.9010912382
 20
-15.0884180076
 10
32.8613272509
 20
-16.0652366718
 10
32.8245070755
 20
-17.0399510888
 10
32.7906311043
 20
-18.0125511445
 10
32.759699705
 20
-18.983026746
 10
32.7317131758
 20
-19.9513677944
 10
32.7066718144
 20
-20.9175642373
 10
32.6845758933
 20
-21.8816060481
 10
32.6654256255
 20
-22.8434831983
 10
32.6492212137
 20
-23.8031856993
 10
32.6359628353
 20
-24.7607035907
 10
32.6256506181
 20
-25.716026919
 10
32.6182846698
 20
-26.6691457619
 10
32.6138650727
 20
-27.6200502242
 10
32.6123918695
 20
-28.5687304266
 10
32.6138650727
 20
-29.5151765133
 10
32.6182846698
 20
-30.4593786561
 10
32.6256506181
 20
-31.4013270497
 10
32.6359628353
 20
-32.3410119063
 10
32.6492212137
 20
-33.2784234651
 10
32.6654256255
 20
-34.2135519955
 10
32.6845758933
 20
-35.1463877788
 10
32.7066718144
 20
-36.0769211222
 10
32.7317131758
 20
-37.0051423691
 10
32.759699705
 20
-37.9310418687
 10
32.7906311043
 20
-38.854609999
 10
32.8245070755
 20
-39.7758371814
 10
32.8613272509
 20
-40.6947138335
 10
32.9010912382
 20
-41.6112304056
 10
32.9437986541
 20
-42.5253774041
 10
32.9894490363
 20
-43.4371453199
 10
33.0380418973
 20
-44.3465246725
 10
33.0895767689
 20
-45.2535060459
 10
33.1440530941
 20
-46.1580800073
 10
33.2014702904
 20
-47.060237144
 10
33.2618278037
 20
-47.9599681069
 10
33.3251249819
 20
-48.8572635333
 10
33.3913611478
 20
-49.7521140864
 10
33.4605356615
 20
-50.6445104926
 10
33.532647776
 20
-51.5344434599
 10
33.6076967191
 20
-52.421903729
 10
33.6856817662
 20
-53.3068821115
 10
33.7666021058
 20
-54.189369411
 10
33.8504568405
 20
-55.0693564222
 10
33.9372450688
 20
-55.9468339819
  0
LINE
  5
2F3
100
AcDbEntity
  8
RACCORDO
100
AcDbLine
 62
7
  6
CONTINUOUS
 10
33.3901347406
 20
1.2194671014
 11
33.3873292384
 21
1.1885187301
  0
LWPOLYLINE
  5
2F4
100
AcDbEntity
  8
RACCORDO
100
AcDbPolyline
 62
250
  6
CONTINUOUS
 90
61
 70
0
 10
33.3901346806
 20
1.2194671439
 10
33.3914592104
 20
1.2321507148
 10
33.3930722921
 20
1.2449962856
 10
33.3949730592
 20
1.2579964702
 10
33.3971610115
 20
1.2711436569
 10
33.3996344387
 20
1.284430416
 10
33.4023903762
 20
1.2978494816
 10
33.4054272246
 20
1.3113928745
 10
33.4087433103
 20
1.3250529968
 10
33.4123352798
 20
1.3388230249
 10
33.4162011113
 20
1.3526949991
 10
33.4203386195
 20
1.3666609087
 10
33.4247439741
 20
1.3807137652
 10
33.4294146907
 20
1.3948454441
 10
33.4343481257
 20
1.409047784
 10
33.4395399853
 20
1.4233136722
 10
33.4449873299
 20
1.4376348655
 10
33.450687077
 20
1.4520030894
 10
33.4566345003
 20
1.466411138
 10
33.4628259093
 20
1.4808509046
 10
33.4692581094
 20
1.495313831
 10
33.4759269106
 20
1.5097920083
 10
33.4828280282
 20
1.5242774152
 10
33.489958036
 20
1.5387613464
 10
33.4973138346
 20
1.5532348626
 10
33.5048912014
 20
1.5676896348
 10
33.5126858641
 20
1.5821172882
 10
33.5206944626
 20
1.5965088313
 10
33.5289125195
 20
1.6108559095
 10
33.5373352759
 20
1.6251502805
 10
33.5459587724
 20
1.6393831571
 10
33.5547784115
 20
1.6535461457
 10
33.5637888574
 20
1.6676312346
 10
33.5729848743
 20
1.6816302682
 10
33.5823613002
 20
1.6955351127
 10
33.5919127081
 20
1.7093377768
 10
33.6016333032
 20
1.723030402
 10
33.6115175338
 20
1.7366050761
 10
33.6215597617
 20
1.7500539535
 10
33.6317539157
 20
1.7633693805
 10
33.6420940991
 20
1.7765436887
 10
33.6525744777
 20
1.7895692402
 10
33.6631889443
 20
1.8024385523
 10
33.6739313857
 20
1.8151442055
 10
33.6847957091
 20
1.8276788415
 10
33.695775727
 20
1.8400352116
 10
33.7068651639
 20
1.8522061742
 10
33.7180576795
 20
1.8641846957
 10
33.729346895
 20
1.8759638493
 10
33.7407263576
 20
1.8875368252
 10
33.7521895594
 20
1.898896934
 10
33.7637299618
 20
1.9100376066
 10
33.7753409671
 20
1.9209524007
 10
33.7870159344
 20
1.9316350052
 10
33.7987482
 20
1.9420792423
 10
33.8105310553
 20
1.9522790703
 10
33.8223577609
 20
1.9622285894
 10
33.8342215634
 20
1.9719220438
 10
33.846115681
 20
1.9813538247
 10
33.8580333073
 20
1.9905184729
 10
33.8699676259
 20
1.9994106834
  0
LINE
  5
2F5
100
AcDbEntity
  8
RACCORDO
100
AcDbLine
 62
250
  6
CONTINUOUS
 10
33.6754887716
 20
-0.0395137113
 11
33.6853961233
 21
0.0253427745
  0
LINE
  5
2F6
100
AcDbEntity
  8
RACCORDO
100
AcDbLine
 62
250
  6
CONTINUOUS
 10
33.6853961233
 20
0.0253427745
 11
33.6950601665
 21
0.0862306269
  0
LINE
  5
2F7
100
AcDbEntity
  8
RACCORDO
100
AcDbLine
 62
250
  6
CONTINUOUS
 10
33.6950601665
 20
0.0862306269
 11
33.7044608865
 21
0.1432423886
  0
LINE
  5
2F8
100
AcDbEntity
  8
RACCORDO
100
AcDbLine
 62
250
  6
CONTINUOUS
 10
33.7044608865
 20
0.1432423886
 11
33.7136085414
 21
0.1966473303
  0
LINE
  5
2F9
100
AcDbEntity
  8
RACCORDO
100
AcDbLine
 62
250
  6
CONTINUOUS
 10
33.7136085414
 20
0.1966473303
 11
33.7225123795
 21
0.2466856323
  0
LINE
  5
2FA
100
AcDbEntity
  8
RACCORDO
100
AcDbLine
 62
250
  6
CONTINUOUS
 10
33.7225123795
 20
0.2466856323
 11
33.7311713743
 21
0.2935207937
  0
LINE
  5
2FB
100
AcDbEntity
  8
RACCORDO
100
AcDbLine
 62
250
  6
CONTINUOUS
 10
33.7311713743
 20
0.2935207937
 11
33.7395995545
 21
0.3373859873
  0
LINE
  5
2FC
100
AcDbEntity
  8
RACCORDO
100
AcDbLine
 62
250
  6
CONTINUOUS
 10
33.7395995545
 20
0.3373859873
 11
33.7478156829
 21
0.3785167537
  0
LINE
  5
2FD
100
AcDbEntity
  8
RACCORDO
100
AcDbLine
 62
250
  6
CONTINUOUS
 10
33.7478156829
 20
0.3785167537
 11
33.7558275718
 21
0.4170744111
  0
LWPOLYLINE
  5
2FE
100
AcDbEntity
  8
RACCORDO
100
AcDbPolyline
 62
250
  6
CONTINUOUS
 90
57
 70
0
 10
33.7558275718
 20
0.4170744111
 10
33.7636613233
 20
0.4532935414
 10
33.767522265
 20
0.4706039559
 10
33.7713481708
 20
0.4874051092
 10
33.7751380239
 20
0.5037005137
 10
33.7789093473
 20
0.5195722535
 10
33.7826647702
 20
0.5350359457
 10
33.7863998081
 20
0.5500759611
 10
33.7901221999
 20
0.5647266863
 10
33.7938416569
 20
0.5790281769
 10
33.7975474704
 20
0.5929391708
 10
33.8012154345
 20
0.6063739935
 10
33.8048392998
 20
0.6193204736
 10
33.8084207664
 20
0.6317940934
 10
33.8119450073
 20
0.6437542669
 10
33.8153991403
 20
0.6551735164
 10
33.8187888937
 20
0.6660864352
 10
33.8221269435
 20
0.6765463723
 10
33.8254093395
 20
0.686553849
 10
33.8286337753
 20
0.6961146175
 10
33.8318168945
 20
0.7052879149
 10
33.8349589065
 20
0.7140835776
 10
33.8380545857
 20
0.722496494
 10
33.8411139112
 20
0.7305613084
 10
33.8441358429
 20
0.7382830513
 10
33.8471167727
 20
0.7456609957
 10
33.8500638998
 20
0.7527193719
 10
33.8529745777
 20
0.7594588418
 10
33.8558468668
 20
0.765883027
 10
33.8586901647
 20
0.7720184517
 10
33.8615025799
 20
0.777866499
 10
33.8642818496
 20
0.7834293006
 10
33.8670382064
 20
0.7887316203
 10
33.8697719099
 20
0.7937774933
 10
33.8724791776
 20
0.7985650049
 10
33.8751653714
 20
0.8031071235
 10
33.877832283
 20
0.8074095893
 10
33.880474615
 20
0.811468243
 10
33.8830873455
 20
0.8152799041
 10
33.8856679285
 20
0.8188458694
 10
33.8882137572
 20
0.822169403
 10
33.8907192492
 20
0.8252504165
 10
33.8931771499
 20
0.8280878659
 10
33.8955876853
 20
0.8306917073
 10
33.8979566673
 20
0.8330770309
 10
33.9002781813
 20
0.8352457842
 10
33.9025508944
 20
0.8372061135
 10
33.904788765
 20
0.8389781707
 10
33.9069908311
 20
0.8405671229
 10
33.909151704
 20
0.8419760899
 10
33.911279989
 20
0.8432175807
 10
33.9133778279
 20
0.8442980731
 10
33.9154369452
 20
0.8452193094
 10
33.9174504378
 20
0.8459859339
 10
33.9194133639
 20
0.8466046631
 10
33.9213232776
 20
0.847083893
 10
33.923176677
 20
0.8474324222
  0
LWPOLYLINE
  5
2FF
100
AcDbEntity
  8
RACCORDO
100
AcDbPolyline
 62
250
  6
CONTINUOUS
 90
29
 70
0
 10
33.4984993064
 20
0.2331920044
 10
33.4797936137
 20
0.151013064
 10
33.4616236935
 20
0.0645825665
 10
33.4440109781
 20
-0.0260832473
 10
33.4269823987
 20
-0.1208243899
 10
33.4105559649
 20
-0.2197665933
 10
33.394743642
 20
-0.323319144
 10
33.3795618875
 20
-0.4313549694
 10
33.3650503345
 20
-0.5439579624
 10
33.3512647895
 20
-0.6618468503
 10
33.3382105492
 20
-0.7850522149
 10
33.3259565514
 20
-0.9134857658
 10
33.3146647657
 20
-1.0476795578
 10
33.3043657846
 20
-1.1873464899
 10
33.2951183843
 20
-1.3327032605
 10
33.2871434273
 20
-1.4850245285
 10
33.2804533509
 20
-1.6446488185
 10
33.2751627251
 20
-1.8111365041
 10
33.2716590448
 20
-1.9845841403
 10
33.2700245984
 20
-2.1660006265
 10
33.2703231837
 20
-2.3542586486
 10
33.2728810481
 20
-2.5462761878
 10
33.2778380483
 20
-2.7425077316
 10
33.2851327876
 20
-2.9424313993
 10
33.2947007196
 20
-3.1415708183
 10
33.3065475301
 20
-3.3390408145
 10
33.320630492
 20
-3.5357509049
 10
33.3367398067
 20
-3.7299750779
 10
33.3414886323
 20
-3.7803167733
  0
LWPOLYLINE
  5
300
100
AcDbEntity
  8
RACCORDO
100
AcDbPolyline
 62
250
  6
CONTINUOUS
 90
52
 70
0
 10
33.4984993064
 20
0.2331920044
 10
33.5059308489
 20
0.264049319
 10
33.5133359833
 20
0.2939189058
 10
33.5207128114
 20
0.3227993458
 10
33.5280601601
 20
0.350662166
 10
33.5353755454
 20
0.3775331103
 10
33.5426553205
 20
0.4034922484
 10
33.5498978258
 20
0.4285407827
 10
33.5571016754
 20
0.4526752447
 10
33.5642639488
 20
0.4759689322
 10
33.571382178
 20
0.4984200837
 10
33.5784562684
 20
0.5200285592
 10
33.585487138
 20
0.5408702958
 10
33.5924724757
 20
0.5609445203
 10
33.5994124695
 20
0.5802504342
 10
33.6063120452
 20
0.5988641271
 10
33.613168957
 20
0.6167856271
 10
33.6199837134
 20
0.6340136229
 10
33.6267656055
 20
0.6506223681
 10
33.6335122981
 20
0.6666125121
 10
33.6402247217
 20
0.6819823698
 10
33.646917275
 20
0.6968028474
 10
33.6535874788
 20
0.7110754237
 10
33.6602366909
 20
0.7247977945
 10
33.6668852495
 20
0.7380353267
 10
33.6735376465
 20
0.7508016416
 10
33.6801885156
 20
0.763082475
 10
33.6868435247
 20
0.774901452
 10
33.693509732
 20
0.7862701476
 10
33.7001793214
 20
0.7971764306
 10
33.7068356721
 20
0.8076083839
 10
33.7134811044
 20
0.817564783
 10
33.7201125635
 20
0.8270463143
 10
33.726705346
 20
0.8360439133
 10
33.7332535537
 20
0.8445462949
 10
33.739762383
 20
0.8525642307
 10
33.7462237856
 20
0.8601217512
 10
33.752630676
 20
0.8672120973
 10
33.7589895419
 20
0.8738415914
 10
33.7653127551
 20
0.8800539297
 10
33.7715950436
 20
0.885849423
 10
33.7778412115
 20
0.8912274191
 10
33.7840788196
 20
0.8962302241
 10
33.7903028806
 20
0.900862363
 10
33.7965180282
 20
0.9051190529
 10
33.8027663213
 20
0.909028687
 10
33.8090409712
 20
0.9125994939
 10
33.8153485019
 20
0.9158230522
 10
33.8217509933
 20
0.918702817
 10
33.8282690795
 20
0.9212398969
 10
33.8348819281
 20
0.923433039
 10
33.841589444
 20
0.925282174
  0
LINE
  5
301
100
AcDbEntity
  8
RACCORDO
100
AcDbLine
 62
250
  6
CONTINUOUS
 10
53.7619222313
 20
-5.3675756515
 11
48.9662059033
 21
-8.691631459
  0
LINE
  5
302
100
AcDbEntity
  8
RACCORDO
100
AcDbLine
 62
7
  6
CONTINUOUS
 10
33.9324959758
 20
0.8281183636
 11
33.9372450722
 21
0.8185122189
  0
LINE
  5
303
100
AcDbEntity
  8
RACCORDO
100
AcDbLine
 62
7
  6
CONTINUOUS
 10
33.9278067096
 20
0.8377583074
 11
33.9324959758
 21
0.8281183636
  0
LINE
  5
304
100
AcDbEntity
  8
RACCORDO
100
AcDbLine
 62
7
  6
CONTINUOUS
 10
33.9231772125
 20
0.8474313766
 11
33.9278067096
 21
0.8377583074
  0
LINE
  5
305
100
AcDbEntity
  8
RACCORDO
100
AcDbLine
 62
250
  6
CONTINUOUS
 10
54.2565954529
 20
-6.2120356625
 11
49.4608791249
 21
-9.53609147
  0
LWPOLYLINE
  5
306
100
AcDbEntity
  8
RACCORDO
100
AcDbPolyline
 62
250
  6
CONTINUOUS
 90
23
 70
0
 10
48.4990276659
 20
-66.2456773552
 10
48.5002766681
 20
-66.25654258
 10
48.5018147121
 20
-66.2671807878
 10
48.503635559
 20
-66.2775805322
 10
48.5057268993
 20
-66.2877254581
 10
48.5080874998
 20
-66.2976098936
 10
48.5107275011
 20
-66.3072384399
 10
48.5136393914
 20
-66.3166002092
 10
48.5168157369
 20
-66.3256848852
 10
48.5202667788
 20
-66.3344975458
 10
48.5239841742
 20
-66.3430277145
 10
48.5279597714
 20
-66.3512655709
 10
48.5322040094
 20
-66.3592167358
 10
48.5367076948
 20
-66.3668711631
 10
48.5414619197
 20
-66.3742195295
 10
48.5464773965
 20
-66.381268044
 10
48.5517440856
 20
-66.3880071208
 10
48.5572522945
 20
-66.3944279383
 10
48.5630130502
 20
-66.4005373158
 10
48.5690155042
 20
-66.4063261688
 10
48.5752491672
 20
-66.411786188
 10
48.581725369
 20
-66.4169247983
 10
48.5880552067
 20
-66.421475906
  0
LWPOLYLINE
  5
307
100
AcDbEntity
  8
RACCORDO
100
AcDbPolyline
 62
250
  6
CONTINUOUS
 90
61
 70
0
 10
48.4990276659
 20
-66.2456773552
 10
48.4059638969
 20
-65.363763652
 10
48.3160458025
 20
-64.4794901356
 10
48.2292742898
 20
-63.5928659645
 10
48.1456501891
 20
-62.7039001209
 10
48.0651743909
 20
-61.8126020141
 10
47.9878478406
 20
-60.9189814855
 10
47.9136713304
 20
-60.0230479696
 10
47.842645586
 20
-59.1248105836
 10
47.7747713984
 20
-58.2242787345
 10
47.7100494514
 20
-57.3214617687
 10
47.6484803899
 20
-56.4163690389
 10
47.5900648977
 20
-55.5090099985
 10
47.5348035644
 20
-54.5993940799
 10
47.4826969388
 20
-53.6875306962
 10
47.4337455966
 20
-52.773429308
 10
47.3879500315
 20
-51.8570993992
 10
47.3453106993
 20
-50.938550475
 10
47.3058280714
 20
-50.0177920632
 10
47.2695025465
 20
-49.094833704
 10
47.2363344863
 20
-48.1696849882
 10
47.2063242594
 20
-47.2423555545
 10
47.1794721702
 20
-46.3128550282
 10
47.1557784844
 20
-45.381193056
 10
47.1352434654
 20
-44.4473793447
 10
47.1178673225
 20
-43.5114235969
 10
47.1036502262
 20
-42.573335521
 10
47.0925923341
 20
-41.6331248669
 10
47.0846937605
 20
-40.690801401
 10
47.079954581
 20
-39.7463749051
 10
47.0783748482
 20
-38.7998551859
 10
47.0799545813
 20
-37.851252076
 10
47.084693761
 20
-36.9005754262
 10
47.0925923348
 20
-35.9478351033
 10
47.1036502271
 20
-34.9930410055
 10
47.1178673236
 20
-34.0362030514
 10
47.1352434668
 20
-33.0773311716
 10
47.155778486
 20
-32.116435325
 10
47.179472172
 20
-31.153525501
 10
47.2063242615
 20
-30.1886117081
 10
47.2363344886
 20
-29.2217039785
 10
47.269502549
 20
-28.2528123581
 10
47.3058280741
 20
-27.2819469086
 10
47.3453107023
 20
-26.3091177412
 10
47.3879500348
 20
-25.334334951
 10
47.4337456001
 20
-24.3576086061
 10
47.4826969426
 20
-23.3789488655
 10
47.5348035684
 20
-22.3983659021
 10
47.5900649019
 20
-21.4158698363
 10
47.6484803944
 20
-20.431470867
 10
47.7100494561
 20
-19.4451792508
 10
47.7747714032
 20
-18.4570052253
 10
47.842645591
 20
-17.4669590644
 10
47.9136713355
 20
-16.4750510723
 10
47.9878478458
 20
-15.4812915632
 10
48.0651743964
 20
-14.4856906887
 10
48.1456501949
 20
-13.4882589956
 10
48.2292742954
 20
-12.4890074242
 10
48.3160458069
 20
-11.4879465642
 10
48.4059638995
 20
-10.4850866511
 10
48.4990276659
 20
-9.4804381262
  0
LWPOLYLINE
  5
308
100
AcDbEntity
  8
RACCORDO
100
AcDbPolyline
 62
250
  6
CONTINUOUS
 90
61
 70
0
 10
49.4608791249
 20
-66.2058625809
 10
49.3679687252
 20
-65.3254164535
 10
49.2782005045
 20
-64.4426326218
 10
49.191574463
 20
-63.5575110859
 10
49.1080897393
 20
-62.670042348
 10
49.0277471946
 20
-61.7802359059
 10
48.9505494132
 20
-60.8881202526
 10
48.876496519
 20
-59.9936955575
 10
48.805588388
 20
-59.0969616512
 10
48.7378272319
 20
-58.1979465181
 10
48.6732131497
 20
-57.2966500937
 10
48.6117460424
 20
-56.3930724424
 10
48.5534278242
 20
-55.4872417427
 10
48.4982585943
 20
-54.5791579438
 10
48.4462382534
 20
-53.6688210964
 10
48.3973684187
 20
-52.7562595305
 10
48.3516491876
 20
-51.8414731764
 10
48.3090804625
 20
-50.9244621038
 10
48.2696635678
 20
-50.0052548525
 10
48.2333986007
 20
-49.0838513385
 10
48.2002854638
 20
-48.1602516459
 10
48.1703251894
 20
-47.2344845664
 10
48.1435178758
 20
-46.3065500308
 10
48.1198634246
 20
-45.3764481084
 10
48.099362573
 20
-44.4442077985
 10
48.0820154193
 20
-43.5098290406
 10
48.0678218652
 20
-42.5733118952
 10
48.0567823525
 20
-41.6346855425
 10
48.0488969793
 20
-40.6939499179
 10
48.0441656475
 20
-39.751105086
 10
48.0425885043
 20
-38.8061804209
 10
48.0441656479
 20
-37.8591758579
 10
48.04889698
 20
-36.9100914619
 10
48.0567823536
 20
-35.9589568007
 10
48.0678218666
 20
-35.0057718094
 10
48.082015421
 20
-34.050536553
 10
48.099362575
 20
-33.0932807945
 10
48.119863427
 20
-32.1340044644
 10
48.1435178785
 20
-31.1727076322
 10
48.1703251925
 20
-30.209420269
 10
48.2002854672
 20
-29.2441423145
 10
48.2333986044
 20
-28.2768738291
 10
48.2696635718
 20
-27.3076449657
 10
48.3090804669
 20
-26.33645568
 10
48.3516491922
 20
-25.3633060162
 10
48.3973684237
 20
-24.3882262609
 10
48.4462382588
 20
-23.411216355
 10
48.4982586
 20
-22.4322763574
 10
48.5534278302
 20
-21.4514367309
 10
48.6117460487
 20
-20.4686973956
 10
48.6732131562
 20
-19.4840584313
 10
48.7378272386
 20
-18.4975505407
 10
48.805588395
 20
-17.5091736577
 10
48.8764965261
 20
-16.5189278485
 10
48.9505494205
 20
-15.5268440139
 10
49.0277472024
 20
-14.5329218174
 10
49.1080897475
 20
-13.5371615955
 10
49.1915744708
 20
-12.5395952588
 10
49.2782005106
 20
-11.5402334441
 10
49.3679687287
 20
-10.5390655145
 10
49.4608791249
 20
-9.53609147
  0
LWPOLYLINE
  5
309
100
AcDbEntity
  8
RACCORDO
100
AcDbPolyline
 62
7
  6
CONTINUOUS
 90
33
 70
0
 10
-35.8559787873
 20
40.0618063843
 10
-35.8563795854
 20
40.0617511239
 10
-35.8568207775
 20
40.0616957775
 10
-35.856920026
 20
40.0616846336
 10
-35.8566725252
 20
40.0617062769
 10
-35.8560580106
 20
40.0617496814
 10
-35.8550732
 20
40.0618013243
 10
-35.8537151486
 20
40.0618471136
 10
-35.8519627709
 20
40.0618724701
 10
-35.8498129464
 20
40.0618609752
 10
-35.8472665626
 20
40.0617955645
 10
-35.8443093486
 20
40.0616578095
 10
-35.840940618
 20
40.0614284707
 10
-35.8371653751
 20
40.0610880312
 10
-35.8329797706
 20
40.0606154165
 10
-35.8283871319
 20
40.0599892714
 10
-35.8233965983
 20
40.0591884524
 10
-35.8180151851
 20
40.058191041
 10
-35.8122503084
 20
40.0569744824
 10
-35.8061161417
 20
40.0555171408
 10
-35.7996319966
 20
40.0537986425
 10
-35.7928096547
 20
40.0517965702
 10
-35.7856686458
 20
40.0494903413
 10
-35.7782417018
 20
40.0468642915
 10
-35.7705462057
 20
40.0438982299
 10
-35.7626057957
 20
40.0405742259
 10
-35.7544637231
 20
40.0368837198
 10
-35.7461409451
 20
40.0328097827
 10
-35.7376664462
 20
40.0283395432
 10
-35.729095534
 20
40.0234762587
 10
-35.7204649673
 20
40.0182164821
 10
-35.7117947044
 20
40.0125475808
 10
-35.7063465156
 20
40.0087780418
  0
LWPOLYLINE
  5
30A
100
AcDbEntity
  8
RACCORDO
100
AcDbPolyline
 62
250
  6
CONTINUOUS
 90
70
 70
0
 10
49.4608791249
 20
-9.53609147
 10
49.4603495303
 20
-9.5250147471
 10
49.4595731902
 20
-9.5137562744
 10
49.4585504925
 20
-9.502321867
 10
49.4572819285
 20
-9.490717371
 10
49.4557681622
 20
-9.4789488401
 10
49.454010046
 20
-9.4670225423
 10
49.4520085328
 20
-9.4549447021
 10
49.449764618
 20
-9.4427215175
 10
49.4472794194
 20
-9.430359343
 10
49.4445542025
 20
-9.4178645893
 10
49.4415903981
 20
-9.4052437076
 10
49.4383895575
 20
-9.3925032158
 10
49.4349533453
 20
-9.3796497005
 10
49.4312835312
 20
-9.3666898182
 10
49.4273820075
 20
-9.3536302795
 10
49.42325079
 20
-9.3404778438
 10
49.4188920193
 20
-9.3272393145
 10
49.4143079529
 20
-9.3139215403
 10
49.4095009639
 20
-9.3005314113
 10
49.4044735385
 20
-9.287075857
 10
49.3992282772
 20
-9.27356184
 10
49.3937678939
 20
-9.2599963532
 10
49.3880952142
 20
-9.2463864157
 10
49.3822131735
 20
-9.2327390696
 10
49.3761248155
 20
-9.2190613763
 10
49.3698332904
 20
-9.2053604132
 10
49.3633418533
 20
-9.1916432699
 10
49.3566538634
 20
-9.177917044
 10
49.349772781
 20
-9.1641888378
 10
49.3427021663
 20
-9.1504657551
 10
49.3354456778
 20
-9.1367548968
 10
49.3280070703
 20
-9.1230633571
 10
49.3203901928
 20
-9.1093982207
 10
49.3125989865
 20
-9.0957665582
 10
49.3046374828
 20
-9.0821754232
 10
49.2965098013
 20
-9.068631848
 10
49.2882201474
 20
-9.0551428407
 10
49.2797728107
 20
-9.0417153809
 10
49.2711721619
 20
-9.0283564163
 10
49.2624226514
 20
-9.0150728593
 10
49.2535288064
 20
-9.0018715833
 10
49.2444952291
 20
-8.988759419
 10
49.2353265936
 20
-8.9757431511
 10
49.226027644
 20
-8.9628295146
 10
49.2166031922
 20
-8.9500251913
 10
49.2070581144
 20
-8.9373368068
 10
49.1973973498
 20
-8.9247709263
 10
49.1876258971
 20
-8.9123340519
 10
49.1777488125
 20
-8.9000326186
 10
49.1677712066
 20
-8.8878729919
 10
49.1576982424
 20
-8.8758614632
 10
49.1475351318
 20
-8.8640042478
 10
49.1372871337
 20
-8.8523074811
 10
49.1269595506
 20
-8.8407772153
 10
49.1165577259
 20
-8.8294194168
 10
49.1060870423
 20
-8.8182399624
 10
49.0955529186
 20
-8.8072446358
 10
49.0849608069
 20
-8.7964391256
 10
49.0743161866
 20
-8.7858290238
 10
49.0636245621
 20
-8.7754198227
 10
49.052891461
 20
-8.7652169116
 10
49.0421224415
 20
-8.7552255667
 10
49.0313230866
 20
-8.7454509504
 10
49.0204989023
 20
-8.7358980393
 10
49.0096555709
 20
-8.7265718612
 10
48.9987989601
 20
-8.7174774667
 10
48.9879347737
 20
-8.7086196171
 10
48.9770685476
 20
-8.7000028012
 10
48.9662059033
 20
-8.691631459
  0
LWPOLYLINE
  5
30B
100
AcDbEntity
  8
RACCORDO
100
AcDbPolyline
 62
250
  6
CONTINUOUS
 90
61
 70
0
 10
48.4990276659
 20
-9.4804381262
 10
48.5002766681
 20
-9.4677021227
 10
48.5018147122
 20
-9.4548007698
 10
48.5036355592
 20
-9.4417396071
 10
48.5057268997
 20
-9.4285226118
 10
48.5080875004
 20
-9.4151575278
 10
48.5107275018
 20
-9.4016555248
 10
48.5136393924
 20
-9.3880224484
 10
48.516815738
 20
-9.3742645836
 10
48.5202667802
 20
-9.3603933858
 10
48.5239841758
 20
-9.3464148171
 10
48.5279597733
 20
-9.3323353594
 10
48.5322040116
 20
-9.3181667949
 10
48.5367076973
 20
-9.3039151115
 10
48.5414619226
 20
-9.2895869101
 10
48.5464773997
 20
-9.2751943497
 10
48.5517440891
 20
-9.2607433442
 10
48.5572522983
 20
-9.2462405305
 10
48.5630130544
 20
-9.2316985092
 10
48.5690155087
 20
-9.2171230071
 10
48.575249172
 20
-9.2025206093
 10
48.5817253741
 20
-9.1879044415
 10
48.5884325417
 20
-9.1732799158
 10
48.5953593985
 20
-9.1586534676
 10
48.6025174895
 20
-9.1440388587
 10
48.6098946632
 20
-9.12944104
 10
48.6174788988
 20
-9.1148661875
 10
48.6252817644
 20
-9.1003288433
 10
48.6332907572
 20
-9.0858333292
 10
48.641493199
 20
-9.0713854375
 10
48.6499003531
 20
-9.0570006722
 10
48.6584996903
 20
-9.0426825384
 10
48.667278021
 20
-9.0284363
 10
48.6762458108
 20
-9.0142786458
 10
48.6853909371
 20
-9.0002120591
 10
48.694699922
 20
-8.9862411096
 10
48.7041817529
 20
-8.9723839264
 10
48.7138252551
 20
-8.9586417629
 10
48.7236169769
 20
-8.9450183062
 10
48.7335635612
 20
-8.9315333936
 10
48.7436554056
 20
-8.9181868619
 10
48.7538795019
 20
-8.9049813091
 10
48.7642391326
 20
-8.8919385217
 10
48.77472692
 20
-8.8790567915
 10
48.7853308153
 20
-8.8663374181
 10
48.7960496666
 20
-8.8538042844
 10
48.8068789075
 20
-8.8414541203
 10
48.8178080372
 20
-8.8292867424
 10
48.8288304871
 20
-8.8173280941
 10
48.8399449029
 20
-8.805573494
 10
48.8511429313
 20
-8.7940211606
 10
48.862411895
 20
-8.78269878
 10
48.8737537447
 20
-8.7716006194
 10
48.8851627903
 20
-8.7607233128
 10
48.896620047
 20
-8.7500956103
 10
48.9081304755
 20
-8.7397112997
 10
48.9196913635
 20
-8.7295656322
 10
48.931277855
 20
-8.7196873644
 10
48.9428855661
 20
-8.710081632
 10
48.954527146
 20
-8.7007313833
 10
48.9662059033
 20
-8.691631459
  0
LINE
  5
30C
100
AcDbEntity
  8
RACCORDO
100
AcDbLine
 62
7
  6
CONTINUOUS
 10
52.7929964647
 20
-37.9543102382
 11
52.7929964647
 21
-33.3933291621
  0
LINE
  5
30D
100
AcDbEntity
  8
RACCORDO
100
AcDbLine
 62
7
  6
CONTINUOUS
 10
53.0545139249
 20
-36.8840491079
 11
53.0545139249
 21
-36.6871675944
  0
LINE
  5
30E
100
AcDbEntity
  8
RACCORDO
100
AcDbLine
 62
7
  6
CONTINUOUS
 10
54.2565954529
 20
-63.2054452767
 11
54.2565954529
 21
-37.6313138518
  0
LINE
  5
30F
100
AcDbEntity
  8
RACCORDO
100
AcDbLine
 62
7
  6
CONTINUOUS
 10
54.2565954529
 20
-31.7861670875
 11
54.2565954529
 21
-6.2120356625
  0
LINE
  5
310
100
AcDbEntity
  8
RACCORDO
100
AcDbLine
 62
7
  6
CONTINUOUS
 10
53.9225859701
 20
-32.358616859
 11
52.9934021544
 21
-33.0498592991
  0
LINE
  5
311
100
AcDbEntity
  8
DRAFT
100
AcDbLine
 62
7
  6
CONTINUOUS
 10
53.0545139249
 20
-36.6871675944
 11
52.7929964647
 21
-36.8596090016
  0
LINE
  5
312
100
AcDbEntity
  8
RACCORDO
100
AcDbLine
 62
7
  6
CONTINUOUS
 10
53.9225859701
 20
-37.4993475969
 11
52.9934021544
 21
-38.0334899911
  0
LINE
  5
313
100
AcDbEntity
  8
RACCORDO
100
AcDbLine
 62
250
  6
CONTINUOUS
 10
52.7929964647
 20
-37.224673872
 11
53.208705739
 21
-36.9945580445
  0
LWPOLYLINE
  5
314
100
AcDbEntity
  8
RACCORDO
100
AcDbPolyline
 62
250
  6
CONTINUOUS
 90
30
 70
0
 10
49.3547548513
 20
-66.4372876163
 10
49.3566538634
 20
-66.4360829057
 10
49.3633418533
 20
-66.4315658743
 10
49.3698332904
 20
-66.4267447451
 10
49.3761248155
 20
-66.4216220129
 10
49.3822131735
 20
-66.4162003282
 10
49.3880952142
 20
-66.4104824963
 10
49.3937678939
 20
-66.4044714757
 10
49.3992282772
 20
-66.398170377
 10
49.4044735385
 20
-66.3915824607
 10
49.4095009639
 20
-66.3847111354
 10
49.4143079529
 20
-66.3775599561
 10
49.4188920193
 20
-66.3701326224
 10
49.42325079
 20
-66.362432978
 10
49.4273820075
 20
-66.3544650085
 10
49.4312835312
 20
-66.3462328385
 10
49.4349533453
 20
-66.3377407257
 10
49.4383895575
 20
-66.3289930603
 10
49.4415903981
 20
-66.3199943632
 10
49.4445542025
 20
-66.3107492959
 10
49.4472794194
 20
-66.3012626533
 10
49.449764618
 20
-66.291539357
 10
49.4520085328
 20
-66.2815844253
 10
49.454010046
 20
-66.2714029822
 10
49.4557681622
 20
-66.2610002126
 10
49.4572819285
 20
-66.25038158
 10
49.4585504925
 20
-66.2395528095
 10
49.4595731902
 20
-66.2285195939
 10
49.4603495303
 20
-66.217287577
 10
49.4608791249
 20
-66.2058625809
  0
LINE
  5
315
100
AcDbEntity
  8
RACCORDO
100
AcDbLine
 62
250
  6
CONTINUOUS
 10
49.4608791249
 20
-66.2058625809
 11
54.2565954529
 21
-63.2054452767
  0
LINE
  5
316
100
AcDbEntity
  8
RACCORDO
100
AcDbLine
 62
7
  6
CONTINUOUS
 10
49.3547548554
 20
-66.4372876137
 11
54.157608351
 21
-63.4324049743
  0
LWPOLYLINE
  5
317
100
AcDbEntity
  8
RACCORDO
100
AcDbPolyline
 62
7
  6
CONTINUOUS
 90
49
 70
0
 10
49.3547548554
 20
-66.4372876137
 10
49.3404801974
 20
-66.4459830929
 10
49.3259881775
 20
-66.4543430191
 10
49.3112881072
 20
-66.4623607846
 10
49.2963893374
 20
-66.4700302077
 10
49.2813017476
 20
-66.4773452761
 10
49.2660358207
 20
-66.4843001625
 10
49.2505925644
 20
-66.4908934425
 10
49.2349914546
 20
-66.4971159909
 10
49.219271921
 20
-66.5029529935
 10
49.2034677879
 20
-66.5083950097
 10
49.1875686951
 20
-66.5134488378
 10
49.1715478494
 20
-66.5181239627
 10
49.1554083077
 20
-66.5224188139
 10
49.1391686598
 20
-66.526327909
 10
49.1228244615
 20
-66.5298516359
 10
49.1064021789
 20
-66.5329837469
 10
49.0898974637
 20
-66.5357246691
 10
49.073258902
 20
-66.5380798075
 10
49.0564465922
 20
-66.540047664
 10
49.0395223352
 20
-66.541613995
 10
49.0225873882
 20
-66.5427677092
 10
49.0056982917
 20
-66.5435082784
 10
48.9888220496
 20
-66.5438405854
 10
48.9719257672
 20
-66.5437655992
 10
48.955032217
 20
-66.543282663
 10
48.938141905
 20
-66.5423911619
 10
48.9211891216
 20
-66.5410838964
 10
48.9041080897
 20
-66.5393464502
 10
48.8869908219
 20
-66.5371789219
 10
48.8700067238
 20
-66.5346024197
 10
48.8532666857
 20
-66.5316432163
 10
48.8366788236
 20
-66.5282945542
 10
48.8201081331
 20
-66.5245294213
 10
48.8035070212
 20
-66.5203294655
 10
48.7869494487
 20
-66.5157059163
 10
48.7704845781
 20
-66.5106689114
 10
48.7540922308
 20
-66.505208929
 10
48.7378165411
 20
-66.4993373828
 10
48.7217969449
 20
-66.4931080976
 10
48.7061739862
 20
-66.4865904778
 10
48.6908153983
 20
-66.4797440316
 10
48.6754567529
 20
-66.4724478837
 10
48.6599353812
 20
-66.4646014149
 10
48.6444533845
 20
-66.4562830189
 10
48.6292913667
 20
-66.4476409099
 10
48.6145804814
 20
-66.4387667953
 10
48.6001910865
 20
-66.4295993047
 10
48.5880560969
 20
-66.4214765153
  0
ELLIPSE
  5
318
100
AcDbEntity
  8
RACCORDO
100
AcDbEllipse
 62
7
  6
CONTINUOUS
 10
53.761318997
 20
-62.8546287019
 30
0.0
 11
-0.4044690645
 21
0.5723335566
 31
0.0
 40
0.4994261019
 41
-3.1696557445
 42
-2.5263841361
  0
ELLIPSE
  5
319
100
AcDbEntity
  8
RACCORDO
100
AcDbEllipse
 62
7
  6
CONTINUOUS
 10
53.761318997
 20
-5.8624255563
 30
0.0
 11
-0.4043142751
 21
0.5714579316
 31
0.0
 40
0.5005744201
 41
-2.5258428156
 42
-0.956264464
  0
ELLIPSE
  5
31A
100
AcDbEntity
  8
RACCORDO
100
AcDbEllipse
 62
7
  6
CONTINUOUS
 10
53.8906957059
 20
-32.0274368951
 30
0.0
 11
0.3023921289
 21
0.3984559091
 31
0.0
 40
0.5170299861
 41
-2.0815811474
 42
-0.5980512832
  0
ELLIPSE
  5
31B
100
AcDbEntity
  8
RACCORDO
100
AcDbEllipse
 62
7
  6
CONTINUOUS
 10
-47.7786113633
 20
65.9371477627
 30
0.0
 11
-0.4044690645
 21
0.5723335566
 31
0.0
 40
0.4994261019
 41
-0.9543698342
 42
0.0280630909
  0
ELLIPSE
  5
31C
100
AcDbEntity
  8
RACCORDO
100
AcDbEllipse
 62
7
  6
CONTINUOUS
 10
53.0125363129
 20
-33.2485672775
 30
0.0
 11
0.1814352773
 21
0.2390735454
 31
0.0
 40
0.5170299861
 41
1.0600115062
 42
2.5435413704
  0
ELLIPSE
  5
31D
100
AcDbEntity
  8
RACCORDO
100
AcDbEllipse
 62
7
  6
CONTINUOUS
 10
53.8906957059
 20
-37.8725836594
 30
0.0
 11
0.3023921289
 21
0.3984559091
 31
0.0
 40
0.5170299861
 41
5.685134024
 42
7.1686638882
  0
ELLIPSE
  5
31E
100
AcDbEntity
  8
RACCORDO
100
AcDbEllipse
 62
7
  6
CONTINUOUS
 10
53.0125363129
 20
-37.8095483536
 30
0.0
 11
0.1814352773
 21
0.2390735454
 31
0.0
 40
0.5170299861
 41
2.5435413704
 42
4.0270712346
  0
ENDSEC
  0
SECTION
  2
OBJECTS
  0
DICTIONARY
  5
C
100
AcDbDictionary
280
0
281
1
  3
ACAD_GROUP
350
D
  3
ACAD_MLINESTYLE
350
17
  3
ACAD_LAYOUT
350
1A
  3
ACAD_PLOTSETTINGS
350
19
  3
ACAD_PLOTSTYLENAME
350
E
  0
DICTIONARY
  5
D
102
{ACAD_REACTORS
330
C
102
}
100
AcDbDictionary
280
0
281
1
  0
ACDBDICTIONARYWDFLT
  5
E
102
{ACAD_REACTORS
330
C
102
}
100
AcDbDictionary
281
1
  3
Normal
350
F
100
AcDbDictionaryWithDefault
340
F
  0
DICTIONARY
  5
17
102
{ACAD_REACTORS
330
C
102
}
100
AcDbDictionary
280
0
281
1
  3
Standard
350
18
  0
DICTIONARY
  5
19
102
{ACAD_REACTORS
330
C
102
}
100
AcDbDictionary
281
1
  0
DICTIONARY
  5
1A
102
{ACAD_REACTORS
330
C
102
}
100
AcDbDictionary
281
1
  3
Model
350
31F
  3
Layout1
350
320
  0
ACDBPLACEHOLDER
  5
F
102
{ACAD_REACTORS
330
E
102
}
  0
MLINESTYLE
  5
18
102
{ACAD_REACTORS
330
17
102
}
100
AcDbMlineStyle
  2
STANDARD
 70
0
  3

 62
256
 51
90.0
 52
90.0
 71
2
 49
0.5
 62
256
  6
BYLAYER
 49
-0.5
 62
256
  6
BYLAYER
  0
LAYOUT
  5
31F
102
{ACAD_REACTORS
330
1A
102
}
100
AcDbPlotSettings
  1

  2
none_device
  4
ISO_A4_(297.00_x_210.00_MM)
  6

 40
0.0
 41
0.0
 42
0.0
 43
0.0
 44
297.0
 45
210.0
 46
0.0
 47
0.0
 48
0.0
 49
0.0
140
0.0
141
0.0
142
1.0
143
1.0
 70
1024
 72
1
 73
0
 74
0
  7

 75
0
147
1.0
148
0.0
149
0.0
100
AcDbLayout
  1
Model
 70
0
 71
0
 10
0.0
 20
0.0
 11
297.0
 21
210.0
 12
0.0
 22
0.0
 32
0.0
 14
0.0
 24
0.0
 34
0.0
 15
0.0
 25
0.0
 35
0.0
146
0.0
 13
0.0
 23
0.0
 33
0.0
 16
1.0
 26
0.0
 36
0.0
 17
0.0
 27
1.0
 37
0.0
 76
0
330
217
345
0
346
0
  0
LAYOUT
  5
320
102
{ACAD_REACTORS
330
1A
102
}
100
AcDbPlotSettings
  1

  2
none_device
  4
ISO_A4_(297.00_x_210.00_MM)
  6

 40
0.0
 41
0.0
 42
0.0
 43
0.0
 44
297.0
 45
210.0
 46
0.0
 47
0.0
 48
0.0
 49
0.0
140
0.0
141
0.0
142
1.0
143
1.0
 70
0
 72
1
 73
0
 74
0
  7

 75
0
147
1.0
148
0.0
149
0.0
100
AcDbLayout
  1
Layout1
 70
0
 71
1
 10
0.0
 20
0.0
 11
297.0
 21
210.0
 12
0.0
 22
0.0
 32
0.0
 14
0.0
 24
0.0
 34
0.0
 15
0.0
 25
0.0
 35
0.0
146
0.0
 13
0.0
 23
0.0
 33
0.0
 16
1.0
 26
0.0
 36
0.0
 17
0.0
 27
1.0
 37
0.0
 76
0
330
218
345
0
346
0
  0
ENDSEC
  0
EOF
