  0
SECTION
  2
HEADER
  9
$ACADVER
  1
AC1024
  9
$DWGCODEPAGE
  3
ANSI_1252
  9
$EXTMAX
 10
297.0
 20
210.0
 30
0.0
  9
$EXTMIN
 10
0.0
 20
0.0
 30
0.0
  9
$LIMMIN
 10
0.0
 20
0.0
  9
$LIMMAX
 10
297.0
 20
210.0
  9
$VIEWCTR
 10
148.5
 20
105.0
  9
$VIEWSIZE
 40
210.0
  9
$CLAYER
  8
0
  9
$LTSCALE
 40
16.335
  9
$CELTYPE
  6
BYLAYER
  9
$DIMSCALE
 40
1.0
  9
$DIMASZ
 40
3.0
  9
$DIMEXO
 40
0.5
  9
$DIMDLI
 40
11.286
  9
$DIMEXE
 40
1.5
  9
$DIMCEN
 40
2.673
  9
$DIMLFAC
 40
1.0
  9
$DIMBLK
  1
_FILLED
  9
$DIMALT
 70
0
  9
$DIMALTF
 40
0.0393700787
  9
$DIMTXT
 40
3.0
  9
$DIMTOL
 70
1
  9
$DIMLIM
 70
0
  9
$DIMTFAC
 40
1.0
  9
$DIMTP
 40
0.01
  9
$DIMTM
 40
0.01
  9
$DIMGAP
 40
0.625
  9
$DIMDSEP
 70
44
  9
$AUNITS
 70
0
  9
$PDMODE
 70
3
  9
$PDSIZE
 40
3.0
  9
$HANDSEED
  5
579
  9
$TILEMODE
 70
1
  9
$MEASUREMENT
 70
1
  9
$INSUNITS
 70
4
  0
ENDSEC
  0
SECTION
  2
CLASSES
  0
CLASS
  1
ACDBDICTIONARYWDFLT
  2
AcDbDictionaryWithDefault
  3
AutoCAD 2000
 90
0
 91
1
280
0
281
0
  0
CLASS
  1
ACDBPLACEHOLDER
  2
AcDbPlaceHolder
  3
AutoCAD 2000
 90
0
 91
1
280
0
281
0
  0
CLASS
  1
LAYOUT
  2
AcDbLayout
  3
AutoCAD 2000
 90
0
 91
0
280
0
281
0
  0
ENDSEC
  0
SECTION
  2
TABLES
  0
TABLE
  2
VPORT
  5
8
100
AcDbSymbolTable
 70
2
  0
VPORT
  5
1F4
100
AcDbSymbolTableRecord
100
AcDbViewportTableRecord
  2
*ACTIVE
 70
0
 10
0.0
 20
0.0
 11
1.0
 21
1.0
 12
148.5
 22
105.0
 13
0.0
 23
0.0
 14
1.0
 24
1.0
 15
0.0
 25
0.0
 16
0.0
 26
0.0
 36
1.0
 17
0.0
 27
0.0
 37
0.0
 40
210.0
 41
1.4142857143
 42
50.0
 43
0.0
 44
0.0
 50
0.0
 51
0.0
 71
0
 72
100
 73
1
 74
1
 75
0
 76
0
 77
0
 78
0
  0
ENDTAB
  0
TABLE
  2
LTYPE
  5
5
100
AcDbSymbolTable
 70
6
  0
LTYPE
  5
14
100
AcDbSymbolTableRecord
100
AcDbLinetypeTableRecord
  2
BYBLOCK
 70
0
  3

 72
65
 73
0
 40
0.0
  0
LTYPE
  5
15
100
AcDbSymbolTableRecord
100
AcDbLinetypeTableRecord
  2
BYLAYER
 70
0
  3

 72
65
 73
0
 40
0.0
  0
LTYPE
  5
16
100
AcDbSymbolTableRecord
100
AcDbLinetypeTableRecord
  2
CONTINUOUS
 70
64
  3
Solid line
 72
65
 73
0
 40
0.0
  0
LTYPE
  5
1F5
100
AcDbSymbolTableRecord
100
AcDbLinetypeTableRecord
  2
CENTER
 70
64
  3
____ _ ____ _ ____ _ ____ _ ____ _ ____ _ ____
 72
65
 73
4
 40
0.6
 49
0.375
 74
0
 49
-0.075
 74
0
 49
0.075
 74
0
 49
-0.075
 74
0
  0
LTYPE
  5
1F6
100
AcDbSymbolTableRecord
100
AcDbLinetypeTableRecord
  2
HIDDEN
 70
64
  3
- - - - - - - - - - - - - - - - - - - -
 72
65
 73
2
 40
0.2
 49
0.1
 74
0
 49
-0.1
 74
0
  0
LTYPE
  5
1F7
100
AcDbSymbolTableRecord
100
AcDbLinetypeTableRecord
  2
PHANTOM
 70
64
  3
_____ _ _ _____ _ _ _____ _ _ _____
 72
65
 73
6
 40
0.8
 49
0.45
 74
0
 49
-0.05
 74
0
 49
0.1
 74
0
 49
-0.05
 74
0
 49
0.1
 74
0
 49
-0.05
 74
0
  0
LTYPE
  5
1F8
100
AcDbSymbolTableRecord
100
AcDbLinetypeTableRecord
  2
DOT
 70
64
  3
. . . . . . . . . . . . . . . . . . . .
 72
65
 73
2
 40
0.2
 49
0.1
 74
0
 49
-0.1
 74
0
  0
LTYPE
  5
1F9
100
AcDbSymbolTableRecord
100
AcDbLinetypeTableRecord
  2
DASHED
 70
64
  3
- - - - - - - - - - - - - - - - - - - -
 72
65
 73
2
 40
0.2
 49
0.1
 74
0
 49
-0.1
 74
0
  0
ENDTAB
  0
TABLE
  2
LAYER
  5
2
100
AcDbSymbolTable
 70
36
  0
LAYER
  5
10
100
AcDbSymbolTableRecord
100
AcDbLayerTableRecord
  2
0
 70
0
 62
7
  6
CONTINUOUS
370
-3
390
F
  0
LAYER
  5
1FA
100
AcDbSymbolTableRecord
100
AcDbLayerTableRecord
  2
DEFAULT_1
 70
0
 62
7
  6
CENTER
370
-3
390
F
  0
LAYER
  5
1FB
100
AcDbSymbolTableRecord
100
AcDbLayerTableRecord
  2
DEFAULT_2
 70
0
 62
7
  6
HIDDEN
370
-3
390
F
  0
LAYER
  5
1FC
100
AcDbSymbolTableRecord
100
AcDbLayerTableRecord
  2
DEFAULT_3
 70
0
 62
7
  6
PHANTOM
370
-3
390
F
  0
LAYER
  5
1FD
100
AcDbSymbolTableRecord
100
AcDbLayerTableRecord
  2
ASSI
 70
0
 62
7
  6
CONTINUOUS
370
-3
390
F
  0
LAYER
  5
1FE
100
AcDbSymbolTableRecord
100
AcDbLayerTableRecord
  2
COORDINATE
 70
0
 62
7
  6
CONTINUOUS
370
-3
390
F
  0
LAYER
  5
1FF
100
AcDbSymbolTableRecord
100
AcDbLayerTableRecord
  2
COORD_ORIGINE
 70
0
 62
7
  6
CONTINUOUS
370
-3
390
F
  0
LAYER
  5
200
100
AcDbSymbolTableRecord
100
AcDbLayerTableRecord
  2
COSMETICI
 70
0
 62
7
  6
CONTINUOUS
370
-3
390
F
  0
LAYER
  5
201
100
AcDbSymbolTableRecord
100
AcDbLayerTableRecord
  2
CURVA_VIMAR
 70
0
 62
7
  6
CONTINUOUS
370
-3
390
F
  0
LAYER
  5
202
100
AcDbSymbolTableRecord
100
AcDbLayerTableRecord
  2
CURVE
 70
0
 62
7
  6
CONTINUOUS
370
-3
390
F
  0
LAYER
  5
203
100
AcDbSymbolTableRecord
100
AcDbLayerTableRecord
  2
DRAFT
 70
0
 62
7
  6
CONTINUOUS
370
-3
390
F
  0
LAYER
  5
204
100
AcDbSymbolTableRecord
100
AcDbLayerTableRecord
  2
IMPORT_IGES
 70
0
 62
7
  6
CONTINUOUS
370
-3
390
F
  0
LAYER
  5
205
100
AcDbSymbolTableRecord
100
AcDbLayerTableRecord
  2
INTF_1
 70
0
 62
7
  6
CONTINUOUS
370
-3
390
F
  0
LAYER
  5
206
100
AcDbSymbolTableRecord
100
AcDbLayerTableRecord
  2
INTF_7
 70
0
 62
7
  6
CONTINUOUS
370
-3
390
F
  0
LAYER
  5
207
100
AcDbSymbolTableRecord
100
AcDbLayerTableRecord
  2
NOTE
 70
0
 62
7
  6
CONTINUOUS
370
-3
390
F
  0
LAYER
  5
208
100
AcDbSymbolTableRecord
100
AcDbLayerTableRecord
  2
PIANI
 70
0
 62
7
  6
CONTINUOUS
370
-3
390
F
  0
LAYER
  5
209
100
AcDbSymbolTableRecord
100
AcDbLayerTableRecord
  2
PIANI_DI_RIFERIMENTO
 70
0
 62
7
  6
CONTINUOUS
370
-3
390
F
  0
LAYER
  5
20A
100
AcDbSymbolTableRecord
100
AcDbLayerTableRecord
  2
PIANI_ORIGINE
 70
0
 62
7
  6
CONTINUOUS
370
-3
390
F
  0
LAYER
  5
20B
100
AcDbSymbolTableRecord
100
AcDbLayerTableRecord
  2
PUNTI
 70
0
 62
7
  6
CONTINUOUS
370
-3
390
F
  0
LAYER
  5
20C
100
AcDbSymbolTableRecord
100
AcDbLayerTableRecord
  2
PUNZONE_ITERC
 70
0
 62
7
  6
CONTINUOUS
370
-3
390
F
  0
LAYER
  5
20D
100
AcDbSymbolTableRecord
100
AcDbLayerTableRecord
  2
RACCORDO
 70
0
 62
7
  6
CONTINUOUS
370
-3
390
F
  0
LAYER
  5
20E
100
AcDbSymbolTableRecord
100
AcDbLayerTableRecord
  2
RGB__255__255__255__
 70
0
 62
7
  6
CONTINUOUS
370
-3
390
F
  0
LAYER
  5
20F
100
AcDbSymbolTableRecord
100
AcDbLayerTableRecord
  2
RGB____0____0____0__
 70
0
 62
7
  6
CONTINUOUS
370
-3
390
F
  0
LAYER
  5
210
100
AcDbSymbolTableRecord
100
AcDbLayerTableRecord
  2
SIMBOLI
 70
0
 62
7
  6
CONTINUOUS
370
-3
390
F
  0
LAYER
  5
211
100
AcDbSymbolTableRecord
100
AcDbLayerTableRecord
  2
SNAPLINE
 70
0
 62
7
  6
CONTINUOUS
370
-3
390
F
  0
LAYER
  5
212
100
AcDbSymbolTableRecord
100
AcDbLayerTableRecord
  2
SUPERFICI
 70
0
 62
7
  6
CONTINUOUS
370
-3
390
F
  0
LAYER
  5
213
100
AcDbSymbolTableRecord
100
AcDbLayerTableRecord
  2
TRASH
 70
0
 62
7
  6
CONTINUOUS
370
-3
390
F
  0
LAYER
  5
214
100
AcDbSymbolTableRecord
100
AcDbLayerTableRecord
  2
XSEC_DATUMS
 70
0
 62
7
  6
CONTINUOUS
370
-3
390
F
  0
ENDTAB
  0
TABLE
  2
STYLE
  5
3
100
AcDbSymbolTable
 70
1
  0
STYLE
  5
11
100
AcDbSymbolTableRecord
100
AcDbTextStyleTableRecord
  2
STANDARD
 70
0
 40
0.0
 41
0.8
 50
0.0
 71
0
 42
0.2
  3
txt
  4

  0
STYLE
  5
215
100
AcDbSymbolTableRecord
100
AcDbTextStyleTableRecord
  2
TEXTSTYLE_1
 70
0
 40
0.0
 41
0.8
 50
0.0
 71
0
 42
0.2
  3
gdt
  4

  0
ENDTAB
  0
TABLE
  2
VIEW
  5
6
100
AcDbSymbolTable
 70
0
  0
ENDTAB
  0
TABLE
  2
UCS
  5
7
100
AcDbSymbolTable
 70
0
  0
ENDTAB
  0
TABLE
  2
APPID
  5
9
100
AcDbSymbolTable
 70
1
  0
APPID
  5
216
100
AcDbSymbolTableRecord
100
AcDbRegAppTableRecord
  2
ACAD
 70
0
  0
ENDTAB
  0
TABLE
  2
BLOCK_RECORD
  5
1
100
AcDbSymbolTable
 70
0
  0
BLOCK_RECORD
  5
217
100
AcDbSymbolTableRecord
100
AcDbBlockTableRecord
  2
*Model_Space
  0
BLOCK_RECORD
  5
218
100
AcDbSymbolTableRecord
100
AcDbBlockTableRecord
  2
*Paper_Space
  0
BLOCK_RECORD
  5
219
100
AcDbSymbolTableRecord
100
AcDbBlockTableRecord
  2
_FILLED
  0
ENDTAB
  0
TABLE
  2
DIMSTYLE
  5
A
100
AcDbSymbolTable
 70
1
100
AcDbDimStyleTable
 71
0
  0
DIMSTYLE
105
21A
100
AcDbSymbolTableRecord
100
AcDbDimStyleTableRecord
  2
STANDARD
 70
0
  3

  4

 40
1.0
 41
3.0
 42
0.5
 43
0.38
 44
1.5
 45
0.0
 46
0.0
 47
0.01
 48
0.01
140
3.0
141
0.09
142
0.0
143
25.4
144
1.0
145
0.0
146
1.0
147
0.625
 71
1
 72
0
 73
0
 74
0
 75
0
 76
0
 77
1
 78
8
 79
2
170
0
171
1
172
0
173
0
174
0
175
0
176
0
177
0
178
0
270
2
179
2
271
2
272
2
273
2
274
2
275
0
280
0
281
0
282
0
283
1
284
8
285
0
286
0
287
3
288
0
340
11
278
44
341
219
342
219
343
219
344
219
  0
ENDTAB
  0
ENDSEC
  0
SECTION
  2
BLOCKS
  0
BLOCK
  5
20
100
AcDbEntity
  8
0
100
AcDbBlockBegin
  2
*Model_Space
 70
0
 10
0.0
 20
0.0
 30
0.0
  3
*Model_Space
  1

  0
ENDBLK
  5
21
100
AcDbEntity
  8
0
100
AcDbBlockEnd
  0
BLOCK
  5
1C
100
AcDbEntity
  8
0
100
AcDbBlockBegin
  2
*Paper_Space
 70
0
 10
0.0
 20
0.0
 30
0.0
  3
*Paper_Space
  1

  0
ENDBLK
  5
1D
100
AcDbEntity
  8
0
100
AcDbBlockEnd
  0
BLOCK
  5
21B
100
AcDbEntity
  8
0
100
AcDbBlockBegin
  2
_FILLED
 70
64
 10
0.0
 20
0.0
  3
_FILLED
  1

  0
SOLID
  5
21C
100
AcDbEntity
  8
0
  6
BYBLOCK
 62
0
100
AcDbTrace
 10
0.0
 20
0.0
 11
-1.0
 21
0.3166666667
 12
-1.0
 22
-0.3166666667
 13
-1.0
 23
-0.3166666667
  0
ENDBLK
  5
21D
100
AcDbEntity
  8
0
  6
BYBLOCK
 62
0
100
AcDbBlockEnd
  0
ENDSEC
  0
SECTION
  2
ENTITIES
  0
LINE
  5
21E
100
AcDbEntity
  8
RACCORDO
100
AcDbLine
 62
7
  6
CONTINUOUS
 10
-70.3471213296
 20
75.4455697055
 11
-65.8686111575
 21
79.0035827588
  0
LINE
  5
21F
100
AcDbEntity
  8
RACCORDO
100
AcDbLine
 62
250
  6
CONTINUOUS
 10
-69.9289619505
 20
75.3799428448
 11
-65.4568841302
 21
78.9328456291
  0
LWPOLYLINE
  5
220
100
AcDbEntity
  8
RACCORDO
100
AcDbPolyline
 62
250
  6
CONTINUOUS
 90
46
 70
0
 10
-70.3471213296
 20
75.4455697055
 10
-70.340735466
 20
75.4504016335
 10
-70.3345345082
 20
75.4546628499
 10
-70.3281326073
 20
75.4586592875
 10
-70.3215328053
 20
75.462389047
 10
-70.3147382387
 20
75.4658503559
 10
-70.3077521364
 20
75.4690415693
 10
-70.3005778183
 20
75.4719611707
 10
-70.2932186936
 20
75.4746077725
 10
-70.2856782595
 20
75.4769801171
 10
-70.2779600994
 20
75.479077077
 10
-70.2700678811
 20
75.4808976557
 10
-70.262005355
 20
75.482440988
 10
-70.2537763526
 20
75.4837063404
 10
-70.2453847844
 20
75.4846931117
 10
-70.2368346382
 20
75.4854008328
 10
-70.2281299772
 20
75.4858291675
 10
-70.219274938
 20
75.4859779122
 10
-70.2102737286
 20
75.4858469961
 10
-70.2011306265
 20
75.4854364815
 10
-70.1918499767
 20
75.4847465634
 10
-70.1824361895
 20
75.4837775697
 10
-70.1728937384
 20
75.4825299609
 10
-70.1632271581
 20
75.4810043298
 10
-70.1534410425
 20
75.4792014014
 10
-70.1435400419
 20
75.4771220325
 10
-70.1335288614
 20
75.4747672113
 10
-70.1234122587
 20
75.4721380567
 10
-70.1131950411
 20
75.4692358182
 10
-70.1028820642
 20
75.4660618749
 10
-70.0924782287
 20
75.4626177352
 10
-70.0819884787
 20
75.4589050358
 10
-70.0714177992
 20
75.454925541
 10
-70.0607712134
 20
75.4506811419
 10
-70.0500537809
 20
75.4461738555
 10
-70.0392705946
 20
75.4414058237
 10
-70.028426779
 20
75.4363793124
 10
-70.0175274872
 20
75.4310967103
 10
-70.0065778987
 20
75.4255605277
 10
-69.995583217
 20
75.4197733956
 10
-69.984548667
 20
75.4137380641
 10
-69.9734794924
 20
75.4074574013
 10
-69.9623809533
 20
75.4009343917
 10
-69.951258324
 20
75.3941721353
 10
-69.9401168901
 20
75.3871738456
 10
-69.9289619462
 20
75.3799428482
  0
LWPOLYLINE
  5
221
100
AcDbEntity
  8
RACCORDO
100
AcDbPolyline
 62
250
  6
CONTINUOUS
 90
64
 70
0
 10
-70.4124356084
 20
74.6026587807
 10
-70.4111894651
 20
74.6147635123
 10
-70.4096829583
 20
74.6269921685
 10
-70.407917854
 20
74.639350063
 10
-70.4058938724
 20
74.6518545711
 10
-70.4036101873
 20
74.6644991938
 10
-70.401069962
 20
74.6772534614
 10
-70.3982758512
 20
74.6901224552
 10
-70.3952262487
 20
74.7031116907
 10
-70.3919240877
 20
74.7161909935
 10
-70.3883728746
 20
74.7293642714
 10
-70.3845718377
 20
74.7426368401
 10
-70.3805231773
 20
74.7559798213
 10
-70.3762314253
 20
74.7693957147
 10
-70.3716969537
 20
74.7828891116
 10
-70.3669207659
 20
74.7964331092
 10
-70.3619085249
 20
74.8100287488
 10
-70.3566620188
 20
74.8236795399
 10
-70.351180726
 20
74.8373609016
 10
-70.3454714608
 20
74.8510725077
 10
-70.3395376039
 20
74.8648166101
 10
-70.3333769677
 20
74.8785710146
 10
-70.3269974581
 20
74.8923342058
 10
-70.320404102
 20
74.9061071613
 10
-70.3135930919
 20
74.9198699389
 10
-70.3065733054
 20
74.9336200512
 10
-70.2993513517
 20
74.9473573005
 10
-70.2919219972
 20
74.961063748
 10
-70.2842949388
 20
74.9747361559
 10
-70.2764782123
 20
74.9883733187
 10
-70.2684654442
 20
75.001959009
 10
-70.2602669888
 20
75.0154894434
 10
-70.2518920963
 20
75.0289626054
 10
-70.2433335773
 20
75.042363691
 10
-70.2346022894
 20
75.0556885508
 10
-70.2257084622
 20
75.0689345544
 10
-70.2166444076
 20
75.0820880666
 10
-70.207421351
 20
75.0951447227
 10
-70.1980502699
 20
75.108101461
 10
-70.188523259
 20
75.1209456029
 10
-70.1788517976
 20
75.1336726946
 10
-70.1690474028
 20
75.1462794026
 10
-70.1591021793
 20
75.1587538375
 10
-70.1490277709
 20
75.1710915605
 10
-70.1388360567
 20
75.1832891027
 10
-70.1285193204
 20
75.1953352351
 10
-70.1180893027
 20
75.2072256217
 10
-70.1075581008
 20
75.2189567719
 10
-70.0969182896
 20
75.2305180213
 10
-70.0861816583
 20
75.2419052107
 10
-70.0753604112
 20
75.253114924
 10
-70.0644474751
 20
75.264136989
 10
-70.0534546554
 20
75.2749674884
 10
-70.0423941815
 20
75.2856031619
 10
-70.0312593494
 20
75.2960342745
 10
-70.020061961
 20
75.3062572089
 10
-70.008814213
 20
75.3162689307
 10
-69.9975097533
 20
75.3260600984
 10
-69.9861603698
 20
75.3356274481
 10
-69.9747781887
 20
75.3449682333
 10
-69.9633571639
 20
75.3540734691
 10
-69.9519031768
 20
75.3629382371
 10
-69.9404341358
 20
75.3715621113
 10
-69.9289619462
 20
75.3799428482
  0
LWPOLYLINE
  5
222
100
AcDbEntity
  8
RACCORDO
100
AcDbPolyline
 62
250
  6
CONTINUOUS
 90
70
 70
0
 10
-55.4318574583
 20
57.7867873465
 10
-55.4204196274
 20
57.7954390882
 10
-55.4087508633
 20
57.8039071317
 10
-55.3968569489
 20
57.8121872802
 10
-55.384743779
 20
57.82027543
 10
-55.3724173571
 20
57.8281675725
 10
-55.359883792
 20
57.8358597964
 10
-55.3471492957
 20
57.8433482894
 10
-55.3342201792
 20
57.85062934
 10
-55.3211028505
 20
57.8576993397
 10
-55.3078038105
 20
57.8645547847
 10
-55.2943296504
 20
57.8711922773
 10
-55.2806870479
 20
57.8776085279
 10
-55.2668827646
 20
57.8838003566
 10
-55.2529236418
 20
57.8897646947
 10
-55.2388165978
 20
57.8954985862
 10
-55.2245686241
 20
57.9009991894
 10
-55.2101867822
 20
57.9062637781
 10
-55.1956781997
 20
57.9112897431
 10
-55.1810500672
 20
57.9160745936
 10
-55.1663096346
 20
57.9206159582
 10
-55.1514642072
 20
57.9249115861
 10
-55.1365211425
 20
57.9289593485
 10
-55.1214878465
 20
57.9327572391
 10
-55.1063717697
 20
57.9363033757
 10
-55.0911804037
 20
57.9395960009
 10
-55.0759212776
 20
57.9426334827
 10
-55.0606019538
 20
57.9454143159
 10
-55.0452300246
 20
57.9479371222
 10
-55.0298131085
 20
57.9502006513
 10
-55.0143588463
 20
57.9522037813
 10
-54.9988748971
 20
57.9539455196
 10
-54.9833689349
 20
57.9554250028
 10
-54.9678486445
 20
57.9566414978
 10
-54.952321718
 20
57.9575944016
 10
-54.9367958505
 20
57.9582832419
 10
-54.9212787368
 20
57.9587076775
 10
-54.9057780673
 20
57.9588674979
 10
-54.8903015241
 20
57.9587626239
 10
-54.8748567776
 20
57.9583931075
 10
-54.8594514823
 20
57.9577591319
 10
-54.8440932731
 20
57.9568610112
 10
-54.8287897618
 20
57.9556991905
 10
-54.8135485327
 20
57.9542742457
 10
-54.7983771395
 20
57.9525868829
 10
-54.7832831013
 20
57.9506379385
 10
-54.7682738989
 20
57.9484283783
 10
-54.7533569707
 20
57.9459592974
 10
-54.7385397099
 20
57.9432319196
 10
-54.7238294598
 20
57.9402475964
 10
-54.7092335111
 20
57.9370078071
 10
-54.6947590974
 20
57.9335141571
 10
-54.6804133926
 20
57.9297683781
 10
-54.6662035063
 20
57.9257723264
 10
-54.6521364811
 20
57.9215279824
 10
-54.6382192887
 20
57.9170374498
 10
-54.6244588266
 20
57.9123029541
 10
-54.6108619145
 20
57.9073268417
 10
-54.5974352912
 20
57.9021115788
 10
-54.5841856109
 20
57.8966597501
 10
-54.5711194403
 20
57.8909740576
 10
-54.558243255
 20
57.8850573191
 10
-54.5455634367
 20
57.8789124671
 10
-54.5330862695
 20
57.8725425469
 10
-54.5208179371
 20
57.8659507155
 10
-54.5087645198
 20
57.85914024
 10
-54.4969319914
 20
57.8521144955
 10
-54.4853262162
 20
57.8448769641
 10
-54.473952946
 20
57.8374312328
 10
-54.4628178175
 20
57.8297809917
  0
LINE
  5
223
100
AcDbEntity
  8
RACCORDO
100
AcDbLine
 62
7
  6
CONTINUOUS
 10
-55.847595999
 20
64.3059770468
 11
-55.8293515733
 21
64.3120506996
  0
LWPOLYLINE
  5
224
100
AcDbEntity
  8
RACCORDO
100
AcDbPolyline
 62
7
  6
CONTINUOUS
 90
49
 70
0
 10
-55.8293536747
 20
64.3120502136
 10
-55.8286958172
 20
64.3122439804
 10
-55.8279944148
 20
64.3124068919
 10
-55.8272484857
 20
64.3125372471
 10
-55.8264572729
 20
64.3126316428
 10
-55.8256195301
 20
64.3126898555
 10
-55.824733533
 20
64.3127148405
 10
-55.823797835
 20
64.312704891
 10
-55.8228118594
 20
64.3126576578
 10
-55.8217752243
 20
64.3125750893
 10
-55.8206859175
 20
64.3124550857
 10
-55.8195440279
 20
64.3122954518
 10
-55.8183524928
 20
64.3120982052
 10
-55.8171111041
 20
64.3118616297
 10
-55.8158185427
 20
64.3115834762
 10
-55.8144763011
 20
64.3112653017
 10
-55.8130827183
 20
64.3109051552
 10
-55.8116382341
 20
64.3105011977
 10
-55.8101477532
 20
64.3100556147
 10
-55.8086094878
 20
64.3095666131
 10
-55.8070245227
 20
64.3090328981
 10
-55.8054025086
 20
64.3084583263
 10
-55.8037450612
 20
64.3078428487
 10
-55.8020505936
 20
64.3071848447
 10
-55.8003243438
 20
64.3064867205
 10
-55.7985707581
 20
64.3057499916
 10
-55.7967858132
 20
64.3049723147
 10
-55.7949620392
 20
64.3041502308
 10
-55.7931020089
 20
64.303284225
 10
-55.7912033973
 20
64.3023722696
 10
-55.7892510399
 20
64.3014059863
 10
-55.787244542
 20
64.3003838089
 10
-55.7851842449
 20
64.2993042939
 10
-55.7830557092
 20
64.2981577794
 10
-55.7808585861
 20
64.2969421605
 10
-55.7785931102
 20
64.2956553224
 10
-55.776245452
 20
64.2942862187
 10
-55.7738153197
 20
64.2928322661
 10
-55.7713030326
 20
64.2912907499
 10
-55.7686955253
 20
64.2896491494
 10
-55.7659926023
 20
64.2879044798
 10
-55.7631948492
 20
64.286053524
 10
-55.7602903465
 20
64.2840822667
 10
-55.7572793977
 20
64.2819876839
 10
-55.7541626934
 20
64.2797659668
 10
-55.7509290041
 20
64.2774009336
 10
-55.7475751926
 20
64.2748845517
 10
-55.7441062415
 20
64.272217548
 10
-55.7405233114
 20
64.269396572
  0
LINE
  5
225
100
AcDbEntity
  8
RACCORDO
100
AcDbLine
 62
7
  6
CONTINUOUS
 10
51.6149146008
 20
-68.4468391196
 11
51.6101642611
 21
-68.4479256245
  0
LINE
  5
226
100
AcDbEntity
  8
RACCORDO
100
AcDbLine
 62
7
  6
CONTINUOUS
 10
51.6101642611
 20
-68.4479256245
 11
51.6054742708
 21
-68.4489664576
  0
LINE
  5
227
100
AcDbEntity
  8
RACCORDO
100
AcDbLine
 62
7
  6
CONTINUOUS
 10
51.6054742708
 20
-68.4489664576
 11
51.6008445566
 21
-68.4499610428
  0
LWPOLYLINE
  5
228
100
AcDbEntity
  8
RACCORDO
100
AcDbPolyline
 62
7
  6
CONTINUOUS
 90
61
 70
0
 10
-70.6090308703
 20
74.9584133506
 10
-70.6953389894
 20
73.9549621483
 10
-70.7792440435
 20
72.9473595067
 10
-70.8602137699
 20
71.9416962156
 10
-70.9382472611
 20
70.9379828447
 10
-71.0133436852
 20
69.9362293486
 10
-71.0855022244
 20
68.9364456019
 10
-71.1547220759
 20
67.9386419316
 10
-71.221002444
 20
66.9428287946
 10
-71.2843425581
 20
65.9490164591
 10
-71.3447417084
 20
64.9572151403
 10
-71.4021991942
 20
63.9674351563
 10
-71.4567143319
 20
62.9796868131
 10
-71.5082864971
 20
61.9939803652
 10
-71.5569150806
 20
61.010326005
 10
-71.6025994928
 20
60.028733909
 10
-71.6453392013
 20
59.049214239
 10
-71.6851336837
 20
58.0717771409
 10
-71.7219824431
 20
57.0964327045
 10
-71.7558850371
 20
56.1231910079
 10
-71.7868410301
 20
55.1520621558
 10
-71.8148500148
 20
54.1830562193
 10
-71.8399116388
 20
53.216183202
 10
-71.8620255543
 20
52.2514531513
 10
-71.8811914453
 20
51.2888761389
 10
-71.8974090488
 20
50.3284621242
 10
-71.9106781065
 20
49.3702210659
 10
-71.920998396
 20
48.4141629669
 10
-71.928369744
 20
47.4602977147
 10
-71.9327919813
 20
46.5086352049
 10
-71.9342649792
 20
45.5591853833
 10
-71.9327886537
 20
44.6119580506
 10
-71.928362925
 20
43.6669630525
 10
-71.9209877589
 20
42.7242103311
 10
-71.9106631615
 20
41.7837096358
 10
-71.897389143
 20
40.845470724
 10
-71.8811657648
 20
39.9095034773
 10
-71.8619931227
 20
38.9758175814
 10
-71.8398713173
 20
38.0444227159
 10
-71.8148005052
 20
37.1153286811
 10
-71.7867808719
 20
36.1885450994
 10
-71.7558126084
 20
35.2640815702
 10
-71.7218959649
 20
34.3419477874
 10
-71.685031216
 20
33.4221533001
 10
-71.6452186433
 20
32.5047076375
 10
-71.6024585898
 20
31.5896203926
 10
-71.5567514178
 20
30.6769010307
 10
-71.5080974998
 20
29.7665590157
 10
-71.456497273
 20
28.8586038758
 10
-71.4019511876
 20
27.9530449883
 10
-71.3444597085
 20
27.049891768
 10
-71.2840233686
 20
26.1491537181
 10
-71.2206427099
 20
25.250840201
 10
-71.1543182835
 20
24.3549604601
 10
-71.0850507101
 20
23.4615238171
 10
-71.0128406274
 20
22.5705396257
 10
-70.9376886794
 20
21.6820170979
 10
-70.8595955351
 20
20.7959650794
 10
-70.7785618714
 20
19.9123923997
 10
-70.6945884349
 20
19.0313083194
 10
-70.6081638707
 20
18.1575651256
  0
LWPOLYLINE
  5
229
100
AcDbEntity
  8
RACCORDO
100
AcDbPolyline
 62
250
  6
CONTINUOUS
 90
64
 70
0
 10
-70.4124356152
 20
74.6026587763
 10
-70.4951562458
 20
73.6415775511
 10
-70.5752161923
 20
72.682254882
 10
-70.6526146737
 20
71.7246997874
 10
-70.7273509114
 20
70.7689212441
 10
-70.7994241996
 20
69.8149282633
 10
-70.8688339061
 20
68.8627298902
 10
-70.9355793567
 20
67.9123350776
 10
-70.9996598976
 20
66.9637527634
 10
-71.061074966
 20
66.0169919453
 10
-71.1198239661
 20
65.072061529
 10
-71.1759063221
 20
64.1289704003
 10
-71.2293215418
 20
63.1877275017
 10
-71.2800691072
 20
62.2483416929
 10
-71.3281485213
 20
61.3108218051
 10
-71.3735593628
 20
60.3751767127
 10
-71.4163011915
 20
59.4414152326
 10
-71.4563735891
 20
58.5095461366
 10
-71.493776206
 20
57.5795782064
 10
-71.5285086805
 20
56.6515201986
 10
-71.5605706714
 20
55.7253808423
 10
-71.5899618995
 20
54.8011688517
 10
-71.616682081
 20
53.8788929254
 10
-71.6407309524
 20
52.9585617462
 10
-71.662108304
 20
52.0401839793
 10
-71.6808139298
 20
51.1237682654
 10
-71.6968476445
 20
50.209323239
 10
-71.7102093076
 20
49.2968575298
 10
-71.7208987915
 20
48.3863797316
 10
-71.728915989
 20
47.4778984181
 10
-71.7342608299
 20
46.5714221622
 10
-71.7369332648
 20
45.6669595049
 10
-71.7369332648
 20
44.7645189635
 10
-71.73426083
 20
43.8641090474
 10
-71.7289159892
 20
42.965738241
 10
-71.7208987917
 20
42.0694150076
 10
-71.710209308
 20
41.1751477977
 10
-71.6968476449
 20
40.2829450415
 10
-71.6808139303
 20
39.3928151443
 10
-71.6621083045
 20
38.504766491
 10
-71.640730953
 20
37.6188074617
 10
-71.6166820817
 20
36.7349463982
 10
-71.5899619003
 20
35.8531915993
 10
-71.5605706723
 20
34.9735513831
 10
-71.5285086815
 20
34.096034039
 10
-71.4937762072
 20
33.2206477934
 10
-71.4563735903
 20
32.3474009008
 10
-71.4163011928
 20
31.4763015985
 10
-71.3735593641
 20
30.6073580581
 10
-71.3281485227
 20
29.7405784672
 10
-71.2800691086
 20
28.8759710126
 10
-71.2293215432
 20
28.0135438344
 10
-71.1759063234
 20
27.1533050684
 10
-71.1198239673
 20
26.295262834
 10
-71.0610749672
 20
25.4394252157
 10
-70.9996598986
 20
24.5858002931
 10
-70.9355793576
 20
23.7343961209
 10
-70.8688339068
 20
22.8852207163
 10
-70.7994242002
 20
22.0382820997
 10
-70.7273509118
 20
21.193588263
 10
-70.652614674
 20
20.3511471485
 10
-70.5752161925
 20
19.5109667001
 10
-70.4951562459
 20
18.6730548629
 10
-70.4124356152
 20
17.8374195505
  0
LINE
  5
22A
100
AcDbEntity
  8
RACCORDO
100
AcDbLine
 62
250
  6
CONTINUOUS
 10
-53.4367128942
 20
52.5253304888
 11
-53.426345103
 21
52.5346571892
  0
LINE
  5
22B
100
AcDbEntity
  8
RACCORDO
100
AcDbLine
 62
250
  6
CONTINUOUS
 10
-53.4449499382
 20
52.5180259818
 11
-53.4367128942
 21
52.5253304888
  0
LINE
  5
22C
100
AcDbEntity
  8
RACCORDO
100
AcDbLine
 62
250
  6
CONTINUOUS
 10
-53.4532329709
 20
52.5107850888
 11
-53.4449499382
 21
52.5180259818
  0
LINE
  5
22D
100
AcDbEntity
  8
RACCORDO
100
AcDbLine
 62
250
  6
CONTINUOUS
 10
-53.4615599246
 20
52.5036102504
 11
-53.4532329709
 21
52.5107850888
  0
LWPOLYLINE
  5
22E
100
AcDbEntity
  8
RACCORDO
100
AcDbPolyline
 62
250
  6
CONTINUOUS
 90
70
 70
0
 10
-54.4312051354
 20
52.5559116546
 10
-54.4199355389
 20
52.5654657209
 10
-54.40843477
 20
52.5748355175
 10
-54.3967085324
 20
52.5840163976
 10
-54.3847626417
 20
52.5930038078
 10
-54.3726030225
 20
52.601793291
 10
-54.3602357052
 20
52.6103804881
 10
-54.3476668235
 20
52.6187611401
 10
-54.3349026106
 20
52.6269310909
 10
-54.3219493972
 20
52.6348862885
 10
-54.3088136071
 20
52.6426227875
 10
-54.2955017551
 20
52.6501367512
 10
-54.2820204432
 20
52.6574244529
 10
-54.2683763573
 20
52.6644822784
 10
-54.2545762642
 20
52.6713067274
 10
-54.2406270079
 20
52.6778944152
 10
-54.2265355067
 20
52.6842420748
 10
-54.212308749
 20
52.6903465581
 10
-54.1979537906
 20
52.6962048375
 10
-54.1834777508
 20
52.7018140077
 10
-54.1688878089
 20
52.7071712869
 10
-54.1541912008
 20
52.712274018
 10
-54.1393952151
 20
52.7171196705
 10
-54.1245071899
 20
52.7217058411
 10
-54.1095345089
 20
52.7260302554
 10
-54.0944845977
 20
52.7300907686
 10
-54.0793649202
 20
52.7338853671
 10
-54.064182975
 20
52.7374121688
 10
-54.0489462915
 20
52.7406694246
 10
-54.0336624262
 20
52.7436555192
 10
-54.0183389593
 20
52.7463689715
 10
-54.0029834902
 20
52.748808436
 10
-53.9876036345
 20
52.7509727026
 10
-53.9722070198
 20
52.7528606981
 10
-53.9568012819
 20
52.7544714862
 10
-53.9413940612
 20
52.7558042678
 10
-53.925992999
 20
52.7568583822
 10
-53.9106057332
 20
52.7576333064
 10
-53.8952398953
 20
52.7581286562
 10
-53.8799031057
 20
52.7583441859
 10
-53.8646029707
 20
52.7582797885
 10
-53.8493470784
 20
52.7579354962
 10
-53.8341429949
 20
52.7573114795
 10
-53.8189982606
 20
52.756408048
 10
-53.8039203863
 20
52.7552256497
 10
-53.7889168501
 20
52.753764871
 10
-53.7739950927
 20
52.7520264364
 10
-53.7591625147
 20
52.7500112081
 10
-53.7444264721
 20
52.7477201855
 10
-53.7297942733
 20
52.7451545048
 10
-53.7152731749
 20
52.7423154385
 10
-53.7008703788
 20
52.7392043946
 10
-53.6865930279
 20
52.7358229161
 10
-53.6724482031
 20
52.7321726798
 10
-53.6584429193
 20
52.7282554962
 10
-53.6445841225
 20
52.724073308
 10
-53.6308786858
 20
52.7196281893
 10
-53.6173334065
 20
52.7149223447
 10
-53.6039550023
 20
52.709958108
 10
-53.5907501081
 20
52.7047379411
 10
-53.5777252728
 20
52.6992644331
 10
-53.5648869561
 20
52.6935402984
 10
-53.5522415251
 20
52.687568376
 10
-53.5397952513
 20
52.6813516276
 10
-53.5275543073
 20
52.6748931364
 10
-53.5155247639
 20
52.6681961054
 10
-53.5037125872
 20
52.661263856
 10
-53.4921236354
 20
52.6540998262
 10
-53.480763656
 20
52.646707569
 10
-53.4696382829
 20
52.6390907506
  0
LINE
  5
22F
100
AcDbEntity
  8
RACCORDO
100
AcDbLine
 62
250
  6
CONTINUOUS
 10
-53.4699298964
 20
52.4965025914
 11
-53.4615599246
 21
52.5036102504
  0
LINE
  5
230
100
AcDbEntity
  8
RACCORDO
100
AcDbLine
 62
250
  6
CONTINUOUS
 10
-53.4783419333
 20
52.4894634387
 11
-53.4699298964
 21
52.4965025914
  0
LINE
  5
231
100
AcDbEntity
  8
RACCORDO
100
AcDbLine
 62
250
  6
CONTINUOUS
 10
-53.4867946782
 20
52.482494441
 11
-53.4783419333
 21
52.4894634387
  0
LINE
  5
232
100
AcDbEntity
  8
RACCORDO
100
AcDbLine
 62
250
  6
CONTINUOUS
 10
-53.4952872649
 20
52.4755966576
 11
-53.4867946782
 21
52.482494441
  0
LINE
  5
233
100
AcDbEntity
  8
RACCORDO
100
AcDbLine
 62
250
  6
CONTINUOUS
 10
-53.5038184011
 20
52.4687716619
 11
-53.4952872649
 21
52.4755966576
  0
LINE
  5
234
100
AcDbEntity
  8
RACCORDO
100
AcDbLine
 62
250
  6
CONTINUOUS
 10
-53.5123867852
 20
52.4620210061
 11
-53.5038184011
 21
52.4687716619
  0
LINE
  5
235
100
AcDbEntity
  8
RACCORDO
100
AcDbLine
 62
250
  6
CONTINUOUS
 10
-53.5209915329
 20
52.4553457319
 11
-53.5123867852
 21
52.4620210061
  0
LINE
  5
236
100
AcDbEntity
  8
RACCORDO
100
AcDbLine
 62
250
  6
CONTINUOUS
 10
-53.5296312938
 20
52.4487474117
 11
-53.5209915329
 21
52.4553457319
  0
LINE
  5
237
100
AcDbEntity
  8
RACCORDO
100
AcDbLine
 62
250
  6
CONTINUOUS
 10
-53.538304705
 20
52.4422275969
 11
-53.5296312938
 21
52.4487474117
  0
LINE
  5
238
100
AcDbEntity
  8
RACCORDO
100
AcDbLine
 62
250
  6
CONTINUOUS
 10
-53.5470108482
 20
52.4357873224
 11
-53.538304705
 21
52.4422275969
  0
LINE
  5
239
100
AcDbEntity
  8
RACCORDO
100
AcDbLine
 62
250
  6
CONTINUOUS
 10
-53.5557483335
 20
52.4294281408
 11
-53.5470108482
 21
52.4357873224
  0
LINE
  5
23A
100
AcDbEntity
  8
RACCORDO
100
AcDbLine
 62
250
  6
CONTINUOUS
 10
-53.5645157452
 20
52.4231515922
 11
-53.5557483335
 21
52.4294281408
  0
LINE
  5
23B
100
AcDbEntity
  8
RACCORDO
100
AcDbLine
 62
250
  6
CONTINUOUS
 10
-53.5733121333
 20
52.4169587011
 11
-53.5645157452
 21
52.4231515922
  0
LINE
  5
23C
100
AcDbEntity
  8
RACCORDO
100
AcDbLine
 62
250
  6
CONTINUOUS
 10
-53.5821360636
 20
52.4108510006
 11
-53.5733121333
 21
52.4169587011
  0
LINE
  5
23D
100
AcDbEntity
  8
RACCORDO
100
AcDbLine
 62
250
  6
CONTINUOUS
 10
-53.5909860754
 20
52.4048300104
 11
-53.5821360636
 21
52.4108510006
  0
LINE
  5
23E
100
AcDbEntity
  8
RACCORDO
100
AcDbLine
 62
250
  6
CONTINUOUS
 10
-53.5998611896
 20
52.3988967401
 11
-53.5909860754
 21
52.4048300104
  0
LINE
  5
23F
100
AcDbEntity
  8
RACCORDO
100
AcDbLine
 62
250
  6
CONTINUOUS
 10
-53.6087599294
 20
52.3930526994
 11
-53.5998611896
 21
52.3988967401
  0
LINE
  5
240
100
AcDbEntity
  8
RACCORDO
100
AcDbLine
 62
250
  6
CONTINUOUS
 10
-53.6176807937
 20
52.3872993811
 11
-53.6087599294
 21
52.3930526994
  0
LINE
  5
241
100
AcDbEntity
  8
RACCORDO
100
AcDbLine
 62
250
  6
CONTINUOUS
 10
-53.626622777
 20
52.3816377762
 11
-53.6176807937
 21
52.3872993811
  0
LINE
  5
242
100
AcDbEntity
  8
RACCORDO
100
AcDbLine
 62
250
  6
CONTINUOUS
 10
-53.6355843631
 20
52.3760693658
 11
-53.626622777
 21
52.3816377762
  0
LINE
  5
243
100
AcDbEntity
  8
RACCORDO
100
AcDbLine
 62
250
  6
CONTINUOUS
 10
-53.6445640156
 20
52.3705956097
 11
-53.6355843631
 21
52.3760693658
  0
LWPOLYLINE
  5
244
100
AcDbEntity
  8
RACCORDO
100
AcDbPolyline
 62
7
  6
CONTINUOUS
 90
49
 70
0
 10
51.6008461627
 20
-68.4499609043
 10
51.6003475782
 20
-68.4500406811
 10
51.5998067054
 20
-68.450087835
 10
51.599222417
 20
-68.4501007064
 10
51.5985935084
 20
-68.4500761398
 10
51.5979188937
 20
-68.4500137329
 10
51.5971975688
 20
-68.4499158724
 10
51.5964278503
 20
-68.449780775
 10
51.5956089894
 20
-68.4496062952
 10
51.5947413643
 20
-68.4493943139
 10
51.5938231589
 20
-68.4491427704
 10
51.5928538246
 20
-68.448849681
 10
51.5918357848
 20
-68.4485173033
 10
51.5907681172
 20
-68.4481439499
 10
51.5896497227
 20
-68.4477275776
 10
51.5884829962
 20
-68.4472703235
 10
51.5872659767
 20
-68.4467702316
 10
51.5859989394
 20
-68.4462258984
 10
51.5846880106
 20
-68.4456409365
 10
51.5833316435
 20
-68.4450138486
 10
51.5819303714
 20
-68.4443437298
 10
51.5804940709
 20
-68.4436361422
 10
51.5790254396
 20
-68.442892202
 10
51.577521713
 20
-68.4421099117
 10
51.5759850066
 20
-68.4412909308
 10
51.5744193409
 20
-68.4404373271
 10
51.5728208565
 20
-68.4395465936
 10
51.5711796225
 20
-68.4386131843
 10
51.5694966299
 20
-68.4376372094
 10
51.5677704934
 20
-68.4366171845
 10
51.5659870725
 20
-68.4355440454
 10
51.5641454665
 20
-68.4344163887
 10
51.5622455723
 20
-68.4332330789
 10
51.5602737944
 20
-68.4319842328
 10
51.5582292
 20
-68.4306681227
 10
51.5561113206
 20
-68.4292830232
 10
51.5539067164
 20
-68.4278179422
 10
51.5516142945
 20
-68.4262708163
 10
51.5492334967
 20
-68.4246394919
 10
51.546751251
 20
-68.4229118227
 10
51.5441663405
 20
-68.4210855103
 10
51.5414782579
 20
-68.4191580761
 10
51.5386746966
 20
-68.4171162115
 10
51.5357546913
 20
-68.4149577579
 10
51.5327176337
 20
-68.4126798235
 10
51.529551609
 20
-68.4102672394
 10
51.5262522101
 20
-68.4077130493
 10
51.522822653
 20
-68.4050190638
 10
51.5192625081
 20
-68.4021830648
  0
LWPOLYLINE
  5
245
100
AcDbEntity
  8
RACCORDO
100
AcDbPolyline
 62
250
  6
CONTINUOUS
 90
33
 70
0
 10
-70.6081638725
 20
18.1575651435
 10
-70.6074207272
 20
18.1507725101
 10
-70.6058891373
 20
18.1392517702
 10
-70.6040208602
 20
18.1277739339
 10
-70.6018168021
 20
18.1163445679
 10
-70.599278032
 20
18.1049692154
 10
-70.596405781
 20
18.0936533936
 10
-70.5932014424
 20
18.0824025905
 10
-70.5896665701
 20
18.0712222627
 10
-70.5858028786
 20
18.0601178327
 10
-70.5816122418
 20
18.0490946861
 10
-70.5770966922
 20
18.0381581693
 10
-70.5722584198
 20
18.0273135864
 10
-70.5670997711
 20
18.016566197
 10
-70.5616232481
 20
18.0059212134
 10
-70.555831507
 20
17.9953837983
 10
-70.5497273568
 20
17.9849590624
 10
-70.5433137577
 20
17.9746520621
 10
-70.5365938199
 20
17.9644677962
 10
-70.5295708029
 20
17.9544112041
 10
-70.522248114
 20
17.9444871633
 10
-70.5146293067
 20
17.9347004881
 10
-70.5067180746
 20
17.9250559239
 10
-70.498518249
 20
17.9155581448
 10
-70.4900337967
 20
17.9062117492
 10
-70.4812688412
 20
17.8970212786
 10
-70.4722276584
 20
17.887991211
 10
-70.4629146115
 20
17.8791258998
 10
-70.4533342416
 20
17.8704296698
 10
-70.4434912997
 20
17.8619068289
 10
-70.4333906044
 20
17.8535615338
 10
-70.4230370305
 20
17.8453977938
 10
-70.4124356084
 20
17.837419561
  0
LWPOLYLINE
  5
246
100
AcDbEntity
  8
RACCORDO
100
AcDbPolyline
 62
250
  6
CONTINUOUS
 90
24
 70
0
 10
-70.4124356084
 20
17.837419561
 10
-70.4111894651
 20
17.8270055465
 10
-70.4096829583
 20
17.8168185522
 10
-70.4079178539
 20
17.8068545141
 10
-70.4058938723
 20
17.7971020293
 10
-70.4036101873
 20
17.787565619
 10
-70.4010699621
 20
17.7782656867
 10
-70.3982758514
 20
17.7692017759
 10
-70.3952262491
 20
17.7603702294
 10
-70.3919240882
 20
17.7517873207
 10
-70.3883728753
 20
17.7434543889
 10
-70.3845718385
 20
17.7353692604
 10
-70.3805231783
 20
17.7275437501
 10
-70.3762314265
 20
17.7199808439
 10
-70.3716969551
 20
17.7126800593
 10
-70.3669207675
 20
17.7056488147
 10
-70.3619085267
 20
17.6988914449
 10
-70.3566620208
 20
17.6924091465
 10
-70.3511807282
 20
17.6862053261
 10
-70.3454714633
 20
17.6802852882
 10
-70.3395376065
 20
17.6746517115
 10
-70.3333769706
 20
17.6693045848
 10
-70.3269974612
 20
17.6642497867
 10
-70.3245726657
 20
17.6624471124
  0
LINE
  5
247
100
AcDbEntity
  8
RACCORDO
100
AcDbLine
 62
250
  6
CONTINUOUS
 10
-55.5898044677
 20
9.1694514836
 11
-55.5979490469
 21
9.0385951142
  0
LINE
  5
248
100
AcDbEntity
  8
RACCORDO
100
AcDbLine
 62
250
  6
CONTINUOUS
 10
-55.5979490469
 20
9.0385951142
 11
-55.6059696064
 21
8.9161227181
  0
LINE
  5
249
100
AcDbEntity
  8
RACCORDO
100
AcDbLine
 62
250
  6
CONTINUOUS
 10
-55.6059696064
 20
8.9161227181
 11
-55.6138474611
 21
8.8019302864
  0
LINE
  5
24A
100
AcDbEntity
  8
RACCORDO
100
AcDbLine
 62
250
  6
CONTINUOUS
 10
-55.6138474611
 20
8.8019302864
 11
-55.6215651452
 21
8.695840801
  0
LINE
  5
24B
100
AcDbEntity
  8
RACCORDO
100
AcDbLine
 62
250
  6
CONTINUOUS
 10
-55.6215651452
 20
8.695840801
 11
-55.6291091023
 21
8.5975835371
  0
LINE
  5
24C
100
AcDbEntity
  8
RACCORDO
100
AcDbLine
 62
250
  6
CONTINUOUS
 10
-55.6291091023
 20
8.5975835371
 11
-55.6364716634
 21
8.5067841359
  0
LINE
  5
24D
100
AcDbEntity
  8
RACCORDO
100
AcDbLine
 62
250
  6
CONTINUOUS
 10
-55.6364716634
 20
8.5067841359
 11
-55.6436423551
 21
8.4230955414
  0
LINE
  5
24E
100
AcDbEntity
  8
RACCORDO
100
AcDbLine
 62
7
  6
CONTINUOUS
 10
-55.2810557352
 20
63.9194620403
 11
-55.2838611253
 21
63.8885135897
  0
LINE
  5
24F
100
AcDbEntity
  8
RACCORDO
100
AcDbLine
 62
250
  6
CONTINUOUS
 10
-55.6436423551
 20
8.4230955414
 11
-55.6506188068
 21
8.3460727993
  0
LINE
  5
250
100
AcDbEntity
  8
RACCORDO
100
AcDbLine
 62
250
  6
CONTINUOUS
 10
-55.6506188068
 20
8.3460727993
 11
-55.6573998182
 21
8.2752707549
  0
LWPOLYLINE
  5
251
100
AcDbEntity
  8
RACCORDO
100
AcDbPolyline
 62
250
  6
CONTINUOUS
 90
67
 70
0
 10
-55.2810556831
 20
63.9194620034
 10
-55.2798915783
 20
63.9310037359
 10
-55.2784930308
 20
63.9426830677
 10
-55.2768606551
 20
63.9544944728
 10
-55.2749947917
 20
63.9664323404
 10
-55.2728966531
 20
63.9784910415
 10
-55.2705683674
 20
63.9906649095
 10
-55.2680110806
 20
64.002947936
 10
-55.2652259547
 20
64.0153344975
 10
-55.2622153457
 20
64.0278194057
 10
-55.2589806785
 20
64.0403967271
 10
-55.2555234804
 20
64.0530604782
 10
-55.2518464247
 20
64.0658053293
 10
-55.2479512575
 20
64.0786252235
 10
-55.2438398251
 20
64.0915140627
 10
-55.2395151116
 20
64.1044664024
 10
-55.2349791768
 20
64.1174760885
 10
-55.2302341779
 20
64.130536935
 10
-55.2252834019
 20
64.1436434093
 10
-55.2201292463
 20
64.1567893077
 10
-55.2147741373
 20
64.1699683626
 10
-55.2092215564
 20
64.1831749191
 10
-55.2034745461
 20
64.1964029496
 10
-55.1975354736
 20
64.2096459334
 10
-55.1914069504
 20
64.2228974634
 10
-55.1850921642
 20
64.2361514103
 10
-55.1785938926
 20
64.2494013328
 10
-55.1719142634
 20
64.2626403564
 10
-55.165056486
 20
64.2758622095
 10
-55.1580238428
 20
64.2890606231
 10
-55.150818695
 20
64.3022287402
 10
-55.1434444407
 20
64.3153602935
 10
-55.1359046732
 20
64.328449091
 10
-55.1282021639
 20
64.3414884137
 10
-55.1203403705
 20
64.3544719688
 10
-55.1123232993
 20
64.3673937229
 10
-55.1041546603
 20
64.3802473868
 10
-55.0958383168
 20
64.3930268457
 10
-55.0873783194
 20
64.4057260773
 10
-55.0787787712
 20
64.4183389863
 10
-55.0700438071
 20
64.4308596053
 10
-55.0611776226
 20
64.4432820082
 10
-55.0521845149
 20
64.4556002326
 10
-55.0430688486
 20
64.4678084655
 10
-55.0338349691
 20
64.4799009229
 10
-55.0244872369
 20
64.4918717681
 10
-55.0150302107
 20
64.5037153633
 10
-55.0054683808
 20
64.5154260953
 10
-54.9958060865
 20
64.5269982567
 10
-54.9860479838
 20
64.5384263853
 10
-54.9761987626
 20
64.5497050833
 10
-54.9662628813
 20
64.5608288436
 10
-54.9562451228
 20
64.5717924171
 10
-54.9461503074
 20
64.58259063
 10
-54.9359830084
 20
64.593218203
 10
-54.9257481203
 20
64.6036701237
 10
-54.9154505682
 20
64.613941463
 10
-54.9050950205
 20
64.624027191
 10
-54.8946864622
 20
64.6339225537
 10
-54.8842299023
 20
64.6436228875
 10
-54.8737300838
 20
64.6531234327
 10
-54.8631920611
 20
64.6624197141
 10
-54.8526209059
 20
64.671507353
 10
-54.842021415
 20
64.6803818801
 10
-54.8313985932
 20
64.6890390538
 10
-54.8207576507
 20
64.697474863
 10
-54.8101037095
 20
64.7056853383
  0
LINE
  5
252
100
AcDbEntity
  8
RACCORDO
100
AcDbLine
 62
250
  6
CONTINUOUS
 10
-55.6573998182
 20
8.2752707549
 11
-55.6639781074
 21
8.2103229212
  0
LINE
  5
253
100
AcDbEntity
  8
RACCORDO
100
AcDbLine
 62
250
  6
CONTINUOUS
 10
-55.6639781074
 20
8.2103229212
 11
-55.6703560912
 21
8.1507835651
  0
LINE
  5
254
100
AcDbEntity
  8
RACCORDO
100
AcDbLine
 62
250
  6
CONTINUOUS
 10
-55.6703560912
 20
8.1507835651
 11
-55.6765443214
 21
8.0961609346
  0
LINE
  5
255
100
AcDbEntity
  8
RACCORDO
100
AcDbLine
 62
250
  6
CONTINUOUS
 10
-55.6765443214
 20
8.0961609346
 11
-55.6825385232
 21
8.0461296906
  0
LINE
  5
256
100
AcDbEntity
  8
RACCORDO
100
AcDbLine
 62
250
  6
CONTINUOUS
 10
-55.6825385232
 20
8.0461296906
 11
-55.6864268731
 21
8.0151619483
  0
LINE
  5
257
100
AcDbEntity
  8
RACCORDO
100
AcDbLine
 62
250
  6
CONTINUOUS
 10
-55.6864268731
 20
8.0151619483
 11
-55.6902369468
 21
7.985922928
  0
LINE
  5
258
100
AcDbEntity
  8
RACCORDO
100
AcDbLine
 62
250
  6
CONTINUOUS
 10
-55.6902369468
 20
7.985922928
 11
-55.6939683357
 21
7.9583205572
  0
LINE
  5
259
100
AcDbEntity
  8
RACCORDO
100
AcDbLine
 62
250
  6
CONTINUOUS
 10
-55.6939683357
 20
7.9583205572
 11
-55.6976211538
 21
7.9322948138
  0
LINE
  5
25A
100
AcDbEntity
  8
RACCORDO
100
AcDbLine
 62
250
  6
CONTINUOUS
 10
-55.6976211538
 20
7.9322948138
 11
-55.701192061
 21
7.9077767139
  0
LINE
  5
25B
100
AcDbEntity
  8
RACCORDO
100
AcDbLine
 62
250
  6
CONTINUOUS
 10
-55.701192061
 20
7.9077767139
 11
-55.704680186
 21
7.8846839393
  0
LINE
  5
25C
100
AcDbEntity
  8
RACCORDO
100
AcDbLine
 62
250
  6
CONTINUOUS
 10
-55.704680186
 20
7.8846839393
 11
-55.7080871386
 21
7.862953926
  0
LINE
  5
25D
100
AcDbEntity
  8
RACCORDO
100
AcDbLine
 62
250
  6
CONTINUOUS
 10
-55.7080871386
 20
7.862953926
 11
-55.7114157678
 21
7.8424854733
  0
LINE
  5
25E
100
AcDbEntity
  8
RACCORDO
100
AcDbLine
 62
250
  6
CONTINUOUS
 10
-55.7114157678
 20
7.8424854733
 11
-55.7146721498
 21
7.8231724883
  0
LINE
  5
25F
100
AcDbEntity
  8
RACCORDO
100
AcDbLine
 62
250
  6
CONTINUOUS
 10
-55.7146721498
 20
7.8231724883
 11
-55.7178611612
 21
7.8049455564
  0
LINE
  5
260
100
AcDbEntity
  8
RACCORDO
100
AcDbLine
 62
250
  6
CONTINUOUS
 10
-55.7178611612
 20
7.8049455564
 11
-55.7209915393
 21
7.7876942566
  0
LWPOLYLINE
  5
261
100
AcDbEntity
  8
RACCORDO
100
AcDbPolyline
 62
250
  6
CONTINUOUS
 90
48
 70
0
 10
-54.4578293271
 20
19.7352900633
 10
-54.4842088341
 20
19.5961184333
 10
-54.5103436565
 20
19.4570596793
 10
-54.5362338896
 20
19.3181132795
 10
-54.561879438
 20
19.1792797556
 10
-54.5872800159
 20
19.0405606729
 10
-54.6124356205
 20
18.9019560326
 10
-54.6373462545
 20
18.7634658334
 10
-54.6620116404
 20
18.625091637
 10
-54.6864317753
 20
18.4868334446
 10
-54.7106066619
 20
18.3486912549
 10
-54.7345360309
 20
18.2106666262
 10
-54.7582198795
 20
18.0727595596
 10
-54.7816582104
 20
17.934970054
 10
-54.8048507624
 20
17.797299664
 10
-54.8277975327
 20
17.659748391
 10
-54.8504985242
 20
17.5223162338
 10
-54.8729534839
 20
17.3850047428
 10
-54.8951624093
 20
17.2478139181
 10
-54.917125303
 20
17.1107437596
 10
-54.9388419198
 20
16.9737958177
 10
-54.9603122565
 20
16.8369700974
 10
-54.9815363163
 20
16.7002665936
 10
-55.0025138642
 20
16.5636868418
 10
-55.0232448971
 20
16.4272308466
 10
-55.0437294181
 20
16.2908986034
 10
-55.0639672016
 20
16.1546916344
 10
-55.0839582452
 20
16.0186099397
 10
-55.1037025513
 20
15.8826535192
 10
-55.123199902
 20
15.746823895
 10
-55.1424502951
 20
15.6111210635
 10
-55.1614537327
 20
15.4755450284
 10
-55.1802100029
 20
15.3400973223
 10
-55.1987191019
 20
15.2047779535
 10
-55.2169810336
 20
15.0695869138
 10
-55.2349955971
 20
14.934525711
 10
-55.252762792
 20
14.7995943272
 10
-55.2702826187
 20
14.6647927803
 10
-55.2875548772
 20
14.5301226315
 10
-55.3045795582
 20
14.3955839372
 10
-55.321356671
 20
14.2611766408
 10
-55.3378860445
 20
14.1269021345
 10
-55.3541676938
 20
13.9927602652
 10
-55.3702016037
 20
13.8587511858
 10
-55.3859875569
 20
13.7248767474
 10
-55.4015254808
 20
13.5911375669
 10
-55.4168154479
 20
13.4575330273
 10
-55.4318574583
 20
13.3240631287
  0
LINE
  5
262
100
AcDbEntity
  8
RACCORDO
100
AcDbLine
 62
250
  6
CONTINUOUS
 10
-55.7209915393
 20
7.7876942566
 11
-55.7240620952
 21
7.77137494
  0
LWPOLYLINE
  5
263
100
AcDbEntity
  8
RACCORDO
100
AcDbPolyline
 62
250
  6
CONTINUOUS
 90
48
 70
0
 10
-53.4696382845
 20
19.752124656
 10
-53.4960637622
 20
19.6139208736
 10
-53.5222465416
 20
19.4758280054
 10
-53.548186529
 20
19.3378465727
 10
-53.5738836345
 20
19.1999770978
 10
-53.5993377637
 20
19.0622200995
 10
-53.6245488179
 20
18.9245760927
 10
-53.6495167068
 20
18.787045597
 10
-53.6742413415
 20
18.6496291311
 10
-53.6987226263
 20
18.5123272082
 10
-53.7229604737
 20
18.3751403462
 10
-53.7469547975
 20
18.2380690628
 10
-53.7707055046
 20
18.1011138705
 10
-53.7942125103
 20
17.9642752856
 10
-53.817475731
 20
17.8275538245
 10
-53.8404950766
 20
17.6909499991
 10
-53.863270465
 20
17.5544643246
 10
-53.8858018152
 20
17.4180973157
 10
-53.9080890401
 20
17.2818494829
 10
-53.9301320605
 20
17.1457213387
 10
-53.9519307978
 20
17.0097133978
 10
-53.9734851672
 20
16.8738261731
 10
-53.9947950917
 20
16.7380601806
 10
-54.0158604959
 20
16.6024159286
 10
-54.0366812999
 20
16.4668939183
 10
-54.057257429
 20
16.3314946636
 10
-54.0775888108
 20
16.196218672
 10
-54.0976753693
 20
16.0610664342
 10
-54.1175170332
 20
15.9260384583
 10
-54.137113732
 20
15.7911352548
 10
-54.156465392
 20
15.6563573172
 10
-54.1755719449
 20
15.5217051484
 10
-54.1944333223
 20
15.3871792611
 10
-54.2130494513
 20
15.2527801624
 10
-54.2314202648
 20
15.1185083654
 10
-54.2495456987
 20
14.9843643695
 10
-54.2674256857
 20
14.8503486599
 10
-54.2850601649
 20
14.7164617225
 10
-54.3024490711
 20
14.5827040811
 10
-54.3195923326
 20
14.4490762769
 10
-54.336489882
 20
14.315578868
 10
-54.3531416666
 20
14.1822123024
 10
-54.3695476381
 20
14.0489769565
 10
-54.3857077564
 20
13.9158731788
 10
-54.4016219449
 20
13.7829016249
 10
-54.4172901031
 20
13.6500631302
 10
-54.4327121625
 20
13.5173583056
 10
-54.4478880847
 20
13.3847875385
  0
LINE
  5
264
100
AcDbEntity
  8
RACCORDO
100
AcDbLine
 62
250
  6
CONTINUOUS
 10
-55.7240620952
 20
7.77137494
 11
-55.7270708958
 21
7.7559644605
  0
LWPOLYLINE
  5
265
100
AcDbEntity
  8
RACCORDO
100
AcDbPolyline
 62
250
  6
CONTINUOUS
 90
4
 70
0
 10
-54.4274428716
 20
19.8934968285
 10
-54.4287269411
 20
19.8871832472
 10
-54.4299810291
 20
19.8808758274
 10
-54.4578293271
 20
19.7352900633
  0
LINE
  5
266
100
AcDbEntity
  8
RACCORDO
100
AcDbLine
 62
250
  6
CONTINUOUS
 10
-55.7270708958
 20
7.7559644605
 11
-55.7300089011
 21
7.7414575283
  0
LWPOLYLINE
  5
267
100
AcDbEntity
  8
RACCORDO
100
AcDbPolyline
 62
250
  6
CONTINUOUS
 90
70
 70
0
 10
-53.4326114812
 20
21.2184002914
 10
-53.4347525213
 20
21.2080200332
 10
-53.436640696
 20
21.1975141732
 10
-53.4382749531
 20
21.1868885667
 10
-53.4396543818
 20
21.1761491358
 10
-53.4407782132
 20
21.1653018661
 10
-53.4416458209
 20
21.154352803
 10
-53.4422567215
 20
21.1433080489
 10
-53.4426105744
 20
21.1321737595
 10
-53.4427071825
 20
21.1209561403
 10
-53.4425464918
 20
21.1096614433
 10
-53.442128592
 20
21.0982959635
 10
-53.4414537159
 20
21.0868660353
 10
-53.4405222398
 20
21.075378029
 10
-53.4393346826
 20
21.0638383474
 10
-53.4378917064
 20
21.0522534218
 10
-53.4361941153
 20
21.0406297091
 10
-53.4342428555
 20
21.0289736876
 10
-53.4320390144
 20
21.0172918535
 10
-53.4295838204
 20
21.0055907177
 10
-53.4268786418
 20
20.9938768016
 10
-53.4239249864
 20
20.9821566338
 10
-53.4207245002
 20
20.9704367464
 10
-53.4172789671
 20
20.9587236713
 10
-53.4135903074
 20
20.9470239367
 10
-53.4096605769
 20
20.9353440633
 10
-53.4054919658
 20
20.9236905607
 10
-53.4010867975
 20
20.9120699239
 10
-53.396447527
 20
20.9004886294
 10
-53.39157674
 20
20.888953132
 10
-53.3864771513
 20
20.8774698607
 10
-53.381151603
 20
20.8660452158
 10
-53.3756030631
 20
20.8546855645
 10
-53.3698346242
 20
20.8433972381
 10
-53.3638495012
 20
20.8321865279
 10
-53.3576510299
 20
20.8210596821
 10
-53.3512426648
 20
20.810022902
 10
-53.3446279776
 20
20.799082339
 10
-53.3378106549
 20
20.7882440906
 10
-53.3307944963
 20
20.7775141973
 10
-53.3235834121
 20
20.7668986393
 10
-53.3161814214
 20
20.7564033331
 10
-53.3085926495
 20
20.7460341282
 10
-53.3008213259
 20
20.7357968035
 10
-53.292871782
 20
20.7256970649
 10
-53.2847484483
 20
20.7157405413
 10
-53.2764558521
 20
20.7059327817
 10
-53.2679986154
 20
20.6962792525
 10
-53.2593814516
 20
20.6867853339
 10
-53.2506091634
 20
20.6774563172
 10
-53.24168664
 20
20.6682974019
 10
-53.2326188541
 20
20.6593136925
 10
-53.2234108596
 20
20.6505101961
 10
-53.2140677885
 20
20.6418918191
 10
-53.2045948481
 20
20.6334633648
 10
-53.1949973178
 20
20.6252295308
 10
-53.1852805469
 20
20.6171949061
 10
-53.1754499508
 20
20.6093639687
 10
-53.1655110085
 20
20.6017410831
 10
-53.1554692593
 20
20.5943304978
 10
-53.1453302999
 20
20.5871363429
 10
-53.135099781
 20
20.5801626282
 10
-53.1247834047
 20
20.5734132401
 10
-53.1143869205
 20
20.5668919406
 10
-53.1039161228
 20
20.5606023641
 10
-53.0933768474
 20
20.554548016
 10
-53.0827749682
 20
20.5487322707
 10
-53.072116394
 20
20.5431583694
 10
-53.0614070653
 20
20.5378294188
 10
-53.0506529508
 20
20.5327483889
  0
LINE
  5
268
100
AcDbEntity
  8
RACCORDO
100
AcDbLine
 62
250
  6
CONTINUOUS
 10
-55.7300089011
 20
7.7414575283
 11
-55.7328760756
 21
7.7278015572
  0
LINE
  5
269
100
AcDbEntity
  8
RACCORDO
100
AcDbLine
 62
250
  6
CONTINUOUS
 10
-54.424784571
 20
19.9061429546
 11
-54.4274428716
 21
19.8934968285
  0
LINE
  5
26A
100
AcDbEntity
  8
RACCORDO
100
AcDbLine
 62
250
  6
CONTINUOUS
 10
-55.7328760756
 20
7.7278015572
 11
-55.7356740316
 21
7.714958042
  0
LINE
  5
26B
100
AcDbEntity
  8
RACCORDO
100
AcDbLine
 62
250
  6
CONTINUOUS
 10
-54.4220073298
 20
19.9188115166
 11
-54.424784571
 21
19.9061429546
  0
LINE
  5
26C
100
AcDbEntity
  8
RACCORDO
100
AcDbLine
 62
250
  6
CONTINUOUS
 10
-55.7356740316
 20
7.714958042
 11
-55.7384068769
 21
7.7028595773
  0
LINE
  5
26D
100
AcDbEntity
  8
RACCORDO
100
AcDbLine
 62
250
  6
CONTINUOUS
 10
-54.4191117682
 20
19.9315012504
 11
-54.4220073298
 21
19.9188115166
  0
LINE
  5
26E
100
AcDbEntity
  8
RACCORDO
100
AcDbLine
 62
250
  6
CONTINUOUS
 10
-54.4160987505
 20
19.9442106095
 11
-54.4191117682
 21
19.9315012504
  0
LWPOLYLINE
  5
26F
100
AcDbEntity
  8
RACCORDO
100
AcDbPolyline
 62
250
  6
CONTINUOUS
 90
11
 70
0
 10
-53.4625855317
 20
19.7835915282
 10
-53.4633614115
 20
19.7804348707
 10
-53.4641219456
 20
19.7772802404
 10
-53.464867058
 20
19.774127753
 10
-53.465596516
 20
19.7709773525
 10
-53.4663102496
 20
19.7678291377
 10
-53.4670081736
 20
19.7646832639
 10
-53.4676900332
 20
19.7615397603
 10
-53.4683556925
 20
19.7583987221
 10
-53.4690051349
 20
19.755260311
 10
-53.4696382846
 20
19.7521246561
  0
LINE
  5
270
100
AcDbEntity
  8
RACCORDO
100
AcDbLine
 62
250
  6
CONTINUOUS
 10
-54.4129692245
 20
19.9569377494
 11
-54.4160987505
 21
19.9442106095
  0
LINE
  5
271
100
AcDbEntity
  8
RACCORDO
100
AcDbLine
 62
250
  6
CONTINUOUS
 10
-53.4609882056
 20
19.7899105521
 11
-53.4625855317
 21
19.7835915282
  0
LINE
  5
272
100
AcDbEntity
  8
RACCORDO
100
AcDbLine
 62
250
  6
CONTINUOUS
 10
-54.4097238151
 20
19.9696814882
 11
-54.4129692245
 21
19.9569377494
  0
LINE
  5
273
100
AcDbEntity
  8
RACCORDO
100
AcDbLine
 62
250
  6
CONTINUOUS
 10
-53.4593310651
 20
19.7962367688
 11
-53.4609882056
 21
19.7899105521
  0
LINE
  5
274
100
AcDbEntity
  8
RACCORDO
100
AcDbLine
 62
250
  6
CONTINUOUS
 10
-54.4063634564
 20
19.9824400931
 11
-54.4097238151
 21
19.9696814882
  0
LINE
  5
275
100
AcDbEntity
  8
RACCORDO
100
AcDbLine
 62
250
  6
CONTINUOUS
 10
-53.457615182
 20
19.8025696918
 11
-53.4593310651
 21
19.7962367688
  0
LINE
  5
276
100
AcDbEntity
  8
RACCORDO
100
AcDbLine
 62
250
  6
CONTINUOUS
 10
-54.4028891101
 20
19.9952117954
 11
-54.4063634564
 21
19.9824400931
  0
LINE
  5
277
100
AcDbEntity
  8
RACCORDO
100
AcDbLine
 62
250
  6
CONTINUOUS
 10
-53.4558414766
 20
19.8089086714
 11
-53.457615182
 21
19.8025696918
  0
LINE
  5
278
100
AcDbEntity
  8
RACCORDO
100
AcDbLine
 62
250
  6
CONTINUOUS
 10
-54.39930142
 20
20.0079954215
 11
-54.4028891101
 21
19.9952117954
  0
LINE
  5
279
100
AcDbEntity
  8
RACCORDO
100
AcDbLine
 62
250
  6
CONTINUOUS
 10
-53.4540110165
 20
19.8152532191
 11
-53.4558414766
 21
19.8089086714
  0
LINE
  5
27A
100
AcDbEntity
  8
RACCORDO
100
AcDbLine
 62
250
  6
CONTINUOUS
 10
-54.3956013569
 20
20.020789215
 11
-54.39930142
 21
20.0079954215
  0
LINE
  5
27B
100
AcDbEntity
  8
RACCORDO
100
AcDbLine
 62
250
  6
CONTINUOUS
 10
-53.4521248547
 20
19.8216028565
 11
-53.4540110165
 21
19.8152532191
  0
LINE
  5
27C
100
AcDbEntity
  8
RACCORDO
100
AcDbLine
 62
250
  6
CONTINUOUS
 10
-54.3917899121
 20
20.0335914154
 11
-54.3956013569
 21
20.020789215
  0
LINE
  5
27D
100
AcDbEntity
  8
RACCORDO
100
AcDbLine
 62
250
  6
CONTINUOUS
 10
-53.4501838973
 20
19.827956956
 11
-53.4521248547
 21
19.8216028565
  0
LINE
  5
27E
100
AcDbEntity
  8
RACCORDO
100
AcDbLine
 62
250
  6
CONTINUOUS
 10
-54.3878677503
 20
20.0464008492
 11
-54.3917899121
 21
20.0335914154
  0
LINE
  5
27F
100
AcDbEntity
  8
RACCORDO
100
AcDbLine
 62
250
  6
CONTINUOUS
 10
-53.4481891883
 20
19.8343150534
 11
-53.4501838973
 21
19.827956956
  0
LINE
  5
280
100
AcDbEntity
  8
RACCORDO
100
AcDbLine
 62
250
  6
CONTINUOUS
 10
-54.383835875
 20
20.0592157568
 11
-54.3878677503
 21
20.0464008492
  0
LINE
  5
281
100
AcDbEntity
  8
RACCORDO
100
AcDbLine
 62
250
  6
CONTINUOUS
 10
-53.4461417591
 20
19.8406766882
 11
-53.4481891883
 21
19.8343150534
  0
LINE
  5
282
100
AcDbEntity
  8
RACCORDO
100
AcDbLine
 62
250
  6
CONTINUOUS
 10
-54.3796953094
 20
20.0720343779
 11
-54.383835875
 21
20.0592157568
  0
LINE
  5
283
100
AcDbEntity
  8
RACCORDO
100
AcDbLine
 62
250
  6
CONTINUOUS
 10
-53.4440425005
 20
19.8470412558
 11
-53.4461417591
 21
19.8406766882
  0
LINE
  5
284
100
AcDbEntity
  8
RACCORDO
100
AcDbLine
 62
250
  6
CONTINUOUS
 10
-54.37544674
 20
20.0848555389
 11
-54.3796953094
 21
20.0720343779
  0
LINE
  5
285
100
AcDbEntity
  8
RACCORDO
100
AcDbLine
 62
250
  6
CONTINUOUS
 10
-53.441892434
 20
19.8534083112
 11
-53.4440425005
 21
19.8470412558
  0
LINE
  5
286
100
AcDbEntity
  8
RACCORDO
100
AcDbLine
 62
250
  6
CONTINUOUS
 10
-54.3710912027
 20
20.0976774799
 11
-54.37544674
 21
20.0848555389
  0
LINE
  5
287
100
AcDbEntity
  8
RACCORDO
100
AcDbLine
 62
250
  6
CONTINUOUS
 10
-53.4396925688
 20
19.8597774125
 11
-53.441892434
 21
19.8534083112
  0
LINE
  5
288
100
AcDbEntity
  8
RACCORDO
100
AcDbLine
 62
250
  6
CONTINUOUS
 10
-54.3666297533
 20
20.1104984417
 11
-54.3710912027
 21
20.0976774799
  0
LINE
  5
289
100
AcDbEntity
  8
RACCORDO
100
AcDbLine
 62
250
  6
CONTINUOUS
 10
-53.4374437801
 20
19.866147977
 11
-53.4396925688
 21
19.8597774125
  0
LINE
  5
28A
100
AcDbEntity
  8
RACCORDO
100
AcDbLine
 62
250
  6
CONTINUOUS
 10
-54.3620630996
 20
20.1233172519
 11
-54.3666297533
 21
20.1104984417
  0
LINE
  5
28B
100
AcDbEntity
  8
RACCORDO
100
AcDbLine
 62
250
  6
CONTINUOUS
 10
-53.4351470668
 20
19.8725195781
 11
-53.4374437801
 21
19.866147977
  0
LINE
  5
28C
100
AcDbEntity
  8
RACCORDO
100
AcDbLine
 62
250
  6
CONTINUOUS
 10
-54.3573923099
 20
20.136132153
 11
-54.3620630996
 21
20.1233172519
  0
LINE
  5
28D
100
AcDbEntity
  8
RACCORDO
100
AcDbLine
 62
250
  6
CONTINUOUS
 10
-53.4328034157
 20
19.8788917924
 11
-53.4351470668
 21
19.8725195781
  0
LINE
  5
28E
100
AcDbEntity
  8
RACCORDO
100
AcDbLine
 62
250
  6
CONTINUOUS
 10
-54.352618472
 20
20.1489413893
 11
-54.3573923099
 21
20.136132153
  0
LINE
  5
28F
100
AcDbEntity
  8
RACCORDO
100
AcDbLine
 62
250
  6
CONTINUOUS
 10
-53.4304136859
 20
19.8852640589
 11
-53.4328034157
 21
19.8788917924
  0
LINE
  5
290
100
AcDbEntity
  8
RACCORDO
100
AcDbLine
 62
250
  6
CONTINUOUS
 10
-54.3477423151
 20
20.1617437922
 11
-54.352618472
 21
20.1489413893
  0
LINE
  5
291
100
AcDbEntity
  8
RACCORDO
100
AcDbLine
 62
250
  6
CONTINUOUS
 10
-53.4279788538
 20
19.8916359689
 11
-53.4304136859
 21
19.8852640589
  0
LINE
  5
292
100
AcDbEntity
  8
RACCORDO
100
AcDbLine
 62
250
  6
CONTINUOUS
 10
-53.4254998826
 20
19.8980071188
 11
-53.4279788538
 21
19.8916359689
  0
LINE
  5
293
100
AcDbEntity
  8
RACCORDO
100
AcDbLine
 62
250
  6
CONTINUOUS
 10
-54.3427649369
 20
20.1745376146
 11
-54.3477423151
 21
20.1617437922
  0
LINE
  5
294
100
AcDbEntity
  8
RACCORDO
100
AcDbLine
 62
250
  6
CONTINUOUS
 10
-53.422977616
 20
19.9043769669
 11
-53.4254998826
 21
19.8980071188
  0
LINE
  5
295
100
AcDbEntity
  8
RACCORDO
100
AcDbLine
 62
250
  6
CONTINUOUS
 10
-54.3376874635
 20
20.1873210906
 11
-54.3427649369
 21
20.1745376146
  0
LINE
  5
296
100
AcDbEntity
  8
RACCORDO
100
AcDbLine
 62
250
  6
CONTINUOUS
 10
-53.42041301
 20
19.9107451154
 11
-53.422977616
 21
19.9043769669
  0
LINE
  5
297
100
AcDbEntity
  8
RACCORDO
100
AcDbLine
 62
250
  6
CONTINUOUS
 10
-54.3325106515
 20
20.2000930406
 11
-54.3376874635
 21
20.1873210906
  0
LINE
  5
298
100
AcDbEntity
  8
RACCORDO
100
AcDbLine
 62
250
  6
CONTINUOUS
 10
-53.4178070137
 20
19.91711116
 11
-53.42041301
 21
19.9107451154
  0
LINE
  5
299
100
AcDbEntity
  8
RACCORDO
100
AcDbLine
 62
250
  6
CONTINUOUS
 10
-54.3272356457
 20
20.2128516868
 11
-54.3325106515
 21
20.2000930406
  0
LINE
  5
29A
100
AcDbEntity
  8
RACCORDO
100
AcDbLine
 62
250
  6
CONTINUOUS
 10
-53.4151604581
 20
19.9234745728
 11
-53.4178070137
 21
19.91711116
  0
LINE
  5
29B
100
AcDbEntity
  8
RACCORDO
100
AcDbLine
 62
250
  6
CONTINUOUS
 10
-54.321863608
 20
20.2255952642
 11
-54.3272356457
 21
20.2128516868
  0
LINE
  5
29C
100
AcDbEntity
  8
RACCORDO
100
AcDbLine
 62
250
  6
CONTINUOUS
 10
-53.4124742806
 20
19.929834968
 11
-53.4151604581
 21
19.9234745728
  0
LINE
  5
29D
100
AcDbEntity
  8
RACCORDO
100
AcDbLine
 62
250
  6
CONTINUOUS
 10
-53.4097494087
 20
19.9361919607
 11
-53.4124742806
 21
19.929834968
  0
LINE
  5
29E
100
AcDbEntity
  8
RACCORDO
100
AcDbLine
 62
250
  6
CONTINUOUS
 10
-54.3163953181
 20
20.2383225959
 11
-54.321863608
 21
20.2255952642
  0
LINE
  5
29F
100
AcDbEntity
  8
RACCORDO
100
AcDbLine
 62
250
  6
CONTINUOUS
 10
-53.4069866585
 20
19.9425450422
 11
-53.4097494087
 21
19.9361919607
  0
LINE
  5
2A0
100
AcDbEntity
  8
RACCORDO
100
AcDbLine
 62
250
  6
CONTINUOUS
 10
-54.310831952
 20
20.2510319171
 11
-54.3163953181
 21
20.2383225959
  0
LINE
  5
2A1
100
AcDbEntity
  8
RACCORDO
100
AcDbLine
 62
250
  6
CONTINUOUS
 10
-53.4041869484
 20
19.9488938403
 11
-53.4069866585
 21
19.9425450422
  0
LINE
  5
2A2
100
AcDbEntity
  8
RACCORDO
100
AcDbLine
 62
250
  6
CONTINUOUS
 10
-54.3051747074
 20
20.2637214656
 11
-54.310831952
 21
20.2510319171
  0
LINE
  5
2A3
100
AcDbEntity
  8
RACCORDO
100
AcDbLine
 62
250
  6
CONTINUOUS
 10
-53.4013511865
 20
19.9552379835
 11
-53.4041869484
 21
19.9488938403
  0
LINE
  5
2A4
100
AcDbEntity
  8
RACCORDO
100
AcDbLine
 62
250
  6
CONTINUOUS
 10
-53.3984801747
 20
19.9615769816
 11
-53.4013511865
 21
19.9552379835
  0
LINE
  5
2A5
100
AcDbEntity
  8
RACCORDO
100
AcDbLine
 62
250
  6
CONTINUOUS
 10
-54.2994243871
 20
20.276390068
 11
-54.3051747074
 21
20.2637214656
  0
LINE
  5
2A6
100
AcDbEntity
  8
RACCORDO
100
AcDbLine
 62
250
  6
CONTINUOUS
 10
-53.3955748119
 20
19.9679104761
 11
-53.3984801747
 21
19.9615769816
  0
LINE
  5
2A7
100
AcDbEntity
  8
RACCORDO
100
AcDbLine
 62
250
  6
CONTINUOUS
 10
-54.2935822021
 20
20.2890359649
 11
-54.2994243871
 21
20.276390068
  0
LINE
  5
2A8
100
AcDbEntity
  8
RACCORDO
100
AcDbLine
 62
250
  6
CONTINUOUS
 10
-53.3926359858
 20
19.9742381123
 11
-53.3955748119
 21
19.9679104761
  0
LINE
  5
2A9
100
AcDbEntity
  8
RACCORDO
100
AcDbLine
 62
250
  6
CONTINUOUS
 10
-53.3896644834
 20
19.9805594184
 11
-53.3926359858
 21
19.9742381123
  0
LINE
  5
2AA
100
AcDbEntity
  8
RACCORDO
100
AcDbLine
 62
250
  6
CONTINUOUS
 10
-54.2876493837
 20
20.3016574033
 11
-54.2935822021
 21
20.2890359649
  0
LINE
  5
2AB
100
AcDbEntity
  8
RACCORDO
100
AcDbLine
 62
250
  6
CONTINUOUS
 10
-53.386661184
 20
19.9868740505
 11
-53.3896644834
 21
19.9805594184
  0
LINE
  5
2AC
100
AcDbEntity
  8
RACCORDO
100
AcDbLine
 62
250
  6
CONTINUOUS
 10
-54.2816267566
 20
20.3142532173
 11
-54.2876493837
 21
20.3016574033
  0
LINE
  5
2AD
100
AcDbEntity
  8
RACCORDO
100
AcDbLine
 62
250
  6
CONTINUOUS
 10
-53.3836269583
 20
19.9931816629
 11
-53.386661184
 21
19.9868740505
  0
LINE
  5
2AE
100
AcDbEntity
  8
RACCORDO
100
AcDbLine
 62
250
  6
CONTINUOUS
 10
-54.2755155629
 20
20.3268216624
 11
-54.2816267566
 21
20.3142532173
  0
LINE
  5
2AF
100
AcDbEntity
  8
RACCORDO
100
AcDbLine
 62
250
  6
CONTINUOUS
 10
-53.3790193704
 20
20.0026289813
 11
-53.3836269583
 21
19.9931816629
  0
LINE
  5
2B0
100
AcDbEntity
  8
RACCORDO
100
AcDbLine
 62
250
  6
CONTINUOUS
 10
-54.2693170668
 20
20.3393609976
 11
-54.2755155629
 21
20.3268216624
  0
LINE
  5
2B1
100
AcDbEntity
  8
RACCORDO
100
AcDbLine
 62
250
  6
CONTINUOUS
 10
-53.3743468026
 20
20.0120583124
 11
-53.3790193704
 21
20.0026289813
  0
LINE
  5
2B2
100
AcDbEntity
  8
RACCORDO
100
AcDbLine
 62
250
  6
CONTINUOUS
 10
-54.2630321157
 20
20.3518700627
 11
-54.2693170668
 21
20.3393609976
  0
LINE
  5
2B3
100
AcDbEntity
  8
RACCORDO
100
AcDbLine
 62
250
  6
CONTINUOUS
 10
-53.3696120206
 20
20.0214684262
 11
-53.3743468026
 21
20.0120583124
  0
LINE
  5
2B4
100
AcDbEntity
  8
RACCORDO
100
AcDbLine
 62
250
  6
CONTINUOUS
 10
-54.2566619889
 20
20.3643471172
 11
-54.2630321157
 21
20.3518700627
  0
LINE
  5
2B5
100
AcDbEntity
  8
RACCORDO
100
AcDbLine
 62
250
  6
CONTINUOUS
 10
-53.3648177594
 20
20.0308581195
 11
-53.3696120206
 21
20.0214684262
  0
LINE
  5
2B6
100
AcDbEntity
  8
RACCORDO
100
AcDbLine
 62
250
  6
CONTINUOUS
 10
-53.3599667281
 20
20.0402262073
 11
-53.3648177594
 21
20.0308581195
  0
LINE
  5
2B7
100
AcDbEntity
  8
RACCORDO
100
AcDbLine
 62
250
  6
CONTINUOUS
 10
-54.2502079847
 20
20.3767904303
 11
-54.2566619889
 21
20.3643471172
  0
LINE
  5
2B8
100
AcDbEntity
  8
RACCORDO
100
AcDbLine
 62
250
  6
CONTINUOUS
 10
-53.3550616195
 20
20.0495715058
 11
-53.3599667281
 21
20.0402262073
  0
LINE
  5
2B9
100
AcDbEntity
  8
RACCORDO
100
AcDbLine
 62
250
  6
CONTINUOUS
 10
-54.2436709728
 20
20.3891988506
 11
-54.2502079847
 21
20.3767904303
  0
LINE
  5
2BA
100
AcDbEntity
  8
RACCORDO
100
AcDbLine
 62
250
  6
CONTINUOUS
 10
-53.350105103
 20
20.0588928494
 11
-53.3550616195
 21
20.0495715058
  0
LINE
  5
2BB
100
AcDbEntity
  8
RACCORDO
100
AcDbLine
 62
250
  6
CONTINUOUS
 10
-54.2370522637
 20
20.4015706539
 11
-54.2436709728
 21
20.3891988506
  0
LINE
  5
2BC
100
AcDbEntity
  8
RACCORDO
100
AcDbLine
 62
250
  6
CONTINUOUS
 10
-53.3450998163
 20
20.0681891045
 11
-53.350105103
 21
20.0588928494
  0
LINE
  5
2BD
100
AcDbEntity
  8
RACCORDO
100
AcDbLine
 62
250
  6
CONTINUOUS
 10
-54.2303531859
 20
20.4139041288
 11
-54.2370522637
 21
20.4015706539
  0
LINE
  5
2BE
100
AcDbEntity
  8
RACCORDO
100
AcDbLine
 62
250
  6
CONTINUOUS
 10
-53.3400483704
 20
20.0774591597
 11
-53.3450998163
 21
20.0681891045
  0
LINE
  5
2BF
100
AcDbEntity
  8
RACCORDO
100
AcDbLine
 62
250
  6
CONTINUOUS
 10
-54.2235746289
 20
20.4261981374
 11
-54.2303531859
 21
20.4139041288
  0
LINE
  5
2C0
100
AcDbEntity
  8
RACCORDO
100
AcDbLine
 62
250
  6
CONTINUOUS
 10
-53.3349533489
 20
20.0867019277
 11
-53.3400483704
 21
20.0774591597
  0
LINE
  5
2C1
100
AcDbEntity
  8
RACCORDO
100
AcDbLine
 62
250
  6
CONTINUOUS
 10
-53.329817306
 20
20.0959163468
 11
-53.3349533489
 21
20.0867019277
  0
LINE
  5
2C2
100
AcDbEntity
  8
RACCORDO
100
AcDbLine
 62
250
  6
CONTINUOUS
 10
-54.21671793
 20
20.4384509806
 11
-54.2235746289
 21
20.4261981374
  0
LINE
  5
2C3
100
AcDbEntity
  8
RACCORDO
100
AcDbLine
 62
250
  6
CONTINUOUS
 10
-53.3246427699
 20
20.1051013752
 11
-53.329817306
 21
20.0959163468
  0
LINE
  5
2C4
100
AcDbEntity
  8
RACCORDO
100
AcDbLine
 62
250
  6
CONTINUOUS
 10
-54.2097844564
 20
20.4506609514
 11
-54.21671793
 21
20.4384509806
  0
LINE
  5
2C5
100
AcDbEntity
  8
RACCORDO
100
AcDbLine
 62
250
  6
CONTINUOUS
 10
-53.3176878379
 20
20.1173005414
 11
-53.3246427699
 21
20.1051013752
  0
LINE
  5
2C6
100
AcDbEntity
  8
RACCORDO
100
AcDbLine
 62
250
  6
CONTINUOUS
 10
-54.2027751242
 20
20.4628269138
 11
-54.2097844564
 21
20.4506609514
  0
LINE
  5
2C7
100
AcDbEntity
  8
RACCORDO
100
AcDbLine
 62
250
  6
CONTINUOUS
 10
-53.3106748642
 20
20.1294432082
 11
-53.3176878379
 21
20.1173005414
  0
LINE
  5
2C8
100
AcDbEntity
  8
RACCORDO
100
AcDbLine
 62
250
  6
CONTINUOUS
 10
-54.1956913172
 20
20.4749471607
 11
-54.2027751242
 21
20.4628269138
  0
LINE
  5
2C9
100
AcDbEntity
  8
RACCORDO
100
AcDbLine
 62
250
  6
CONTINUOUS
 10
-53.3036096371
 20
20.1415270015
 11
-53.3106748642
 21
20.1294432082
  0
LINE
  5
2CA
100
AcDbEntity
  8
RACCORDO
100
AcDbLine
 62
250
  6
CONTINUOUS
 10
-53.2964978617
 20
20.1535496208
 11
-53.3036096371
 21
20.1415270015
  0
LINE
  5
2CB
100
AcDbEntity
  8
RACCORDO
100
AcDbLine
 62
250
  6
CONTINUOUS
 10
-54.188534431
 20
20.4870200103
 11
-54.1956913172
 21
20.4749471607
  0
LWPOLYLINE
  5
2CC
100
AcDbEntity
  8
RACCORDO
100
AcDbPolyline
 62
250
  6
CONTINUOUS
 90
3
 70
0
 10
-53.2875513205
 20
20.1684886202
 10
-53.2893452134
 20
20.1655089338
 10
-53.2964978617
 20
20.1535496208
  0
LINE
  5
2CD
100
AcDbEntity
  8
RACCORDO
100
AcDbLine
 62
250
  6
CONTINUOUS
 10
-54.1813054001
 20
20.4990443437
 11
-54.188534431
 21
20.4870200103
  0
LINE
  5
2CE
100
AcDbEntity
  8
RACCORDO
100
AcDbLine
 62
250
  6
CONTINUOUS
 10
-54.174005632
 20
20.5110184874
 11
-54.1813054001
 21
20.4990443437
  0
LINE
  5
2CF
100
AcDbEntity
  8
RACCORDO
100
AcDbLine
 62
250
  6
CONTINUOUS
 10
-54.1666365502
 20
20.5229407851
 11
-54.174005632
 21
20.5110184874
  0
LINE
  5
2D0
100
AcDbEntity
  8
RACCORDO
100
AcDbLine
 62
250
  6
CONTINUOUS
 10
-54.1591991068
 20
20.5348101366
 11
-54.1666365502
 21
20.5229407851
  0
LINE
  5
2D1
100
AcDbEntity
  8
RACCORDO
100
AcDbLine
 62
250
  6
CONTINUOUS
 10
-54.1516947353
 20
20.5466248971
 11
-54.1591991068
 21
20.5348101366
  0
LINE
  5
2D2
100
AcDbEntity
  8
RACCORDO
100
AcDbLine
 62
250
  6
CONTINUOUS
 10
-54.1441248806
 20
20.5583834462
 11
-54.1516947353
 21
20.5466248971
  0
LINE
  5
2D3
100
AcDbEntity
  8
RACCORDO
100
AcDbLine
 62
250
  6
CONTINUOUS
 10
-54.1364905129
 20
20.570084702
 11
-54.1441248806
 21
20.5583834462
  0
LINE
  5
2D4
100
AcDbEntity
  8
RACCORDO
100
AcDbLine
 62
250
  6
CONTINUOUS
 10
-54.1287930952
 20
20.5817270428
 11
-54.1364905129
 21
20.570084702
  0
LINE
  5
2D5
100
AcDbEntity
  8
RACCORDO
100
AcDbLine
 62
250
  6
CONTINUOUS
 10
-54.121034116
 20
20.5933088509
 11
-54.1287930952
 21
20.5817270428
  0
LINE
  5
2D6
100
AcDbEntity
  8
RACCORDO
100
AcDbLine
 62
250
  6
CONTINUOUS
 10
-54.1132145681
 20
20.6048290562
 11
-54.121034116
 21
20.5933088509
  0
LINE
  5
2D7
100
AcDbEntity
  8
RACCORDO
100
AcDbLine
 62
250
  6
CONTINUOUS
 10
-54.1053359438
 20
20.6162860622
 11
-54.1132145681
 21
20.6048290562
  0
LINE
  5
2D8
100
AcDbEntity
  8
RACCORDO
100
AcDbLine
 62
250
  6
CONTINUOUS
 10
-54.0973997478
 20
20.6276782965
 11
-54.1053359438
 21
20.6162860622
  0
LINE
  5
2D9
100
AcDbEntity
  8
RACCORDO
100
AcDbLine
 62
250
  6
CONTINUOUS
 10
-54.0894069855
 20
20.6390047161
 11
-54.0973997478
 21
20.6276782965
  0
LWPOLYLINE
  5
2DA
100
AcDbEntity
  8
RACCORDO
100
AcDbPolyline
 62
250
  6
CONTINUOUS
 90
61
 70
0
 10
-55.8475960036
 20
7.5406308455
 10
-55.9406614704
 20
8.4225470832
 10
-56.0305811463
 20
9.3068226555
 10
-56.1173541294
 20
10.1934483989
 10
-56.2009795787
 20
11.0824151481
 10
-56.2814566264
 20
11.9737136666
 10
-56.3587843788
 20
12.867334647
 10
-56.4329620573
 20
13.7632688249
 10
-56.5039889213
 20
14.6615069132
 10
-56.5718641819
 20
15.5620395327
 10
-56.636587155
 20
16.4648573418
 10
-56.6981571952
 20
17.3699509826
 10
-56.7565736191
 20
18.2773110145
 10
-56.8118358375
 20
19.1869280201
 10
-56.8639433
 20
20.0987925712
 10
-56.9128954291
 20
21.0128951747
 10
-56.9586917306
 20
21.9292263451
 10
-57.0013317488
 20
22.8477765782
 10
-57.040815011
 20
23.768536317
 10
-57.077141118
 20
24.6914960071
 10
-57.110309709
 20
25.6166460708
 10
-57.140320416
 20
26.5439768803
 10
-57.1671729346
 20
27.4734788087
 10
-57.1908669991
 20
28.4051422101
 10
-57.2114023466
 20
29.3389573927
 10
-57.2287787678
 20
30.2749146589
 10
-57.242996092
 20
31.2130042947
 10
-57.2540541614
 20
32.1532165485
 10
-57.2619528618
 20
33.0955416547
 10
-57.2666921174
 20
34.0399698302
 10
-57.2682718757
 20
34.9864912628
 10
-57.2666921174
 20
35.9350961193
 10
-57.2619528618
 20
36.885774549
 10
-57.2540541614
 20
37.8385166792
 10
-57.242996092
 20
38.7933126104
 10
-57.2287787678
 20
39.7501524247
 10
-57.2114023466
 20
40.7090261899
 10
-57.1908669991
 20
41.6699239409
 10
-57.1671729346
 20
42.6328356937
 10
-57.140320416
 20
43.597751455
 10
-57.110309709
 20
44.5646611935
 10
-57.077141118
 20
45.5335548617
 10
-57.040815011
 20
46.5044224097
 10
-57.0013317488
 20
47.4772537399
 10
-56.9586917306
 20
48.4520387432
 10
-56.9128954291
 20
49.4287673203
 10
-56.8639433
 20
50.4074293134
 10
-56.8118358374
 20
51.3880145476
 10
-56.7565736191
 20
52.3705128675
 10
-56.6981571952
 20
53.3549140573
 10
-56.6365871549
 20
54.341207876
 10
-56.5718641819
 20
55.3293840989
 10
-56.5039889213
 20
56.3194324463
 10
-56.4329620573
 20
57.3113426187
 10
-56.3587843788
 20
58.305104332
 10
-56.2814566263
 20
59.3007072426
 10
-56.2009795786
 20
60.2981409944
 10
-56.1173541294
 20
61.2973952549
 10
-56.0305811463
 20
62.2984596404
 10
-55.9406614704
 20
63.3013237163
 10
-55.8475960036
 20
64.3059770442
  0
LINE
  5
2DB
100
AcDbEntity
  8
RACCORDO
100
AcDbLine
 62
7
  6
CONTINUOUS
 10
-55.2838611253
 20
7.1803958729
 11
-55.2810557355
 21
7.1534149906
  0
LINE
  5
2DC
100
AcDbEntity
  8
RACCORDO
100
AcDbLine
 62
250
  6
CONTINUOUS
 10
-55.6902396845
 20
63.5835732178
 11
-55.6844955356
 21
63.5262595995
  0
LINE
  5
2DD
100
AcDbEntity
  8
RACCORDO
100
AcDbLine
 62
250
  6
CONTINUOUS
 10
-55.6844955356
 20
63.5262595995
 11
-55.6785674474
 21
63.4643024816
  0
LINE
  5
2DE
100
AcDbEntity
  8
RACCORDO
100
AcDbLine
 62
250
  6
CONTINUOUS
 10
-55.6785674474
 20
63.4643024816
 11
-55.6724431921
 21
63.3972358611
  0
LINE
  5
2DF
100
AcDbEntity
  8
RACCORDO
100
AcDbLine
 62
250
  6
CONTINUOUS
 10
-55.6724431921
 20
63.3972358611
 11
-55.6661281049
 21
63.3247513218
  0
LINE
  5
2E0
100
AcDbEntity
  8
RACCORDO
100
AcDbLine
 62
250
  6
CONTINUOUS
 10
-55.6661281049
 20
63.3247513218
 11
-55.6596185604
 21
63.2464203417
  0
LWPOLYLINE
  5
2E1
100
AcDbEntity
  8
RACCORDO
100
AcDbPolyline
 62
250
  6
CONTINUOUS
 90
12
 70
0
 10
-55.4318574583
 20
13.3240631287
 10
-55.4989034027
 20
14.1501114903
 10
-55.5632710868
 20
14.9780992218
 10
-55.6249605106
 20
15.808026323
 10
-55.683972171
 20
16.6399001663
 10
-55.7403055711
 20
17.4737133794
 10
-55.7939592199
 20
18.3094438454
 10
-55.8449330463
 20
19.1470916094
 10
-55.8932271214
 20
19.9866566264
 10
-55.938840168
 20
20.8281166446
 10
-55.9817721153
 20
21.6714717136
 10
-56.0220230341
 20
22.5167217839
  0
LINE
  5
2E2
100
AcDbEntity
  8
RACCORDO
100
AcDbLine
 62
250
  6
CONTINUOUS
 10
-55.6596185604
 20
63.2464203417
 11
-55.6529045296
 21
63.1617106781
  0
LINE
  5
2E3
100
AcDbEntity
  8
RACCORDO
100
AcDbLine
 62
250
  6
CONTINUOUS
 10
-55.6529045296
 20
63.1617106781
 11
-55.6459922751
 21
63.0702644505
  0
LINE
  5
2E4
100
AcDbEntity
  8
RACCORDO
100
AcDbLine
 62
250
  6
CONTINUOUS
 10
-55.6459922751
 20
63.0702644505
 11
-55.6388865755
 21
62.9717001577
  0
LINE
  5
2E5
100
AcDbEntity
  8
RACCORDO
100
AcDbLine
 62
250
  6
CONTINUOUS
 10
-55.6388865755
 20
62.9717001577
 11
-55.6315873918
 21
62.8655664103
  0
LINE
  5
2E6
100
AcDbEntity
  8
RACCORDO
100
AcDbLine
 62
250
  6
CONTINUOUS
 10
-55.6315873918
 20
62.8655664103
 11
-55.624102342
 21
62.7515205662
  0
LINE
  5
2E7
100
AcDbEntity
  8
RACCORDO
100
AcDbLine
 62
250
  6
CONTINUOUS
 10
-55.624102342
 20
62.7515205662
 11
-55.6164419572
 21
62.6292796074
  0
LINE
  5
2E8
100
AcDbEntity
  8
RACCORDO
100
AcDbLine
 62
250
  6
CONTINUOUS
 10
-55.6164419572
 20
62.6292796074
 11
-55.608615374
 21
62.4985707526
  0
LINE
  5
2E9
100
AcDbEntity
  8
RACCORDO
100
AcDbLine
 62
250
  6
CONTINUOUS
 10
-55.608615374
 20
62.4985707526
 11
-55.6006403387
 21
62.359302366
  0
LINE
  5
2EA
100
AcDbEntity
  8
RACCORDO
100
AcDbLine
 62
250
  6
CONTINUOUS
 10
-55.6006403387
 20
62.359302366
 11
-55.5925347817
 21
62.2114498749
  0
LINE
  5
2EB
100
AcDbEntity
  8
RACCORDO
100
AcDbLine
 62
250
  6
CONTINUOUS
 10
-55.5925347817
 20
62.2114498749
 11
-55.5843199453
 21
62.0551207472
  0
LINE
  5
2EC
100
AcDbEntity
  8
RACCORDO
100
AcDbLine
 62
250
  6
CONTINUOUS
 10
-55.5843199453
 20
62.0551207472
 11
-55.5760209495
 21
61.8905793221
  0
LINE
  5
2ED
100
AcDbEntity
  8
RACCORDO
100
AcDbLine
 62
250
  6
CONTINUOUS
 10
-55.5760209495
 20
61.8905793221
 11
-55.5676644364
 21
61.7182134747
  0
LINE
  5
2EE
100
AcDbEntity
  8
RACCORDO
100
AcDbLine
 62
250
  6
CONTINUOUS
 10
-55.5676644364
 20
61.7182134747
 11
-55.5592792861
 21
61.5385502936
  0
LWPOLYLINE
  5
2EF
100
AcDbEntity
  8
RACCORDO
100
AcDbPolyline
 62
250
  6
CONTINUOUS
 90
41
 70
0
 10
-56.0220230341
 20
22.5167217839
 10
-56.0595918599
 20
23.3638444544
 10
-56.0944785218
 20
24.2128397762
 10
-56.1266830907
 20
25.0637076984
 10
-56.1562047147
 20
25.9164256664
 10
-56.1830433228
 20
26.7709937299
 10
-56.2071989859
 20
27.6274118392
 10
-56.2286710652
 20
28.4856572917
 10
-56.2474594894
 20
29.3457301352
 10
-56.2635643296
 20
30.2076303218
 10
-56.2769851599
 20
31.071335005
 10
-56.2877219092
 20
31.9368442323
 10
-56.2957746485
 20
32.8041579563
 10
-56.3011431649
 20
33.6732531883
 10
-56.3038273873
 20
34.5441299754
 10
-56.3038273868
 20
35.4167882707
 10
-56.3011431633
 20
36.2912049442
 10
-56.2957746459
 20
37.1673800424
 10
-56.2877219056
 20
38.045313519
 10
-56.2769851554
 20
38.9249821043
 10
-56.2635643242
 20
39.8063858446
 10
-56.2474594831
 20
40.6895246936
 10
-56.2286710581
 20
41.5743752432
 10
-56.2071989782
 20
42.4609375391
 10
-56.1830433144
 20
43.3492115354
 10
-56.1562047058
 20
44.2391736867
 10
-56.1266830814
 20
45.130824037
 10
-56.0944785122
 20
46.0241625422
 10
-56.0595918501
 20
46.9191655244
 10
-56.0220230242
 20
47.8158330261
 10
-55.9817721055
 20
48.7141650049
 10
-55.9388401585
 20
49.6141376559
 10
-55.8932271123
 20
50.5157510228
 10
-55.8449330378
 20
51.419005062
 10
-55.7939592122
 20
52.3238758373
 10
-55.7403055644
 20
53.2303633972
 10
-55.6839721655
 20
54.1384676933
 10
-55.6249605064
 20
55.0481646443
 10
-55.5632710839
 20
55.9594462232
 10
-55.4989034012
 20
56.8723204571
 10
-55.4318574583
 20
57.7867873459
  0
LINE
  5
2F0
100
AcDbEntity
  8
RACCORDO
100
AcDbLine
 62
250
  6
CONTINUOUS
 10
-55.5592792861
 20
61.5385502936
 11
-55.5508952913
 21
61.3522281721
  0
LINE
  5
2F1
100
AcDbEntity
  8
RACCORDO
100
AcDbLine
 62
250
  6
CONTINUOUS
 10
-55.5508952913
 20
61.3522281721
 11
-55.5425432084
 21
61.1599891455
  0
LINE
  5
2F2
100
AcDbEntity
  8
RACCORDO
100
AcDbLine
 62
250
  6
CONTINUOUS
 10
-55.5425432084
 20
61.1599891455
 11
-55.5342529805
 21
60.9626277181
  0
LINE
  5
2F3
100
AcDbEntity
  8
RACCORDO
100
AcDbLine
 62
250
  6
CONTINUOUS
 10
-55.5342529805
 20
60.9626277181
 11
-55.5260544857
 21
60.7609909579
  0
LINE
  5
2F4
100
AcDbEntity
  8
RACCORDO
100
AcDbLine
 62
250
  6
CONTINUOUS
 10
-55.5260544857
 20
60.7609909579
 11
-55.5153155037
 21
60.486952535
  0
LINE
  5
2F5
100
AcDbEntity
  8
RACCORDO
100
AcDbLine
 62
250
  6
CONTINUOUS
 10
-55.5153155037
 20
60.486952535
 11
-55.5048547159
 21
60.2088689911
  0
LINE
  5
2F6
100
AcDbEntity
  8
RACCORDO
100
AcDbLine
 62
250
  6
CONTINUOUS
 10
-55.5048547159
 20
60.2088689911
 11
-55.4947333548
 21
59.928633714
  0
LINE
  5
2F7
100
AcDbEntity
  8
RACCORDO
100
AcDbLine
 62
250
  6
CONTINUOUS
 10
-55.4947333548
 20
59.928633714
 11
-55.4850081001
 21
59.6479917796
  0
LINE
  5
2F8
100
AcDbEntity
  8
RACCORDO
100
AcDbLine
 62
250
  6
CONTINUOUS
 10
-55.4850081001
 20
59.6479917796
 11
-55.475730067
 21
59.3686032038
  0
LINE
  5
2F9
100
AcDbEntity
  8
RACCORDO
100
AcDbLine
 62
250
  6
CONTINUOUS
 10
-55.475730067
 20
59.3686032038
 11
-55.4669477887
 21
59.0918789312
  0
LINE
  5
2FA
100
AcDbEntity
  8
RACCORDO
100
AcDbLine
 62
250
  6
CONTINUOUS
 10
-55.4669477887
 20
59.0918789312
 11
-55.4587056873
 21
58.8190611508
  0
LINE
  5
2FB
100
AcDbEntity
  8
RACCORDO
100
AcDbLine
 62
250
  6
CONTINUOUS
 10
-55.4587056873
 20
58.8190611508
 11
-55.4510425707
 21
58.5512854261
  0
LINE
  5
2FC
100
AcDbEntity
  8
RACCORDO
100
AcDbLine
 62
250
  6
CONTINUOUS
 10
-55.4510425707
 20
58.5512854261
 11
-55.4456968488
 21
58.3543167253
  0
LINE
  5
2FD
100
AcDbEntity
  8
RACCORDO
100
AcDbLine
 62
250
  6
CONTINUOUS
 10
-55.4456968488
 20
58.3543167253
 11
-55.4407100076
 21
58.1610492928
  0
LINE
  5
2FE
100
AcDbEntity
  8
RACCORDO
100
AcDbLine
 62
250
  6
CONTINUOUS
 10
-55.4407100076
 20
58.1610492928
 11
-55.436093587
 21
57.971785434
  0
LINE
  5
2FF
100
AcDbEntity
  8
RACCORDO
100
AcDbLine
 62
250
  6
CONTINUOUS
 10
-55.436093587
 20
57.971785434
 11
-55.4318574583
 21
57.7867873465
  0
LINE
  5
300
100
AcDbEntity
  8
RACCORDO
100
AcDbLine
 62
250
  6
CONTINUOUS
 10
-53.1780406857
 20
21.307163922
 11
-53.1780406857
 21
52.3631263229
  0
LINE
  5
301
100
AcDbEntity
  8
RACCORDO
100
AcDbLine
 62
7
  6
CONTINUOUS
 10
-53.0190349863
 20
21.5641045621
 11
-53.0190398658
 21
52.2506957648
  0
LINE
  5
302
100
AcDbEntity
  8
RACCORDO
100
AcDbLine
 62
250
  6
CONTINUOUS
 10
-55.4318574583
 20
13.324063128
 11
-55.4360935286
 21
13.1343795217
  0
LINE
  5
303
100
AcDbEntity
  8
RACCORDO
100
AcDbLine
 62
250
  6
CONTINUOUS
 10
-55.4360935286
 20
13.1343795217
 11
-55.4407098809
 21
12.9417574179
  0
LINE
  5
304
100
AcDbEntity
  8
RACCORDO
100
AcDbLine
 62
250
  6
CONTINUOUS
 10
-55.4407098809
 20
12.9417574179
 11
-55.4456966442
 21
12.7465139289
  0
LINE
  5
305
100
AcDbEntity
  8
RACCORDO
100
AcDbLine
 62
250
  6
CONTINUOUS
 10
-55.4456966442
 20
12.7465139289
 11
-55.4510422794
 21
12.549000054
  0
LINE
  5
306
100
AcDbEntity
  8
RACCORDO
100
AcDbLine
 62
250
  6
CONTINUOUS
 10
-55.4510422794
 20
12.549000054
 11
-55.4567336426
 21
12.3496023984
  0
LINE
  5
307
100
AcDbEntity
  8
RACCORDO
100
AcDbLine
 62
250
  6
CONTINUOUS
 10
-55.4567336426
 20
12.3496023984
 11
-55.4627562359
 21
12.1487390742
  0
LINE
  5
308
100
AcDbEntity
  8
RACCORDO
100
AcDbLine
 62
250
  6
CONTINUOUS
 10
-55.4627562359
 20
12.1487390742
 11
-55.4690939522
 21
11.9468726797
  0
LINE
  5
309
100
AcDbEntity
  8
RACCORDO
100
AcDbLine
 62
250
  6
CONTINUOUS
 10
-55.4690939522
 20
11.9468726797
 11
-55.4757293516
 21
11.7445040676
  0
LINE
  5
30A
100
AcDbEntity
  8
RACCORDO
100
AcDbLine
 62
250
  6
CONTINUOUS
 10
-55.4757293516
 20
11.7445040676
 11
-55.4826436927
 21
11.5421741532
  0
LINE
  5
30B
100
AcDbEntity
  8
RACCORDO
100
AcDbLine
 62
250
  6
CONTINUOUS
 10
-55.4826436927
 20
11.5421741532
 11
-55.4898169563
 21
11.3404645075
  0
LINE
  5
30C
100
AcDbEntity
  8
RACCORDO
100
AcDbLine
 62
250
  6
CONTINUOUS
 10
-55.4898169563
 20
11.3404645075
 11
-55.497227755
 21
11.1399992648
  0
LINE
  5
30D
100
AcDbEntity
  8
RACCORDO
100
AcDbLine
 62
250
  6
CONTINUOUS
 10
-55.497227755
 20
11.1399992648
 11
-55.5048534929
 21
10.9414379893
  0
LINE
  5
30E
100
AcDbEntity
  8
RACCORDO
100
AcDbLine
 62
250
  6
CONTINUOUS
 10
-55.5048534929
 20
10.9414379893
 11
-55.5126703309
 21
10.7454719018
  0
LINE
  5
30F
100
AcDbEntity
  8
RACCORDO
100
AcDbLine
 62
250
  6
CONTINUOUS
 10
-55.5126703309
 20
10.7454719018
 11
-55.5206524482
 21
10.5528339801
  0
LINE
  5
310
100
AcDbEntity
  8
RACCORDO
100
AcDbLine
 62
250
  6
CONTINUOUS
 10
-55.5206524482
 20
10.5528339801
 11
-55.528773737
 21
10.3642470205
  0
LINE
  5
311
100
AcDbEntity
  8
RACCORDO
100
AcDbLine
 62
250
  6
CONTINUOUS
 10
-55.528773737
 20
10.3642470205
 11
-55.5370058
 21
10.1804592867
  0
LINE
  5
312
100
AcDbEntity
  8
RACCORDO
100
AcDbLine
 62
250
  6
CONTINUOUS
 10
-55.5370058
 20
10.1804592867
 11
-55.5453198819
 21
10.0021846836
  0
LINE
  5
313
100
AcDbEntity
  8
RACCORDO
100
AcDbLine
 62
250
  6
CONTINUOUS
 10
-55.5453198819
 20
10.0021846836
 11
-55.5536857017
 21
9.830114103
  0
LINE
  5
314
100
AcDbEntity
  8
RACCORDO
100
AcDbLine
 62
250
  6
CONTINUOUS
 10
-55.5536857017
 20
9.830114103
 11
-55.5620734118
 21
9.6648598283
  0
LINE
  5
315
100
AcDbEntity
  8
RACCORDO
100
AcDbLine
 62
250
  6
CONTINUOUS
 10
-55.5620734118
 20
9.6648598283
 11
-55.5704520828
 21
9.506974569
  0
LINE
  5
316
100
AcDbEntity
  8
RACCORDO
100
AcDbLine
 62
250
  6
CONTINUOUS
 10
-55.5704520828
 20
9.506974569
 11
-55.5787924927
 21
9.3568886591
  0
LWPOLYLINE
  5
317
100
AcDbEntity
  8
RACCORDO
100
AcDbPolyline
 62
250
  6
CONTINUOUS
 90
3
 70
0
 10
-55.5787924927
 20
9.3568886591
 10
-55.5870661252
 20
9.2149273063
 10
-55.5898044677
 20
9.1694514836
  0
LINE
  5
318
100
AcDbEntity
  8
RACCORDO
100
AcDbLine
 62
250
  6
CONTINUOUS
 10
-54.4478880847
 20
13.3847875385
 11
-54.4780454936
 21
13.1179575531
  0
LINE
  5
319
100
AcDbEntity
  8
RACCORDO
100
AcDbLine
 62
250
  6
CONTINUOUS
 10
-54.4780454936
 20
13.1179575531
 11
-54.4938006667
 21
12.9824090905
  0
LINE
  5
31A
100
AcDbEntity
  8
RACCORDO
100
AcDbLine
 62
250
  6
CONTINUOUS
 10
-54.4938006667
 20
12.9824090905
 11
-54.5100732963
 21
12.8457495878
  0
LINE
  5
31B
100
AcDbEntity
  8
RACCORDO
100
AcDbLine
 62
250
  6
CONTINUOUS
 10
-54.5100732963
 20
12.8457495878
 11
-54.526853403
 21
12.7081072784
  0
LINE
  5
31C
100
AcDbEntity
  8
RACCORDO
100
AcDbLine
 62
250
  6
CONTINUOUS
 10
-54.526853403
 20
12.7081072784
 11
-54.5441273714
 21
12.569613132
  0
LINE
  5
31D
100
AcDbEntity
  8
RACCORDO
100
AcDbLine
 62
250
  6
CONTINUOUS
 10
-54.5441273714
 20
12.569613132
 11
-54.5618828738
 21
12.4303593186
  0
LINE
  5
31E
100
AcDbEntity
  8
RACCORDO
100
AcDbLine
 62
250
  6
CONTINUOUS
 10
-54.5618828738
 20
12.4303593186
 11
-54.580104856
 21
12.2904860444
  0
LINE
  5
31F
100
AcDbEntity
  8
RACCORDO
100
AcDbLine
 62
250
  6
CONTINUOUS
 10
-54.580104856
 20
12.2904860444
 11
-54.5987748059
 21
12.1501456739
  0
LINE
  5
320
100
AcDbEntity
  8
RACCORDO
100
AcDbLine
 62
250
  6
CONTINUOUS
 10
-54.5987748059
 20
12.1501456739
 11
-54.6178776561
 21
12.0094455691
  0
LINE
  5
321
100
AcDbEntity
  8
RACCORDO
100
AcDbLine
 62
250
  6
CONTINUOUS
 10
-54.6178776561
 20
12.0094455691
 11
-54.6373931875
 21
11.8685505012
  0
LINE
  5
322
100
AcDbEntity
  8
RACCORDO
100
AcDbLine
 62
250
  6
CONTINUOUS
 10
-54.6373931875
 20
11.8685505012
 11
-54.6572970024
 21
11.7276404015
  0
LINE
  5
323
100
AcDbEntity
  8
RACCORDO
100
AcDbLine
 62
250
  6
CONTINUOUS
 10
-54.6572970024
 20
11.7276404015
 11
-54.677571168
 21
11.5868393776
  0
LINE
  5
324
100
AcDbEntity
  8
RACCORDO
100
AcDbLine
 62
250
  6
CONTINUOUS
 10
-54.677571168
 20
11.5868393776
 11
-54.6981900726
 21
11.4463367567
  0
LINE
  5
325
100
AcDbEntity
  8
RACCORDO
100
AcDbLine
 62
250
  6
CONTINUOUS
 10
-54.6981900726
 20
11.4463367567
 11
-54.7191233907
 21
11.306338109
  0
LINE
  5
326
100
AcDbEntity
  8
RACCORDO
100
AcDbLine
 62
250
  6
CONTINUOUS
 10
-54.7191233907
 20
11.306338109
 11
-54.7403503041
 21
11.1669840469
  0
LINE
  5
327
100
AcDbEntity
  8
RACCORDO
100
AcDbLine
 62
250
  6
CONTINUOUS
 10
-54.7403503041
 20
11.1669840469
 11
-54.7618391355
 21
11.0284903812
  0
LINE
  5
328
100
AcDbEntity
  8
RACCORDO
100
AcDbLine
 62
250
  6
CONTINUOUS
 10
-54.7618391355
 20
11.0284903812
 11
-54.7835533207
 21
10.8910864843
  0
LINE
  5
329
100
AcDbEntity
  8
RACCORDO
100
AcDbLine
 62
250
  6
CONTINUOUS
 10
-54.7835533207
 20
10.8910864843
 11
-54.8054693233
 21
10.7549266443
  0
LINE
  5
32A
100
AcDbEntity
  8
RACCORDO
100
AcDbLine
 62
250
  6
CONTINUOUS
 10
-54.8054693233
 20
10.7549266443
 11
-54.8275498402
 21
10.6202454695
  0
LINE
  5
32B
100
AcDbEntity
  8
RACCORDO
100
AcDbLine
 62
250
  6
CONTINUOUS
 10
-54.8275498402
 20
10.6202454695
 11
-54.8497511005
 21
10.4872958035
  0
LINE
  5
32C
100
AcDbEntity
  8
RACCORDO
100
AcDbLine
 62
250
  6
CONTINUOUS
 10
-54.8497511005
 20
10.4872958035
 11
-54.8720471107
 21
10.3562402769
  0
LINE
  5
32D
100
AcDbEntity
  8
RACCORDO
100
AcDbLine
 62
250
  6
CONTINUOUS
 10
-54.8720471107
 20
10.3562402769
 11
-54.8943958014
 21
10.2273195149
  0
LINE
  5
32E
100
AcDbEntity
  8
RACCORDO
100
AcDbLine
 62
250
  6
CONTINUOUS
 10
-54.8943958014
 20
10.2273195149
 11
-54.9167486912
 21
10.1007867976
  0
LINE
  5
32F
100
AcDbEntity
  8
RACCORDO
100
AcDbLine
 62
250
  6
CONTINUOUS
 10
-54.9167486912
 20
10.1007867976
 11
-54.9390783064
 21
9.9768014238
  0
LINE
  5
330
100
AcDbEntity
  8
RACCORDO
100
AcDbLine
 62
250
  6
CONTINUOUS
 10
-54.9390783064
 20
9.9768014238
 11
-54.961338214
 21
9.8555988498
  0
LINE
  5
331
100
AcDbEntity
  8
RACCORDO
100
AcDbLine
 62
250
  6
CONTINUOUS
 10
-54.961338214
 20
9.8555988498
 11
-54.9834785734
 21
9.7374054348
  0
LINE
  5
332
100
AcDbEntity
  8
RACCORDO
100
AcDbLine
 62
250
  6
CONTINUOUS
 10
-54.9834785734
 20
9.7374054348
 11
-55.0054726603
 21
9.6223581964
  0
LINE
  5
333
100
AcDbEntity
  8
RACCORDO
100
AcDbLine
 62
250
  6
CONTINUOUS
 10
-55.0054726603
 20
9.6223581964
 11
-55.0272741748
 21
9.5106540759
  0
LINE
  5
334
100
AcDbEntity
  8
RACCORDO
100
AcDbLine
 62
250
  6
CONTINUOUS
 10
-55.0272741748
 20
9.5106540759
 11
-55.0488358563
 21
9.4024664559
  0
LINE
  5
335
100
AcDbEntity
  8
RACCORDO
100
AcDbLine
 62
250
  6
CONTINUOUS
 10
-55.0488358563
 20
9.4024664559
 11
-55.0701341419
 21
9.2978924888
  0
LINE
  5
336
100
AcDbEntity
  8
RACCORDO
100
AcDbLine
 62
250
  6
CONTINUOUS
 10
-55.0701341419
 20
9.2978924888
 11
-55.0911271185
 21
9.1970646514
  0
LINE
  5
337
100
AcDbEntity
  8
RACCORDO
100
AcDbLine
 62
250
  6
CONTINUOUS
 10
-55.0911271185
 20
9.1970646514
 11
-55.1117765024
 21
9.1000726911
  0
LINE
  5
338
100
AcDbEntity
  8
RACCORDO
100
AcDbLine
 62
250
  6
CONTINUOUS
 10
-55.1117765024
 20
9.1000726911
 11
-55.1320649175
 21
9.0069584117
  0
LINE
  5
339
100
AcDbEntity
  8
RACCORDO
100
AcDbLine
 62
250
  6
CONTINUOUS
 10
-55.1320649175
 20
9.0069584117
 11
-55.1519601343
 21
8.9177689006
  0
LINE
  5
33A
100
AcDbEntity
  8
RACCORDO
100
AcDbLine
 62
250
  6
CONTINUOUS
 10
-55.1519601343
 20
8.9177689006
 11
-55.1714349087
 21
8.8325103025
  0
LINE
  5
33B
100
AcDbEntity
  8
RACCORDO
100
AcDbLine
 62
250
  6
CONTINUOUS
 10
-55.1714349087
 20
8.8325103025
 11
-55.190479451
 21
8.75116793
  0
LINE
  5
33C
100
AcDbEntity
  8
RACCORDO
100
AcDbLine
 62
250
  6
CONTINUOUS
 10
-55.7384068769
 20
7.7028595773
 11
-55.7410805559
 21
7.6914409206
  0
LINE
  5
33D
100
AcDbEntity
  8
RACCORDO
100
AcDbLine
 62
250
  6
CONTINUOUS
 10
-55.190479451
 20
8.75116793
 11
-55.2090745572
 21
8.6737011743
  0
LWPOLYLINE
  5
33E
100
AcDbEntity
  8
RACCORDO
100
AcDbPolyline
 62
250
  6
CONTINUOUS
 90
3
 70
0
 10
-55.7410805559
 20
7.6914409206
 10
-55.743698469
 20
7.680663642
 10
-55.7449880063
 20
7.6754959807
  0
LINE
  5
33F
100
AcDbEntity
  8
RACCORDO
100
AcDbLine
 62
250
  6
CONTINUOUS
 10
-55.2090745572
 20
8.6737011743
 11
-55.2272075021
 21
8.6000340551
  0
LINE
  5
340
100
AcDbEntity
  8
RACCORDO
100
AcDbLine
 62
250
  6
CONTINUOUS
 10
-55.2272075021
 20
8.6000340551
 11
-55.2448748126
 21
8.5301098585
  0
LWPOLYLINE
  5
341
100
AcDbEntity
  8
RACCORDO
100
AcDbPolyline
 62
250
  6
CONTINUOUS
 90
101
 70
0
 10
-55.7449880063
 20
7.6754959807
 10
-55.7475282968
 20
7.6655939562
 10
-55.748779267
 20
7.6608478994
 10
-55.7500176172
 20
7.6562384678
 10
-55.7512433601
 20
7.6517556329
 10
-55.7524565557
 20
7.6473991514
 10
-55.7536573884
 20
7.6431689174
 10
-55.7548460421
 20
7.6390551275
 10
-55.7560226951
 20
7.6350571394
 10
-55.7571873952
 20
7.6311752791
 10
-55.7583401183
 20
7.6274012139
 10
-55.7594809869
 20
7.6237345434
 10
-55.7606100916
 20
7.6201753764
 10
-55.7617273513
 20
7.6167161569
 10
-55.7628327408
 20
7.6133569149
 10
-55.7639264875
 20
7.6100973497
 10
-55.7650088788
 20
7.606929424
 10
-55.7660798461
 20
7.6038531875
 10
-55.7671396445
 20
7.6008683456
 10
-55.7681890303
 20
7.5979663633
 10
-55.7692280983
 20
7.5951467891
 10
-55.7702569183
 20
7.592409861
 10
-55.771276193
 20
7.5897480998
 10
-55.7722861866
 20
7.5871607024
 10
-55.7732867803
 20
7.5846482852
 10
-55.7742780898
 20
7.5822055129
 10
-55.7752602416
 20
7.5798320387
 10
-55.7762332461
 20
7.5775280366
 10
-55.7771970389
 20
7.5752889594
 10
-55.7781515955
 20
7.5731148165
 10
-55.7790970716
 20
7.5710054362
 10
-55.7800336673
 20
7.5689560063
 10
-55.7809613554
 20
7.5669664902
 10
-55.7818802851
 20
7.5650367758
 10
-55.7827909116
 20
7.5631619489
 10
-55.7836932888
 20
7.5613417851
 10
-55.784587473
 20
7.5595763759
 10
-55.7854739146
 20
7.5578612913
 10
-55.7863527322
 20
7.5561962113
 10
-55.7872239066
 20
7.5545813372
 10
-55.7880876732
 20
7.5530130289
 10
-55.7889440886
 20
7.5514911161
 10
-55.7897931886
 20
7.5500156604
 10
-55.7906351722
 20
7.5485833761
 10
-55.7914700782
 20
7.5471941332
 10
-55.7922979538
 20
7.5458479616
 10
-55.7931190056
 20
7.5445418222
 10
-55.7939332699
 20
7.5432755935
 10
-55.7947407905
 20
7.542049305
 10
-55.7955417803
 20
7.5408601491
 10
-55.7963362597
 20
7.5397080297
 10
-55.7971242827
 20
7.5385929583
 10
-55.797906108
 20
7.5375122936
 10
-55.7986817836
 20
7.536465906
 10
-55.7994513301
 20
7.535453848
 10
-55.8002149599
 20
7.5344737566
 10
-55.8009727094
 20
7.533525528
 10
-55.801724606
 20
7.5326091949
 10
-55.8024708451
 20
7.531722603
 10
-55.8032114244
 20
7.5308656947
 10
-55.8039464057
 20
7.5300384619
 10
-55.8046760768
 20
7.5292388286
 10
-55.8054004403
 20
7.5284667244
 10
-55.8061195481
 20
7.5277221601
 10
-55.8068337569
 20
7.5270031861
 10
-55.8075431355
 20
7.5263096737
 10
-55.8082476641
 20
7.5256416984
 10
-55.8089475632
 20
7.5249976211
 10
-55.8096428956
 20
7.5243773409
 10
-55.8103336437
 20
7.5237809098
 10
-55.8110199043
 20
7.52320692
 10
-55.8117016961
 20
7.5226553201
 10
-55.8123790432
 20
7.5221261157
 10
-55.8130520495
 20
7.5216179861
 10
-55.8137207217
 20
7.5211308888
 10
-55.8143850936
 20
7.5206648234
 10
-55.815045307
 20
7.5202185349
 10
-55.815701415
 20
7.5197919549
 10
-55.8163534024
 20
7.5193851119
 10
-55.8170013072
 20
7.5189968982
 10
-55.8176453387
 20
7.5186271909
 10
-55.8182853235
 20
7.5182760753
 10
-55.8189207261
 20
7.5179427552
 10
-55.8195517664
 20
7.5176271694
 10
-55.8201782633
 20
7.5173293394
 10
-55.8207990865
 20
7.5170485882
 10
-55.8214142155
 20
7.5167849873
 10
-55.8220237174
 20
7.516538419
 10
-55.8226265995
 20
7.5163079162
 10
-55.8232225894
 20
7.5160935868
 10
-55.8238120121
 20
7.515895272
 10
-55.824394774
 20
7.5157116017
 10
-55.8249707515
 20
7.5155425614
 10
-55.8255401188
 20
7.5153881174
 10
-55.8261032267
 20
7.5152468737
 10
-55.8266601609
 20
7.5151187502
 10
-55.8272108811
 20
7.5150037842
 10
-55.8277555466
 20
7.5149007578
 10
-55.8282942244
 20
7.5148092523
 10
-55.8288268897
 20
7.5147296468
 10
-55.8293535635
 20
7.5146619218
  0
LINE
  5
342
100
AcDbEntity
  8
RACCORDO
100
AcDbLine
 62
250
  6
CONTINUOUS
 10
-55.2448748126
 20
8.5301098585
 11
-55.2620624011
 21
8.4638495682
  0
LINE
  5
343
100
AcDbEntity
  8
RACCORDO
100
AcDbLine
 62
250
  6
CONTINUOUS
 10
-55.2620624011
 20
8.4638495682
 11
-55.2787771272
 21
8.4010935812
  0
LINE
  5
344
100
AcDbEntity
  8
RACCORDO
100
AcDbLine
 62
250
  6
CONTINUOUS
 10
-55.2787771272
 20
8.4010935812
 11
-55.2950226668
 21
8.3417507209
  0
LINE
  5
345
100
AcDbEntity
  8
RACCORDO
100
AcDbLine
 62
250
  6
CONTINUOUS
 10
-55.2950226668
 20
8.3417507209
 11
-55.3107925994
 21
8.2857097913
  0
LINE
  5
346
100
AcDbEntity
  8
RACCORDO
100
AcDbLine
 62
250
  6
CONTINUOUS
 10
-55.3107925994
 20
8.2857097913
 11
-55.3260954803
 21
8.2328098688
  0
LINE
  5
347
100
AcDbEntity
  8
RACCORDO
100
AcDbLine
 62
250
  6
CONTINUOUS
 10
-55.3260954803
 20
8.2328098688
 11
-55.3409406411
 21
8.1829414886
  0
LINE
  5
348
100
AcDbEntity
  8
RACCORDO
100
AcDbLine
 62
250
  6
CONTINUOUS
 10
-55.3409406411
 20
8.1829414886
 11
-55.3553426731
 21
8.1359278961
  0
LINE
  5
349
100
AcDbEntity
  8
RACCORDO
100
AcDbLine
 62
250
  6
CONTINUOUS
 10
-55.3553426731
 20
8.1359278961
 11
-55.3693027555
 21
8.0916458086
  0
LWPOLYLINE
  5
34A
100
AcDbEntity
  8
RACCORDO
100
AcDbPolyline
 62
250
  6
CONTINUOUS
 90
106
 70
0
 10
-55.3693027555
 20
8.0916458086
 10
-55.382827162
 20
8.0500017429
 10
-55.3894269918
 20
8.0301195566
 10
-55.395920917
 20
8.0108601557
 10
-55.4023164407
 20
7.9921626015
 10
-55.408616202
 20
7.974019221
 10
-55.4148187838
 20
7.9564368672
 10
-55.4209254757
 20
7.939376477
 10
-55.4269366812
 20
7.9228372858
 10
-55.4328530566
 20
7.9068193455
 10
-55.4386761779
 20
7.8912848802
 10
-55.4444041737
 20
7.8762384344
 10
-55.45003983
 20
7.8616748473
 10
-55.4555916105
 20
7.8475418525
 10
-55.4610619806
 20
7.8338326427
 10
-55.46644922
 20
7.8205535224
 10
-55.4717554278
 20
7.8076719508
 10
-55.476981564
 20
7.7951856369
 10
-55.4821273101
 20
7.7830964382
 10
-55.4871927917
 20
7.7713780743
 10
-55.4921776495
 20
7.7600313154
 10
-55.4970828007
 20
7.7490550136
 10
-55.5019102369
 20
7.738420044
 10
-55.5066590066
 20
7.7281279731
 10
-55.5113305379
 20
7.7181769115
 10
-55.5159303412
 20
7.7085325848
 10
-55.5204580165
 20
7.6991949222
 10
-55.5249143588
 20
7.6901637266
 10
-55.5293066196
 20
7.681404569
 10
-55.533634706
 20
7.6729165856
 10
-55.5378990339
 20
7.6647004208
 10
-55.5421075721
 20
7.656723939
 10
-55.5462629926
 20
7.6489815477
 10
-55.5503628843
 20
7.641478662
 10
-55.55440756
 20
7.6341996791
 10
-55.5583987805
 20
7.6271416793
 10
-55.5623350137
 20
7.6203074265
 10
-55.5662116202
 20
7.6136898532
 10
-55.5700265121
 20
7.6072925746
 10
-55.5737819878
 20
7.601111832
 10
-55.5774799741
 20
7.5951295053
 10
-55.5811195137
 20
7.589346618
 10
-55.584701742
 20
7.5837620253
 10
-55.5882317049
 20
7.5783543678
 10
-55.5917091875
 20
7.5731232609
 10
-55.5951345511
 20
7.5680689894
 10
-55.5985136866
 20
7.5631712123
 10
-55.6018473322
 20
7.5584282599
 10
-55.6051348688
 20
7.5538417206
 10
-55.608380135
 20
7.549396152
 10
-55.6115839342
 20
7.5450901073
 10
-55.6147455628
 20
7.5409249652
 10
-55.617866588
 20
7.5368895284
 10
-55.6209470323
 20
7.5329835359
 10
-55.6239869593
 20
7.5292071901
 10
-55.6269879892
 20
7.5255499949
 10
-55.6299500864
 20
7.5220117545
 10
-55.6328733604
 20
7.5185926142
 10
-55.6357596416
 20
7.5152825949
 10
-55.6386091984
 20
7.5120811839
 10
-55.6414218255
 20
7.5089888507
 10
-55.6441986362
 20
7.5059970934
 10
-55.646939673
 20
7.5031056998
 10
-55.649644948
 20
7.500314845
 10
-55.652315524
 20
7.497616611
 10
-55.654951122
 20
7.4950110782
 10
-55.657552068
 20
7.4924981341
 10
-55.6601203283
 20
7.4900695745
 10
-55.6626556077
 20
7.4877254091
 10
-55.6651582413
 20
7.4854656009
 10
-55.6676311364
 20
7.4832818788
 10
-55.6700744794
 20
7.4811738107
 10
-55.6724881172
 20
7.4791418059
 10
-55.6748744447
 20
7.4771788573
 10
-55.6772339887
 20
7.4752843614
 10
-55.6795662505
 20
7.4734589024
 10
-55.6818720826
 20
7.4716972567
 10
-55.6841515537
 20
7.4699992702
 10
-55.6864046197
 20
7.4683650802
 10
-55.6886319622
 20
7.4667899011
 10
-55.6908333929
 20
7.4652737505
 10
-55.6930091215
 20
7.4638165963
 10
-55.6951604252
 20
7.4624135803
 10
-55.6972871557
 20
7.461064651
 10
-55.6993894796
 20
7.4597698473
 10
-55.7014691456
 20
7.4585244479
 10
-55.7035262284
 20
7.4573282598
 10
-55.7055606689
 20
7.4561814651
 10
-55.7075740131
 20
7.4550799065
 10
-55.7095664554
 20
7.4540233634
 10
-55.7115378147
 20
7.4530120471
 10
-55.7134890727
 20
7.4520424486
 10
-55.7154202341
 20
7.4511144735
 10
-55.7173313058
 20
7.4502282083
 10
-55.7192232713
 20
7.4493804153
 10
-55.7210961673
 20
7.4485709938
 10
-55.7229499671
 20
7.4478000376
 10
-55.7247855589
 20
7.4470646027
 10
-55.7266029352
 20
7.4463646126
 10
-55.7284021122
 20
7.4457001379
 10
-55.7301840129
 20
7.4450684543
 10
-55.7319486266
 20
7.4444694878
 10
-55.7336959715
 20
7.4439033074
 10
-55.735427013
 20
7.4433674049
 10
-55.737142075
 20
7.4428609428
 10
-55.7405233115
 20
7.4419388368
  0
LINE
  5
34B
100
AcDbEntity
  8
RACCORDO
100
AcDbLine
 62
250
  6
CONTINUOUS
 10
-53.2803553802
 20
20.1803656801
 11
-53.2875513205
 21
20.1684886202
  0
LINE
  5
34C
100
AcDbEntity
  8
RACCORDO
100
AcDbLine
 62
250
  6
CONTINUOUS
 10
-53.2713212093
 20
20.1951158479
 11
-53.2803553802
 21
20.1803656801
  0
LINE
  5
34D
100
AcDbEntity
  8
RACCORDO
100
AcDbLine
 62
250
  6
CONTINUOUS
 10
-53.2622532472
 20
20.2097553829
 11
-53.2713212093
 21
20.1951158479
  0
LINE
  5
34E
100
AcDbEntity
  8
RACCORDO
100
AcDbLine
 62
250
  6
CONTINUOUS
 10
-53.2531618829
 20
20.2242804987
 11
-53.2622532472
 21
20.2097553829
  0
LINE
  5
34F
100
AcDbEntity
  8
RACCORDO
100
AcDbLine
 62
250
  6
CONTINUOUS
 10
-53.2422356588
 20
20.2415544784
 11
-53.2531618829
 21
20.2242804987
  0
LINE
  5
350
100
AcDbEntity
  8
RACCORDO
100
AcDbLine
 62
250
  6
CONTINUOUS
 10
-53.0506529464
 20
20.5327483958
 11
-53.0575911948
 21
20.5218546523
  0
LINE
  5
351
100
AcDbEntity
  8
RACCORDO
100
AcDbLine
 62
250
  6
CONTINUOUS
 10
-53.2313078303
 20
20.2586520006
 11
-53.2422356588
 21
20.2415544784
  0
LINE
  5
352
100
AcDbEntity
  8
RACCORDO
100
AcDbLine
 62
250
  6
CONTINUOUS
 10
-53.0575911948
 20
20.5218546523
 11
-53.0661481356
 21
20.5085565808
  0
LINE
  5
353
100
AcDbEntity
  8
RACCORDO
100
AcDbLine
 62
250
  6
CONTINUOUS
 10
-53.2185793971
 20
20.2783680523
 11
-53.2313078303
 21
20.2586520006
  0
LINE
  5
354
100
AcDbEntity
  8
RACCORDO
100
AcDbLine
 62
250
  6
CONTINUOUS
 10
-53.0661481356
 20
20.5085565808
 11
-53.0764366014
 21
20.4927332686
  0
LINE
  5
355
100
AcDbEntity
  8
RACCORDO
100
AcDbLine
 62
250
  6
CONTINUOUS
 10
-53.2040919572
 20
20.3005852146
 11
-53.2185793971
 21
20.2783680523
  0
LINE
  5
356
100
AcDbEntity
  8
RACCORDO
100
AcDbLine
 62
250
  6
CONTINUOUS
 10
-53.0764366014
 20
20.4927332686
 11
-53.0901219964
 21
20.4719033851
  0
LINE
  5
357
100
AcDbEntity
  8
RACCORDO
100
AcDbLine
 62
250
  6
CONTINUOUS
 10
-53.1861278492
 20
20.3278645918
 11
-53.2040919572
 21
20.3005852146
  0
LWPOLYLINE
  5
358
100
AcDbEntity
  8
RACCORDO
100
AcDbPolyline
 62
250
  6
CONTINUOUS
 90
31
 70
0
 10
-52.8573189306
 20
20.7809056574
 10
-52.8637140657
 20
20.7712960564
 10
-52.8701109075
 20
20.7617910668
 10
-52.8765094559
 20
20.7523906887
 10
-52.8829094422
 20
20.743096851
 10
-52.8893111351
 20
20.7339076247
 10
-52.8957153411
 20
20.7248172232
 10
-52.9021220909
 20
20.7158254661
 10
-52.9085313538
 20
20.7069325338
 10
-52.9149438447
 20
20.6981331813
 10
-52.9213595868
 20
20.6894272542
 10
-52.9277785568
 20
20.6808149068
 10
-52.9342014
 20
20.6722913576
 10
-52.9406281345
 20
20.6638564722
 10
-52.9470587421
 20
20.6555103849
 10
-52.9534938135
 20
20.6472487174
 10
-52.9599333649
 20
20.6390713493
 10
-52.9663773802
 20
20.6309784011
 10
-52.9728264014
 20
20.6229658553
 10
-52.9792804415
 20
20.6150336055
 10
-52.9857394876
 20
20.6071817582
 10
-52.9922040428
 20
20.5994066154
 10
-52.9986741098
 20
20.5917080913
 10
-53.0051496858
 20
20.5840862718
 10
-53.0116312654
 20
20.5765377164
 10
-53.0181188227
 20
20.5690623765
 10
-53.0246123836
 20
20.5616603007
 10
-53.0311125191
 20
20.5543281942
 10
-53.0376194198
 20
20.5470649586
 10
-53.0441328952
 20
20.5398716922
 10
-53.0506529452
 20
20.532748395
  0
LINE
  5
359
100
AcDbEntity
  8
RACCORDO
100
AcDbLine
 62
250
  6
CONTINUOUS
 10
-53.0901219964
 20
20.4719033851
 11
-53.1123477543
 21
20.4384299472
  0
LINE
  5
35A
100
AcDbEntity
  8
RACCORDO
100
AcDbLine
 62
250
  6
CONTINUOUS
 10
-53.1561518656
 20
20.3729230455
 11
-53.1861278492
 21
20.3278645918
  0
LINE
  5
35B
100
AcDbEntity
  8
RACCORDO
100
AcDbLine
 62
250
  6
CONTINUOUS
 10
-53.1123477543
 20
20.4384299472
 11
-53.123846771
 21
20.4212129342
  0
LINE
  5
35C
100
AcDbEntity
  8
RACCORDO
100
AcDbLine
 62
250
  6
CONTINUOUS
 10
-53.1509564173
 20
20.3806960462
 11
-53.1561518656
 21
20.3729230455
  0
LINE
  5
35D
100
AcDbEntity
  8
RACCORDO
100
AcDbLine
 62
250
  6
CONTINUOUS
 10
-53.123846771
 20
20.4212129342
 11
-53.1271752924
 21
20.4162360824
  0
LINE
  5
35E
100
AcDbEntity
  8
RACCORDO
100
AcDbLine
 62
250
  6
CONTINUOUS
 10
-53.1271752924
 20
20.4162360824
 11
-53.1305219915
 21
20.4112338972
  0
LWPOLYLINE
  5
35F
100
AcDbEntity
  8
RACCORDO
100
AcDbPolyline
 62
250
  6
CONTINUOUS
 90
4
 70
0
 10
-53.1423715491
 20
20.393528694
 10
-53.144080798
 20
20.3909744788
 10
-53.145793973
 20
20.3884140882
 10
-53.1509564173
 20
20.3806960462
  0
LINE
  5
360
100
AcDbEntity
  8
RACCORDO
100
AcDbLine
 62
250
  6
CONTINUOUS
 10
-53.1305219915
 20
20.4112338972
 11
-53.1423715491
 21
20.393528694
  0
LINE
  5
361
100
AcDbEntity
  8
RACCORDO
100
AcDbLine
 62
250
  6
CONTINUOUS
 10
-54.0813591688
 20
20.6502637641
 11
-54.0894069855
 21
20.6390047161
  0
LINE
  5
362
100
AcDbEntity
  8
RACCORDO
100
AcDbLine
 62
250
  6
CONTINUOUS
 10
-54.0732578217
 20
20.6614539074
 11
-54.0813591688
 21
20.6502637641
  0
LINE
  5
363
100
AcDbEntity
  8
RACCORDO
100
AcDbLine
 62
250
  6
CONTINUOUS
 10
-54.0651039605
 20
20.672574132
 11
-54.0732578217
 21
20.6614539074
  0
LINE
  5
364
100
AcDbEntity
  8
RACCORDO
100
AcDbLine
 62
250
  6
CONTINUOUS
 10
-54.0568991066
 20
20.6836229335
 11
-54.0651039605
 21
20.672574132
  0
LINE
  5
365
100
AcDbEntity
  8
RACCORDO
100
AcDbLine
 62
250
  6
CONTINUOUS
 10
-54.048644811
 20
20.6945988076
 11
-54.0568991066
 21
20.6836229335
  0
LINE
  5
366
100
AcDbEntity
  8
RACCORDO
100
AcDbLine
 62
250
  6
CONTINUOUS
 10
-54.040342115
 20
20.7055007504
 11
-54.048644811
 21
20.6945988076
  0
LINE
  5
367
100
AcDbEntity
  8
RACCORDO
100
AcDbLine
 62
250
  6
CONTINUOUS
 10
-54.0319925964
 20
20.7163272477
 11
-54.040342115
 21
20.7055007504
  0
LINE
  5
368
100
AcDbEntity
  8
RACCORDO
100
AcDbLine
 62
250
  6
CONTINUOUS
 10
-54.0235978326
 20
20.7270768273
 11
-54.0319925964
 21
20.7163272477
  0
LINE
  5
369
100
AcDbEntity
  8
RACCORDO
100
AcDbLine
 62
250
  6
CONTINUOUS
 10
-54.0151588743
 20
20.7377485169
 11
-54.0235978326
 21
20.7270768273
  0
LINE
  5
36A
100
AcDbEntity
  8
RACCORDO
100
AcDbLine
 62
250
  6
CONTINUOUS
 10
-54.0066772955
 20
20.7483408739
 11
-54.0151588743
 21
20.7377485169
  0
LINE
  5
36B
100
AcDbEntity
  8
RACCORDO
100
AcDbLine
 62
250
  6
CONTINUOUS
 10
-53.9981546788
 20
20.7588524836
 11
-54.0066772955
 21
20.7483408739
  0
LINE
  5
36C
100
AcDbEntity
  8
RACCORDO
100
AcDbLine
 62
250
  6
CONTINUOUS
 10
-53.9895920803
 20
20.7692824102
 11
-53.9981546788
 21
20.7588524836
  0
LINE
  5
36D
100
AcDbEntity
  8
RACCORDO
100
AcDbLine
 62
250
  6
CONTINUOUS
 10
-53.9809910867
 20
20.7796292586
 11
-53.9895920803
 21
20.7692824102
  0
LINE
  5
36E
100
AcDbEntity
  8
RACCORDO
100
AcDbLine
 62
250
  6
CONTINUOUS
 10
-53.9723532828
 20
20.7898916745
 11
-53.9809910867
 21
20.7796292586
  0
LINE
  5
36F
100
AcDbEntity
  8
RACCORDO
100
AcDbLine
 62
250
  6
CONTINUOUS
 10
-53.9636797285
 20
20.8000687587
 11
-53.9723532828
 21
20.7898916745
  0
LINE
  5
370
100
AcDbEntity
  8
RACCORDO
100
AcDbLine
 62
250
  6
CONTINUOUS
 10
-53.9549720103
 20
20.810159178
 11
-53.9636797285
 21
20.8000687587
  0
LINE
  5
371
100
AcDbEntity
  8
RACCORDO
100
AcDbLine
 62
250
  6
CONTINUOUS
 10
-53.9462317668
 20
20.8201615776
 11
-53.9549720103
 21
20.810159178
  0
LINE
  5
372
100
AcDbEntity
  8
RACCORDO
100
AcDbLine
 62
250
  6
CONTINUOUS
 10
-53.9374600898
 20
20.8300750636
 11
-53.9462317668
 21
20.8201615776
  0
LINE
  5
373
100
AcDbEntity
  8
RACCORDO
100
AcDbLine
 62
250
  6
CONTINUOUS
 10
-53.9286586281
 20
20.8398982946
 11
-53.9374600898
 21
20.8300750636
  0
LINE
  5
374
100
AcDbEntity
  8
RACCORDO
100
AcDbLine
 62
250
  6
CONTINUOUS
 10
-53.9198290003
 20
20.8496300027
 11
-53.9286586281
 21
20.8398982946
  0
LINE
  5
375
100
AcDbEntity
  8
RACCORDO
100
AcDbLine
 62
250
  6
CONTINUOUS
 10
-53.9109722888
 20
20.8592693465
 11
-53.9198290003
 21
20.8496300027
  0
LINE
  5
376
100
AcDbEntity
  8
RACCORDO
100
AcDbLine
 62
250
  6
CONTINUOUS
 10
-53.9020901181
 20
20.8688150753
 11
-53.9109722888
 21
20.8592693465
  0
LINE
  5
377
100
AcDbEntity
  8
RACCORDO
100
AcDbLine
 62
250
  6
CONTINUOUS
 10
-53.8931841105
 20
20.8782659776
 11
-53.9020901181
 21
20.8688150753
  0
LINE
  5
378
100
AcDbEntity
  8
RACCORDO
100
AcDbLine
 62
250
  6
CONTINUOUS
 10
-53.8842553475
 20
20.8876212538
 11
-53.8931841105
 21
20.8782659776
  0
LINE
  5
379
100
AcDbEntity
  8
RACCORDO
100
AcDbLine
 62
250
  6
CONTINUOUS
 10
-53.8753054537
 20
20.8968797138
 11
-53.8842553475
 21
20.8876212538
  0
LINE
  5
37A
100
AcDbEntity
  8
RACCORDO
100
AcDbLine
 62
250
  6
CONTINUOUS
 10
-53.8663360329
 20
20.9060402249
 11
-53.8753054537
 21
20.8968797138
  0
LINE
  5
37B
100
AcDbEntity
  8
RACCORDO
100
AcDbLine
 62
250
  6
CONTINUOUS
 10
-53.8573481687
 20
20.915102025
 11
-53.8663360329
 21
20.9060402249
  0
LINE
  5
37C
100
AcDbEntity
  8
RACCORDO
100
AcDbLine
 62
250
  6
CONTINUOUS
 10
-53.8483434974
 20
20.9240639712
 11
-53.8573481687
 21
20.915102025
  0
LINE
  5
37D
100
AcDbEntity
  8
RACCORDO
100
AcDbLine
 62
250
  6
CONTINUOUS
 10
-53.839323705
 20
20.9329249091
 11
-53.8483434974
 21
20.9240639712
  0
LINE
  5
37E
100
AcDbEntity
  8
RACCORDO
100
AcDbLine
 62
250
  6
CONTINUOUS
 10
-53.8302899035
 20
20.9416840892
 11
-53.839323705
 21
20.9329249091
  0
LINE
  5
37F
100
AcDbEntity
  8
RACCORDO
100
AcDbLine
 62
250
  6
CONTINUOUS
 10
-53.8212437562
 20
20.9503404044
 11
-53.8302899035
 21
20.9416840892
  0
LINE
  5
380
100
AcDbEntity
  8
RACCORDO
100
AcDbLine
 62
250
  6
CONTINUOUS
 10
-53.8121868906
 20
20.9588928196
 11
-53.8212437562
 21
20.9503404044
  0
LINE
  5
381
100
AcDbEntity
  8
RACCORDO
100
AcDbLine
 62
250
  6
CONTINUOUS
 10
-53.8031203947
 20
20.9673406491
 11
-53.8121868906
 21
20.9588928196
  0
LINE
  5
382
100
AcDbEntity
  8
RACCORDO
100
AcDbLine
 62
250
  6
CONTINUOUS
 10
-53.7940459009
 20
20.9756828757
 11
-53.8031203947
 21
20.9673406491
  0
LINE
  5
383
100
AcDbEntity
  8
RACCORDO
100
AcDbLine
 62
250
  6
CONTINUOUS
 10
-53.7849650318
 20
20.9839185275
 11
-53.7940459009
 21
20.9756828757
  0
LINE
  5
384
100
AcDbEntity
  8
RACCORDO
100
AcDbLine
 62
250
  6
CONTINUOUS
 10
-53.775878866
 20
20.9920469666
 11
-53.7849650318
 21
20.9839185275
  0
LINE
  5
385
100
AcDbEntity
  8
RACCORDO
100
AcDbLine
 62
250
  6
CONTINUOUS
 10
-53.7667890189
 20
21.0000672499
 11
-53.775878866
 21
20.9920469666
  0
LINE
  5
386
100
AcDbEntity
  8
RACCORDO
100
AcDbLine
 62
250
  6
CONTINUOUS
 10
-53.7576970795
 20
21.0079784922
 11
-53.7667890189
 21
21.0000672499
  0
LINE
  5
387
100
AcDbEntity
  8
RACCORDO
100
AcDbLine
 62
250
  6
CONTINUOUS
 10
-53.7486041334
 20
21.0157800883
 11
-53.7576970795
 21
21.0079784922
  0
LINE
  5
388
100
AcDbEntity
  8
RACCORDO
100
AcDbLine
 62
250
  6
CONTINUOUS
 10
-53.7395118403
 20
21.0234711149
 11
-53.7486041334
 21
21.0157800883
  0
LINE
  5
389
100
AcDbEntity
  8
RACCORDO
100
AcDbLine
 62
250
  6
CONTINUOUS
 10
-53.7304218923
 20
21.0310506593
 11
-53.7395118403
 21
21.0234711149
  0
LINE
  5
38A
100
AcDbEntity
  8
RACCORDO
100
AcDbLine
 62
250
  6
CONTINUOUS
 10
-53.7213353911
 20
21.0385181431
 11
-53.7304218923
 21
21.0310506593
  0
LINE
  5
38B
100
AcDbEntity
  8
RACCORDO
100
AcDbLine
 62
250
  6
CONTINUOUS
 10
-53.7122539611
 20
21.045872735
 11
-53.7213353911
 21
21.0385181431
  0
LINE
  5
38C
100
AcDbEntity
  8
RACCORDO
100
AcDbLine
 62
250
  6
CONTINUOUS
 10
-53.7031791915
 20
21.0531136681
 11
-53.7122539611
 21
21.045872735
  0
LINE
  5
38D
100
AcDbEntity
  8
RACCORDO
100
AcDbLine
 62
250
  6
CONTINUOUS
 10
-53.6941121423
 20
21.0602404378
 11
-53.7031791915
 21
21.0531136681
  0
LINE
  5
38E
100
AcDbEntity
  8
RACCORDO
100
AcDbLine
 62
250
  6
CONTINUOUS
 10
-53.6850544007
 20
21.0672523004
 11
-53.6941121423
 21
21.0602404378
  0
LINE
  5
38F
100
AcDbEntity
  8
RACCORDO
100
AcDbLine
 62
250
  6
CONTINUOUS
 10
-53.6760075388
 20
21.0741485591
 11
-53.6850544007
 21
21.0672523004
  0
LINE
  5
390
100
AcDbEntity
  8
RACCORDO
100
AcDbLine
 62
250
  6
CONTINUOUS
 10
-53.6669725969
 20
21.080928762
 11
-53.6760075388
 21
21.0741485591
  0
LWPOLYLINE
  5
391
100
AcDbEntity
  8
RACCORDO
100
AcDbPolyline
 62
250
  6
CONTINUOUS
 90
24
 70
0
 10
-55.2810556831
 20
7.1534149536
 10
-55.2799318642
 20
7.1435288361
 10
-55.2785793083
 20
7.1338387473
 10
-55.2769986434
 20
7.1243493346
 10
-55.2751909418
 20
7.1150652492
 10
-55.2731567111
 20
7.1059908625
 10
-55.2708959343
 20
7.0971302272
 10
-55.2684097694
 20
7.0884877306
 10
-55.2656993887
 20
7.0800673334
 10
-55.2627649973
 20
7.0718722617
 10
-55.2596080293
 20
7.0639064345
 10
-55.2562300197
 20
7.0561736575
 10
-55.2526314843
 20
7.0486768256
 10
-55.2488141753
 20
7.0414195286
 10
-55.2447799437
 20
7.0344052379
 10
-55.2405296087
 20
7.0276365025
 10
-55.2360652332
 20
7.021116568
 10
-55.2313889763
 20
7.014848557
 10
-55.2265019519
 20
7.008834659
 10
-55.2214064931
 20
7.0030777394
 10
-55.2161050893
 20
6.9975805814
 10
-55.2105992353
 20
6.9923450705
 10
-55.2048912175
 20
6.9873734632
 10
-55.1989841516
 20
6.9826684084
  0
LINE
  5
392
100
AcDbEntity
  8
RACCORDO
100
AcDbLine
 62
250
  6
CONTINUOUS
 10
-55.6994193389
 20
63.6697691694
 11
-55.6939710656
 21
63.6194080519
  0
LINE
  5
393
100
AcDbEntity
  8
RACCORDO
100
AcDbLine
 62
250
  6
CONTINUOUS
 10
-55.6939710656
 20
63.6194080519
 11
-55.6902396845
 21
63.5835732178
  0
LINE
  5
394
100
AcDbEntity
  8
RACCORDO
100
AcDbLine
 62
250
  6
CONTINUOUS
 10
-53.6579511222
 20
21.0875922527
 11
-53.6669725969
 21
21.080928762
  0
LINE
  5
395
100
AcDbEntity
  8
RACCORDO
100
AcDbLine
 62
250
  6
CONTINUOUS
 10
-53.6489446414
 20
21.0941384224
 11
-53.6579511222
 21
21.0875922527
  0
LINE
  5
396
100
AcDbEntity
  8
RACCORDO
100
AcDbLine
 62
250
  6
CONTINUOUS
 10
-53.6399542174
 20
21.1005668411
 11
-53.6489446414
 21
21.0941384224
  0
LINE
  5
397
100
AcDbEntity
  8
RACCORDO
100
AcDbLine
 62
250
  6
CONTINUOUS
 10
-53.6309815057
 20
21.1068768306
 11
-53.6399542174
 21
21.1005668411
  0
LWPOLYLINE
  5
398
100
AcDbEntity
  8
RACCORDO
100
AcDbPolyline
 62
250
  6
CONTINUOUS
 90
40
 70
0
 10
-52.8573189311
 20
20.7809056577
 10
-52.8485046035
 20
20.7870284354
 10
-52.8396957544
 20
20.7929276269
 10
-52.8308978595
 20
20.798599565
 10
-52.8221163878
 20
20.8040407241
 10
-52.8133567984
 20
20.8092477214
 10
-52.8046245374
 20
20.8142173186
 10
-52.7959250335
 20
20.8189464262
 10
-52.7872636942
 20
20.8234321047
 10
-52.7786459038
 20
20.8276715657
 10
-52.7700770193
 20
20.8316621738
 10
-52.7615623676
 20
20.8354014483
 10
-52.7531072416
 20
20.8388870647
 10
-52.7447168973
 20
20.8421168563
 10
-52.7363965506
 20
20.8450888152
 10
-52.7281513735
 20
20.8478010941
 10
-52.7199864917
 20
20.8502520068
 10
-52.7119069806
 20
20.8524400298
 10
-52.7039178628
 20
20.8543638029
 10
-52.6960241047
 20
20.8560221302
 10
-52.6882306133
 20
20.8574139809
 10
-52.6805422332
 20
20.8585384897
 10
-52.672963744
 20
20.8593949577
 10
-52.6654998565
 20
20.8599828523
 10
-52.6581552107
 20
20.8603018082
 10
-52.6509343722
 20
20.860351627
 10
-52.6438418299
 20
20.8601322778
 10
-52.6368819926
 20
20.859643897
 10
-52.6300591868
 20
20.8588867881
 10
-52.6233776539
 20
20.8578614218
 10
-52.6168415473
 20
20.8565684355
 10
-52.6104549301
 20
20.855008633
 10
-52.6042217725
 20
20.8531829838
 10
-52.5981459492
 20
20.8510926229
 10
-52.5922312372
 20
20.8487388498
 10
-52.5864813132
 20
20.8461231276
 10
-52.5808997517
 20
20.8432470823
 10
-52.5754900223
 20
20.8401125018
 10
-52.5702554879
 20
20.8367213347
 10
-52.5686471093
 20
20.8356029227
  0
LINE
  5
399
100
AcDbEntity
  8
RACCORDO
100
AcDbLine
 62
250
  6
CONTINUOUS
 10
-53.6220281952
 20
21.1130677298
 11
-53.6309815057
 21
21.1068768306
  0
LINE
  5
39A
100
AcDbEntity
  8
RACCORDO
100
AcDbLine
 62
250
  6
CONTINUOUS
 10
-53.6130953653
 20
21.1191391383
 11
-53.6220281952
 21
21.1130677298
  0
LWPOLYLINE
  5
39B
100
AcDbEntity
  8
RACCORDO
100
AcDbPolyline
 62
250
  6
CONTINUOUS
 90
35
 70
0
 10
-53.1780406857
 20
21.3071639215
 10
-53.169245985
 20
21.3131060995
 10
-53.1606583144
 20
21.3191978
 10
-53.1522827564
 20
21.3254354176
 10
-53.1441242684
 20
21.3318152605
 10
-53.136187679
 20
21.3383335527
 10
-53.1284776856
 20
21.3449864363
 10
-53.1209988514
 20
21.3517699736
 10
-53.113755603
 20
21.3586801498
 10
-53.1067522272
 20
21.365712875
 10
-53.0999928692
 20
21.3728639867
 10
-53.0934815295
 20
21.3801292525
 10
-53.0872220621
 20
21.3875043723
 10
-53.0812181715
 20
21.3949849811
 10
-53.0754734114
 20
21.4025666514
 10
-53.0699911818
 20
21.4102448959
 10
-53.0647747274
 20
21.4180151701
 10
-53.0598271357
 20
21.425872875
 10
-53.055151335
 20
21.4338133601
 10
-53.0507500926
 20
21.4418319255
 10
-53.0466260136
 20
21.4499238255
 10
-53.0427815388
 20
21.4580842707
 10
-53.0392189436
 20
21.4663084312
 10
-53.0359403366
 20
21.4745914396
 10
-53.0329476583
 20
21.4829283933
 10
-53.03024268
 20
21.4913143581
 10
-53.0278270025
 20
21.4997443705
 10
-53.0257020557
 20
21.5082134413
 10
-53.0238690972
 20
21.5167165578
 10
-53.0223292119
 20
21.5252486874
 10
-53.0210833112
 20
21.5338047803
 10
-53.0201321325
 20
21.5423797723
 10
-53.0194762388
 20
21.5509685883
 10
-53.0191160182
 20
21.559566145
 10
-53.0190398658
 20
21.5657323564
  0
LINE
  5
39C
100
AcDbEntity
  8
RACCORDO
100
AcDbLine
 62
250
  6
CONTINUOUS
 10
-53.6041845789
 20
21.1250905084
 11
-53.6130953653
 21
21.1191391383
  0
LINE
  5
39D
100
AcDbEntity
  8
RACCORDO
100
AcDbLine
 62
250
  6
CONTINUOUS
 10
-53.5952973602
 20
21.1309213538
 11
-53.6041845789
 21
21.1250905084
  0
LINE
  5
39E
100
AcDbEntity
  8
RACCORDO
100
AcDbLine
 62
250
  6
CONTINUOUS
 10
-53.5864347258
 20
21.136631357
 11
-53.5952973602
 21
21.1309213538
  0
LINE
  5
39F
100
AcDbEntity
  8
RACCORDO
100
AcDbLine
 62
250
  6
CONTINUOUS
 10
-53.5775981992
 20
21.1422200546
 11
-53.5864347258
 21
21.136631357
  0
LINE
  5
3A0
100
AcDbEntity
  8
RACCORDO
100
AcDbLine
 62
250
  6
CONTINUOUS
 10
-53.568789274
 20
21.1476870373
 11
-53.5775981992
 21
21.1422200546
  0
LINE
  5
3A1
100
AcDbEntity
  8
RACCORDO
100
AcDbLine
 62
250
  6
CONTINUOUS
 10
-55.7617296948
 20
64.0974660831
 11
-55.7594833481
 21
64.0863216093
  0
LINE
  5
3A2
100
AcDbEntity
  8
RACCORDO
100
AcDbLine
 62
250
  6
CONTINUOUS
 10
-55.2090862657
 20
62.4241887583
 11
-55.1904911243
 21
62.331158474
  0
LINE
  5
3A3
100
AcDbEntity
  8
RACCORDO
100
AcDbLine
 62
250
  6
CONTINUOUS
 10
-55.1904911243
 20
62.331158474
 11
-55.1714465291
 21
62.2344389519
  0
LINE
  5
3A4
100
AcDbEntity
  8
RACCORDO
100
AcDbLine
 62
250
  6
CONTINUOUS
 10
-55.7594833481
 20
64.0863216093
 11
-55.7571897681
 21
64.0746398105
  0
LINE
  5
3A5
100
AcDbEntity
  8
RACCORDO
100
AcDbLine
 62
250
  6
CONTINUOUS
 10
-55.1714465291
 20
62.2344389519
 11
-55.1519716723
 21
62.1340623525
  0
LINE
  5
3A6
100
AcDbEntity
  8
RACCORDO
100
AcDbLine
 62
250
  6
CONTINUOUS
 10
-55.1519716723
 20
62.1340623525
 11
-55.1320763428
 21
62.0300728568
  0
LINE
  5
3A7
100
AcDbEntity
  8
RACCORDO
100
AcDbLine
 62
250
  6
CONTINUOUS
 10
-55.7571897681
 20
64.0746398105
 11
-55.7548484249
 21
64.0624024764
  0
LINE
  5
3A8
100
AcDbEntity
  8
RACCORDO
100
AcDbLine
 62
250
  6
CONTINUOUS
 10
-55.1320763428
 20
62.0300728568
 11
-55.111787799
 21
61.9225573226
  0
LINE
  5
3A9
100
AcDbEntity
  8
RACCORDO
100
AcDbLine
 62
250
  6
CONTINUOUS
 10
-55.111787799
 20
61.9225573226
 11
-55.0911382396
 21
61.8116451732
  0
LINE
  5
3AA
100
AcDbEntity
  8
RACCORDO
100
AcDbLine
 62
250
  6
CONTINUOUS
 10
-55.7548484249
 20
64.0624024764
 11
-55.7524589527
 21
64.0495813851
  0
LINE
  5
3AB
100
AcDbEntity
  8
RACCORDO
100
AcDbLine
 62
250
  6
CONTINUOUS
 10
-55.0911382396
 20
61.8116451732
 11
-55.0701450492
 21
61.6974421995
  0
LINE
  5
3AC
100
AcDbEntity
  8
RACCORDO
100
AcDbLine
 62
250
  6
CONTINUOUS
 10
-55.0701450492
 20
61.6974421995
 11
-55.0488465901
 21
61.5801231503
  0
LINE
  5
3AD
100
AcDbEntity
  8
RACCORDO
100
AcDbLine
 62
250
  6
CONTINUOUS
 10
-55.7524589527
 20
64.0495813851
 11
-55.7500200313
 21
64.0361400111
  0
LINE
  5
3AE
100
AcDbEntity
  8
RACCORDO
100
AcDbLine
 62
250
  6
CONTINUOUS
 10
-55.0488465901
 20
61.5801231503
 11
-55.0272846689
 21
61.4599018468
  0
LINE
  5
3AF
100
AcDbEntity
  8
RACCORDO
100
AcDbLine
 62
250
  6
CONTINUOUS
 10
-55.0272846689
 20
61.4599018468
 11
-55.0054828417
 21
61.3369370793
  0
LINE
  5
3B0
100
AcDbEntity
  8
RACCORDO
100
AcDbLine
 62
250
  6
CONTINUOUS
 10
-55.7500200313
 20
64.0361400111
 11
-55.7475307299
 21
64.0220552563
  0
LINE
  5
3B1
100
AcDbEntity
  8
RACCORDO
100
AcDbLine
 62
250
  6
CONTINUOUS
 10
-55.0054828417
 20
61.3369370793
 11
-54.9834884518
 21
61.2114817199
  0
LINE
  5
3B2
100
AcDbEntity
  8
RACCORDO
100
AcDbLine
 62
250
  6
CONTINUOUS
 10
-54.9834884518
 20
61.2114817199
 11
-54.9613477707
 21
61.0838033813
  0
LINE
  5
3B3
100
AcDbEntity
  8
RACCORDO
100
AcDbLine
 62
250
  6
CONTINUOUS
 10
-54.9613477707
 20
61.0838033813
 11
-54.9390875183
 21
60.954091056
  0
LINE
  5
3B4
100
AcDbEntity
  8
RACCORDO
100
AcDbLine
 62
250
  6
CONTINUOUS
 10
-55.7475307299
 20
64.0220552563
 11
-55.7449904577
 21
64.0072927816
  0
LINE
  5
3B5
100
AcDbEntity
  8
RACCORDO
100
AcDbLine
 62
250
  6
CONTINUOUS
 10
-54.9390875183
 20
60.954091056
 11
-54.9055819381
 21
60.7563490238
  0
LINE
  5
3B6
100
AcDbEntity
  8
RACCORDO
100
AcDbLine
 62
250
  6
CONTINUOUS
 10
-54.9055819381
 20
60.7563490238
 11
-54.8720551807
 21
60.5555533444
  0
LINE
  5
3B7
100
AcDbEntity
  8
RACCORDO
100
AcDbLine
 62
250
  6
CONTINUOUS
 10
-55.7449904577
 20
64.0072927816
 11
-55.7410830338
 21
63.9838028865
  0
LINE
  5
3B8
100
AcDbEntity
  8
RACCORDO
100
AcDbLine
 62
250
  6
CONTINUOUS
 10
-54.8720551807
 20
60.5555533444
 11
-54.8386442372
 21
60.3525864955
  0
LINE
  5
3B9
100
AcDbEntity
  8
RACCORDO
100
AcDbLine
 62
250
  6
CONTINUOUS
 10
-54.8386442372
 20
60.3525864955
 11
-54.8054761394
 21
60.1482785252
  0
LINE
  5
3BA
100
AcDbEntity
  8
RACCORDO
100
AcDbLine
 62
250
  6
CONTINUOUS
 10
-54.8054761394
 20
60.1482785252
 11
-54.7726753718
 21
59.9434463664
  0
LINE
  5
3BB
100
AcDbEntity
  8
RACCORDO
100
AcDbLine
 62
250
  6
CONTINUOUS
 10
-55.7410830338
 20
63.9838028865
 11
-55.7370509622
 21
63.9585553927
  0
LINE
  5
3BC
100
AcDbEntity
  8
RACCORDO
100
AcDbLine
 62
250
  6
CONTINUOUS
 10
-54.7726753718
 20
59.9434463664
 11
-54.7403558192
 21
59.7388401697
  0
LINE
  5
3BD
100
AcDbEntity
  8
RACCORDO
100
AcDbLine
 62
250
  6
CONTINUOUS
 10
-54.7403558192
 20
59.7388401697
 11
-54.7086232722
 21
59.5351553207
  0
LINE
  5
3BE
100
AcDbEntity
  8
RACCORDO
100
AcDbLine
 62
250
  6
CONTINUOUS
 10
-54.7086232722
 20
59.5351553207
 11
-54.6775753917
 21
59.3330304867
  0
LINE
  5
3BF
100
AcDbEntity
  8
RACCORDO
100
AcDbLine
 62
250
  6
CONTINUOUS
 10
-55.7370509622
 20
63.9585553927
 11
-55.7328786184
 21
63.9313297312
  0
LINE
  5
3C0
100
AcDbEntity
  8
RACCORDO
100
AcDbLine
 62
250
  6
CONTINUOUS
 10
-54.6775753917
 20
59.3330304867
 11
-54.6473009918
 21
59.1330422233
  0
LINE
  5
3C1
100
AcDbEntity
  8
RACCORDO
100
AcDbLine
 62
250
  6
CONTINUOUS
 10
-54.6473009918
 20
59.1330422233
 11
-54.6178806422
 21
58.9357089136
  0
LINE
  5
3C2
100
AcDbEntity
  8
RACCORDO
100
AcDbLine
 62
250
  6
CONTINUOUS
 10
-54.6178806422
 20
58.9357089136
 11
-54.5893869184
 21
58.741493216
  0
LINE
  5
3C3
100
AcDbEntity
  8
RACCORDO
100
AcDbLine
 62
250
  6
CONTINUOUS
 10
-55.7328786184
 20
63.9313297312
 11
-55.7285510494
 21
63.9018850592
  0
LINE
  5
3C4
100
AcDbEntity
  8
RACCORDO
100
AcDbLine
 62
250
  6
CONTINUOUS
 10
-54.5893869184
 20
58.741493216
 11
-54.5618847318
 21
58.5508056013
  0
LINE
  5
3C5
100
AcDbEntity
  8
RACCORDO
100
AcDbLine
 62
250
  6
CONTINUOUS
 10
-54.5618847318
 20
58.5508056013
 11
-54.5354305428
 21
58.3640003469
  0
LINE
  5
3C6
100
AcDbEntity
  8
RACCORDO
100
AcDbLine
 62
250
  6
CONTINUOUS
 10
-55.7285510494
 20
63.9018850592
 11
-55.7240647044
 21
63.8700364278
  0
LINE
  5
3C7
100
AcDbEntity
  8
RACCORDO
100
AcDbLine
 62
250
  6
CONTINUOUS
 10
-54.5354305428
 20
58.3640003469
 11
-54.5184015812
 21
58.2417736352
  0
LINE
  5
3C8
100
AcDbEntity
  8
RACCORDO
100
AcDbLine
 62
250
  6
CONTINUOUS
 10
-54.5184015812
 20
58.2417736352
 11
-54.5018737851
 21
58.1215028012
  0
LWPOLYLINE
  5
3C9
100
AcDbEntity
  8
RACCORDO
100
AcDbPolyline
 62
250
  6
CONTINUOUS
 90
48
 70
0
 10
-54.4478880785
 20
57.7170230065
 10
-54.4327121516
 20
57.6044550144
 10
-54.4172900894
 20
57.4920774397
 10
-54.401621931
 20
57.3798906158
 10
-54.3857077442
 20
57.2678950563
 10
-54.3695476273
 20
57.1560914545
 10
-54.353141656
 20
57.044480353
 10
-54.3364898714
 20
56.9330620482
 10
-54.3195923219
 20
56.8218368611
 10
-54.3024490602
 20
56.7108051648
 10
-54.2850601537
 20
56.5999674225
 10
-54.2674256744
 20
56.4893240893
 10
-54.2495456874
 20
56.3788755976
 10
-54.2314202537
 20
56.2686223462
 10
-54.2130494403
 20
56.1585647385
 10
-54.1944333112
 20
56.0487031822
 10
-54.1755719337
 20
55.9390380966
 10
-54.1564653807
 20
55.8295699013
 10
-54.1371137208
 20
55.7202990122
 10
-54.117517022
 20
55.6112258357
 10
-54.0976753582
 20
55.5023507769
 10
-54.0775887997
 20
55.393674246
 10
-54.0572574181
 20
55.2851966506
 10
-54.036681289
 20
55.1769183907
 10
-54.0158604853
 20
55.0688398709
 10
-53.9947950812
 20
54.9609615
 10
-53.973485157
 20
54.8532836832
 10
-53.9519307878
 20
54.7458068225
 10
-53.9301320509
 20
54.6385313248
 10
-53.9080890309
 20
54.5314576013
 10
-53.8858018064
 20
54.4245860554
 10
-53.8632704565
 20
54.3179170879
 10
-53.8404950685
 20
54.2114511051
 10
-53.8174757233
 20
54.1051885071
 10
-53.7942125031
 20
53.9991296934
 10
-53.7707054978
 20
53.8932750679
 10
-53.7469547911
 20
53.7876250287
 10
-53.7229604679
 20
53.6821799725
 10
-53.698722621
 20
53.5769403011
 10
-53.6742413367
 20
53.4719064097
 10
-53.6495167025
 20
53.367078693
 10
-53.6245488142
 20
53.26245755
 10
-53.5993377606
 20
53.1580433735
 10
-53.573883632
 20
53.053836556
 10
-53.5481865271
 20
52.9498374948
 10
-53.5222465403
 20
52.8460465825
 10
-53.4960637616
 20
52.7424642069
 10
-53.4696382845
 20
52.639090757
  0
LINE
  5
3CA
100
AcDbEntity
  8
RACCORDO
100
AcDbLine
 62
250
  6
CONTINUOUS
 10
-54.5018737851
 20
58.1215028012
 11
-54.4858580817
 21
58.0032410258
  0
LINE
  5
3CB
100
AcDbEntity
  8
RACCORDO
100
AcDbLine
 62
250
  6
CONTINUOUS
 10
-55.7240647044
 20
63.8700364278
 11
-55.7194363943
 21
63.8357393404
  0
LWPOLYLINE
  5
3CC
100
AcDbEntity
  8
RACCORDO
100
AcDbPolyline
 62
250
  6
CONTINUOUS
 90
3
 70
0
 10
-54.4858580817
 20
58.0032410258
 10
-54.4703652781
 20
57.8870815768
 10
-54.4478880785
 20
57.7170230065
  0
LWPOLYLINE
  5
3CD
100
AcDbEntity
  8
RACCORDO
100
AcDbPolyline
 62
250
  6
CONTINUOUS
 90
49
 70
0
 10
-55.4318574583
 20
57.7867873459
 10
-55.4168154415
 20
57.6731544347
 10
-55.4015254698
 20
57.5597138957
 10
-55.3859875431
 20
57.4464657289
 10
-55.3702015898
 20
57.3334094184
 10
-55.3541676816
 20
57.22054548
 10
-55.3378860336
 20
57.107875462
 10
-55.3213566604
 20
56.9953994911
 10
-55.3045795475
 20
56.8831174406
 10
-55.2875548664
 20
56.7710304783
 10
-55.2702826076
 20
56.6591385605
 10
-55.2527627807
 20
56.5474417308
 10
-55.2349955857
 20
56.4359412882
 10
-55.2169810223
 20
56.3246372513
 10
-55.1987190907
 20
56.2135296014
 10
-55.1802099917
 20
56.1026195804
 10
-55.1614537215
 20
55.9919071843
 10
-55.1424502838
 20
55.8813924171
 10
-55.1231998906
 20
55.7710765326
 10
-55.10370254
 20
55.6609595374
 10
-55.0839582339
 20
55.551041425
 10
-55.0639671904
 20
55.4413234297
 10
-55.0437294069
 20
55.3318055547
 10
-55.0232448861
 20
55.2224877968
 10
-55.0025138533
 20
55.1133713809
 10
-54.9815363056
 20
55.0044563066
 10
-54.9603122459
 20
54.8957425744
 10
-54.9388419095
 20
54.7872314095
 10
-54.917125293
 20
54.6789228116
 10
-54.8951623997
 20
54.5708167812
 10
-54.8729534746
 20
54.4629145451
 10
-54.8504985153
 20
54.3552161067
 10
-54.8277975242
 20
54.2477214626
 10
-54.8048507542
 20
54.1404318301
 10
-54.7816582026
 20
54.0333472115
 10
-54.7582198722
 20
53.9264676044
 10
-54.734536024
 20
53.8197942191
 10
-54.7106066555
 20
53.713327058
 10
-54.6864317694
 20
53.6070661187
 10
-54.662011635
 20
53.501012604
 10
-54.6373462497
 20
53.3951665162
 10
-54.6124356162
 20
53.289527853
 10
-54.5872800122
 20
53.1840978098
 10
-54.5618794349
 20
53.078876389
 10
-54.536233887
 20
52.9738635882
 10
-54.5103436546
 20
52.8690605956
 10
-54.4842088328
 20
52.7644678071
 10
-54.4578293264
 20
52.6600848268
 10
-54.4312051354
 20
52.5559116546
  0
LINE
  5
3CE
100
AcDbEntity
  8
RACCORDO
100
AcDbLine
 62
250
  6
CONTINUOUS
 10
-55.7194363943
 20
63.8357393404
 11
-55.714674786
 21
63.7988934474
  0
LINE
  5
3CF
100
AcDbEntity
  8
RACCORDO
100
AcDbLine
 62
250
  6
CONTINUOUS
 10
-55.714674786
 20
63.7988934474
 11
-55.7097636771
 21
63.7591941496
  0
LINE
  5
3D0
100
AcDbEntity
  8
RACCORDO
100
AcDbLine
 62
250
  6
CONTINUOUS
 10
-55.7097636771
 20
63.7591941496
 11
-55.7046828708
 21
63.7162699145
  0
LINE
  5
3D1
100
AcDbEntity
  8
RACCORDO
100
AcDbLine
 62
250
  6
CONTINUOUS
 10
-55.7046828708
 20
63.7162699145
 11
-55.6994193389
 21
63.6697691694
  0
LWPOLYLINE
  5
3D2
100
AcDbEntity
  8
RACCORDO
100
AcDbPolyline
 62
250
  6
CONTINUOUS
 90
70
 70
0
 10
-55.4318574534
 20
13.3240631243
 10
-55.4204196226
 20
13.3301598907
 10
-55.4087508586
 20
13.3360742252
 10
-55.3968569443
 20
13.3418031965
 10
-55.3847437746
 20
13.3473439655
 10
-55.3724173528
 20
13.3526937859
 10
-55.3598837879
 20
13.3578500065
 10
-55.3471492917
 20
13.3628100717
 10
-55.3342201754
 20
13.3675715234
 10
-55.3211028468
 20
13.3721320016
 10
-55.307803807
 20
13.3764892463
 10
-55.294329647
 20
13.3806410979
 10
-55.2806870447
 20
13.3845854988
 10
-55.2668827615
 20
13.3883204941
 10
-55.2529236389
 20
13.3918442326
 10
-55.238816595
 20
13.395154968
 10
-55.2245686215
 20
13.3982510596
 10
-55.2101867797
 20
13.4011309728
 10
-55.1956781974
 20
13.4037932803
 10
-55.1810500651
 20
13.4062366627
 10
-55.1663096326
 20
13.408459909
 10
-55.1514642053
 20
13.4104619173
 10
-55.1365211408
 20
13.4122416956
 10
-55.121487845
 20
13.4137983616
 10
-55.1063717683
 20
13.415131144
 10
-55.0911804025
 20
13.416239382
 10
-55.0759212765
 20
13.4171225266
 10
-55.0606019528
 20
13.4177801401
 10
-55.0452300238
 20
13.4182118964
 10
-55.0298131079
 20
13.4184175816
 10
-55.0143588457
 20
13.4183970939
 10
-54.9988748967
 20
13.4181504432
 10
-54.9833689346
 20
13.4176777519
 10
-54.9678486444
 20
13.4169792543
 10
-54.952321718
 20
13.4160552965
 10
-54.9367958506
 20
13.4149063365
 10
-54.921278737
 20
13.4135329436
 10
-54.9057780675
 20
13.4119357986
 10
-54.8903015245
 20
13.4101156929
 10
-54.8748567781
 20
13.4080735287
 10
-54.8594514829
 20
13.4058103181
 10
-54.8440932738
 20
13.4033271827
 10
-54.8287897625
 20
13.4006253532
 10
-54.8135485334
 20
13.3977061686
 10
-54.7983771403
 20
13.3945710756
 10
-54.7832831022
 20
13.3912216282
 10
-54.7682738998
 20
13.3876594862
 10
-54.7533569717
 20
13.3838864151
 10
-54.7385397109
 20
13.3799042849
 10
-54.7238294608
 20
13.375715069
 10
-54.7092335121
 20
13.3713208438
 10
-54.6947590985
 20
13.366723787
 10
-54.6804133936
 20
13.361926177
 10
-54.6662035073
 20
13.3569303915
 10
-54.6521364821
 20
13.3517389064
 10
-54.6382192897
 20
13.3463542946
 10
-54.6244588276
 20
13.3407792249
 10
-54.6108619154
 20
13.3350164602
 10
-54.597435292
 20
13.3290688566
 10
-54.5841856117
 20
13.3229393618
 10
-54.571119441
 20
13.3166310136
 10
-54.5582432557
 20
13.3101469385
 10
-54.5455634373
 20
13.30349035
 10
-54.53308627
 20
13.2966645471
 10
-54.5208179375
 20
13.2896729128
 10
-54.5087645202
 20
13.2825189122
 10
-54.4969319917
 20
13.2752060908
 10
-54.4853262163
 20
13.2677380729
 10
-54.473952946
 20
13.2601185597
 10
-54.4628178174
 20
13.2523513276
  0
LWPOLYLINE
  5
3D3
100
AcDbEntity
  8
RACCORDO
100
AcDbPolyline
 62
250
  6
CONTINUOUS
 90
69
 70
0
 10
-54.4312051354
 20
19.8745745693
 10
-54.4199355389
 20
19.8795469217
 10
-54.4084347699
 20
19.8843372768
 10
-54.3967085323
 20
19.8889432588
 10
-54.3847626416
 20
19.8933625833
 10
-54.3726030223
 20
19.8975930586
 10
-54.360235705
 20
19.9016325867
 10
-54.3476668232
 20
19.9054791641
 10
-54.3349026104
 20
19.9091308831
 10
-54.3219493969
 20
19.9125859327
 10
-54.3088136068
 20
19.9158425994
 10
-54.2955017548
 20
19.9188992679
 10
-54.2820204428
 20
19.9217544225
 10
-54.2683763569
 20
19.9244066471
 10
-54.2545762638
 20
19.9268546263
 10
-54.2406270075
 20
19.929097146
 10
-54.2265355062
 20
19.9311330941
 10
-54.2123087485
 20
19.9329614609
 10
-54.1979537901
 20
19.9345813396
 10
-54.1834777503
 20
19.9359919268
 10
-54.1688878084
 20
19.937192523
 10
-54.1541912002
 20
19.9381825327
 10
-54.1393952145
 20
19.9389614649
 10
-54.1245071894
 20
19.9395289333
 10
-54.1095345083
 20
19.9398846565
 10
-54.0944845971
 20
19.940028458
 10
-54.0793649196
 20
19.9399602666
 10
-54.0641829743
 20
19.9396801161
 10
-54.0489462908
 20
19.9391881453
 10
-54.0336624256
 20
19.9384845984
 10
-54.0183389587
 20
19.9375698242
 10
-54.0029834896
 20
19.9364442764
 10
-53.9876036339
 20
19.9351085131
 10
-53.9722070191
 20
19.933563197
 10
-53.9568012812
 20
19.9318090943
 10
-53.9413940606
 20
19.929847075
 10
-53.9259929983
 20
19.9276781122
 10
-53.9106057326
 20
19.9253032815
 10
-53.8952398946
 20
19.9227237608
 10
-53.8799031051
 20
19.9199408293
 10
-53.8646029701
 20
19.9169558673
 10
-53.8493470778
 20
19.9137703551
 10
-53.8341429943
 20
19.9103858725
 10
-53.8189982599
 20
19.906804098
 10
-53.8039203857
 20
19.9030268082
 10
-53.7889168495
 20
19.8990558762
 10
-53.7739950922
 20
19.8948932714
 10
-53.7591625141
 20
19.8905410583
 10
-53.7444264716
 20
19.8860013953
 10
-53.7297942727
 20
19.881276534
 10
-53.7152731744
 20
19.8763688174
 10
-53.7008703783
 20
19.8712806796
 10
-53.6865930274
 20
19.8660146441
 10
-53.6724482026
 20
19.8605733225
 10
-53.6584429188
 20
19.8549594135
 10
-53.644584122
 20
19.8491757011
 10
-53.6308786854
 20
19.8432250539
 10
-53.6173334061
 20
19.837110423
 10
-53.6039550019
 20
19.8308348409
 10
-53.5907501077
 20
19.8244014201
 10
-53.5777252725
 20
19.817813351
 10
-53.5648869559
 20
19.8110739012
 10
-53.5522415249
 20
19.8041864129
 10
-53.5397952511
 20
19.797154302
 10
-53.5275543071
 20
19.7899810561
 10
-53.5155247637
 20
19.7826702326
 10
-53.5037125871
 20
19.7752254574
 10
-53.4921236353
 20
19.7676504227
 10
-53.480763656
 20
19.7599488852
  0
LWPOLYLINE
  5
3D4
100
AcDbEntity
  8
RACCORDO
100
AcDbPolyline
 62
250
  6
CONTINUOUS
 90
32
 70
0
 10
-53.4326114812
 20
21.2184002914
 10
-53.4367053222
 20
21.2166715117
 10
-53.4408108956
 20
21.2149115625
 10
-53.4449282014
 20
21.2131204439
 10
-53.4490574457
 20
21.2112981249
 10
-53.4531984224
 20
21.2094446364
 10
-53.4573505133
 20
21.2075600713
 10
-53.4615136436
 20
21.2056444588
 10
-53.4656878881
 20
21.2036977698
 10
-53.4698728523
 20
21.2017200093
 10
-53.4740685424
 20
21.1997111724
 10
-53.4782749524
 20
21.1976712642
 10
-53.4824916694
 20
21.1956003049
 10
-53.4867187095
 20
21.193498284
 10
-53.4909560567
 20
21.1913652121
 10
-53.4952032509
 20
21.1892011414
 10
-53.4994602859
 20
21.1870060721
 10
-53.5037271679
 20
21.184780004
 10
-53.5080034561
 20
21.1825229882
 10
-53.5122891577
 20
21.1802350181
 10
-53.5165842654
 20
21.1779161004
 10
-53.5208883164
 20
21.1755663065
 10
-53.5252013117
 20
21.1731856327
 10
-53.5295232503
 20
21.1707740827
 10
-53.5338536653
 20
21.1683317388
 10
-53.5381925599
 20
21.1658585964
 10
-53.542539931
 20
21.1633546602
 10
-53.5468953022
 20
21.1608200271
 10
-53.5512586761
 20
21.1582546923
 10
-53.5556300502
 20
21.1556586606
 10
-53.5600089403
 20
21.1530320424
 10
-53.568789274
 20
21.1476870373
  0
LINE
  5
3D5
100
AcDbEntity
  8
RACCORDO
100
AcDbLine
 62
250
  6
CONTINUOUS
 10
-53.4168869693
 20
21.2249196423
 11
-53.4326114812
 21
21.2184002914
  0
LINE
  5
3D6
100
AcDbEntity
  8
RACCORDO
100
AcDbLine
 62
250
  6
CONTINUOUS
 10
-53.4010079881
 20
21.231357318
 11
-53.4168869693
 21
21.2249196423
  0
LINE
  5
3D7
100
AcDbEntity
  8
RACCORDO
100
AcDbLine
 62
250
  6
CONTINUOUS
 10
-53.3849725118
 20
21.2377130032
 11
-53.4010079881
 21
21.231357318
  0
LINE
  5
3D8
100
AcDbEntity
  8
RACCORDO
100
AcDbLine
 62
250
  6
CONTINUOUS
 10
-53.368773833
 20
21.24398569
 11
-53.3849725118
 21
21.2377130032
  0
LINE
  5
3D9
100
AcDbEntity
  8
RACCORDO
100
AcDbLine
 62
250
  6
CONTINUOUS
 10
-53.3524056593
 20
21.2501742162
 11
-53.368773833
 21
21.24398569
  0
LINE
  5
3DA
100
AcDbEntity
  8
RACCORDO
100
AcDbLine
 62
250
  6
CONTINUOUS
 10
-53.3358636913
 20
21.2562777722
 11
-53.3524056593
 21
21.2501742162
  0
LINE
  5
3DB
100
AcDbEntity
  8
RACCORDO
100
AcDbLine
 62
250
  6
CONTINUOUS
 10
-53.3191413871
 20
21.262295075
 11
-53.3358636913
 21
21.2562777722
  0
LINE
  5
3DC
100
AcDbEntity
  8
RACCORDO
100
AcDbLine
 62
250
  6
CONTINUOUS
 10
-53.302231586
 20
21.2682247041
 11
-53.3191413871
 21
21.262295075
  0
LINE
  5
3DD
100
AcDbEntity
  8
RACCORDO
100
AcDbLine
 62
250
  6
CONTINUOUS
 10
-53.285129353
 20
21.2740656824
 11
-53.302231586
 21
21.2682247041
  0
LINE
  5
3DE
100
AcDbEntity
  8
RACCORDO
100
AcDbLine
 62
250
  6
CONTINUOUS
 10
-53.2678270748
 20
21.279816501
 11
-53.285129353
 21
21.2740656824
  0
LINE
  5
3DF
100
AcDbEntity
  8
RACCORDO
100
AcDbLine
 62
250
  6
CONTINUOUS
 10
-53.2503163594
 20
21.2854754943
 11
-53.2678270748
 21
21.279816501
  0
LINE
  5
3E0
100
AcDbEntity
  8
RACCORDO
100
AcDbLine
 62
250
  6
CONTINUOUS
 10
-53.2325914137
 20
21.2910415145
 11
-53.2503163594
 21
21.2854754943
  0
LINE
  5
3E1
100
AcDbEntity
  8
RACCORDO
100
AcDbLine
 62
250
  6
CONTINUOUS
 10
-53.2146432986
 20
21.2965127863
 11
-53.2325914137
 21
21.2910415145
  0
LINE
  5
3E2
100
AcDbEntity
  8
RACCORDO
100
AcDbLine
 62
7
  6
CONTINUOUS
 10
-55.8293517435
 20
7.5146593768
 11
-55.835488184
 21
7.5232663433
  0
LINE
  5
3E3
100
AcDbEntity
  8
RACCORDO
100
AcDbLine
 62
7
  6
CONTINUOUS
 10
-55.835488184
 20
7.5232663433
 11
-55.8415696325
 21
7.5319236884
  0
LINE
  5
3E4
100
AcDbEntity
  8
RACCORDO
100
AcDbLine
 62
7
  6
CONTINUOUS
 10
-55.8415696325
 20
7.5319236884
 11
-55.847595999
 21
7.540630849
  0
LINE
  5
3E5
100
AcDbEntity
  8
RACCORDO
100
AcDbLine
 62
250
  6
CONTINUOUS
 10
-52.9252189971
 20
20.8855107891
 11
-52.9340760908
 21
20.9003845507
  0
LINE
  5
3E6
100
AcDbEntity
  8
RACCORDO
100
AcDbLine
 62
250
  6
CONTINUOUS
 10
-52.9922711663
 20
20.9999032308
 11
-53.0041307825
 21
21.0198121108
  0
LINE
  5
3E7
100
AcDbEntity
  8
RACCORDO
100
AcDbLine
 62
250
  6
CONTINUOUS
 10
-52.9802410931
 20
20.9794440569
 11
-52.9922711663
 21
20.9999032308
  0
LINE
  5
3E8
100
AcDbEntity
  8
RACCORDO
100
AcDbLine
 62
250
  6
CONTINUOUS
 10
-52.9340760908
 20
20.9003845507
 11
-52.9470436947
 21
20.922446672
  0
LWPOLYLINE
  5
3E9
100
AcDbEntity
  8
RACCORDO
100
AcDbPolyline
 62
250
  6
CONTINUOUS
 90
3
 70
0
 10
-52.9470436947
 20
20.922446672
 10
-52.9638590769
 20
20.9513264915
 10
-52.9802410931
 20
20.9794440569
  0
LINE
  5
3EA
100
AcDbEntity
  8
RACCORDO
100
AcDbLine
 62
250
  6
CONTINUOUS
 10
-55.5159397699
 20
63.7118653036
 11
-55.5066685797
 21
63.68103539
  0
LINE
  5
3EB
100
AcDbEntity
  8
RACCORDO
100
AcDbLine
 62
250
  6
CONTINUOUS
 10
-55.7922993808
 20
64.2219128254
 11
-55.7906367311
 21
64.2163833545
  0
LWPOLYLINE
  5
3EC
100
AcDbEntity
  8
RACCORDO
100
AcDbPolyline
 62
250
  6
CONTINUOUS
 90
3
 70
0
 10
-53.4326114812
 20
52.52900676
 10
-53.4347512242
 20
52.5362793401
 10
-53.4355303135
 20
52.5392362108
  0
LINE
  5
3ED
100
AcDbEntity
  8
RACCORDO
100
AcDbLine
 62
250
  6
CONTINUOUS
 10
-55.5066685797
 20
63.68103539
 11
-55.4970925214
 21
63.648583421
  0
LINE
  5
3EE
100
AcDbEntity
  8
RACCORDO
100
AcDbLine
 62
250
  6
CONTINUOUS
 10
-55.7906367311
 20
64.2163833545
 11
-55.7889456877
 21
64.2106199616
  0
LINE
  5
3EF
100
AcDbEntity
  8
RACCORDO
100
AcDbLine
 62
250
  6
CONTINUOUS
 10
-55.4970925214
 20
63.648583421
 11
-55.4872026588
 21
63.6144427162
  0
LINE
  5
3F0
100
AcDbEntity
  8
RACCORDO
100
AcDbLine
 62
250
  6
CONTINUOUS
 10
-55.7889456877
 20
64.2106199616
 11
-55.7872255466
 21
64.2046103544
  0
LINE
  5
3F1
100
AcDbEntity
  8
RACCORDO
100
AcDbLine
 62
250
  6
CONTINUOUS
 10
-55.4872026588
 20
63.6144427162
 11
-55.4769915672
 21
63.5785269685
  0
LINE
  5
3F2
100
AcDbEntity
  8
RACCORDO
100
AcDbLine
 62
250
  6
CONTINUOUS
 10
-55.4769915672
 20
63.5785269685
 11
-55.4664593485
 21
63.5407725818
  0
LINE
  5
3F3
100
AcDbEntity
  8
RACCORDO
100
AcDbLine
 62
250
  6
CONTINUOUS
 10
-55.7872255466
 20
64.2046103544
 11
-55.7854756312
 21
64.1983459269
  0
LINE
  5
3F4
100
AcDbEntity
  8
RACCORDO
100
AcDbLine
 62
250
  6
CONTINUOUS
 10
-55.4664593485
 20
63.5407725818
 11
-55.4556018576
 21
63.5011254061
  0
LINE
  5
3F5
100
AcDbEntity
  8
RACCORDO
100
AcDbLine
 62
250
  6
CONTINUOUS
 10
-55.7854756312
 20
64.1983459269
 11
-55.7836951501
 21
64.1918135179
  0
LWPOLYLINE
  5
3F6
100
AcDbEntity
  8
RACCORDO
100
AcDbPolyline
 62
250
  6
CONTINUOUS
 90
76
 70
0
 10
-53.4696382846
 20
52.639090757
 10
-53.46900501
 20
52.6367321539
 10
-53.4683554439
 20
52.6343897845
 10
-53.4676896632
 20
52.6320636699
 10
-53.4670076904
 20
52.6297537995
 10
-53.4663096578
 20
52.6274602229
 10
-53.4655958074
 20
52.6251830507
 10
-53.4648662177
 20
52.6229223015
 10
-53.4641209654
 20
52.6206779914
 10
-53.4633602882
 20
52.6184502264
 10
-53.4625842652
 20
52.6162390237
 10
-53.4617929726
 20
52.6140443967
 10
-53.4609866437
 20
52.611866445
 10
-53.460165357
 20
52.6097051827
 10
-53.4593291894
 20
52.6075606224
 10
-53.4584783707
 20
52.6054328615
 10
-53.4576129797
 20
52.6033219126
 10
-53.456733093
 20
52.6012277858
 10
-53.4558389364
 20
52.5991505744
 10
-53.4549305886
 20
52.5970902889
 10
-53.4540081263
 20
52.5950469376
 10
-53.4530717718
 20
52.5930206111
 10
-53.4521216036
 20
52.5910113179
 10
-53.4511576985
 20
52.5890190645
 10
-53.450180275
 20
52.5870439382
 10
-53.4491894117
 20
52.5850859457
 10
-53.4481851851
 20
52.5831450918
 10
-53.4471678105
 20
52.5812214609
 10
-53.4461373659
 20
52.5793150578
 10
-53.4450939282
 20
52.5774258858
 10
-53.4440377089
 20
52.5755540262
 10
-53.442968786
 20
52.5736994822
 10
-53.4418872362
 20
52.5718622554
 10
-53.4407932676
 20
52.5700424242
 10
-53.4396869581
 20
52.5682399905
 10
-53.4385683843
 20
52.5664549539
 10
-53.4374377506
 20
52.5646873903
 10
-53.4362951351
 20
52.5629372998
 10
-53.4351406138
 20
52.5612046805
 10
-53.4339743882
 20
52.5594896058
 10
-53.4327965359
 20
52.5577920741
 10
-53.4316071329
 20
52.5561120823
 10
-53.4304063776
 20
52.5544497013
 10
-53.4291943474
 20
52.5528049281
 10
-53.4279711181
 20
52.551177758
 10
-53.4267368851
 20
52.5495682598
 10
-53.4254917254
 20
52.547976429
 10
-53.4242357149
 20
52.5464022596
 10
-53.4229690456
 20
52.5448458178
 10
-53.4216917945
 20
52.5433070979
 10
-53.4204040371
 20
52.5417860923
 10
-53.4191059626
 20
52.5402828653
 10
-53.4177976476
 20
52.5387974095
 10
-53.4164791674
 20
52.5373297162
 10
-53.4151507083
 20
52.5358798473
 10
-53.4138123466
 20
52.5344477944
 10
-53.4124641573
 20
52.5330335471
 10
-53.4111063237
 20
52.5316371654
 10
-53.4097389218
 20
52.5302586393
 10
-53.4083620265
 20
52.5288979575
 10
-53.4069758182
 20
52.5275551777
 10
-53.4055803726
 20
52.5262302889
 10
-53.4041757644
 20
52.5249232783
 10
-53.4027621713
 20
52.5236342021
 10
-53.4013396689
 20
52.5223630479
 10
-53.3999083315
 20
52.5211098019
 10
-53.3984683343
 20
52.5198745183
 10
-53.3970197525
 20
52.5186571835
 10
-53.3955626601
 20
52.5174577824
 10
-53.3940972295
 20
52.5162763675
 10
-53.3926235358
 20
52.515112924
 10
-53.3911416526
 20
52.5139674356
 10
-53.3896517496
 20
52.5128399528
 10
-53.3881539016
 20
52.5117304598
 10
-53.3866481819
 20
52.5106389393
 10
-53.3856827982
 20
52.5099514689
  0
LINE
  5
3F7
100
AcDbEntity
  8
RACCORDO
100
AcDbLine
 62
250
  6
CONTINUOUS
 10
-55.4556018576
 20
63.5011254061
 11
-55.4444145484
 21
63.4595060145
  0
LINE
  5
3F8
100
AcDbEntity
  8
RACCORDO
100
AcDbLine
 62
250
  6
CONTINUOUS
 10
-55.7836951501
 20
64.1918135179
 11
-55.781882315
 21
64.1849947131
  0
LINE
  5
3F9
100
AcDbEntity
  8
RACCORDO
100
AcDbLine
 62
250
  6
CONTINUOUS
 10
-55.4444145484
 20
63.4595060145
 11
-55.4328635688
 21
63.4157150287
  0
LWPOLYLINE
  5
3FA
100
AcDbEntity
  8
RACCORDO
100
AcDbPolyline
 62
250
  6
CONTINUOUS
 90
200
 70
0
 10
-54.4312051354
 20
52.5559116546
 10
-54.4299807986
 20
52.5512238433
 10
-54.4287265089
 20
52.5465695144
 10
-54.4274422664
 20
52.541948668
 10
-54.4261279714
 20
52.5373612407
 10
-54.4247837235
 20
52.5328072959
 10
-54.423409822
 20
52.5282870237
 10
-54.4220062653
 20
52.5238004268
 10
-54.420573055
 20
52.5193475026
 10
-54.4191104949
 20
52.5149284331
 10
-54.4176185838
 20
52.510543222
 10
-54.416097323
 20
52.5061918657
 10
-54.4145470197
 20
52.501874536
 10
-54.412967672
 20
52.4975912339
 10
-54.4113592818
 20
52.4933419583
 10
-54.4097221627
 20
52.4891268781
 10
-54.408056313
 20
52.4849459954
 10
-54.4063617344
 20
52.4807993081
 10
-54.4046387451
 20
52.4766869775
 10
-54.4028873432
 20
52.4726090055
 10
-54.4011075306
 20
52.4685653904
 10
-54.3992996312
 20
52.4645562881
 10
-54.3974636432
 20
52.4605817009
 10
-54.3955995683
 20
52.4566416266
 10
-54.3937077358
 20
52.452736215
 10
-54.3917881439
 20
52.4488654681
 10
-54.3898407944
 20
52.4450293839
 10
-54.3878660221
 20
52.4412281058
 10
-54.3858638252
 20
52.4374616361
 10
-54.3838342054
 20
52.4337299725
 10
-54.3817775032
 20
52.4300332519
 10
-54.3796937167
 20
52.4263714766
 10
-54.3775828477
 20
52.4227446442
 10
-54.3754452422
 20
52.4191528848
 10
-54.3732808983
 20
52.4155962009
 10
-54.3710898179
 20
52.4120745899
 10
-54.3688723524
 20
52.4085881747
 10
-54.3666284998
 20
52.4051369577
 10
-54.3643582622
 20
52.4017209366
 10
-54.3620619966
 20
52.3983402269
 10
-54.359739701
 20
52.3949948311
 10
-54.3573913775
 20
52.3916847468
 10
-54.3550173891
 20
52.3884100828
 10
-54.3526177339
 20
52.3851708416
 10
-54.3501924139
 20
52.3819670207
 10
-54.3477417981
 20
52.3787987215
 10
-54.3452658848
 20
52.3756659468
 10
-54.3427646756
 20
52.3725686939
 10
-54.3402385457
 20
52.3695070564
 10
-54.3376874929
 20
52.3664810371
 10
-54.3351115193
 20
52.3634906333
 10
-54.3325110055
 20
52.3605359308
 10
-54.3298859496
 20
52.3576169322
 10
-54.3272363536
 20
52.354733635
 10
-54.3245626038
 20
52.3518861166
 10
-54.3218646984
 20
52.3490743801
 10
-54.3191426394
 20
52.3462984224
 10
-54.3163968186
 20
52.3435583128
 10
-54.3136272342
 20
52.340854054
 10
-54.3108338881
 20
52.3381856433
 10
-54.3080171782
 20
52.3355531415
 10
-54.3051771024
 20
52.3329565513
 10
-54.3023136628
 20
52.33039587
 10
-54.2994272636
 20
52.3278711501
 10
-54.2965179027
 20
52.3253823945
 10
-54.293585582
 20
52.3229296004
 10
-54.2906307116
 20
52.3205128115
 10
-54.2876532894
 20
52.3181320309
 10
-54.2846533175
 20
52.3157872555
 10
-54.2816312112
 20
52.3134785201
 10
-54.2785869688
 20
52.3112058278
 10
-54.275520592
 20
52.3089691754
 10
-54.2724325018
 20
52.3067685885
 10
-54.2693226965
 20
52.3046040702
 10
-54.2661911778
 20
52.3024756173
 10
-54.263038372
 20
52.3003832459
 10
-54.2598642775
 20
52.2983269594
 10
-54.2566688959
 20
52.2963067543
 10
-54.2534526584
 20
52.294322637
 10
-54.2502155628
 20
52.2923746105
 10
-54.2469576112
 20
52.2904626718
 10
-54.2436792413
 20
52.2885868184
 10
-54.2403804509
 20
52.2867470532
 10
-54.2370612423
 20
52.2849433733
 10
-54.23372206
 20
52.2831757672
 10
-54.2303629024
 20
52.2814442382
 10
-54.2269837711
 20
52.2797487831
 10
-54.2235851155
 20
52.2780893802
 10
-54.220166934
 20
52.2764660328
 10
-54.2167292282
 20
52.2748787375
 10
-54.2132724523
 20
52.2733274625
 10
-54.2097966046
 20
52.2718122113
 10
-54.2063016868
 20
52.2703329803
 10
-54.2027881579
 20
52.2688897276
 10
-54.1992560163
 20
52.2674824566
 10
-54.1957052636
 20
52.2661111639
 10
-54.1921363634
 20
52.2647757971
 10
-54.1885493145
 20
52.2634763598
 10
-54.1849441181
 20
52.2622128485
 10
-54.1813212417
 20
52.2609852002
 10
-54.1776806833
 20
52.2597934183
 10
-54.1740224449
 20
52.2586374994
 10
-54.1703470001
 20
52.257517371
 10
-54.1666543466
 20
52.2564330362
 10
-54.1629444867
 20
52.2553844919
 10
-54.1592179012
 20
52.2543716555
 10
-54.1554745887
 20
52.2533945306
 10
-54.1517145504
 20
52.2524531136
 10
-54.1479382714
 20
52.2515473114
 10
-54.1441457503
 20
52.2506771275
 10
-54.1403369884
 20
52.2498425584
 10
-54.136512474
 20
52.2490435
 10
-54.1326722061
 20
52.2482799558
 10
-54.1288161857
 20
52.2475519222
 10
-54.1249449053
 20
52.2468592846
 10
-54.1210583635
 20
52.2462020464
 10
-54.1171565616
 20
52.245580204
 10
-54.1132399956
 20
52.244993632
 10
-54.1093086648
 20
52.244442334
 10
-54.1053625699
 20
52.2439263062
 10
-54.1014022091
 20
52.2434454124
 10
-54.0974275805
 20
52.242999656
 10
-54.0934386862
 20
52.2425890335
 10
-54.08943603
 20
52.242213398
 10
-54.0854196093
 20
52.241872753
 10
-54.0813894268
 20
52.2415670951
 10
-54.0773459949
 20
52.2412962668
 10
-54.0732893128
 20
52.2410602718
 10
-54.0692193813
 20
52.2408591064
 10
-54.065136716
 20
52.2406926021
 10
-54.0610413166
 20
52.2405607627
 10
-54.0569331833
 20
52.2404635844
 10
-54.052812832
 20
52.2404008876
 10
-54.0486802619
 20
52.240372676
 10
-54.0445354737
 20
52.2403789458
 10
-54.0403789861
 20
52.2404195068
 10
-54.0362107985
 20
52.2404943623
 10
-54.0320309114
 20
52.240603509
 10
-54.0278398457
 20
52.2407467454
 10
-54.0236376009
 20
52.2409240751
 10
-54.0194241775
 20
52.2411354946
 10
-54.0152000972
 20
52.241380792
 10
-54.0109653592
 20
52.2416599708
 10
-54.0067199643
 20
52.2419730275
 10
-54.0024644363
 20
52.2423197395
 10
-53.9981987715
 20
52.2427001108
 10
-53.9939229736
 20
52.2431141374
 10
-53.9896375789
 20
52.2435615851
 10
-53.9853425855
 20
52.2440424576
 10
-53.9810379953
 20
52.2445567512
 10
-53.9767243495
 20
52.24510422
 10
-53.97240165
 20
52.2456848676
 10
-53.968069895
 20
52.2462986904
 10
-53.9637296206
 20
52.2469454326
 10
-53.9593808265
 20
52.2476250977
 10
-53.9550235129
 20
52.2483376823
 10
-53.9506582167
 20
52.2490829197
 10
-53.9462849377
 20
52.2498608136
 10
-53.941903676
 20
52.2506713604
 10
-53.9375149687
 20
52.2515142833
 10
-53.9331188158
 20
52.2523895858
 10
-53.9287152173
 20
52.2532972643
 10
-53.9243047109
 20
52.2542370319
 10
-53.9198872972
 20
52.2552088916
 10
-53.9154629756
 20
52.2562128402
 10
-53.911032281
 20
52.2572485813
 10
-53.9065952109
 20
52.2583161188
 10
-53.9021517678
 20
52.2594154487
 10
-53.897702494
 20
52.2605462626
 10
-53.8932473862
 20
52.2617085649
 10
-53.8887864476
 20
52.2629023512
 10
-53.8843202307
 20
52.2641273003
 10
-53.8798487362
 20
52.2653834153
 10
-53.8753719634
 20
52.2666706931
 10
-53.8708904622
 20
52.2679888024
 10
-53.8664042347
 20
52.2693377461
 10
-53.8619132789
 20
52.2707175214
 10
-53.8574181391
 20
52.2721277886
 10
-53.8529188154
 20
52.273568551
 10
-53.8484153076
 20
52.2750398052
 10
-53.8439081596
 20
52.2765412019
 10
-53.8393973718
 20
52.278072744
 10
-53.8348829438
 20
52.2796344286
 10
-53.8303654177
 20
52.2812258968
 10
-53.8258447944
 20
52.2828471514
 10
-53.821321073
 20
52.2844981896
 10
-53.8167947931
 20
52.2861786437
 10
-53.8122659558
 20
52.2878885165
 10
-53.80773456
 20
52.2896278052
 10
-53.8032011414
 20
52.291396134
 10
-53.798665691
 20
52.29319351
 10
-53.7941282179
 20
52.295019926
 10
-53.7895892846
 20
52.2968749857
 10
-53.7850488879
 20
52.2987586937
 10
-53.7805070311
 20
52.3006710453
 10
-53.7759642861
 20
52.3026116291
 10
-53.7714206607
 20
52.3045804453
 10
-53.7668761472
 20
52.3065774937
 10
-53.7623312939
 20
52.3086023625
 10
-53.757786104
 20
52.3106550536
  0
LWPOLYLINE
  5
3FB
100
AcDbEntity
  8
RACCORDO
100
AcDbPolyline
 62
250
  6
CONTINUOUS
 90
25
 70
0
 10
-53.757786104
 20
52.3106550536
 10
-53.7532405743
 20
52.312735565
 10
-53.7486952436
 20
52.3148434791
 10
-53.7441501126
 20
52.3169787991
 10
-53.7396051805
 20
52.3191415219
 10
-53.735060985
 20
52.321331221
 10
-53.7305175275
 20
52.3235478988
 10
-53.7259748065
 20
52.3257915528
 10
-53.7214333542
 20
52.3280617495
 10
-53.7168931721
 20
52.3303584913
 10
-53.7123542588
 20
52.3326817757
 10
-53.7078171426
 20
52.3350311617
 10
-53.7032818258
 20
52.3374066511
 10
-53.698748306
 20
52.3398082421
 10
-53.694217105
 20
52.3422354878
 10
-53.6896882257
 20
52.3446883896
 10
-53.6851616652
 20
52.347166946
 10
-53.6806379364
 20
52.349670706
 10
-53.6761170383
 20
52.3521996731
 10
-53.6715989719
 20
52.3547538436
 10
-53.6670842537
 20
52.3573327555
 10
-53.6625728819
 20
52.3599364128
 10
-53.6580648583
 20
52.3625648115
 10
-53.6535607055
 20
52.3652174764
 10
-53.6445640156
 20
52.3705956097
  0
LINE
  5
3FC
100
AcDbEntity
  8
RACCORDO
100
AcDbLine
 62
250
  6
CONTINUOUS
 10
-55.781882315
 20
64.1849947131
 11
-55.7800358613
 21
64.1778772228
  0
LINE
  5
3FD
100
AcDbEntity
  8
RACCORDO
100
AcDbLine
 62
250
  6
CONTINUOUS
 10
-55.4328635688
 20
63.4157150287
 11
-55.4209361283
 21
63.3696604837
  0
LINE
  5
3FE
100
AcDbEntity
  8
RACCORDO
100
AcDbLine
 62
250
  6
CONTINUOUS
 10
-55.4209361283
 20
63.3696604837
 11
-55.4086269648
 21
63.3212456989
  0
LINE
  5
3FF
100
AcDbEntity
  8
RACCORDO
100
AcDbLine
 62
250
  6
CONTINUOUS
 10
-55.7800358613
 20
64.1778772228
 11
-55.7781538859
 21
64.1704409612
  0
LINE
  5
400
100
AcDbEntity
  8
RACCORDO
100
AcDbLine
 62
250
  6
CONTINUOUS
 10
-55.4086269648
 20
63.3212456989
 11
-55.3894379319
 21
63.2440053202
  0
LINE
  5
401
100
AcDbEntity
  8
RACCORDO
100
AcDbLine
 62
250
  6
CONTINUOUS
 10
-55.7781538859
 20
64.1704409612
 11
-55.7762355609
 21
64.1626680231
  0
LINE
  5
402
100
AcDbEntity
  8
RACCORDO
100
AcDbLine
 62
250
  6
CONTINUOUS
 10
-55.3894379319
 20
63.2440053202
 11
-55.3761297136
 21
63.1891953362
  0
LINE
  5
403
100
AcDbEntity
  8
RACCORDO
100
AcDbLine
 62
250
  6
CONTINUOUS
 10
-55.7762355609
 20
64.1626680231
 11
-55.7742803685
 21
64.1545473373
  0
LINE
  5
404
100
AcDbEntity
  8
RACCORDO
100
AcDbLine
 62
250
  6
CONTINUOUS
 10
-55.3761297136
 20
63.1891953362
 11
-55.3623891277
 21
63.13158439
  0
LINE
  5
405
100
AcDbEntity
  8
RACCORDO
100
AcDbLine
 62
250
  6
CONTINUOUS
 10
-55.7742803685
 20
64.1545473373
 11
-55.7722884205
 21
64.1460641881
  0
LINE
  5
406
100
AcDbEntity
  8
RACCORDO
100
AcDbLine
 62
250
  6
CONTINUOUS
 10
-55.3623891277
 20
63.13158439
 11
-55.3482080611
 21
63.0710500923
  0
LINE
  5
407
100
AcDbEntity
  8
RACCORDO
100
AcDbLine
 62
250
  6
CONTINUOUS
 10
-55.3482080611
 20
63.0710500923
 11
-55.3335855344
 21
63.0074965703
  0
LINE
  5
408
100
AcDbEntity
  8
RACCORDO
100
AcDbLine
 62
250
  6
CONTINUOUS
 10
-55.7722884205
 20
64.1460641881
 11
-55.7702591326
 21
64.1371996364
  0
LINE
  5
409
100
AcDbEntity
  8
RACCORDO
100
AcDbLine
 62
250
  6
CONTINUOUS
 10
-55.3335855344
 20
63.0074965703
 11
-55.3185137345
 21
62.9408423846
  0
LINE
  5
40A
100
AcDbEntity
  8
RACCORDO
100
AcDbLine
 62
250
  6
CONTINUOUS
 10
-55.7702591326
 20
64.1371996364
 11
-55.768191259
 21
64.1279376923
  0
LINE
  5
40B
100
AcDbEntity
  8
RACCORDO
100
AcDbLine
 62
250
  6
CONTINUOUS
 10
-55.3185137345
 20
62.9408423846
 11
-55.3029776734
 21
62.8709327852
  0
LINE
  5
40C
100
AcDbEntity
  8
RACCORDO
100
AcDbLine
 62
250
  6
CONTINUOUS
 10
-55.3029776734
 20
62.8709327852
 11
-55.2869713004
 21
62.7976454028
  0
LINE
  5
40D
100
AcDbEntity
  8
RACCORDO
100
AcDbLine
 62
250
  6
CONTINUOUS
 10
-55.768191259
 20
64.1279376923
 11
-55.7660821148
 21
64.1182488571
  0
LINE
  5
40E
100
AcDbEntity
  8
RACCORDO
100
AcDbLine
 62
250
  6
CONTINUOUS
 10
-55.2869713004
 20
62.7976454028
 11
-55.2704900074
 21
62.72091719
  0
LINE
  5
40F
100
AcDbEntity
  8
RACCORDO
100
AcDbLine
 62
250
  6
CONTINUOUS
 10
-55.7660821148
 20
64.1182488571
 11
-55.7639287974
 21
64.1080985462
  0
LINE
  5
410
100
AcDbEntity
  8
RACCORDO
100
AcDbLine
 62
250
  6
CONTINUOUS
 10
-55.2704900074
 20
62.72091719
 11
-55.2535390333
 21
62.6406841789
  0
LINE
  5
411
100
AcDbEntity
  8
RACCORDO
100
AcDbLine
 62
250
  6
CONTINUOUS
 10
-55.2535390333
 20
62.6406841789
 11
-55.2361132427
 21
62.5568331842
  0
LINE
  5
412
100
AcDbEntity
  8
RACCORDO
100
AcDbLine
 62
250
  6
CONTINUOUS
 10
-55.7639287974
 20
64.1080985462
 11
-55.7617296948
 21
64.0974660831
  0
LWPOLYLINE
  5
413
100
AcDbEntity
  8
RACCORDO
100
AcDbPolyline
 62
250
  6
CONTINUOUS
 90
3
 70
0
 10
-55.2361132427
 20
62.5568331842
 10
-55.2182109768
 20
62.4693250135
 10
-55.2090862657
 20
62.4241887583
  0
LWPOLYLINE
  5
414
100
AcDbEntity
  8
RACCORDO
100
AcDbPolyline
 62
250
  6
CONTINUOUS
 90
70
 70
0
 10
66.1766972014
 20
-78.7456824852
 10
66.1878875734
 20
-78.7531133778
 10
66.199307596
 20
-78.7603458955
 10
66.2109517393
 20
-78.7673765232
 10
66.2228144055
 20
-78.774201865
 10
66.23488981
 20
-78.78081858
 10
66.2471719778
 20
-78.7872233915
 10
66.2596549224
 20
-78.7934131803
 10
66.272332621
 20
-78.7993849559
 10
66.2851988889
 20
-78.8051357994
 10
66.2982474701
 20
-78.8106629127
 10
66.3114720508
 20
-78.8159636251
 10
66.3248662267
 20
-78.8210353728
 10
66.3384235058
 20
-78.825875699
 10
66.3521373088
 20
-78.8304822529
 10
66.3660009822
 20
-78.8348527981
 10
66.380007801
 20
-78.8389852137
 10
66.394150973
 20
-78.8428774967
 10
66.4084236393
 20
-78.8465277601
 10
66.422818878
 20
-78.849934234
 10
66.4373297072
 20
-78.8530952658
 10
66.4519490891
 20
-78.8560093222
 10
66.466669933
 20
-78.8586749897
 10
66.4814850996
 20
-78.8610909755
 10
66.4963874036
 20
-78.8632561081
 10
66.5113696173
 20
-78.8651693374
 10
66.5264244744
 20
-78.8668297355
 10
66.5415446733
 20
-78.8682364969
 10
66.5567228807
 20
-78.8693889395
 10
66.5719517352
 20
-78.8702865042
 10
66.5872238508
 20
-78.8709287558
 10
66.6025318207
 20
-78.8713153828
 10
66.6178682204
 20
-78.8714461976
 10
66.6332256118
 20
-78.8713211368
 10
66.6485965466
 20
-78.8709402611
 10
66.66397357
 20
-78.8703037552
 10
66.6793492239
 20
-78.8694119275
 10
66.6947160513
 20
-78.8682652107
 10
66.7100665991
 20
-78.8668641609
 10
66.7253934225
 20
-78.8652094573
 10
66.7406890877
 20
-78.8633019025
 10
66.7559461766
 20
-78.8611424217
 10
66.7711572892
 20
-78.8587320622
 10
66.7863150484
 20
-78.8560719931
 10
66.8014121025
 20
-78.8531635045
 10
66.8164411296
 20
-78.8500080069
 10
66.8313948404
 20
-78.8466070306
 10
66.8462659826
 20
-78.8429622252
 10
66.8610473435
 20
-78.8390753586
 10
66.8757317544
 20
-78.8349483163
 10
66.8903120932
 20
-78.8305830995
 10
66.9047812884
 20
-78.8259818248
 10
66.9191323219
 20
-78.8211467229
 10
66.933358234
 20
-78.8160801398
 10
66.9474521257
 20
-78.8107845346
 10
66.9614071627
 20
-78.8052624778
 10
66.9752165755
 20
-78.7995166454
 10
66.988873664
 20
-78.7935498189
 10
67.0023718003
 20
-78.7873648869
 10
67.0157044422
 20
-78.7809648553
 10
67.0288651334
 20
-78.7743528397
 10
67.0418475063
 20
-78.7675320562
 10
67.0546452481
 20
-78.7605058011
 10
67.0672521152
 20
-78.7532774638
 10
67.0796620133
 20
-78.745850514
 10
67.0918689059
 20
-78.7382285949
 10
67.1038667854
 20
-78.730415506
 10
67.1156498102
 20
-78.7224150751
 10
67.1272123024
 20
-78.7142311538
 10
67.1385486609
 20
-78.7058677155
  0
LWPOLYLINE
  5
415
100
AcDbEntity
  8
RACCORDO
100
AcDbPolyline
 62
250
  6
CONTINUOUS
 90
12
 70
0
 10
-52.857318939
 20
20.7809056446
 10
-52.8625383649
 20
20.7882151998
 10
-52.8677000852
 20
20.7955758585
 10
-52.8728040547
 20
20.8029809602
 10
-52.8778506969
 20
20.8104246186
 10
-52.882839904
 20
20.8178998236
 10
-52.8877708955
 20
20.8253984442
 10
-52.8926438411
 20
20.832913817
 10
-52.8974598837
 20
20.8404403359
 10
-52.9022197512
 20
20.8479716692
 10
-52.9069240114
 20
20.8555014082
 10
-52.9115742179
 20
20.8630245684
  0
LINE
  5
416
100
AcDbEntity
  8
RACCORDO
100
AcDbLine
 62
250
  6
CONTINUOUS
 10
-53.0596728061
 20
21.108715401
 11
-53.1010352579
 21
21.1721215793
  0
LINE
  5
417
100
AcDbEntity
  8
RACCORDO
100
AcDbLine
 62
250
  6
CONTINUOUS
 10
-53.1010352579
 20
21.1721215793
 11
-53.1092712831
 21
21.1848792009
  0
LINE
  5
418
100
AcDbEntity
  8
RACCORDO
100
AcDbLine
 62
250
  6
CONTINUOUS
 10
-53.0474921519
 20
21.0897892169
 11
-53.0596728061
 21
21.108715401
  0
LINE
  5
419
100
AcDbEntity
  8
RACCORDO
100
AcDbLine
 62
250
  6
CONTINUOUS
 10
-53.1092712831
 20
21.1848792009
 11
-53.1174331251
 21
21.1976787463
  0
LINE
  5
41A
100
AcDbEntity
  8
RACCORDO
100
AcDbLine
 62
250
  6
CONTINUOUS
 10
-53.0394797573
 20
21.0771892259
 11
-53.0474921519
 21
21.0897892169
  0
LINE
  5
41B
100
AcDbEntity
  8
RACCORDO
100
AcDbLine
 62
250
  6
CONTINUOUS
 10
-53.0315558843
 20
21.0645904531
 11
-53.0394797573
 21
21.0771892259
  0
LWPOLYLINE
  5
41C
100
AcDbEntity
  8
RACCORDO
100
AcDbPolyline
 62
250
  6
CONTINUOUS
 90
17
 70
0
 10
-53.1174331251
 20
21.1976787463
 10
-53.125484641
 20
21.2105193531
 10
-53.1294575218
 20
21.2169550427
 10
-53.1333879533
 20
21.2233995634
 10
-53.1372712041
 20
21.2298527277
 10
-53.1411020859
 20
21.2363138129
 10
-53.1448745246
 20
21.2427806385
 10
-53.1485823418
 20
21.2492505411
 10
-53.1522199642
 20
21.2557220633
 10
-53.1557812383
 20
21.2621927932
 10
-53.1592592445
 20
21.2686583391
 10
-53.162648363
 20
21.2751166814
 10
-53.1659425479
 20
21.2815648716
 10
-53.1691346004
 20
21.287996946
 10
-53.1722184557
 20
21.2944090445
 10
-53.1751889937
 20
21.3007992212
 10
-53.1780406729
 20
21.3071639118
  0
LINE
  5
41D
100
AcDbEntity
  8
RACCORDO
100
AcDbLine
 62
250
  6
CONTINUOUS
 10
-53.0236956369
 20
21.0519456984
 11
-53.0315558843
 21
21.0645904531
  0
LINE
  5
41E
100
AcDbEntity
  8
RACCORDO
100
AcDbLine
 62
250
  6
CONTINUOUS
 10
-53.0158779451
 20
21.0392183887
 11
-53.0236956369
 21
21.0519456984
  0
LWPOLYLINE
  5
41F
100
AcDbEntity
  8
RACCORDO
100
AcDbPolyline
 62
250
  6
CONTINUOUS
 90
3
 70
0
 10
-52.9115742179
 20
20.8630245684
 10
-52.9207203744
 20
20.8780343799
 10
-52.9252189971
 20
20.8855107891
  0
LWPOLYLINE
  5
420
100
AcDbEntity
  8
RACCORDO
100
AcDbPolyline
 62
250
  6
CONTINUOUS
 90
3
 70
0
 10
-53.0041307825
 20
21.0198121108
 10
-53.0080548371
 20
21.0263313568
 10
-53.0158779451
 20
21.0392183887
  0
LINE
  5
421
100
AcDbEntity
  8
RACCORDO
100
AcDbLine
 62
250
  6
CONTINUOUS
 10
-55.6299577175
 20
64.0420286726
 11
-55.6239946865
 21
64.0270934021
  0
LINE
  5
422
100
AcDbEntity
  8
RACCORDO
100
AcDbLine
 62
250
  6
CONTINUOUS
 10
-55.8096424322
 20
64.2717479969
 11
-55.8082471288
 21
64.2682529348
  0
LINE
  5
423
100
AcDbEntity
  8
RACCORDO
100
AcDbLine
 62
250
  6
CONTINUOUS
 10
-55.6239946865
 20
64.0270934021
 11
-55.6178744187
 21
64.0114908923
  0
LINE
  5
424
100
AcDbEntity
  8
RACCORDO
100
AcDbLine
 62
250
  6
CONTINUOUS
 10
-55.8082471288
 20
64.2682529348
 11
-55.806832943
 21
64.2646214078
  0
LINE
  5
425
100
AcDbEntity
  8
RACCORDO
100
AcDbLine
 62
250
  6
CONTINUOUS
 10
-55.6178744187
 20
64.0114908923
 11
-55.611591869
 21
63.9951856947
  0
LINE
  5
426
100
AcDbEntity
  8
RACCORDO
100
AcDbLine
 62
250
  6
CONTINUOUS
 10
-55.806832943
 20
64.2646214078
 11
-55.8053993191
 21
64.2608472069
  0
LINE
  5
427
100
AcDbEntity
  8
RACCORDO
100
AcDbLine
 62
250
  6
CONTINUOUS
 10
-55.611591869
 20
63.9951856947
 11
-55.6051429077
 21
63.9781423726
  0
LINE
  5
428
100
AcDbEntity
  8
RACCORDO
100
AcDbLine
 62
250
  6
CONTINUOUS
 10
-55.6051429077
 20
63.9781423726
 11
-55.5985218319
 21
63.9603290412
  0
LINE
  5
429
100
AcDbEntity
  8
RACCORDO
100
AcDbLine
 62
250
  6
CONTINUOUS
 10
-55.8053993191
 20
64.2608472069
 11
-55.8039452067
 21
64.2569221701
  0
LINE
  5
42A
100
AcDbEntity
  8
RACCORDO
100
AcDbLine
 62
250
  6
CONTINUOUS
 10
-55.5985218319
 20
63.9603290412
 11
-55.5917174509
 21
63.9416897386
  0
LINE
  5
42B
100
AcDbEntity
  8
RACCORDO
100
AcDbLine
 62
250
  6
CONTINUOUS
 10
-55.8039452067
 20
64.2569221701
 11
-55.8024698347
 21
64.2528407366
  0
LINE
  5
42C
100
AcDbEntity
  8
RACCORDO
100
AcDbLine
 62
250
  6
CONTINUOUS
 10
-55.5917174509
 20
63.9416897386
 11
-55.5847101337
 21
63.9221388969
  0
LINE
  5
42D
100
AcDbEntity
  8
RACCORDO
100
AcDbLine
 62
250
  6
CONTINUOUS
 10
-55.8024698347
 20
64.2528407366
 11
-55.8009720023
 21
64.2485938305
  0
LINE
  5
42E
100
AcDbEntity
  8
RACCORDO
100
AcDbLine
 62
250
  6
CONTINUOUS
 10
-55.5847101337
 20
63.9221388969
 11
-55.5774885034
 21
63.901623234
  0
LINE
  5
42F
100
AcDbEntity
  8
RACCORDO
100
AcDbLine
 62
250
  6
CONTINUOUS
 10
-55.5774885034
 20
63.901623234
 11
-55.5700351876
 21
63.8800582474
  0
LINE
  5
430
100
AcDbEntity
  8
RACCORDO
100
AcDbLine
 62
250
  6
CONTINUOUS
 10
-55.8009720023
 20
64.2485938305
 11
-55.7994509847
 21
64.2441728496
  0
LINE
  5
431
100
AcDbEntity
  8
RACCORDO
100
AcDbLine
 62
250
  6
CONTINUOUS
 10
-55.5700351876
 20
63.8800582474
 11
-55.5623438247
 21
63.8573847529
  0
LINE
  5
432
100
AcDbEntity
  8
RACCORDO
100
AcDbLine
 62
250
  6
CONTINUOUS
 10
-55.7994509847
 20
64.2441728496
 11
-55.797906163
 21
64.2395718447
  0
LINE
  5
433
100
AcDbEntity
  8
RACCORDO
100
AcDbLine
 62
250
  6
CONTINUOUS
 10
-55.5623438247
 20
63.8573847529
 11
-55.5544164893
 21
63.8335839322
  0
LINE
  5
434
100
AcDbEntity
  8
RACCORDO
100
AcDbLine
 62
250
  6
CONTINUOUS
 10
-55.797906163
 20
64.2395718447
 11
-55.7963367778
 21
64.2347817076
  0
LINE
  5
435
100
AcDbEntity
  8
RACCORDO
100
AcDbLine
 62
250
  6
CONTINUOUS
 10
-55.5544164893
 20
63.8335839322
 11
-55.5462720132
 21
63.8086725414
  0
LINE
  5
436
100
AcDbEntity
  8
RACCORDO
100
AcDbLine
 62
250
  6
CONTINUOUS
 10
-55.5462720132
 20
63.8086725414
 11
-55.5379081524
 21
63.7826060051
  0
LINE
  5
437
100
AcDbEntity
  8
RACCORDO
100
AcDbLine
 62
250
  6
CONTINUOUS
 10
-55.7963367778
 20
64.2347817076
 11
-55.7947417443
 21
64.2297913882
  0
LINE
  5
438
100
AcDbEntity
  8
RACCORDO
100
AcDbLine
 62
250
  6
CONTINUOUS
 10
-55.5379081524
 20
63.7826060051
 11
-55.5293158515
 21
63.7553298918
  0
LWPOLYLINE
  5
439
100
AcDbEntity
  8
RACCORDO
100
AcDbPolyline
 62
250
  6
CONTINUOUS
 90
3
 70
0
 10
-55.7947417443
 20
64.2297913882
 10
-55.7931203197
 20
64.2245936548
 10
-55.7922993808
 20
64.2219128254
  0
LWPOLYLINE
  5
43A
100
AcDbEntity
  8
RACCORDO
100
AcDbPolyline
 62
250
  6
CONTINUOUS
 90
3
 70
0
 10
-55.5293158515
 20
63.7553298918
 10
-55.5204673769
 20
63.7267156861
 10
-55.5159397699
 20
63.7118653036
  0
LINE
  5
43B
100
AcDbEntity
  8
RACCORDO
100
AcDbLine
 62
7
  6
CONTINUOUS
 10
-55.410941148
 20
7.2503817654
 11
-55.4742431856
 21
7.285351363
  0
LWPOLYLINE
  5
43C
100
AcDbEntity
  8
RACCORDO
100
AcDbPolyline
 62
7
  6
CONTINUOUS
 90
5
 70
0
 10
-55.5845111464
 20
7.3483537678
 10
-55.5557437508
 20
7.3315928755
 10
-55.527774532
 20
7.3155094764
 10
-55.5006076827
 20
7.3000956349
 10
-55.4742431856
 20
7.285351363
  0
LINE
  5
43D
100
AcDbEntity
  8
RACCORDO
100
AcDbLine
 62
7
  6
CONTINUOUS
 10
-55.6444657894
 20
7.3838603051
 11
-55.5845111464
 21
7.3483537678
  0
LWPOLYLINE
  5
43E
100
AcDbEntity
  8
RACCORDO
100
AcDbPolyline
 62
7
  6
CONTINUOUS
 90
3
 70
0
 10
-55.7405233115
 20
7.4419388368
 10
-55.7076890665
 20
7.42193366
 10
-55.6444657894
 20
7.3838603051
  0
LWPOLYLINE
  5
43F
100
AcDbEntity
  8
RACCORDO
100
AcDbPolyline
 62
7
  6
CONTINUOUS
 90
46
 70
0
 10
-55.7405233114
 20
7.4419388368
 10
-55.7442610168
 20
7.4442505778
 10
-55.7478808647
 20
7.4465324496
 10
-55.7513815288
 20
7.4487815087
 10
-55.7547566347
 20
7.4509928554
 10
-55.7580104331
 20
7.4531653213
 10
-55.7611577523
 20
7.4553020397
 10
-55.7641975836
 20
7.4573997688
 10
-55.7671297048
 20
7.4594569064
 10
-55.7699701841
 20
7.4614800668
 10
-55.7727195603
 20
7.4634676201
 10
-55.7753766138
 20
7.4654173811
 10
-55.7779546844
 20
7.4673359815
 10
-55.7804555558
 20
7.4692231369
 10
-55.7828770981
 20
7.4710760955
 10
-55.7852266714
 20
7.472898333
 10
-55.7875049271
 20
7.4746888823
 10
-55.7897112008
 20
7.4764460993
 10
-55.7918508092
 20
7.478172748
 10
-55.7939235007
 20
7.4798672143
 10
-55.7959298121
 20
7.4815288244
 10
-55.7978761416
 20
7.4831619863
 10
-55.7997624975
 20
7.4847653994
 10
-55.8015893143
 20
7.4863384222
 10
-55.8033634567
 20
7.4878866619
 10
-55.805085409
 20
7.4894093313
 10
-55.8067551693
 20
7.4909055883
 10
-55.8083786674
 20
7.4923811109
 10
-55.8099580304
 20
7.4938366893
 10
-55.8114915899
 20
7.4952701397
 10
-55.8129795123
 20
7.4966827036
 10
-55.8144242351
 20
7.4980754369
 10
-55.8158240285
 20
7.4994459497
 10
-55.8171730536
 20
7.5007901957
 10
-55.8184707992
 20
7.502106003
 10
-55.8197191508
 20
7.5033942028
 10
-55.8209161917
 20
7.5046551247
 10
-55.8220637028
 20
7.505888844
 10
-55.8231616244
 20
7.5070941025
 10
-55.8242055882
 20
7.5082691355
 10
-55.8251963544
 20
7.5094127967
 10
-55.8261353985
 20
7.5105252609
 10
-55.8270197725
 20
7.5116066845
 10
-55.8278494121
 20
7.5126568703
 10
-55.8286269618
 20
7.5136753471
 10
-55.8293536746
 20
7.5146619053
  0
LINE
  5
440
100
AcDbEntity
  8
RACCORDO
100
AcDbLine
 62
250
  6
CONTINUOUS
 10
-55.4742431897
 20
7.2853513601
 11
-55.281056754
 21
7.1534247709
  0
LINE
  5
441
100
AcDbEntity
  8
RACCORDO
100
AcDbLine
 62
7
  6
CONTINUOUS
 10
-55.1941429878
 20
6.9791161149
 11
51.1564673412
 21
-68.2221216321
  0
LINE
  5
442
100
AcDbEntity
  8
RACCORDO
100
AcDbLine
 62
250
  6
CONTINUOUS
 10
-55.2810557355
 20
7.1534149906
 11
51.067804261
 21
-68.0465850844
  0
LINE
  5
443
100
AcDbEntity
  8
DRAFT
100
AcDbLine
 62
7
  6
CONTINUOUS
 10
-55.2838611253
 20
7.1803958729
 11
51.0649987651
 21
-68.0196041271
  0
LWPOLYLINE
  5
444
100
AcDbEntity
  8
RACCORDO
100
AcDbPolyline
 62
7
  6
CONTINUOUS
 90
16
 70
0
 10
-70.3245573547
 20
17.6624359283
 10
-69.3366984389
 20
16.9425387583
 10
-68.3408664741
 20
16.2200940755
 10
-67.3426734926
 20
15.499200847
 10
-66.3421252232
 20
14.779863203
 10
-65.3392268052
 20
14.0620848116
 10
-64.3339832084
 20
13.3458692192
 10
-63.3263995759
 20
12.6312200884
 10
-62.3164814142
 20
11.9181413062
 10
-61.3042342371
 20
11.2066367556
 10
-60.289663517
 20
10.4967102882
 10
-59.2727746954
 20
9.7883657017
 10
-58.2535732357
 20
9.0816067848
 10
-57.2320645864
 20
8.376437315
 10
-56.2082541973
 20
7.672861055
 10
-55.1941629366
 20
6.9790869557
  0
LWPOLYLINE
  5
445
100
AcDbEntity
  8
RACCORDO
100
AcDbPolyline
 62
250
  6
CONTINUOUS
 90
16
 70
0
 10
-70.4124356152
 20
17.8374195505
 10
-69.4566497751
 20
17.140845722
 10
-68.4986705459
 20
16.4457025018
 10
-67.5385025922
 20
15.7519932224
 10
-66.5761499466
 20
15.0597207305
 10
-65.6116179358
 20
14.3688888582
 10
-64.6449131945
 20
13.679502412
 10
-63.6760409263
 20
12.9915650985
 10
-62.7050053829
 20
12.3050798887
 10
-61.7318118036
 20
11.6200504777
 10
-60.7564652468
 20
10.9364804514
 10
-59.7789701794
 20
10.2543729195
 10
-58.7993309711
 20
9.573730868
 10
-57.8175522713
 20
8.8945575341
 10
-56.833639013
 20
8.2168564042
 10
-55.8475960036
 20
7.5406308455
  0
LWPOLYLINE
  5
446
100
AcDbEntity
  8
RACCORDO
100
AcDbPolyline
 62
250
  6
CONTINUOUS
 90
16
 70
0
 10
51.6149145965
 20
-68.4468391232
 10
52.5704880914
 20
-69.1435437599
 10
53.5282551767
 20
-69.8388179671
 10
54.4882111876
 20
-70.532658414
 10
55.4503513147
 20
-71.225061698
 10
56.4146710039
 20
-71.9160245486
 10
57.3811659598
 20
-72.6055438247
 10
58.3498317754
 20
-73.2936163609
 10
59.3206634364
 20
-73.9802386204
 10
60.2936557189
 20
-74.6654068996
 10
61.2688043741
 20
-75.3491181585
 10
62.2461041589
 20
-76.0313687165
 10
63.2255483249
 20
-76.7121539172
 10
64.2071314222
 20
-77.3914699728
 10
65.1908493136
 20
-78.0693139533
 10
66.1766971908
 20
-78.745682493
  0
LWPOLYLINE
  5
447
100
AcDbEntity
  8
RACCORDO
100
AcDbPolyline
 62
7
  6
CONTINUOUS
 90
16
 70
0
 10
51.1540629851
 20
-68.2203727098
 10
52.1375882127
 20
-68.9392062439
 10
53.1318894623
 20
-69.6626524845
 10
54.1285554171
 20
-70.38454993
 10
55.1275807461
 20
-71.1048947386
 10
56.1289600972
 20
-71.8236830679
 10
57.1326881014
 20
-72.5409110642
 10
58.1387593748
 20
-73.2565748896
 10
59.1471684571
 20
-73.9706706825
 10
60.157909842
 20
-74.6831945509
 10
61.1709780188
 20
-75.3941426095
 10
62.1863678053
 20
-76.1035112384
 10
63.204074189
 20
-76.8112969422
 10
64.2240919665
 20
-77.5174960932
 10
65.2464152422
 20
-78.2221046219
 10
66.2657220798
 20
-78.9214792222
  0
LINE
  5
448
100
AcDbEntity
  8
RACCORDO
100
AcDbLine
 62
250
  6
CONTINUOUS
 10
51.0678032424
 20
-68.0465753041
 11
51.2542078026
 21
-68.1830600828
  0
LINE
  5
449
100
AcDbEntity
  8
RACCORDO
100
AcDbLine
 62
250
  6
CONTINUOUS
 10
-55.1989841516
 20
6.9826684084
 11
-55.1941429878
 21
6.9791161149
  0
LINE
  5
44A
100
AcDbEntity
  8
RACCORDO
100
AcDbLine
 62
250
  6
CONTINUOUS
 10
51.1515347921
 20
-68.2185048056
 11
51.1540542499
 21
-68.2203848469
  0
LWPOLYLINE
  5
44B
100
AcDbEntity
  8
RACCORDO
100
AcDbPolyline
 62
7
  6
CONTINUOUS
 90
3
 70
0
 10
51.4235824149
 20
-68.3246826288
 10
51.4546577387
 20
-68.3500069941
 10
51.5192625082
 20
-68.4021830649
  0
LINE
  5
44C
100
AcDbEntity
  8
RACCORDO
100
AcDbLine
 62
250
  6
CONTINUOUS
 10
-55.6972934427
 20
64.1918731074
 11
-55.6930157775
 21
64.1833965408
  0
LINE
  5
44D
100
AcDbEntity
  8
RACCORDO
100
AcDbLine
 62
250
  6
CONTINUOUS
 10
-55.6930157775
 20
64.1833965408
 11
-55.6886388534
 21
64.1745760273
  0
LINE
  5
44E
100
AcDbEntity
  8
RACCORDO
100
AcDbLine
 62
250
  6
CONTINUOUS
 10
-55.6886388534
 20
64.1745760273
 11
-55.6841584767
 21
64.1653920877
  0
LINE
  5
44F
100
AcDbEntity
  8
RACCORDO
100
AcDbLine
 62
250
  6
CONTINUOUS
 10
-55.6841584767
 20
64.1653920877
 11
-55.6795731248
 21
64.1558295512
  0
LINE
  5
450
100
AcDbEntity
  8
RACCORDO
100
AcDbLine
 62
250
  6
CONTINUOUS
 10
-55.6795731248
 20
64.1558295512
 11
-55.6748812509
 21
64.1458771153
  0
LINE
  5
451
100
AcDbEntity
  8
RACCORDO
100
AcDbLine
 62
250
  6
CONTINUOUS
 10
-55.6748812509
 20
64.1458771153
 11
-55.6700813103
 21
64.1355192016
  0
LINE
  5
452
100
AcDbEntity
  8
RACCORDO
100
AcDbLine
 62
250
  6
CONTINUOUS
 10
-55.6700813103
 20
64.1355192016
 11
-55.6651651687
 21
64.12472438
  0
LINE
  5
453
100
AcDbEntity
  8
RACCORDO
100
AcDbLine
 62
250
  6
CONTINUOUS
 10
-55.6651651687
 20
64.12472438
 11
-55.6601274062
 21
64.1134711054
  0
LINE
  5
454
100
AcDbEntity
  8
RACCORDO
100
AcDbLine
 62
250
  6
CONTINUOUS
 10
-55.6601274062
 20
64.1134711054
 11
-55.6549583453
 21
64.1017225847
  0
LINE
  5
455
100
AcDbEntity
  8
RACCORDO
100
AcDbLine
 62
250
  6
CONTINUOUS
 10
-55.6549583453
 20
64.1017225847
 11
-55.6496522894
 21
64.0894481525
  0
LINE
  5
456
100
AcDbEntity
  8
RACCORDO
100
AcDbLine
 62
250
  6
CONTINUOUS
 10
-55.6496522894
 20
64.0894481525
 11
-55.6442060654
 21
64.0766287011
  0
LINE
  5
457
100
AcDbEntity
  8
RACCORDO
100
AcDbLine
 62
250
  6
CONTINUOUS
 10
-55.6442060654
 20
64.0766287011
 11
-55.6386167036
 21
64.0632387607
  0
LWPOLYLINE
  5
458
100
AcDbEntity
  8
RACCORDO
100
AcDbPolyline
 62
250
  6
CONTINUOUS
 90
3
 70
0
 10
-55.6386167036
 20
64.0632387607
 10
-55.6328809468
 20
64.0492505328
 10
-55.6299577175
 20
64.0420286726
  0
LINE
  5
459
100
AcDbEntity
  8
RACCORDO
100
AcDbLine
 62
250
  6
CONTINUOUS
 10
-55.8110193134
 20
64.2751106806
 11
-55.8096424322
 21
64.2717479969
  0
LINE
  5
45A
100
AcDbEntity
  8
RACCORDO
100
AcDbLine
 62
7
  6
CONTINUOUS
 10
-55.2838611253
 20
7.1803958729
 11
-55.410941148
 21
7.2503817654
  0
LINE
  5
45B
100
AcDbEntity
  8
RACCORDO
100
AcDbLine
 62
250
  6
CONTINUOUS
 10
-53.480763656
 20
19.7599488852
 11
50.3778661064
 21
-53.6791499081
  0
LINE
  5
45C
100
AcDbEntity
  8
RACCORDO
100
AcDbLine
 62
250
  6
CONTINUOUS
 10
-53.0506529452
 20
20.532748395
 11
50.3306521672
 21
-52.5688734979
  0
LINE
  5
45D
100
AcDbEntity
  8
RACCORDO
100
AcDbLine
 62
250
  6
CONTINUOUS
 10
50.3147672765
 20
-52.1727761357
 11
-52.8573189306
 21
20.7809056574
  0
LWPOLYLINE
  5
45E
100
AcDbEntity
  8
RACCORDO
100
AcDbPolyline
 62
7
  6
CONTINUOUS
 90
87
 70
0
 10
50.3042280236
 20
-51.906504689
 10
-52.571794162
 20
20.8378386351
 10
-52.580280859
 20
20.8439711474
 10
-52.5888367578
 20
20.8503059127
 10
-52.5974599394
 20
20.85684485
 10
-52.606140284
 20
20.8635837056
 10
-52.6148602853
 20
20.870511739
 10
-52.6236141551
 20
20.8776268523
 10
-52.6323959824
 20
20.8849268177
 10
-52.641189037
 20
20.8923999461
 10
-52.6499876019
 20
20.9000431859
 10
-52.6587859231
 20
20.9078533615
 10
-52.6675681577
 20
20.9158179354
 10
-52.6763286981
 20
20.9239329572
 10
-52.6850619245
 20
20.9321942832
 10
-52.6937528864
 20
20.9405885113
 10
-52.7023956173
 20
20.949110291
 10
-52.7109852456
 20
20.9577550879
 10
-52.7195093521
 20
20.9665103266
 10
-52.7279604726
 20
20.9753679964
 10
-52.7363358185
 20
20.9843246875
 10
-52.7446308161
 20
20.9933748374
 10
-52.7528400036
 20
21.0025118177
 10
-52.7609591932
 20
21.0117302644
 10
-52.76898648
 20
21.0210270455
 10
-52.7769173251
 20
21.0303959146
 10
-52.7847472394
 20
21.0398307266
 10
-52.7924751421
 20
21.0493290186
 10
-52.8000962696
 20
21.0588835539
 10
-52.8076070724
 20
21.0684887999
 10
-52.8150089446
 20
21.0781453037
 10
-52.8222977632
 20
21.0878461291
 10
-52.8294699845
 20
21.0975852985
 10
-52.8365282441
 20
21.1073652163
 10
-52.8434689974
 20
21.1171793903
 10
-52.8502886842
 20
21.1270213407
 10
-52.8569899701
 20
21.1368938231
 10
-52.8635695201
 20
21.1467903621
 10
-52.8700241041
 20
21.1567044193
 10
-52.8763563117
 20
21.1666389053
 10
-52.8825630022
 20
21.1765873722
 10
-52.8886412732
 20
21.1865432656
 10
-52.8945935976
 20
21.1965095143
 10
-52.9004170662
 20
21.2064797744
 10
-52.9061090496
 20
21.2164474549
 10
-52.9116717893
 20
21.2264152072
 10
-52.9171026735
 20
21.2363769188
 10
-52.9223992626
 20
21.2463258907
 10
-52.9275633213
 20
21.2562638595
 10
-52.9325927432
 20
21.2661853327
 10
-52.9374850837
 20
21.2760831793
 10
-52.9422409328
 20
21.2859564884
 10
-52.9468583389
 20
21.2957994833
 10
-52.9513354187
 20
21.305605607
 10
-52.9556723307
 20
21.3153724156
 10
-52.9598675205
 20
21.3250941491
 10
-52.9639195265
 20
21.3347645292
 10
-52.9678282177
 20
21.3443797648
 10
-52.9715930384
 20
21.3539354217
 10
-52.9752124083
 20
21.3634240825
 10
-52.9786845704
 20
21.3728367646
 10
-52.9820095338
 20
21.3821688536
 10
-52.9851865354
 20
21.3914134659
 10
-52.9882130864
 20
21.4005574583
 10
-52.9910896881
 20
21.4095954731
 10
-52.9938168389
 20
21.4185220513
 10
-52.9963927409
 20
21.4273231432
 10
-52.9988188896
 20
21.4359944345
 10
-53.001096464
 20
21.4445301751
 10
-53.0032240417
 20
21.4529135481
 10
-53.0052040791
 20
21.4611410862
 10
-53.0070386384
 20
21.4692071988
 10
-53.0087268968
 20
21.4770916036
 10
-53.0102721571
 20
21.4847904803
 10
-53.011677812
 20
21.4923000311
 10
-53.0129446595
 20
21.4995999766
 10
-53.0140770957
 20
21.5066871601
 10
-53.0150795849
 20
21.5135586915
 10
-53.0159545959
 20
21.520194765
 10
-53.0167076181
 20
21.5265930094
 10
-53.0173441673
 20
21.5327512241
 10
-53.0178684053
 20
21.5386501537
 10
-53.0182868555
 20
21.5442881037
 10
-53.018606155
 20
21.5496642052
 10
-53.0188323025
 20
21.5547610434
 10
-53.0189726168
 20
21.5595727362
 10
-53.0190349863
 20
21.5641045621
  0
LWPOLYLINE
  5
45F
100
AcDbEntity
  8
RACCORDO
100
AcDbPolyline
 62
7
  6
CONTINUOUS
 90
5
 70
0
 10
51.2804200472
 20
-68.2054931755
 10
51.3074390545
 20
-68.2283945207
 10
51.3352648114
 20
-68.2517641272
 10
51.3638935144
 20
-68.2755884053
 10
51.4235824149
 20
-68.3246826288
  0
LINE
  5
460
100
AcDbEntity
  8
RACCORDO
100
AcDbLine
 62
7
  6
CONTINUOUS
 10
51.2804200472
 20
-68.2054931755
 11
51.1912901446
 21
-68.128778872
  0
LINE
  5
461
100
AcDbEntity
  8
RACCORDO
100
AcDbLine
 62
7
  6
CONTINUOUS
 10
51.1912901446
 20
-68.128778872
 11
51.0649987651
 21
-68.0196041271
  0
LWPOLYLINE
  5
462
100
AcDbEntity
  8
RACCORDO
100
AcDbPolyline
 62
250
  6
CONTINUOUS
 90
31
 70
0
 10
-55.8293535635
 20
64.3120500283
 10
-55.8288269104
 20
64.3111871145
 10
-55.828294266
 20
64.3103018616
 10
-55.8277556096
 20
64.3093942847
 10
-55.8272109673
 20
64.308464987
 10
-55.8266602709
 20
64.3075133962
 10
-55.8261033563
 20
64.306537766
 10
-55.8255402637
 20
64.3055382801
 10
-55.8249709077
 20
64.3045147883
 10
-55.8243949329
 20
64.3034650447
 10
-55.8238121645
 20
64.3023888401
 10
-55.8232227268
 20
64.3012864213
 10
-55.8226267113
 20
64.3001562285
 10
-55.822023791
 20
64.2989976778
 10
-55.8214142401
 20
64.2978113928
 10
-55.8207990549
 20
64.2965976227
 10
-55.8201781673
 20
64.2953561985
 10
-55.8195515986
 20
64.2940873254
 10
-55.8189204857
 20
64.2927918088
 10
-55.8182850095
 20
64.2914699981
 10
-55.8176449502
 20
64.2901215751
 10
-55.8170008493
 20
64.2887463398
 10
-55.816352881
 20
64.2873447083
 10
-55.8157008354
 20
64.2859162939
 10
-55.8150446789
 20
64.2844596923
 10
-55.8143844239
 20
64.2829750211
 10
-55.8137200202
 20
64.2814621941
 10
-55.8130513386
 20
64.2799195021
 10
-55.8123783566
 20
64.2783469968
 10
-55.8117010563
 20
64.2767446604
 10
-55.8110193134
 20
64.2751106806
  0
LINE
  5
463
100
AcDbEntity
  8
RACCORDO
100
AcDbLine
 62
250
  6
CONTINUOUS
 10
-55.7405233115
 20
64.2693965721
 11
-55.7371428807
 21
64.2638731886
  0
LINE
  5
464
100
AcDbEntity
  8
RACCORDO
100
AcDbLine
 62
250
  6
CONTINUOUS
 10
-55.7371428807
 20
64.2638731886
 11
-55.7336977163
 21
64.2581475529
  0
LINE
  5
465
100
AcDbEntity
  8
RACCORDO
100
AcDbLine
 62
250
  6
CONTINUOUS
 10
-55.7336977163
 20
64.2581475529
 11
-55.7301867889
 21
64.2522159225
  0
LINE
  5
466
100
AcDbEntity
  8
RACCORDO
100
AcDbLine
 62
250
  6
CONTINUOUS
 10
-55.7301867889
 20
64.2522159225
 11
-55.7266067137
 21
64.2460659125
  0
LINE
  5
467
100
AcDbEntity
  8
RACCORDO
100
AcDbLine
 62
250
  6
CONTINUOUS
 10
-55.7266067137
 20
64.2460659125
 11
-55.7229544692
 21
64.2396855392
  0
LINE
  5
468
100
AcDbEntity
  8
RACCORDO
100
AcDbLine
 62
250
  6
CONTINUOUS
 10
-55.7229544692
 20
64.2396855392
 11
-55.7192281718
 21
64.2330669027
  0
LINE
  5
469
100
AcDbEntity
  8
RACCORDO
100
AcDbLine
 62
250
  6
CONTINUOUS
 10
-55.7192281718
 20
64.2330669027
 11
-55.7154252734
 21
64.2261983456
  0
LINE
  5
46A
100
AcDbEntity
  8
RACCORDO
100
AcDbLine
 62
250
  6
CONTINUOUS
 10
-55.7154252734
 20
64.2261983456
 11
-55.7115429621
 21
64.2190669146
  0
LINE
  5
46B
100
AcDbEntity
  8
RACCORDO
100
AcDbLine
 62
250
  6
CONTINUOUS
 10
-55.7115429621
 20
64.2190669146
 11
-55.7075793286
 21
64.2116637555
  0
LINE
  5
46C
100
AcDbEntity
  8
RACCORDO
100
AcDbLine
 62
250
  6
CONTINUOUS
 10
-55.7075793286
 20
64.2116637555
 11
-55.7035318742
 21
64.2039759902
  0
LWPOLYLINE
  5
46D
100
AcDbEntity
  8
RACCORDO
100
AcDbPolyline
 62
250
  6
CONTINUOUS
 90
3
 70
0
 10
-55.7035318742
 20
64.2039759902
 10
-55.6993955367
 20
64.1959847538
 10
-55.6972934427
 20
64.1918731074
  0
LINE
  5
46E
100
AcDbEntity
  8
RACCORDO
100
AcDbLine
 62
7
  6
CONTINUOUS
 10
50.2685367591
 20
-50.9279541645
 11
-53.0190398658
 21
22.1073916792
  0
LINE
  5
46F
100
AcDbEntity
  8
0
100
AcDbLine
 62
7
  6
CONTINUOUS
 10
-53.0190398658
 20
22.8073916792
 11
50.2445040625
 21
-50.2109604818
  0
LWPOLYLINE
  5
470
100
AcDbEntity
  8
RACCORDO
100
AcDbPolyline
 62
250
  6
CONTINUOUS
 90
38
 70
0
 10
70.9321041576
 20
-49.3103118434
 10
70.9278972961
 20
-49.3074635489
 10
70.9228750312
 20
-49.3043749667
 10
70.9176978171
 20
-49.3015160447
 10
70.9123685246
 20
-49.2988883683
 10
70.9068901085
 20
-49.2964933945
 10
70.9012656067
 20
-49.2943324512
 10
70.8954981378
 20
-49.2924067367
 10
70.8895908999
 20
-49.2907173188
 10
70.8835471683
 20
-49.2892651341
 10
70.8773702944
 20
-49.288050988
 10
70.8710637031
 20
-49.2870755536
 10
70.8646308913
 20
-49.2863393718
 10
70.8580754259
 20
-49.2858428509
 10
70.8514009418
 20
-49.2855862661
 10
70.84461114
 20
-49.2855697597
 10
70.8377097854
 20
-49.2857933408
 10
70.8307007045
 20
-49.2862568856
 10
70.823587784
 20
-49.2869601369
 10
70.8163749677
 20
-49.2879027048
 10
70.8090662552
 20
-49.2890840667
 10
70.8016656989
 20
-49.2905035675
 10
70.7941774025
 20
-49.2921604202
 10
70.786605518
 20
-49.294053706
 10
70.778954244
 20
-49.2961823751
 10
70.7712278231
 20
-49.2985452472
 10
70.7634305393
 20
-49.3011410121
 10
70.7555667163
 20
-49.3039682305
 10
70.7476407143
 20
-49.3070253348
 10
70.7396569284
 20
-49.3103106298
 10
70.7316197853
 20
-49.3138222939
 10
70.7235337415
 20
-49.3175583799
 10
70.7154032808
 20
-49.3215168161
 10
70.7072329112
 20
-49.3256954077
 10
70.6990271632
 20
-49.3300918378
 10
70.6907905868
 20
-49.3347036685
 10
70.6825277489
 20
-49.3395283426
 10
70.6742432314
 20
-49.344563185
  0
LINE
  5
471
100
AcDbEntity
  8
RACCORDO
100
AcDbLine
 62
250
  6
CONTINUOUS
 10
70.6742432314
 20
-49.344563185
 11
71.6002554968
 21
-49.9993527373
  0
LINE
  5
472
100
AcDbEntity
  8
DRAFT
100
AcDbLine
 62
7
  6
CONTINUOUS
 10
70.4706659914
 20
-49.0022519653
 11
70.5200514173
 21
-49.0371727348
  0
LINE
  5
473
100
AcDbEntity
  8
RACCORDO
100
AcDbLine
 62
7
  6
CONTINUOUS
 10
70.9321041576
 20
-49.3103118434
 11
71.867121125
 21
-49.9714686816
  0
LWPOLYLINE
  5
474
100
AcDbEntity
  8
RACCORDO
100
AcDbPolyline
 62
250
  6
CONTINUOUS
 90
27
 70
0
 10
70.6742432314
 20
-49.344563185
 10
70.6659134004
 20
-49.3381897884
 10
70.6575696734
 20
-49.3320514725
 10
70.649217207
 20
-49.3261520311
 10
70.6408611633
 20
-49.32049511
 10
70.6325067067
 20
-49.3150842055
 10
70.6241590004
 20
-49.3099226617
 10
70.6158232035
 20
-49.3050136686
 10
70.6075044679
 20
-49.30036026
 10
70.5992079349
 20
-49.295965312
 10
70.5909387318
 20
-49.2918315407
 10
70.5827019693
 20
-49.287961501
 10
70.5745027381
 20
-49.2843575847
 10
70.5663461054
 20
-49.281022019
 10
70.5582371124
 20
-49.2779568655
 10
70.5501807707
 20
-49.2751640186
 10
70.5421820592
 20
-49.2726452042
 10
70.5342459216
 20
-49.2704019791
 10
70.5263772625
 20
-49.2684357298
 10
70.518580945
 20
-49.2667476713
 10
70.5108617875
 20
-49.2653388469
 10
70.5032245607
 20
-49.2642101275
 10
70.4956739846
 20
-49.2633622105
 10
70.4882147258
 20
-49.2627956199
 10
70.4808513941
 20
-49.262510706
 10
70.4735885406
 20
-49.2625076449
 10
70.4706659914
 20
-49.2626214756
  0
LWPOLYLINE
  5
475
100
AcDbEntity
  8
RACCORDO
100
AcDbPolyline
 62
250
  6
CONTINUOUS
 90
25
 70
0
 10
51.6008460434
 20
-68.449960725
 10
51.6002845976
 20
-68.4491242621
 10
51.5997157611
 20
-68.448266492
 10
51.5991395584
 20
-68.447387398
 10
51.5985561613
 20
-68.4464875119
 10
51.5979654479
 20
-68.4455662676
 10
51.5973670034
 20
-68.4446220005
 10
51.5967609099
 20
-68.4436548153
 10
51.5961471398
 20
-68.4426645702
 10
51.5955251179
 20
-68.4416492286
 10
51.5948946655
 20
-68.4406084493
 10
51.5942560223
 20
-68.4395425322
 10
51.5936092421
 20
-68.4384504005
 10
51.5929540997
 20
-68.4373315756
 10
51.5922908829
 20
-68.4361864945
 10
51.5916204111
 20
-68.4350154565
 10
51.5909427449
 20
-68.433818453
 10
51.5902578806
 20
-68.4325954556
 10
51.5895665341
 20
-68.431346738
 10
51.5888688933
 20
-68.4300725485
 10
51.5881648221
 20
-68.428772606
 10
51.5874545463
 20
-68.427446393
 10
51.5867381605
 20
-68.426094016
 10
51.5860156211
 20
-68.4247153366
 10
51.5852869453
 20
-68.4233094713
  0
LINE
  5
476
100
AcDbEntity
  8
RACCORDO
100
AcDbLine
 62
7
  6
CONTINUOUS
 10
51.0649987651
 20
-11.3114864103
 11
51.2122795302
 21
-11.3937793182
  0
LINE
  5
477
100
AcDbEntity
  8
RACCORDO
100
AcDbLine
 62
7
  6
CONTINUOUS
 10
51.2122795302
 20
-11.3937793182
 11
51.2542078053
 21
-11.4172713589
  0
LINE
  5
478
100
AcDbEntity
  8
RACCORDO
100
AcDbLine
 62
7
  6
CONTINUOUS
 10
-53.3856763527
 20
52.509946911
 11
50.6972588062
 21
-21.0878023457
  0
LINE
  5
479
100
AcDbEntity
  8
RACCORDO
100
AcDbLine
 62
250
  6
CONTINUOUS
 10
-53.4696382845
 20
52.639090757
 11
50.7013346883
 21
-21.020910635
  0
LINE
  5
47A
100
AcDbEntity
  8
RACCORDO
100
AcDbLine
 62
7
  6
CONTINUOUS
 10
-55.6444657888
 20
64.1921630139
 11
-55.7076890663
 21
64.2431408395
  0
LINE
  5
47B
100
AcDbEntity
  8
RACCORDO
100
AcDbLine
 62
7
  6
CONTINUOUS
 10
-55.5845111454
 20
64.1432566958
 11
-55.6444657888
 21
64.1921630139
  0
LWPOLYLINE
  5
47C
100
AcDbEntity
  8
RACCORDO
100
AcDbPolyline
 62
7
  6
CONTINUOUS
 90
3
 70
0
 10
-55.5006076813
 20
64.0734655154
 10
-55.5277745307
 20
64.0962623217
 10
-55.5845111454
 20
64.1432566958
  0
LINE
  5
47D
100
AcDbEntity
  8
RACCORDO
100
AcDbLine
 62
7
  6
CONTINUOUS
 10
-55.5006076813
 20
64.0734655154
 11
-55.410941147
 21
63.9971306708
  0
LINE
  5
47E
100
AcDbEntity
  8
RACCORDO
100
AcDbLine
 62
7
  6
CONTINUOUS
 10
-55.410941147
 20
63.9971306708
 11
-55.2838611253
 21
63.8885135897
  0
LINE
  5
47F
100
AcDbEntity
  8
RACCORDO
100
AcDbLine
 62
250
  6
CONTINUOUS
 10
51.5192625082
 20
-68.4021830649
 11
51.5160077746
 21
-68.3965684118
  0
LINE
  5
480
100
AcDbEntity
  8
RACCORDO
100
AcDbLine
 62
250
  6
CONTINUOUS
 10
51.5160077746
 20
-68.3965684118
 11
51.5126949207
 21
-68.390746577
  0
LINE
  5
481
100
AcDbEntity
  8
RACCORDO
100
AcDbLine
 62
250
  6
CONTINUOUS
 10
51.5126949207
 20
-68.390746577
 11
51.5093231498
 21
-68.3847137968
  0
LINE
  5
482
100
AcDbEntity
  8
RACCORDO
100
AcDbLine
 62
250
  6
CONTINUOUS
 10
51.5093231498
 20
-68.3847137968
 11
51.5058897201
 21
-68.3784576718
  0
LINE
  5
483
100
AcDbEntity
  8
RACCORDO
100
AcDbLine
 62
250
  6
CONTINUOUS
 10
51.5058897201
 20
-68.3784576718
 11
51.5023923484
 21
-68.3719664283
  0
LINE
  5
484
100
AcDbEntity
  8
RACCORDO
100
AcDbLine
 62
250
  6
CONTINUOUS
 10
51.5023923484
 20
-68.3719664283
 11
51.4988295257
 21
-68.365232013
  0
LINE
  5
485
100
AcDbEntity
  8
RACCORDO
100
AcDbLine
 62
250
  6
CONTINUOUS
 10
51.4988295257
 20
-68.365232013
 11
51.495199057
 21
-68.3582422396
  0
LINE
  5
486
100
AcDbEntity
  8
RACCORDO
100
AcDbLine
 62
250
  6
CONTINUOUS
 10
51.495199057
 20
-68.3582422396
 11
51.4914983971
 21
-68.3509832653
  0
LINE
  5
487
100
AcDbEntity
  8
RACCORDO
100
AcDbLine
 62
250
  6
CONTINUOUS
 10
51.5852869453
 20
-68.4233094713
 11
51.5838113404
 21
-68.4204162241
  0
LWPOLYLINE
  5
488
100
AcDbEntity
  8
RACCORDO
100
AcDbPolyline
 62
7
  6
CONTINUOUS
 90
5
 70
0
 10
51.3638935134
 20
-11.4806854753
 10
51.3352648103
 20
-11.4638265135
 10
51.3074390532
 20
-11.4476416725
 10
51.2804200457
 20
-11.4321232918
 10
51.2542078053
 20
-11.4172713589
  0
LINE
  5
489
100
AcDbEntity
  8
RACCORDO
100
AcDbLine
 62
7
  6
CONTINUOUS
 10
51.4235824142
 20
-11.5163799187
 11
51.3638935134
 21
-11.4806854753
  0
LWPOLYLINE
  5
48A
100
AcDbEntity
  8
RACCORDO
100
AcDbPolyline
 62
7
  6
CONTINUOUS
 90
3
 70
0
 10
51.5192625082
 20
-11.5747253296
 10
51.4865511063
 20
-11.5546332906
 10
51.4235824142
 20
-11.5163799187
  0
LWPOLYLINE
  5
48B
100
AcDbEntity
  8
RACCORDO
100
AcDbPolyline
 62
7
  6
CONTINUOUS
 90
46
 70
0
 10
51.5192625082
 20
-11.5747253296
 10
51.5229785011
 20
-11.5770547152
 10
51.5265583008
 20
-11.5793671612
 10
51.5300022935
 20
-11.5816585152
 10
51.5333058327
 20
-11.5839225545
 10
51.5364747249
 20
-11.5861570984
 10
51.5395250248
 20
-11.5883647128
 10
51.5424571047
 20
-11.5905411897
 10
51.5452720305
 20
-11.5926840049
 10
51.5479865751
 20
-11.594799526
 10
51.550602458
 20
-11.5968855372
 10
51.5531193458
 20
-11.5989389841
 10
51.5555504946
 20
-11.6009660628
 10
51.5578983837
 20
-11.6029659669
 10
51.5601618089
 20
-11.6049353127
 10
51.5623481611
 20
-11.6068771325
 10
51.5644585854
 20
-11.6087898436
 10
51.566493295
 20
-11.6106714355
 10
51.5684580576
 20
-11.6125247146
 10
51.5703532717
 20
-11.6143476472
 10
51.5721799706
 20
-11.6161391627
 10
51.5739446145
 20
-11.6179038585
 10
51.5756477183
 20
-11.6196400897
 10
51.577290125
 20
-11.6213469067
 10
51.5788784433
 20
-11.6230302771
 10
51.580413687
 20
-11.6246893681
 10
51.5818960137
 20
-11.6263228872
 10
51.5833303976
 20
-11.6279363666
 10
51.5847193279
 20
-11.6295308894
 10
51.5860613027
 20
-11.6311035986
 10
51.587355203
 20
-11.6326541795
 10
51.5886028108
 20
-11.6341828342
 10
51.5898036338
 20
-11.6356876553
 10
51.5909533901
 20
-11.6371650504
 10
51.5920520133
 20
-11.6386124663
 10
51.5931014678
 20
-11.6400307789
 10
51.5941007587
 20
-11.6414214474
 10
51.5950520149
 20
-11.642784872
 10
51.5959551782
 20
-11.6441192228
 10
51.596806205
 20
-11.6454225595
 10
51.5976059584
 20
-11.6466932267
 10
51.5983561378
 20
-11.6479316763
 10
51.5990542371
 20
-11.6491390975
 10
51.5997003886
 20
-11.6503155825
 10
51.6002972431
 20
-11.6514601838
 10
51.6008461628
 20
-11.6525725952
  0
LINE
  5
48C
100
AcDbEntity
  8
RACCORDO
100
AcDbLine
 62
250
  6
CONTINUOUS
 10
-55.2810567537
 20
63.9194508195
 11
-55.4742431881
 21
64.0511400774
  0
LWPOLYLINE
  5
48D
100
AcDbEntity
  8
RACCORDO
100
AcDbPolyline
 62
250
  6
CONTINUOUS
 90
16
 70
0
 10
-55.8475960036
 20
64.3059770442
 10
-56.8336390138
 20
64.9811365649
 10
-57.8175522725
 20
65.6579227162
 10
-58.7993309722
 20
66.336332268
 10
-59.7789701798
 20
67.0163619133
 10
-60.7564652459
 20
67.6980084408
 10
-61.7318118019
 20
68.3812687371
 10
-62.7050053808
 20
69.066139671
 10
-63.6760409243
 20
69.752617745
 10
-64.6449131928
 20
70.4406992663
 10
-65.611617935
 20
71.1303811777
 10
-66.5761499472
 20
71.8216597898
 10
-67.5385025937
 20
72.5145304229
 10
-68.4986705474
 20
73.2089892211
 10
-69.4566497761
 20
73.9050331612
 10
-70.4124356152
 20
74.6026587763
  0
LWPOLYLINE
  5
48E
100
AcDbEntity
  8
RACCORDO
100
AcDbPolyline
 62
250
  6
CONTINUOUS
 90
16
 70
0
 10
66.1766971908
 20
-21.9804432672
 10
65.1908493142
 20
-21.3051265153
 10
64.207131423
 20
-20.6281832552
 10
63.2255483255
 20
-19.9496167181
 10
62.2461041586
 20
-19.2694296574
 10
61.2688043726
 20
-18.5876258374
 10
60.2936557164
 20
-17.9042100425
 10
59.3206634337
 20
-17.2191859706
 10
58.349831773
 20
-16.5325565753
 10
57.3811659578
 20
-15.8443255625
 10
56.4146710029
 20
-15.1544965577
 10
55.4503513149
 20
-14.4630727046
 10
54.4882111887
 20
-13.7700570154
 10
53.5282551779
 20
-13.0754527866
 10
52.5704880922
 20
-12.3792636003
 10
51.6149145966
 20
-11.6814929245
  0
LWPOLYLINE
  5
48F
100
AcDbEntity
  8
RACCORDO
100
AcDbPolyline
 62
250
  6
CONTINUOUS
 90
16
 70
0
 10
66.6438754347
 20
-21.1916365962
 10
65.6212186739
 20
-20.4910424565
 10
64.6008667359
 20
-19.7887029846
 10
63.5828196208
 20
-19.0846181805
 10
62.5670710139
 20
-18.3787836375
 10
61.5536272298
 20
-17.6712037623
 10
60.5425072126
 20
-16.961891775
 10
59.5337117574
 20
-16.2508481618
 10
58.527240069
 20
-15.5380724365
 10
57.5231087066
 20
-14.8235763608
 10
56.5213181285
 20
-14.1073602116
 10
55.5218678764
 20
-13.389423712
 10
54.5247731343
 20
-12.6697777936
 10
53.5300389637
 20
-11.9484261003
 10
52.5376603032
 20
-11.225364988
 10
51.5476371527
 20
-10.500594457
  0
LINE
  5
490
100
AcDbEntity
  8
DRAFT
100
AcDbLine
 62
7
  6
CONTINUOUS
 10
-55.2838611253
 20
63.8885135897
 11
51.0649987651
 21
-11.3114864103
  0
LINE
  5
491
100
AcDbEntity
  8
RACCORDO
100
AcDbLine
 62
250
  6
CONTINUOUS
 10
51.0678042607
 20
-11.2805380343
 11
-55.2810557352
 21
63.9194620403
  0
LINE
  5
492
100
AcDbEntity
  8
RACCORDO
100
AcDbLine
 62
250
  6
CONTINUOUS
 10
51.5476371527
 20
-10.500594457
 11
-54.8101037095
 21
64.7056853383
  0
LINE
  5
493
100
AcDbEntity
  8
RACCORDO
100
AcDbLine
 62
250
  6
CONTINUOUS
 10
51.2542078011
 20
-11.4172713619
 11
51.0678032421
 21
-11.280549255
  0
LWPOLYLINE
  5
494
100
AcDbEntity
  8
RACCORDO
100
AcDbPolyline
 62
250
  6
CONTINUOUS
 90
39
 70
0
 10
-70.4124356084
 20
74.6026587807
 10
-70.4230370305
 20
74.6105061237
 10
-70.4333906044
 20
74.6184927345
 10
-70.4434912996
 20
74.6266147449
 10
-70.4533342415
 20
74.6348682474
 10
-70.4629146115
 20
74.6432492182
 10
-70.4722276584
 20
74.6517535153
 10
-70.4812688411
 20
74.6603769973
 10
-70.4900337966
 20
74.6691155
 10
-70.498518249
 20
74.677964755
 10
-70.5067180745
 20
74.6869204562
 10
-70.5146293067
 20
74.6959782734
 10
-70.5222481139
 20
74.7051338235
 10
-70.5295708029
 20
74.7143826706
 10
-70.5365938199
 20
74.7237203248
 10
-70.5433137577
 20
74.7331422538
 10
-70.5497273568
 20
74.7426438866
 10
-70.555831507
 20
74.7522206163
 10
-70.5616232481
 20
74.7618677995
 10
-70.5670997711
 20
74.7715807578
 10
-70.5722584197
 20
74.7813547799
 10
-70.5770966922
 20
74.791185125
 10
-70.5816122418
 20
74.8010670254
 10
-70.5858028786
 20
74.8109956883
 10
-70.58966657
 20
74.8209662986
 10
-70.5932014423
 20
74.8309740207
 10
-70.596405781
 20
74.8410140007
 10
-70.5992780319
 20
74.8510813692
 10
-70.6018168021
 20
74.8611712435
 10
-70.6040208602
 20
74.8712787301
 10
-70.6058891373
 20
74.8813989268
 10
-70.6074207272
 20
74.8915269255
 10
-70.6086148871
 20
74.901657814
 10
-70.6094710378
 20
74.9117866788
 10
-70.6099887642
 20
74.9219086076
 10
-70.610167815
 20
74.932018691
 10
-70.6100081035
 20
74.9421120256
 10
-70.609509707
 20
74.9521837161
 10
-70.6090308692
 20
74.9584133627
  0
LINE
  5
495
100
AcDbEntity
  8
RACCORDO
100
AcDbLine
 62
7
  6
CONTINUOUS
 10
-55.7076890663
 20
64.2431408395
 11
-55.7405233115
 21
64.2693965721
  0
LINE
  5
496
100
AcDbEntity
  8
RACCORDO
100
AcDbLine
 62
250
  6
CONTINUOUS
 10
51.4914983971
 20
-68.3509832653
 11
51.4877258794
 21
-68.3434456288
  0
LINE
  5
497
100
AcDbEntity
  8
RACCORDO
100
AcDbLine
 62
250
  6
CONTINUOUS
 10
51.5838113404
 20
-68.4204162241
 11
51.5823113269
 21
-68.4174111532
  0
LINE
  5
498
100
AcDbEntity
  8
RACCORDO
100
AcDbLine
 62
250
  6
CONTINUOUS
 10
51.4877258794
 20
-68.3434456288
 11
51.4838792396
 21
-68.3356153673
  0
LINE
  5
499
100
AcDbEntity
  8
RACCORDO
100
AcDbLine
 62
250
  6
CONTINUOUS
 10
51.5823113269
 20
-68.4174111532
 11
51.5807866824
 21
-68.4142915169
  0
LINE
  5
49A
100
AcDbEntity
  8
RACCORDO
100
AcDbLine
 62
250
  6
CONTINUOUS
 10
51.4838792396
 20
-68.3356153673
 11
51.4799543981
 21
-68.3274735121
  0
LINE
  5
49B
100
AcDbEntity
  8
RACCORDO
100
AcDbLine
 62
250
  6
CONTINUOUS
 10
51.5807866824
 20
-68.4142915169
 11
51.5792365704
 21
-68.4110524309
  0
LINE
  5
49C
100
AcDbEntity
  8
RACCORDO
100
AcDbLine
 62
250
  6
CONTINUOUS
 10
51.4799543981
 20
-68.3274735121
 11
51.4759486365
 21
-68.3190069363
  0
LINE
  5
49D
100
AcDbEntity
  8
RACCORDO
100
AcDbLine
 62
250
  6
CONTINUOUS
 10
51.5792365704
 20
-68.4110524309
 11
51.5776598308
 21
-68.4076880086
  0
LINE
  5
49E
100
AcDbEntity
  8
RACCORDO
100
AcDbLine
 62
250
  6
CONTINUOUS
 10
51.4759486365
 20
-68.3190069363
 11
51.4718571769
 21
-68.3101939922
  0
LINE
  5
49F
100
AcDbEntity
  8
RACCORDO
100
AcDbLine
 62
250
  6
CONTINUOUS
 10
51.5776598308
 20
-68.4076880086
 11
51.5760556846
 21
-68.4041939659
  0
LINE
  5
4A0
100
AcDbEntity
  8
RACCORDO
100
AcDbLine
 62
250
  6
CONTINUOUS
 10
51.4718571769
 20
-68.3101939922
 11
51.4676774081
 21
-68.3010159289
  0
LINE
  5
4A1
100
AcDbEntity
  8
RACCORDO
100
AcDbLine
 62
250
  6
CONTINUOUS
 10
51.5760556846
 20
-68.4041939659
 11
51.5744227135
 21
-68.4005635319
  0
LINE
  5
4A2
100
AcDbEntity
  8
RACCORDO
100
AcDbLine
 62
250
  6
CONTINUOUS
 10
51.4676774081
 20
-68.3010159289
 11
51.4634080629
 21
-68.2914609806
  0
LINE
  5
4A3
100
AcDbEntity
  8
RACCORDO
100
AcDbLine
 62
250
  6
CONTINUOUS
 10
51.5744227135
 20
-68.4005635319
 11
51.5727590628
 21
-68.3967884282
  0
LINE
  5
4A4
100
AcDbEntity
  8
RACCORDO
100
AcDbLine
 62
250
  6
CONTINUOUS
 10
51.4634080629
 20
-68.2914609806
 11
51.4590485197
 21
-68.2815140261
  0
LINE
  5
4A5
100
AcDbEntity
  8
RACCORDO
100
AcDbLine
 62
250
  6
CONTINUOUS
 10
51.5727590628
 20
-68.3967884282
 11
51.5710637189
 21
-68.3928631932
  0
LINE
  5
4A6
100
AcDbEntity
  8
RACCORDO
100
AcDbLine
 62
250
  6
CONTINUOUS
 10
51.4590485197
 20
-68.2815140261
 11
51.4545964548
 21
-68.2711548983
  0
LINE
  5
4A7
100
AcDbEntity
  8
RACCORDO
100
AcDbLine
 62
250
  6
CONTINUOUS
 10
51.5710637189
 20
-68.3928631932
 11
51.5693350671
 21
-68.3887796144
  0
LINE
  5
4A8
100
AcDbEntity
  8
RACCORDO
100
AcDbLine
 62
250
  6
CONTINUOUS
 10
51.4545964548
 20
-68.2711548983
 11
51.4500489583
 21
-68.2603662334
  0
LINE
  5
4A9
100
AcDbEntity
  8
RACCORDO
100
AcDbLine
 62
250
  6
CONTINUOUS
 10
51.5693350671
 20
-68.3887796144
 11
51.5675718493
 21
-68.3845297945
  0
LINE
  5
4AA
100
AcDbEntity
  8
RACCORDO
100
AcDbLine
 62
250
  6
CONTINUOUS
 10
51.4500489583
 20
-68.2603662334
 11
51.4453992747
 21
-68.2491159949
  0
LINE
  5
4AB
100
AcDbEntity
  8
RACCORDO
100
AcDbLine
 62
250
  6
CONTINUOUS
 10
51.5675718493
 20
-68.3845297945
 11
51.5657732578
 21
-68.380108049
  0
LINE
  5
4AC
100
AcDbEntity
  8
RACCORDO
100
AcDbLine
 62
250
  6
CONTINUOUS
 10
51.4453992747
 20
-68.2491159949
 11
51.4406404095
 21
-68.237368182
  0
LWPOLYLINE
  5
4AD
100
AcDbEntity
  8
RACCORDO
100
AcDbPolyline
 62
250
  6
CONTINUOUS
 90
16
 70
0
 10
-54.8101037095
 20
64.7056853383
 10
-55.8342417203
 20
65.4051418209
 10
-56.8560772644
 20
66.1063452302
 10
-57.8756103416
 20
66.8092955661
 10
-58.8928461094
 20
67.5139964105
 10
-59.9077794103
 20
68.2204441816
 10
-60.9203947726
 20
68.9286281337
 10
-61.9306925852
 20
69.6385485895
 10
-62.9386724592
 20
70.3502052264
 10
-63.9443177562
 20
71.063586331
 10
-64.9476291592
 20
71.7786924624
 10
-65.9486059852
 20
72.4955230616
 10
-66.9472295461
 20
73.2140647385
 10
-67.9434936126
 20
73.9343130296
 10
-68.9374044141
 20
74.6562723984
 10
-69.9289619505
 20
75.3799428448
  0
LINE
  5
4AE
100
AcDbEntity
  8
RACCORDO
100
AcDbLine
 62
7
  6
CONTINUOUS
 10
-65.4568841302
 20
78.9328456291
 11
71.439591758
 21
-17.8675807919
  0
LINE
  5
4AF
100
AcDbEntity
  8
RACCORDO
100
AcDbLine
 62
250
  6
CONTINUOUS
 10
51.5657732578
 20
-68.380108049
 11
51.5639378836
 21
-68.3755057168
  0
LINE
  5
4B0
100
AcDbEntity
  8
RACCORDO
100
AcDbLine
 62
250
  6
CONTINUOUS
 10
51.4406404095
 20
-68.237368182
 11
51.4357688444
 21
-68.2251007826
  0
LINE
  5
4B1
100
AcDbEntity
  8
RACCORDO
100
AcDbLine
 62
250
  6
CONTINUOUS
 10
51.5639378836
 20
-68.3755057168
 11
51.5620639429
 21
-68.3707126001
  0
LINE
  5
4B2
100
AcDbEntity
  8
RACCORDO
100
AcDbLine
 62
250
  6
CONTINUOUS
 10
51.4357688444
 20
-68.2251007826
 11
51.4307803819
 21
-68.2122825261
  0
LINE
  5
4B3
100
AcDbEntity
  8
RACCORDO
100
AcDbLine
 62
250
  6
CONTINUOUS
 10
51.5620639429
 20
-68.3707126001
 11
51.560150479
 21
-68.3657218638
  0
LINE
  5
4B4
100
AcDbEntity
  8
RACCORDO
100
AcDbLine
 62
250
  6
CONTINUOUS
 10
51.4307803819
 20
-68.2122825261
 11
51.425673269
 21
-68.1988859152
  0
LINE
  5
4B5
100
AcDbEntity
  8
RACCORDO
100
AcDbLine
 62
250
  6
CONTINUOUS
 10
51.560150479
 20
-68.3657218638
 11
51.5581959529
 21
-68.3605234031
  0
LINE
  5
4B6
100
AcDbEntity
  8
RACCORDO
100
AcDbLine
 62
250
  6
CONTINUOUS
 10
51.425673269
 20
-68.1988859152
 11
51.4204461095
 21
-68.1848912929
  0
LINE
  5
4B7
100
AcDbEntity
  8
RACCORDO
100
AcDbLine
 62
250
  6
CONTINUOUS
 10
51.5581959529
 20
-68.3605234031
 11
51.556198598
 21
-68.3551058483
  0
LINE
  5
4B8
100
AcDbEntity
  8
RACCORDO
100
AcDbLine
 62
250
  6
CONTINUOUS
 10
51.4204461095
 20
-68.1848912929
 11
51.4150968282
 21
-68.1702688531
  0
LINE
  5
4B9
100
AcDbEntity
  8
RACCORDO
100
AcDbLine
 62
250
  6
CONTINUOUS
 10
51.556198598
 20
-68.3551058483
 11
51.5541574146
 21
-68.3494613408
  0
LINE
  5
4BA
100
AcDbEntity
  8
RACCORDO
100
AcDbLine
 62
250
  6
CONTINUOUS
 10
51.4150968282
 20
-68.1702688531
 11
51.4096222203
 21
-68.1549830155
  0
LINE
  5
4BB
100
AcDbEntity
  8
RACCORDO
100
AcDbLine
 62
250
  6
CONTINUOUS
 10
51.5541574146
 20
-68.3494613408
 11
51.5520706835
 21
-68.3435780382
  0
LINE
  5
4BC
100
AcDbEntity
  8
RACCORDO
100
AcDbLine
 62
250
  6
CONTINUOUS
 10
51.4096222203
 20
-68.1549830155
 11
51.4040208065
 21
-68.1390108826
  0
LINE
  5
4BD
100
AcDbEntity
  8
RACCORDO
100
AcDbLine
 62
250
  6
CONTINUOUS
 10
51.5520706835
 20
-68.3435780382
 11
51.5499364367
 21
-68.3374426281
  0
LINE
  5
4BE
100
AcDbEntity
  8
RACCORDO
100
AcDbLine
 62
250
  6
CONTINUOUS
 10
51.4040208065
 20
-68.1390108826
 11
51.3982911629
 21
-68.1223199303
  0
LINE
  5
4BF
100
AcDbEntity
  8
RACCORDO
100
AcDbLine
 62
250
  6
CONTINUOUS
 10
51.5499364367
 20
-68.3374426281
 11
51.547753268
 21
-68.3310449743
  0
LINE
  5
4C0
100
AcDbEntity
  8
RACCORDO
100
AcDbLine
 62
250
  6
CONTINUOUS
 10
51.3982911629
 20
-68.1223199303
 11
51.3924309061
 21
-68.1048720798
  0
LINE
  5
4C1
100
AcDbEntity
  8
RACCORDO
100
AcDbLine
 62
250
  6
CONTINUOUS
 10
51.547753268
 20
-68.3310449743
 11
51.5455183189
 21
-68.3243683428
  0
LINE
  5
4C2
100
AcDbEntity
  8
RACCORDO
100
AcDbLine
 62
250
  6
CONTINUOUS
 10
51.3924309061
 20
-68.1048720798
 11
51.3864357066
 21
-68.0866317816
  0
LINE
  5
4C3
100
AcDbEntity
  8
RACCORDO
100
AcDbLine
 62
250
  6
CONTINUOUS
 10
51.5455183189
 20
-68.3243683428
 11
51.5432284802
 21
-68.3173939869
  0
LINE
  5
4C4
100
AcDbEntity
  8
RACCORDO
100
AcDbLine
 62
250
  6
CONTINUOUS
 10
51.5432284802
 20
-68.3173939869
 11
51.5408823411
 21
-68.3101101897
  0
LINE
  5
4C5
100
AcDbEntity
  8
RACCORDO
100
AcDbLine
 62
250
  6
CONTINUOUS
 10
51.3864357066
 20
-68.0866317816
 11
51.3802952968
 21
-68.0675340482
  0
LINE
  5
4C6
100
AcDbEntity
  8
RACCORDO
100
AcDbLine
 62
250
  6
CONTINUOUS
 10
51.5408823411
 20
-68.3101101897
 11
51.5384778023
 21
-68.3025002455
  0
LINE
  5
4C7
100
AcDbEntity
  8
RACCORDO
100
AcDbLine
 62
250
  6
CONTINUOUS
 10
51.3802952968
 20
-68.0675340482
 11
51.3739935655
 21
-68.047486562
  0
LWPOLYLINE
  5
4C8
100
AcDbEntity
  8
RACCORDO
100
AcDbPolyline
 62
250
  6
CONTINUOUS
 90
3
 70
0
 10
51.5384778023
 20
-68.3025002455
 10
51.5360139135
 20
-68.2945502617
 10
51.5347597417
 20
-68.2904458856
  0
LINE
  5
4C9
100
AcDbEntity
  8
RACCORDO
100
AcDbLine
 62
250
  6
CONTINUOUS
 10
51.3739935655
 20
-68.047486562
 11
51.3675220063
 21
-68.026431569
  0
LWPOLYLINE
  5
4CA
100
AcDbEntity
  8
RACCORDO
100
AcDbPolyline
 62
250
  6
CONTINUOUS
 90
4
 70
0
 10
-53.1780406857
 20
21.307163922
 10
-53.1872803244
 20
21.304537698
 10
-53.1964608227
 20
21.3018871364
 10
-53.2146432986
 20
21.2965127863
  0
LINE
  5
4CB
100
AcDbEntity
  8
RACCORDO
100
AcDbLine
 62
250
  6
CONTINUOUS
 10
51.5347597417
 20
-68.2904458856
 11
51.5322041463
 21
-68.2819589954
  0
LINE
  5
4CC
100
AcDbEntity
  8
RACCORDO
100
AcDbLine
 62
250
  6
CONTINUOUS
 10
51.3675220063
 20
-68.026431569
 11
51.3608671345
 21
-68.0042769096
  0
LINE
  5
4CD
100
AcDbEntity
  8
RACCORDO
100
AcDbLine
 62
250
  6
CONTINUOUS
 10
51.5322041463
 20
-68.2819589954
 11
51.5295843837
 21
-68.2730912045
  0
LINE
  5
4CE
100
AcDbEntity
  8
RACCORDO
100
AcDbLine
 62
250
  6
CONTINUOUS
 10
51.3608671345
 20
-68.0042769096
 11
51.3540294844
 21
-67.9809685297
  0
LINE
  5
4CF
100
AcDbEntity
  8
RACCORDO
100
AcDbLine
 62
250
  6
CONTINUOUS
 10
51.5295843837
 20
-68.2730912045
 11
51.5268956132
 21
-68.2638134563
  0
LINE
  5
4D0
100
AcDbEntity
  8
RACCORDO
100
AcDbLine
 62
250
  6
CONTINUOUS
 10
51.3540294844
 20
-67.9809685297
 11
51.3470155586
 21
-67.9564913684
  0
LINE
  5
4D1
100
AcDbEntity
  8
RACCORDO
100
AcDbLine
 62
250
  6
CONTINUOUS
 10
51.5268956132
 20
-68.2638134563
 11
51.5241330643
 21
-68.254094649
  0
LINE
  5
4D2
100
AcDbEntity
  8
RACCORDO
100
AcDbLine
 62
250
  6
CONTINUOUS
 10
51.3470155586
 20
-67.9564913684
 11
51.3398496134
 21
-67.9308744272
  0
LINE
  5
4D3
100
AcDbEntity
  8
RACCORDO
100
AcDbLine
 62
250
  6
CONTINUOUS
 10
51.5241330643
 20
-68.254094649
 11
51.5212945608
 21
-68.2439152899
  0
LINE
  5
4D4
100
AcDbEntity
  8
RACCORDO
100
AcDbLine
 62
250
  6
CONTINUOUS
 10
51.5212945608
 20
-68.2439152899
 11
51.5183768903
 21
-68.2332478713
  0
LINE
  5
4D5
100
AcDbEntity
  8
RACCORDO
100
AcDbLine
 62
250
  6
CONTINUOUS
 10
51.3398496134
 20
-67.9308744272
 11
51.3325326348
 21
-67.9040679065
  0
LINE
  5
4D6
100
AcDbEntity
  8
RACCORDO
100
AcDbLine
 62
250
  6
CONTINUOUS
 10
51.5183768903
 20
-68.2332478713
 11
51.5153778869
 21
-68.2220671272
  0
LINE
  5
4D7
100
AcDbEntity
  8
RACCORDO
100
AcDbLine
 62
250
  6
CONTINUOUS
 10
51.3325326348
 20
-67.9040679065
 11
51.3250592506
 21
-67.8760107749
  0
LINE
  5
4D8
100
AcDbEntity
  8
RACCORDO
100
AcDbLine
 62
250
  6
CONTINUOUS
 10
51.5153778869
 20
-68.2220671272
 11
51.512296384
 21
-68.2103546836
  0
LINE
  5
4D9
100
AcDbEntity
  8
RACCORDO
100
AcDbLine
 62
250
  6
CONTINUOUS
 10
51.3250592506
 20
-67.8760107749
 11
51.3174067151
 21
-67.8465570586
  0
LINE
  5
4DA
100
AcDbEntity
  8
RACCORDO
100
AcDbLine
 62
250
  6
CONTINUOUS
 10
51.512296384
 20
-68.2103546836
 11
51.5091298301
 21
-68.198082422
  0
LINE
  5
4DB
100
AcDbEntity
  8
RACCORDO
100
AcDbLine
 62
250
  6
CONTINUOUS
 10
51.5091298301
 20
-68.198082422
 11
51.5058750284
 21
-68.1852179899
  0
LINE
  5
4DC
100
AcDbEntity
  8
RACCORDO
100
AcDbLine
 62
250
  6
CONTINUOUS
 10
51.3174067151
 20
-67.8465570586
 11
51.3095608997
 21
-67.815574287
  0
LINE
  5
4DD
100
AcDbEntity
  8
RACCORDO
100
AcDbLine
 62
250
  6
CONTINUOUS
 10
51.5058750284
 20
-68.1852179899
 11
51.5025307931
 21
-68.1717403226
  0
LINE
  5
4DE
100
AcDbEntity
  8
RACCORDO
100
AcDbLine
 62
250
  6
CONTINUOUS
 10
51.3095608997
 20
-67.815574287
 11
51.3015149122
 21
-67.7829780615
  0
LINE
  5
4DF
100
AcDbEntity
  8
RACCORDO
100
AcDbLine
 62
250
  6
CONTINUOUS
 10
51.5025307931
 20
-68.1717403226
 11
51.4990952101
 21
-68.1576204577
  0
LINE
  5
4E0
100
AcDbEntity
  8
RACCORDO
100
AcDbLine
 62
250
  6
CONTINUOUS
 10
51.3015149122
 20
-67.7829780615
 11
51.2932594612
 21
-67.7486424838
  0
LINE
  5
4E1
100
AcDbEntity
  8
RACCORDO
100
AcDbLine
 62
250
  6
CONTINUOUS
 10
51.4990952101
 20
-68.1576204577
 11
51.4955646451
 21
-68.1428206212
  0
LINE
  5
4E2
100
AcDbEntity
  8
RACCORDO
100
AcDbLine
 62
250
  6
CONTINUOUS
 10
51.4955646451
 20
-68.1428206212
 11
51.4919356645
 21
-68.1273068677
  0
LINE
  5
4E3
100
AcDbEntity
  8
RACCORDO
100
AcDbLine
 62
250
  6
CONTINUOUS
 10
51.2932594612
 20
-67.7486424838
 11
51.2847986222
 21
-67.7124844013
  0
LINE
  5
4E4
100
AcDbEntity
  8
RACCORDO
100
AcDbLine
 62
250
  6
CONTINUOUS
 10
51.2847986222
 20
-67.7124844013
 11
51.2761363356
 21
-67.6744485777
  0
LINE
  5
4E5
100
AcDbEntity
  8
RACCORDO
100
AcDbLine
 62
250
  6
CONTINUOUS
 10
51.4919356645
 20
-68.1273068677
 11
51.4862878773
 21
-68.1025551235
  0
LINE
  5
4E6
100
AcDbEntity
  8
RACCORDO
100
AcDbLine
 62
250
  6
CONTINUOUS
 10
51.2761363356
 20
-67.6744485777
 11
51.2672816148
 21
-67.6344681716
  0
LINE
  5
4E7
100
AcDbEntity
  8
RACCORDO
100
AcDbLine
 62
250
  6
CONTINUOUS
 10
51.4862878773
 20
-68.1025551235
 11
51.4803668758
 21
-68.0758172247
  0
LINE
  5
4E8
100
AcDbEntity
  8
RACCORDO
100
AcDbLine
 62
250
  6
CONTINUOUS
 10
51.2672816148
 20
-67.6344681716
 11
51.2582362795
 21
-67.5924361691
  0
LINE
  5
4E9
100
AcDbEntity
  8
RACCORDO
100
AcDbLine
 62
250
  6
CONTINUOUS
 10
51.4803668758
 20
-68.0758172247
 11
51.4741463906
 21
-68.0468628675
  0
LINE
  5
4EA
100
AcDbEntity
  8
RACCORDO
100
AcDbLine
 62
250
  6
CONTINUOUS
 10
51.4741463906
 20
-68.0468628675
 11
51.4698309325
 21
-68.0262589525
  0
LINE
  5
4EB
100
AcDbEntity
  8
RACCORDO
100
AcDbLine
 62
250
  6
CONTINUOUS
 10
51.2582362795
 20
-67.5924361691
 11
51.2489984762
 21
-67.5482553751
  0
LINE
  5
4EC
100
AcDbEntity
  8
RACCORDO
100
AcDbLine
 62
7
  6
CONTINUOUS
 10
51.610164262
 20
-11.6718845769
 11
51.6149146008
 21
-11.6814929217
  0
LINE
  5
4ED
100
AcDbEntity
  8
RACCORDO
100
AcDbLine
 62
7
  6
CONTINUOUS
 10
51.6054743117
 20
-11.6622432908
 11
51.610164262
 21
-11.6718845769
  0
LINE
  5
4EE
100
AcDbEntity
  8
RACCORDO
100
AcDbLine
 62
7
  6
CONTINUOUS
 10
51.6008446752
 20
-11.6525697454
 11
51.6054743117
 21
-11.6622432908
  0
LINE
  5
4EF
100
AcDbEntity
  8
RACCORDO
100
AcDbLine
 62
250
  6
CONTINUOUS
 10
51.4698309325
 20
-68.0262589525
 11
51.4631280037
 21
-67.9934189696
  0
LINE
  5
4F0
100
AcDbEntity
  8
RACCORDO
100
AcDbLine
 62
250
  6
CONTINUOUS
 10
51.2489984762
 20
-67.5482553751
 11
51.2395532429
 21
-67.5017227656
  0
LINE
  5
4F1
100
AcDbEntity
  8
RACCORDO
100
AcDbLine
 62
250
  6
CONTINUOUS
 10
51.4631280037
 20
-67.9934189696
 11
51.4561501113
 21
-67.9581550878
  0
LINE
  5
4F2
100
AcDbEntity
  8
RACCORDO
100
AcDbLine
 62
250
  6
CONTINUOUS
 10
51.2395532429
 20
-67.5017227656
 11
51.2299090846
 21
-67.452726619
  0
LINE
  5
4F3
100
AcDbEntity
  8
RACCORDO
100
AcDbLine
 62
250
  6
CONTINUOUS
 10
51.4561501113
 20
-67.9581550878
 11
51.4488619505
 21
-67.9201543813
  0
LINE
  5
4F4
100
AcDbEntity
  8
RACCORDO
100
AcDbLine
 62
250
  6
CONTINUOUS
 10
51.2299090846
 20
-67.452726619
 11
51.2200735231
 21
-67.4011913581
  0
LINE
  5
4F5
100
AcDbEntity
  8
RACCORDO
100
AcDbLine
 62
250
  6
CONTINUOUS
 10
51.4488619505
 20
-67.9201543813
 11
51.4412231783
 21
-67.879047118
  0
LINE
  5
4F6
100
AcDbEntity
  8
RACCORDO
100
AcDbLine
 62
250
  6
CONTINUOUS
 10
51.2200735231
 20
-67.4011913581
 11
51.2100638385
 21
-67.347043201
  0
LINE
  5
4F7
100
AcDbEntity
  8
RACCORDO
100
AcDbLine
 62
250
  6
CONTINUOUS
 10
51.4412231783
 20
-67.879047118
 11
51.4332056217
 21
-67.834495579
  0
LINE
  5
4F8
100
AcDbEntity
  8
RACCORDO
100
AcDbLine
 62
250
  6
CONTINUOUS
 10
51.2100638385
 20
-67.347043201
 11
51.1998690483
 21
-67.2900340904
  0
LINE
  5
4F9
100
AcDbEntity
  8
RACCORDO
100
AcDbLine
 62
250
  6
CONTINUOUS
 10
51.4332056217
 20
-67.834495579
 11
51.4247984661
 21
-67.7862319196
  0
LINE
  5
4FA
100
AcDbEntity
  8
RACCORDO
100
AcDbLine
 62
250
  6
CONTINUOUS
 10
51.1998690483
 20
-67.2900340904
 11
51.189493706
 21
-67.2300431765
  0
LINE
  5
4FB
100
AcDbEntity
  8
RACCORDO
100
AcDbLine
 62
250
  6
CONTINUOUS
 10
51.4247984661
 20
-67.7862319196
 11
51.4160034912
 21
-67.7340427256
  0
LINE
  5
4FC
100
AcDbEntity
  8
RACCORDO
100
AcDbLine
 62
250
  6
CONTINUOUS
 10
51.189493706
 20
-67.2300431765
 11
51.1789509472
 21
-67.1669284978
  0
LINE
  5
4FD
100
AcDbEntity
  8
RACCORDO
100
AcDbLine
 62
250
  6
CONTINUOUS
 10
51.4160034912
 20
-67.7340427256
 11
51.406813819
 21
-67.6776465951
  0
LINE
  5
4FE
100
AcDbEntity
  8
RACCORDO
100
AcDbLine
 62
250
  6
CONTINUOUS
 10
51.1789509472
 20
-67.1669284978
 11
51.1682630397
 21
-67.1005862905
  0
LINE
  5
4FF
100
AcDbEntity
  8
RACCORDO
100
AcDbLine
 62
250
  6
CONTINUOUS
 10
51.406813819
 20
-67.6776465951
 11
51.3971988388
 21
-67.6165852605
  0
LINE
  5
500
100
AcDbEntity
  8
RACCORDO
100
AcDbLine
 62
250
  6
CONTINUOUS
 10
51.1682630397
 20
-67.1005862905
 11
51.1574445058
 21
-67.0309207854
  0
LINE
  5
501
100
AcDbEntity
  8
RACCORDO
100
AcDbLine
 62
250
  6
CONTINUOUS
 10
51.3971988388
 20
-67.6165852605
 11
51.3871463979
 21
-67.5504761737
  0
LINE
  5
502
100
AcDbEntity
  8
RACCORDO
100
AcDbLine
 62
250
  6
CONTINUOUS
 10
51.1574445058
 20
-67.0309207854
 11
51.1465090921
 21
-66.9577543491
  0
LINE
  5
503
100
AcDbEntity
  8
RACCORDO
100
AcDbLine
 62
250
  6
CONTINUOUS
 10
51.3871463979
 20
-67.5504761737
 11
51.3766621441
 21
-67.4790220458
  0
LINE
  5
504
100
AcDbEntity
  8
RACCORDO
100
AcDbLine
 62
250
  6
CONTINUOUS
 10
51.1465090921
 20
-66.9577543491
 11
51.1354802487
 21
-66.8809450042
  0
LINE
  5
505
100
AcDbEntity
  8
RACCORDO
100
AcDbLine
 62
250
  6
CONTINUOUS
 10
51.3766621441
 20
-67.4790220458
 11
51.365724467
 21
-67.4017028082
  0
LINE
  5
506
100
AcDbEntity
  8
RACCORDO
100
AcDbLine
 62
250
  6
CONTINUOUS
 10
51.1354802487
 20
-66.8809450042
 11
51.124380058
 21
-66.8004104965
  0
LINE
  5
507
100
AcDbEntity
  8
RACCORDO
100
AcDbLine
 62
250
  6
CONTINUOUS
 10
51.365724467
 20
-67.4017028082
 11
51.3543272562
 21
-67.318054023
  0
LINE
  5
508
100
AcDbEntity
  8
RACCORDO
100
AcDbLine
 62
250
  6
CONTINUOUS
 10
51.124380058
 20
-66.8004104965
 11
51.113242699
 21
-66.7160636289
  0
LINE
  5
509
100
AcDbEntity
  8
RACCORDO
100
AcDbLine
 62
250
  6
CONTINUOUS
 10
51.3543272562
 20
-67.318054023
 11
51.342487171
 21
-67.2277333458
  0
LINE
  5
50A
100
AcDbEntity
  8
RACCORDO
100
AcDbLine
 62
250
  6
CONTINUOUS
 10
51.113242699
 20
-66.7160636289
 11
51.1020986311
 21
-66.6277704991
  0
LINE
  5
50B
100
AcDbEntity
  8
RACCORDO
100
AcDbLine
 62
250
  6
CONTINUOUS
 10
51.342487171
 20
-67.2277333458
 11
51.3302139032
 21
-67.1303045551
  0
LINE
  5
50C
100
AcDbEntity
  8
RACCORDO
100
AcDbLine
 62
250
  6
CONTINUOUS
 10
51.3302139032
 20
-67.1303045551
 11
51.3217979269
 21
-67.0611787554
  0
LINE
  5
50D
100
AcDbEntity
  8
RACCORDO
100
AcDbLine
 62
250
  6
CONTINUOUS
 10
51.1020986311
 20
-66.6277704991
 11
51.0909772632
 21
-66.5354691612
  0
LINE
  5
50E
100
AcDbEntity
  8
RACCORDO
100
AcDbLine
 62
250
  6
CONTINUOUS
 10
51.3217979269
 20
-67.0611787554
 11
51.3132076516
 21
-66.988611403
  0
LWPOLYLINE
  5
50F
100
AcDbEntity
  8
RACCORDO
100
AcDbPolyline
 62
250
  6
CONTINUOUS
 90
24
 70
0
 10
51.0678042073
 20
-68.0465850464
 10
51.0689555757
 20
-68.0564894921
 10
51.0703398232
 20
-68.0662010907
 10
51.0719563355
 20
-68.0757151851
 10
51.0738040761
 20
-68.0850271381
 10
51.0758825284
 20
-68.0941325434
 10
51.0781916518
 20
-68.103027268
 10
51.0807303059
 20
-68.1117069202
 10
51.083497323
 20
-68.1201675236
 10
51.086492418
 20
-68.1284057579
 10
51.0897141714
 20
-68.1364177005
 10
51.0931610505
 20
-68.1441995317
 10
51.0968324359
 20
-68.1517482503
 10
51.100726587
 20
-68.1590602647
 10
51.1048416521
 20
-68.1661320918
 10
51.1091766846
 20
-68.1729610664
 10
51.1137296299
 20
-68.1795439437
 10
51.1184983256
 20
-68.1858775923
 10
51.1234815058
 20
-68.1919596988
 10
51.1286768423
 20
-68.1977874011
 10
51.1340818396
 20
-68.2033579119
 10
51.1396948292
 20
-68.2086692177
 10
51.1455135193
 20
-68.213719063
 10
51.1515347921
 20
-68.2185048056
  0
LINE
  5
510
100
AcDbEntity
  8
RACCORDO
100
AcDbLine
 62
250
  6
CONTINUOUS
 10
51.3132076516
 20
-66.988611403
 11
51.3044554059
 21
-66.9125131144
  0
LWPOLYLINE
  5
511
100
AcDbEntity
  8
RACCORDO
100
AcDbPolyline
 62
250
  6
CONTINUOUS
 90
4
 70
0
 10
51.0909772632
 20
-66.5354691612
 10
51.0799218281
 20
-66.4391029955
 10
51.0744347843
 20
-66.3893924737
 10
51.0689810127
 20
-66.3386595428
  0
LINE
  5
512
100
AcDbEntity
  8
RACCORDO
100
AcDbLine
 62
250
  6
CONTINUOUS
 10
51.3044554059
 20
-66.9125131144
 11
51.2955503752
 21
-66.8327591276
  0
LINE
  5
513
100
AcDbEntity
  8
RACCORDO
100
AcDbLine
 62
250
  6
CONTINUOUS
 10
51.2955503752
 20
-66.8327591276
 11
51.2865100144
 21
-66.7492920424
  0
LINE
  5
514
100
AcDbEntity
  8
RACCORDO
100
AcDbLine
 62
250
  6
CONTINUOUS
 10
51.2865100144
 20
-66.7492920424
 11
51.2773530549
 21
-66.6620564997
  0
LINE
  5
515
100
AcDbEntity
  8
RACCORDO
100
AcDbLine
 62
7
  6
CONTINUOUS
 10
51.0649987651
 20
-68.0196041271
 11
51.067804261
 21
-68.0465850844
  0
LINE
  5
516
100
AcDbEntity
  8
RACCORDO
100
AcDbLine
 62
250
  6
CONTINUOUS
 10
51.0689810127
 20
-66.3386595428
 11
51.0581926434
 21
-66.2341263918
  0
LINE
  5
517
100
AcDbEntity
  8
RACCORDO
100
AcDbLine
 62
250
  6
CONTINUOUS
 10
51.2773530549
 20
-66.6620564997
 11
51.2681021907
 21
-66.5710318037
  0
LINE
  5
518
100
AcDbEntity
  8
RACCORDO
100
AcDbLine
 62
250
  6
CONTINUOUS
 10
51.2681021907
 20
-66.5710318037
 11
51.25878115
 21
-66.4762057658
  0
LINE
  5
519
100
AcDbEntity
  8
RACCORDO
100
AcDbLine
 62
250
  6
CONTINUOUS
 10
51.0581926434
 20
-66.2341263918
 11
51.0476051411
 21
-66.1254759723
  0
LINE
  5
51A
100
AcDbEntity
  8
RACCORDO
100
AcDbLine
 62
250
  6
CONTINUOUS
 10
51.25878115
 20
-66.4762057658
 11
51.2501314435
 21
-66.3852443127
  0
LWPOLYLINE
  5
51B
100
AcDbEntity
  8
RACCORDO
100
AcDbPolyline
 62
250
  6
CONTINUOUS
 90
42
 70
0
 10
51.0476051411
 20
-66.1254759723
 10
51.0372788695
 20
-66.0128154403
 10
51.0322242887
 20
-65.9549900371
 10
51.0272581181
 20
-65.8962018475
 10
51.0223822529
 20
-65.8364416831
 10
51.0175992411
 20
-65.7757158912
 10
51.0129253273
 20
-65.7140819771
 10
51.0083628489
 20
-65.6515347407
 10
51.0039138961
 20
-65.5880765735
 10
50.9995941313
 20
-65.5237765124
 10
50.9954058625
 20
-65.4586284914
 10
50.9913511074
 20
-65.3926358575
 10
50.9874447964
 20
-65.3258819646
 10
50.9836893419
 20
-65.2583632848
 10
50.9800864346
 20
-65.1900807948
 10
50.9766495486
 20
-65.1211248534
 10
50.97338096
 20
-65.051491586
 10
50.9702821931
 20
-64.9811825342
 10
50.9673651536
 20
-64.9102964701
 10
50.9646320368
 20
-64.8388319124
 10
50.9620840477
 20
-64.7667882879
 10
50.9597311145
 20
-64.6942660514
 10
50.9575752057
 20
-64.6212641544
 10
50.9556173012
 20
-64.5477818994
 10
50.9538653245
 20
-64.4739206058
 10
50.9523209966
 20
-64.3996799428
 10
50.9509850477
 20
-64.3250588287
 10
50.9498633718
 20
-64.2501578052
 10
50.9489574161
 20
-64.1749781507
 10
50.9482676567
 20
-64.0995175226
 10
50.9477979869
 20
-64.023871378
 10
50.9475495433
 20
-63.9480411337
 10
50.9475225905
 20
-63.8720246486
 10
50.9477191862
 20
-63.7959123765
 10
50.9481401717
 20
-63.7197057548
 10
50.9487855953
 20
-63.6434029504
 10
50.9496558156
 20
-63.5670898318
 10
50.9507513745
 20
-63.4907687463
 10
50.9520721209
 20
-63.4144372665
 10
50.9536168927
 20
-63.3381743994
 10
50.9553859538
 20
-63.2619824494
 10
50.9573789676
 20
-63.1858593206
  0
LWPOLYLINE
  5
51C
100
AcDbEntity
  8
RACCORDO
100
AcDbPolyline
 62
250
  6
CONTINUOUS
 90
59
 70
0
 10
51.0190729878
 20
-16.2814574315
 10
51.0130304604
 20
-16.2143694985
 10
51.0078896157
 20
-16.1546900506
 10
51.0029438315
 20
-16.0948007375
 10
50.9981941521
 20
-16.0346998529
 10
50.9936413476
 20
-15.9743877783
 10
50.9892917662
 20
-15.9139063761
 10
50.9851463227
 20
-15.8532536637
 10
50.9812056523
 20
-15.7924305235
 10
50.9774753835
 20
-15.7314833596
 10
50.9739563236
 20
-15.670410481
 10
50.9706489056
 20
-15.6092127374
 10
50.9675578586
 20
-15.5479406175
 10
50.9646838482
 20
-15.4865925284
 10
50.9620270996
 20
-15.4251695093
 10
50.9595913071
 20
-15.363726299
 10
50.9573769785
 20
-15.3022614088
 10
50.9553841074
 20
-15.2407760897
 10
50.9536152055
 20
-15.1793295185
 10
50.9520706097
 20
-15.1179203757
 10
50.9507500559
 20
-15.0565500864
 10
50.9496547074
 20
-14.9952823002
 10
50.9487847165
 20
-14.9341160231
 10
50.9481395385
 20
-14.8730527226
 10
50.9477188112
 20
-14.8121601209
 10
50.9475224842
 20
-14.7514377477
 10
50.9475497207
 20
-14.6908869336
 10
50.9477984726
 20
-14.6305785001
 10
50.9482684901
 20
-14.5705115435
 10
50.9489586265
 20
-14.5106882214
 10
50.9498649538
 20
-14.4511843638
 10
50.9509869632
 20
-14.3920013556
 10
50.9523232265
 20
-14.3331394786
 10
50.9538678949
 20
-14.2746733296
 10
50.9556202692
 20
-14.2166031177
 10
50.9575786063
 20
-14.158930681
 10
50.9597349517
 20
-14.1017334762
 10
50.9620883099
 20
-14.0450139791
 10
50.964636725
 20
-13.9887721399
 10
50.9673702757
 20
-13.933082031
 10
50.9702877621
 20
-13.8779459523
 10
50.973386984
 20
-13.8233643579
 10
50.9766560282
 20
-13.7694089266
 10
50.9800933583
 20
-13.71608412
 10
50.9836967089
 20
-13.6633885189
 10
50.9874526348
 20
-13.6113853125
 10
50.9913594765
 20
-13.5600781501
 10
50.9954147928
 20
-13.5094666319
 10
50.9996035892
 20
-13.4596081559
 10
51.0039238119
 20
-13.410509071
 10
51.0083731852
 20
-13.3621664298
 10
51.0129360844
 20
-13.3146239066
 10
51.0176104074
 20
-13.2678867374
 10
51.0223938287
 20
-13.2219531394
 10
51.0272701803
 20
-13.1768564117
 10
51.0322370434
 20
-13.1326035639
 10
51.0372923991
 20
-13.0891910248
 10
51.042420559
 20
-13.0466363094
 10
51.0476192873
 20
-13.0049441968
  0
LWPOLYLINE
  5
51D
100
AcDbEntity
  8
RACCORDO
100
AcDbPolyline
 62
250
  6
CONTINUOUS
 90
32
 70
0
 10
66.1766971908
 20
-78.745682493
 10
66.0879935347
 20
-77.9058165428
 10
66.0021431113
 20
-77.0638102205
 10
65.9191467019
 20
-76.2196714396
 10
65.839005036
 20
-75.3734081105
 10
65.7617188685
 20
-74.5250282119
 10
65.6872889791
 20
-73.6745397905
 10
65.6157160476
 20
-72.8219508419
 10
65.5470007224
 20
-71.9672693829
 10
65.4811436973
 20
-71.1105035231
 10
65.418145574
 20
-70.2516613213
 10
65.3580069225
 20
-69.3907508532
 10
65.3007283496
 20
-68.5277802844
 10
65.2463103789
 20
-67.662757738
 10
65.1947535019
 20
-66.795691346
 10
65.1460582382
 20
-65.9265893181
 10
65.1002250333
 20
-65.0554598446
 10
65.0572543003
 20
-64.1823111095
 10
65.0171464702
 20
-63.3071513423
 10
64.9799019105
 20
-62.429988784
 10
64.9455209566
 20
-61.5508316852
 10
64.9140039533
 20
-60.6696883188
 10
64.8853511899
 20
-59.7865669779
 10
64.8595629243
 20
-58.9014759769
 10
64.8366394154
 20
-58.0144236492
 10
64.8165808745
 20
-57.1254183404
 10
64.7993874817
 20
-56.2344684269
 10
64.7850594101
 20
-55.3415823168
 10
64.7735967929
 20
-54.4467684191
 10
64.7649997318
 20
-53.5500351602
 10
64.7592683133
 20
-52.6513910022
 10
64.7564025924
 20
-51.7508444123
  0
LINE
  5
51E
100
AcDbEntity
  8
RACCORDO
100
AcDbLine
 62
250
  6
CONTINUOUS
 10
50.9573789676
 20
-63.1858593206
 11
50.9613122019
 21
-63.0563665556
  0
LWPOLYLINE
  5
51F
100
AcDbEntity
  8
RACCORDO
100
AcDbPolyline
 62
7
  6
CONTINUOUS
 90
57
 70
0
 10
51.1983602024
 20
-13.9518435058
 10
51.1684587076
 20
-14.327061479
 10
51.0903353238
 20
-15.3313755924
 10
51.0151523388
 20
-16.3337282047
 10
50.9429105563
 20
-17.3341095284
 10
50.8736107878
 20
-18.3325095217
 10
50.8072538199
 20
-19.3289177653
 10
50.7438404221
 20
-20.3233239051
 10
50.6833713425
 20
-21.3157177239
 10
50.6258472852
 20
-22.3060887428
 10
50.5712689506
 20
-23.2944262204
 10
50.5196369979
 20
-24.2807198507
 10
50.470952021
 20
-25.2649594731
 10
50.4252146159
 20
-26.2471345718
 10
50.3824253485
 20
-27.2272349318
 10
50.3425847228
 20
-28.2052504082
 10
50.3056932372
 20
-29.1811705972
 10
50.2717513653
 20
-30.1549853315
 10
50.2407595173
 20
-31.1266845596
 10
50.2127180942
 20
-32.0962580566
 10
50.1876274783
 20
-33.0636957023
 10
50.1654879881
 20
-34.0289875308
 10
50.1462999285
 20
-34.9921235531
 10
50.1300635906
 20
-35.9530937659
 10
50.1167792045
 20
-36.9118882207
 10
50.1064469854
 20
-37.8684970135
 10
50.0990671344
 20
-38.8229102134
 10
50.0946397921
 20
-39.7751179349
 10
50.0931650843
 20
-40.7251103445
 10
50.0946431225
 20
-41.6728775816
 10
50.0990739574
 20
-42.6184098277
 10
50.1064576257
 20
-43.5616973152
 10
50.1167941492
 20
-44.5027302507
 10
50.1300834891
 20
-45.4414988876
 10
50.1463255928
 20
-46.3779935302
 10
50.1655203927
 20
-47.3122044626
 10
50.1876677602
 20
-48.2441220014
 10
50.2127675533
 20
-49.1737365027
 10
50.2408196173
 20
-50.1010384052
 10
50.2718237318
 20
-51.0260180125
 10
50.3057796549
 20
-51.9486654831
 10
50.3426871394
 20
-52.8689712973
 10
50.3825458731
 20
-53.7869258672
 10
50.4253555114
 20
-54.7025192566
 10
50.4711157114
 20
-55.6157419728
 10
50.5198260683
 20
-56.5265845481
 10
50.5714861373
 20
-57.4350370934
 10
50.6260954847
 20
-58.3410902394
 10
50.6836536113
 20
-59.2447345719
 10
50.7441599661
 20
-60.1459601462
 10
50.8076140038
 20
-61.0447574441
 10
50.8740151357
 20
-61.9411172782
 10
50.9433627402
 20
-62.8350302084
 10
51.015656189
 20
-63.7264869049
 10
51.090894829
 20
-64.6154784538
 10
51.1690780031
 20
-65.5019960424
 10
51.2501315751
 20
-66.3852457187
  0
LINE
  5
520
100
AcDbEntity
  8
RACCORDO
100
AcDbLine
 62
250
  6
CONTINUOUS
 10
51.1983601401
 20
-13.9518442834
 11
51.2075358366
 21
-13.8400694127
  0
LWPOLYLINE
  5
521
100
AcDbEntity
  8
RACCORDO
100
AcDbPolyline
 62
250
  6
CONTINUOUS
 90
61
 70
0
 10
51.6149145966
 20
-11.6814929245
 10
51.5281263678
 20
-12.6905849301
 10
51.4442716327
 20
-13.6977375667
 10
51.3633512929
 20
-14.702940396
 10
51.2853662458
 20
-15.7061830231
 10
51.2103173026
 20
-16.7074550244
 10
51.1382051882
 20
-17.706745948
 10
51.0690306745
 20
-18.7040454331
 10
51.0027945086
 20
-19.6993431407
 10
50.9394973304
 20
-20.6926286811
 10
50.8791398172
 20
-21.6838917503
 10
50.8217226208
 20
-22.673122073
 10
50.7672462956
 20
-23.6603093334
 10
50.715711424
 20
-24.6454432854
 10
50.667118563
 20
-25.6285137182
 10
50.6214681808
 20
-26.6095103989
 10
50.578760765
 20
-27.588423148
 10
50.5389967777
 20
-28.5652418122
 10
50.5021766022
 20
-29.5399562292
 10
50.468300631
 20
-30.5125562849
 10
50.4373692317
 20
-31.4830318864
 10
50.4093827025
 20
-32.4513729348
 10
50.3843413412
 20
-33.4175693777
 10
50.36224542
 20
-34.3816111885
 10
50.3430951522
 20
-35.3434883387
 10
50.3268907404
 20
-36.3031908397
 10
50.313632362
 20
-37.2607087311
 10
50.3033201449
 20
-38.2160320594
 10
50.2959541965
 20
-39.1691509023
 10
50.2915345994
 20
-40.1200553646
 10
50.2900613962
 20
-41.068735567
 10
50.2915345994
 20
-42.0151816538
 10
50.2959541965
 20
-42.9593837965
 10
50.3033201449
 20
-43.9013321902
 10
50.313632362
 20
-44.8410170468
 10
50.3268907404
 20
-45.7784286055
 10
50.3430951522
 20
-46.713557136
 10
50.36224542
 20
-47.6463929193
 10
50.3843413412
 20
-48.5769262627
 10
50.4093827025
 20
-49.5051475095
 10
50.4373692317
 20
-50.4310470091
 10
50.468300631
 20
-51.3546151394
 10
50.5021766022
 20
-52.2758423219
 10
50.5389967777
 20
-53.1947189739
 10
50.578760765
 20
-54.1112355461
 10
50.6214681808
 20
-55.0253825445
 10
50.667118563
 20
-55.9371504604
 10
50.715711424
 20
-56.8465298129
 10
50.7672462956
 20
-57.7535111863
 10
50.8217226208
 20
-58.6580851477
 10
50.8791398172
 20
-59.5602422845
 10
50.9394973304
 20
-60.4599732474
 10
51.0027945086
 20
-61.3572686737
 10
51.0690306745
 20
-62.2521192269
 10
51.1382051882
 20
-63.144515633
 10
51.2103173026
 20
-64.0344486004
 10
51.2853662458
 20
-64.9219088694
 10
51.3633512929
 20
-65.806887252
 10
51.4442716327
 20
-66.6893745516
 10
51.5281263678
 20
-67.5693615631
 10
51.6149145965
 20
-68.4468391232
  0
LINE
  5
522
100
AcDbEntity
  8
RACCORDO
100
AcDbLine
 62
250
  6
CONTINUOUS
 10
51.2075358366
 20
-13.8400694127
 11
51.2167203412
 21
-13.7331014105
  0
LINE
  5
523
100
AcDbEntity
  8
RACCORDO
100
AcDbLine
 62
7
  6
CONTINUOUS
 10
51.0678042607
 20
-11.2805380343
 11
51.0649987651
 21
-11.3114864103
  0
LINE
  5
524
100
AcDbEntity
  8
RACCORDO
100
AcDbLine
 62
250
  6
CONTINUOUS
 10
51.2167203412
 20
-13.7331014105
 11
51.2260036496
 21
-13.6295256834
  0
LINE
  5
525
100
AcDbEntity
  8
RACCORDO
100
AcDbLine
 62
250
  6
CONTINUOUS
 10
51.2260036496
 20
-13.6295256834
 11
51.2353504716
 21
-13.5294704107
  0
LINE
  5
526
100
AcDbEntity
  8
RACCORDO
100
AcDbLine
 62
250
  6
CONTINUOUS
 10
51.2353504716
 20
-13.5294704107
 11
51.2447298323
 21
-13.4330047474
  0
LINE
  5
527
100
AcDbEntity
  8
RACCORDO
100
AcDbLine
 62
250
  6
CONTINUOUS
 10
51.2447298323
 20
-13.4330047474
 11
51.2541088479
 21
-13.3402096284
  0
LWPOLYLINE
  5
528
100
AcDbEntity
  8
RACCORDO
100
AcDbPolyline
 62
250
  6
CONTINUOUS
 90
67
 70
0
 10
51.0678042073
 20
-11.2805379966
 10
51.0689961911
 20
-11.2690143594
 10
51.0704268243
 20
-11.2573562586
 10
51.0720954793
 20
-11.2455692298
 10
51.0740018216
 20
-11.2336589188
 10
51.0761446056
 20
-11.2216309366
 10
51.0785216338
 20
-11.209490878
 10
51.0811317543
 20
-11.1972447634
 10
51.0839737888
 20
-11.1848982158
 10
51.0870453003
 20
-11.1724563294
 10
51.0903448602
 20
-11.1599250476
 10
51.093870928
 20
-11.1473103507
 10
51.0976207387
 20
-11.1346174532
 10
51.1015925457
 20
-11.1218524195
 10
51.1057844923
 20
-11.1090213425
 10
51.1101934936
 20
-11.0961295317
 10
51.114817492
 20
-11.0831831463
 10
51.1196543232
 20
-11.0701883662
 10
51.124700591
 20
-11.0571505699
 10
51.1299539038
 20
-11.0440759638
 10
51.1354118309
 20
-11.03097081
 10
51.1410707718
 20
-11.0178405968
 10
51.1469277
 20
-11.0046913379
 10
51.1529802398
 20
-10.9915295647
 10
51.1592256281
 20
-10.9783615548
 10
51.1656606917
 20
-10.965193428
 10
51.1722826467
 20
-10.9520316333
 10
51.1790891814
 20
-10.9388829417
 10
51.1860770947
 20
-10.9257536261
 10
51.1932431015
 20
-10.9126499538
 10
51.2005846385
 20
-10.8995786743
 10
51.2080983126
 20
-10.886546059
 10
51.2157805284
 20
-10.8735582958
 10
51.2236282991
 20
-10.8606219835
 10
51.2316381662
 20
-10.8477434269
 10
51.239806125
 20
-10.834928647
 10
51.2481282534
 20
-10.8221837764
 10
51.2566006911
 20
-10.8095149349
 10
51.2652193856
 20
-10.7969281397
 10
51.2739800153
 20
-10.7844293145
 10
51.2828784499
 20
-10.7720244298
 10
51.291910491
 20
-10.7597194093
 10
51.3010716131
 20
-10.7475200379
 10
51.310357457
 20
-10.7354321296
 10
51.319763674
 20
-10.7234614692
 10
51.3292856623
 20
-10.7116137154
 10
51.3389188691
 20
-10.6998945062
 10
51.3486588002
 20
-10.6883094574
 10
51.3585008606
 20
-10.6768641018
 10
51.3684403975
 20
-10.6655639043
 10
51.378472719
 20
-10.654414263
 10
51.3885931023
 20
-10.643420507
 10
51.398796767
 20
-10.6325878882
 10
51.4090788908
 20
-10.6219215806
 10
51.4194346289
 20
-10.6114266818
 10
51.4298590888
 20
-10.6011082065
 10
51.4403473435
 20
-10.5909710845
 10
51.4508944475
 20
-10.5810201605
 10
51.4614954171
 20
-10.5712601904
 10
51.4721452413
 20
-10.5616958387
 10
51.482838896
 20
-10.5523316769
 10
51.4935713273
 20
-10.5431721819
 10
51.5043374619
 20
-10.534221733
 10
51.5151322189
 20
-10.5254846093
 10
51.5259504982
 20
-10.5169649894
 10
51.5367871837
 20
-10.5086669487
 10
51.5476371527
 20
-10.500594457
  0
LINE
  5
529
100
AcDbEntity
  8
RACCORDO
100
AcDbLine
 62
250
  6
CONTINUOUS
 10
51.2541088479
 20
-13.3402096284
 11
51.2634567993
 21
-13.2511330173
  0
LINE
  5
52A
100
AcDbEntity
  8
RACCORDO
100
AcDbLine
 62
250
  6
CONTINUOUS
 10
51.2634567993
 20
-13.2511330173
 11
51.2727465647
 21
-13.1657874795
  0
LINE
  5
52B
100
AcDbEntity
  8
RACCORDO
100
AcDbLine
 62
250
  6
CONTINUOUS
 10
51.2727465647
 20
-13.1657874795
 11
51.2819531295
 21
-13.0841628207
  0
LINE
  5
52C
100
AcDbEntity
  8
RACCORDO
100
AcDbLine
 62
250
  6
CONTINUOUS
 10
51.2819531295
 20
-13.0841628207
 11
51.2910549191
 21
-13.0062163177
  0
LINE
  5
52D
100
AcDbEntity
  8
RACCORDO
100
AcDbLine
 62
250
  6
CONTINUOUS
 10
51.2910549191
 20
-13.0062163177
 11
51.300030414
 21
-12.9319149183
  0
LINE
  5
52E
100
AcDbEntity
  8
RACCORDO
100
AcDbLine
 62
250
  6
CONTINUOUS
 10
51.300030414
 20
-12.9319149183
 11
51.3088596602
 21
-12.861208323
  0
LINE
  5
52F
100
AcDbEntity
  8
RACCORDO
100
AcDbLine
 62
250
  6
CONTINUOUS
 10
51.3088596602
 20
-12.861208323
 11
51.3175336784
 21
-12.7939618601
  0
LWPOLYLINE
  5
530
100
AcDbEntity
  8
RACCORDO
100
AcDbPolyline
 62
250
  6
CONTINUOUS
 90
3
 70
0
 10
51.0476192873
 20
-13.0049441968
 10
51.0582066623
 20
-12.9241516475
 10
51.063577106
 20
-12.8850670201
  0
LINE
  5
531
100
AcDbEntity
  8
RACCORDO
100
AcDbLine
 62
250
  6
CONTINUOUS
 10
51.3175336784
 20
-12.7939618601
 11
51.3260381817
 21
-12.7301021116
  0
LINE
  5
532
100
AcDbEntity
  8
RACCORDO
100
AcDbLine
 62
250
  6
CONTINUOUS
 10
51.3260381817
 20
-12.7301021116
 11
51.3343607747
 21
-12.6695366933
  0
LINE
  5
533
100
AcDbEntity
  8
RACCORDO
100
AcDbLine
 62
250
  6
CONTINUOUS
 10
51.3343607747
 20
-12.6695366933
 11
51.3424965213
 21
-12.6121245064
  0
LWPOLYLINE
  5
534
100
AcDbEntity
  8
RACCORDO
100
AcDbPolyline
 62
250
  6
CONTINUOUS
 90
3
 70
0
 10
51.063577106
 20
-12.8850670201
 10
51.0744507475
 20
-12.8095055616
 10
51.0799380521
 20
-12.773022954
  0
LINE
  5
535
100
AcDbEntity
  8
RACCORDO
100
AcDbLine
 62
250
  6
CONTINUOUS
 10
51.3424965213
 20
-12.6121245064
 11
51.3504373715
 21
-12.5577692137
  0
LINE
  5
536
100
AcDbEntity
  8
RACCORDO
100
AcDbLine
 62
250
  6
CONTINUOUS
 10
51.3504373715
 20
-12.5577692137
 11
51.3581845681
 21
-12.5063061509
  0
LINE
  5
537
100
AcDbEntity
  8
RACCORDO
100
AcDbLine
 62
250
  6
CONTINUOUS
 10
51.3581845681
 20
-12.5063061509
 11
51.3657330195
 21
-12.4576224968
  0
LWPOLYLINE
  5
538
100
AcDbEntity
  8
RACCORDO
100
AcDbPolyline
 62
250
  6
CONTINUOUS
 90
3
 70
0
 10
51.0799380521
 20
-12.773022954
 10
51.0909937661
 20
-12.7026370079
 10
51.0965473795
 20
-12.6687195609
  0
LINE
  5
539
100
AcDbEntity
  8
RACCORDO
100
AcDbLine
 62
250
  6
CONTINUOUS
 10
51.3657330195
 20
-12.4576224968
 11
51.3730763744
 21
-12.4116340317
  0
LINE
  5
53A
100
AcDbEntity
  8
RACCORDO
100
AcDbLine
 62
250
  6
CONTINUOUS
 10
51.3730763744
 20
-12.4116340317
 11
51.3802129854
 21
-12.3682170766
  0
LINE
  5
53B
100
AcDbEntity
  8
RACCORDO
100
AcDbLine
 62
250
  6
CONTINUOUS
 10
51.3802129854
 20
-12.3682170766
 11
51.3871555089
 21
-12.3271728205
  0
LWPOLYLINE
  5
53C
100
AcDbEntity
  8
RACCORDO
100
AcDbPolyline
 62
250
  6
CONTINUOUS
 90
125
 70
0
 10
51.0965473795
 20
-12.6687195609
 10
51.107688007
 20
-12.6034121468
 10
51.1132606764
 20
-12.572004653
 10
51.1188334793
 20
-12.5414257741
 10
51.1243983667
 20
-12.5116335294
 10
51.1299541583
 20
-12.4826266692
 10
51.1354991343
 20
-12.4544086308
 10
51.1410246127
 20
-12.4269443299
 10
51.1465283394
 20
-12.4002384355
 10
51.1520099725
 20
-12.3742882304
 10
51.1574638703
 20
-12.3490474216
 10
51.16288826
 20
-12.3245181826
 10
51.1682826479
 20
-12.3007000391
 10
51.1736434954
 20
-12.2775425867
 10
51.178970368
 20
-12.2550429274
 10
51.1842617485
 20
-12.2332054188
 10
51.1895126348
 20
-12.2119904205
 10
51.1947215222
 20
-12.1914000691
 10
51.1998882049
 20
-12.171433504
 10
51.2050097673
 20
-12.1520464856
 10
51.2100838168
 20
-12.1332438785
 10
51.2151112696
 20
-12.115021917
 10
51.2200943252
 20
-12.0973233033
 10
51.2250340179
 20
-12.0801411026
 10
51.2299280929
 20
-12.0634831566
 10
51.2347739429
 20
-12.0473142369
 10
51.2395705441
 20
-12.0316354334
 10
51.2443178575
 20
-12.0164464444
 10
51.2490148465
 20
-12.0017098857
 10
51.2536594141
 20
-11.9874296485
 10
51.2582527456
 20
-11.9736025164
 10
51.2627988279
 20
-11.9601803698
 10
51.2672987403
 20
-11.9471578215
 10
51.2717506573
 20
-11.9345408104
 10
51.2761542936
 20
-11.9222981423
 10
51.2805098855
 20
-11.9104278979
 10
51.2848165555
 20
-11.8989324699
 10
51.2890724042
 20
-11.8877870905
 10
51.2932765437
 20
-11.8769929711
 10
51.2974293038
 20
-11.8665493116
 10
51.3015306599
 20
-11.8564282907
 10
51.3055793529
 20
-11.8466316159
 10
51.3095761657
 20
-11.8371579304
 10
51.3135241873
 20
-11.8279747785
 10
51.3174226101
 20
-11.8190824309
 10
51.3212718467
 20
-11.8104809074
 10
51.3250768684
 20
-11.802137338
 10
51.3288372354
 20
-11.7940510879
 10
51.3325530645
 20
-11.7862230292
 10
51.3362302082
 20
-11.7786225184
 10
51.3398707916
 20
-11.7712442708
 10
51.3434724288
 20
-11.7640937625
 10
51.3470342363
 20
-11.7571564697
 10
51.3505573756
 20
-11.7504301026
 10
51.354040456
 20
-11.7439171192
 10
51.3574787783
 20
-11.7376101076
 10
51.3608704662
 20
-11.7315123246
 10
51.364217186
 20
-11.7256206672
 10
51.3675195665
 20
-11.7199181735
 10
51.3707764647
 20
-11.7144060979
 10
51.3739888453
 20
-11.7090833164
 10
51.3771605187
 20
-11.7039292844
 10
51.3802911345
 20
-11.698943692
 10
51.3833808967
 20
-11.6941269562
 10
51.3864344677
 20
-11.6894596075
 10
51.3894523879
 20
-11.6849401058
 10
51.3924339976
 20
-11.6805700785
 10
51.3953821754
 20
-11.6763347963
 10
51.3982974989
 20
-11.6722329988
 10
51.4011792906
 20
-11.6682660195
 10
51.4040285568
 20
-11.6644230112
 10
51.406845251
 20
-11.6607037414
 10
51.4096293337
 20
-11.6571085056
 10
51.41238183
 20
-11.6536272421
 10
51.415102629
 20
-11.6502598084
 10
51.4177917679
 20
-11.647006401
 10
51.420450501
 20
-11.6438574616
 10
51.4230789881
 20
-11.6408125626
 10
51.4256770064
 20
-11.6378721777
 10
51.428245242
 20
-11.6350280965
 10
51.4307836819
 20
-11.6322801415
 10
51.4332922847
 20
-11.6296285299
 10
51.4357716982
 20
-11.6270656391
 10
51.4382216058
 20
-11.6245915767
 10
51.4406422772
 20
-11.6222062695
 10
51.4430352438
 20
-11.6199018198
 10
51.4454001765
 20
-11.6176782615
 10
51.4477373646
 20
-11.61553559
 10
51.4500492715
 20
-11.6134658474
 10
51.4523360463
 20
-11.6114686258
 10
51.4545975067
 20
-11.6095443574
 10
51.4568356227
 20
-11.6076863414
 10
51.4590508305
 20
-11.6058940417
 10
51.4612426658
 20
-11.6041680149
 10
51.4634117503
 20
-11.6025031973
 10
51.4655581447
 20
-11.6008994396
 10
51.4676817639
 20
-11.5993569089
 10
51.4697830132
 20
-11.5978710141
 10
51.4718616735
 20
-11.5964417955
 10
51.4739179425
 20
-11.5950692283
 10
51.4759528526
 20
-11.5937486227
 10
51.4779662261
 20
-11.5924799449
 10
51.4799582223
 20
-11.5912632419
 10
51.4819303816
 20
-11.5900939431
 10
51.483882768
 20
-11.5889718631
 10
51.485815302
 20
-11.5878971985
 10
51.4877293093
 20
-11.5868659504
 10
51.4896249566
 20
-11.5858779178
 10
51.4915020641
 20
-11.5849333113
 10
51.4933614389
 20
-11.5840287485
 10
51.4952030994
 20
-11.5831641347
 10
51.4970270156
 20
-11.582339573
 10
51.4988339237
 20
-11.5815519762
 10
51.5006238192
 20
-11.5808012676
 10
51.5023966966
 20
-11.5800875312
 10
51.5041532911
 20
-11.5794079194
 10
51.5058935595
 20
-11.578762371
 10
51.5076175364
 20
-11.5781509536
 10
51.5093260754
 20
-11.5775710118
 10
51.511019167
 20
-11.5770224712
 10
51.5126968132
 20
-11.5765054117
 10
51.5143598861
 20
-11.5760174082
 10
51.5160086743
 20
-11.5755576539
 10
51.5176428827
 20
-11.5751269603
 10
51.5192625082
 20
-11.5747253296
  0
LINE
  5
53D
100
AcDbEntity
  8
RACCORDO
100
AcDbLine
 62
250
  6
CONTINUOUS
 10
51.3871555089
 20
-12.3271728205
 11
51.393903848
 21
-12.2884030128
  0
LINE
  5
53E
100
AcDbEntity
  8
RACCORDO
100
AcDbLine
 62
250
  6
CONTINUOUS
 10
51.393903848
 20
-12.2884030128
 11
51.4004583377
 21
-12.2517987458
  0
LINE
  5
53F
100
AcDbEntity
  8
RACCORDO
100
AcDbLine
 62
250
  6
CONTINUOUS
 10
51.4004583377
 20
-12.2517987458
 11
51.4068200393
 21
-12.2172527569
  0
LINE
  5
540
100
AcDbEntity
  8
RACCORDO
100
AcDbLine
 62
250
  6
CONTINUOUS
 10
51.4068200393
 20
-12.2172527569
 11
51.4129903268
 21
-12.1846767556
  0
LINE
  5
541
100
AcDbEntity
  8
RACCORDO
100
AcDbLine
 62
250
  6
CONTINUOUS
 10
51.4129903268
 20
-12.1846767556
 11
51.4189843761
 21
-12.1539010379
  0
LINE
  5
542
100
AcDbEntity
  8
RACCORDO
100
AcDbLine
 62
250
  6
CONTINUOUS
 10
51.4189843761
 20
-12.1539010379
 11
51.4248057069
 21
-12.1248280886
  0
LINE
  5
543
100
AcDbEntity
  8
RACCORDO
100
AcDbLine
 62
250
  6
CONTINUOUS
 10
51.4248057069
 20
-12.1248280886
 11
51.4304535061
 21
-12.0973982449
  0
LINE
  5
544
100
AcDbEntity
  8
RACCORDO
100
AcDbLine
 62
250
  6
CONTINUOUS
 10
51.4304535061
 20
-12.0973982449
 11
51.4359268033
 21
-12.0715418224
  0
LINE
  5
545
100
AcDbEntity
  8
RACCORDO
100
AcDbLine
 62
250
  6
CONTINUOUS
 10
51.4359268033
 20
-12.0715418224
 11
51.4412287843
 21
-12.0471727862
  0
LINE
  5
546
100
AcDbEntity
  8
RACCORDO
100
AcDbLine
 62
250
  6
CONTINUOUS
 10
51.4412287843
 20
-12.0471727862
 11
51.4463613037
 21
-12.0242283492
  0
LINE
  5
547
100
AcDbEntity
  8
RACCORDO
100
AcDbLine
 62
250
  6
CONTINUOUS
 10
51.4463613037
 20
-12.0242283492
 11
51.4513333525
 21
-12.0026035632
  0
LINE
  5
548
100
AcDbEntity
  8
RACCORDO
100
AcDbLine
 62
250
  6
CONTINUOUS
 10
51.4513333525
 20
-12.0026035632
 11
51.456157636
 21
-11.9821872186
  0
LINE
  5
549
100
AcDbEntity
  8
RACCORDO
100
AcDbLine
 62
250
  6
CONTINUOUS
 10
51.456157636
 20
-11.9821872186
 11
51.4608412503
 21
-11.9629083325
  0
LINE
  5
54A
100
AcDbEntity
  8
RACCORDO
100
AcDbLine
 62
250
  6
CONTINUOUS
 10
51.4608412503
 20
-11.9629083325
 11
51.4654007835
 21
-11.9446511651
  0
LINE
  5
54B
100
AcDbEntity
  8
RACCORDO
100
AcDbLine
 62
250
  6
CONTINUOUS
 10
51.4654007835
 20
-11.9446511651
 11
51.4698370288
 21
-11.9273714428
  0
LINE
  5
54C
100
AcDbEntity
  8
RACCORDO
100
AcDbLine
 62
250
  6
CONTINUOUS
 10
51.4698370288
 20
-11.9273714428
 11
51.4741475451
 21
-11.9110461295
  0
LINE
  5
54D
100
AcDbEntity
  8
RACCORDO
100
AcDbLine
 62
250
  6
CONTINUOUS
 10
51.4741475451
 20
-11.9110461295
 11
51.4783232244
 21
-11.8956680106
  0
LINE
  5
54E
100
AcDbEntity
  8
RACCORDO
100
AcDbLine
 62
250
  6
CONTINUOUS
 10
51.4783232244
 20
-11.8956680106
 11
51.4823669216
 21
-11.8811842247
  0
LINE
  5
54F
100
AcDbEntity
  8
RACCORDO
100
AcDbLine
 62
250
  6
CONTINUOUS
 10
51.4823669216
 20
-11.8811842247
 11
51.4862810508
 21
-11.867555896
  0
LINE
  5
550
100
AcDbEntity
  8
RACCORDO
100
AcDbLine
 62
250
  6
CONTINUOUS
 10
51.4862810508
 20
-11.867555896
 11
51.490075202
 21
-11.8547109558
  0
LINE
  5
551
100
AcDbEntity
  8
RACCORDO
100
AcDbLine
 62
250
  6
CONTINUOUS
 10
51.490075202
 20
-11.8547109558
 11
51.4937600304
 21
-11.8425810907
  0
LINE
  5
552
100
AcDbEntity
  8
RACCORDO
100
AcDbLine
 62
250
  6
CONTINUOUS
 10
51.4937600304
 20
-11.8425810907
 11
51.4973405889
 21
-11.8311267617
  0
LINE
  5
553
100
AcDbEntity
  8
RACCORDO
100
AcDbLine
 62
250
  6
CONTINUOUS
 10
51.4973405889
 20
-11.8311267617
 11
51.5008248886
 21
-11.8202939249
  0
LINE
  5
554
100
AcDbEntity
  8
RACCORDO
100
AcDbLine
 62
250
  6
CONTINUOUS
 10
51.5008248886
 20
-11.8202939249
 11
51.5042155416
 21
-11.8100493275
  0
LWPOLYLINE
  5
555
100
AcDbEntity
  8
RACCORDO
100
AcDbPolyline
 62
250
  6
CONTINUOUS
 90
98
 70
0
 10
51.5042155416
 20
-11.8100493275
 10
51.5075140562
 20
-11.8003701897
 10
51.5091299437
 20
-11.7957304826
 10
51.5107233061
 20
-11.7912241728
 10
51.5122956522
 20
-11.7868405482
 10
51.5138468989
 20
-11.7825791705
 10
51.515376722
 20
-11.7784406096
 10
51.5168862912
 20
-11.7744156592
 10
51.5183754807
 20
-11.7705040803
 10
51.5198440415
 20
-11.766706236
 10
51.5212929751
 20
-11.7630138165
 10
51.5227219801
 20
-11.7594270511
 10
51.5241310105
 20
-11.7559458287
 10
51.5255214695
 20
-11.7525613224
 10
51.5268930424
 20
-11.7492737591
 10
51.5282457297
 20
-11.746083021
 10
51.5295814327
 20
-11.7429797551
 10
51.53090009
 20
-11.7399636127
 10
51.5322014893
 20
-11.7370350389
 10
51.5334873319
 20
-11.7341858613
 10
51.5347577735
 20
-11.7314153606
 10
51.5360124191
 20
-11.7287243415
 10
51.5372521627
 20
-11.7261069115
 10
51.5384769981
 20
-11.7235628038
 10
51.5396867105
 20
-11.7210923655
 10
51.5408818901
 20
-11.7186906212
 10
51.5420623329
 20
-11.7163577206
 10
51.5432280349
 20
-11.7140935915
 10
51.5443798955
 20
-11.7118929224
 10
51.5455177319
 20
-11.7097557941
 10
51.5466415366
 20
-11.7076821978
 10
51.5477524852
 20
-11.7056666831
 10
51.5488505242
 20
-11.7037090955
 10
51.5499355377
 20
-11.7018096543
 10
51.5510086207
 20
-11.6999634639
 10
51.5520698111
 20
-11.6981702554
 10
51.55311892
 20
-11.6964303564
 10
51.5541567133
 20
-11.6947397614
 10
51.5551831641
 20
-11.693098351
 10
51.5561981608
 20
-11.6915062993
 10
51.5572023502
 20
-11.6899600381
 10
51.5581956682
 20
-11.6884595218
 10
51.559178051
 20
-11.6870048471
 10
51.5601501524
 20
-11.6855926572
 10
51.5611119132
 20
-11.6842229052
 10
51.5620632751
 20
-11.6828956855
 10
51.5630049
 20
-11.6816078497
 10
51.5639367267
 20
-11.6803593581
 10
51.5648587088
 20
-11.6791502946
 10
51.565771538
 20
-11.677977693
 10
51.5666752076
 20
-11.6768414539
 10
51.5675696265
 20
-11.6757417172
 10
51.5684553653
 20
-11.6746758741
 10
51.5693323922
 20
-11.6736438705
 10
51.570200649
 20
-11.6726457982
 10
51.5710606716
 20
-11.6716792643
 10
51.571912389
 20
-11.6707442604
 10
51.5727557893
 20
-11.6698408301
 10
51.5735915027
 20
-11.6689666566
 10
51.5744195049
 20
-11.6681216812
 10
51.5752397453
 20
-11.6673059948
 10
51.5760528192
 20
-11.6665175019
 10
51.576858738
 20
-11.6657561221
 10
51.5776574227
 20
-11.6650219652
 10
51.5784493372
 20
-11.6643132188
 10
51.5792344647
 20
-11.6636298413
 10
51.5800127597
 20
-11.6629719015
 10
51.580784647
 20
-11.6623377514
 10
51.5815501465
 20
-11.6617273309
 10
51.582309181
 20
-11.6611407253
 10
51.5830620324
 20
-11.6605765033
 10
51.5838087181
 20
-11.6600346241
 10
51.5845491669
 20
-11.6595151524
 10
51.5852835297
 20
-11.6590168151
 10
51.5860118003
 20
-11.6585395993
 10
51.586733933
 20
-11.6580835413
 10
51.5874500203
 20
-11.6576474416
 10
51.5881601686
 20
-11.6572312419
 10
51.5888642216
 20
-11.6568350233
 10
51.5895618761
 20
-11.6564577965
 10
51.5902532608
 20
-11.6560995379
 10
51.5909381955
 20
-11.6557602951
 10
51.5916159087
 20
-11.6554391886
 10
51.5922863694
 20
-11.6551362965
 10
51.5929495515
 20
-11.6548515681
 10
51.5936046836
 20
-11.6545839331
 10
51.5942514669
 20
-11.6543335388
 10
51.5948901378
 20
-11.6541002687
 10
51.5955207251
 20
-11.6538826595
 10
51.5961430328
 20
-11.6536807503
 10
51.5967571968
 20
-11.653494532
 10
51.5973637457
 20
-11.6533224673
 10
51.5979627165
 20
-11.6531645093
 10
51.5985540181
 20
-11.6530207321
 10
51.5991379901
 20
-11.6528897787
 10
51.5997147291
 20
-11.6527712049
 10
51.6002840884
 20
-11.6526654803
 10
51.6008460436
 20
-11.6525726174
  0
LINE
  5
556
100
AcDbEntity
  8
RACCORDO
100
AcDbLine
 62
250
  6
CONTINUOUS
 10
71.439591758
 20
-17.8675807919
 11
66.6438754347
 21
-21.1916365962
  0
LINE
  5
557
100
AcDbEntity
  8
RACCORDO
100
AcDbLine
 62
250
  6
CONTINUOUS
 10
71.9342649796
 20
-18.712040803
 11
67.1385486609
 21
-22.036096604
  0
LWPOLYLINE
  5
558
100
AcDbEntity
  8
RACCORDO
100
AcDbPolyline
 62
250
  6
CONTINUOUS
 90
70
 70
0
 10
67.1385486609
 20
-22.036096604
 10
67.1272123024
 20
-22.0423550628
 10
67.1156498103
 20
-22.0484349751
 10
67.1038667854
 20
-22.0543333859
 10
67.0918689059
 20
-22.060047428
 10
67.0796620134
 20
-22.0655743227
 10
67.0672521152
 20
-22.0709113888
 10
67.0546452481
 20
-22.0760560592
 10
67.0418475063
 20
-22.0810058195
 10
67.0288651334
 20
-22.0857582135
 10
67.0157044422
 20
-22.0903109107
 10
67.0023718003
 20
-22.094661728
 10
66.9888736641
 20
-22.0988085762
 10
66.9752165756
 20
-22.1027494536
 10
66.9614071627
 20
-22.1064824397
 10
66.9474521257
 20
-22.1100057166
 10
66.933358234
 20
-22.1133175721
 10
66.9191323219
 20
-22.1164164033
 10
66.9047812884
 20
-22.1193007097
 10
66.8903120933
 20
-22.1219690935
 10
66.8757317544
 20
-22.1244202594
 10
66.8610473435
 20
-22.1266530179
 10
66.8462659826
 20
-22.1286662857
 10
66.8313948405
 20
-22.1304590868
 10
66.8164411296
 20
-22.1320305517
 10
66.8014121026
 20
-22.1333799186
 10
66.7863150484
 20
-22.1345065328
 10
66.7711572893
 20
-22.1354098479
 10
66.7559461766
 20
-22.1360894257
 10
66.7406890878
 20
-22.1365449366
 10
66.7253934225
 20
-22.1367761598
 10
66.7100665992
 20
-22.1367829831
 10
66.6947160513
 20
-22.1365654031
 10
66.6793492239
 20
-22.1361235253
 10
66.66397357
 20
-22.1354575639
 10
66.6485965467
 20
-22.1345678418
 10
66.6332256118
 20
-22.1334547905
 10
66.6178682204
 20
-22.1321189497
 10
66.6025318207
 20
-22.1305609674
 10
66.5872238509
 20
-22.1287815992
 10
66.5719517352
 20
-22.126781708
 10
66.5567228807
 20
-22.1245622639
 10
66.5415446733
 20
-22.1221243432
 10
66.5264244744
 20
-22.1194691284
 10
66.5113696173
 20
-22.1165979073
 10
66.4963874036
 20
-22.1135120723
 10
66.4814850997
 20
-22.11021312
 10
66.4666699331
 20
-22.1067026505
 10
66.4519490891
 20
-22.1029823664
 10
66.4373297073
 20
-22.0990540723
 10
66.4228188781
 20
-22.0949196732
 10
66.4084236393
 20
-22.090581174
 10
66.394150973
 20
-22.0860406787
 10
66.380007801
 20
-22.0813003896
 10
66.3660009822
 20
-22.0763626064
 10
66.3521373088
 20
-22.0712297244
 10
66.3384235058
 20
-22.0659042325
 10
66.3248662267
 20
-22.0603887126
 10
66.3114720508
 20
-22.0546858398
 10
66.2982474701
 20
-22.0487983804
 10
66.285198889
 20
-22.0427291892
 10
66.272332621
 20
-22.0364812051
 10
66.2596549225
 20
-22.0300574617
 10
66.2471719778
 20
-22.0234610873
 10
66.2348898101
 20
-22.0166952616
 10
66.2228144055
 20
-22.0097632874
 10
66.2109517394
 20
-22.0026686073
 10
66.199307596
 20
-21.9954146948
 10
66.1878875734
 20
-21.9880050479
 10
66.1766972014
 20
-21.9804432655
  0
LWPOLYLINE
  5
559
100
AcDbEntity
  8
RACCORDO
100
AcDbPolyline
 62
250
  6
CONTINUOUS
 90
24
 70
0
 10
66.1766972014
 20
-78.7456824852
 10
66.1778927193
 20
-78.7560607017
 10
66.1793363924
 20
-78.7662032657
 10
66.1810291046
 20
-78.7761161147
 10
66.1829750787
 20
-78.7858134401
 10
66.1851729165
 20
-78.7952891476
 10
66.1876155001
 20
-78.8045200372
 10
66.1903060999
 20
-78.813510755
 10
66.1932460298
 20
-78.8222647515
 10
66.1964254604
 20
-78.830760877
 10
66.1998481018
 20
-78.8390028951
 10
66.2035161758
 20
-78.8469940048
 10
66.2074176167
 20
-78.8547154155
 10
66.2115563036
 20
-78.8621700883
 10
66.2159351416
 20
-78.8693608236
 10
66.2205403533
 20
-78.87627117
 10
66.2253757402
 20
-78.8829034851
 10
66.23044463
 20
-78.8892601899
 10
66.2357320501
 20
-78.8953269215
 10
66.2412415208
 20
-78.9011056835
 10
66.2469765285
 20
-78.9065986525
 10
66.2529213716
 20
-78.9117931905
 10
66.2590791356
 20
-78.9166911907
 10
66.2657220798
 20
-78.9214792222
  0
LWPOLYLINE
  5
55A
100
AcDbEntity
  8
RACCORDO
100
AcDbPolyline
 62
250
  6
CONTINUOUS
 90
64
 70
0
 10
67.1385486609
 20
-78.7058677155
 10
67.0499920703
 20
-77.8674083553
 10
66.9642852471
 20
-77.0268258176
 10
66.8814281914
 20
-76.1841201023
 10
66.801420094
 20
-75.339282451
 10
66.7242617641
 20
-74.4923216222
 10
66.6499556289
 20
-73.6432638915
 10
66.5785018517
 20
-72.7921099875
 10
66.5099002691
 20
-71.9388591816
 10
66.4441528181
 20
-71.0835355644
 10
66.3812595786
 20
-70.2261390597
 10
66.3212204708
 20
-69.3666697437
 10
66.2640371918
 20
-68.5051519359
 10
66.2097098225
 20
-67.6415855819
 10
66.1582382821
 20
-66.775970736
 10
66.1096240247
 20
-65.9083318809
 10
66.0638671317
 20
-65.0386689704
 10
66.0209675219
 20
-64.1669820506
 10
65.9809264052
 20
-63.2932957421
 10
65.9437438623
 20
-62.4176099917
 10
65.9094198126
 20
-61.5399248527
 10
65.8779552245
 20
-60.6602651051
 10
65.8493501784
 20
-59.7786306907
 10
65.8236045939
 20
-58.8950216679
 10
65.8007191982
 20
-58.0094629924
 10
65.7806940718
 20
-57.1219546014
 10
65.7635291342
 20
-56.2324965579
 10
65.7492248711
 20
-55.3411140056
 10
65.7377813634
 20
-54.4478068884
 10
65.7291985301
 20
-53.5525752624
 10
65.7234766143
 20
-52.6554444408
 10
65.720615697
 20
-51.7564143666
 10
65.7206156971
 20
-50.8554850967
 10
65.7234766147
 20
-49.952682115
 10
65.7291985308
 20
-49.0480053715
 10
65.7377813643
 20
-48.1414549162
 10
65.7492248723
 20
-47.2330563821
 10
65.7635291356
 20
-46.3228097189
 10
65.7806940734
 20
-45.410714977
 10
65.8007192001
 20
-44.4967979407
 10
65.823604596
 20
-43.5810585665
 10
65.8493501808
 20
-42.6634968979
 10
65.8779552272
 20
-41.7441388498
 10
65.9094198155
 20
-40.8229843747
 10
65.9437438655
 20
-39.9000335202
 10
65.9809264086
 20
-38.9753123438
 10
66.0209675255
 20
-38.0488207925
 10
66.0638671356
 20
-37.1205589193
 10
66.1096240288
 20
-36.1905529409
 10
66.1582382863
 20
-35.258802796
 10
66.209709827
 20
-34.3253085459
 10
66.2640371964
 20
-33.3900965908
 10
66.3212204755
 20
-32.4531668784
 10
66.3812595834
 20
-31.514519461
 10
66.444152823
 20
-30.5741808961
 10
66.509900274
 20
-29.6321511548
 10
66.5785018566
 20
-28.688430266
 10
66.6499556339
 20
-27.7430448742
 10
66.7242617695
 20
-26.7959940326
 10
66.8014200998
 20
-25.847278688
 10
66.8814281969
 20
-24.8969283245
 10
66.9642852514
 20
-23.94495277
 10
67.0499920728
 20
-22.9913421965
 10
67.1385486609
 20
-22.036096604
  0
LWPOLYLINE
  5
55B
100
AcDbEntity
  8
RACCORDO
100
AcDbPolyline
 62
250
  6
CONTINUOUS
 90
7
 70
0
 10
64.7564025924
 20
-51.7508444123
 10
64.7564025924
 20
-50.8484038709
 10
64.7592683134
 20
-49.9440778874
 10
64.7649997319
 20
-49.0378749832
 10
64.7735967931
 20
-48.1298036952
 10
64.7850594103
 20
-47.2198725847
 10
64.7993874819
 20
-46.3080902296
  0
LWPOLYLINE
  5
55C
100
AcDbEntity
  8
RACCORDO
100
AcDbPolyline
 62
7
  6
CONTINUOUS
 90
38
 70
0
 10
-53.5782023109
 20
52.5679923374
 10
-53.5784636914
 20
52.5679291588
 10
-53.5787688951
 20
52.5678588068
 10
-53.5785023954
 20
52.5679099325
 10
-53.5779057308
 20
52.5680161682
 10
-53.5769892315
 20
52.5681635548
 10
-53.5757470327
 20
52.5683414264
 10
-53.5741538202
 20
52.5685407928
 10
-53.5722017089
 20
52.5687488851
 10
-53.5698890698
 20
52.5689515767
 10
-53.5671999655
 20
52.5691351429
 10
-53.5641292691
 20
52.5692838146
 10
-53.560679251
 20
52.5693808348
 10
-53.5568478967
 20
52.5694091227
 10
-53.5526340241
 20
52.5693508858
 10
-53.5480442923
 20
52.5691879546
 10
-53.5430919586
 20
52.568902487
 10
-53.5377806659
 20
52.5684761787
 10
-53.5321209224
 20
52.5678909994
 10
-53.526139554
 20
52.5671312357
 10
-53.5198443696
 20
52.5661796501
 10
-53.5132495095
 20
52.5650198995
 10
-53.5063937842
 20
52.5636411769
 10
-53.4992937509
 20
52.562030117
 10
-53.4919610827
 20
52.5601725442
 10
-53.48442837
 20
52.558060348
 10
-53.4767270124
 20
52.5556872202
 10
-53.4688576399
 20
52.5530381667
 10
-53.4608067054
 20
52.5500913237
 10
-53.4525945447
 20
52.5468353514
 10
-53.4442372381
 20
52.5432575149
 10
-53.4357162556
 20
52.5393283864
 10
-53.4270514237
 20
52.5350330344
 10
-53.4182691898
 20
52.5303598592
 10
-53.4093649206
 20
52.5252793936
 10
-53.4003580247
 20
52.5197724809
 10
-53.3912909226
 20
52.5138338854
 10
-53.3856827941
 20
52.509951466
  0
LWPOLYLINE
  5
55D
100
AcDbEntity
  8
RACCORDO
100
AcDbPolyline
 62
250
  6
CONTINUOUS
 90
73
 70
0
 10
67.1385486609
 20
-22.036096604
 10
67.1380461153
 20
-22.0254862239
 10
67.1373169885
 20
-22.0147084614
 10
67.1363615981
 20
-22.0037684159
 10
67.1351803525
 20
-21.9926711171
 10
67.1337737956
 20
-21.9814219628
 10
67.132142637
 20
-21.9700267362
 10
67.1302876755
 20
-21.9584910014
 10
67.1282097717
 20
-21.9468200932
 10
67.1259099139
 20
-21.9350195694
 10
67.1233891948
 20
-21.9230950396
 10
67.120648811
 20
-21.9110521677
 10
67.1176900657
 20
-21.8988966828
 10
67.1145143642
 20
-21.8866343601
 10
67.1111232155
 20
-21.8742710276
 10
67.1075182336
 20
-21.8618125705
 10
67.1037011333
 20
-21.8492649139
 10
67.0996737272
 20
-21.8366340161
 10
67.0954379281
 20
-21.8239258759
 10
67.0909957482
 20
-21.8111465305
 10
67.086349299
 20
-21.7983020545
 10
67.0815007891
 20
-21.7853985536
 10
67.0764525229
 20
-21.7724421603
 10
67.071206899
 20
-21.7594390311
 10
67.0657664099
 20
-21.7463953441
 10
67.0601336408
 20
-21.7333172974
 10
67.0543112684
 20
-21.7202111065
 10
67.0483020599
 20
-21.7070829998
 10
67.0421088709
 20
-21.6939392162
 10
67.0357346445
 20
-21.6807860018
 10
67.0291824097
 20
-21.667629607
 10
67.0224552802
 20
-21.6544762839
 10
67.0155564528
 20
-21.6413322832
 10
67.008489206
 20
-21.6282038513
 10
67.0012568982
 20
-21.6150972271
 10
66.9938629664
 20
-21.602018639
 10
66.9863109243
 20
-21.5889743021
 10
66.9786043606
 20
-21.5759704154
 10
66.9707469376
 20
-21.5630131586
 10
66.9627423894
 20
-21.5501086891
 10
66.9545945198
 20
-21.5372631393
 10
66.9463072008
 20
-21.5244826138
 10
66.9378843706
 20
-21.511773186
 10
66.9293300319
 20
-21.4991408956
 10
66.9206482499
 20
-21.4865917457
 10
66.9118431503
 20
-21.4741316999
 10
66.9029189174
 20
-21.4617666794
 10
66.8938797921
 20
-21.4495025602
 10
66.8847300699
 20
-21.4373451705
 10
66.875474099
 20
-21.4253002876
 10
66.8661162779
 20
-21.4133736355
 10
66.8566610536
 20
-21.4015708819
 10
66.8471129194
 20
-21.3898976356
 10
66.8374764126
 20
-21.378359444
 10
66.8277561128
 20
-21.3669617902
 10
66.8179566391
 20
-21.3557100906
 10
66.8080826483
 20
-21.3446096921
 10
66.7981388329
 20
-21.3336658698
 10
66.7881299182
 20
-21.3228838244
 10
66.7780606606
 20
-21.3122686797
 10
66.7679358452
 20
-21.3018254802
 10
66.7577602835
 20
-21.2915591887
 10
66.747538811
 20
-21.2814746838
 10
66.7372762852
 20
-21.271576758
 10
66.7269775829
 20
-21.2618701148
 10
66.7166475984
 20
-21.252359367
 10
66.7062912405
 20
-21.2430490342
 10
66.6959134308
 20
-21.233943541
 10
66.6855191011
 20
-21.2250472143
 10
66.6751131906
 20
-21.2163642818
 10
66.6647006446
 20
-21.2078988697
 10
66.6542864112
 20
-21.1996550009
 10
66.6438754393
 20
-21.191636593
  0
LINE
  5
55E
100
AcDbEntity
  8
DRAFT
100
AcDbLine
 62
7
  6
CONTINUOUS
 10
70.4706659914
 20
-50.6486985747
 11
70.4706659914
 21
-45.6989511064
  0
LINE
  5
55F
100
AcDbEntity
  8
RACCORDO
100
AcDbLine
 62
7
  6
CONTINUOUS
 10
70.5200514173
 20
-49.2340319968
 11
70.5200514173
 21
-49.0371727348
  0
LINE
  5
560
100
AcDbEntity
  8
RACCORDO
100
AcDbLine
 62
7
  6
CONTINUOUS
 10
71.9342649796
 20
-75.7054504171
 11
71.9342649796
 21
-50.1313189922
  0
LINE
  5
561
100
AcDbEntity
  8
RACCORDO
100
AcDbLine
 62
7
  6
CONTINUOUS
 10
71.9342649796
 20
-44.2861722279
 11
71.9342649796
 21
-18.712040803
  0
LINE
  5
562
100
AcDbEntity
  8
RACCORDO
100
AcDbLine
 62
250
  6
CONTINUOUS
 10
64.7993874819
 20
-46.3080902296
 11
64.8165808748
 21
-45.3944652195
  0
LWPOLYLINE
  5
563
100
AcDbEntity
  8
RACCORDO
100
AcDbPolyline
 62
250
  6
CONTINUOUS
 90
5
 70
0
 10
64.8165808748
 20
-45.3944652195
 10
64.8366394158
 20
-44.479006161
 10
64.8595629247
 20
-43.5617216925
 10
64.8853511904
 20
-42.642620451
 10
64.9140039539
 20
-41.7217110666
  0
LINE
  5
564
100
AcDbEntity
  8
RACCORDO
100
AcDbLine
 62
250
  6
CONTINUOUS
 10
64.9140039539
 20
-41.7217110666
 11
64.9463376008
 21
-40.7770427829
  0
LWPOLYLINE
  5
565
100
AcDbEntity
  8
RACCORDO
100
AcDbPolyline
 62
250
  6
CONTINUOUS
 90
21
 70
0
 10
64.9463376008
 20
-40.7770427829
 10
64.9799019112
 20
-39.8745026247
 10
65.017146471
 20
-38.9482209296
 10
65.0572543011
 20
-38.0201658741
 10
65.1002250342
 20
-37.0903462109
 10
65.1460582391
 20
-36.1587706638
 10
65.1947535029
 20
-35.2254480086
 10
65.2463103798
 20
-34.2903870581
 10
65.3007283505
 20
-33.3535966175
 10
65.3580069234
 20
-32.4150855218
 10
65.4181455749
 20
-31.4748626268
 10
65.4811436982
 20
-30.5329367939
 10
65.5470007231
 20
-29.5893169129
 10
65.6157160482
 20
-28.6440118855
 10
65.6872889796
 20
-27.6970306168
 10
65.7617188689
 20
-26.7483820486
 10
65.8390050363
 20
-25.7980751296
 10
65.9191467021
 20
-24.8461188008
 10
66.0021431114
 20
-23.8925220387
 10
66.0879935347
 20
-22.9372938548
 10
66.1766971908
 20
-21.9804432672
  0
LWPOLYLINE
  5
566
100
AcDbEntity
  8
RACCORDO
100
AcDbPolyline
 62
250
  6
CONTINUOUS
 90
31
 70
0
 10
67.1385486609
 20
-78.7058677155
 10
67.1380461153
 20
-78.7168193353
 10
67.1373169884
 20
-78.727594236
 10
67.1363615981
 20
-78.738187276
 10
67.1351803525
 20
-78.7485935357
 10
67.1337737956
 20
-78.7588079046
 10
67.132142637
 20
-78.7688251095
 10
67.1302876755
 20
-78.7786402633
 10
67.1282097717
 20
-78.7882488309
 10
67.1259099139
 20
-78.7976462351
 10
67.1233891947
 20
-78.8068280075
 10
67.120648811
 20
-78.8157897859
 10
67.1176900657
 20
-78.8245273062
 10
67.1145143642
 20
-78.8330364165
 10
67.1111232155
 20
-78.8413130718
 10
67.1075182336
 20
-78.8493533322
 10
67.1037011332
 20
-78.857153374
 10
67.0996737271
 20
-78.8647094936
 10
67.095437928
 20
-78.8720181025
 10
67.0909957481
 20
-78.8790757284
 10
67.0863492989
 20
-78.8858790163
 10
67.081500789
 20
-78.8924247321
 10
67.0764525227
 20
-78.898709765
 10
67.0712068988
 20
-78.9047311286
 10
67.0657664097
 20
-78.9104859618
 10
67.0601336405
 20
-78.91597153
 10
67.0543112682
 20
-78.9211852261
 10
67.0483020596
 20
-78.9261245723
 10
67.0421088706
 20
-78.9307872212
 10
67.0357346442
 20
-78.9351709572
 10
67.0324243914
 20
-78.9372927483
  0
LWPOLYLINE
  5
567
100
AcDbEntity
  8
RACCORDO
100
AcDbPolyline
 62
250
  6
CONTINUOUS
 90
64
 70
0
 10
66.1766972014
 20
-21.9804432655
 10
66.1778927194
 20
-21.9683027358
 10
66.1793363926
 20
-21.9560296491
 10
66.1810291048
 20
-21.9436205655
 10
66.1829750789
 20
-21.9310608982
 10
66.1851729165
 20
-21.9183555728
 10
66.1876155001
 20
-21.9055322626
 10
66.1903060998
 20
-21.892590076
 10
66.1932460295
 20
-21.8795232907
 10
66.19642546
 20
-21.8663572048
 10
66.1998481012
 20
-21.8530930134
 10
66.203516175
 20
-21.8397264262
 10
66.2074176158
 20
-21.8262793456
 10
66.2115563025
 20
-21.8127552192
 10
66.2159351403
 20
-21.7991517731
 10
66.2205403519
 20
-21.7854868776
 10
66.2253757386
 20
-21.7717661836
 10
66.2304446281
 20
-21.7579897992
 10
66.235732048
 20
-21.7441713491
 10
66.2412415185
 20
-21.7303184673
 10
66.246976526
 20
-21.7164337576
 10
66.252921369
 20
-21.7025267646
 10
66.2590791327
 20
-21.6886067758
 10
66.2654532233
 20
-21.6746787766
 10
66.2720275992
 20
-21.6607486737
 10
66.2788048068
 20
-21.6468270325
 10
66.2857879738
 20
-21.6329209358
 10
66.292961022
 20
-21.6190332527
 10
66.3003258986
 20
-21.6051754544
 10
66.3078853028
 20
-21.5913563375
 10
66.3156233408
 20
-21.5775763839
 10
66.3235413354
 20
-21.5638476338
 10
66.3316414562
 20
-21.5501801791
 10
66.3399081407
 20
-21.5365727353
 10
66.3483420906
 20
-21.5230376259
 10
66.3569448876
 20
-21.5095858327
 10
66.365701388
 20
-21.4962148469
 10
66.3746116961
 20
-21.4829370441
 10
66.3836767831
 20
-21.4697639352
 10
66.392881966
 20
-21.4566922263
 10
66.4022267892
 20
-21.4437341664
 10
66.4117116202
 20
-21.4309014924
 10
66.4213222434
 20
-21.4181904591
 10
66.431057692
 20
-21.4056130551
 10
66.440917757
 20
-21.3931810012
 10
66.4508886738
 20
-21.3808903371
 10
66.4609690196
 20
-21.3687526948
 10
66.471158051
 20
-21.3567795932
 10
66.4814424229
 20
-21.3449670097
 10
66.4918203151
 20
-21.3333261531
 10
66.5022905035
 20
-21.3218682033
 10
66.51284002
 20
-21.3105891613
 10
66.5234667092
 20
-21.2994997681
 10
66.5341689262
 20
-21.2886107681
 10
66.5449340322
 20
-21.2779182192
 10
66.5557596001
 20
-21.2674323675
 10
66.566643628
 20
-21.2571634562
 10
66.5775737563
 20
-21.2471075957
 10
66.5885473503
 20
-21.2372745221
 10
66.5995621177
 20
-21.2276739357
 10
66.6106059267
 20
-21.2183019674
 10
66.6216729238
 20
-21.2091635556
 10
66.6327636518
 20
-21.2002721732
 10
66.6438754393
 20
-21.191636593
  0
LINE
  5
568
100
AcDbEntity
  8
RACCORDO
100
AcDbLine
 62
7
  6
CONTINUOUS
 10
71.6002554968
 20
-44.8586219994
 11
70.4706659914
 21
-45.6989511064
  0
LINE
  5
569
100
AcDbEntity
  8
RACCORDO
100
AcDbLine
 62
7
  6
CONTINUOUS
 10
71.6002554968
 20
-49.9993527373
 11
70.4706659914
 21
-50.6486985747
  0
LINE
  5
56A
100
AcDbEntity
  8
RACCORDO
100
AcDbLine
 62
250
  6
CONTINUOUS
 10
70.4706659914
 20
-49.4572533459
 11
70.6742432314
 21
-49.344563185
  0
LINE
  5
56B
100
AcDbEntity
  8
DRAFT
100
AcDbLine
 62
7
  6
CONTINUOUS
 10
70.5200514173
 20
-49.0371727348
 11
70.4706659914
 21
-49.0697368792
  0
LINE
  5
56C
100
AcDbEntity
  8
RACCORDO
100
AcDbLine
 62
250
  6
CONTINUOUS
 10
67.1385486609
 20
-78.7058677155
 11
71.9342649796
 21
-75.7054504171
  0
LINE
  5
56D
100
AcDbEntity
  8
RACCORDO
100
AcDbLine
 62
7
  6
CONTINUOUS
 10
67.0324243914
 20
-78.9372927483
 11
71.8352778777
 21
-75.9324101147
  0
ARC
  5
56E
100
AcDbEntity
  8
RACCORDO
100
AcDbCircle
 62
7
  6
CONTINUOUS
 10
66.6611498088
 20
-78.3438661022
 40
0.7
100
AcDbArc
 50
235.6051008899
 51
302.0319342904
  0
ARC
  5
56F
100
AcDbEntity
  8
RACCORDO
100
AcDbCircle
 62
7
  6
CONTINUOUS
 10
-69.9116875767
 20
18.227713339
 40
0.7
100
AcDbArc
 50
185.7513379435
 51
233.8545917647
  0
ARC
  5
570
100
AcDbEntity
  8
RACCORDO
100
AcDbCircle
 62
7
  6
CONTINUOUS
 10
-69.9116875766
 20
74.8974844505
 40
0.7
100
AcDbArc
 50
128.4660109335
 51
175.0065829647
  0
ARC
  5
571
100
AcDbEntity
  8
RACCORDO
100
AcDbCircle
 62
7
  6
CONTINUOUS
 10
70.643429023
 20
-49.7185601339
 40
0.5
100
AcDbArc
 50
54.7356103172
 51
110.2147245487
  0
ELLIPSE
  5
572
100
AcDbEntity
  8
RACCORDO
100
AcDbEllipse
 62
7
  6
CONTINUOUS
 10
71.4389885238
 20
-75.3546338423
 30
0.0
 11
-0.4044690645
 21
0.5723335566
 31
0.0
 40
0.4994261019
 41
-3.1696557445
 42
-2.5263841361
  0
ELLIPSE
  5
573
100
AcDbEntity
  8
RACCORDO
100
AcDbEllipse
 62
7
  6
CONTINUOUS
 10
71.4389885238
 20
-18.3624306968
 30
0.0
 11
-0.4043142751
 21
0.5714579316
 31
0.0
 40
0.5005744201
 41
-2.5258428156
 42
-0.956264464
  0
ELLIPSE
  5
574
100
AcDbEntity
  8
RACCORDO
100
AcDbEllipse
 62
7
  6
CONTINUOUS
 10
-65.4562808959
 20
78.4371426222
 30
0.0
 11
-0.4044690645
 21
0.5723335566
 31
0.0
 40
0.4994261019
 41
-0.9543698342
 42
0.0280630909
  0
ELLIPSE
  5
575
100
AcDbEntity
  8
RACCORDO
100
AcDbEllipse
 62
7
  6
CONTINUOUS
 10
71.5683652326
 20
-44.5274420355
 30
0.0
 11
0.3023921289
 21
0.3984559091
 31
0.0
 40
0.5170299861
 41
-2.0815811474
 42
-0.5980512832
  0
ELLIPSE
  5
576
100
AcDbEntity
  8
RACCORDO
100
AcDbEllipse
 62
7
  6
CONTINUOUS
 10
71.5683652326
 20
-50.3725887998
 30
0.0
 11
0.3023921289
 21
0.3984559091
 31
0.0
 40
0.5170299861
 41
5.685134024
 42
7.1686638882
  0
ENDSEC
  0
SECTION
  2
OBJECTS
  0
DICTIONARY
  5
C
100
AcDbDictionary
280
0
281
1
  3
ACAD_GROUP
350
D
  3
ACAD_MLINESTYLE
350
17
  3
ACAD_LAYOUT
350
1A
  3
ACAD_PLOTSETTINGS
350
19
  3
ACAD_PLOTSTYLENAME
350
E
  0
DICTIONARY
  5
D
102
{ACAD_REACTORS
330
C
102
}
100
AcDbDictionary
280
0
281
1
  0
ACDBDICTIONARYWDFLT
  5
E
102
{ACAD_REACTORS
330
C
102
}
100
AcDbDictionary
281
1
  3
Normal
350
F
100
AcDbDictionaryWithDefault
340
F
  0
DICTIONARY
  5
17
102
{ACAD_REACTORS
330
C
102
}
100
AcDbDictionary
280
0
281
1
  3
Standard
350
18
  0
DICTIONARY
  5
19
102
{ACAD_REACTORS
330
C
102
}
100
AcDbDictionary
281
1
  0
DICTIONARY
  5
1A
102
{ACAD_REACTORS
330
C
102
}
100
AcDbDictionary
281
1
  3
Model
350
577
  3
Layout1
350
578
  0
ACDBPLACEHOLDER
  5
F
102
{ACAD_REACTORS
330
E
102
}
  0
MLINESTYLE
  5
18
102
{ACAD_REACTORS
330
17
102
}
100
AcDbMlineStyle
  2
STANDARD
 70
0
  3

 62
256
 51
90.0
 52
90.0
 71
2
 49
0.5
 62
256
  6
BYLAYER
 49
-0.5
 62
256
  6
BYLAYER
  0
LAYOUT
  5
577
102
{ACAD_REACTORS
330
1A
102
}
100
AcDbPlotSettings
  1

  2
none_device
  4
ISO_A4_(297.00_x_210.00_MM)
  6

 40
0.0
 41
0.0
 42
0.0
 43
0.0
 44
297.0
 45
210.0
 46
0.0
 47
0.0
 48
0.0
 49
0.0
140
0.0
141
0.0
142
1.0
143
1.0
 70
1024
 72
1
 73
0
 74
0
  7

 75
0
147
1.0
148
0.0
149
0.0
100
AcDbLayout
  1
Model
 70
0
 71
0
 10
0.0
 20
0.0
 11
297.0
 21
210.0
 12
0.0
 22
0.0
 32
0.0
 14
0.0
 24
0.0
 34
0.0
 15
0.0
 25
0.0
 35
0.0
146
0.0
 13
0.0
 23
0.0
 33
0.0
 16
1.0
 26
0.0
 36
0.0
 17
0.0
 27
1.0
 37
0.0
 76
0
330
217
345
0
346
0
  0
LAYOUT
  5
578
102
{ACAD_REACTORS
330
1A
102
}
100
AcDbPlotSettings
  1

  2
none_device
  4
ISO_A4_(297.00_x_210.00_MM)
  6

 40
0.0
 41
0.0
 42
0.0
 43
0.0
 44
297.0
 45
210.0
 46
0.0
 47
0.0
 48
0.0
 49
0.0
140
0.0
141
0.0
142
1.0
143
1.0
 70
0
 72
1
 73
0
 74
0
  7

 75
0
147
1.0
148
0.0
149
0.0
100
AcDbLayout
  1
Layout1
 70
0
 71
1
 10
0.0
 20
0.0
 11
297.0
 21
210.0
 12
0.0
 22
0.0
 32
0.0
 14
0.0
 24
0.0
 34
0.0
 15
0.0
 25
0.0
 35
0.0
146
0.0
 13
0.0
 23
0.0
 33
0.0
 16
1.0
 26
0.0
 36
0.0
 17
0.0
 27
1.0
 37
0.0
 76
0
330
218
345
0
346
0
  0
ENDSEC
  0
EOF
