  0
SECTION
  2
HEADER
  9
$ACADVER
  1
AC1024
  9
$DWGCODEPAGE
  3
ANSI_1252
  9
$EXTMAX
 10
297.0
 20
210.0
 30
0.0
  9
$EXTMIN
 10
0.0
 20
0.0
 30
0.0
  9
$LIMMIN
 10
0.0
 20
0.0
  9
$LIMMAX
 10
297.0
 20
210.0
  9
$VIEWCTR
 10
148.5
 20
105.0
  9
$VIEWSIZE
 40
210.0
  9
$CLAYER
  8
0
  9
$LTSCALE
 40
16.335
  9
$CELTYPE
  6
BYLAYER
  9
$DIMSCALE
 40
1.0
  9
$DIMASZ
 40
3.0
  9
$DIMEXO
 40
0.5
  9
$DIMDLI
 40
11.286
  9
$DIMEXE
 40
1.5
  9
$DIMCEN
 40
2.673
  9
$DIMLFAC
 40
1.0
  9
$DIMBLK
  1
_FILLED
  9
$DIMALT
 70
0
  9
$DIMALTF
 40
0.0393700787
  9
$DIMTXT
 40
3.0
  9
$DIMTOL
 70
1
  9
$DIMLIM
 70
0
  9
$DIMTFAC
 40
1.0
  9
$DIMTP
 40
0.01
  9
$DIMTM
 40
0.01
  9
$DIMGAP
 40
0.625
  9
$DIMDSEP
 70
44
  9
$AUNITS
 70
0
  9
$PDMODE
 70
3
  9
$PDSIZE
 40
3.0
  9
$HANDSEED
  5
3D1
  9
$TILEMODE
 70
1
  9
$MEASUREMENT
 70
1
  9
$INSUNITS
 70
4
  0
ENDSEC
  0
SECTION
  2
CLASSES
  0
CLASS
  1
ACDBDICTIONARYWDFLT
  2
AcDbDictionaryWithDefault
  3
AutoCAD 2000
 90
0
 91
1
280
0
281
0
  0
CLASS
  1
ACDBPLACEHOLDER
  2
AcDbPlaceHolder
  3
AutoCAD 2000
 90
0
 91
1
280
0
281
0
  0
CLASS
  1
LAYOUT
  2
AcDbLayout
  3
AutoCAD 2000
 90
0
 91
0
280
0
281
0
  0
ENDSEC
  0
SECTION
  2
TABLES
  0
TABLE
  2
VPORT
  5
8
100
AcDbSymbolTable
 70
2
  0
VPORT
  5
1F4
100
AcDbSymbolTableRecord
100
AcDbViewportTableRecord
  2
*ACTIVE
 70
0
 10
0.0
 20
0.0
 11
1.0
 21
1.0
 12
148.5
 22
105.0
 13
0.0
 23
0.0
 14
1.0
 24
1.0
 15
0.0
 25
0.0
 16
0.0
 26
0.0
 36
1.0
 17
0.0
 27
0.0
 37
0.0
 40
210.0
 41
1.4142857143
 42
50.0
 43
0.0
 44
0.0
 50
0.0
 51
0.0
 71
0
 72
100
 73
1
 74
1
 75
0
 76
0
 77
0
 78
0
  0
ENDTAB
  0
TABLE
  2
LTYPE
  5
5
100
AcDbSymbolTable
 70
6
  0
LTYPE
  5
14
100
AcDbSymbolTableRecord
100
AcDbLinetypeTableRecord
  2
BYBLOCK
 70
0
  3

 72
65
 73
0
 40
0.0
  0
LTYPE
  5
15
100
AcDbSymbolTableRecord
100
AcDbLinetypeTableRecord
  2
BYLAYER
 70
0
  3

 72
65
 73
0
 40
0.0
  0
LTYPE
  5
16
100
AcDbSymbolTableRecord
100
AcDbLinetypeTableRecord
  2
CONTINUOUS
 70
64
  3
Solid line
 72
65
 73
0
 40
0.0
  0
LTYPE
  5
1F5
100
AcDbSymbolTableRecord
100
AcDbLinetypeTableRecord
  2
CENTER
 70
64
  3
____ _ ____ _ ____ _ ____ _ ____ _ ____ _ ____
 72
65
 73
4
 40
0.6
 49
0.375
 74
0
 49
-0.075
 74
0
 49
0.075
 74
0
 49
-0.075
 74
0
  0
LTYPE
  5
1F6
100
AcDbSymbolTableRecord
100
AcDbLinetypeTableRecord
  2
HIDDEN
 70
64
  3
- - - - - - - - - - - - - - - - - - - -
 72
65
 73
2
 40
0.2
 49
0.1
 74
0
 49
-0.1
 74
0
  0
LTYPE
  5
1F7
100
AcDbSymbolTableRecord
100
AcDbLinetypeTableRecord
  2
PHANTOM
 70
64
  3
_____ _ _ _____ _ _ _____ _ _ _____
 72
65
 73
6
 40
0.8
 49
0.45
 74
0
 49
-0.05
 74
0
 49
0.1
 74
0
 49
-0.05
 74
0
 49
0.1
 74
0
 49
-0.05
 74
0
  0
LTYPE
  5
1F8
100
AcDbSymbolTableRecord
100
AcDbLinetypeTableRecord
  2
DOT
 70
64
  3
. . . . . . . . . . . . . . . . . . . .
 72
65
 73
2
 40
0.2
 49
0.1
 74
0
 49
-0.1
 74
0
  0
LTYPE
  5
1F9
100
AcDbSymbolTableRecord
100
AcDbLinetypeTableRecord
  2
DASHED
 70
64
  3
- - - - - - - - - - - - - - - - - - - -
 72
65
 73
2
 40
0.2
 49
0.1
 74
0
 49
-0.1
 74
0
  0
ENDTAB
  0
TABLE
  2
LAYER
  5
2
100
AcDbSymbolTable
 70
36
  0
LAYER
  5
10
100
AcDbSymbolTableRecord
100
AcDbLayerTableRecord
  2
0
 70
0
 62
7
  6
CONTINUOUS
370
-3
390
F
  0
LAYER
  5
1FA
100
AcDbSymbolTableRecord
100
AcDbLayerTableRecord
  2
DEFAULT_1
 70
0
 62
7
  6
CENTER
370
-3
390
F
  0
LAYER
  5
1FB
100
AcDbSymbolTableRecord
100
AcDbLayerTableRecord
  2
DEFAULT_2
 70
0
 62
7
  6
HIDDEN
370
-3
390
F
  0
LAYER
  5
1FC
100
AcDbSymbolTableRecord
100
AcDbLayerTableRecord
  2
DEFAULT_3
 70
0
 62
7
  6
PHANTOM
370
-3
390
F
  0
LAYER
  5
1FD
100
AcDbSymbolTableRecord
100
AcDbLayerTableRecord
  2
ASSI
 70
0
 62
7
  6
CONTINUOUS
370
-3
390
F
  0
LAYER
  5
1FE
100
AcDbSymbolTableRecord
100
AcDbLayerTableRecord
  2
COORDINATE
 70
0
 62
7
  6
CONTINUOUS
370
-3
390
F
  0
LAYER
  5
1FF
100
AcDbSymbolTableRecord
100
AcDbLayerTableRecord
  2
COORD_ORIGINE
 70
0
 62
7
  6
CONTINUOUS
370
-3
390
F
  0
LAYER
  5
200
100
AcDbSymbolTableRecord
100
AcDbLayerTableRecord
  2
COSMETICI
 70
0
 62
7
  6
CONTINUOUS
370
-3
390
F
  0
LAYER
  5
201
100
AcDbSymbolTableRecord
100
AcDbLayerTableRecord
  2
CURVE
 70
0
 62
7
  6
CONTINUOUS
370
-3
390
F
  0
LAYER
  5
202
100
AcDbSymbolTableRecord
100
AcDbLayerTableRecord
  2
DRAFT
 70
0
 62
7
  6
CONTINUOUS
370
-3
390
F
  0
LAYER
  5
203
100
AcDbSymbolTableRecord
100
AcDbLayerTableRecord
  2
IMPORT
 70
0
 62
7
  6
CONTINUOUS
370
-3
390
F
  0
LAYER
  5
204
100
AcDbSymbolTableRecord
100
AcDbLayerTableRecord
  2
INTF_1
 70
0
 62
7
  6
CONTINUOUS
370
-3
390
F
  0
LAYER
  5
205
100
AcDbSymbolTableRecord
100
AcDbLayerTableRecord
  2
NOTE
 70
0
 62
7
  6
CONTINUOUS
370
-3
390
F
  0
LAYER
  5
206
100
AcDbSymbolTableRecord
100
AcDbLayerTableRecord
  2
PIANI
 70
0
 62
7
  6
CONTINUOUS
370
-3
390
F
  0
LAYER
  5
207
100
AcDbSymbolTableRecord
100
AcDbLayerTableRecord
  2
PIANI_ORIGINE
 70
0
 62
7
  6
CONTINUOUS
370
-3
390
F
  0
LAYER
  5
208
100
AcDbSymbolTableRecord
100
AcDbLayerTableRecord
  2
PUNTI
 70
0
 62
7
  6
CONTINUOUS
370
-3
390
F
  0
LAYER
  5
209
100
AcDbSymbolTableRecord
100
AcDbLayerTableRecord
  2
RACCORDO
 70
0
 62
7
  6
CONTINUOUS
370
-3
390
F
  0
LAYER
  5
20A
100
AcDbSymbolTableRecord
100
AcDbLayerTableRecord
  2
RGB____0____0____0__
 70
0
 62
7
  6
CONTINUOUS
370
-3
390
F
  0
LAYER
  5
20B
100
AcDbSymbolTableRecord
100
AcDbLayerTableRecord
  2
SIMBOLI
 70
0
 62
7
  6
CONTINUOUS
370
-3
390
F
  0
LAYER
  5
20C
100
AcDbSymbolTableRecord
100
AcDbLayerTableRecord
  2
SNAPLINE
 70
0
 62
7
  6
CONTINUOUS
370
-3
390
F
  0
LAYER
  5
20D
100
AcDbSymbolTableRecord
100
AcDbLayerTableRecord
  2
SUPERFICI
 70
0
 62
7
  6
CONTINUOUS
370
-3
390
F
  0
LAYER
  5
20E
100
AcDbSymbolTableRecord
100
AcDbLayerTableRecord
  2
TRASH
 70
0
 62
7
  6
CONTINUOUS
370
-3
390
F
  0
LAYER
  5
20F
100
AcDbSymbolTableRecord
100
AcDbLayerTableRecord
  2
XSEC_DATUMS
 70
0
 62
7
  6
CONTINUOUS
370
-3
390
F
  0
ENDTAB
  0
TABLE
  2
STYLE
  5
3
100
AcDbSymbolTable
 70
1
  0
STYLE
  5
11
100
AcDbSymbolTableRecord
100
AcDbTextStyleTableRecord
  2
STANDARD
 70
0
 40
0.0
 41
0.8
 50
0.0
 71
0
 42
0.2
  3
txt
  4

  0
STYLE
  5
210
100
AcDbSymbolTableRecord
100
AcDbTextStyleTableRecord
  2
TEXTSTYLE_1
 70
0
 40
0.0
 41
0.8
 50
0.0
 71
0
 42
0.2
  3
gdt
  4

  0
ENDTAB
  0
TABLE
  2
VIEW
  5
6
100
AcDbSymbolTable
 70
0
  0
ENDTAB
  0
TABLE
  2
UCS
  5
7
100
AcDbSymbolTable
 70
0
  0
ENDTAB
  0
TABLE
  2
APPID
  5
9
100
AcDbSymbolTable
 70
1
  0
APPID
  5
211
100
AcDbSymbolTableRecord
100
AcDbRegAppTableRecord
  2
ACAD
 70
0
  0
ENDTAB
  0
TABLE
  2
BLOCK_RECORD
  5
1
100
AcDbSymbolTable
 70
0
  0
BLOCK_RECORD
  5
212
100
AcDbSymbolTableRecord
100
AcDbBlockTableRecord
  2
*Model_Space
  0
BLOCK_RECORD
  5
213
100
AcDbSymbolTableRecord
100
AcDbBlockTableRecord
  2
*Paper_Space
  0
BLOCK_RECORD
  5
214
100
AcDbSymbolTableRecord
100
AcDbBlockTableRecord
  2
_FILLED
  0
ENDTAB
  0
TABLE
  2
DIMSTYLE
  5
A
100
AcDbSymbolTable
 70
1
100
AcDbDimStyleTable
 71
0
  0
DIMSTYLE
105
215
100
AcDbSymbolTableRecord
100
AcDbDimStyleTableRecord
  2
STANDARD
 70
0
  3

  4

 40
1.0
 41
3.0
 42
0.5
 43
0.38
 44
1.5
 45
0.0
 46
0.0
 47
0.01
 48
0.01
140
3.0
141
0.09
142
0.0
143
25.4
144
1.0
145
0.0
146
1.0
147
0.625
 71
1
 72
0
 73
0
 74
0
 75
0
 76
0
 77
1
 78
8
 79
2
170
0
171
1
172
0
173
0
174
0
175
0
176
0
177
0
178
0
270
2
179
2
271
2
272
2
273
2
274
2
275
0
280
0
281
0
282
0
283
1
284
8
285
0
286
0
287
3
288
0
340
11
278
44
341
214
342
214
343
214
344
214
  0
ENDTAB
  0
ENDSEC
  0
SECTION
  2
BLOCKS
  0
BLOCK
  5
20
100
AcDbEntity
  8
0
100
AcDbBlockBegin
  2
*Model_Space
 70
0
 10
0.0
 20
0.0
 30
0.0
  3
*Model_Space
  1

  0
ENDBLK
  5
21
100
AcDbEntity
  8
0
100
AcDbBlockEnd
  0
BLOCK
  5
1C
100
AcDbEntity
  8
0
100
AcDbBlockBegin
  2
*Paper_Space
 70
0
 10
0.0
 20
0.0
 30
0.0
  3
*Paper_Space
  1

  0
ENDBLK
  5
1D
100
AcDbEntity
  8
0
100
AcDbBlockEnd
  0
BLOCK
  5
216
100
AcDbEntity
  8
0
100
AcDbBlockBegin
  2
_FILLED
 70
64
 10
0.0
 20
0.0
  3
_FILLED
  1

  0
SOLID
  5
217
100
AcDbEntity
  8
0
  6
BYBLOCK
 62
0
100
AcDbTrace
 10
0.0
 20
0.0
 11
-1.0
 21
0.3166666667
 12
-1.0
 22
-0.3166666667
 13
-1.0
 23
-0.3166666667
  0
ENDBLK
  5
218
100
AcDbEntity
  8
0
  6
BYBLOCK
 62
0
100
AcDbBlockEnd
  0
ENDSEC
  0
SECTION
  2
ENTITIES
  0
LINE
  5
219
100
AcDbEntity
  8
RACCORDO
100
AcDbLine
 62
7
  6
CONTINUOUS
 10
-21.7514778579
 20
28.2632014054
 11
-19.7679655564
 21
29.9305971819
  0
LINE
  5
21A
100
AcDbEntity
  8
RACCORDO
100
AcDbLine
 62
250
  6
CONTINUOUS
 10
-21.3875978187
 20
28.2119023868
 11
-19.4120998552
 21
29.8725610873
  0
LWPOLYLINE
  5
21B
100
AcDbEntity
  8
RACCORDO
100
AcDbPolyline
 62
250
  6
CONTINUOUS
 90
74
 70
0
 10
-21.7514778579
 20
28.2632014054
 10
-21.7503799283
 20
28.2641150222
 10
-21.7472360712
 20
28.2666310757
 10
-21.7440199718
 20
28.2690595873
 10
-21.7407322386
 20
28.2714000973
 10
-21.7373734936
 20
28.273652163
 10
-21.7339443722
 20
28.2758153584
 10
-21.7304455232
 20
28.277889274
 10
-21.7268776086
 20
28.2798735177
 10
-21.7232413034
 20
28.2817677139
 10
-21.7195372955
 20
28.2835715043
 10
-21.7157662858
 20
28.2852845477
 10
-21.7119289877
 20
28.2869065199
 10
-21.7080261271
 20
28.288437114
 10
-21.7040584426
 20
28.2898760405
 10
-21.7000266847
 20
28.2912230272
 10
-21.6959316162
 20
28.2924778192
 10
-21.6917740119
 20
28.2936401791
 10
-21.6875546584
 20
28.294709887
 10
-21.683274354
 20
28.2956867405
 10
-21.6789339084
 20
28.2965705548
 10
-21.6745341429
 20
28.2973611627
 10
-21.6700758898
 20
28.2980584146
 10
-21.6655599927
 20
28.2986621787
 10
-21.6609873059
 20
28.2991723405
 10
-21.6563586946
 20
28.2995888038
 10
-21.6516750344
 20
28.2999114895
 10
-21.6469372114
 20
28.3001403368
 10
-21.6421461221
 20
28.3002753023
 10
-21.6373026729
 20
28.3003163604
 10
-21.6324077801
 20
28.3002635035
 10
-21.6274623699
 20
28.3001167415
 10
-21.6224673778
 20
28.2998761021
 10
-21.6174237489
 20
28.2995416309
 10
-21.6123324374
 20
28.2991133913
 10
-21.6071944065
 20
28.2985914641
 10
-21.6020106284
 20
28.2979759481
 10
-21.5967820837
 20
28.2972669599
 10
-21.5915097618
 20
28.2964646335
 10
-21.58619466
 20
28.2955691207
 10
-21.580837784
 20
28.294580591
 10
-21.5754401472
 20
28.2934992313
 10
-21.5700027709
 20
28.2923252463
 10
-21.5645266837
 20
28.2910588581
 10
-21.5590129218
 20
28.2897003063
 10
-21.5534625282
 20
28.2882498478
 10
-21.5478765532
 20
28.2867077572
 10
-21.5422560534
 20
28.2850743261
 10
-21.5366020923
 20
28.2833498637
 10
-21.5309157396
 20
28.2815346961
 10
-21.5251980711
 20
28.2796291668
 10
-21.5194501686
 20
28.2776336363
 10
-21.5136731195
 20
28.2755484821
 10
-21.5078680167
 20
28.2733740988
 10
-21.5020359587
 20
28.2711108977
 10
-21.4961780487
 20
28.268759307
 10
-21.4902953951
 20
28.2663197715
 10
-21.4843891109
 20
28.263792753
 10
-21.4784603133
 20
28.2611787294
 10
-21.4725101243
 20
28.2584781953
 10
-21.4665396694
 20
28.2556916617
 10
-21.4605500783
 20
28.2528196556
 10
-21.4545424841
 20
28.2498627206
 10
-21.4485180236
 20
28.246821416
 10
-21.4424778363
 20
28.2436963172
 10
-21.4364230652
 20
28.2404880155
 10
-21.4303548557
 20
28.2371971179
 10
-21.424274356
 20
28.2338242469
 10
-21.4181827163
 20
28.2303700408
 10
-21.4120810893
 20
28.226835153
 10
-21.4059706292
 20
28.2232202522
 10
-21.3998524922
 20
28.2195260226
 10
-21.3937278358
 20
28.2157531628
 10
-21.3875978187
 20
28.2119023868
  0
LWPOLYLINE
  5
21C
100
AcDbEntity
  8
RACCORDO
100
AcDbPolyline
 62
250
  6
CONTINUOUS
 90
103
 70
0
 10
-21.3875978187
 20
28.2119023868
 10
-21.3935103907
 20
28.2073703012
 10
-21.3994174828
 20
28.2027595834
 10
-21.4053179436
 20
28.1980711321
 10
-21.4112106231
 20
28.1933058611
 10
-21.417094373
 20
28.1884646991
 10
-21.4229680463
 20
28.1835485897
 10
-21.4288304985
 20
28.178558491
 10
-21.4346805868
 20
28.1734953756
 10
-21.4405171711
 20
28.1683602302
 10
-21.4463391139
 20
28.1631540558
 10
-21.4521452804
 20
28.157877867
 10
-21.457934539
 20
28.1525326921
 10
-21.4637057615
 20
28.1471195729
 10
-21.469457823
 20
28.1416395644
 10
-21.4751896024
 20
28.1360937347
 10
-21.4808999827
 20
28.1304831646
 10
-21.4865878507
 20
28.1248089476
 10
-21.4922520981
 20
28.1190721897
 10
-21.4978916209
 20
28.1132740089
 10
-21.5035053198
 20
28.1074155353
 10
-21.5090921009
 20
28.1014979107
 10
-21.5146508752
 20
28.0955222884
 10
-21.5201805593
 20
28.0894898331
 10
-21.5256800755
 20
28.0834017206
 10
-21.5311483519
 20
28.0772591373
 10
-21.5365843229
 20
28.0710632805
 10
-21.5419869289
 20
28.0648153577
 10
-21.5473551169
 20
28.0585165867
 10
-21.5526878407
 20
28.052168195
 10
-21.557984061
 20
28.0457714201
 10
-21.5632427455
 20
28.0393275085
 10
-21.5684628693
 20
28.0328377163
 10
-21.573643415
 20
28.0263033082
 10
-21.5787833729
 20
28.0197255579
 10
-21.5838817413
 20
28.0131057473
 10
-21.5889375265
 20
28.0064451666
 10
-21.593949743
 20
27.999745114
 10
-21.5989174141
 20
27.9930068952
 10
-21.6038395716
 20
27.9862318237
 10
-21.608715256
 20
27.9794212198
 10
-21.6135435172
 20
27.972576411
 10
-21.6183234141
 20
27.9656987311
 10
-21.6230540151
 20
27.9587895209
 10
-21.6277343983
 20
27.9518501267
 10
-21.6323636513
 20
27.9448819012
 10
-21.6369408721
 20
27.9378862024
 10
-21.6414651684
 20
27.9308643937
 10
-21.6459356586
 20
27.9238178438
 10
-21.6503514712
 20
27.9167479259
 10
-21.6547117457
 20
27.9096560181
 10
-21.6590156323
 20
27.9025435024
 10
-21.6632622921
 20
27.8954117653
 10
-21.6674508974
 20
27.8882621965
 10
-21.671580632
 20
27.8810961896
 10
-21.6756506909
 20
27.8739151412
 10
-21.6796602808
 20
27.8667204509
 10
-21.6836086203
 20
27.8595135209
 10
-21.6874949399
 20
27.8522957559
 10
-21.6913184821
 20
27.8450685626
 10
-21.6950785018
 20
27.8378333496
 10
-21.698774266
 20
27.830591527
 10
-21.7024050545
 20
27.8233445062
 10
-21.7059701597
 20
27.8160936997
 10
-21.7094688867
 20
27.8088405207
 10
-21.7129005537
 20
27.8015863827
 10
-21.7162644917
 20
27.7943326997
 10
-21.7195600451
 20
27.7870808854
 10
-21.7227865718
 20
27.7798323531
 10
-21.7259434427
 20
27.7725885155
 10
-21.7290300427
 20
27.7653507846
 10
-21.7320457701
 20
27.7581205709
 10
-21.7349900372
 20
27.7508992836
 10
-21.7378622702
 20
27.74368833
 10
-21.7406619092
 20
27.7364891158
 10
-21.7433884087
 20
27.7293030438
 10
-21.7460412372
 20
27.7221315148
 10
-21.7486198777
 20
27.7149759264
 10
-21.7511238275
 20
27.7078376732
 10
-21.7535525988
 20
27.7007181466
 10
-21.7559057181
 20
27.693618734
 10
-21.7581827268
 20
27.6865408192
 10
-21.7603831812
 20
27.6794857817
 10
-21.7625066522
 20
27.6724549963
 10
-21.7645527262
 20
27.6654498336
 10
-21.7665210043
 20
27.6584716587
 10
-21.7684111029
 20
27.6515218317
 10
-21.7702226535
 20
27.6446017072
 10
-21.7719553033
 20
27.6377126338
 10
-21.7736087144
 20
27.6308559542
 10
-21.7751825645
 20
27.6240330048
 10
-21.7766765471
 20
27.6172451154
 10
-21.7780903708
 20
27.6104936089
 10
-21.7794237602
 20
27.6037798012
 10
-21.7806764553
 20
27.5971050008
 10
-21.781848212
 20
27.5904705087
 10
-21.7829388019
 20
27.5838776178
 10
-21.7839480125
 20
27.5773276132
 10
-21.7848756471
 20
27.5708217714
 10
-21.7857215249
 20
27.5643613604
 10
-21.786485481
 20
27.5579476394
 10
-21.7871673666
 20
27.5515818584
 10
-21.7877670486
 20
27.545265258
  0
LWPOLYLINE
  5
21D
100
AcDbEntity
  8
RACCORDO
100
AcDbPolyline
 62
250
  6
CONTINUOUS
 90
13
 70
0
 10
-14.7463875096
 20
22.4571026292
 10
-14.7414068587
 20
22.4588905391
 10
-14.7364986446
 20
22.4606214889
 10
-14.7316638169
 20
22.4622951437
 10
-14.7269033113
 20
22.4639111795
 10
-14.7222180489
 20
22.4654692838
 10
-14.7176089364
 20
22.4669691549
 10
-14.7130768657
 20
22.4684105027
 10
-14.7086227138
 20
22.4697930481
 10
-14.7042473425
 20
22.4711165238
 10
-14.6999515987
 20
22.4723806736
 10
-14.6957363134
 20
22.4735852528
 10
-14.6916023024
 20
22.4747300285
  0
LWPOLYLINE
  5
21E
100
AcDbEntity
  8
RACCORDO
100
AcDbPolyline
 62
250
  6
CONTINUOUS
 90
13
 70
0
 10
12.5184614521
 20
-24.6275297755
 10
12.5151617444
 20
-24.6281290792
 10
12.511771816
 20
-24.6287864389
 10
12.5082923231
 20
-24.6295017274
 10
12.5047239388
 20
-24.6302748062
 10
12.5010673538
 20
-24.6311055257
 10
12.4973232755
 20
-24.6319937253
 10
12.4934924285
 20
-24.632939233
 10
12.489575554
 20
-24.6339418659
 10
12.4855734101
 20
-24.63500143
 10
12.4814867712
 20
-24.6361177201
 10
12.4773164281
 20
-24.6372905204
 10
12.4730631877
 20
-24.6385196038
  0
LWPOLYLINE
  5
21F
100
AcDbEntity
  8
RACCORDO
100
AcDbPolyline
 62
250
  6
CONTINUOUS
 90
63
 70
0
 10
-21.9632955785
 20
27.8540520497
 10
-21.9635410661
 20
27.8508897784
 10
-21.9638677904
 20
27.8455270898
 10
-21.964082486
 20
27.8401566161
 10
-21.9641850081
 20
27.8347807851
 10
-21.9641755475
 20
27.8293977543
 10
-21.9640540025
 20
27.8240099482
 10
-21.9638203041
 20
27.8186198093
 10
-21.9634746742
 20
27.8132255049
 10
-21.9630170922
 20
27.8078294453
 10
-21.9624475682
 20
27.8024340741
 10
-21.9617663512
 20
27.7970375833
 10
-21.9609735022
 20
27.7916423622
 10
-21.9600691126
 20
27.7862508443
 10
-21.9590534559
 20
27.7808612575
 10
-21.9579266751
 20
27.7754759649
 10
-21.9566889435
 20
27.7700973807
 10
-21.9553405581
 20
27.7647237763
 10
-21.9538817434
 20
27.7593574845
 10
-21.9523127548
 20
27.7540008934
 10
-21.9506339121
 20
27.7486523225
 10
-21.9488455209
 20
27.7433140717
 10
-21.9469479177
 20
27.7379884969
 10
-21.9449414461
 20
27.7326739683
 10
-21.942826491
 20
27.7273727506
 10
-21.9406034694
 20
27.7220871638
 10
-21.9382727488
 20
27.7168156286
 10
-21.9358347926
 20
27.7115603735
 10
-21.9332900967
 20
27.7063236796
 10
-21.9306390535
 20
27.7011040164
 10
-21.9278822032
 20
27.6959035756
 10
-21.9250201188
 20
27.6907245975
 10
-21.9220532189
 20
27.6855655974
 10
-21.9189821185
 20
27.6804287301
 10
-21.9158074664
 20
27.675316194
 10
-21.9125297075
 20
27.6702265456
 10
-21.9091495305
 20
27.6651619036
 10
-21.9056676578
 20
27.660124424
 10
-21.9020845615
 20
27.6551126992
 10
-21.8984010018
 20
27.6501288125
 10
-21.8946177733
 20
27.6451748778
 10
-21.8907353753
 20
27.640249517
 10
-21.8867546381
 20
27.6353547796
 10
-21.8826764261
 20
27.6304927374
 10
-21.8785012663
 20
27.6256620357
 10
-21.8742300572
 20
27.620864691
 10
-21.8698637312
 20
27.6161027345
 10
-21.8654028426
 20
27.6113748274
 10
-21.8608483563
 20
27.6066829549
 10
-21.8562012711
 20
27.6020291086
 10
-21.851462168
 20
27.5974119585
 10
-21.8466320766
 20
27.5928334599
 10
-21.84171206
 20
27.5882955664
 10
-21.8367027251
 20
27.5837969491
 10
-21.8316051648
 20
27.579339535
 10
-21.8264205044
 20
27.5749252416
 10
-21.8211493759
 20
27.5705527331
 10
-21.8157929334
 20
27.5662239105
 10
-21.8103523627
 20
27.5619406562
 10
-21.8048283197
 20
27.5577016204
 10
-21.7992218264
 20
27.5535076044
 10
-21.7935343109
 20
27.5493615377
 10
-14.7900198574
 20
22.597110766
  0
LWPOLYLINE
  5
220
100
AcDbEntity
  8
RACCORDO
100
AcDbPolyline
 62
7
  6
CONTINUOUS
 90
94
 70
0
 10
-21.9632955397
 20
27.8540525009
 10
-21.9898740792
 20
27.5338377788
 10
-22.0159683128
 20
27.212900476
 10
-22.0414845514
 20
26.8923578063
 10
-22.0664226797
 20
26.5722110407
 10
-22.0907825826
 20
26.2524614547
 10
-22.1145641461
 20
25.9331103588
 10
-22.1377672562
 20
25.614159087
 10
-22.1603918006
 20
25.2956089556
 10
-22.1824376735
 20
24.9774612497
 10
-22.2039047701
 20
24.6597172718
 10
-22.2247929853
 20
24.3423783292
 10
-22.2451022198
 20
24.0254457081
 10
-22.2648323751
 20
23.7089207098
 10
-22.2839833529
 20
23.3928046409
 10
-22.3025550601
 20
23.0770987917
 10
-22.3205474051
 20
22.761804459
 10
-22.3379602967
 20
22.4469229413
 10
-22.3547936486
 20
22.132455527
 10
-22.371047376
 20
21.818403509
 10
-22.3867213948
 20
21.50476818
 10
-22.4018156255
 20
21.1915508224
 10
-22.4163299904
 20
20.8787527236
 10
-22.4302644124
 20
20.5663751715
 10
-22.4436188187
 20
20.2544194433
 10
-22.4563931388
 20
19.9428868211
 10
-22.4685873023
 20
19.6317785876
 10
-22.4802012433
 20
19.3210960162
 10
-22.4912348983
 20
19.0108403841
 10
-22.501688204
 20
18.7010129682
 10
-22.5115611013
 20
18.3916150362
 10
-22.5208535336
 20
18.0826478601
 10
-22.5295654446
 20
17.7741127113
 10
-22.5376967822
 20
17.4660108513
 10
-22.5452474966
 20
17.1583435483
 10
-22.5522175386
 20
16.8511120666
 10
-22.558606863
 20
16.5443176561
 10
-22.564415427
 20
16.2379615793
 10
-22.5696431882
 20
15.9320450953
 10
-22.5742901084
 20
15.6265694442
 10
-22.5783561516
 20
15.3215358769
 10
-22.5818412825
 20
15.0169456531
 10
-22.5847454691
 20
14.7128000208
 10
-22.5870686827
 20
14.4091002258
 10
-22.5888108947
 20
14.1058475219
 10
-22.58997208
 20
13.8030431636
 10
-22.5905522171
 20
13.5006883969
 10
-22.5905512843
 20
13.1987844642
 10
-22.5899692635
 20
12.8973326087
 10
-22.5888061402
 20
12.596334071
 10
-22.5870618997
 20
12.2957900875
 10
-22.5847365309
 20
11.9957018897
 10
-22.581830026
 20
11.6960707107
 10
-22.5783423775
 20
11.3968977832
 10
-22.574273581
 20
11.0981843324
 10
-22.5696236356
 20
10.7999315825
 10
-22.5643925408
 20
10.5021407635
 10
-22.5585802992
 20
10.2048131043
 10
-22.5521869169
 20
9.9079498222
 10
-22.5452124004
 20
9.6115521425
 10
-22.5376567595
 20
9.3156212989
 10
-22.5295200075
 20
9.0201585066
 10
-22.5208021579
 20
8.7251649814
 10
-22.5115032275
 20
8.430641951
 10
-22.5016232365
 20
8.1365906245
 10
-22.4911622057
 20
7.8430122118
 10
-22.4801201588
 20
7.5499079368
 10
-22.4684971233
 20
7.2572790019
 10
-22.4562931268
 20
6.9651266117
 10
-22.4435082003
 20
6.6734519867
 10
-22.4301423784
 20
6.3822563244
 10
-22.4161956956
 20
6.0915408222
 10
-22.4016681903
 20
5.8013066943
 10
-22.3865599037
 20
5.5115551309
 10
-22.3708708777
 20
5.2222873244
 10
-22.3546011577
 20
4.9335044864
 10
-22.3377507921
 20
4.6452077998
 10
-22.3203198299
 20
4.3573984522
 10
-22.302308324
 20
4.0700776554
 10
-22.2837163299
 20
3.7832465884
 10
-22.2645439038
 20
3.4969064299
 10
-22.2447911056
 20
3.2110583859
 10
-22.2244579982
 20
2.9257036311
 10
-22.2035446446
 20
2.6408433379
 10
-22.182051112
 20
2.3564787019
 10
-22.1599774694
 20
2.0726108831
 10
-22.1373237869
 20
1.7892410489
 10
-22.1140901398
 20
1.5063704012
 10
-22.0902766056
 20
1.2240001084
 10
-22.0658832631
 20
0.9421313433
 10
-22.0409101946
 20
0.6607653023
 10
-22.0153574816
 20
0.3799031168
 10
-21.9892252033
 20
0.0995458856
 10
-21.9626156165
 20
-0.1792472237
  0
LWPOLYLINE
  5
221
100
AcDbEntity
  8
RACCORDO
100
AcDbPolyline
 62
250
  6
CONTINUOUS
 90
115
 70
0
 10
-14.319038549
 20
17.4962212727
 10
-14.3132399629
 20
17.501271618
 10
-14.3073619289
 20
17.5062640478
 10
-14.3014055629
 20
17.5111976143
 10
-14.2953719957
 20
17.5160713808
 10
-14.2892623729
 20
17.520884422
 10
-14.2830778544
 20
17.5256358241
 10
-14.2768196143
 20
17.5303246851
 10
-14.2704888409
 20
17.5349501147
 10
-14.2640867361
 20
17.5395112347
 10
-14.2576145153
 20
17.5440071793
 10
-14.2510734073
 20
17.5484370948
 10
-14.244464654
 20
17.5528001402
 10
-14.2377895101
 20
17.5570954871
 10
-14.2310492429
 20
17.5613223201
 10
-14.2242451321
 20
17.5654798366
 10
-14.2173784695
 20
17.5695672474
 10
-14.2104505587
 20
17.5735837764
 10
-14.2034627151
 20
17.577528661
 10
-14.1964162653
 20
17.5814011523
 10
-14.1893125472
 20
17.5852005151
 10
-14.1821529094
 20
17.5889260281
 10
-14.1749387113
 20
17.5925769839
 10
-14.1676713224
 20
17.5961526894
 10
-14.1603521226
 20
17.5996524657
 10
-14.1529825014
 20
17.6030756484
 10
-14.1455638579
 20
17.6064215875
 10
-14.1380976008
 20
17.6096896479
 10
-14.1305851474
 20
17.612879209
 10
-14.123027924
 20
17.6159896653
 10
-14.1154273655
 20
17.6190204262
 10
-14.1077849148
 20
17.6219709165
 10
-14.1001020229
 20
17.6248405758
 10
-14.0923801484
 20
17.6276288594
 10
-14.0846207575
 20
17.6303352379
 10
-14.0768253231
 20
17.6329591974
 10
-14.0689953254
 20
17.6355002399
 10
-14.061132251
 20
17.6379578828
 10
-14.0532375925
 20
17.6403316596
 10
-14.045312849
 20
17.6426211196
 10
-14.037359525
 20
17.6448258282
 10
-14.0293791304
 20
17.6469453667
 10
-14.0213731804
 20
17.6489793327
 10
-14.0133431949
 20
17.6509273402
 10
-14.0052906985
 20
17.6527890192
 10
-13.9972172199
 20
17.6545640163
 10
-13.9891242921
 20
17.6562519945
 10
-13.9810134514
 20
17.6578526334
 10
-13.9728862378
 20
17.659365629
 10
-13.9647441942
 20
17.6607906941
 10
-13.9565888665
 20
17.6621275581
 10
-13.948421803
 20
17.6633759673
 10
-13.9402445543
 20
17.6645356845
 10
-13.9320586728
 20
17.6656064898
 10
-13.9238657127
 20
17.6665881796
 10
-13.9156672295
 20
17.6674805677
 10
-13.9074647797
 20
17.6682834846
 10
-13.8992599206
 20
17.668996778
 10
-13.8910542098
 20
17.6696203123
 10
-13.8828492054
 20
17.6701539692
 10
-13.8746464651
 20
17.6705976473
 10
-13.8664475461
 20
17.6709512625
 10
-13.8582540052
 20
17.6712147476
 10
-13.850067398
 20
17.6713880526
 10
-13.8418892786
 20
17.6714711445
 10
-13.8337211997
 20
17.6714640077
 10
-13.8255647122
 20
17.6713666434
 10
-13.8174213645
 20
17.6711790701
 10
-13.8092927027
 20
17.6709013235
 10
-13.8011802701
 20
17.6705334563
 10
-13.7930856069
 20
17.6700755383
 10
-13.7850102498
 20
17.6695276565
 10
-13.7769557321
 20
17.6688899148
 10
-13.768923583
 20
17.6681624344
 10
-13.7609153273
 20
17.6673453534
 10
-13.7529324856
 20
17.6664388268
 10
-13.7449765733
 20
17.6654430269
 10
-13.7370491009
 20
17.6643581427
 10
-13.7291515736
 20
17.6631843801
 10
-13.7212854908
 20
17.661921962
 10
-13.7134523457
 20
17.660571128
 10
-13.7056536257
 20
17.6591321347
 10
-13.6978908113
 20
17.6576052552
 10
-13.6901653763
 20
17.6559907794
 10
-13.6824787875
 20
17.6542890139
 10
-13.6748325042
 20
17.6525002816
 10
-13.6672279782
 20
17.6506249223
 10
-13.659666653
 20
17.648663292
 10
-13.6521499644
 20
17.646615763
 10
-13.6446793394
 20
17.6444827242
 10
-13.6372561963
 20
17.6422645805
 10
-13.6298819445
 20
17.639961753
 10
-13.6225579839
 20
17.637574679
 10
-13.6152857052
 20
17.6351038115
 10
-13.608066489
 20
17.6325496198
 10
-13.6009017058
 20
17.6299125888
 10
-13.593792716
 20
17.6271932191
 10
-13.5867408693
 20
17.624392027
 10
-13.5797475044
 20
17.6215095443
 10
-13.5728139491
 20
17.6185463183
 10
-13.5659415198
 20
17.6155029116
 10
-13.5591315213
 20
17.6123799019
 10
-13.5523852464
 20
17.6091778823
 10
-13.545703976
 20
17.6058974605
 10
-13.5390889785
 20
17.6025392595
 10
-13.5325415099
 20
17.5991039168
 10
-13.5260628133
 20
17.5955920846
 10
-13.5196541185
 20
17.5920044296
 10
-13.5133166424
 20
17.5883416331
 10
-13.5070515882
 20
17.5846043903
 10
-13.5008601453
 20
17.5807934109
 10
-13.4947434892
 20
17.5769094183
 10
-13.4887027812
 20
17.57295315
 10
-13.4827391682
 20
17.568925357
 10
-13.4768537823
 20
17.5648268042
  0
LWPOLYLINE
  5
222
100
AcDbEntity
  8
0
100
AcDbPolyline
 62
7
  6
CONTINUOUS
 90
29
 70
0
 10
17.7454836959
 20
-26.4459244079
 10
17.7448805345
 20
-26.445813949
 10
17.7429851325
 20
-26.4454219619
 10
17.7410663732
 20
-26.4449808625
 10
17.7391266502
 20
-26.4444912105
 10
17.7371661028
 20
-26.443952986
 10
17.7351845901
 20
-26.4433662101
 10
17.7331840864
 20
-26.4427315034
 10
17.7311646115
 20
-26.4420488436
 10
17.7291261442
 20
-26.4413182541
 10
17.7270705965
 20
-26.4405404246
 10
17.7249977106
 20
-26.4397152032
 10
17.7229077432
 20
-26.4388427428
 10
17.7208033779
 20
-26.4379241908
 10
17.7186849943
 20
-26.4369596828
 10
17.7165522119
 20
-26.435949084
 10
17.7144065736
 20
-26.4348931366
 10
17.7122476117
 20
-26.4337915668
 10
17.7100757933
 20
-26.432644649
 10
17.7078940637
 20
-26.4314539471
 10
17.7057028443
 20
-26.4302196531
 10
17.7035017131
 20
-26.4289415755
 10
17.7012923511
 20
-26.4276207036
 10
17.699074379
 20
-26.4262567846
 10
17.6968481757
 20
-26.4248500716
 10
17.6946165586
 20
-26.4234023128
 10
17.6923804671
 20
-26.4219140912
 10
17.6901389617
 20
-26.4203848239
 10
17.6878920423
 20
-26.4188145112
  0
LWPOLYLINE
  5
223
100
AcDbEntity
  8
RACCORDO
100
AcDbPolyline
 62
250
  6
CONTINUOUS
 90
39
 70
0
 10
-21.7877670486
 20
-0.4602484673
 10
-21.7871673666
 20
-0.4657169892
 10
-21.786485481
 20
-0.4711184385
 10
-21.7857215249
 20
-0.4764517624
 10
-21.7848756471
 20
-0.4817159216
 10
-21.7839480125
 20
-0.4869098899
 10
-21.7829388019
 20
-0.4920326552
 10
-21.781848212
 20
-0.497083219
 10
-21.7806764553
 20
-0.5020605969
 10
-21.7794237602
 20
-0.5069638188
 10
-21.7780903708
 20
-0.5117919292
 10
-21.7766765471
 20
-0.516543987
 10
-21.7751825645
 20
-0.5212190661
 10
-21.7736087144
 20
-0.5258162552
 10
-21.7719553033
 20
-0.5303346584
 10
-21.7702226535
 20
-0.5347733951
 10
-21.7684111029
 20
-0.5391316001
 10
-21.7665210043
 20
-0.543408424
 10
-21.7645527262
 20
-0.5476030333
 10
-21.7625066522
 20
-0.5517146105
 10
-21.7603831812
 20
-0.5557423542
 10
-21.7581827268
 20
-0.5596854794
 10
-21.7559057181
 20
-0.5635432176
 10
-21.7535525988
 20
-0.567314817
 10
-21.7511238275
 20
-0.5709995423
 10
-21.7486198777
 20
-0.5745966756
 10
-21.7460412372
 20
-0.5781055157
 10
-21.7433884087
 20
-0.5815253787
 10
-21.7406619092
 20
-0.5848555981
 10
-21.7378622702
 20
-0.5880955249
 10
-21.7349900372
 20
-0.5912445276
 10
-21.7320457701
 20
-0.5943019924
 10
-21.7290300427
 20
-0.5972673235
 10
-21.7259434427
 20
-0.6001399429
 10
-21.7227865718
 20
-0.6029192907
 10
-21.7195600451
 20
-0.6056048253
 10
-21.7162644917
 20
-0.6081960232
 10
-21.7129005537
 20
-0.6106923795
 10
-21.7118037145
 20
-0.6114753762
  0
LINE
  5
224
100
AcDbEntity
  8
RACCORDO
100
AcDbLine
 62
250
  6
CONTINUOUS
 10
-21.9626156177
 20
-0.1792472238
 11
-21.9623371583
 21
-0.1819396994
  0
LWPOLYLINE
  5
225
100
AcDbEntity
  8
RACCORDO
100
AcDbPolyline
 62
250
  6
CONTINUOUS
 90
94
 70
0
 10
-21.7877670486
 20
-0.4602484673
 10
-21.8144311447
 20
-0.1809127715
 10
-21.8405172357
 20
0.0989333452
 10
-21.8660252074
 20
0.3792887247
 10
-21.8909549514
 20
0.6601523014
 10
-21.9153063549
 20
0.9415228192
 10
-21.9390793035
 20
1.2233988295
 10
-21.9622736917
 20
1.5057791204
 10
-21.9848894233
 20
1.7886625665
 10
-22.0069264039
 20
2.0720478449
 10
-22.028384534
 20
2.3559336969
 10
-22.049263729
 20
2.6403190303
 10
-22.0695639206
 20
2.9252027677
 10
-22.0892850199
 20
3.2105836916
 10
-22.1084269454
 20
3.4964606579
 10
-22.1269896415
 20
3.782832699
 10
-22.1449730295
 20
4.06969865
 10
-22.1623770299
 20
4.3570573047
 10
-22.1792015879
 20
4.6449076314
 10
-22.1954466327
 20
4.9332484904
 10
-22.21111209
 20
5.2220786404
 10
-22.2261979017
 20
5.511396895
 10
-22.2407040036
 20
5.8012020862
 10
-22.2546303301
 20
6.0914929894
 10
-22.2679768259
 20
6.38226833
 10
-22.2807434334
 20
6.6735269008
 10
-22.2929300966
 20
6.9652675038
 10
-22.3045367685
 20
7.2574888745
 10
-22.3155633986
 20
7.5501897854
 10
-22.3260099398
 20
7.8433690469
 10
-22.3358763539
 20
8.1370254478
 10
-22.3451625985
 20
8.4311577621
 10
-22.3538686338
 20
8.7257647875
 10
-22.361994429
 20
9.0208453465
 10
-22.3695399496
 20
9.3163982216
 10
-22.3765051625
 20
9.6124221913
 10
-22.382890043
 20
9.9089160691
 10
-22.3886945639
 20
10.2058786379
 10
-22.3939186995
 20
10.503308665
 10
-22.3985624309
 20
10.801204939
 10
-22.4026257383
 20
11.0995662359
 10
-22.4061086034
 20
11.3983913189
 10
-22.4090110135
 20
11.6976789551
 10
-22.4113329563
 20
11.99742791
 10
-22.4130744213
 20
12.2976369464
 10
-22.4142354021
 20
12.5983048239
 10
-22.4148158939
 20
12.8994303024
 10
-22.4148158939
 20
13.2010121395
 10
-22.4142354021
 20
13.5030490892
 10
-22.4130744213
 20
13.8055399061
 10
-22.4113329564
 20
14.1084833423
 10
-22.4090110136
 20
14.411878145
 10
-22.4061086035
 20
14.7157230633
 10
-22.4026257383
 20
15.0200168442
 10
-22.398562431
 20
15.3247582298
 10
-22.3939186996
 20
15.6299459589
 10
-22.3886945639
 20
15.9355787783
 10
-22.382890043
 20
16.2416554397
 10
-22.3765051625
 20
16.5481746753
 10
-22.3695399496
 20
16.8551352281
 10
-22.3619944291
 20
17.1625358638
 10
-22.3538686338
 20
17.4703753152
 10
-22.3451625986
 20
17.7786523145
 10
-22.335876354
 20
18.0873656246
 10
-22.3260099398
 20
18.396513988
 10
-22.3155633986
 20
18.7060961173
 10
-22.3045367686
 20
19.0161107276
 10
-22.2929300967
 20
19.3265565639
 10
-22.2807434334
 20
19.6374323263
 10
-22.267976826
 20
19.9487366593
 10
-22.2546303301
 20
20.2604682876
 10
-22.2407040036
 20
20.5726259209
 10
-22.2261979018
 20
20.885208179
 10
-22.21111209
 20
21.1982137455
 10
-22.1954466328
 20
21.5116413603
 10
-22.1792015879
 20
21.8254897248
 10
-22.16237703
 20
22.1397574928
 10
-22.1449730296
 20
22.4544434242
 10
-22.1269896416
 20
22.7695463774
 10
-22.1084269455
 20
23.0850650344
 10
-22.08928502
 20
23.4009981185
 10
-22.0695639207
 20
23.7173445492
 10
-22.0492637292
 20
24.0341030684
 10
-22.0283845342
 20
24.3512723314
 10
-22.0069264041
 20
24.6688511265
 10
-21.9848894235
 20
24.9868382436
 10
-21.9622736919
 20
25.3052322813
 10
-21.9390793037
 20
25.6240317383
 10
-21.9153063552
 20
25.9432353552
 10
-21.8909549516
 20
26.262841769
 10
-21.8660252075
 20
26.5828493183
 10
-21.8405172358
 20
26.9032565704
 10
-21.8144311448
 20
27.2240623235
 10
-21.7877670486
 20
27.545265258
  0
LWPOLYLINE
  5
226
100
AcDbEntity
  8
RACCORDO
100
AcDbPolyline
 62
250
  6
CONTINUOUS
 90
115
 70
0
 10
-14.1358823017
 20
16.6646405294
 10
-14.1301169254
 20
16.6698416543
 10
-14.1242720937
 20
16.6749848304
 10
-14.1183489162
 20
16.6800690811
 10
-14.1123485171
 20
16.6850934395
 10
-14.1062720359
 20
16.6900569535
 10
-14.1001206276
 20
16.6949586854
 10
-14.0938954603
 20
16.6997977061
 10
-14.0875977156
 20
16.7045730954
 10
-14.0812285891
 20
16.7092839468
 10
-14.0747892902
 20
16.7139293658
 10
-14.0682810412
 20
16.7185084705
 10
-14.0617050778
 20
16.7230203915
 10
-14.0550626485
 20
16.7274642722
 10
-14.0483550145
 20
16.7318392688
 10
-14.0415834491
 20
16.7361445508
 10
-14.0347492381
 20
16.7403793008
 10
-14.0278536788
 20
16.7445427148
 10
-14.0208980805
 20
16.7486340023
 10
-14.0138837638
 20
16.7526523866
 10
-14.0068120603
 20
16.7565971049
 10
-13.9996843126
 20
16.760467408
 10
-13.9925018741
 20
16.7642625613
 10
-13.9852661082
 20
16.7679818442
 10
-13.9779783888
 20
16.7716245506
 10
-13.9706400995
 20
16.7751899889
 10
-13.9632526334
 20
16.7786774822
 10
-13.9558173932
 20
16.7820863682
 10
-13.9483357905
 20
16.7854159999
 10
-13.9408092456
 20
16.7886657451
 10
-13.9332391875
 20
16.7918349868
 10
-13.9256270535
 20
16.7949231233
 10
-13.9179742888
 20
16.7979295683
 10
-13.9102823462
 20
16.800853751
 10
-13.9025526861
 20
16.8036951163
 10
-13.8947867761
 20
16.8064531246
 10
-13.8869860906
 20
16.8091272525
 10
-13.8791521105
 20
16.8117169921
 10
-13.8712863232
 20
16.8142218518
 10
-13.863390222
 20
16.816641356
 10
-13.8554653061
 20
16.8189750455
 10
-13.84751308
 20
16.821222477
 10
-13.8395350536
 20
16.823383224
 10
-13.8315327414
 20
16.8254568762
 10
-13.8235076628
 20
16.8274430399
 10
-13.8154613414
 20
16.8293413381
 10
-13.8073953049
 20
16.8311514102
 10
-13.7993110845
 20
16.8328729127
 10
-13.7912102152
 20
16.8345055188
 10
-13.7830942349
 20
16.8360489184
 10
-13.7749646845
 20
16.8375028185
 10
-13.7668231074
 20
16.8388669431
 10
-13.7586710494
 20
16.8401410333
 10
-13.7505100581
 20
16.8413248471
 10
-13.742341683
 20
16.8424181598
 10
-13.7341674749
 20
16.8434207637
 10
-13.7259889857
 20
16.8443324686
 10
-13.7178077681
 20
16.8451531014
 10
-13.7096253755
 20
16.8458825062
 10
-13.7014433612
 20
16.8465205446
 10
-13.6932632786
 20
16.8470670954
 10
-13.6850866808
 20
16.8475220549
 10
-13.6769151202
 20
16.8478853367
 10
-13.6687501482
 20
16.8481568718
 10
-13.6605933149
 20
16.8483366087
 10
-13.652446169
 20
16.8484245132
 10
-13.6443102572
 20
16.8484205687
 10
-13.6361871242
 20
16.8483247759
 10
-13.6280783122
 20
16.8481371529
 10
-13.6199853608
 20
16.8478577355
 10
-13.6119098063
 20
16.8474865766
 10
-13.603853182
 20
16.8470237468
 10
-13.5958170175
 20
16.8464693338
 10
-13.5878028385
 20
16.845823443
 10
-13.5798121666
 20
16.845086197
 10
-13.5718465187
 20
16.8442577357
 10
-13.5639074073
 20
16.8433382164
 10
-13.5559963396
 20
16.8423278138
 10
-13.5481148176
 20
16.8412267195
 10
-13.5402643375
 20
16.8400351428
 10
-13.53244639
 20
16.8387533097
 10
-13.5246624592
 20
16.8373814638
 10
-13.516914023
 20
16.8359198653
 10
-13.5092025525
 20
16.8343687919
 10
-13.5015295116
 20
16.832728538
 10
-13.4938963573
 20
16.830999415
 10
-13.4863045387
 20
16.8291817511
 10
-13.4787554971
 20
16.8272758916
 10
-13.4712506658
 20
16.8252821981
 10
-13.4637914696
 20
16.8232010493
 10
-13.4563793246
 20
16.8210328402
 10
-13.4490156382
 20
16.8187779826
 10
-13.4417018083
 20
16.8164369044
 10
-13.4344392235
 20
16.8140100501
 10
-13.4272292626
 20
16.8114978806
 10
-13.4200732946
 20
16.8089008727
 10
-13.412972678
 20
16.8062195196
 10
-13.4059287608
 20
16.8034543302
 10
-13.3989428805
 20
16.8006058296
 10
-13.3920163633
 20
16.7976745585
 10
-13.3851505243
 20
16.7946610735
 10
-13.378346667
 20
16.7915659468
 10
-13.3716060831
 20
16.7883897658
 10
-13.3649300523
 20
16.7851331337
 10
-13.3583198423
 20
16.7817966688
 10
-13.3517767078
 20
16.7783810044
 10
-13.3453018912
 20
16.7748867891
 10
-13.3388966218
 20
16.7713146863
 10
-13.3325621157
 20
16.7676653741
 10
-13.3262995754
 20
16.7639395454
 10
-13.32011019
 20
16.7601379075
 10
-13.3139951345
 20
16.7562611823
 10
-13.30795557
 20
16.7523101056
 10
-13.301992643
 20
16.7482854278
 10
-13.2961074857
 20
16.7441879128
  0
LINE
  5
227
100
AcDbEntity
  8
RACCORDO
100
AcDbLine
 62
250
  6
CONTINUOUS
 10
-13.5126735605
 20
16.7721887422
 11
-13.5009602408
 21
16.7807559556
  0
LINE
  5
228
100
AcDbEntity
  8
RACCORDO
100
AcDbLine
 62
250
  6
CONTINUOUS
 10
-13.5227852314
 20
16.7648705412
 11
-13.5126735605
 21
16.7721887422
  0
LINE
  5
229
100
AcDbEntity
  8
RACCORDO
100
AcDbLine
 62
250
  6
CONTINUOUS
 10
-13.5331412684
 20
16.7574541735
 11
-13.5227852314
 21
16.7648705412
  0
LINE
  5
22A
100
AcDbEntity
  8
RACCORDO
100
AcDbLine
 62
250
  6
CONTINUOUS
 10
-13.5416071429
 20
16.7514534228
 11
-13.5331412684
 21
16.7574541735
  0
LINE
  5
22B
100
AcDbEntity
  8
RACCORDO
100
AcDbLine
 62
250
  6
CONTINUOUS
 10
-13.5502378252
 20
16.7453953835
 11
-13.5416071429
 21
16.7514534228
  0
LINE
  5
22C
100
AcDbEntity
  8
RACCORDO
100
AcDbLine
 62
250
  6
CONTINUOUS
 10
-13.5590377574
 20
16.7392826761
 11
-13.5502378252
 21
16.7453953835
  0
LINE
  5
22D
100
AcDbEntity
  8
RACCORDO
100
AcDbLine
 62
250
  6
CONTINUOUS
 10
-13.5680110261
 20
16.7331182201
 11
-13.5590377574
 21
16.7392826761
  0
LINE
  5
22E
100
AcDbEntity
  8
RACCORDO
100
AcDbLine
 62
250
  6
CONTINUOUS
 10
-13.577161864
 20
16.7269051575
 11
-13.5680110261
 21
16.7331182201
  0
LINE
  5
22F
100
AcDbEntity
  8
RACCORDO
100
AcDbLine
 62
250
  6
CONTINUOUS
 10
-13.5841444946
 20
16.7222154392
 11
-13.577161864
 21
16.7269051575
  0
LINE
  5
230
100
AcDbEntity
  8
RACCORDO
100
AcDbLine
 62
250
  6
CONTINUOUS
 10
-13.5912316143
 20
16.7175018166
 11
-13.5841444946
 21
16.7222154392
  0
LINE
  5
231
100
AcDbEntity
  8
RACCORDO
100
AcDbLine
 62
250
  6
CONTINUOUS
 10
-13.5984249946
 20
16.7127660869
 11
-13.5912316143
 21
16.7175018166
  0
LINE
  5
232
100
AcDbEntity
  8
RACCORDO
100
AcDbLine
 62
250
  6
CONTINUOUS
 10
-13.6057265762
 20
16.7080100692
 11
-13.5984249946
 21
16.7127660869
  0
LINE
  5
233
100
AcDbEntity
  8
RACCORDO
100
AcDbLine
 62
250
  6
CONTINUOUS
 10
-13.6131385239
 20
16.7032355824
 11
-13.6057265762
 21
16.7080100692
  0
LINE
  5
234
100
AcDbEntity
  8
RACCORDO
100
AcDbLine
 62
250
  6
CONTINUOUS
 10
-13.6206630336
 20
16.6984445831
 11
-13.6131385239
 21
16.7032355824
  0
LINE
  5
235
100
AcDbEntity
  8
RACCORDO
100
AcDbLine
 62
250
  6
CONTINUOUS
 10
-13.6283023091
 20
16.6936391911
 11
-13.6206630336
 21
16.6984445831
  0
LINE
  5
236
100
AcDbEntity
  8
RACCORDO
100
AcDbLine
 62
250
  6
CONTINUOUS
 10
-13.6360585474
 20
16.6888217081
 11
-13.6283023091
 21
16.6936391911
  0
LINE
  5
237
100
AcDbEntity
  8
RACCORDO
100
AcDbLine
 62
250
  6
CONTINUOUS
 10
-13.6439340967
 20
16.6839945326
 11
-13.6360585474
 21
16.6888217081
  0
LINE
  5
238
100
AcDbEntity
  8
RACCORDO
100
AcDbLine
 62
250
  6
CONTINUOUS
 10
-13.6519316172
 20
16.6791600832
 11
-13.6439340967
 21
16.6839945326
  0
LINE
  5
239
100
AcDbEntity
  8
RACCORDO
100
AcDbLine
 62
250
  6
CONTINUOUS
 10
-13.6600524457
 20
16.6743217862
 11
-13.6519316172
 21
16.6791600832
  0
LINE
  5
23A
100
AcDbEntity
  8
RACCORDO
100
AcDbLine
 62
250
  6
CONTINUOUS
 10
-13.6655353228
 20
16.6710961137
 11
-13.6600524457
 21
16.6743217862
  0
LINE
  5
23B
100
AcDbEntity
  8
RACCORDO
100
AcDbLine
 62
250
  6
CONTINUOUS
 10
-13.6710746821
 20
16.667870907
 11
-13.6655353228
 21
16.6710961137
  0
LINE
  5
23C
100
AcDbEntity
  8
RACCORDO
100
AcDbLine
 62
250
  6
CONTINUOUS
 10
-13.6766742485
 20
16.6646455788
 11
-13.6710746821
 21
16.667870907
  0
LINE
  5
23D
100
AcDbEntity
  8
RACCORDO
100
AcDbLine
 62
250
  6
CONTINUOUS
 10
-13.6823355253
 20
16.6614210345
 11
-13.6766742485
 21
16.6646455788
  0
LINE
  5
23E
100
AcDbEntity
  8
RACCORDO
100
AcDbLine
 62
250
  6
CONTINUOUS
 10
-13.6880561667
 20
16.6581997326
 11
-13.6823355253
 21
16.6614210345
  0
LINE
  5
23F
100
AcDbEntity
  8
RACCORDO
100
AcDbLine
 62
250
  6
CONTINUOUS
 10
-13.6938297076
 20
16.6549871307
 11
-13.6880561667
 21
16.6581997326
  0
LINE
  5
240
100
AcDbEntity
  8
RACCORDO
100
AcDbLine
 62
250
  6
CONTINUOUS
 10
-13.6996361999
 20
16.6517956687
 11
-13.6938297076
 21
16.6549871307
  0
LINE
  5
241
100
AcDbEntity
  8
RACCORDO
100
AcDbLine
 62
250
  6
CONTINUOUS
 10
-13.7054568214
 20
16.6486362723
 11
-13.6996361999
 21
16.6517956687
  0
LINE
  5
242
100
AcDbEntity
  8
RACCORDO
100
AcDbLine
 62
250
  6
CONTINUOUS
 10
-13.7112469047
 20
16.6455338412
 11
-13.7054568214
 21
16.6486362723
  0
LINE
  5
243
100
AcDbEntity
  8
RACCORDO
100
AcDbLine
 62
250
  6
CONTINUOUS
 10
-13.71699892
 20
16.6424919048
 11
-13.7112469047
 21
16.6455338412
  0
LINE
  5
244
100
AcDbEntity
  8
RACCORDO
100
AcDbLine
 62
250
  6
CONTINUOUS
 10
-13.7227090651
 20
16.6395122619
 11
-13.71699892
 21
16.6424919048
  0
LINE
  5
245
100
AcDbEntity
  8
RACCORDO
100
AcDbLine
 62
250
  6
CONTINUOUS
 10
-13.7283790322
 20
16.6365935473
 11
-13.7227090651
 21
16.6395122619
  0
LINE
  5
246
100
AcDbEntity
  8
RACCORDO
100
AcDbLine
 62
250
  6
CONTINUOUS
 10
-13.7340095496
 20
16.6337349619
 11
-13.7283790322
 21
16.6365935473
  0
LINE
  5
247
100
AcDbEntity
  8
RACCORDO
100
AcDbLine
 62
250
  6
CONTINUOUS
 10
-13.7396008473
 20
16.6309361056
 11
-13.7340095496
 21
16.6337349619
  0
LINE
  5
248
100
AcDbEntity
  8
RACCORDO
100
AcDbLine
 62
250
  6
CONTINUOUS
 10
-13.7451529359
 20
16.6281965557
 11
-13.7396008473
 21
16.6309361056
  0
LINE
  5
249
100
AcDbEntity
  8
RACCORDO
100
AcDbLine
 62
250
  6
CONTINUOUS
 10
-13.7506658938
 20
16.6255158571
 11
-13.7451529359
 21
16.6281965557
  0
LINE
  5
24A
100
AcDbEntity
  8
RACCORDO
100
AcDbLine
 62
250
  6
CONTINUOUS
 10
-13.7561397925
 20
16.622893699
 11
-13.7506658938
 21
16.6255158571
  0
LINE
  5
24B
100
AcDbEntity
  8
RACCORDO
100
AcDbLine
 62
250
  6
CONTINUOUS
 10
-13.7615748131
 20
16.6203295822
 11
-13.7561397925
 21
16.622893699
  0
LINE
  5
24C
100
AcDbEntity
  8
RACCORDO
100
AcDbLine
 62
250
  6
CONTINUOUS
 10
-13.7669708788
 20
16.6178231355
 11
-13.7615748131
 21
16.6203295822
  0
LINE
  5
24D
100
AcDbEntity
  8
RACCORDO
100
AcDbLine
 62
250
  6
CONTINUOUS
 10
-13.7723278693
 20
16.6153741402
 11
-13.7669708788
 21
16.6178231355
  0
LINE
  5
24E
100
AcDbEntity
  8
RACCORDO
100
AcDbLine
 62
250
  6
CONTINUOUS
 10
-13.777645439
 20
16.6129823439
 11
-13.7723278693
 21
16.6153741402
  0
LINE
  5
24F
100
AcDbEntity
  8
RACCORDO
100
AcDbLine
 62
250
  6
CONTINUOUS
 10
-13.7829233737
 20
16.6106474227
 11
-13.777645439
 21
16.6129823439
  0
LINE
  5
250
100
AcDbEntity
  8
RACCORDO
100
AcDbLine
 62
250
  6
CONTINUOUS
 10
-13.788161572
 20
16.6083691425
 11
-13.7829233737
 21
16.6106474227
  0
LINE
  5
251
100
AcDbEntity
  8
RACCORDO
100
AcDbLine
 62
250
  6
CONTINUOUS
 10
-13.7933599804
 20
16.6061471071
 11
-13.788161572
 21
16.6083691425
  0
LINE
  5
252
100
AcDbEntity
  8
RACCORDO
100
AcDbLine
 62
250
  6
CONTINUOUS
 10
-13.7985184303
 20
16.6039809692
 11
-13.7933599804
 21
16.6061471071
  0
LINE
  5
253
100
AcDbEntity
  8
RACCORDO
100
AcDbLine
 62
250
  6
CONTINUOUS
 10
-13.8036367755
 20
16.6018705089
 11
-13.7985184303
 21
16.6039809692
  0
LINE
  5
254
100
AcDbEntity
  8
RACCORDO
100
AcDbLine
 62
250
  6
CONTINUOUS
 10
-13.8087147213
 20
16.5998154265
 11
-13.8036367755
 21
16.6018705089
  0
LINE
  5
255
100
AcDbEntity
  8
RACCORDO
100
AcDbLine
 62
250
  6
CONTINUOUS
 10
-13.8137520259
 20
16.5978153911
 11
-13.8087147213
 21
16.5998154265
  0
LINE
  5
256
100
AcDbEntity
  8
RACCORDO
100
AcDbLine
 62
250
  6
CONTINUOUS
 10
-13.8187485447
 20
16.5958701743
 11
-13.8137520259
 21
16.5978153911
  0
LINE
  5
257
100
AcDbEntity
  8
RACCORDO
100
AcDbLine
 62
250
  6
CONTINUOUS
 10
-13.823704105
 20
16.5939794141
 11
-13.8187485447
 21
16.5958701743
  0
LINE
  5
258
100
AcDbEntity
  8
RACCORDO
100
AcDbLine
 62
250
  6
CONTINUOUS
 10
-13.8286184696
 20
16.5921427676
 11
-13.823704105
 21
16.5939794141
  0
LINE
  5
259
100
AcDbEntity
  8
RACCORDO
100
AcDbLine
 62
250
  6
CONTINUOUS
 10
-13.8334914156
 20
16.5903600264
 11
-13.8286184696
 21
16.5921427676
  0
LINE
  5
25A
100
AcDbEntity
  8
RACCORDO
100
AcDbLine
 62
250
  6
CONTINUOUS
 10
-13.8383225055
 20
16.5886309136
 11
-13.8334914156
 21
16.5903600264
  0
LINE
  5
25B
100
AcDbEntity
  8
RACCORDO
100
AcDbLine
 62
250
  6
CONTINUOUS
 10
-13.8431112543
 20
16.5869551475
 11
-13.8383225055
 21
16.5886309136
  0
LINE
  5
25C
100
AcDbEntity
  8
RACCORDO
100
AcDbLine
 62
250
  6
CONTINUOUS
 10
-13.8478574386
 20
16.5853325026
 11
-13.8431112543
 21
16.5869551475
  0
LINE
  5
25D
100
AcDbEntity
  8
RACCORDO
100
AcDbLine
 62
250
  6
CONTINUOUS
 10
-13.8525608534
 20
16.583762589
 11
-13.8478574386
 21
16.5853325026
  0
LINE
  5
25E
100
AcDbEntity
  8
RACCORDO
100
AcDbLine
 62
250
  6
CONTINUOUS
 10
-13.8572213629
 20
16.582244988
 11
-13.8525608534
 21
16.583762589
  0
LINE
  5
25F
100
AcDbEntity
  8
RACCORDO
100
AcDbLine
 62
250
  6
CONTINUOUS
 10
-13.861838832
 20
16.5807794331
 11
-13.8572213629
 21
16.582244988
  0
LINE
  5
260
100
AcDbEntity
  8
RACCORDO
100
AcDbLine
 62
250
  6
CONTINUOUS
 10
-13.8664130076
 20
16.579365539
 11
-13.861838832
 21
16.5807794331
  0
LINE
  5
261
100
AcDbEntity
  8
RACCORDO
100
AcDbLine
 62
250
  6
CONTINUOUS
 10
-13.8709436236
 20
16.5780029121
 11
-13.8664130076
 21
16.579365539
  0
LWPOLYLINE
  5
262
100
AcDbEntity
  8
RACCORDO
100
AcDbPolyline
 62
250
  6
CONTINUOUS
 90
3
 70
0
 10
-13.877657479
 20
16.5760544389
 10
-13.8754305167
 20
16.5766912831
 10
-13.8709436236
 20
16.5780029121
  0
LWPOLYLINE
  5
263
100
AcDbEntity
  8
0
100
AcDbPolyline
 62
7
  6
CONTINUOUS
 90
39
 70
0
 10
17.7927884592
 20
-26.7095250561
 10
17.7967532354
 20
-26.7107640306
 10
17.8006855342
 20
-26.7119271044
 10
17.8045853577
 20
-26.7130142759
 10
17.8084537784
 20
-26.7140258112
 10
17.8122897285
 20
-26.7149614404
 10
17.8160899993
 20
-26.7158203576
 10
17.819854047
 20
-26.7166024043
 10
17.8235824204
 20
-26.717307735
 10
17.8272735506
 20
-26.7179360131
 10
17.830927993
 20
-26.7184872787
 10
17.8345451974
 20
-26.7189614875
 10
17.8381219372
 20
-26.7193581761
 10
17.8416576675
 20
-26.7196772345
 10
17.8451529385
 20
-26.7199187686
 10
17.8486061659
 20
-26.7200826391
 10
17.8520176804
 20
-26.7201688214
 10
17.8553871569
 20
-26.7201773357
 10
17.8587120269
 20
-26.7201081101
 10
17.8619921813
 20
-26.7199610726
 10
17.8652277351
 20
-26.7197362906
 10
17.8684164563
 20
-26.7194339014
 10
17.8715581279
 20
-26.7190538919
 10
17.8746529729
 20
-26.7185962707
 10
17.8776994181
 20
-26.7180612074
 10
17.8806978096
 20
-26.7174485659
 10
17.8836478074
 20
-26.7167584777
 10
17.8865468101
 20
-26.7159915138
 10
17.8893943376
 20
-26.7151477525
 10
17.8921908759
 20
-26.7142271108
 10
17.8949352729
 20
-26.7132299188
 10
17.8976279177
 20
-26.7121559717
 10
17.9002684273
 20
-26.7110054694
 10
17.9028544914
 20
-26.7097793494
 10
17.9053857887
 20
-26.7084776836
 10
17.9078626463
 20
-26.7071003956
 10
17.9102837257
 20
-26.7056482002
 10
17.9126491017
 20
-26.7041210046
 10
17.9144344765
 20
-26.7028925776
  0
LWPOLYLINE
  5
264
100
AcDbEntity
  8
RACCORDO
100
AcDbPolyline
 62
250
  6
CONTINUOUS
 90
53
 70
0
 10
-21.9623371583
 20
-0.1819396994
 10
-21.9617663139
 20
-0.187091935
 10
-21.9609734387
 20
-0.1932283202
 10
-21.960069079
 20
-0.1993512936
 10
-21.9590534042
 20
-0.2054597089
 10
-21.9579266043
 20
-0.2115524229
 10
-21.9566888904
 20
-0.2176282949
 10
-21.955340494
 20
-0.2236861877
 10
-21.9538816677
 20
-0.2297249674
 10
-21.9523126844
 20
-0.2357435035
 10
-21.9506338379
 20
-0.2417406695
 10
-21.9488454423
 20
-0.2477153427
 10
-21.9469478326
 20
-0.2536664049
 10
-21.9449413638
 20
-0.259592742
 10
-21.9428264116
 20
-0.2654932447
 10
-21.9406033719
 20
-0.2713668085
 10
-21.9382726607
 20
-0.2772123341
 10
-21.9358347144
 20
-0.283028727
 10
-21.9332899893
 20
-0.2888148987
 10
-21.9306389617
 20
-0.2945697661
 10
-21.9278821279
 20
-0.3002922518
 10
-21.9250200039
 20
-0.3059812847
 10
-21.9220531255
 20
-0.3116358
 10
-21.918982048
 20
-0.3172547391
 10
-21.9158073463
 20
-0.3228370503
 10
-21.9125296147
 20
-0.3283816887
 10
-21.9091494667
 20
-0.3338876163
 10
-21.905667535
 20
-0.3393538025
 10
-21.9020844714
 20
-0.3447792242
 10
-21.8984009465
 20
-0.3501628658
 10
-21.89461765
 20
-0.3555037195
 10
-21.8907352899
 20
-0.3608007856
 10
-21.8867545931
 20
-0.3660530725
 10
-21.8826763045
 20
-0.3712595971
 10
-21.8785011877
 20
-0.3764193849
 10
-21.8742300242
 20
-0.3815314699
 10
-21.8698636134
 20
-0.3865948952
 10
-21.8654027727
 20
-0.3916087132
 10
-21.8608483371
 20
-0.3965719851
 10
-21.8562011591
 20
-0.401483782
 10
-21.8514621087
 20
-0.4063431845
 10
-21.8466320728
 20
-0.4111492829
 10
-21.8417119557
 20
-0.4159011777
 10
-21.8367026782
 20
-0.4205979792
 10
-21.8316051782
 20
-0.4252388084
 10
-21.8264204096
 20
-0.4298227965
 10
-21.8211493432
 20
-0.4343490855
 10
-21.8157929654
 20
-0.4388168281
 10
-21.8103522791
 20
-0.4432251881
 10
-21.8048283025
 20
-0.4475733401
 10
-21.7992220698
 20
-0.4518604705
 10
-21.7935346303
 20
-0.4560857765
 10
-21.7877670486
 20
-0.4602484673
  0
LWPOLYLINE
  5
265
100
AcDbEntity
  8
RACCORDO
100
AcDbPolyline
 62
250
  6
CONTINUOUS
 90
64
 70
0
 10
-14.3190385489
 20
17.4962212724
 10
-14.3367884647
 20
17.1929493024
 10
-14.3539663528
 20
16.8900497124
 10
-14.3705722131
 20
16.5875225024
 10
-14.3866061057
 20
16.2853665039
 10
-14.4020679705
 20
15.9835828854
 10
-14.416957628
 20
15.6821751523
 10
-14.4312750715
 20
15.3811433096
 10
-14.4450203077
 20
15.0804873523
 10
-14.458193177
 20
14.7802107707
 10
-14.4707936728
 20
14.4803135693
 10
-14.4828218016
 20
14.1807957437
 10
-14.494277424
 20
13.8816607706
 10
-14.5051605332
 20
13.5829086543
 10
-14.5154711359
 20
13.2845393906
 10
-14.5252091125
 20
12.9865564428
 10
-14.5343744562
 20
12.6889598154
 10
-14.5429671737
 20
12.391749504
 10
-14.5509871653
 20
12.0949289585
 10
-14.5584344243
 20
11.7984981835
 10
-14.5653089574
 20
11.5024571743
 10
-14.5716106847
 20
11.2068093675
 10
-14.5773395997
 20
10.9115547676
 10
-14.582495709
 20
10.6166933701
 10
-14.5870789527
 20
10.3222285977
 10
-14.5910893241
 20
10.0281604548
 10
-14.59452683
 20
9.7344889371
 10
-14.5973914304
 20
9.4412174533
 10
-14.5996831187
 20
9.1483460081
 10
-14.6014019015
 20
8.855874597
 10
-14.6025477589
 20
8.5638066148
 10
-14.6031206841
 20
8.2721420662
 10
-14.603120684
 20
7.9808809466
 10
-14.6025477584
 20
7.6900266372
 10
-14.6014019008
 20
7.3995791428
 10
-14.5996831177
 20
7.1095384586
 10
-14.5973914292
 20
6.8199079513
 10
-14.5945268285
 20
6.5306876259
 10
-14.5910893224
 20
6.2418774774
 10
-14.5870789507
 20
5.9534808584
 10
-14.5824957068
 20
5.6654977737
 10
-14.5773395973
 20
5.3779282185
 10
-14.5716106822
 20
5.0907755308
 10
-14.5653089546
 20
4.8040397156
 10
-14.5584344214
 20
4.5177207678
 10
-14.5509871622
 20
4.2318220112
 10
-14.5429671705
 20
3.9463434506
 10
-14.5343744529
 20
3.6612850811
 10
-14.5252091092
 20
3.3766502117
 10
-14.5154711326
 20
3.0924388472
 10
-14.5051605299
 20
2.8086509828
 10
-14.4942774207
 20
2.5252899125
 10
-14.4828217984
 20
2.2423556415
 10
-14.4707936696
 20
1.9598481648
 10
-14.458193174
 20
1.6777707616
 10
-14.4450203048
 20
1.3961234369
 10
-14.4312750688
 20
1.1149061857
 10
-14.4169576256
 20
0.8341222725
 10
-14.4020679683
 20
0.5537717011
 10
-14.3866061037
 20
0.2738544676
 10
-14.3705722116
 20
-0.0056261756
 10
-14.3539663516
 20
-0.2846691445
 10
-14.3367884641
 20
-0.5632755231
 10
-14.3190385489
 20
-0.8414453114
  0
LWPOLYLINE
  5
266
100
AcDbEntity
  8
RACCORDO
100
AcDbPolyline
 62
250
  6
CONTINUOUS
 90
97
 70
0
 10
-14.7900198574
 20
22.5971107661
 10
-14.8172840734
 20
22.2869488365
 10
-14.8439759256
 20
21.9771385503
 10
-14.8700953105
 20
21.6676811067
 10
-14.8956421272
 20
21.3585777036
 10
-14.9206162766
 20
21.0498295377
 10
-14.9450176622
 20
20.7414378037
 10
-14.9688461895
 20
20.4334036956
 10
-14.9921017662
 20
20.1257284056
 10
-15.0147843023
 20
19.8184131251
 10
-15.0368937101
 20
19.5114590436
 10
-15.0584299038
 20
19.2048673493
 10
-15.0793928003
 20
18.8986392291
 10
-15.0997823182
 20
18.5927758683
 10
-15.1195983787
 20
18.287278451
 10
-15.1388409051
 20
17.9821481598
 10
-15.1575098228
 20
17.6773861757
 10
-15.1756050597
 20
17.3729936786
 10
-15.1931265456
 20
17.0689718468
 10
-15.2100742128
 20
16.7653218572
 10
-15.2264479956
 20
16.4620448851
 10
-15.2422478307
 20
16.1591421047
 10
-15.2574736568
 20
15.8566146885
 10
-15.2721254152
 20
15.5544638075
 10
-15.2862030489
 20
15.2526906314
 10
-15.2997065036
 20
14.9512963284
 10
-15.3126357269
 20
14.6502820652
 10
-15.3249906689
 20
14.3496490069
 10
-15.3367712816
 20
14.0493983175
 10
-15.3479775195
 20
13.749531159
 10
-15.3586093393
 20
13.4500486924
 10
-15.3686666997
 20
13.150952077
 10
-15.3781495618
 20
12.8522424706
 10
-15.3870578889
 20
12.5539210295
 10
-15.3953916465
 20
12.2559889084
 10
-15.4031508024
 20
11.9584472608
 10
-15.4103353265
 20
11.6612972384
 10
-15.4169451911
 20
11.3645399914
 10
-15.4229803705
 20
11.0681766687
 10
-15.4284408413
 20
10.7722084175
 10
-15.4333265825
 20
10.4766363835
 10
-15.4376375751
 20
10.1814617108
 10
-15.4413738024
 20
9.8866855421
 10
-15.44453525
 20
9.5923090185
 10
-15.4471219056
 20
9.2983332794
 10
-15.4491337592
 20
9.004759463
 10
-15.450570803
 20
8.7115887057
 10
-15.4514330315
 20
8.4188221422
 10
-15.4517204414
 20
8.126460906
 10
-15.4514330314
 20
7.8345061287
 10
-15.4505708028
 20
7.5429589406
 10
-15.4491337589
 20
7.2518204702
 10
-15.4471219051
 20
6.9610918446
 10
-15.4445352494
 20
6.6707741891
 10
-15.4413738017
 20
6.3808686276
 10
-15.4376375743
 20
6.0913762823
 10
-15.4333265816
 20
5.8022982739
 10
-15.4284408403
 20
5.5136357213
 10
-15.4229803694
 20
5.2253897421
 10
-15.4169451899
 20
4.937561452
 10
-15.4103353252
 20
4.6501519653
 10
-15.403150801
 20
4.3631623944
 10
-15.395391645
 20
4.0765938503
 10
-15.3870578872
 20
3.7904474424
 10
-15.37814956
 20
3.5047242784
 10
-15.3686666978
 20
3.2194254642
 10
-15.3586093373
 20
2.9345521044
 10
-15.3479775175
 20
2.6501053016
 10
-15.3367712794
 20
2.3660861569
 10
-15.3249906666
 20
2.0824957698
 10
-15.3126357245
 20
1.7993352381
 10
-15.2997065011
 20
1.516605658
 10
-15.2862030463
 20
1.2343081238
 10
-15.2721254125
 20
0.9524437283
 10
-15.257473654
 20
0.6710135627
 10
-15.2422478278
 20
0.3900187164
 10
-15.2264479926
 20
0.1094602771
 10
-15.2100742097
 20
-0.1706606691
 10
-15.1931265424
 20
-0.4503430379
 10
-15.1756050563
 20
-0.7295857466
 10
-15.1575098194
 20
-1.0083877142
 10
-15.1388409015
 20
-1.2867478615
 10
-15.119598375
 20
-1.5646651109
 10
-15.0997823144
 20
-1.8421383865
 10
-15.0793927964
 20
-2.1191666144
 10
-15.0584298998
 20
-2.3957487222
 10
-15.036893706
 20
-2.6718836391
 10
-15.0147842981
 20
-2.9475702962
 10
-14.9921017619
 20
-3.2228076265
 10
-14.9688461851
 20
-3.4975945643
 10
-14.9450176577
 20
-3.7719300459
 10
-14.9206162718
 20
-4.0458130112
 10
-14.8956421221
 20
-4.3192423982
 10
-14.8700953057
 20
-4.5922171428
 10
-14.8439759217
 20
-4.8647361865
 10
-14.8172840712
 20
-5.1367984764
 10
-14.7900198574
 20
-5.4084029592
  0
LWPOLYLINE
  5
267
100
AcDbEntity
  8
RACCORDO
100
AcDbPolyline
 62
250
  6
CONTINUOUS
 90
13
 70
0
 10
-14.7463875085
 20
-5.348370186
 10
-14.7414068582
 20
-5.3548245876
 10
-14.7364986445
 20
-5.3613496203
 10
-14.7316638173
 20
-5.3679440214
 10
-14.7269033122
 20
-5.3746065149
 10
-14.7222180504
 20
-5.3813358115
 10
-14.7176089384
 20
-5.3881306091
 10
-14.7130768682
 20
-5.3949895929
 10
-14.7086227169
 20
-5.4019114355
 10
-14.7042473462
 20
-5.4088947975
 10
-14.6999516028
 20
-5.4159383277
 10
-14.6957363181
 20
-5.4230406629
 10
-14.6916023077
 20
-5.4302004289
  0
LWPOLYLINE
  5
268
100
AcDbEntity
  8
RACCORDO
100
AcDbPolyline
 62
250
  6
CONTINUOUS
 90
3
 70
0
 10
-14.4908635964
 20
20.0345444949
 10
-14.477461162
 20
19.8484294372
 10
-14.4707797294
 20
19.7550322795
  0
LINE
  5
269
100
AcDbEntity
  8
RACCORDO
100
AcDbLine
 62
250
  6
CONTINUOUS
 10
-14.4707797294
 20
19.7550322795
 11
-14.4574496756
 21
19.5673963668
  0
LINE
  5
26A
100
AcDbEntity
  8
RACCORDO
100
AcDbLine
 62
250
  6
CONTINUOUS
 10
-14.4574496756
 20
19.5673963668
 11
-14.4442071698
 21
19.379576241
  0
LINE
  5
26B
100
AcDbEntity
  8
RACCORDO
100
AcDbLine
 62
250
  6
CONTINUOUS
 10
-14.4442071698
 20
19.379576241
 11
-14.4311079723
 21
19.1925484213
  0
LINE
  5
26C
100
AcDbEntity
  8
RACCORDO
100
AcDbLine
 62
250
  6
CONTINUOUS
 10
-14.4311079723
 20
19.1925484213
 11
-14.4182103677
 21
19.0069422727
  0
LINE
  5
26D
100
AcDbEntity
  8
RACCORDO
100
AcDbLine
 62
250
  6
CONTINUOUS
 10
-14.4182103677
 20
19.0069422727
 11
-14.4055771187
 21
18.8237384949
  0
LINE
  5
26E
100
AcDbEntity
  8
RACCORDO
100
AcDbLine
 62
250
  6
CONTINUOUS
 10
-14.4055771187
 20
18.8237384949
 11
-14.393248308
 21
18.6434536283
  0
LWPOLYLINE
  5
26F
100
AcDbEntity
  8
RACCORDO
100
AcDbPolyline
 62
250
  6
CONTINUOUS
 90
14
 70
0
 10
-14.393248308
 20
18.6434536283
 10
-14.3812709851
 20
18.466452061
 10
-14.3754279965
 20
18.3793975069
 10
-14.3696899075
 20
18.2932931302
 10
-14.3640615761
 20
18.208294046
 10
-14.3585482802
 20
18.1244118581
 10
-14.3531545066
 20
18.0416229916
 10
-14.3478833133
 20
17.9600286596
 10
-14.3427384337
 20
17.8796277353
 10
-14.3377242303
 20
17.8004086094
 10
-14.3328440768
 20
17.7224560023
 10
-14.3281010979
 20
17.6457935352
 10
-14.3234983479
 20
17.5703841605
 10
-14.319038549
 20
17.4962212727
  0
LWPOLYLINE
  5
270
100
AcDbEntity
  8
RACCORDO
100
AcDbPolyline
 62
250
  6
CONTINUOUS
 90
76
 70
0
 10
-13.304860807
 20
1.160279329
 10
-13.304845299
 20
1.1587875104
 10
-13.3047987817
 20
1.1572744146
 10
-13.3047212757
 20
1.1557407051
 10
-13.3046128147
 20
1.1541870548
 10
-13.3044734466
 20
1.1526141451
 10
-13.3043032323
 20
1.151022666
 10
-13.3041022465
 20
1.1494133155
 10
-13.3038705774
 20
1.1477867996
 10
-13.3036083266
 20
1.1461438316
 10
-13.3033156092
 20
1.1444851322
 10
-13.3029925534
 20
1.1428114291
 10
-13.3026393012
 20
1.1411234563
 10
-13.3022560073
 20
1.1394219543
 10
-13.3018428399
 20
1.1377076693
 10
-13.3013999803
 20
1.1359813534
 10
-13.3009276226
 20
1.1342437637
 10
-13.3004259741
 20
1.1324956624
 10
-13.2998952549
 20
1.1307378163
 10
-13.2993356977
 20
1.1289709965
 10
-13.2987475479
 20
1.1271959778
 10
-13.2981310636
 20
1.125413539
 10
-13.2974865151
 20
1.1236244618
 10
-13.2968141852
 20
1.1218295309
 10
-13.2961143687
 20
1.1200295338
 10
-13.2953873727
 20
1.1182252599
 10
-13.294633516
 20
1.1164175007
 10
-13.2938531293
 20
1.114607049
 10
-13.2930465549
 20
1.1127946991
 10
-13.2922141466
 20
1.1109812458
 10
-13.2913562694
 20
1.1091674847
 10
-13.2904732998
 20
1.1073542113
 10
-13.289565625
 20
1.1055422209
 10
-13.288633643
 20
1.1037323083
 10
-13.2876777629
 20
1.1019252675
 10
-13.2866984037
 20
1.1001218911
 10
-13.2856959951
 20
1.0983229701
 10
-13.2846709768
 20
1.0965292935
 10
-13.2836237984
 20
1.0947416481
 10
-13.2825549192
 20
1.0929608181
 10
-13.2814648081
 20
1.0911875845
 10
-13.2803539432
 20
1.0894227252
 10
-13.2792228117
 20
1.0876670143
 10
-13.2780719099
 20
1.085921222
 10
-13.2769017425
 20
1.0841861139
 10
-13.2757128229
 20
1.0824624511
 10
-13.2745056725
 20
1.0807509897
 10
-13.2732808208
 20
1.0790524805
 10
-13.2720388051
 20
1.0773676684
 10
-13.2707801702
 20
1.0756972924
 10
-13.2695054682
 20
1.0740420852
 10
-13.2682152581
 20
1.0724027729
 10
-13.2669101059
 20
1.0707800745
 10
-13.2655905841
 20
1.0691747018
 10
-13.2642572715
 20
1.0675873589
 10
-13.2629107529
 20
1.0660187422
 10
-13.261551619
 20
1.0644695396
 10
-13.2601804658
 20
1.0629404306
 10
-13.2587978949
 20
1.0614320861
 10
-13.2574045126
 20
1.0599451676
 10
-13.2560009303
 20
1.0584803274
 10
-13.2545877634
 20
1.0570382078
 10
-13.2531656319
 20
1.0556194416
 10
-13.2517351596
 20
1.0542246511
 10
-13.2502969739
 20
1.0528544479
 10
-13.2488517056
 20
1.0515094333
 10
-13.2473999888
 20
1.050190197
 10
-13.2459424601
 20
1.0488973178
 10
-13.244479759
 20
1.0476313628
 10
-13.2430125269
 20
1.0463928873
 10
-13.2415414075
 20
1.0451824344
 10
-13.240067046
 20
1.0440005353
 10
-13.2385900891
 20
1.0428477082
 10
-13.2371111848
 20
1.0417244588
 10
-13.2356309816
 20
1.0406312798
 10
-13.2341501289
 20
1.0395686508
  0
LWPOLYLINE
  5
271
100
AcDbEntity
  8
RACCORDO
100
AcDbPolyline
 62
7
  6
CONTINUOUS
 90
76
 70
0
 10
-13.1889787416
 20
1.2422203232
 10
-13.1889631827
 20
1.2407274491
 10
-13.1889166734
 20
1.2392145943
 10
-13.1888392138
 20
1.2376817589
 10
-13.1887307373
 20
1.2361282067
 10
-13.1885913105
 20
1.2345546738
 10
-13.188421133
 20
1.2329633691
 10
-13.1882201812
 20
1.2313543901
 10
-13.1879884786
 20
1.2297276392
 10
-13.1877262958
 20
1.2280850322
 10
-13.1874335611
 20
1.2264263749
 10
-13.1871103461
 20
1.2247518616
 10
-13.1867571357
 20
1.2230639911
 10
-13.1863739407
 20
1.2213629676
 10
-13.1859607503
 20
1.2196485869
 10
-13.185518017
 20
1.217922735
 10
-13.1850456296
 20
1.2161851297
 10
-13.1845436993
 20
1.2144360531
 10
-13.1840130121
 20
1.2126782379
 10
-13.1834536273
 20
1.2109119812
 10
-13.1828654856
 20
1.2091369858
 10
-13.1822491953
 20
1.2073550924
 10
-13.1816045955
 20
1.2055659453
 10
-13.180931847
 20
1.2037699002
 10
-13.1802320407
 20
1.2019698654
 10
-13.1795052923
 20
1.2001662155
 10
-13.1787514861
 20
1.1983585758
 10
-13.1779713647
 20
1.1965487308
 10
-13.1771647144
 20
1.1947362706
 10
-13.1763317491
 20
1.1929216051
 10
-13.1754738534
 20
1.1911077493
 10
-13.1745912007
 20
1.1892951318
 10
-13.1736836178
 20
1.1874833241
 10
-13.1727519699
 20
1.1856740548
 10
-13.1717959952
 20
1.1838668872
 10
-13.1708159556
 20
1.1820622582
 10
-13.169813502
 20
1.1802632072
 10
-13.1687888559
 20
1.1784701858
 10
-13.1677417958
 20
1.1766827424
 10
-13.1666733087
 20
1.1749025618
 10
-13.1655830993
 20
1.1731292138
 10
-13.164471463
 20
1.1713631286
 10
-13.1633402716
 20
1.1696072808
 10
-13.1621897768
 20
1.1678621103
 10
-13.1610197271
 20
1.1661271772
 10
-13.1598312394
 20
1.1644041368
 10
-13.1586240074
 20
1.1626925993
 10
-13.1573983374
 20
1.1609929543
 10
-13.156156265
 20
1.1593080262
 10
-13.1548980492
 20
1.1576382119
 10
-13.153623431
 20
1.1559831145
 10
-13.1523336697
 20
1.1543443672
 10
-13.1510284728
 20
1.1527216472
 10
-13.1497081327
 20
1.1511152774
 10
-13.1483747865
 20
1.1495278594
 10
-13.1470286762
 20
1.1479597253
 10
-13.1456695597
 20
1.1464105432
 10
-13.1442988478
 20
1.1448819187
 10
-13.142916285
 20
1.143373612
 10
-13.1415221268
 20
1.141885863
 10
-13.1401185499
 20
1.1404209968
 10
-13.1387057577
 20
1.1389792686
 10
-13.1372835467
 20
1.1375604231
 10
-13.135853483
 20
1.1361660204
 10
-13.13441537
 20
1.1347959105
 10
-13.1329694041
 20
1.1334502433
 10
-13.1315177415
 20
1.1321310281
 10
-13.1300605258
 20
1.1308384382
 10
-13.1285976134
 20
1.1295723003
 10
-13.1271307288
 20
1.1283341044
 10
-13.1256597577
 20
1.1271237933
 10
-13.1241848145
 20
1.1259414241
 10
-13.1227079667
 20
1.1247886586
 10
-13.1212299035
 20
1.1236660505
 10
-13.1197499358
 20
1.122573046
 10
-13.1182680635
 20
1.1215096451
  0
LINE
  5
272
100
AcDbEntity
  8
RACCORDO
100
AcDbLine
 62
7
  6
CONTINUOUS
 10
-13.1889787416
 20
1.2422203232
 11
-13.1889787416
 21
16.6069473791
  0
LWPOLYLINE
  5
273
100
AcDbEntity
  8
RACCORDO
100
AcDbPolyline
 62
250
  6
CONTINUOUS
 90
112
 70
0
 10
-14.319038549
 20
-0.8414453118
 10
-14.3235091097
 20
-0.9218278869
 10
-14.3281232923
 20
-1.0030980964
 10
-14.3328783534
 20
-1.0852490202
 10
-14.3377712112
 20
-1.1683037122
 10
-14.3427987192
 20
-1.2522249419
 10
-14.3479574869
 20
-1.3369155953
 10
-14.353243123
 20
-1.4223736235
 10
-14.3586518574
 20
-1.5085872694
 10
-14.3641805967
 20
-1.5954455141
 10
-14.3698248121
 20
-1.6829590804
 10
-14.3755791848
 20
-1.7711038954
 10
-14.3814388184
 20
-1.8597177682
 10
-14.3873977422
 20
-1.9488047137
 10
-14.393450311
 20
-2.0383487053
 10
-14.3995915348
 20
-2.1281589993
 10
-14.4058142169
 20
-2.2182332726
 10
-14.4121125047
 20
-2.3085636762
 10
-14.4184830917
 20
-2.3989528451
 10
-14.4249205704
 20
-2.4894308247
 10
-14.4314164272
 20
-2.5799591497
 10
-14.4379625004
 20
-2.6702401337
 10
-14.4445510371
 20
-2.7602758925
 10
-14.4511751832
 20
-2.8500597197
 10
-14.4578281539
 20
-2.9392839986
 10
-14.4645026324
 20
-3.0279537159
 10
-14.4711915176
 20
-3.1160631917
 10
-14.4778887856
 20
-3.2032922725
 10
-14.4846100966
 20
-3.2899144615
 10
-14.4913262855
 20
-3.3756580117
 10
-14.4979651709
 20
-3.4593962605
 10
-14.5045238573
 20
-3.5411082544
 10
-14.5109951055
 20
-3.6208379168
 10
-14.5173028362
 20
-3.6975743608
 10
-14.5234278717
 20
-3.7710635601
 10
-14.5293860624
 20
-3.8416006201
 10
-14.5351565381
 20
-3.9090085763
 10
-14.5407246806
 20
-3.9731041434
 10
-14.5461069711
 20
-4.0341117592
 10
-14.5513297415
 20
-4.0924640867
 10
-14.5563971899
 20
-4.1482062015
 10
-14.5613084202
 20
-4.2013237114
 10
-14.566081355
 20
-4.252154497
 10
-14.57071549
 20
-4.3006921357
 10
-14.5752154709
 20
-4.3469674745
 10
-14.5796059036
 20
-4.3913695501
 10
-14.5838912584
 20
-4.4339456219
 10
-14.5880707867
 20
-4.4746662107
 10
-14.5921601428
 20
-4.5138012639
 10
-14.5961623346
 20
-4.5513784356
 10
-14.6000777905
 20
-4.5873838501
 10
-14.6039174646
 20
-4.6220225704
 10
-14.6076901974
 20
-4.6553630427
 10
-14.6113901854
 20
-4.6873475444
 10
-14.6150062144
 20
-4.7179910591
 10
-14.6185350615
 20
-4.7472524528
 10
-14.6219838072
 20
-4.7751837732
 10
-14.6253566087
 20
-4.8019393606
 10
-14.6286529648
 20
-4.8275136254
 10
-14.6318768617
 20
-4.851921047
 10
-14.6350385681
 20
-4.875344684
 10
-14.6381415246
 20
-4.8978102476
 10
-14.6411850819
 20
-4.9192987276
 10
-14.6441728113
 20
-4.939924939
 10
-14.6471060204
 20
-4.9596963353
 10
-14.6499859165
 20
-4.9786110529
 10
-14.6528155609
 20
-4.996769217
 10
-14.6555955637
 20
-5.0141744212
 10
-14.658327549
 20
-5.0308277221
 10
-14.6610157586
 20
-5.046824807
 10
-14.6636617294
 20
-5.0621749544
 10
-14.6662658215
 20
-5.0768726457
 10
-14.6688302185
 20
-5.0909908586
 10
-14.6713558669
 20
-5.1045345688
 10
-14.6738435048
 20
-5.1175019692
 10
-14.6762947881
 20
-5.1299554986
 10
-14.6787099089
 20
-5.1418966117
 10
-14.6810901816
 20
-5.1533265513
 10
-14.6834387351
 20
-5.1643071022
 10
-14.6857556235
 20
-5.1748401763
 10
-14.6880420762
 20
-5.184926081
 10
-14.6903027466
 20
-5.1946238384
 10
-14.6925401953
 20
-5.2039448656
 10
-14.6947528673
 20
-5.2128794654
 10
-14.6969391054
 20
-5.2214547834
 10
-14.6991020197
 20
-5.2296798773
 10
-14.7012394835
 20
-5.2375472817
 10
-14.7033420832
 20
-5.2450594622
 10
-14.7054096812
 20
-5.2522119951
 10
-14.7074436447
 20
-5.2590111084
 10
-14.7094369831
 20
-5.2654754306
 10
-14.7113870969
 20
-5.2715960351
 10
-14.7132979251
 20
-5.277383685
 10
-14.7151722538
 20
-5.2828864873
 10
-14.7170091537
 20
-5.2881042923
 10
-14.718810668
 20
-5.2930387314
 10
-14.7205838246
 20
-5.2977403156
 10
-14.7223278016
 20
-5.3022106485
 10
-14.7240442496
 20
-5.3064492168
 10
-14.725743621
 20
-5.3105030214
 10
-14.7274247714
 20
-5.3143740512
 10
-14.7290893533
 20
-5.3180610075
 10
-14.7307516728
 20
-5.3216055763
 10
-14.7324101084
 20
-5.3250101942
 10
-14.7340664178
 20
-5.3282726886
 10
-14.7357395611
 20
-5.3314273813
 10
-14.7374270121
 20
-5.3344772788
 10
-14.739130973
 20
-5.33741915
 10
-14.7408769618
 20
-5.3402774005
 10
-14.7426730188
 20
-5.3430597287
 10
-14.744510041
 20
-5.3457574756
 10
-14.7463875084
 20
-5.348370186
  0
LWPOLYLINE
  5
274
100
AcDbEntity
  8
RACCORDO
100
AcDbPolyline
 62
250
  6
CONTINUOUS
 90
41
 70
0
 10
-13.2961074857
 20
0.1572310313
 10
-13.2957011388
 20
0.1595824939
 10
-13.2953235481
 20
0.161971659
 10
-13.2949746637
 20
0.1643984998
 10
-13.2946543483
 20
0.1668608842
 10
-13.2943626551
 20
0.169360881
 10
-13.294099752
 20
0.1719047957
 10
-13.2938652212
 20
0.1744922423
 10
-13.293659246
 20
0.1771236098
 10
-13.2934827508
 20
0.1798064322
 10
-13.2933352104
 20
0.1825402868
 10
-13.2932167637
 20
0.1853256587
 10
-13.2931291725
 20
0.1881715122
 10
-13.2930717822
 20
0.19107733
 10
-13.2930446876
 20
0.1940437526
 10
-13.2930505917
 20
0.1970815564
 10
-13.2930886751
 20
0.2001900939
 10
-13.2931589915
 20
0.2033702005
 10
-13.2932653378
 20
0.2066349598
 10
-13.2934066894
 20
0.209983601
 10
-13.2935830518
 20
0.2134171541
 10
-13.2937995066
 20
0.2169514995
 10
-13.2940547474
 20
0.2205854807
 10
-13.2943487459
 20
0.2243205917
 10
-13.2946881737
 20
0.2281768005
 10
-13.2950713428
 20
0.2321525608
 10
-13.2954981888
 20
0.2362498491
 10
-13.2959773893
 20
0.240494054
 10
-13.296506748
 20
0.2448830941
 10
-13.297086143
 20
0.2494195905
 10
-13.2977267882
 20
0.2541361555
 10
-13.2984258063
 20
0.2590299538
 10
-13.299182973
 20
0.2641044887
 10
-13.300012688
 20
0.2694020923
 10
-13.3009112021
 20
0.2749190508
 10
-13.3018780502
 20
0.2806598924
 10
-13.3029314453
 20
0.2866795753
 10
-13.3040672134
 20
0.292976183
 10
-13.3052836855
 20
0.2995526009
 10
-13.306601366
 20
0.3064712833
 10
-13.3095255849
 20
0.321343853
  0
LWPOLYLINE
  5
275
100
AcDbEntity
  8
RACCORDO
100
AcDbPolyline
 62
250
  6
CONTINUOUS
 90
9
 70
0
 10
-14.1576725781
 20
0.1272392111
 10
-14.1791031235
 20
0.0055050055
 10
-14.2001739379
 20
-0.1160451364
 10
-14.2208852407
 20
-0.2374125235
 10
-14.2412368125
 20
-0.3585958469
 10
-14.2612279951
 20
-0.4795911801
 10
-14.280858569
 20
-0.6003972141
 10
-14.3001287536
 20
-0.7210152579
 10
-14.3190385489
 20
-0.8414453114
  0
LWPOLYLINE
  5
276
100
AcDbEntity
  8
RACCORDO
100
AcDbPolyline
 62
250
  6
CONTINUOUS
 90
10
 70
0
 10
-13.2961074857
 20
0.1572310313
 10
-13.3176107121
 20
0.0369189055
 10
-13.3387594081
 20
-0.0832142905
 10
-13.3595533347
 20
-0.2031671919
 10
-13.3799922601
 20
-0.3229384551
 10
-13.4000759503
 20
-0.4425266999
 10
-13.4198041687
 20
-0.5619305102
 10
-13.4391766901
 20
-0.6811485105
 10
-13.4581932994
 20
-0.8001793659
 10
-13.4768537823
 20
-0.9190217242
  0
LINE
  5
277
100
AcDbEntity
  8
RACCORDO
100
AcDbLine
 62
250
  6
CONTINUOUS
 10
-14.1356319587
 20
0.2505349774
 11
-14.1576725781
 21
0.1272392111
  0
LINE
  5
278
100
AcDbEntity
  8
RACCORDO
100
AcDbLine
 62
250
  6
CONTINUOUS
 10
-14.1351160987
 20
0.2532975779
 11
-14.1356319587
 21
0.2505349774
  0
LINE
  5
279
100
AcDbEntity
  8
RACCORDO
100
AcDbLine
 62
250
  6
CONTINUOUS
 10
-14.1345800431
 20
0.2560701546
 11
-14.1351160987
 21
0.2532975779
  0
LINE
  5
27A
100
AcDbEntity
  8
RACCORDO
100
AcDbLine
 62
250
  6
CONTINUOUS
 10
-14.1340235938
 20
0.2588536239
 11
-14.1345800431
 21
0.2560701546
  0
LINE
  5
27B
100
AcDbEntity
  8
RACCORDO
100
AcDbLine
 62
250
  6
CONTINUOUS
 10
-14.1334466326
 20
0.2616484762
 11
-14.1340235938
 21
0.2588536239
  0
LINE
  5
27C
100
AcDbEntity
  8
RACCORDO
100
AcDbLine
 62
250
  6
CONTINUOUS
 10
-14.1328489745
 20
0.2644554304
 11
-14.1334466326
 21
0.2616484762
  0
LINE
  5
27D
100
AcDbEntity
  8
RACCORDO
100
AcDbLine
 62
250
  6
CONTINUOUS
 10
-14.1322303947
 20
0.2672752157
 11
-14.1328489745
 21
0.2644554304
  0
LINE
  5
27E
100
AcDbEntity
  8
RACCORDO
100
AcDbLine
 62
250
  6
CONTINUOUS
 10
-14.1315907337
 20
0.2701083277
 11
-14.1322303947
 21
0.2672752157
  0
LINE
  5
27F
100
AcDbEntity
  8
RACCORDO
100
AcDbLine
 62
250
  6
CONTINUOUS
 10
-14.1309297401
 20
0.2729555148
 11
-14.1315907337
 21
0.2701083277
  0
LINE
  5
280
100
AcDbEntity
  8
RACCORDO
100
AcDbLine
 62
250
  6
CONTINUOUS
 10
-14.1302471104
 20
0.2758175881
 11
-14.1309297401
 21
0.2729555148
  0
LINE
  5
281
100
AcDbEntity
  8
RACCORDO
100
AcDbLine
 62
250
  6
CONTINUOUS
 10
-14.1295426321
 20
0.278695095
 11
-14.1302471104
 21
0.2758175881
  0
LINE
  5
282
100
AcDbEntity
  8
RACCORDO
100
AcDbLine
 62
250
  6
CONTINUOUS
 10
-14.1288159712
 20
0.2815888715
 11
-14.1295426321
 21
0.278695095
  0
LINE
  5
283
100
AcDbEntity
  8
RACCORDO
100
AcDbLine
 62
250
  6
CONTINUOUS
 10
-14.1280667468
 20
0.2844997825
 11
-14.1288159712
 21
0.2815888715
  0
LINE
  5
284
100
AcDbEntity
  8
RACCORDO
100
AcDbLine
 62
250
  6
CONTINUOUS
 10
-14.1272946956
 20
0.2874284073
 11
-14.1280667468
 21
0.2844997825
  0
LINE
  5
285
100
AcDbEntity
  8
RACCORDO
100
AcDbLine
 62
250
  6
CONTINUOUS
 10
-14.126499409
 20
0.2903756202
 11
-14.1272946956
 21
0.2874284073
  0
LINE
  5
286
100
AcDbEntity
  8
RACCORDO
100
AcDbLine
 62
250
  6
CONTINUOUS
 10
-14.1256804275
 20
0.2933423339
 11
-14.126499409
 21
0.2903756202
  0
LINE
  5
287
100
AcDbEntity
  8
RACCORDO
100
AcDbLine
 62
250
  6
CONTINUOUS
 10
-14.1248374519
 20
0.2963291043
 11
-14.1256804275
 21
0.2933423339
  0
LINE
  5
288
100
AcDbEntity
  8
RACCORDO
100
AcDbLine
 62
250
  6
CONTINUOUS
 10
-14.1239700208
 20
0.299336757
 11
-14.1248374519
 21
0.2963291043
  0
LINE
  5
289
100
AcDbEntity
  8
RACCORDO
100
AcDbLine
 62
250
  6
CONTINUOUS
 10
-14.1230777613
 20
0.3023657126
 11
-14.1239700208
 21
0.299336757
  0
LINE
  5
28A
100
AcDbEntity
  8
RACCORDO
100
AcDbLine
 62
250
  6
CONTINUOUS
 10
-14.1221604276
 20
0.3054162344
 11
-14.1230777613
 21
0.3023657126
  0
LINE
  5
28B
100
AcDbEntity
  8
RACCORDO
100
AcDbLine
 62
250
  6
CONTINUOUS
 10
-14.1212176738
 20
0.3084886204
 11
-14.1221604276
 21
0.3054162344
  0
LINE
  5
28C
100
AcDbEntity
  8
RACCORDO
100
AcDbLine
 62
250
  6
CONTINUOUS
 10
-14.1202491172
 20
0.3115832426
 11
-14.1212176738
 21
0.3084886204
  0
LINE
  5
28D
100
AcDbEntity
  8
RACCORDO
100
AcDbLine
 62
250
  6
CONTINUOUS
 10
-14.119254533
 20
0.3147002475
 11
-14.1202491172
 21
0.3115832426
  0
LINE
  5
28E
100
AcDbEntity
  8
RACCORDO
100
AcDbLine
 62
250
  6
CONTINUOUS
 10
-14.1182335926
 20
0.3178398062
 11
-14.119254533
 21
0.3147002475
  0
LINE
  5
28F
100
AcDbEntity
  8
RACCORDO
100
AcDbLine
 62
250
  6
CONTINUOUS
 10
-14.117186169
 20
0.3210014845
 11
-14.1182335926
 21
0.3178398062
  0
LINE
  5
290
100
AcDbEntity
  8
RACCORDO
100
AcDbLine
 62
250
  6
CONTINUOUS
 10
-14.1161121737
 20
0.3241850225
 11
-14.117186169
 21
0.3210014845
  0
LINE
  5
291
100
AcDbEntity
  8
RACCORDO
100
AcDbLine
 62
250
  6
CONTINUOUS
 10
-14.1150114302
 20
0.3273901629
 11
-14.1161121737
 21
0.3241850225
  0
LINE
  5
292
100
AcDbEntity
  8
RACCORDO
100
AcDbLine
 62
250
  6
CONTINUOUS
 10
-14.1138841551
 20
0.3306155952
 11
-14.1150114302
 21
0.3273901629
  0
LINE
  5
293
100
AcDbEntity
  8
RACCORDO
100
AcDbLine
 62
250
  6
CONTINUOUS
 10
-14.1127306624
 20
0.3338600318
 11
-14.1138841551
 21
0.3306155952
  0
LINE
  5
294
100
AcDbEntity
  8
RACCORDO
100
AcDbLine
 62
250
  6
CONTINUOUS
 10
-14.1115518393
 20
0.3371204374
 11
-14.1127306624
 21
0.3338600318
  0
LINE
  5
295
100
AcDbEntity
  8
RACCORDO
100
AcDbLine
 62
250
  6
CONTINUOUS
 10
-14.1103479839
 20
0.3403956786
 11
-14.1115518393
 21
0.3371204374
  0
LINE
  5
296
100
AcDbEntity
  8
RACCORDO
100
AcDbLine
 62
250
  6
CONTINUOUS
 10
-14.1091191261
 20
0.3436854444
 11
-14.1103479839
 21
0.3403956786
  0
LINE
  5
297
100
AcDbEntity
  8
RACCORDO
100
AcDbLine
 62
250
  6
CONTINUOUS
 10
-14.1078649565
 20
0.3469902635
 11
-14.1091191261
 21
0.3436854444
  0
LINE
  5
298
100
AcDbEntity
  8
RACCORDO
100
AcDbLine
 62
250
  6
CONTINUOUS
 10
-14.1065852931
 20
0.3503102826
 11
-14.1078649565
 21
0.3469902635
  0
LINE
  5
299
100
AcDbEntity
  8
RACCORDO
100
AcDbLine
 62
250
  6
CONTINUOUS
 10
-14.1052800001
 20
0.3536456323
 11
-14.1065852931
 21
0.3503102826
  0
LINE
  5
29A
100
AcDbEntity
  8
RACCORDO
100
AcDbLine
 62
250
  6
CONTINUOUS
 10
-14.103948866
 20
0.3569965217
 11
-14.1052800001
 21
0.3536456323
  0
LINE
  5
29B
100
AcDbEntity
  8
RACCORDO
100
AcDbLine
 62
250
  6
CONTINUOUS
 10
-14.1025916557
 20
0.3603631933
 11
-14.103948866
 21
0.3569965217
  0
LINE
  5
29C
100
AcDbEntity
  8
RACCORDO
100
AcDbLine
 62
250
  6
CONTINUOUS
 10
-14.101208211
 20
0.3637458054
 11
-14.1025916557
 21
0.3603631933
  0
LINE
  5
29D
100
AcDbEntity
  8
RACCORDO
100
AcDbLine
 62
250
  6
CONTINUOUS
 10
-14.0997982913
 20
0.3671445958
 11
-14.101208211
 21
0.3637458054
  0
LINE
  5
29E
100
AcDbEntity
  8
RACCORDO
100
AcDbLine
 62
250
  6
CONTINUOUS
 10
-14.0983616452
 20
0.3705598015
 11
-14.0997982913
 21
0.3671445958
  0
LINE
  5
29F
100
AcDbEntity
  8
RACCORDO
100
AcDbLine
 62
250
  6
CONTINUOUS
 10
-14.0968981026
 20
0.3739915802
 11
-14.0983616452
 21
0.3705598015
  0
LINE
  5
2A0
100
AcDbEntity
  8
RACCORDO
100
AcDbLine
 62
250
  6
CONTINUOUS
 10
-14.0954074053
 20
0.377440169
 11
-14.0968981026
 21
0.3739915802
  0
LINE
  5
2A1
100
AcDbEntity
  8
RACCORDO
100
AcDbLine
 62
250
  6
CONTINUOUS
 10
-14.0938892842
 20
0.3809058034
 11
-14.0954074053
 21
0.377440169
  0
LINE
  5
2A2
100
AcDbEntity
  8
RACCORDO
100
AcDbLine
 62
250
  6
CONTINUOUS
 10
-14.0923435579
 20
0.3843886405
 11
-14.0938892842
 21
0.3809058034
  0
LINE
  5
2A3
100
AcDbEntity
  8
RACCORDO
100
AcDbLine
 62
250
  6
CONTINUOUS
 10
-14.0907699509
 20
0.3878889152
 11
-14.0923435579
 21
0.3843886405
  0
LINE
  5
2A4
100
AcDbEntity
  8
RACCORDO
100
AcDbLine
 62
250
  6
CONTINUOUS
 10
-14.0891681734
 20
0.3914068698
 11
-14.0907699509
 21
0.3878889152
  0
LINE
  5
2A5
100
AcDbEntity
  8
RACCORDO
100
AcDbLine
 62
250
  6
CONTINUOUS
 10
-14.0875380293
 20
0.3949426671
 11
-14.0891681734
 21
0.3914068698
  0
LINE
  5
2A6
100
AcDbEntity
  8
RACCORDO
100
AcDbLine
 62
250
  6
CONTINUOUS
 10
-14.0858792194
 20
0.3984965544
 11
-14.0875380293
 21
0.3949426671
  0
LINE
  5
2A7
100
AcDbEntity
  8
RACCORDO
100
AcDbLine
 62
250
  6
CONTINUOUS
 10
-14.0841914342
 20
0.4020687764
 11
-14.0858792194
 21
0.3984965544
  0
LINE
  5
2A8
100
AcDbEntity
  8
RACCORDO
100
AcDbLine
 62
250
  6
CONTINUOUS
 10
-14.0824744655
 20
0.4056594956
 11
-14.0841914342
 21
0.4020687764
  0
LINE
  5
2A9
100
AcDbEntity
  8
RACCORDO
100
AcDbLine
 62
250
  6
CONTINUOUS
 10
-14.0807279973
 20
0.4092689549
 11
-14.0824744655
 21
0.4056594956
  0
LINE
  5
2AA
100
AcDbEntity
  8
RACCORDO
100
AcDbLine
 62
250
  6
CONTINUOUS
 10
-14.0789517046
 20
0.4128973937
 11
-14.0807279973
 21
0.4092689549
  0
LINE
  5
2AB
100
AcDbEntity
  8
RACCORDO
100
AcDbLine
 62
250
  6
CONTINUOUS
 10
-14.0771453681
 20
0.4165449717
 11
-14.0789517046
 21
0.4128973937
  0
LINE
  5
2AC
100
AcDbEntity
  8
RACCORDO
100
AcDbLine
 62
250
  6
CONTINUOUS
 10
-14.0753086576
 20
0.4202119239
 11
-14.0771453681
 21
0.4165449717
  0
LINE
  5
2AD
100
AcDbEntity
  8
RACCORDO
100
AcDbLine
 62
250
  6
CONTINUOUS
 10
-14.0734412171
 20
0.4238985136
 11
-14.0753086576
 21
0.4202119239
  0
LINE
  5
2AE
100
AcDbEntity
  8
RACCORDO
100
AcDbLine
 62
250
  6
CONTINUOUS
 10
-14.0715428078
 20
0.4276049141
 11
-14.0734412171
 21
0.4238985136
  0
LINE
  5
2AF
100
AcDbEntity
  8
RACCORDO
100
AcDbLine
 62
250
  6
CONTINUOUS
 10
-14.0696130626
 20
0.4313313946
 11
-14.0715428078
 21
0.4276049141
  0
LINE
  5
2B0
100
AcDbEntity
  8
RACCORDO
100
AcDbLine
 62
250
  6
CONTINUOUS
 10
-14.0676516299
 20
0.4350781718
 11
-14.0696130626
 21
0.4313313946
  0
LINE
  5
2B1
100
AcDbEntity
  8
RACCORDO
100
AcDbLine
 62
250
  6
CONTINUOUS
 10
-14.0656582709
 20
0.438845394
 11
-14.0676516299
 21
0.4350781718
  0
LINE
  5
2B2
100
AcDbEntity
  8
RACCORDO
100
AcDbLine
 62
250
  6
CONTINUOUS
 10
-14.063632626
 20
0.4426332802
 11
-14.0656582709
 21
0.438845394
  0
LINE
  5
2B3
100
AcDbEntity
  8
RACCORDO
100
AcDbLine
 62
250
  6
CONTINUOUS
 10
-14.0605328773
 20
0.4483543
 11
-14.063632626
 21
0.4426332802
  0
LINE
  5
2B4
100
AcDbEntity
  8
RACCORDO
100
AcDbLine
 62
250
  6
CONTINUOUS
 10
-14.0573586042
 20
0.4541229315
 11
-14.0605328773
 21
0.4483543
  0
LINE
  5
2B5
100
AcDbEntity
  8
RACCORDO
100
AcDbLine
 62
250
  6
CONTINUOUS
 10
-14.0541086481
 20
0.459939837
 11
-14.0573586042
 21
0.4541229315
  0
LINE
  5
2B6
100
AcDbEntity
  8
RACCORDO
100
AcDbLine
 62
250
  6
CONTINUOUS
 10
-14.0507818369
 20
0.4658056522
 11
-14.0541086481
 21
0.459939837
  0
LINE
  5
2B7
100
AcDbEntity
  8
RACCORDO
100
AcDbLine
 62
250
  6
CONTINUOUS
 10
-14.0473769898
 20
0.4717209792
 11
-14.0507818369
 21
0.4658056522
  0
LINE
  5
2B8
100
AcDbEntity
  8
RACCORDO
100
AcDbLine
 62
250
  6
CONTINUOUS
 10
-14.0438929135
 20
0.4776863939
 11
-14.0473769898
 21
0.4717209792
  0
LINE
  5
2B9
100
AcDbEntity
  8
RACCORDO
100
AcDbLine
 62
250
  6
CONTINUOUS
 10
-14.0403284104
 20
0.4837024334
 11
-14.0438929135
 21
0.4776863939
  0
LINE
  5
2BA
100
AcDbEntity
  8
RACCORDO
100
AcDbLine
 62
250
  6
CONTINUOUS
 10
-14.0366822939
 20
0.4897695724
 11
-14.0403284104
 21
0.4837024334
  0
LINE
  5
2BB
100
AcDbEntity
  8
RACCORDO
100
AcDbLine
 62
250
  6
CONTINUOUS
 10
-14.0329533776
 20
0.4958882423
 11
-14.0366822939
 21
0.4897695724
  0
LINE
  5
2BC
100
AcDbEntity
  8
RACCORDO
100
AcDbLine
 62
250
  6
CONTINUOUS
 10
-14.029140444
 20
0.5020588846
 11
-14.0329533776
 21
0.4958882423
  0
LINE
  5
2BD
100
AcDbEntity
  8
ASSI
100
AcDbLine
 62
7
  6
CONTINUOUS
 10
19.6487230998
 20
-29.85778436
 11
-21.7118037145
 21
-0.6114753762
  0
LINE
  5
2BE
100
AcDbEntity
  8
RACCORDO
100
AcDbLine
 62
250
  6
CONTINUOUS
 10
19.5727597657
 20
-29.7065574511
 11
12.5750125745
 21
-24.7584029592
  0
LINE
  5
2BF
100
AcDbEntity
  8
RACCORDO
100
AcDbLine
 62
250
  6
CONTINUOUS
 10
-14.7900198574
 20
-5.4084029592
 11
-21.7877670486
 21
-0.4602484673
  0
LINE
  5
2C0
100
AcDbEntity
  8
RACCORDO
100
AcDbLine
 62
250
  6
CONTINUOUS
 10
12.4730631838
 20
-24.6385196065
 11
-14.6916032795
 21
-5.4301997417
  0
LWPOLYLINE
  5
2C1
100
AcDbEntity
  8
RACCORDO
100
AcDbPolyline
 62
250
  6
CONTINUOUS
 90
39
 70
0
 10
19.6487230998
 20
-29.85778436
 10
19.6476262606
 20
-29.8570013633
 10
19.6442623226
 20
-29.8545050071
 10
19.6409667692
 20
-29.8519138092
 10
19.6377402426
 20
-29.8492282746
 10
19.6345833716
 20
-29.8464489267
 10
19.6314967717
 20
-29.8435763073
 10
19.6284810442
 20
-29.8406109762
 10
19.6255367771
 20
-29.8375535114
 10
19.6226645441
 20
-29.8344045087
 10
19.6198649051
 20
-29.8311645819
 10
19.6171384056
 20
-29.8278343625
 10
19.6144855771
 20
-29.8244144995
 10
19.6119069367
 20
-29.8209056594
 10
19.6094029868
 20
-29.8173085262
 10
19.6069742155
 20
-29.8136238008
 10
19.6046210962
 20
-29.8098522015
 10
19.6023440875
 20
-29.8059944633
 10
19.6001436331
 20
-29.8020513381
 10
19.5980201621
 20
-29.7980235944
 10
19.5959740881
 20
-29.7939120172
 10
19.59400581
 20
-29.7897174079
 10
19.5921157114
 20
-29.7854405839
 10
19.5903041608
 20
-29.7810823789
 10
19.588571511
 20
-29.7766436422
 10
19.5869180999
 20
-29.772125239
 10
19.5853442498
 20
-29.7675280499
 10
19.5838502672
 20
-29.7628529709
 10
19.5824364435
 20
-29.7581009131
 10
19.5811030541
 20
-29.7532728027
 10
19.579850359
 20
-29.7483695807
 10
19.5786786023
 20
-29.7433922028
 10
19.5775880124
 20
-29.738341639
 10
19.5765788018
 20
-29.7332188738
 10
19.5756511672
 20
-29.7280249054
 10
19.5748052894
 20
-29.7227607463
 10
19.5740413333
 20
-29.7174274223
 10
19.5733594478
 20
-29.712025973
 10
19.5727597657
 20
-29.7065574511
  0
LINE
  5
2C2
100
AcDbEntity
  8
RACCORDO
100
AcDbLine
 62
250
  6
CONTINUOUS
 10
-13.3128822001
 20
0.3377999507
 11
-13.3269876872
 21
0.4049423424
  0
LWPOLYLINE
  5
2C3
100
AcDbEntity
  8
RACCORDO
100
AcDbPolyline
 62
250
  6
CONTINUOUS
 90
88
 70
0
 10
-13.3269876872
 20
0.4049423424
 10
-13.3312739662
 20
0.4257604964
 10
-13.3334437812
 20
0.4365060896
 10
-13.3356258061
 20
0.4475473105
 10
-13.3378198193
 20
0.4588982195
 10
-13.340017179
 20
0.4705418448
 10
-13.3421986193
 20
0.4825051932
 10
-13.3443803992
 20
0.4949070152
 10
-13.3465343339
 20
0.5076238765
 10
-13.3485797228
 20
0.5203197375
 10
-13.3505061176
 20
0.5329355271
 10
-13.352326449
 20
0.5455263082
 10
-13.3540039455
 20
0.557928505
 10
-13.3555328453
 20
0.5700887657
 10
-13.3569266382
 20
0.5820579993
 10
-13.3581800621
 20
0.5938297612
 10
-13.3592945408
 20
0.60539876
 10
-13.3602752645
 20
0.616768442
 10
-13.3611223145
 20
0.6279455721
 10
-13.3618376803
 20
0.6389283573
 10
-13.3624251524
 20
0.6497172388
 10
-13.3628870638
 20
0.6603223295
 10
-13.36322547
 20
0.670743153
 10
-13.3634433338
 20
0.6809791943
 10
-13.3635439386
 20
0.6910404628
 10
-13.3635292345
 20
0.7009269606
 10
-13.3634016551
 20
0.7106379727
 10
-13.3631648787
 20
0.7201823764
 10
-13.3628207033
 20
0.7295603528
 10
-13.3623711974
 20
0.7387712368
 10
-13.3618201893
 20
0.747822584
 10
-13.3611693224
 20
0.7567146424
 10
-13.3604203976
 20
0.7654468785
 10
-13.3595772844
 20
0.7740256343
 10
-13.3586414825
 20
0.782451193
 10
-13.3576145872
 20
0.7907231657
 10
-13.3565004619
 20
0.7988468585
 10
-13.3553004762
 20
0.8068225831
 10
-13.3540160612
 20
0.8146500901
 10
-13.3526510568
 20
0.8223338296
 10
-13.3512067158
 20
0.8298741441
 10
-13.3496843333
 20
0.8372709137
 10
-13.3480877233
 20
0.8445278939
 10
-13.3464180326
 20
0.8516454615
 10
-13.3446764404
 20
0.8586236177
 10
-13.342866739
 20
0.8654655648
 10
-13.3409899786
 20
0.8721717172
 10
-13.3390472363
 20
0.8787421897
 10
-13.3370422888
 20
0.8851797564
 10
-13.3349760975
 20
0.8914848711
 10
-13.3328496469
 20
0.8976577566
 10
-13.3306667017
 20
0.9037008703
 10
-13.3284281416
 20
0.9096147057
 10
-13.3261348646
 20
0.9153995887
 10
-13.3237906224
 20
0.9210577619
 10
-13.3213962199
 20
0.9265897579
 10
-13.3189524713
 20
0.9319960005
 10
-13.3164631074
 20
0.9372786106
 10
-13.3139288639
 20
0.9424381578
 10
-13.3113504732
 20
0.9474751582
 10
-13.3087316269
 20
0.952391696
 10
-13.3060729984
 20
0.9571883748
 10
-13.3033752378
 20
0.9618657954
 10
-13.3006419697
 20
0.966426081
 10
-13.2978738111
 20
0.9708698652
 10
-13.2950713288
 20
0.9751978244
 10
-13.2922380416
 20
0.9794121835
 10
-13.2893745153
 20
0.9835136029
 10
-13.2864812336
 20
0.9875028219
 10
-13.2835615615
 20
0.9913822146
 10
-13.2806160543
 20
0.9951524249
 10
-13.2776450775
 20
0.9988142803
 10
-13.2746516792
 20
1.002370448
 10
-13.2716251658
 20
1.0058325845
 10
-13.2685770085
 20
1.0091903469
 10
-13.2655435632
 20
1.0124143134
 10
-13.2625139383
 20
1.0155128959
 10
-13.2594998281
 20
1.0184808338
 10
-13.2565716142
 20
1.0212706293
 10
-13.253753037
 20
1.0238617899
 10
-13.2510211213
 20
1.0262812665
 10
-13.2483761843
 20
1.0285538142
 10
-13.2458256254
 20
1.0306780739
 10
-13.2433624686
 20
1.0326603097
 10
-13.2409653811
 20
1.0345356611
 10
-13.2386273176
 20
1.0363166387
 10
-13.2363555398
 20
1.037993795
 10
-13.2341501289
 20
1.0395686508
  0
LINE
  5
2C4
100
AcDbEntity
  8
RACCORDO
100
AcDbLine
 62
250
  6
CONTINUOUS
 10
-13.3095255849
 20
0.321343853
 11
-13.3128822001
 21
0.3377999507
  0
LINE
  5
2C5
100
AcDbEntity
  8
RACCORDO
100
AcDbLine
 62
250
  6
CONTINUOUS
 10
-14.025242198
 20
0.5082820208
 11
-14.029140444
 21
0.5020588846
  0
LINE
  5
2C6
100
AcDbEntity
  8
RACCORDO
100
AcDbLine
 62
250
  6
CONTINUOUS
 10
-14.0212574124
 20
0.5145580199
 11
-14.025242198
 21
0.5082820208
  0
LINE
  5
2C7
100
AcDbEntity
  8
RACCORDO
100
AcDbLine
 62
250
  6
CONTINUOUS
 10
-14.0171851171
 20
0.5208868139
 11
-14.0212574124
 21
0.5145580199
  0
LINE
  5
2C8
100
AcDbEntity
  8
RACCORDO
100
AcDbLine
 62
250
  6
CONTINUOUS
 10
-14.0130242322
 20
0.5272684811
 11
-14.0171851171
 21
0.5208868139
  0
LINE
  5
2C9
100
AcDbEntity
  8
RACCORDO
100
AcDbLine
 62
250
  6
CONTINUOUS
 10
-14.0087735026
 20
0.5337033364
 11
-14.0130242322
 21
0.5272684811
  0
LINE
  5
2CA
100
AcDbEntity
  8
RACCORDO
100
AcDbLine
 62
250
  6
CONTINUOUS
 10
-14.0044317272
 20
0.5401915728
 11
-14.0087735026
 21
0.5337033364
  0
LINE
  5
2CB
100
AcDbEntity
  8
RACCORDO
100
AcDbLine
 62
250
  6
CONTINUOUS
 10
-13.9999978428
 20
0.5467331442
 11
-14.0044317272
 21
0.5401915728
  0
LINE
  5
2CC
100
AcDbEntity
  8
RACCORDO
100
AcDbLine
 62
250
  6
CONTINUOUS
 10
-13.9954708397
 20
0.5533279
 11
-13.9999978428
 21
0.5467331442
  0
LINE
  5
2CD
100
AcDbEntity
  8
RACCORDO
100
AcDbLine
 62
250
  6
CONTINUOUS
 10
-13.9908497395
 20
0.5599756215
 11
-13.9954708397
 21
0.5533279
  0
LINE
  5
2CE
100
AcDbEntity
  8
RACCORDO
100
AcDbLine
 62
250
  6
CONTINUOUS
 10
-13.9861336056
 20
0.5666760092
 11
-13.9908497395
 21
0.5599756215
  0
LINE
  5
2CF
100
AcDbEntity
  8
RACCORDO
100
AcDbLine
 62
250
  6
CONTINUOUS
 10
-13.9813215248
 20
0.573428711
 11
-13.9861336056
 21
0.5666760092
  0
LINE
  5
2D0
100
AcDbEntity
  8
RACCORDO
100
AcDbLine
 62
250
  6
CONTINUOUS
 10
-13.9764125951
 20
0.5802333402
 11
-13.9813215248
 21
0.573428711
  0
LINE
  5
2D1
100
AcDbEntity
  8
RACCORDO
100
AcDbLine
 62
250
  6
CONTINUOUS
 10
-13.9714059328
 20
0.5870894652
 11
-13.9764125951
 21
0.5802333402
  0
LINE
  5
2D2
100
AcDbEntity
  8
RACCORDO
100
AcDbLine
 62
250
  6
CONTINUOUS
 10
-13.9663007121
 20
0.5939965567
 11
-13.9714059328
 21
0.5870894652
  0
LINE
  5
2D3
100
AcDbEntity
  8
RACCORDO
100
AcDbLine
 62
250
  6
CONTINUOUS
 10
-13.9610962863
 20
0.6009538304
 11
-13.9663007121
 21
0.5939965567
  0
LINE
  5
2D4
100
AcDbEntity
  8
RACCORDO
100
AcDbLine
 62
250
  6
CONTINUOUS
 10
-13.955792343
 20
0.6079600562
 11
-13.9610962863
 21
0.6009538304
  0
LINE
  5
2D5
100
AcDbEntity
  8
RACCORDO
100
AcDbLine
 62
250
  6
CONTINUOUS
 10
-13.950388574
 20
0.6150140089
 11
-13.955792343
 21
0.6079600562
  0
LINE
  5
2D6
100
AcDbEntity
  8
RACCORDO
100
AcDbLine
 62
250
  6
CONTINUOUS
 10
-13.9448843851
 20
0.6221148381
 11
-13.950388574
 21
0.6150140089
  0
LINE
  5
2D7
100
AcDbEntity
  8
RACCORDO
100
AcDbLine
 62
250
  6
CONTINUOUS
 10
-13.9392792081
 20
0.6292616512
 11
-13.9448843851
 21
0.6221148381
  0
LINE
  5
2D8
100
AcDbEntity
  8
RACCORDO
100
AcDbLine
 62
250
  6
CONTINUOUS
 10
-13.9335727517
 20
0.6364531971
 11
-13.9392792081
 21
0.6292616512
  0
LINE
  5
2D9
100
AcDbEntity
  8
RACCORDO
100
AcDbLine
 62
250
  6
CONTINUOUS
 10
-13.9277648836
 20
0.6436880303
 11
-13.9335727517
 21
0.6364531971
  0
LINE
  5
2DA
100
AcDbEntity
  8
RACCORDO
100
AcDbLine
 62
250
  6
CONTINUOUS
 10
-13.9218555823
 20
0.6509645802
 11
-13.9277648836
 21
0.6436880303
  0
LINE
  5
2DB
100
AcDbEntity
  8
RACCORDO
100
AcDbLine
 62
250
  6
CONTINUOUS
 10
-13.9158449361
 20
0.6582811565
 11
-13.9218555823
 21
0.6509645802
  0
LINE
  5
2DC
100
AcDbEntity
  8
RACCORDO
100
AcDbLine
 62
250
  6
CONTINUOUS
 10
-13.9097329807
 20
0.6656361483
 11
-13.9158449361
 21
0.6582811565
  0
LINE
  5
2DD
100
AcDbEntity
  8
RACCORDO
100
AcDbLine
 62
250
  6
CONTINUOUS
 10
-13.9035195368
 20
0.6730282099
 11
-13.9097329807
 21
0.6656361483
  0
LINE
  5
2DE
100
AcDbEntity
  8
RACCORDO
100
AcDbLine
 62
250
  6
CONTINUOUS
 10
-13.8972047341
 20
0.6804556326
 11
-13.9035195368
 21
0.6730282099
  0
LINE
  5
2DF
100
AcDbEntity
  8
RACCORDO
100
AcDbLine
 62
250
  6
CONTINUOUS
 10
-13.8907895413
 20
0.6879157515
 11
-13.8972047341
 21
0.6804556326
  0
LINE
  5
2E0
100
AcDbEntity
  8
RACCORDO
100
AcDbLine
 62
250
  6
CONTINUOUS
 10
-13.8842744383
 20
0.6954065088
 11
-13.8907895413
 21
0.6879157515
  0
LINE
  5
2E1
100
AcDbEntity
  8
RACCORDO
100
AcDbLine
 62
250
  6
CONTINUOUS
 10
-13.8776597066
 20
0.7029260994
 11
-13.8842744383
 21
0.6954065088
  0
LINE
  5
2E2
100
AcDbEntity
  8
RACCORDO
100
AcDbLine
 62
250
  6
CONTINUOUS
 10
-13.8709458784
 20
0.7104724495
 11
-13.8776597066
 21
0.7029260994
  0
LINE
  5
2E3
100
AcDbEntity
  8
RACCORDO
100
AcDbLine
 62
250
  6
CONTINUOUS
 10
-13.864133613
 20
0.7180433675
 11
-13.8709458784
 21
0.7104724495
  0
LINE
  5
2E4
100
AcDbEntity
  8
RACCORDO
100
AcDbLine
 62
250
  6
CONTINUOUS
 10
-13.8572236702
 20
0.7256365796
 11
-13.864133613
 21
0.7180433675
  0
LINE
  5
2E5
100
AcDbEntity
  8
RACCORDO
100
AcDbLine
 62
250
  6
CONTINUOUS
 10
-13.8502168158
 20
0.7332498354
 11
-13.8572236702
 21
0.7256365796
  0
LINE
  5
2E6
100
AcDbEntity
  8
RACCORDO
100
AcDbLine
 62
250
  6
CONTINUOUS
 10
-13.8431135841
 20
0.7408811593
 11
-13.8502168158
 21
0.7332498354
  0
LINE
  5
2E7
100
AcDbEntity
  8
RACCORDO
100
AcDbLine
 62
250
  6
CONTINUOUS
 10
-13.835914534
 20
0.7485285664
 11
-13.8431135841
 21
0.7408811593
  0
LINE
  5
2E8
100
AcDbEntity
  8
RACCORDO
100
AcDbLine
 62
250
  6
CONTINUOUS
 10
-13.8286208314
 20
0.7561894542
 11
-13.835914534
 21
0.7485285664
  0
LINE
  5
2E9
100
AcDbEntity
  8
RACCORDO
100
AcDbLine
 62
250
  6
CONTINUOUS
 10
-13.8212338363
 20
0.7638610623
 11
-13.8286208314
 21
0.7561894542
  0
LINE
  5
2EA
100
AcDbEntity
  8
RACCORDO
100
AcDbLine
 62
250
  6
CONTINUOUS
 10
-13.8137544441
 20
0.7715411546
 11
-13.8212338363
 21
0.7638610623
  0
LINE
  5
2EB
100
AcDbEntity
  8
RACCORDO
100
AcDbLine
 62
250
  6
CONTINUOUS
 10
-13.8061832366
 20
0.7792278403
 11
-13.8137544441
 21
0.7715411546
  0
LINE
  5
2EC
100
AcDbEntity
  8
RACCORDO
100
AcDbLine
 62
250
  6
CONTINUOUS
 10
-13.7985208883
 20
0.7869191498
 11
-13.8061832366
 21
0.7792278403
  0
LINE
  5
2ED
100
AcDbEntity
  8
RACCORDO
100
AcDbLine
 62
250
  6
CONTINUOUS
 10
-13.790768227
 20
0.7946129794
 11
-13.7985208883
 21
0.7869191498
  0
LINE
  5
2EE
100
AcDbEntity
  8
RACCORDO
100
AcDbLine
 62
250
  6
CONTINUOUS
 10
-13.7829258567
 20
0.8023074679
 11
-13.790768227
 21
0.7946129794
  0
LINE
  5
2EF
100
AcDbEntity
  8
RACCORDO
100
AcDbLine
 62
250
  6
CONTINUOUS
 10
-13.7749940671
 20
0.8100010712
 11
-13.7829258567
 21
0.8023074679
  0
LINE
  5
2F0
100
AcDbEntity
  8
RACCORDO
100
AcDbLine
 62
250
  6
CONTINUOUS
 10
-13.7669733819
 20
0.8176920255
 11
-13.7749940671
 21
0.8100010712
  0
LINE
  5
2F1
100
AcDbEntity
  8
RACCORDO
100
AcDbLine
 62
250
  6
CONTINUOUS
 10
-13.7588646913
 20
0.8253782354
 11
-13.7669733819
 21
0.8176920255
  0
LINE
  5
2F2
100
AcDbEntity
  8
RACCORDO
100
AcDbLine
 62
250
  6
CONTINUOUS
 10
-13.7506684343
 20
0.8330580546
 11
-13.7588646913
 21
0.8253782354
  0
LINE
  5
2F3
100
AcDbEntity
  8
RACCORDO
100
AcDbLine
 62
250
  6
CONTINUOUS
 10
-13.7423843673
 20
0.8407304786
 11
-13.7506684343
 21
0.8330580546
  0
LINE
  5
2F4
100
AcDbEntity
  8
RACCORDO
100
AcDbLine
 62
250
  6
CONTINUOUS
 10
-13.7340121643
 20
0.8483945649
 11
-13.7423843673
 21
0.8407304786
  0
LINE
  5
2F5
100
AcDbEntity
  8
RACCORDO
100
AcDbLine
 62
250
  6
CONTINUOUS
 10
-13.7255516196
 20
0.8560492493
 11
-13.7340121643
 21
0.8483945649
  0
LINE
  5
2F6
100
AcDbEntity
  8
RACCORDO
100
AcDbLine
 62
250
  6
CONTINUOUS
 10
-13.7170013722
 20
0.8636944842
 11
-13.7255516196
 21
0.8560492493
  0
LINE
  5
2F7
100
AcDbEntity
  8
RACCORDO
100
AcDbLine
 62
250
  6
CONTINUOUS
 10
-13.7083579456
 20
0.8713320014
 11
-13.7170013722
 21
0.8636944842
  0
LINE
  5
2F8
100
AcDbEntity
  8
RACCORDO
100
AcDbLine
 62
250
  6
CONTINUOUS
 10
-13.7025526391
 20
0.8764110738
 11
-13.7083579456
 21
0.8713320014
  0
LINE
  5
2F9
100
AcDbEntity
  8
0
100
AcDbLine
 62
7
  6
CONTINUOUS
 10
16.4769011908
 20
-26.1385153021
 11
16.2789040738
 21
-25.9985123811
  0
LINE
  5
2FA
100
AcDbEntity
  8
0
100
AcDbLine
 62
7
  6
CONTINUOUS
 10
15.7617121791
 20
-25.6328003021
 11
15.5637200118
 21
-25.4928008811
  0
LINE
  5
2FB
100
AcDbEntity
  8
0
100
AcDbLine
 62
7
  6
CONTINUOUS
 10
14.9805358154
 20
-25.0804273811
 11
14.7825386983
 21
-24.9404244601
  0
LINE
  5
2FC
100
AcDbEntity
  8
0
100
AcDbLine
 62
7
  6
CONTINUOUS
 10
18.036875771
 20
-27.2415817231
 11
17.8138626303
 21
-27.0838898021
  0
LINE
  5
2FD
100
AcDbEntity
  8
0
100
AcDbLine
 62
7
  6
CONTINUOUS
 10
14.332688118
 20
-24.6223298811
 11
14.1346835763
 21
-24.4823217101
  0
LINE
  5
2FE
100
AcDbEntity
  8
0
100
AcDbLine
 62
7
  6
CONTINUOUS
 10
16.1469066832
 20
-25.9051761311
 11
15.9489093598
 21
-25.7651708811
  0
LINE
  5
2FF
100
AcDbEntity
  8
0
100
AcDbLine
 62
7
  6
CONTINUOUS
 10
15.3765255123
 20
-25.3604343811
 11
15.178528189
 21
-25.2204291311
  0
LINE
  5
300
100
AcDbEntity
  8
0
100
AcDbLine
 62
7
  6
CONTINUOUS
 10
17.442614246
 20
-26.8213775521
 11
17.2446144478
 21
-26.6813705521
  0
LINE
  5
301
100
AcDbEntity
  8
0
100
AcDbLine
 62
7
  6
CONTINUOUS
 10
17.1126172635
 20
-26.5880366311
 11
16.914617259
 21
-26.4480273021
  0
LINE
  5
302
100
AcDbEntity
  8
0
100
AcDbLine
 62
7
  6
CONTINUOUS
 10
16.8360127315
 20
-26.2205246794
 11
16.5233099603
 21
-25.9994104294
  0
LINE
  5
303
100
AcDbEntity
  8
0
100
AcDbLine
 62
7
  6
CONTINUOUS
 10
16.7603065889
 20
-26.0005451777
 11
16.5683949801
 21
-25.8648431777
  0
LINE
  5
304
100
AcDbEntity
  8
0
100
AcDbLine
 62
7
  6
CONTINUOUS
 10
17.584036138
 20
-26.5830099277
 11
17.4112278797
 21
-26.4608138441
  0
LINE
  5
305
100
AcDbEntity
  8
0
100
AcDbLine
 62
7
  6
CONTINUOUS
 10
16.7262162181
 20
-25.9011954289
 11
16.6216006757
 21
-25.8272210695
  0
LINE
  5
306
100
AcDbEntity
  8
0
100
AcDbLine
 62
7
  6
CONTINUOUS
 10
17.6346916497
 20
-26.456432516
 11
17.3938004657
 21
-26.2860968058
  0
LINE
  5
307
100
AcDbEntity
  8
0
100
AcDbLine
 62
7
  6
CONTINUOUS
 10
17.6878920704
 20
-26.4188141378
 11
17.4470008864
 21
-26.2484784275
  0
LINE
  5
308
100
AcDbEntity
  8
0
100
AcDbLine
 62
7
  6
CONTINUOUS
 10
17.6157350594
 20
-26.2289276906
 11
17.3748414567
 21
-26.0585901906
  0
LINE
  5
309
100
AcDbEntity
  8
0
100
AcDbLine
 62
7
  6
CONTINUOUS
 10
16.0677184859
 20
-24.971176601
 11
15.7683998319
 21
-24.759526351
  0
LINE
  5
30A
100
AcDbEntity
  8
0
100
AcDbLine
 62
7
  6
CONTINUOUS
 10
15.3986586457
 20
-24.498079851
 11
15.0993399917
 21
-24.286429601
  0
LINE
  5
30B
100
AcDbEntity
  8
0
100
AcDbLine
 62
7
  6
CONTINUOUS
 10
14.901350093
 20
-24.146429601
 11
14.7033527696
 21
-24.006424351
  0
LINE
  5
30C
100
AcDbEntity
  8
0
100
AcDbLine
 62
7
  6
CONTINUOUS
 10
14.571355379
 20
-23.913088101
 11
14.3733555808
 21
-23.773081101
  0
LINE
  5
30D
100
AcDbEntity
  8
0
100
AcDbLine
 62
7
  6
CONTINUOUS
 10
13.9356419875
 20
-23.463570851
 11
13.7376421893
 21
-23.323563851
  0
LINE
  5
30E
100
AcDbEntity
  8
0
100
AcDbLine
 62
7
  6
CONTINUOUS
 10
16.7155734183
 20
-25.4292770102
 11
16.5175661954
 21
-25.2892647602
  0
LINE
  5
30F
100
AcDbEntity
  8
0
100
AcDbLine
 62
7
  6
CONTINUOUS
 10
16.1209070116
 20
-24.9335666338
 11
15.8215883576
 21
-24.7219163838
  0
LINE
  5
310
100
AcDbEntity
  8
0
100
AcDbLine
 62
7
  6
CONTINUOUS
 10
15.4518471714
 20
-24.4604698838
 11
15.1525285174
 21
-24.2488196338
  0
LINE
  5
311
100
AcDbEntity
  8
0
100
AcDbLine
 62
7
  6
CONTINUOUS
 10
14.9545386187
 20
-24.1088196338
 11
14.7565412953
 21
-23.9688143838
  0
LINE
  5
312
100
AcDbEntity
  8
0
100
AcDbLine
 62
7
  6
CONTINUOUS
 10
14.6245439047
 20
-23.8754781338
 11
14.4265441065
 21
-23.7354711338
  0
LINE
  5
313
100
AcDbEntity
  8
0
100
AcDbLine
 62
7
  6
CONTINUOUS
 10
13.9888305132
 20
-23.4259608838
 11
13.790830715
 21
-23.2859538838
  0
LINE
  5
314
100
AcDbEntity
  8
0
100
AcDbLine
 62
7
  6
CONTINUOUS
 10
16.7687619439
 20
-25.3916670431
 11
16.5707547211
 21
-25.2516547931
  0
LWPOLYLINE
  5
315
100
AcDbEntity
  8
0
100
AcDbPolyline
 62
7
  6
CONTINUOUS
 90
118
 70
0
 10
17.6157350594
 20
-26.2289276906
 10
17.6179855018
 20
-26.2305376842
 10
17.6202371447
 20
-26.2321858175
 10
17.622489988
 20
-26.2338720906
 10
17.6247450106
 20
-26.2355972682
 10
17.6270012338
 20
-26.2373605853
 10
17.6292557222
 20
-26.2391597469
 10
17.6315080325
 20
-26.2409944288
 10
17.6337586084
 20
-26.2428649549
 10
17.6360058447
 20
-26.2447700027
 10
17.6382502535
 20
-26.2467100512
 10
17.6404913232
 20
-26.2486846209
 10
17.6427259133
 20
-26.2506909521
 10
17.644953489
 20
-26.2527285991
 10
17.647174586
 20
-26.2547980069
 10
17.6493876683
 20
-26.2568977516
 10
17.6515931725
 20
-26.2590282816
 10
17.6537906631
 20
-26.2611891476
 10
17.6559772969
 20
-26.2633775792
 10
17.6581528102
 20
-26.2655933609
 10
17.6603174678
 20
-26.2678367072
 10
17.6624692191
 20
-26.2701054925
 10
17.6646080659
 20
-26.2723997445
 10
17.6667340077
 20
-26.2747194345
 10
17.6688449895
 20
-26.2770623524
 10
17.670941218
 20
-26.2794287822
 10
17.673022488
 20
-26.2818184387
 10
17.6750861265
 20
-26.2842282578
 10
17.6771317147
 20
-26.2866577778
 10
17.6791596732
 20
-26.2891074591
 10
17.681168588
 20
-26.2915756208
 10
17.6831589297
 20
-26.2940628904
 10
17.6851302297
 20
-26.2965686391
 10
17.6870796649
 20
-26.2990893014
 10
17.6890067369
 20
-26.3016242729
 10
17.690911946
 20
-26.3041741567
 10
17.6927939677
 20
-26.3067371992
 10
17.6946531611
 20
-26.3093139287
 10
17.696489169
 20
-26.3119038155
 10
17.698299593
 20
-26.3145035189
 10
17.7000842042
 20
-26.31711277
 10
17.7018432334
 20
-26.3197318363
 10
17.703574971
 20
-26.3223581807
 10
17.7052793892
 20
-26.3249917924
 10
17.7069565178
 20
-26.3276326809
 10
17.7086047342
 20
-26.3302783401
 10
17.710224196
 20
-26.3329290941
 10
17.7118147476
 20
-26.3355846174
 10
17.713374297
 20
-26.3382414295
 10
17.7149024973
 20
-26.3408989774
 10
17.7163996972
 20
-26.3435578127
 10
17.717864848
 20
-26.3462161123
 10
17.719298282
 20
-26.3488745481
 10
17.7206996688
 20
-26.3515324467
 10
17.7220669653
 20
-26.3541859671
 10
17.7233997968
 20
-26.3568344416
 10
17.7246985398
 20
-26.3594785365
 10
17.7259622783
 20
-26.362116412
 10
17.7271912363
 20
-26.3647485965
 10
17.7283851915
 20
-26.3673745603
 10
17.729542558
 20
-26.3699908761
 10
17.7306631631
 20
-26.3725972504
 10
17.731747181
 20
-26.3751939756
 10
17.7327935469
 20
-26.3777785041
 10
17.733802226
 20
-26.3803508054
 10
17.7347732544
 20
-26.3829109089
 10
17.7357056738
 20
-26.3854563573
 10
17.7365995424
 20
-26.3879874399
 10
17.7374548032
 20
-26.3905038664
 10
17.7382703251
 20
-26.3930023102
 10
17.7390459066
 20
-26.3954822319
 10
17.7397817503
 20
-26.3979441701
 10
17.7404773301
 20
-26.4003864144
 10
17.7411327724
 20
-26.4028095597
 10
17.7417479518
 20
-26.4052130104
 10
17.7423219645
 20
-26.4075932705
 10
17.7428546249
 20
-26.4099497195
 10
17.7433461192
 20
-26.4122829774
 10
17.7437961017
 20
-26.4145914095
 10
17.7442046241
 20
-26.4168754606
 10
17.7445716351
 20
-26.4191346855
 10
17.7448966347
 20
-26.4213661143
 10
17.7451795299
 20
-26.4235694635
 10
17.7454204137
 20
-26.4257450164
 10
17.7456190653
 20
-26.427890654
 10
17.7457754528
 20
-26.4300063458
 10
17.7458896081
 20
-26.4320921222
 10
17.745961405
 20
-26.434145955
 10
17.7459907895
 20
-26.436168037
 10
17.7459778154
 20
-26.4381581755
 10
17.7459225182
 20
-26.4401137643
 10
17.7458248762
 20
-26.4420343745
 10
17.7456849106
 20
-26.4439204354
 10
17.745502721
 20
-26.4457706281
 10
17.7452782085
 20
-26.4475853674
 10
17.7450114715
 20
-26.449364239
 10
17.7447029046
 20
-26.4511046808
 10
17.7443525407
 20
-26.4528062242
 10
17.7439603461
 20
-26.4544693385
 10
17.7435266152
 20
-26.4560928682
 10
17.7430512208
 20
-26.4576770999
 10
17.7425342892
 20
-26.4592217476
 10
17.7419764948
 20
-26.4607247976
 10
17.7413778439
 20
-26.4621860277
 10
17.740738329
 20
-26.4636056609
 10
17.7400586038
 20
-26.4649823509
 10
17.7393386388
 20
-26.4663160659
 10
17.7385784622
 20
-26.4676068387
 10
17.7377788144
 20
-26.4688534205
 10
17.7369395487
 20
-26.4700558859
 10
17.7360608103
 20
-26.4712141613
 10
17.7351437774
 20
-26.472326776
 10
17.7341886024
 20
-26.4733934737
 10
17.7331951313
 20
-26.4744145118
 10
17.7321640824
 20
-26.47538919
 10
17.7310951624
 20
-26.4763176847
 10
17.7299886629
 20
-26.4771998207
 10
17.7290038226
 20
-26.4779235645
  0
LWPOLYLINE
  5
316
100
AcDbEntity
  8
RACCORDO
100
AcDbPolyline
 62
250
  6
CONTINUOUS
 90
200
 70
0
 10
-14.1358823017
 20
16.6646405294
 10
-14.1356319393
 20
16.6636169937
 10
-14.1353765207
 20
16.6625980853
 10
-14.135116046
 20
16.6615838042
 10
-14.1348505336
 20
16.6605742087
 10
-14.1345799651
 20
16.6595692406
 10
-14.134304285
 20
16.6585687245
 10
-14.1340234961
 20
16.6575726532
 10
-14.1337375956
 20
16.6565810339
 10
-14.1334465202
 20
16.6555937128
 10
-14.1331502733
 20
16.6546106857
 10
-14.1328488515
 20
16.6536319569
 10
-14.1325421804
 20
16.6526573854
 10
-14.1322302638
 20
16.6516869678
 10
-14.131913098
 20
16.6507207075
 10
-14.1315905973
 20
16.6497584733
 10
-14.1312627663
 20
16.6488002632
 10
-14.1309296005
 20
16.6478460792
 10
-14.1305910009
 20
16.6468957953
 10
-14.130246972
 20
16.6459494091
 10
-14.1298975094
 20
16.6450069229
 10
-14.1295425009
 20
16.6440682178
 10
-14.1291819508
 20
16.643133291
 10
-14.1288158547
 20
16.6422021452
 10
-14.1284440869
 20
16.6412746697
 10
-14.1280666518
 20
16.6403508609
 10
-14.127683545
 20
16.6394307223
 10
-14.127294628
 20
16.6385141539
 10
-14.1268999048
 20
16.6376011515
 10
-14.1264993714
 20
16.6366917193
 10
-14.1260928763
 20
16.6357857688
 10
-14.1256804203
 20
16.6348832889
 10
-14.1252620026
 20
16.6339842909
 10
-14.12483747
 20
16.6330887201
 10
-14.1244068152
 20
16.6321965521
 10
-14.1239700455
 20
16.6313078113
 10
-14.1235270291
 20
16.6304225165
 10
-14.123077761
 20
16.6295406519
 10
-14.1226222463
 20
16.6286622332
 10
-14.122160369
 20
16.6277873259
 10
-14.1216921309
 20
16.6269159296
 10
-14.1212175302
 20
16.6260480447
 10
-14.1207364452
 20
16.6251837379
 10
-14.1202488694
 20
16.6243229951
 10
-14.1197548093
 20
16.6234658303
 10
-14.1192541628
 20
16.6226123528
 10
-14.1187469112
 20
16.6217625327
 10
-14.1182330731
 20
16.6209163998
 10
-14.1177126028
 20
16.6200741523
 10
-14.1171854908
 20
16.6192357811
 10
-14.1166517466
 20
16.6184012952
 10
-14.1161113531
 20
16.6175709201
 10
-14.1155642843
 20
16.6167446269
 10
-14.1150105663
 20
16.6159224445
 10
-14.1144502599
 20
16.6151046847
 10
-14.1138833116
 20
16.6142912906
 10
-14.1133097749
 20
16.6134823191
 10
-14.1127298717
 20
16.6126782532
 10
-14.1121436355
 20
16.6118791595
 10
-14.1115510329
 20
16.6110849714
 10
-14.1109521856
 20
16.6102959714
 10
-14.110347161
 20
16.6095122528
 10
-14.1097358918
 20
16.6087337224
 10
-14.1091182979
 20
16.6079603831
 10
-14.1084943748
 20
16.607192226
 10
-14.107864127
 20
16.60642926
 10
-14.1072274881
 20
16.6056715137
 10
-14.1065844596
 20
16.6049189869
 10
-14.10593504
 20
16.6041716799
 10
-14.105279158
 20
16.6034296228
 10
-14.1046168154
 20
16.6026928154
 10
-14.1039480105
 20
16.601961258
 10
-14.1032726662
 20
16.6012349818
 10
-14.1025907837
 20
16.6005139854
 10
-14.101902362
 20
16.5997982703
 10
-14.1012073209
 20
16.5990878716
 10
-14.1005056616
 20
16.5983827881
 10
-14.0997973831
 20
16.5976830212
 10
-14.0990824021
 20
16.5969886101
 10
-14.0983607199
 20
16.5962995537
 10
-14.0976323353
 20
16.5956158533
 10
-14.0968971619
 20
16.594937552
 10
-14.0961552006
 20
16.5942646486
 10
-14.0954064504
 20
16.5935971443
 10
-14.0946508217
 20
16.5929350868
 10
-14.0938883155
 20
16.5922784744
 10
-14.0931189309
 20
16.5916273086
 10
-14.0923425753
 20
16.5909816412
 10
-14.0915592498
 20
16.5903414709
 10
-14.0907689534
 20
16.589706799
 10
-14.0899715898
 20
16.5890776809
 10
-14.0891671604
 20
16.5884541155
 10
-14.088355664
 20
16.5878361039
 10
-14.0875370006
 20
16.5872237056
 10
-14.0867111713
 20
16.5866169191
 10
-14.0858781752
 20
16.5860157458
 10
-14.0850379095
 20
16.5854202496
 10
-14.0841903752
 20
16.584830429
 10
-14.0833355714
 20
16.5842462855
 10
-14.0824733926
 20
16.5836678875
 10
-14.0816038398
 20
16.5830952336
 10
-14.080726912
 20
16.5825283251
 10
-14.0798425008
 20
16.581967235
 10
-14.0789506072
 20
16.5814119618
 10
-14.0780512303
 20
16.580862507
 10
-14.0771442587
 20
16.5803189477
 10
-14.0762296943
 20
16.5797812831
 10
-14.0753075351
 20
16.5792495142
 10
-14.074377664
 20
16.5787237209
 10
-14.0734400823
 20
16.5782039021
 10
-14.0724947885
 20
16.577690059
 10
-14.0715416611
 20
16.577182276
 10
-14.070580699
 20
16.5766805504
 10
-14.0696119032
 20
16.5761848849
 10
-14.0686351555
 20
16.5756953719
 10
-14.0676504565
 20
16.5752120096
 10
-14.0666578055
 20
16.5747347997
 10
-14.0656570823
 20
16.5742638392
 10
-14.0646482878
 20
16.5737991268
 10
-14.063631421
 20
16.5733406637
 10
-14.0626063583
 20
16.5728885511
 10
-14.0615731008
 20
16.5724427877
 10
-14.0605316472
 20
16.5720033748
 10
-14.0594818705
 20
16.5715704177
 10
-14.0584237714
 20
16.5711439148
 10
-14.0573573491
 20
16.5707238678
 10
-14.0562824742
 20
16.5703103867
 10
-14.0551991474
 20
16.56990347
 10
-14.054107368
 20
16.5695031192
 10
-14.0530070056
 20
16.5691094497
 10
-14.0518980602
 20
16.5687224596
 10
-14.0507805317
 20
16.5683421507
 10
-14.0496542886
 20
16.5679686434
 10
-14.0485193314
 20
16.5676019361
 10
-14.0473756596
 20
16.5672420303
 10
-14.0462231403
 20
16.5668890512
 10
-14.0450617737
 20
16.5665429971
 10
-14.0438915596
 20
16.5662038697
 10
-14.0427123649
 20
16.5658717991
 10
-14.0415241892
 20
16.5655467837
 10
-14.0403270329
 20
16.5652288251
 10
-14.0391207642
 20
16.5649180588
 10
-14.0379053834
 20
16.5646144831
 10
-14.0366808902
 20
16.5643180997
 10
-14.035447152
 20
16.5640290484
 10
-14.0342041702
 20
16.5637473278
 10
-14.0329519434
 20
16.5634729393
 10
-14.0316903351
 20
16.5632060265
 10
-14.0304193478
 20
16.5629465881
 10
-14.029138979
 20
16.5626946254
 10
-14.0278490848
 20
16.5624502855
 10
-14.0265496611
 20
16.5622135661
 10
-14.025240712
 20
16.5619844695
 10
-14.0239221055
 20
16.5617631498
 10
-14.0225938315
 20
16.5615496044
 10
-14.0212559001
 20
16.5613438359
 10
-14.0199082092
 20
16.5611460061
 10
-14.0185507675
 20
16.5609561154
 10
-14.0171835664
 20
16.5607741634
 10
-14.0158064777
 20
16.560600311
 10
-14.0144195056
 20
16.5604345574
 10
-14.013022646
 20
16.5602769033
 10
-14.0116157581
 20
16.5601275123
 10
-14.0101988384
 20
16.5599863828
 10
-14.0087718905
 20
16.5598535163
 10
-14.0073347851
 20
16.559729082
 10
-14.0058875171
 20
16.5596130784
 10
-14.0044300917
 20
16.5595055069
 10
-14.0029623943
 20
16.5594065411
 10
-14.001484424
 20
16.5593161799
 10
-13.9999961817
 20
16.5592344244
 10
-13.9984975558
 20
16.5591614507
 10
-13.9969885449
 20
16.5590972581
 10
-13.9954691503
 20
16.5590418474
 10
-13.9939392651
 20
16.5589953975
 10
-13.9923988876
 20
16.5589579076
 10
-13.9908480193
 20
16.5589293785
 10
-13.989286558
 20
16.5589099914
 10
-13.987714503
 20
16.5588997455
 10
-13.9861318548
 20
16.5588986417
 10
-13.984538513
 20
16.5589068632
 10
-13.9829344771
 20
16.5589244092
 10
-13.9813197476
 20
16.5589512805
 10
-13.9796942245
 20
16.5589876626
 10
-13.9780579069
 20
16.5590335546
 10
-13.9764107958
 20
16.5590889572
 10
-13.9747527938
 20
16.559154058
 10
-13.9730838977
 20
16.5592288565
 10
-13.9714041108
 20
16.5593133531
 10
-13.9697133458
 20
16.5594077367
 10
-13.9680115943
 20
16.5595120075
 10
-13.9662988648
 20
16.5596261654
 10
-13.9645750948
 20
16.5597503986
 10
-13.9628402727
 20
16.5598847083
 10
-13.9610944101
 20
16.5600290933
 10
-13.95933748
 20
16.5601837385
 10
-13.9575694872
 20
16.5603486439
 10
-13.955790427
 20
16.5605238096
 10
-13.9540002581
 20
16.5607094203
 10
-13.9521989908
 20
16.560905475
  0
LWPOLYLINE
  5
317
100
AcDbEntity
  8
RACCORDO
100
AcDbPolyline
 62
250
  6
CONTINUOUS
 90
22
 70
0
 10
-13.9521989908
 20
16.560905475
 10
-13.9503866149
 20
16.5611119749
 10
-13.9485630586
 20
16.5613291086
 10
-13.9467283164
 20
16.5615568764
 10
-13.9448823939
 20
16.5617952781
 10
-13.9430252359
 20
16.5620445013
 10
-13.9411568321
 20
16.5623045477
 10
-13.9392771928
 20
16.5625754156
 10
-13.9373862946
 20
16.5628572885
 10
-13.9354841333
 20
16.5631501673
 10
-13.933570713
 20
16.5634540511
 10
-13.931646022
 20
16.5637691204
 10
-13.9297100556
 20
16.5640953763
 10
-13.9277628184
 20
16.5644328177
 10
-13.9258043119
 20
16.5647816213
 10
-13.9238345327
 20
16.5651417883
 10
-13.9218534842
 20
16.5655133175
 10
-13.9198611783
 20
16.5658963818
 10
-13.9178576188
 20
16.566290981
 10
-13.9158428018
 20
16.5666971154
 10
-13.9138167283
 20
16.5671149584
 10
-13.9097308261
 20
16.5679857675
  0
LWPOLYLINE
  5
318
100
AcDbEntity
  8
RACCORDO
100
AcDbPolyline
 62
250
  6
CONTINUOUS
 90
10
 70
0
 10
-14.3190385489
 20
17.4962212724
 10
-14.3001287535
 20
17.4025337076
 10
-14.2808585688
 20
17.3091678199
 10
-14.2612279949
 20
17.2161236095
 10
-14.2412368123
 20
17.1234000777
 10
-14.2208852404
 20
17.030998223
 10
-14.2001739376
 20
16.9389210413
 10
-14.1791031232
 20
16.847169531
 10
-14.157672578
 20
16.7557426937
 10
-14.1358823017
 20
16.6646405294
  0
LWPOLYLINE
  5
319
100
AcDbEntity
  8
RACCORDO
100
AcDbPolyline
 62
250
  6
CONTINUOUS
 90
9
 70
0
 10
-13.4768537823
 20
17.5648268042
 10
-13.4581932994
 20
17.472374354
 10
-13.4391766901
 20
17.3802370455
 10
-13.4198041687
 20
17.2884159276
 10
-13.4000759502
 20
17.1969120312
 10
-13.3799922601
 20
17.1057264131
 10
-13.3595533346
 20
17.0148601554
 10
-13.338759408
 20
16.924314307
 10
-13.317610712
 20
16.8340898838
  0
LINE
  5
31A
100
AcDbEntity
  8
RACCORDO
100
AcDbLine
 62
250
  6
CONTINUOUS
 10
-14.7807979232
 20
-5.3954143394
 11
-14.7900198574
 21
-5.4084029592
  0
LINE
  5
31B
100
AcDbEntity
  8
RACCORDO
100
AcDbLine
 62
250
  6
CONTINUOUS
 10
-14.7712950198
 20
-5.3822158488
 11
-14.7807979232
 21
-5.3954143394
  0
LINE
  5
31C
100
AcDbEntity
  8
RACCORDO
100
AcDbLine
 62
250
  6
CONTINUOUS
 10
-14.7615217121
 20
-5.3688113865
 11
-14.7712950198
 21
-5.3822158488
  0
LWPOLYLINE
  5
31D
100
AcDbEntity
  8
RACCORDO
100
AcDbPolyline
 62
250
  6
CONTINUOUS
 90
3
 70
0
 10
-14.7463875084
 20
-5.348370186
 10
-14.7514940309
 20
-5.3552301465
 10
-14.7615217121
 20
-5.3688113865
  0
LINE
  5
31E
100
AcDbEntity
  8
RACCORDO
100
AcDbLine
 62
250
  6
CONTINUOUS
 10
-13.6938318599
 20
0.8839657988
 11
-13.7025526391
 21
0.8764110738
  0
LINE
  5
31F
100
AcDbEntity
  8
RACCORDO
100
AcDbLine
 62
250
  6
CONTINUOUS
 10
-13.6851906923
 20
0.8913637072
 11
-13.6938318599
 21
0.8839657988
  0
LINE
  5
320
100
AcDbEntity
  8
RACCORDO
100
AcDbLine
 62
250
  6
CONTINUOUS
 10
-13.6766749896
 20
0.8985700647
 11
-13.6851906923
 21
0.8913637072
  0
LINE
  5
321
100
AcDbEntity
  8
RACCORDO
100
AcDbLine
 62
250
  6
CONTINUOUS
 10
-13.6682983305
 20
0.905578579
 11
-13.6766749896
 21
0.8985700647
  0
LINE
  5
322
100
AcDbEntity
  8
RACCORDO
100
AcDbLine
 62
250
  6
CONTINUOUS
 10
-13.6600533329
 20
0.9124005292
 11
-13.6682983305
 21
0.905578579
  0
LINE
  5
323
100
AcDbEntity
  8
RACCORDO
100
AcDbLine
 62
250
  6
CONTINUOUS
 10
-13.6519324505
 20
0.9190468698
 11
-13.6600533329
 21
0.9124005292
  0
LINE
  5
324
100
AcDbEntity
  8
RACCORDO
100
AcDbLine
 62
250
  6
CONTINUOUS
 10
-13.6439348792
 20
0.9255226705
 11
-13.6519324505
 21
0.9190468698
  0
LINE
  5
325
100
AcDbEntity
  8
RACCORDO
100
AcDbLine
 62
250
  6
CONTINUOUS
 10
-13.6360593131
 20
0.9318332236
 11
-13.6439348792
 21
0.9255226705
  0
LINE
  5
326
100
AcDbEntity
  8
RACCORDO
100
AcDbLine
 62
250
  6
CONTINUOUS
 10
-13.6283030497
 20
0.9379847439
 11
-13.6360593131
 21
0.9318332236
  0
LINE
  5
327
100
AcDbEntity
  8
RACCORDO
100
AcDbLine
 62
250
  6
CONTINUOUS
 10
-13.6206637523
 20
0.9439829418
 11
-13.6283030497
 21
0.9379847439
  0
LINE
  5
328
100
AcDbEntity
  8
RACCORDO
100
AcDbLine
 62
250
  6
CONTINUOUS
 10
-13.6131392224
 20
0.9498332272
 11
-13.6206637523
 21
0.9439829418
  0
LINE
  5
329
100
AcDbEntity
  8
RACCORDO
100
AcDbLine
 62
250
  6
CONTINUOUS
 10
-13.6057272533
 20
0.9555408389
 11
-13.6131392224
 21
0.9498332272
  0
LINE
  5
32A
100
AcDbEntity
  8
RACCORDO
100
AcDbLine
 62
250
  6
CONTINUOUS
 10
-13.5984256487
 20
0.9611108392
 11
-13.6057272533
 21
0.9555408389
  0
LINE
  5
32B
100
AcDbEntity
  8
RACCORDO
100
AcDbLine
 62
250
  6
CONTINUOUS
 10
-13.5888581909
 20
0.9683317248
 11
-13.5984256487
 21
0.9611108392
  0
LINE
  5
32C
100
AcDbEntity
  8
RACCORDO
100
AcDbLine
 62
250
  6
CONTINUOUS
 10
-13.5794785278
 20
0.9753274735
 11
-13.5888581909
 21
0.9683317248
  0
LINE
  5
32D
100
AcDbEntity
  8
RACCORDO
100
AcDbLine
 62
250
  6
CONTINUOUS
 10
-13.5702824407
 20
0.982108038
 11
-13.5794785278
 21
0.9753274735
  0
LINE
  5
32E
100
AcDbEntity
  8
RACCORDO
100
AcDbLine
 62
250
  6
CONTINUOUS
 10
-13.5612652379
 20
0.9886833388
 11
-13.5702824407
 21
0.982108038
  0
LINE
  5
32F
100
AcDbEntity
  8
RACCORDO
100
AcDbLine
 62
250
  6
CONTINUOUS
 10
-13.5524223325
 20
0.9950631435
 11
-13.5612652379
 21
0.9886833388
  0
LINE
  5
330
100
AcDbEntity
  8
RACCORDO
100
AcDbLine
 62
250
  6
CONTINUOUS
 10
-13.5437496637
 20
1.0012562079
 11
-13.5524223325
 21
0.9950631435
  0
LINE
  5
331
100
AcDbEntity
  8
RACCORDO
100
AcDbLine
 62
250
  6
CONTINUOUS
 10
-13.1182680635
 20
1.1215096451
 11
-13.2341501289
 21
1.0395686508
  0
LINE
  5
332
100
AcDbEntity
  8
RACCORDO
100
AcDbLine
 62
250
  6
CONTINUOUS
 10
-13.535242993
 20
1.0072711058
 11
-13.5437496637
 21
1.0012562079
  0
LINE
  5
333
100
AcDbEntity
  8
RACCORDO
100
AcDbLine
 62
250
  6
CONTINUOUS
 10
-13.1889787416
 20
1.2422203232
 11
-13.3092832981
 21
1.157165925
  0
LINE
  5
334
100
AcDbEntity
  8
RACCORDO
100
AcDbLine
 62
250
  6
CONTINUOUS
 10
-13.5248370588
 20
1.0145518382
 11
-13.535242993
 21
1.0072711058
  0
LINE
  5
335
100
AcDbEntity
  8
RACCORDO
100
AcDbLine
 62
250
  6
CONTINUOUS
 10
-13.3092832981
 20
1.157165925
 11
-13.3149017656
 21
1.1532485575
  0
LINE
  5
336
100
AcDbEntity
  8
RACCORDO
100
AcDbLine
 62
250
  6
CONTINUOUS
 10
-13.5146771493
 20
1.0215819263
 11
-13.5248370588
 21
1.0145518382
  0
LINE
  5
337
100
AcDbEntity
  8
RACCORDO
100
AcDbLine
 62
250
  6
CONTINUOUS
 10
-13.3149017656
 20
1.1532485575
 11
-13.3206247288
 21
1.1492989603
  0
LINE
  5
338
100
AcDbEntity
  8
RACCORDO
100
AcDbLine
 62
250
  6
CONTINUOUS
 10
-13.5047558181
 20
1.0283759797
 11
-13.5146771493
 21
1.0215819263
  0
LINE
  5
339
100
AcDbEntity
  8
RACCORDO
100
AcDbLine
 62
250
  6
CONTINUOUS
 10
-13.3206247288
 20
1.1492989603
 11
-13.3276363239
 21
1.1445110952
  0
LINE
  5
33A
100
AcDbEntity
  8
RACCORDO
100
AcDbLine
 62
250
  6
CONTINUOUS
 10
-13.4931553703
 20
1.0362363991
 11
-13.5047558181
 21
1.0283759797
  0
LINE
  5
33B
100
AcDbEntity
  8
RACCORDO
100
AcDbLine
 62
250
  6
CONTINUOUS
 10
-13.3276363239
 20
1.1445110952
 11
-13.3348120812
 21
1.1396635492
  0
LINE
  5
33C
100
AcDbEntity
  8
RACCORDO
100
AcDbLine
 62
250
  6
CONTINUOUS
 10
-13.4818762815
 20
1.0437990666
 11
-13.4931553703
 21
1.0362363991
  0
LINE
  5
33D
100
AcDbEntity
  8
RACCORDO
100
AcDbLine
 62
250
  6
CONTINUOUS
 10
-13.3348120812
 20
1.1396635492
 11
-13.3434012823
 21
1.1339223533
  0
LINE
  5
33E
100
AcDbEntity
  8
RACCORDO
100
AcDbLine
 62
250
  6
CONTINUOUS
 10
-13.4691096348
 20
1.0522729757
 11
-13.4818762815
 21
1.0437990666
  0
LINE
  5
33F
100
AcDbEntity
  8
RACCORDO
100
AcDbLine
 62
250
  6
CONTINUOUS
 10
-13.3434012823
 20
1.1339223533
 11
-13.353518737
 21
1.1272322635
  0
LINE
  5
340
100
AcDbEntity
  8
RACCORDO
100
AcDbLine
 62
250
  6
CONTINUOUS
 10
-13.4550162863
 20
1.0615343348
 11
-13.4691096348
 21
1.0522729757
  0
LINE
  5
341
100
AcDbEntity
  8
RACCORDO
100
AcDbLine
 62
250
  6
CONTINUOUS
 10
-13.353518737
 20
1.1272322635
 11
-13.3653044893
 21
1.1195184183
  0
LINE
  5
342
100
AcDbEntity
  8
RACCORDO
100
AcDbLine
 62
250
  6
CONTINUOUS
 10
-13.4364596865
 20
1.0736080684
 11
-13.4550162863
 21
1.0615343348
  0
LINE
  5
343
100
AcDbEntity
  8
RACCORDO
100
AcDbLine
 62
250
  6
CONTINUOUS
 10
-13.3653044893
 20
1.1195184183
 11
-13.3803269805
 21
1.109775527
  0
LINE
  5
344
100
AcDbEntity
  8
RACCORDO
100
AcDbLine
 62
250
  6
CONTINUOUS
 10
-13.3803269805
 20
1.109775527
 11
-13.3902608881
 21
1.1033685199
  0
LINE
  5
345
100
AcDbEntity
  8
RACCORDO
100
AcDbLine
 62
250
  6
CONTINUOUS
 10
-13.4172396361
 20
1.0860134778
 11
-13.4364596865
 21
1.0736080684
  0
LINE
  5
346
100
AcDbEntity
  8
RACCORDO
100
AcDbLine
 62
250
  6
CONTINUOUS
 10
-13.3902608881
 20
1.1033685199
 11
-13.394611233
 21
1.1005680353
  0
LINE
  5
347
100
AcDbEntity
  8
RACCORDO
100
AcDbLine
 62
250
  6
CONTINUOUS
 10
-13.4125934532
 20
1.0890033427
 11
-13.4172396361
 21
1.0860134778
  0
LINE
  5
348
100
AcDbEntity
  8
RACCORDO
100
AcDbLine
 62
250
  6
CONTINUOUS
 10
-13.394611233
 20
1.1005680353
 11
-13.3975430538
 21
1.0986818401
  0
LWPOLYLINE
  5
349
100
AcDbEntity
  8
RACCORDO
100
AcDbPolyline
 62
250
  6
CONTINUOUS
 90
4
 70
0
 10
-13.3975430538
 20
1.0986818401
 10
-13.4005004668
 20
1.0967798329
 10
-13.4019889281
 20
1.0958226917
 10
-13.4080085308
 20
1.0919521396
  0
LWPOLYLINE
  5
34A
100
AcDbEntity
  8
RACCORDO
100
AcDbPolyline
 62
250
  6
CONTINUOUS
 90
3
 70
0
 10
-13.4080085308
 20
1.0919521396
 10
-13.4095301042
 20
1.0909736511
 10
-13.4125934532
 20
1.0890033427
  0
LWPOLYLINE
  5
34B
100
AcDbEntity
  8
RACCORDO
100
AcDbPolyline
 62
250
  6
CONTINUOUS
 90
10
 70
0
 10
-14.6916023077
 20
-5.4302004289
 10
-14.7027525262
 20
-5.4280292732
 10
-14.7138520819
 20
-5.4257967275
 10
-14.7249007504
 20
-5.4235016685
 10
-14.7359018293
 20
-5.4211412809
 10
-14.7468515881
 20
-5.4187161273
 10
-14.7577393769
 20
-5.416230229
 10
-14.768561642
 20
-5.4136842707
 10
-14.779321819
 20
-5.4110755211
 10
-14.7900198574
 20
-5.4084029592
  0
LINE
  5
34C
100
AcDbEntity
  8
RACCORDO
100
AcDbLine
 62
250
  6
CONTINUOUS
 10
11.8951966275
 20
-17.6557109341
 11
-13.2961074857
 21
0.1572310313
  0
LWPOLYLINE
  5
34D
100
AcDbEntity
  8
RACCORDO
100
AcDbPolyline
 62
250
  6
CONTINUOUS
 90
9
 70
0
 10
-14.7900198574
 20
22.597110766
 10
-14.7854445014
 20
22.5812919389
 10
-14.7807979502
 20
22.5655342162
 10
-14.7760813153
 20
22.5498382114
 10
-14.7712952308
 20
22.534200369
 10
-14.7664412931
 20
22.5186254533
 10
-14.7615221581
 20
22.5031264811
 10
-14.7565395722
 20
22.4877080996
 10
-14.7514942752
 20
22.4723666543
  0
LWPOLYLINE
  5
34E
100
AcDbEntity
  8
RACCORDO
100
AcDbPolyline
 62
250
  6
CONTINUOUS
 90
115
 70
0
 10
-14.319038549
 20
-0.8414453118
 10
-14.3132399629
 20
-0.8384091314
 10
-14.3073619289
 20
-0.835430484
 10
-14.3014055628
 20
-0.8325099352
 10
-14.2953719957
 20
-0.8296480396
 10
-14.2892623728
 20
-0.8268453403
 10
-14.2830778543
 20
-0.8241023696
 10
-14.2768196142
 20
-0.8214196482
 10
-14.2704888408
 20
-0.8187976854
 10
-14.264086736
 20
-0.816236979
 10
-14.2576145151
 20
-0.8137380152
 10
-14.2510734071
 20
-0.8113012685
 10
-14.2444646538
 20
-0.8089272014
 10
-14.2377895099
 20
-0.8066162648
 10
-14.2310492427
 20
-0.8043688972
 10
-14.2242451319
 20
-0.8021855255
 10
-14.2173784692
 20
-0.8000665641
 10
-14.2104505585
 20
-0.7980124153
 10
-14.2034627148
 20
-0.7960234692
 10
-14.1964162651
 20
-0.7941001033
 10
-14.1893125469
 20
-0.7922426828
 10
-14.1821529091
 20
-0.7904515603
 10
-14.174938711
 20
-0.7887270759
 10
-14.1676713221
 20
-0.7870695571
 10
-14.1603521222
 20
-0.7854793184
 10
-14.152982501
 20
-0.7839566618
 10
-14.1455638575
 20
-0.7825018764
 10
-14.1380976003
 20
-0.7811152384
 10
-14.1305851469
 20
-0.779797011
 10
-14.1230279236
 20
-0.7785474445
 10
-14.115427365
 20
-0.7773667763
 10
-14.1077849143
 20
-0.7762552303
 10
-14.1001020224
 20
-0.7752130176
 10
-14.0923801479
 20
-0.7742403362
 10
-14.0846207569
 20
-0.7733373707
 10
-14.0768253226
 20
-0.7725042925
 10
-14.0689953249
 20
-0.7717412597
 10
-14.0611322504
 20
-0.7710484173
 10
-14.053237592
 20
-0.7704258968
 10
-14.0453128484
 20
-0.7698738164
 10
-14.0373595244
 20
-0.7693922809
 10
-14.0293791298
 20
-0.7689813816
 10
-14.0213731797
 20
-0.7686411967
 10
-14.0133431942
 20
-0.7683717908
 10
-14.0052906978
 20
-0.7681732148
 10
-13.9972172193
 20
-0.7680455067
 10
-13.9891242914
 20
-0.7679886905
 10
-13.9810134507
 20
-0.7680027772
 10
-13.9728862371
 20
-0.7680877639
 10
-13.9647441935
 20
-0.7682436346
 10
-13.9565888658
 20
-0.7684703598
 10
-13.9484218023
 20
-0.7687678963
 10
-13.9402445536
 20
-0.7691361876
 10
-13.9320586721
 20
-0.7695751638
 10
-13.923865712
 20
-0.7700847417
 10
-13.9156672288
 20
-0.7706648244
 10
-13.9074647789
 20
-0.7713153018
 10
-13.8992599198
 20
-0.7720360505
 10
-13.8910542091
 20
-0.7728269335
 10
-13.8828492046
 20
-0.7736878007
 10
-13.8746464643
 20
-0.7746184888
 10
-13.8664475454
 20
-0.7756188209
 10
-13.8582540045
 20
-0.7766886072
 10
-13.8500673972
 20
-0.7778276445
 10
-13.8418892778
 20
-0.7790357167
 10
-13.8337211989
 20
-0.7803125943
 10
-13.8255647114
 20
-0.781658035
 10
-13.8174213637
 20
-0.7830717832
 10
-13.8092927019
 20
-0.7845535706
 10
-13.8011802693
 20
-0.7861031159
 10
-13.7930856061
 20
-0.7877201249
 10
-13.7850102491
 20
-0.7894042905
 10
-13.7769557314
 20
-0.7911552931
 10
-13.7689235823
 20
-0.7929728001
 10
-13.7609153266
 20
-0.7948564666
 10
-13.7529324848
 20
-0.7968059348
 10
-13.7449765726
 20
-0.7988208348
 10
-13.7370491002
 20
-0.8009007839
 10
-13.729151573
 20
-0.8030453872
 10
-13.7212854901
 20
-0.8052542376
 10
-13.7134523451
 20
-0.8075269158
 10
-13.705653625
 20
-0.8098629901
 10
-13.6978908106
 20
-0.8122620173
 10
-13.6901653757
 20
-0.8147235416
 10
-13.6824787869
 20
-0.8172470959
 10
-13.6748325037
 20
-0.819832201
 10
-13.6672279776
 20
-0.8224783662
 10
-13.6596666525
 20
-0.8251850889
 10
-13.6521499638
 20
-0.8279518554
 10
-13.6446793388
 20
-0.8307781404
 10
-13.6372561958
 20
-0.8336634072
 10
-13.629881944
 20
-0.8366071081
 10
-13.6225579835
 20
-0.8396086842
 10
-13.6152857048
 20
-0.8426675657
 10
-13.6080664885
 20
-0.8457831717
 10
-13.6009017054
 20
-0.8489549109
 10
-13.5937927156
 20
-0.8521821809
 10
-13.5867408689
 20
-0.8554643692
 10
-13.579747504
 20
-0.8588008525
 10
-13.5728139488
 20
-0.8621909974
 10
-13.5659415195
 20
-0.8656341602
 10
-13.559131521
 20
-0.8691296874
 10
-13.5523852461
 20
-0.8726769151
 10
-13.5457039758
 20
-0.87627517
 10
-13.5390889783
 20
-0.879923769
 10
-13.5325415097
 20
-0.8836220192
 10
-13.5260628131
 20
-0.8873692186
 10
-13.5196541184
 20
-0.8911646557
 10
-13.5133166423
 20
-0.89500761
 10
-13.5070515881
 20
-0.8988973518
 10
-13.5008601452
 20
-0.9028331427
 10
-13.4947434892
 20
-0.9068142355
 10
-13.4887027812
 20
-0.9108398742
 10
-13.4827391682
 20
-0.9149092947
 10
-13.4768537823
 20
-0.9190217242
  0
LWPOLYLINE
  5
34F
100
AcDbEntity
  8
RACCORDO
100
AcDbPolyline
 62
250
  6
CONTINUOUS
 90
115
 70
0
 10
-14.1358823017
 20
0.2491574804
 10
-14.1301169265
 20
0.2519959097
 10
-14.1242720957
 20
0.2547768503
 10
-14.1183489191
 20
0.2574997741
 10
-14.1123485209
 20
0.2601641663
 10
-14.1062720405
 20
0.2627695189
 10
-14.100120633
 20
0.2653153308
 10
-14.0938954664
 20
0.2678011165
 10
-14.0875977224
 20
0.2702264062
 10
-14.0812285965
 20
0.2725907393
 10
-14.0747892981
 20
0.274893667
 10
-14.0682810496
 20
0.277134752
 10
-14.0617050867
 20
0.2793135689
 10
-14.0550626579
 20
0.2814297039
 10
-14.0483550243
 20
0.2834827554
 10
-14.0415834592
 20
0.2854723335
 10
-14.0347492485
 20
0.2873980605
 10
-14.0278536895
 20
0.2892595707
 10
-14.0208980915
 20
0.2910565108
 10
-14.013883775
 20
0.2927885396
 10
-14.0068120717
 20
0.2944553281
 10
-13.9996843242
 20
0.2960565601
 10
-13.9925018857
 20
0.2975919314
 10
-13.98526612
 20
0.2990611505
 10
-13.9779784007
 20
0.3004639386
 10
-13.9706401114
 20
0.3018000293
 10
-13.9632526454
 20
0.303069169
 10
-13.9558174052
 20
0.3042711166
 10
-13.9483358024
 20
0.305405644
 10
-13.9408092575
 20
0.3064725358
 10
-13.9332391994
 20
0.3074715894
 10
-13.9256270654
 20
0.3084026152
 10
-13.9179743005
 20
0.3092654364
 10
-13.9102823579
 20
0.3100598891
 10
-13.9025526977
 20
0.3107858225
 10
-13.8947867876
 20
0.3114430989
 10
-13.8869861019
 20
0.3120315933
 10
-13.8791521217
 20
0.3125511941
 10
-13.8712863342
 20
0.3130018026
 10
-13.8633902329
 20
0.3133833332
 10
-13.8554653168
 20
0.3136957136
 10
-13.8475130906
 20
0.3139388844
 10
-13.839535064
 20
0.3141127994
 10
-13.8315327516
 20
0.3142174256
 10
-13.8235076729
 20
0.3142527432
 10
-13.8154613513
 20
0.3142187454
 10
-13.8073953146
 20
0.3141154387
 10
-13.799311094
 20
0.3139428427
 10
-13.7912102245
 20
0.3137009902
 10
-13.783094244
 20
0.313389927
 10
-13.7749646933
 20
0.3130097124
 10
-13.7668231161
 20
0.3125604183
 10
-13.7586710578
 20
0.3120421302
 10
-13.7505100664
 20
0.3114549464
 10
-13.7423416911
 20
0.3107989785
 10
-13.7341674828
 20
0.3100743509
 10
-13.7259889934
 20
0.3092812012
 10
-13.7178077756
 20
0.30841968
 10
-13.7096253827
 20
0.3074899509
 10
-13.7014433682
 20
0.3064921903
 10
-13.6932632854
 20
0.3054265878
 10
-13.6850866875
 20
0.3042933456
 10
-13.6769151267
 20
0.3030926789
 10
-13.6687501544
 20
0.3018248156
 10
-13.660593321
 20
0.3004899965
 10
-13.6524461748
 20
0.2990884749
 10
-13.6443102629
 20
0.297620517
 10
-13.6361871297
 20
0.2960864015
 10
-13.6280783175
 20
0.2944864195
 10
-13.6199853659
 20
0.2928208749
 10
-13.6119098113
 20
0.291090084
 10
-13.6038531868
 20
0.2892943752
 10
-13.5958170222
 20
0.2874340895
 10
-13.587802843
 20
0.2855095802
 10
-13.5798121709
 20
0.2835212125
 10
-13.5718465229
 20
0.281469364
 10
-13.5639074113
 20
0.2793544243
 10
-13.5559963434
 20
0.2771767949
 10
-13.5481148212
 20
0.2749368891
 10
-13.5402643411
 20
0.2726351324
 10
-13.5324463934
 20
0.2702719616
 10
-13.5246624624
 20
0.2678478255
 10
-13.5169140261
 20
0.2653631843
 10
-13.5092025554
 20
0.2628185096
 10
-13.5015295145
 20
0.2602142847
 10
-13.49389636
 20
0.257551004
 10
-13.4863045413
 20
0.254829173
 10
-13.4787554995
 20
0.2520493086
 10
-13.4712506681
 20
0.2492119386
 10
-13.4637914718
 20
0.2463176015
 10
-13.4563793267
 20
0.243366847
 10
-13.4490156401
 20
0.2403602352
 10
-13.4417018101
 20
0.237298337
 10
-13.4344392252
 20
0.2341817336
 10
-13.4272292642
 20
0.2310110169
 10
-13.4200732961
 20
0.2277867887
 10
-13.4129726794
 20
0.2245096612
 10
-13.4059287621
 20
0.2211802566
 10
-13.3989428817
 20
0.217799207
 10
-13.3920163644
 20
0.2143671544
 10
-13.3851505253
 20
0.2108847502
 10
-13.3783466679
 20
0.2073526557
 10
-13.3716060839
 20
0.2037715414
 10
-13.3649300531
 20
0.2001420873
 10
-13.3583198429
 20
0.1964649824
 10
-13.3517767084
 20
0.1927409249
 10
-13.3453018918
 20
0.1889706217
 10
-13.3388966223
 20
0.1851547887
 10
-13.3325621161
 20
0.1812941503
 10
-13.3262995757
 20
0.1773894395
 10
-13.3201101902
 20
0.1734413977
 10
-13.3139951347
 20
0.1694507743
 10
-13.3079555701
 20
0.1654183271
 10
-13.301992643
 20
0.1613448217
 10
-13.2961074857
 20
0.1572310313
  0
LINE
  5
350
100
AcDbEntity
  8
RACCORDO
100
AcDbLine
 62
250
  6
CONTINUOUS
 10
11.8530418976
 20
-16.699754952
 11
-13.2341501289
 21
1.0395686508
  0
LINE
  5
351
100
AcDbEntity
  8
0
100
AcDbLine
 62
7
  6
CONTINUOUS
 10
11.8289391136
 20
-16.0688297215
 11
-13.1889787416
 21
1.6215096451
  0
LWPOLYLINE
  5
352
100
AcDbEntity
  8
RACCORDO
100
AcDbPolyline
 62
250
  6
CONTINUOUS
 90
10
 70
0
 10
12.5750125744
 20
-24.7584029592
 10
12.5633304294
 20
-24.7452503382
 10
12.5517344243
 20
-24.7320508784
 10
12.5402245088
 20
-24.718805601
 10
12.5287970563
 20
-24.7055122458
 10
12.517455575
 20
-24.6921751196
 10
12.5062105998
 20
-24.678805176
 10
12.4950654623
 20
-24.6654068435
 10
12.4840163983
 20
-24.651977946
 10
12.4730631838
 20
-24.6385196065
  0
LWPOLYLINE
  5
353
100
AcDbEntity
  8
RACCORDO
100
AcDbPolyline
 62
250
  6
CONTINUOUS
 90
83
 70
0
 10
-14.7514942752
 20
22.4723666543
 10
-14.7448918747
 20
22.4526206797
 10
-14.7433860403
 20
22.4479843248
 10
-14.7418698628
 20
22.4431937159
 10
-14.7403453851
 20
22.4382611881
 10
-14.7388102975
 20
22.433174699
 10
-14.7372578417
 20
22.427897908
 10
-14.7356868876
 20
22.4224306261
 10
-14.7340980971
 20
22.4167735177
 10
-14.7324872471
 20
22.4108916544
 10
-14.7308535393
 20
22.4047857456
 10
-14.7291971669
 20
22.3984556989
 10
-14.7275152714
 20
22.3918654951
 10
-14.7258079136
 20
22.3850197911
 10
-14.7240743102
 20
22.3779146834
 10
-14.7223101974
 20
22.3705014439
 10
-14.7205152807
 20
22.3627848194
 10
-14.7186889469
 20
22.3547610276
 10
-14.7168262668
 20
22.3463687288
 10
-14.714925602
 20
22.3376072855
 10
-14.712987436
 20
22.3284785905
 10
-14.7110098401
 20
22.3189252855
 10
-14.70898977
 20
22.308937655
 10
-14.7069289144
 20
22.2985269456
 10
-14.7048323937
 20
22.2876673116
 10
-14.702697987
 20
22.2763485579
 10
-14.7005265888
 20
22.2645824831
 10
-14.6983281331
 20
22.2523761121
 10
-14.696104123
 20
22.2397384397
 10
-14.6938519874
 20
22.2266619127
 10
-14.6915756925
 20
22.2131286079
 10
-14.6892775201
 20
22.1991574195
 10
-14.6869541886
 20
22.1847309218
 10
-14.6846012217
 20
22.1697768434
 10
-14.6822175892
 20
22.1542980064
 10
-14.6798030424
 20
22.1382934869
 10
-14.6773540309
 20
22.121685703
 10
-14.6748691841
 20
22.1044754731
 10
-14.6723483511
 20
22.0866643198
 10
-14.6697895838
 20
22.0681760242
 10
-14.6671919602
 20
22.0490149644
 10
-14.6645546873
 20
22.0291795466
 10
-14.66187579
 20
22.0085849165
 10
-14.6591549661
 20
21.9872425001
 10
-14.6563905988
 20
21.9651441807
 10
-14.6535784474
 20
21.9421762346
 10
-14.6507169359
 20
21.9183425035
 10
-14.6478053809
 20
21.8936432612
 10
-14.6448405283
 20
21.8679599962
 10
-14.6418210495
 20
21.8412999243
 10
-14.6387457191
 20
21.8136608298
 10
-14.635611071
 20
21.7849106944
 10
-14.6324176862
 20
21.7550795674
 10
-14.6291621559
 20
21.7241434315
 10
-14.6258344677
 20
21.6918901909
 10
-14.6224310539
 20
21.6583154055
 10
-14.6189519759
 20
21.6234315206
 10
-14.6153920172
 20
21.5870530485
 10
-14.6117436125
 20
21.5491235713
 10
-14.6080103795
 20
21.5097095527
 10
-14.6042037656
 20
21.468810279
 10
-14.6003294944
 20
21.4265062597
 10
-14.596378743
 20
21.3827270164
 10
-14.5923409485
 20
21.3372461174
 10
-14.5882158879
 20
21.2900967871
 10
-14.5840003138
 20
21.2412587113
 10
-14.5796782907
 20
21.1904275354
 10
-14.5752505201
 20
21.1376562592
 10
-14.5707125375
 20
21.0829087144
 10
-14.5660395166
 20
21.0257505215
 10
-14.5612268943
 20
20.9661723736
 10
-14.5562750619
 20
20.9042068724
 10
-14.5511655632
 20
20.8394870231
 10
-14.5458986307
 20
20.7720520245
 10
-14.5404707107
 20
20.7018924172
 10
-14.5348569302
 20
20.628573464
 10
-14.5290379147
 20
20.5518394722
 10
-14.5230312694
 20
20.4719862821
 10
-14.5168684092
 20
20.3894072751
 10
-14.5105381366
 20
20.3038712748
 10
-14.5040555425
 20
20.215647604
 10
-14.4974942792
 20
20.125869966
 10
-14.4908635964
 20
20.0345444949
  0
LINE
  5
354
100
AcDbEntity
  8
DRAFT
100
AcDbLine
 62
7
  6
CONTINUOUS
 10
22.5906243864
 20
-15.622839761
 11
21.9895836224
 21
-15.197839761
  0
LWPOLYLINE
  5
355
100
AcDbEntity
  8
RACCORDO
100
AcDbPolyline
 62
250
  6
CONTINUOUS
 90
112
 70
0
 10
-14.6916023077
 20
22.4747300246
 10
-14.6883083563
 20
22.4692630643
 10
-14.6849805068
 20
22.4636377341
 10
-14.6816187146
 20
22.4578540668
 10
-14.678228509
 20
22.451925486
 10
-14.6748042682
 20
22.4458386358
 10
-14.6713292069
 20
22.4395533893
 10
-14.6678016789
 20
22.433068768
 10
-14.6642232012
 20
22.4263858451
 10
-14.6605817061
 20
22.4194675913
 10
-14.656876307
 20
22.4123140758
 10
-14.6531077182
 20
22.4049253559
 10
-14.6492662408
 20
22.397264408
 10
-14.6453530964
 20
22.3893357795
 10
-14.641366837
 20
22.3811350892
 10
-14.6372937148
 20
22.3726119525
 10
-14.6331344445
 20
22.3637707263
 10
-14.6288880046
 20
22.3546072792
 10
-14.6245379775
 20
22.3450585428
 10
-14.6200821416
 20
22.3351226166
 10
-14.615522294
 20
22.3248017134
 10
-14.6108479618
 20
22.3140389964
 10
-14.6060533414
 20
22.3028226723
 10
-14.601143665
 20
22.2911649553
 10
-14.5961249359
 20
22.2790450775
 10
-14.5909925862
 20
22.2664514008
 10
-14.5857504812
 20
22.2533960817
 10
-14.5804172307
 20
22.2398940762
 10
-14.5749968848
 20
22.2259552096
 10
-14.5694846105
 20
22.2115702354
 10
-14.563885652
 20
22.1967255327
 10
-14.5582065322
 20
22.181441102
 10
-14.552439818
 20
22.1656976171
 10
-14.5465697
 20
22.1494225561
 10
-14.540595089
 20
22.1326177715
 10
-14.5345158882
 20
22.1152822911
 10
-14.5283175774
 20
22.0973395045
 10
-14.5219982122
 20
22.0787890498
 10
-14.5155582129
 20
22.0596324227
 10
-14.5089863697
 20
22.0397959751
 10
-14.5022818206
 20
22.0192831108
 10
-14.4954435037
 20
21.9980918608
 10
-14.4884596242
 20
21.9761407317
 10
-14.4813310391
 20
21.9534403699
 10
-14.4740544677
 20
21.9299819418
 10
-14.4666115181
 20
21.9056550256
 10
-14.4589997913
 20
21.8804618989
 10
-14.4512185464
 20
21.8544026401
 10
-14.4432513683
 20
21.8273639117
 10
-14.4350963081
 20
21.7993513726
 10
-14.4267513004
 20
21.7703623869
 10
-14.4181991222
 20
21.7402716518
 10
-14.409443078
 20
21.7091081199
 10
-14.4004747653
 20
21.6768466935
 10
-14.3912584463
 20
21.6432817154
 10
-14.3817858398
 20
21.6084055791
 10
-14.3720583073
 20
21.572231145
 10
-14.3620533253
 20
21.5345844066
 10
-14.3517492583
 20
21.4954049945
 10
-14.3411586706
 20
21.4547602004
 10
-14.3303095045
 20
21.4126681525
 10
-14.3192159601
 20
21.369209786
 10
-14.3078538439
 20
21.3243118499
 10
-14.2961923794
 20
21.277762068
 10
-14.2842284671
 20
21.2295906453
 10
-14.2719521775
 20
21.1797774556
 10
-14.2593200733
 20
21.128036594
 10
-14.2463294232
 20
21.0744167555
 10
-14.2329657416
 20
21.0188826526
 10
-14.219164232
 20
20.9610253048
 10
-14.204902044
 20
20.9008290105
 10
-14.1901780767
 20
20.8383282535
 10
-14.1749554572
 20
20.7731930165
 10
-14.1592178468
 20
20.7054558063
 10
-14.1429502942
 20
20.6351088801
 10
-14.1261123752
 20
20.5617663153
 10
-14.1086188939
 20
20.4851688213
 10
-14.0905123346
 20
20.4056098217
 10
-14.0719422156
 20
20.323533823
 10
-14.0528428656
 20
20.2387173963
 10
-14.0332370644
 20
20.1514188576
 10
-14.0134167217
 20
20.062797792
 10
-13.9933840163
 20
19.9728725397
 10
-13.9731087069
 20
19.8816484395
 10
-13.9528509925
 20
19.7902521872
 10
-13.9326717856
 20
19.6989475889
 10
-13.9125006448
 20
19.6074799716
 10
-13.8924124793
 20
19.5161889196
 10
-13.8724084928
 20
19.4250841702
 10
-13.8524820862
 20
19.3341619003
 10
-13.8327019711
 20
19.2437368907
 10
-13.8130720166
 20
19.153816018
 10
-13.7935883668
 20
19.0643939388
 10
-13.7743134627
 20
18.9757627263
 10
-13.7552596656
 20
18.8879560047
 10
-13.736419994
 20
18.8009371948
 10
-13.7178321594
 20
18.7148894804
 10
-13.699502847
 20
18.6298138971
 10
-13.6814338589
 20
18.5457037362
 10
-13.6636588337
 20
18.4627277951
 10
-13.6461875486
 20
18.3808927079
 10
-13.6290217368
 20
18.3001834428
 10
-13.6121858064
 20
18.2207338427
 10
-13.5956916782
 20
18.1425556346
 10
-13.579541248
 20
18.0656265145
 10
-13.5637459469
 20
17.9900274556
 10
-13.5483155546
 20
17.9157578294
 10
-13.5332552766
 20
17.8428064468
 10
-13.5185711226
 20
17.7712371333
 10
-13.5042706805
 20
17.7010666301
 10
-13.4903623205
 20
17.6322652885
 10
-13.4768537823
 20
17.5648268042
  0
LWPOLYLINE
  5
356
100
AcDbEntity
  8
RACCORDO
100
AcDbPolyline
 62
250
  6
CONTINUOUS
 90
99
 70
0
 10
12.4730631838
 20
-24.6385196065
 10
12.4691186668
 20
-24.6314622123
 10
12.4652563821
 20
-24.6244039326
 10
12.4614763518
 20
-24.6173447524
 10
12.4577959065
 20
-24.6103119393
 10
12.4541977569
 20
-24.6032781976
 10
12.4506300144
 20
-24.5961616547
 10
12.4470886279
 20
-24.5889614728
 10
12.4435777324
 20
-24.5816784326
 10
12.4400577589
 20
-24.5742330616
 10
12.4365259782
 20
-24.5666250494
 10
12.4329852561
 20
-24.5588546137
 10
12.4294044677
 20
-24.5508430385
 10
12.425781359
 20
-24.5425897193
 10
12.4221183911
 20
-24.53409512
 10
12.4183915749
 20
-24.5252820846
 10
12.4145989185
 20
-24.5161495577
 10
12.4107427144
 20
-24.5066983905
 10
12.4068054773
 20
-24.4968542341
 10
12.4027845962
 20
-24.4866131577
 10
12.3986831051
 20
-24.4759788052
 10
12.3944920751
 20
-24.4648881296
 10
12.3902047608
 20
-24.4533228678
 10
12.3858284822
 20
-24.4413008935
 10
12.38137548
 20
-24.4288133174
 10
12.3768440507
 20
-24.4158518226
 10
12.3722365805
 20
-24.4024242642
 10
12.3675714777
 20
-24.3885459892
 10
12.3628544642
 20
-24.3742312881
 10
12.3580805716
 20
-24.3594653621
 10
12.3532522203
 20
-24.3442198909
 10
12.3483744154
 20
-24.3285110367
 10
12.3434430525
 20
-24.3123220311
 10
12.3384470173
 20
-24.2955750713
 10
12.333385835
 20
-24.2782697218
 10
12.328261157
 20
-24.2604056278
 10
12.3230652556
 20
-24.2419049745
 10
12.3177977596
 20
-24.2227663784
 10
12.3124605454
 20
-24.2029902144
 10
12.3070494849
 20
-24.1825011519
 10
12.3015657519
 20
-24.1613027042
 10
12.2960100647
 20
-24.1393900937
 10
12.2903778931
 20
-24.1166753659
 10
12.2846716937
 20
-24.0931674828
 10
12.2788913989
 20
-24.0688558913
 10
12.2730290793
 20
-24.043623106
 10
12.267085123
 20
-24.0174686439
 10
12.2610622386
 20
-23.9903909329
 10
12.2549564797
 20
-23.9622705215
 10
12.2487696479
 20
-23.9331114024
 10
12.2425038921
 20
-23.9029069718
 10
12.2361564093
 20
-23.8715214727
 10
12.2297334986
 20
-23.8389824379
 10
12.2232338815
 20
-23.8052590315
 10
12.2166443386
 20
-23.770127319
 10
12.2099631335
 20
-23.7335694236
 10
12.2031988443
 20
-23.6955987415
 10
12.196354936
 20
-23.6560374542
 10
12.1894247376
 20
-23.6148198418
 10
12.1824238049
 20
-23.5720058402
 10
12.1753897339
 20
-23.527605607
 10
12.168339495
 20
-23.4816991239
 10
12.1612659023
 20
-23.4342000962
 10
12.1541714413
 20
-23.3848685483
 10
12.147062603
 20
-23.3337250712
 10
12.1399457012
 20
-23.2807408704
 10
12.1328253411
 20
-23.225600364
 10
12.1257107228
 20
-23.1683442833
 10
12.1186095448
 20
-23.1089211578
 10
12.1115278201
 20
-23.0468747713
 10
12.1044682565
 20
-22.9821697494
 10
12.09745167
 20
-22.9148266435
 10
12.0905158345
 20
-22.8444702272
 10
12.0836723769
 20
-22.7711240277
 10
12.0769403082
 20
-22.694745433
 10
12.0703741253
 20
-22.6148565006
 10
12.0639713368
 20
-22.5311884637
 10
12.0577764382
 20
-22.4439842422
 10
12.0519170932
 20
-22.3535318507
 10
12.0464047939
 20
-22.2594881763
 10
12.0412729293
 20
-22.1621692954
 10
12.0366733435
 20
-22.0628575536
 10
12.0326376282
 20
-21.9615157321
 10
12.0291643439
 20
-21.8581637479
 10
12.0263379527
 20
-21.7541807626
 10
12.024181885
 20
-21.649897534
 10
12.0226823062
 20
-21.5449789276
 10
12.021855097
 20
-21.4398130584
 10
12.0217059692
 20
-21.334407263
 10
12.0222347591
 20
-21.2287524059
 10
12.0234429376
 20
-21.1232152747
 10
12.0253334915
 20
-21.0178038963
 10
12.0279035003
 20
-20.9125117593
 10
12.0311401918
 20
-20.8076870245
 10
12.0350419757
 20
-20.7033732822
 10
12.0396050882
 20
-20.5995315922
 10
12.0448091621
 20
-20.4963888243
 10
12.0506516528
 20
-20.3939528818
 10
12.0522603975
 20
-20.3686771821
  0
LWPOLYLINE
  5
357
100
AcDbEntity
  8
RACCORDO
100
AcDbPolyline
 62
250
  6
CONTINUOUS
 90
103
 70
0
 10
-14.6916032795
 20
-5.4301997417
 10
-14.6884657563
 20
-5.4292212226
 10
-14.6852848918
 20
-5.4281262582
 10
-14.6820606429
 20
-5.426914819
 10
-14.6788144037
 20
-5.4256030112
 10
-14.675524695
 20
-5.4241746705
 10
-14.6721271287
 20
-5.4225813386
 10
-14.6685968183
 20
-5.4208149653
 10
-14.6649584693
 20
-5.4188834774
 10
-14.6612220361
 20
-5.4167623513
 10
-14.6573916771
 20
-5.4144541395
 10
-14.6534630136
 20
-5.4119561395
 10
-14.6494331629
 20
-5.4092359239
 10
-14.6453047435
 20
-5.4062969527
 10
-14.6410748452
 20
-5.4031355675
 10
-14.6367322376
 20
-5.3997086259
 10
-14.6322779117
 20
-5.396019695
 10
-14.6277104765
 20
-5.3920649359
 10
-14.6230150448
 20
-5.3877900408
 10
-14.6181909542
 20
-5.3831976893
 10
-14.6132383106
 20
-5.3782848243
 10
-14.6081432634
 20
-5.3729884535
 10
-14.6029043298
 20
-5.3673102808
 10
-14.5975222249
 20
-5.3612480823
 10
-14.5919862452
 20
-5.3547328738
 10
-14.5862952946
 20
-5.3477664976
 10
-14.5804494294
 20
-5.3403464082
 10
-14.5744394869
 20
-5.3323969126
 10
-14.5682650359
 20
-5.3239208684
 10
-14.5619251179
 20
-5.3149144801
 10
-14.5554095371
 20
-5.3052919105
 10
-14.5487176575
 20
-5.2950562964
 10
-14.5418482653
 20
-5.2842032557
 10
-14.534789979
 20
-5.2726354597
 10
-14.5275418988
 20
-5.2603563699
 10
-14.5201024728
 20
-5.2473608792
 10
-14.5124589244
 20
-5.2335385268
 10
-14.5046099007
 20
-5.2188929423
 10
-14.4965535172
 20
-5.2034183304
 10
-14.4882756571
 20
-5.1869897303
 10
-14.479774477
 20
-5.1696111447
 10
-14.4710475633
 20
-5.1512757342
 10
-14.4620792378
 20
-5.1318418058
 10
-14.4528670547
 20
-5.1113138618
 10
-14.4434078819
 20
-5.0896836998
 10
-14.4336840952
 20
-5.0667899632
 10
-14.423692549
 20
-5.0426380822
 10
-14.4134291002
 20
-5.0172178168
 10
-14.4028734321
 20
-4.990343519
 10
-14.3920214986
 20
-4.9620221609
 10
-14.3808678318
 20
-4.9322405301
 10
-14.3693884077
 20
-4.9007816715
 10
-14.3575774941
 20
-4.8676533591
 10
-14.3454283852
 20
-4.8328397176
 10
-14.3329135116
 20
-4.7960869643
 10
-14.320025982
 20
-4.7574074637
 10
-14.3067564196
 20
-4.7167783399
 10
-14.293070716
 20
-4.6738911403
 10
-14.2789568774
 20
-4.6287530525
 10
-14.2644054311
 20
-4.5813431444
 10
-14.2493823263
 20
-4.5313084084
 10
-14.2338815657
 20
-4.4786952337
 10
-14.2178811066
 20
-4.4234394699
 10
-14.201317292
 20
-4.3650187998
 10
-14.1841228773
 20
-4.3032679187
 10
-14.1663256827
 20
-4.2383274339
 10
-14.1480004776
 20
-4.1701313346
 10
-14.1290524163
 20
-4.0983474924
 10
-14.1095306358
 20
-4.023279904
 10
-14.0897323201
 20
-3.945820962
 10
-14.0696770837
 20
-3.8660264261
 10
-14.049313079
 20
-3.7838214928
 10
-14.0288437102
 20
-3.6999112495
 10
-14.0082917595
 20
-3.6143847237
 10
-13.9876133784
 20
-3.5271412347
 10
-13.9669220074
 20
-3.4386075825
 10
-13.9462174777
 20
-3.3487859943
 10
-13.9254855415
 20
-3.2576669806
 10
-13.9048260914
 20
-3.1656644488
 10
-13.8842446368
 20
-3.0727966299
 10
-13.8637286364
 20
-2.9790426942
 10
-13.8433578545
 20
-2.8847621692
 10
-13.8231394879
 20
-2.7899734335
 10
-13.803065683
 20
-2.6946593853
 10
-13.7831995169
 20
-2.5991298259
 10
-13.7635498166
 20
-2.5034033684
 10
-13.7441124401
 20
-2.4074657828
 10
-13.7249358658
 20
-2.3115804187
 10
-13.7060300404
 20
-2.2157648478
 10
-13.6873939636
 20
-2.1200082288
 10
-13.6690635889
 20
-2.0245334927
 10
-13.6510495934
 20
-1.9293565065
 10
-13.633353509
 20
-1.834469809
 10
-13.6160006407
 20
-1.7400630245
 10
-13.5990017065
 20
-1.6461473965
 10
-13.5823605837
 20
-1.5527211975
 10
-13.5660947701
 20
-1.459955901
 10
-13.5502167712
 20
-1.3678696403
 10
-13.5347305224
 20
-1.2764545598
 10
-13.5196425058
 20
-1.1858440921
 10
-13.5049610234
 20
-1.0960864088
 10
-13.4906952878
 20
-1.0071439266
 10
-13.4768537823
 20
-0.9190217242
  0
LWPOLYLINE
  5
358
100
AcDbEntity
  8
RACCORDO
100
AcDbPolyline
 62
250
  6
CONTINUOUS
 90
10
 70
0
 10
-14.7900198574
 20
22.597110766
 10
-14.7793218147
 20
22.5832622874
 10
-14.7685616991
 20
22.569471893
 10
-14.7577395622
 20
22.555740532
 10
-14.7468520572
 20
22.5420659102
 10
-14.7359026529
 20
22.5284521986
 10
-14.7249017354
 20
22.5149099646
 10
-14.7138529422
 20
22.501443257
 10
-14.7027530595
 20
22.4880496741
 10
-14.6916023077
 20
22.4747300246
  0
LWPOLYLINE
  5
359
100
AcDbEntity
  8
RACCORDO
100
AcDbPolyline
 62
250
  6
CONTINUOUS
 90
10
 70
0
 10
12.5750125745
 20
-24.7584029592
 10
12.5684010303
 20
-24.7440239278
 10
12.5618688577
 20
-24.7295994265
 10
12.5554168827
 20
-24.7151302708
 10
12.5490448159
 20
-24.7006134124
 10
12.5427545725
 20
-24.6860535359
 10
12.5365501566
 20
-24.6714631415
 10
12.5304332873
 20
-24.6568470413
 10
12.5244035136
 20
-24.6422022773
 10
12.5184614532
 20
-24.6275297748
  0
LWPOLYLINE
  5
35A
100
AcDbEntity
  8
RACCORDO
100
AcDbPolyline
 62
250
  6
CONTINUOUS
 90
74
 70
0
 10
12.5184614532
 20
-24.6275297748
 10
12.5162962967
 20
-24.6220563817
 10
12.5141706414
 20
-24.6165545717
 10
12.5120839154
 20
-24.6110247657
 10
12.5100444583
 20
-24.6054879543
 10
12.5080427207
 20
-24.5999240083
 10
12.5060517076
 20
-24.5942714047
 10
12.504069869
 20
-24.5885307263
 10
12.5020984776
 20
-24.5827016512
 10
12.5001154833
 20
-24.5767208637
 10
12.4981200983
 20
-24.5705887389
 10
12.496113455
 20
-24.5643047874
 10
12.4940769559
 20
-24.557804057
 10
12.4920102283
 20
-24.5510864165
 10
12.4899145345
 20
-24.5441515787
 10
12.4877742207
 20
-24.5369340794
 10
12.4855892159
 20
-24.5294332181
 10
12.4833609951
 20
-24.5216490137
 10
12.4810766515
 20
-24.5135168475
 10
12.4787358715
 20
-24.5050334508
 10
12.4763408792
 20
-24.4962011755
 10
12.473882919
 20
-24.4869636573
 10
12.4713591342
 20
-24.4773053649
 10
12.4687747555
 20
-24.4672407249
 10
12.4661332346
 20
-24.4567582839
 10
12.4634342873
 20
-24.445850573
 10
12.4606805431
 20
-24.4345240424
 10
12.4578795899
 20
-24.422788254
 10
12.4550355323
 20
-24.4106550137
 10
12.452146348
 20
-24.3981116974
 10
12.4492103011
 20
-24.3851313035
 10
12.4462315274
 20
-24.371727606
 10
12.4432081448
 20
-24.3578859942
 10
12.4401296574
 20
-24.3435367774
 10
12.4369972792
 20
-24.3286796544
 10
12.4338127065
 20
-24.3133138587
 10
12.4305666322
 20
-24.2973688052
 10
12.4272605003
 20
-24.280843342
 10
12.4238964124
 20
-24.2637373662
 10
12.4204664881
 20
-24.2459816933
 10
12.4169733531
 20
-24.2275794551
 10
12.4134185586
 20
-24.2085261142
 10
12.4097930939
 20
-24.1887408047
 10
12.4061008056
 20
-24.1682315561
 10
12.4023428178
 20
-24.1469887538
 10
12.3985067126
 20
-24.1249048241
 10
12.3945954708
 20
-24.101979683
 10
12.3906122776
 20
-24.0782115443
 10
12.3865458582
 20
-24.0534899978
 10
12.3824005371
 20
-24.0278190603
 10
12.3781794292
 20
-24.0011926045
 10
12.3738703968
 20
-23.9734847077
 10
12.369481673
 20
-23.9447206044
 10
12.365013975
 20
-23.9148727116
 10
12.3604454352
 20
-23.8837354137
 10
12.3557797954
 20
-23.8512941269
 10
12.3510252154
 20
-23.817560497
 10
12.3461683045
 20
-23.782367739
 10
12.3412087802
 20
-23.7456586654
 10
12.3361615993
 20
-23.7074871981
 10
12.33103681
 20
-23.6678531492
 10
12.3258512041
 20
-23.626830057
 10
12.3206025286
 20
-23.5843417874
 10
12.3152733981
 20
-23.5401634756
 10
12.3098757418
 20
-23.494317145
 10
12.3044163696
 20
-23.4467778139
 10
12.2988737155
 20
-23.3972494102
 10
12.293264439
 20
-23.3457738682
 10
12.2875961558
 20
-23.2923060101
 10
12.2818391371
 20
-23.2364181396
 10
12.2760075297
 20
-23.1780859811
 10
12.2701206665
 20
-23.1173301289
 10
12.2641630819
 20
-23.0537892918
 10
12.2586138792
 20
-22.9926047059
  0
LINE
  5
35B
100
AcDbEntity
  8
RACCORDO
100
AcDbLine
 62
250
  6
CONTINUOUS
 10
12.5184614532
 20
3.1779430413
 11
12.5304337603
 21
3.1929042424
  0
LINE
  5
35C
100
AcDbEntity
  8
RACCORDO
100
AcDbLine
 62
250
  6
CONTINUOUS
 10
12.5304337603
 20
3.1929042424
 11
12.5427550441
 21
3.2081075516
  0
LINE
  5
35D
100
AcDbEntity
  8
RACCORDO
100
AcDbLine
 62
250
  6
CONTINUOUS
 10
12.5427550441
 20
3.2081075516
 11
12.5554169943
 21
3.2235504059
  0
LWPOLYLINE
  5
35E
100
AcDbEntity
  8
RACCORDO
100
AcDbPolyline
 62
250
  6
CONTINUOUS
 90
3
 70
0
 10
12.5554169943
 20
3.2235504059
 10
12.5684010285
 20
3.239202264
 10
12.5750125745
 20
3.247110766
  0
LWPOLYLINE
  5
35F
100
AcDbEntity
  8
RACCORDO
100
AcDbPolyline
 62
250
  6
CONTINUOUS
 90
10
 70
0
 10
12.4730631838
 20
3.266410847
 10
12.4840169253
 20
3.2641002666
 10
12.4950663237
 20
3.2618319468
 10
12.5062115993
 20
3.2596050789
 10
12.5174564217
 20
3.2574171951
 10
12.5287975447
 20
3.2552691158
 10
12.5402247039
 20
3.2531648816
 10
12.551734485
 20
3.251105191
 10
12.5633304246
 20
3.2490874688
 10
12.5750125745
 20
3.2471107661
  0
LWPOLYLINE
  5
360
100
AcDbEntity
  8
RACCORDO
100
AcDbPolyline
 62
250
  6
CONTINUOUS
 90
55
 70
0
 10
-13.3343838097
 20
16.7097642887
 10
-13.3334455258
 20
16.7091134237
 10
-13.3312757095
 20
16.7077021474
 10
-13.3291223621
 20
16.7064278588
 10
-13.3269894245
 20
16.7052860841
 10
-13.3248786258
 20
16.7042713151
 10
-13.3227875396
 20
16.7033821012
 10
-13.3206999039
 20
16.7026107812
 10
-13.3186329337
 20
16.701961813
 10
-13.3166353196
 20
16.7014509281
 10
-13.314720939
 20
16.701077737
 10
-13.3128834813
 20
16.7008313993
 10
-13.3111457008
 20
16.7007066391
 10
-13.309526475
 20
16.7006991588
 10
-13.3080175843
 20
16.7007990429
 10
-13.3066019293
 20
16.7009917917
 10
-13.3052841083
 20
16.7012719919
 10
-13.3040675115
 20
16.7016347895
 10
-13.3029316366
 20
16.7020685496
 10
-13.301878157
 20
16.7025689767
 10
-13.3009112448
 20
16.703133069
 10
-13.3000126794
 20
16.7037529143
 10
-13.2991829265
 20
16.704425484
 10
-13.2984257364
 20
16.7051486593
 10
-13.2977267024
 20
16.7059172028
 10
-13.2970860487
 20
16.7067289235
 10
-13.2965066537
 20
16.7075822932
 10
-13.2959772985
 20
16.708473979
 10
-13.2954981043
 20
16.7094023663
 10
-13.2950712685
 20
16.7103663305
 10
-13.2946881101
 20
16.7113639192
 10
-13.2943486931
 20
16.7123939265
 10
-13.2940547063
 20
16.7134555096
 10
-13.2937994761
 20
16.7145477317
 10
-13.2935830299
 20
16.7156696802
 10
-13.293406675
 20
16.7168207177
 10
-13.2932653299
 20
16.7180006723
 10
-13.2931589889
 20
16.7192087956
 10
-13.2930886767
 20
16.720444654
 10
-13.2930505967
 20
16.7217088205
 10
-13.2930446955
 20
16.7230007167
 10
-13.2930717922
 20
16.724320026
 10
-13.2931291841
 20
16.7256679361
 10
-13.2932167764
 20
16.7270439856
 10
-13.2933352235
 20
16.7284479674
 10
-13.2934827638
 20
16.7298816334
 10
-13.2936592581
 20
16.7313446089
 10
-13.293865232
 20
16.7328367846
 10
-13.2940997608
 20
16.734360468
 10
-13.2943626609
 20
16.7359153668
 10
-13.2946543505
 20
16.7375014447
 10
-13.2949746636
 20
16.7391215306
 10
-13.2953235472
 20
16.7407765308
 10
-13.2957011379
 20
16.7424653573
 10
-13.317610712
 20
16.8340898838
  0
LINE
  5
361
100
AcDbEntity
  8
RACCORDO
100
AcDbLine
 62
7
  6
CONTINUOUS
 10
12.0400216164
 20
-1.2326498566
 11
-13.33572081
 21
16.7107060178
  0
LINE
  5
362
100
AcDbEntity
  8
RACCORDO
100
AcDbLine
 62
250
  6
CONTINUOUS
 10
12.0436399091
 20
-1.1737193036
 11
-13.2961074857
 21
16.7441879128
  0
LWPOLYLINE
  5
363
100
AcDbEntity
  8
RACCORDO
100
AcDbPolyline
 62
250
  6
CONTINUOUS
 90
97
 70
0
 10
12.5750125745
 20
-24.7584029592
 10
12.5477483585
 20
-24.4867984538
 10
12.5210565063
 20
-24.2147361469
 10
12.4949371214
 20
-23.9422170917
 10
12.4693903048
 20
-23.6692423432
 10
12.4444161553
 20
-23.3958129581
 10
12.4200147697
 20
-23.1219299946
 10
12.3961862425
 20
-22.8475945129
 10
12.3729306657
 20
-22.572807575
 10
12.3502481296
 20
-22.2975702447
 10
12.3281387219
 20
-22.0218835875
 10
12.3066025281
 20
-21.7457486705
 10
12.2856396317
 20
-21.4691665627
 10
12.2652501138
 20
-21.1921383348
 10
12.2454340533
 20
-20.914665059
 10
12.2261915269
 20
-20.6367478096
 10
12.2075226091
 20
-20.3583876622
 10
12.1894273722
 20
-20.0795856945
 10
12.1719058863
 20
-19.8003429858
 10
12.1549582191
 20
-19.5206606169
 10
12.1385844363
 20
-19.2405396706
 10
12.1227846012
 20
-18.9599812313
 10
12.1075587751
 20
-18.6789863849
 10
12.0929070168
 20
-18.3975562192
 10
12.078829383
 20
-18.1156918237
 10
12.0653259284
 20
-17.8333942894
 10
12.052396705
 20
-17.5506647092
 10
12.0400417631
 20
-17.2675041775
 10
12.0282611503
 20
-16.9839137903
 10
12.0170549124
 20
-16.6998946456
 10
12.0064230927
 20
-16.4154478427
 10
11.9963657323
 20
-16.1305744828
 10
11.9868828702
 20
-15.8452756685
 10
11.9779745431
 20
-15.5595525044
 10
11.9696407854
 20
-15.2734060965
 10
11.9618816295
 20
-14.9868375524
 10
11.9546971054
 20
-14.6998479814
 10
11.9480872409
 20
-14.4124384946
 10
11.9420520615
 20
-14.1246102044
 10
11.9365915906
 20
-13.8363642252
 10
11.9317058495
 20
-13.5477016726
 10
11.9273948569
 20
-13.2586236641
 10
11.9236586296
 20
-12.9691313187
 10
11.920497182
 20
-12.6792257572
 10
11.9179105264
 20
-12.3889081016
 10
11.9158986727
 20
-12.0981794759
 10
11.9144616289
 20
-11.8070410054
 10
11.9135994004
 20
-11.5154938173
 10
11.9133119905
 20
-11.22353904
 10
11.9135994005
 20
-10.9311778037
 10
11.9144616291
 20
-10.6384112402
 10
11.9158986731
 20
-10.3452404827
 10
11.9179105268
 20
-10.0516666663
 10
11.9204971825
 20
-9.7576909272
 10
11.9236586302
 20
-9.4633144035
 10
11.9273948576
 20
-9.1685382347
 10
11.9317058503
 20
-8.873363562
 10
11.9365915916
 20
-8.5777915279
 10
11.9420520625
 20
-8.2818232766
 10
11.948087242
 20
-7.9854599539
 10
11.9546971067
 20
-7.6887027069
 10
11.9618816309
 20
-7.3915526844
 10
11.9696407869
 20
-7.0940110367
 10
11.9779745446
 20
-6.7960789156
 10
11.9868828719
 20
-6.4977574744
 10
11.9963657341
 20
-6.1990478679
 10
12.0064230946
 20
-5.8999512525
 10
12.0170549144
 20
-5.6004687858
 10
12.0282611524
 20
-5.3006016273
 10
12.0400417653
 20
-5.0003509378
 10
12.0523967073
 20
-4.6997178795
 10
12.0653259308
 20
-4.3987036162
 10
12.0788293856
 20
-4.0973093132
 10
12.0929070194
 20
-3.795536137
 10
12.1075587778
 20
-3.493385256
 10
12.1227846041
 20
-3.1908578397
 10
12.1385844392
 20
-2.8879550592
 10
12.1549582222
 20
-2.5846780872
 10
12.1719058895
 20
-2.2810280975
 10
12.1894273755
 20
-1.9770062656
 10
12.2075226125
 20
-1.6726137684
 10
12.2261915303
 20
-1.3678517843
 10
12.2454340568
 20
-1.062721493
 10
12.2652501174
 20
-0.7572240757
 10
12.2856396355
 20
-0.4513607149
 10
12.306602532
 20
-0.1451325946
 10
12.3281387258
 20
0.1614590997
 10
12.3502481337
 20
0.4684131813
 10
12.3729306699
 20
0.7757284619
 10
12.3961862468
 20
1.0834037519
 10
12.4200147741
 20
1.3914378601
 10
12.44441616
 20
1.6998295961
 10
12.4693903097
 20
2.0085777643
 10
12.4949371261
 20
2.3176811632
 10
12.5210565101
 20
2.6271385943
 10
12.5477483607
 20
2.9369488617
 10
12.5750125745
 20
3.2471107661
  0
LWPOLYLINE
  5
364
100
AcDbEntity
  8
RACCORDO
100
AcDbPolyline
 62
7
  6
CONTINUOUS
 90
83
 70
0
 10
12.2586131039
 20
-22.9925960155
 10
12.2405027075
 20
-22.7876808678
 10
12.2159846283
 20
-22.5038878531
 10
12.1920783432
 20
-22.2196162822
 10
12.1687840633
 20
-21.9348688064
 10
12.1461019165
 20
-21.6496472216
 10
12.1240319266
 20
-21.3639520663
 10
12.1025741381
 20
-21.0777841144
 10
12.0817286051
 20
-20.7911442621
 10
12.0614954197
 20
-20.504033952
 10
12.0418746793
 20
-20.2164547807
 10
12.0228664536
 20
-19.9284080184
 10
12.0044707976
 20
-19.6398947506
 10
11.9866877791
 20
-19.3509163025
 10
11.9695174676
 20
-19.0614740949
 10
11.9529599013
 20
-18.7715690759
 10
11.9370151006
 20
-18.4812018636
 10
11.921683089
 20
-18.1903730932
 10
11.9069639468
 20
-17.8990845014
 10
11.8928577726
 20
-17.6073383638
 10
11.8793646412
 20
-17.3151366977
 10
11.8664845478
 20
-17.0224798836
 10
11.8542174692
 20
-16.7293677431
 10
11.8425634043
 20
-16.435800425
 10
11.8315224347
 20
-16.1417801707
 10
11.8210946558
 20
-15.8473099465
 10
11.8112801267
 20
-15.5523921527
 10
11.802078823
 20
-15.2570268133
 10
11.7934907101
 20
-14.9612133325
 10
11.7855157824
 20
-14.6649517341
 10
11.7781540982
 20
-14.3682444059
 10
11.7714057152
 20
-14.0710943008
 10
11.7652706597
 20
-13.7735036271
 10
11.759748913
 20
-13.4754726211
 10
11.7548404583
 20
-13.1770012834
 10
11.7505452936
 20
-12.8780901351
 10
11.7468634357
 20
-12.5787410946
 10
11.7437948951
 20
-12.2789562597
 10
11.7413396695
 20
-11.9787372756
 10
11.7394977462
 20
-11.6780849583
 10
11.738269114
 20
-11.377000167
 10
11.7376537622
 20
-11.0754840025
 10
11.7376516787
 20
-10.7735378308
 10
11.7382628481
 20
-10.4711629108
 10
11.7394872535
 20
-10.168360335
 10
11.7413248743
 20
-9.8651314885
 10
11.7437756838
 20
-9.5614780741
 10
11.7468396492
 20
-9.2574017604
 10
11.7505167433
 20
-8.9529033723
 10
11.7548069456
 20
-8.6479833483
 10
11.7597102374
 20
-8.3426422407
 10
11.7652265771
 20
-8.0368819912
 10
11.7713559027
 20
-7.7307051268
 10
11.7780981467
 20
-7.4241138709
 10
11.7854532797
 20
-7.1171085194
 10
11.7934212952
 20
-6.8096887097
 10
11.8020021834
 20
-6.5018545569
 10
11.8111958706
 20
-6.1936084566
 10
11.8210022499
 20
-5.8849534697
 10
11.8314212213
 20
-5.5758919986
 10
11.8424527563
 20
-5.2664241823
 10
11.8540968507
 20
-4.9565496907
 10
11.866353486
 20
-4.6462688028
 10
11.8792225648
 20
-4.3355837726
 10
11.8927039633
 20
-4.0244972351
 10
11.9067975722
 20
-3.7130112263
 10
11.9215033471
 20
-3.4011262684
 10
11.9368212548
 20
-3.0888427305
 10
11.9527512443
 20
-2.7761614068
 10
11.969293214
 20
-2.4630840608
 10
11.9864470527
 20
-2.1496125173
 10
12.0042126616
 20
-1.8357482782
 10
12.0225899633
 20
-1.5214924149
 10
12.041578873
 20
-1.2068461102
 10
12.0611792942
 20
-0.8918107046
 10
12.0813911344
 20
-0.5763874395
 10
12.1022143128
 20
-0.2605773502
 10
12.1236487516
 20
0.05561858
 10
12.1456943294
 20
0.3721987458
 10
12.1683508933
 20
0.6891611739
 10
12.1916182908
 20
1.0065039935
 10
12.2154964494
 20
1.3242264703
 10
12.2225788538
 20
1.4170048437
  0
LINE
  5
365
100
AcDbEntity
  8
RACCORDO
100
AcDbLine
 62
250
  6
CONTINUOUS
 10
12.4730631838
 20
3.266410847
 11
-14.6916023077
 21
22.4747300246
  0
LINE
  5
366
100
AcDbEntity
  8
RACCORDO
100
AcDbLine
 62
250
  6
CONTINUOUS
 10
19.5786009972
 20
-1.7051543384
 11
12.5750125745
 21
3.2471107661
  0
LWPOLYLINE
  5
367
100
AcDbEntity
  8
0
100
AcDbPolyline
 62
7
  6
CONTINUOUS
 90
10
 70
0
 10
14.7825386983
 20
-24.9404244601
 10
14.7734134112
 20
-24.8369041207
 10
14.764369833
 20
-24.7333193746
 10
14.7554079637
 20
-24.6296702218
 10
14.7465277984
 20
-24.5259566036
 10
14.7377293419
 20
-24.4221785787
 10
14.7290126094
 20
-24.3183363234
 10
14.7203776056
 20
-24.2144298964
 10
14.7118243257
 20
-24.1104592389
 10
14.7033527696
 20
-24.006424351
  0
LWPOLYLINE
  5
368
100
AcDbEntity
  8
0
100
AcDbPolyline
 62
7
  6
CONTINUOUS
 90
10
 70
0
 10
14.9805358154
 20
-25.0804273811
 10
14.9714105528
 20
-24.9769072992
 10
14.9623669988
 20
-24.8733228109
 10
14.9534051532
 20
-24.7696739162
 10
14.9445250112
 20
-24.6659605565
 10
14.9357265777
 20
-24.5621827904
 10
14.9270098676
 20
-24.4583407941
 10
14.918374886
 20
-24.3544346265
 10
14.9098216277
 20
-24.2504642288
 10
14.901350093
 20
-24.146429601
  0
LWPOLYLINE
  5
369
100
AcDbEntity
  8
0
100
AcDbPolyline
 62
7
  6
CONTINUOUS
 90
10
 70
0
 10
15.0337528039
 20
-25.0427972876
 10
15.0246242614
 20
-24.9392795439
 10
15.0155774567
 20
-24.8356973683
 10
15.0066123899
 20
-24.7320507609
 10
14.9977290559
 20
-24.6283396627
 10
14.9889274599
 20
-24.5245641327
 10
14.9802076166
 20
-24.4207243472
 10
14.9715695311
 20
-24.3168203649
 10
14.9630131985
 20
-24.2128521271
 10
14.9545386187
 20
-24.1088196338
  0
LWPOLYLINE
  5
36A
100
AcDbEntity
  8
RACCORDO
100
AcDbPolyline
 62
250
  6
CONTINUOUS
 90
80
 70
0
 10
12.2225785402
 20
1.4170007487
 10
12.2273779855
 20
1.4783159259
 10
12.2334412427
 20
1.5522502401
 10
12.2395776874
 20
1.6235189156
 10
12.2457310761
 20
1.691789239
 10
12.2518494299
 20
1.7568141595
 10
12.2579268207
 20
1.8188402759
 10
12.2639771218
 20
1.8782748428
 10
12.2699806458
 20
1.935138746
 10
12.2759139255
 20
1.9894095277
 10
12.2817927907
 20
2.0414298014
 10
12.2875977677
 20
2.0911808863
 10
12.2933143071
 20
2.1386792744
 10
12.2989722574
 20
2.1843209213
 10
12.3045637818
 20
2.2281445347
 10
12.3100720385
 20
2.2701093679
 10
12.3155188732
 20
2.3104928385
 10
12.3208976217
 20
2.3493176968
 10
12.3261959334
 20
2.3865592731
 10
12.3314306542
 20
2.4224243318
 10
12.3366037756
 20
2.4569755277
 10
12.3416984689
 20
2.4901484695
 10
12.3467044612
 20
2.5219594641
 10
12.351606064
 20
2.5523557345
 10
12.3564039797
 20
2.5813878162
 10
12.3611131773
 20
2.6092270524
 10
12.3657261045
 20
2.6358664947
 10
12.3702383189
 20
2.6613110893
 10
12.3746713788
 20
2.6857504002
 10
12.3790244226
 20
2.7092065686
 10
12.3832892426
 20
2.7316558319
 10
12.3874779186
 20
2.753219227
 10
12.391587149
 20
2.7739003824
 10
12.3956126857
 20
2.7936941995
 10
12.3995661576
 20
2.8127088396
 10
12.4034444487
 20
2.830945775
 10
12.4072444392
 20
2.8484022296
 10
12.4109786089
 20
2.8651801999
 10
12.4146458937
 20
2.8812874564
 10
12.4182423292
 20
2.8967151192
 10
12.4217767227
 20
2.9115403825
 10
12.4252472672
 20
2.9257655415
 10
12.4286515235
 20
2.9393873067
 10
12.4319978413
 20
2.9524746264
 10
12.4352840768
 20
2.9650273858
 10
12.4385087924
 20
2.9770448157
 10
12.4416818677
 20
2.9885950167
 10
12.444801892
 20
2.9996797762
 10
12.447867366
 20
3.0102965632
 10
12.4508885128
 20
3.0205071464
 10
12.4538680455
 20
3.0303247505
 10
12.4568009968
 20
3.0397355692
 10
12.4596862679
 20
3.0487608824
 10
12.4625249223
 20
3.0574055804
 10
12.4653136689
 20
3.0656641479
 10
12.4680446747
 20
3.0735421724
 10
12.4707142788
 20
3.0810310077
 10
12.4733236471
 20
3.0881385197
 10
12.4758719955
 20
3.0948949804
 10
12.4783552969
 20
3.1012932482
 10
12.4807751884
 20
3.1073396658
 10
12.4831394891
 20
3.1130847622
 10
12.4854463929
 20
3.1185282885
 10
12.4876957417
 20
3.1236698119
 10
12.4898981187
 20
3.1285596947
 10
12.4920534718
 20
3.1332013463
 10
12.4941603413
 20
3.137590821
 10
12.4962274864
 20
3.1417675593
 10
12.4982551802
 20
3.1457346812
 10
12.5002419661
 20
3.1494886392
 10
12.5021942175
 20
3.1530589553
 10
12.5041111729
 20
3.1564463904
 10
12.5059926236
 20
3.1596498254
 10
12.5078459491
 20
3.162696036
 10
12.5096701065
 20
3.1655855673
 10
12.5114653916
 20
3.1683175975
 10
12.5132414026
 20
3.1709169432
 10
12.5150012287
 20
3.1733918441
 10
12.5167413241
 20
3.1757339047
 10
12.5184614532
 20
3.1779430413
  0
LINE
  5
36B
100
AcDbEntity
  8
RACCORDO
100
AcDbLine
 62
250
  6
CONTINUOUS
 10
22.1669417569
 20
0.4717388081
 11
19.9729289956
 21
-1.034406597
  0
LWPOLYLINE
  5
36C
100
AcDbEntity
  8
RACCORDO
100
AcDbPolyline
 62
250
  6
CONTINUOUS
 90
111
 70
0
 10
20.3966116251
 20
-1.757678087
 10
20.3905010004
 20
-1.7609670885
 10
20.3843163682
 20
-1.7641964564
 10
20.3780588864
 20
-1.7673655859
 10
20.3717297261
 20
-1.770473884
 10
20.3653300721
 20
-1.7735207687
 10
20.3588611223
 20
-1.7765056697
 10
20.3523240878
 20
-1.7794280284
 10
20.345720192
 20
-1.7822872976
 10
20.3390506711
 20
-1.7850829423
 10
20.3323167736
 20
-1.7878144389
 10
20.3255197601
 20
-1.7904812764
 10
20.3186609027
 20
-1.7930829554
 10
20.3117414854
 20
-1.7956189889
 10
20.3047628033
 20
-1.7980889023
 10
20.2977261629
 20
-1.8004922333
 10
20.2906328813
 20
-1.8028285319
 10
20.2834842862
 20
-1.8050973608
 10
20.2762817157
 20
-1.8072982953
 10
20.2690265182
 20
-1.8094309236
 10
20.2617200515
 20
-1.8114948462
 10
20.2543636836
 20
-1.813489677
 10
20.2469587912
 20
-1.8154150424
 10
20.2395067606
 20
-1.8172705822
 10
20.2320089866
 20
-1.819055949
 10
20.2244668727
 20
-1.8207708085
 10
20.2168818308
 20
-1.8224148398
 10
20.2092552805
 20
-1.8239877352
 10
20.2015886496
 20
-1.8254892001
 10
20.1938833731
 20
-1.8269189537
 10
20.1861408933
 20
-1.8282767281
 10
20.1783626595
 20
-1.8295622693
 10
20.1705501277
 20
-1.8307753367
 10
20.1627047603
 20
-1.8319157031
 10
20.1548280258
 20
-1.8329831552
 10
20.1469213987
 20
-1.833977493
 10
20.1389863589
 20
-1.8348985305
 10
20.1310243918
 20
-1.8357460953
 10
20.1230369878
 20
-1.8365200287
 10
20.1150256419
 20
-1.8372201858
 10
20.1069918539
 20
-1.8378464356
 10
20.0989371275
 20
-1.8383986609
 10
20.0908629704
 20
-1.8388767582
 10
20.0827708941
 20
-1.8392806382
 10
20.0746624132
 20
-1.8396102251
 10
20.0665390456
 20
-1.8398654573
 10
20.0584023119
 20
-1.8400462871
 10
20.050253735
 20
-1.8401526805
 10
20.0420948404
 20
-1.8401846177
 10
20.0339271552
 20
-1.8401420927
 10
20.0257522083
 20
-1.8400251134
 10
20.0175715301
 20
-1.8398337017
 10
20.0093866517
 20
-1.8395678935
 10
20.0011991053
 20
-1.8392277386
 10
19.9930104235
 20
-1.8388133005
 10
19.984822139
 20
-1.8383246569
 10
19.9766357847
 20
-1.8377618992
 10
19.9684528929
 20
-1.8371251328
 10
19.9602749953
 20
-1.8364144769
 10
19.9521036227
 20
-1.8356300645
 10
19.9439403047
 20
-1.8347720424
 10
19.9357865693
 20
-1.8338405713
 10
19.9276439428
 20
-1.8328358255
 10
19.9195139495
 20
-1.831757993
 10
19.911398111
 20
-1.8306072756
 10
19.9032979467
 20
-1.8293838888
 10
19.8952149727
 20
-1.8280880615
 10
19.887150702
 20
-1.8267200364
 10
19.8791066442
 20
-1.8252800693
 10
19.8710843051
 20
-1.82376843
 10
19.8630851862
 20
-1.8221854014
 10
19.8551107849
 20
-1.8205312797
 10
19.847162594
 20
-1.8188063746
 10
19.8392421011
 20
-1.8170110091
 10
19.831350789
 20
-1.8151455191
 10
19.8234901347
 20
-1.8132102538
 10
19.8156616097
 20
-1.8112055756
 10
19.8078666793
 20
-1.8091318596
 10
19.8001068027
 20
-1.8069894941
 10
19.7923834324
 20
-1.80477888
 10
19.7846980141
 20
-1.8025004312
 10
19.7770519865
 20
-1.8001545741
 10
19.7694467807
 20
-1.7977417479
 10
19.7618838203
 20
-1.7952624041
 10
19.754364521
 20
-1.792717007
 10
19.7468902904
 20
-1.790106033
 10
19.7394625275
 20
-1.7874299707
 10
19.7320826227
 20
-1.7846893212
 10
19.7247519574
 20
-1.7818845974
 10
19.7174719037
 20
-1.7790163244
 10
19.7102438245
 20
-1.776085039
 10
19.7030690728
 20
-1.7730912899
 10
19.6959489914
 20
-1.7700356376
 10
19.6888849133
 20
-1.766918654
 10
19.6818781607
 20
-1.7637409225
 10
19.6749300452
 20
-1.7605030381
 10
19.6680418674
 20
-1.7572056067
 10
19.6612149166
 20
-1.7538492457
 10
19.6544504708
 20
-1.7504345832
 10
19.6477497961
 20
-1.7469622585
 10
19.6411141469
 20
-1.7434329215
 10
19.6345447653
 20
-1.7398472329
 10
19.6280428809
 20
-1.7362058638
 10
19.6216097109
 20
-1.732509496
 10
19.6152464593
 20
-1.7287588212
 10
19.6089543174
 20
-1.7249545416
 10
19.6027344629
 20
-1.7210973692
 10
19.5965880601
 20
-1.7171880262
 10
19.5905162595
 20
-1.7132272442
 10
19.5845201978
 20
-1.7092157646
 10
19.5786009972
 20
-1.7051543384
  0
LINE
  5
36D
100
AcDbEntity
  8
RACCORDO
100
AcDbLine
 62
250
  6
CONTINUOUS
 10
19.9729289956
 20
-1.034406597
 11
-21.3875978187
 21
28.2119023868
  0
LWPOLYLINE
  5
36E
100
AcDbEntity
  8
RACCORDO
100
AcDbPolyline
 62
250
  6
CONTINUOUS
 90
13
 70
0
 10
12.5184614533
 20
3.1779430413
 10
12.5151617455
 20
3.1855860488
 10
12.5117718171
 20
3.1931846713
 10
12.508292324
 20
3.2007374383
 10
12.5047239395
 20
3.2082428884
 10
12.5010673541
 20
3.2156995691
 10
12.4973232755
 20
3.2231060377
 10
12.493492428
 20
3.2304608607
 10
12.4895755531
 20
3.2377626151
 10
12.4855734085
 20
3.245009888
 10
12.4814867689
 20
3.2522012768
 10
12.477316425
 20
3.2593353899
 10
12.4730631838
 20
3.266410847
  0
LWPOLYLINE
  5
36F
100
AcDbEntity
  8
RACCORDO
100
AcDbPolyline
 62
250
  6
CONTINUOUS
 90
106
 70
0
 10
12.111683909
 20
-0.1208840367
 10
12.1084422841
 20
-0.0985284802
 10
12.0985366448
 20
-0.026016322
 10
12.0891712524
 20
0.0471198737
 10
12.0803527615
 20
0.1208990749
 10
12.0720883342
 20
0.1953128907
 10
12.064412825
 20
0.270220055
 10
12.0573331043
 20
0.3456319333
 10
12.0508538111
 20
0.4215455569
 10
12.0450036176
 20
0.4977957024
 10
12.0397884705
 20
0.5743861934
 10
12.0352109112
 20
0.6513188802
 10
12.0312912526
 20
0.7284228087
 10
12.0280332367
 20
0.8057269062
 10
12.0254384998
 20
0.8832051994
 10
12.0235199123
 20
0.9606007993
 10
12.0222804019
 20
1.0379143235
 10
12.0217170562
 20
1.1151436233
 10
12.0218286693
 20
1.1920232824
 10
12.0226154166
 20
1.2685523788
 10
12.0240717279
 20
1.3447259209
 10
12.026182268
 20
1.4202679219
 10
12.02895883
 20
1.4953748382
 10
12.0323800877
 20
1.569841077
 10
12.0363692837
 20
1.6427781828
 10
12.0409292571
 20
1.7141569168
 10
12.0460290998
 20
1.7839828339
 10
12.0515245283
 20
1.8514062929
 10
12.057388366
 20
1.9162052122
 10
12.063604925
 20
1.9785668078
 10
12.0700374442
 20
2.0382478486
 10
12.0766387597
 20
2.0950179358
 10
12.0834133224
 20
2.1490733341
 10
12.0903033607
 20
2.200812158
 10
12.0972886047
 20
2.2502459262
 10
12.1043580339
 20
2.2973383556
 10
12.1114733825
 20
2.3424203258
 10
12.1186136515
 20
2.3854713105
 10
12.1257758865
 20
2.4264930522
 10
12.1329535891
 20
2.4658535207
 10
12.1401387904
 20
2.5035835334
 10
12.1473222436
 20
2.5396388661
 10
12.1544992618
 20
2.5742778251
 10
12.1616637738
 20
2.6075178265
 10
12.1688088207
 20
2.6393313744
 10
12.175930797
 20
2.6699112726
 10
12.183036675
 20
2.6993085757
 10
12.1901094859
 20
2.7274645425
 10
12.1971108414
 20
2.754408158
 10
12.204024194
 20
2.7800927467
 10
12.210857019
 20
2.8045580612
 10
12.2176077973
 20
2.827963372
 10
12.2242687686
 20
2.8503023702
 10
12.2308407734
 20
2.8715761107
 10
12.237336443
 20
2.8919558595
 10
12.2437569085
 20
2.9114599059
 10
12.2500959396
 20
2.9300661047
 10
12.2563560797
 20
2.9478857902
 10
12.2625349325
 20
2.9649217826
 10
12.2686308793
 20
2.981168238
 10
12.2746482628
 20
2.9967239727
 10
12.2805844876
 20
3.0115902431
 10
12.2864390093
 20
3.0257634366
 10
12.292219759
 20
3.0393354498
 10
12.2979269309
 20
3.0523126991
 10
12.3035579075
 20
3.0646869554
 10
12.3091167925
 20
3.0765284381
 10
12.3146024917
 20
3.0878391248
 10
12.3200141755
 20
3.098615603
 10
12.3253566301
 20
3.1089202205
 10
12.3306278852
 20
3.1187531702
 10
12.3358283869
 20
3.1281131252
 10
12.3409667818
 20
3.1370603294
 10
12.346041858
 20
3.1455965812
 10
12.3510536415
 20
3.153719202
 10
12.356012835
 20
3.1614818678
 10
12.3609250319
 20
3.1688947294
 10
12.3657837284
 20
3.1759469616
 10
12.3705816007
 20
3.1826608659
 10
12.375322256
 20
3.1890396371
 10
12.3800013037
 20
3.1950795012
 10
12.3845994634
 20
3.2007923367
 10
12.3891126404
 20
3.2061715535
 10
12.3935442265
 20
3.2112232233
 10
12.397886215
 20
3.2159782493
 10
12.4021332777
 20
3.2204319414
 10
12.4062901715
 20
3.2245885691
 10
12.4103640951
 20
3.2284925319
 10
12.4143528633
 20
3.2321444551
 10
12.4182582371
 20
3.2355434012
 10
12.4220934182
 20
3.2387314879
 10
12.4258589322
 20
3.2417117743
 10
12.4295539468
 20
3.2444809758
 10
12.4331896924
 20
3.2470717427
 10
12.4367671743
 20
3.2494866883
 10
12.4402851607
 20
3.251723033
 10
12.4437515713
 20
3.253805371
 10
12.4471654764
 20
3.255734801
 10
12.4505276334
 20
3.257510098
 10
12.4538485245
 20
3.259152394
 10
12.4571264918
 20
3.2606628632
 10
12.460363064
 20
3.2620402369
 10
12.4635735307
 20
3.2633020028
 10
12.4667629613
 20
3.2644539706
 10
12.4699261938
 20
3.2654902629
 10
12.4730631838
 20
3.266410847
  0
LWPOLYLINE
  5
370
100
AcDbEntity
  8
0
100
AcDbPolyline
 62
7
  6
CONTINUOUS
 90
6
 70
0
 10
15.4297425009
 20
-25.3228042876
 10
15.4237129396
 20
-25.2545422529
 10
15.4177189264
 20
-25.1862521694
 10
15.4117604613
 20
-25.117934037
 10
15.4058375428
 20
-25.0495878388
 10
15.4002897263
 20
-24.9851570741
  0
LWPOLYLINE
  5
371
100
AcDbEntity
  8
0
100
AcDbPolyline
 62
7
  6
CONTINUOUS
 90
10
 70
0
 10
15.178528189
 20
-25.2204291311
 10
15.1694026515
 20
-25.1169088548
 10
15.1603588225
 20
-25.013324172
 10
15.151396702
 20
-24.909675083
 10
15.1425162851
 20
-24.8059615288
 10
15.1337175765
 20
-24.7021835683
 10
15.1250005915
 20
-24.5983413776
 10
15.1163653348
 20
-24.4944350155
 10
15.1078118015
 20
-24.3904644233
 10
15.0993399917
 20
-24.286429601
  0
LWPOLYLINE
  5
372
100
AcDbEntity
  8
0
100
AcDbPolyline
 62
7
  6
CONTINUOUS
 90
10
 70
0
 10
15.3765255123
 20
-25.3604343811
 10
15.3704981178
 20
-25.2921708059
 10
15.3645062587
 20
-25.223879193
 10
15.3585499348
 20
-25.1555595424
 10
15.3526291449
 20
-25.087211837
 10
15.3467438902
 20
-25.0188360939
 10
15.3408941752
 20
-24.9504323643
 10
15.3350800015
 20
-24.8820006651
 10
15.3293013675
 20
-24.8135409794
 10
15.3235582732
 20
-24.7450533071
  0
LWPOLYLINE
  5
373
100
AcDbEntity
  8
0
100
AcDbPolyline
 62
7
  6
CONTINUOUS
 90
10
 70
0
 10
15.9489093598
 20
-25.7651708811
 10
15.9428816904
 20
-25.6969071115
 10
15.9368895563
 20
-25.6286153042
 10
15.9309329575
 20
-25.5602954591
 10
15.9250118925
 20
-25.4919475593
 10
15.9191263629
 20
-25.4235716218
 10
15.9132763729
 20
-25.3551676977
 10
15.9074619242
 20
-25.286735804
 10
15.9016830151
 20
-25.2182759239
 10
15.8959396458
 20
-25.1497880571
  0
LWPOLYLINE
  5
374
100
AcDbEntity
  8
0
100
AcDbPolyline
 62
7
  6
CONTINUOUS
 90
10
 70
0
 10
16.1469066832
 20
-25.9051761311
 10
16.1377811457
 20
-25.8016558548
 10
16.1287373167
 20
-25.698071172
 10
16.1197751962
 20
-25.594422083
 10
16.1108947792
 20
-25.4907085288
 10
16.1020960707
 20
-25.3869305683
 10
16.0933790857
 20
-25.2830883776
 10
16.084743829
 20
-25.1791820155
 10
16.0761902957
 20
-25.0752114233
 10
16.0677184859
 20
-24.971176601
  0
LWPOLYLINE
  5
375
100
AcDbEntity
  8
0
100
AcDbPolyline
 62
7
  6
CONTINUOUS
 90
10
 70
0
 10
16.2001236717
 20
-25.8675460376
 10
16.1909948543
 20
-25.7640280995
 10
16.1819477747
 20
-25.6604457295
 10
16.1729824329
 20
-25.5567989276
 10
16.164098824
 20
-25.4530876351
 10
16.1552969529
 20
-25.3493119106
 10
16.1465768346
 20
-25.2454719306
 10
16.1379384741
 20
-25.1415677539
 10
16.1293818665
 20
-25.0375993216
 10
16.1209070116
 20
-24.9335666338
  0
LWPOLYLINE
  5
376
100
AcDbEntity
  8
0
100
AcDbPolyline
 62
7
  6
CONTINUOUS
 90
10
 70
0
 10
17.2446144478
 20
-26.6813705521
 10
17.2354889122
 20
-26.5778502744
 10
17.2264450851
 20
-26.4742655904
 10
17.2174829664
 20
-26.3706165
 10
17.2086025513
 20
-26.2669029445
 10
17.1998038446
 20
-26.1631249827
 10
17.1910868614
 20
-26.0592827907
 10
17.1824516066
 20
-25.9553764273
 10
17.1738980751
 20
-25.8514058339
 10
17.1654262672
 20
-25.7473710102
  0
LINE
  5
377
100
AcDbEntity
  8
RACCORDO
100
AcDbLine
 62
250
  6
CONTINUOUS
 10
22.5906243864
 20
-0.2515326818
 11
20.3966116254
 21
-1.7576780868
  0
LINE
  5
378
100
AcDbEntity
  8
RACCORDO
100
AcDbLine
 62
7
  6
CONTINUOUS
 10
22.1669417569
 20
0.4717388081
 11
-19.4120998552
 21
29.8725610873
  0
LWPOLYLINE
  5
379
100
AcDbEntity
  8
RACCORDO
100
AcDbPolyline
 62
250
  6
CONTINUOUS
 90
115
 70
0
 10
20.3966116251
 20
-1.757678087
 10
20.3962531267
 20
-1.7520250007
 10
20.3958187402
 20
-1.7463132865
 10
20.3953085457
 20
-1.7405440234
 10
20.394722636
 20
-1.734718284
 10
20.3940611211
 20
-1.728837186
 10
20.3933241312
 20
-1.7229018933
 10
20.3925118083
 20
-1.7169135479
 10
20.391624304
 20
-1.7108732641
 10
20.3906617856
 20
-1.7047821813
 10
20.3896244346
 20
-1.6986414497
 10
20.3885124476
 20
-1.6924522331
 10
20.3873260356
 20
-1.6862157059
 10
20.3860654231
 20
-1.6799330492
 10
20.3847308485
 20
-1.6736054505
 10
20.3833225643
 20
-1.6672341067
 10
20.3818408368
 20
-1.6608202231
 10
20.3802859464
 20
-1.6543650132
 10
20.3786581873
 20
-1.6478696988
 10
20.3769578676
 20
-1.6413355087
 10
20.3751853089
 20
-1.6347636791
 10
20.3733408466
 20
-1.6281554532
 10
20.3714248295
 20
-1.6215120813
 10
20.3694376203
 20
-1.6148348202
 10
20.3673795948
 20
-1.6081249333
 10
20.3652511425
 20
-1.60138369
 10
20.3630526659
 20
-1.5946123658
 10
20.3607845812
 20
-1.5878122416
 10
20.3584473173
 20
-1.5809846041
 10
20.3560413165
 20
-1.574130745
 10
20.353567034
 20
-1.5672519611
 10
20.3510249379
 20
-1.5603495536
 10
20.3484155091
 20
-1.5534248285
 10
20.3457392413
 20
-1.546479096
 10
20.3429966409
 20
-1.5395136701
 10
20.3401882267
 20
-1.5325298687
 10
20.33731453
 20
-1.525529013
 10
20.3343760947
 20
-1.5185124275
 10
20.3313734765
 20
-1.5114814398
 10
20.3283072436
 20
-1.5044373801
 10
20.3251779761
 20
-1.497381581
 10
20.321986266
 20
-1.4903153775
 10
20.3187327172
 20
-1.4832401065
 10
20.3154179452
 20
-1.4761571065
 10
20.3120425771
 20
-1.4690677177
 10
20.3086072516
 20
-1.4619732813
 10
20.3051126186
 20
-1.4548751395
 10
20.3015593393
 20
-1.4477746352
 10
20.2979480859
 20
-1.4406731119
 10
20.2942795417
 20
-1.4335719131
 10
20.2905544006
 20
-1.4264723823
 10
20.2867733676
 20
-1.4193758627
 10
20.2829371579
 20
-1.4122836969
 10
20.2790464974
 20
-1.4051972267
 10
20.275102122
 20
-1.3981177929
 10
20.2711047782
 20
-1.3910467348
 10
20.2670552221
 20
-1.3839853902
 10
20.2629542199
 20
-1.3769350951
 10
20.2588025475
 20
-1.3698971834
 10
20.2546009903
 20
-1.3628729866
 10
20.2503503434
 20
-1.3558638337
 10
20.2460514108
 20
-1.3488710507
 10
20.2417050059
 20
-1.3418959606
 10
20.237311951
 20
-1.3349398832
 10
20.2328730773
 20
-1.3280041343
 10
20.2283892246
 20
-1.3210900263
 10
20.2238612411
 20
-1.3141988673
 10
20.2192899836
 20
-1.3073319609
 10
20.214676317
 20
-1.3004906065
 10
20.210021114
 20
-1.2936760983
 10
20.2053252555
 20
-1.2868897257
 10
20.2005896298
 20
-1.2801327725
 10
20.1958151329
 20
-1.2734065171
 10
20.1910026682
 20
-1.2667122321
 10
20.1861531461
 20
-1.2600511841
 10
20.1812674841
 20
-1.2534246332
 10
20.1763466065
 20
-1.2468338332
 10
20.1713914444
 20
-1.240280031
 10
20.1664029353
 20
-1.2337644665
 10
20.1613820229
 20
-1.2272883725
 10
20.1563296572
 20
-1.2208529742
 10
20.1512467941
 20
-1.2144594892
 10
20.1461343951
 20
-1.208109127
 10
20.1409934276
 20
-1.2018030891
 10
20.1358248641
 20
-1.1955425686
 10
20.1306296827
 20
-1.1893287499
 10
20.125408866
 20
-1.1831628086
 10
20.120163402
 20
-1.1770459114
 10
20.1148942829
 20
-1.1709792155
 10
20.1096025058
 20
-1.1649638686
 10
20.1042890717
 20
-1.1590010089
 10
20.0989549859
 20
-1.1530917645
 10
20.0936012577
 20
-1.1472372533
 10
20.0882288999
 20
-1.1414385831
 10
20.0828389289
 20
-1.1356968509
 10
20.0774323645
 20
-1.1300131429
 10
20.0720102296
 20
-1.1243885347
 10
20.06657355
 20
-1.1188240901
 10
20.0611233543
 20
-1.1133208621
 10
20.0556606736
 20
-1.1078798919
 10
20.0501865415
 20
-1.1025022087
 10
20.0447019936
 20
-1.0971888301
 10
20.0392080677
 20
-1.0919407613
 10
20.033705803
 20
-1.0867589951
 10
20.0281962406
 20
-1.0816445121
 10
20.0226804229
 20
-1.0765982798
 10
20.0171593934
 20
-1.0716212528
 10
20.0116341966
 20
-1.0667143729
 10
20.0061058781
 20
-1.0618785685
 10
20.0005754836
 20
-1.0571147543
 10
19.9950440594
 20
-1.0524238318
 10
19.9895126522
 20
-1.0478066883
 10
19.9839823083
 20
-1.0432641975
 10
19.9784540741
 20
-1.0387972187
 10
19.9729289956
 20
-1.034406597
  0
LWPOLYLINE
  5
37A
100
AcDbEntity
  8
RACCORDO
100
AcDbPolyline
 62
250
  6
CONTINUOUS
 90
93
 70
0
 10
19.5431551578
 20
-2.0201674045
 10
19.5141923215
 20
-2.3389389915
 10
19.4858713711
 20
-2.6573571674
 10
19.4581924031
 20
-2.9754207217
 10
19.431155542
 20
-3.2931282303
 10
19.4047609385
 20
-3.6104780573
 10
19.3790086992
 20
-3.9274688404
 10
19.353898919
 20
-4.2440993194
 10
19.3294317241
 20
-4.5603680155
 10
19.3056072154
 20
-4.8762735282
 10
19.2824254761
 20
-5.1918146465
 10
19.2598866015
 20
-5.5069901778
 10
19.2379906814
 20
-5.8217987779
 10
19.2167377965
 20
-6.1362391883
 10
19.1961280265
 20
-6.4503103455
 10
19.1761614507
 20
-6.7640109731
 10
19.156838148
 20
-7.0773397528
 10
19.1381581961
 20
-7.3902955592
 10
19.1201216661
 20
-7.7028771524
 10
19.102728632
 20
-8.0150831859
 10
19.0859791733
 20
-8.3269123763
 10
19.069873355
 20
-8.6383634641
 10
19.0544112419
 20
-8.9494351323
 10
19.0395929089
 20
-9.2601260146
 10
19.0254184145
 20
-9.5704348212
 10
19.0118878137
 20
-9.8803602762
 10
18.9990011705
 20
-10.1899010361
 10
18.9867585362
 20
-10.4990558015
 10
18.975159957
 20
-10.807823317
 10
18.9642054853
 20
-11.1162023075
 10
18.9538951642
 20
-11.4241914862
 10
18.9442290329
 20
-11.7317895951
 10
18.9352071336
 20
-12.0389954051
 10
18.9268295017
 20
-12.3458076493
 10
18.9190961696
 20
-12.6522250597
 10
18.9120071711
 20
-12.9582464088
 10
18.9055625344
 20
-13.26387044
 10
18.8997622844
 20
-13.569095885
 10
18.8946064471
 20
-13.8739215005
 10
18.890095043
 20
-14.178346034
 10
18.8862280897
 20
-14.4823682235
 10
18.8830056047
 20
-14.7859868146
 10
18.880427601
 20
-15.0892005549
 10
18.8784940883
 20
-15.3920081929
 10
18.8772050755
 20
-15.6944084775
 10
18.8765605681
 20
-15.9964001613
 10
18.8765605681
 20
-16.2979819984
 10
18.8772050755
 20
-16.5991527428
 10
18.8784940883
 20
-16.8999111526
 10
18.880427601
 20
-17.2002559872
 10
18.8830056047
 20
-17.5001860045
 10
18.8862280897
 20
-17.7996999678
 10
18.8900950431
 20
-18.0987966422
 10
18.8946064471
 20
-18.3974747913
 10
18.8997622844
 20
-18.6957331789
 10
18.9055625344
 20
-18.9935705804
 10
18.9120071711
 20
-19.2909857794
 10
18.9190961696
 20
-19.5879775438
 10
18.9268295018
 20
-19.8845446558
 10
18.9352071336
 20
-20.1806859225
 10
18.9442290329
 20
-20.4764001228
 10
18.9538951643
 20
-20.7716860386
 10
18.9642054853
 20
-21.0665424843
 10
18.9751599571
 20
-21.3609682581
 10
18.9867585362
 20
-21.6549621334
 10
18.9990011705
 20
-21.9485228891
 10
19.0118878138
 20
-22.2416493363
 10
19.0254184146
 20
-22.5343402467
 10
19.0395929089
 20
-22.8265943439
 10
19.054411242
 20
-23.1184104305
 10
19.0698733551
 20
-23.4097872988
 10
19.0859791733
 20
-23.7007236604
 10
19.1027286321
 20
-23.9912182911
 10
19.1201216662
 20
-24.2812700223
 10
19.1381581962
 20
-24.5708776526
 10
19.156838148
 20
-24.8600399409
 10
19.1761614507
 20
-25.1487557473
 10
19.1961280265
 20
-25.4370240239
 10
19.2167377965
 20
-25.7248435647
 10
19.2379906815
 20
-26.0122132049
 10
19.2598866016
 20
-26.2991319592
 10
19.2824254762
 20
-26.5855986847
 10
19.3056072156
 20
-26.8716121627
 10
19.3294317243
 20
-27.1571712971
 10
19.3538989193
 20
-27.4422749965
 10
19.3790086995
 20
-27.7269220014
 10
19.4047609387
 20
-28.011110966
 10
19.4311555422
 20
-28.2948407664
 10
19.4581924033
 20
-28.5781101893
 10
19.4858713713
 20
-28.860917761
 10
19.5141923216
 20
-29.1432622168
 10
19.5431551578
 20
-29.4251424995
 10
19.5727597657
 20
-29.7065574511
  0
LWPOLYLINE
  5
37B
100
AcDbEntity
  8
RACCORDO
100
AcDbPolyline
 62
250
  6
CONTINUOUS
 90
103
 70
0
 10
19.5431551578
 20
-2.0201674045
 10
19.5733594478
 20
-1.6947271255
 10
19.5740413333
 20
-1.6883613444
 10
19.5748052894
 20
-1.6819476234
 10
19.5756511672
 20
-1.6754872124
 10
19.5765788018
 20
-1.6689813706
 10
19.5775880124
 20
-1.662431366
 10
19.5786786023
 20
-1.6558384752
 10
19.579850359
 20
-1.649203983
 10
19.5811030541
 20
-1.6425291826
 10
19.5824364435
 20
-1.6358153749
 10
19.5838502672
 20
-1.6290638685
 10
19.5853442498
 20
-1.622275979
 10
19.5869180999
 20
-1.6154530296
 10
19.588571511
 20
-1.6085963501
 10
19.5903041608
 20
-1.6017072767
 10
19.5921157114
 20
-1.5947871521
 10
19.59400581
 20
-1.5878373251
 10
19.5959740881
 20
-1.5808591502
 10
19.5980201621
 20
-1.5738539875
 10
19.6001436331
 20
-1.5668232022
 10
19.6023440875
 20
-1.5597681646
 10
19.6046210962
 20
-1.5526902498
 10
19.6069742155
 20
-1.5455908373
 10
19.6094029868
 20
-1.5384713106
 10
19.6119069367
 20
-1.5313330575
 10
19.6144855771
 20
-1.5241774691
 10
19.6171384056
 20
-1.51700594
 10
19.6198649051
 20
-1.5098198681
 10
19.6226645441
 20
-1.5026206538
 10
19.6255367771
 20
-1.4954097003
 10
19.6284810442
 20
-1.488188413
 10
19.6314967717
 20
-1.4809581993
 10
19.6345833716
 20
-1.4737204683
 10
19.6377402426
 20
-1.4664766308
 10
19.6409667692
 20
-1.4592280985
 10
19.6442623226
 20
-1.4519762841
 10
19.6476262606
 20
-1.4447226011
 10
19.6510579276
 20
-1.4374684632
 10
19.6545566546
 20
-1.4302152841
 10
19.6581217598
 20
-1.4229644777
 10
19.6617525483
 20
-1.4157174569
 10
19.6654483125
 20
-1.4084756343
 10
19.6692083322
 20
-1.4012404212
 10
19.6730318744
 20
-1.3940132279
 10
19.676918194
 20
-1.3867954629
 10
19.6808665335
 20
-1.379588533
 10
19.6848761234
 20
-1.3723938426
 10
19.6889461823
 20
-1.3652127943
 10
19.6930759169
 20
-1.3580467873
 10
19.6972645222
 20
-1.3508972186
 10
19.701511182
 20
-1.3437654814
 10
19.7058150686
 20
-1.3366529658
 10
19.7101753431
 20
-1.3295610579
 10
19.7145911557
 20
-1.3224911401
 10
19.7190616459
 20
-1.3154445901
 10
19.7235859422
 20
-1.3084227815
 10
19.728163163
 20
-1.3014270827
 10
19.732792416
 20
-1.2944588571
 10
19.7374727992
 20
-1.287519463
 10
19.7422034002
 20
-1.2806102527
 10
19.7469832971
 20
-1.2737325729
 10
19.7518115583
 20
-1.266887764
 10
19.7566872427
 20
-1.2600771601
 10
19.7616094002
 20
-1.2533020886
 10
19.7665770713
 20
-1.2465638699
 10
19.7715892878
 20
-1.2398638173
 10
19.776645073
 20
-1.2332032366
 10
19.7817434414
 20
-1.226583426
 10
19.7868833993
 20
-1.2200056756
 10
19.792063945
 20
-1.2134712676
 10
19.7972840688
 20
-1.2069814753
 10
19.8025427533
 20
-1.2005375638
 10
19.8078389736
 20
-1.1941407888
 10
19.8131716974
 20
-1.1877923972
 10
19.8185398854
 20
-1.1814936261
 10
19.8239424914
 20
-1.1752457034
 10
19.8293784624
 20
-1.1690498466
 10
19.8348467388
 20
-1.1629072633
 10
19.840346255
 20
-1.1568191507
 10
19.8458759392
 20
-1.1507866954
 10
19.8514347134
 20
-1.1448110732
 10
19.8570214945
 20
-1.1388934486
 10
19.8626351934
 20
-1.133034975
 10
19.8682747162
 20
-1.1272367942
 10
19.8739389636
 20
-1.1215000362
 10
19.8796268317
 20
-1.1158258193
 10
19.8853372119
 20
-1.1102152492
 10
19.8910689913
 20
-1.1046694194
 10
19.8968210528
 20
-1.099189411
 10
19.9025922753
 20
-1.0937762918
 10
19.9083815339
 20
-1.0884311169
 10
19.9141877004
 20
-1.083154928
 10
19.9200096432
 20
-1.0779487536
 10
19.9258462275
 20
-1.0728136083
 10
19.9316963158
 20
-1.0677504929
 10
19.937558768
 20
-1.0627603942
 10
19.9434324414
 20
-1.0578442847
 10
19.9493161912
 20
-1.0530031228
 10
19.9552088707
 20
-1.0482378518
 10
19.9611093315
 20
-1.0435494005
 10
19.9670164236
 20
-1.0389386827
 10
19.9729289956
 20
-1.034406597
  0
LINE
  5
37C
100
AcDbEntity
  8
RACCORDO
100
AcDbLine
 62
250
  6
CONTINUOUS
 10
-13.8820783748
 20
16.5748185434
 11
-13.877657479
 21
16.5760544389
  0
LINE
  5
37D
100
AcDbEntity
  8
RACCORDO
100
AcDbLine
 62
250
  6
CONTINUOUS
 10
-13.8864550379
 20
16.5736326611
 11
-13.8820783748
 21
16.5748185434
  0
LINE
  5
37E
100
AcDbEntity
  8
RACCORDO
100
AcDbLine
 62
250
  6
CONTINUOUS
 10
-13.8907873514
 20
16.572496329
 11
-13.8864550379
 21
16.5736326611
  0
LINE
  5
37F
100
AcDbEntity
  8
RACCORDO
100
AcDbLine
 62
250
  6
CONTINUOUS
 10
-13.8950752526
 20
16.5714092339
 11
-13.8907873514
 21
16.572496329
  0
LINE
  5
380
100
AcDbEntity
  8
RACCORDO
100
AcDbLine
 62
250
  6
CONTINUOUS
 10
-13.8993187567
 20
16.5703708781
 11
-13.8950752526
 21
16.5714092339
  0
LWPOLYLINE
  5
381
100
AcDbEntity
  8
RACCORDO
100
AcDbPolyline
 62
7
  6
CONTINUOUS
 90
98
 70
0
 10
-13.5861906622
 20
16.7830816996
 10
-13.5863496296
 20
16.7830430041
 10
-13.5863938207
 20
16.7830325823
 10
-13.5863676319
 20
16.7830385104
 10
-13.5862726713
 20
16.7830594477
 10
-13.5861097481
 20
16.7830942607
 10
-13.585879568
 20
16.7831418541
 10
-13.5855834004
 20
16.7832010351
 10
-13.5852219877
 20
16.7832707404
 10
-13.5847959664
 20
16.7833499406
 10
-13.5843062579
 20
16.7834375674
 10
-13.5837535582
 20
16.7835326103
 10
-13.5831384241
 20
16.7836340937
 10
-13.5824613773
 20
16.7837410566
 10
-13.5817230082
 20
16.7838525357
 10
-13.5809238367
 20
16.7839675871
 10
-13.5800640955
 20
16.7840853124
 10
-13.5791443428
 20
16.7842047721
 10
-13.5781650246
 20
16.7843250476
 10
-13.5771260393
 20
16.7844452871
 10
-13.5760278981
 20
16.7845645637
 10
-13.574870992
 20
16.7846819684
 10
-13.5736548765
 20
16.7847966713
 10
-13.5723800051
 20
16.7849077457
 10
-13.5710467305
 20
16.7850142772
 10
-13.5696543032
 20
16.7851154282
 10
-13.5682031367
 20
16.785210258
 10
-13.5666935437
 20
16.7852978338
 10
-13.5651244797
 20
16.7853772854
 10
-13.5634963071
 20
16.7854476454
 10
-13.5618093251
 20
16.7855079481
 10
-13.5600622652
 20
16.7855572636
 10
-13.5582554714
 20
16.7855945842
 10
-13.5563892224
 20
16.7856189009
 10
-13.5544620402
 20
16.7856292026
 10
-13.5524742258
 20
16.7856244298
 10
-13.550426085
 20
16.7856035177
 10
-13.5483160585
 20
16.7855653552
 10
-13.5461444135
 20
16.7855088204
 10
-13.5439115095
 20
16.7854327866
 10
-13.5416158676
 20
16.7853360365
 10
-13.5392577899
 20
16.7852173826
 10
-13.5368376678
 20
16.785075634
 10
-13.5343541315
 20
16.7849094669
 10
-13.5318075219
 20
16.7847176266
 10
-13.5291982995
 20
16.7844988578
 10
-13.5265252794
 20
16.7842517388
 10
-13.523788816
 20
16.7839749442
 10
-13.5209895045
 20
16.7836671629
 10
-13.5181265596
 20
16.7833269081
 10
-13.5152004209
 20
16.7829527986
 10
-13.5122117954
 20
16.7825434774
 10
-13.509160373
 20
16.7820974295
 10
-13.5060467415
 20
16.7816132407
 10
-13.5028717004
 20
16.7810895211
 10
-13.4996353579
 20
16.7805247527
 10
-13.4963380729
 20
16.7799174332
 10
-13.4929811398
 20
16.7792662232
 10
-13.4895662116
 20
16.77856987
 10
-13.4860939516
 20
16.7778269308
 10
-13.4825656876
 20
16.7770361013
 10
-13.4789842508
 20
16.7761964497
 10
-13.4753507092
 20
16.7753066781
 10
-13.4716663379
 20
16.7743655441
 10
-13.4679344637
 20
16.773372372
 10
-13.464156163
 20
16.7723259488
 10
-13.4603330231
 20
16.7712252129
 10
-13.4564693077
 20
16.7700699409
 10
-13.4525664815
 20
16.7688591689
 10
-13.4486260346
 20
16.7675919608
 10
-13.4446524168
 20
16.7662684036
 10
-13.4406472478
 20
16.7648877507
 10
-13.4366120931
 20
16.7634492637
 10
-13.4325514352
 20
16.7619533216
 10
-13.4284667236
 20
16.7603992985
 10
-13.4243598596
 20
16.7587867705
 10
-13.4202360843
 20
16.7571167317
 10
-13.4160963181
 20
16.7553885578
 10
-13.4119430957
 20
16.7536023279
 10
-13.407784125
 20
16.7517605258
 10
-13.4036210316
 20
16.7498631756
 10
-13.3994556587
 20
16.7479104459
 10
-13.3952960253
 20
16.7459055769
 10
-13.3911439358
 20
16.7438490743
 10
-13.3870009415
 20
16.7417413725
 10
-13.3828746009
 20
16.7395861313
 10
-13.3787665192
 20
16.7373841575
 10
-13.3746782173
 20
16.7351362678
 10
-13.3706169878
 20
16.7328466278
 10
-13.36658425
 20
16.7305163494
 10
-13.3625813862
 20
16.7281465784
 10
-13.3586154413
 20
16.72574199
 10
-13.3546876165
 20
16.7233039753
 10
-13.3507990962
 20
16.7208339669
 10
-13.3469566556
 20
16.7183371255
 10
-13.3431611941
 20
16.715815049
 10
-13.3394137048
 20
16.7132694438
 10
-13.33572081
 20
16.7107060178
  0
LINE
  5
382
100
AcDbEntity
  8
RACCORDO
100
AcDbLine
 62
250
  6
CONTINUOUS
 10
-13.9035173824
 20
16.5693808718
 11
-13.8993187567
 21
16.5703708781
  0
LWPOLYLINE
  5
383
100
AcDbEntity
  8
RACCORDO
100
AcDbPolyline
 62
250
  6
CONTINUOUS
 90
3
 70
0
 10
-13.9097308261
 20
16.5679857675
 10
-13.9076709686
 20
16.5684389129
 10
-13.9035173824
 20
16.5693808718
  0
LINE
  5
384
100
AcDbEntity
  8
DRAFT
100
AcDbLine
 62
7
  6
CONTINUOUS
 10
21.8464597091
 20
-16.0347720441
 11
21.8464597091
 21
-13.5598983099
  0
LINE
  5
385
100
AcDbEntity
  8
RACCORDO
100
AcDbLine
 62
7
  6
CONTINUOUS
 10
22.5906243864
 20
-0.2515326818
 11
22.5906243864
 21
-13.0242383723
  0
LINE
  5
386
100
AcDbEntity
  8
RACCORDO
100
AcDbLine
 62
7
  6
CONTINUOUS
 10
22.5906243864
 20
-15.622839761
 11
22.5906243864
 21
-28.3955454514
  0
LWPOLYLINE
  5
387
100
AcDbEntity
  8
RACCORDO
100
AcDbPolyline
 62
250
  6
CONTINUOUS
 90
49
 70
0
 10
20.3966116251
 20
-29.6831760587
 10
20.3962531123
 20
-29.6891778569
 10
20.3958187101
 20
-29.6951188687
 10
20.3953085006
 20
-29.70099797
 10
20.3947225804
 20
-29.7068140487
 10
20.3940610602
 20
-29.7125660042
 10
20.3933240654
 20
-29.7182527485
 10
20.3925117352
 20
-29.7238732056
 10
20.3916242234
 20
-29.7294263121
 10
20.3906616979
 20
-29.7349110175
 10
20.3896243409
 20
-29.740326284
 10
20.3885123485
 20
-29.7456710872
 10
20.3873259311
 20
-29.7509444157
 10
20.3860653132
 20
-29.756145272
 10
20.3847307334
 20
-29.7612726721
 10
20.3833224441
 20
-29.7663256458
 10
20.3818407117
 20
-29.7713032373
 10
20.3802858166
 20
-29.7762045047
 10
20.378658053
 20
-29.7810285208
 10
20.3769577287
 20
-29.7857743729
 10
20.3751851656
 20
-29.7904411631
 10
20.373340699
 20
-29.7950280085
 10
20.3714246778
 20
-29.7995340413
 10
20.3694374645
 20
-29.803958409
 10
20.3673794352
 20
-29.8083002744
 10
20.3652509791
 20
-29.8125588162
 10
20.3630524989
 20
-29.8167332287
 10
20.3607844107
 20
-29.8208227221
 10
20.3584471435
 20
-29.8248265227
 10
20.3560411394
 20
-29.8287438729
 10
20.3535668538
 20
-29.8325740317
 10
20.3510247547
 20
-29.8363162744
 10
20.3484153231
 20
-29.839969893
 10
20.3457390526
 20
-29.8435341962
 10
20.3429964497
 20
-29.8470085097
 10
20.3401880331
 20
-29.8503921763
 10
20.3373143343
 20
-29.8536845556
 10
20.3343758968
 20
-29.8568850249
 10
20.3313732767
 20
-29.8599929786
 10
20.328307042
 20
-29.8630078287
 10
20.3251777728
 20
-29.8659290048
 10
20.3219860612
 20
-29.8687559542
 10
20.318732511
 20
-29.8714881422
 10
20.3154177378
 20
-29.8741250517
 10
20.3120423687
 20
-29.8766661839
 10
20.3086070423
 20
-29.8791110581
 10
20.3051124086
 20
-29.8814592117
 10
20.3015591287
 20
-29.8837102003
 10
20.2988256243
 20
-29.8853523027
  0
LWPOLYLINE
  5
388
100
AcDbEntity
  8
RACCORDO
100
AcDbPolyline
 62
250
  6
CONTINUOUS
 90
97
 70
0
 10
20.3966116254
 20
-1.7576780868
 10
20.3680003056
 20
-2.0659488507
 10
20.3399898018
 20
-2.373888228
 10
20.3125801139
 20
-2.6814962186
 10
20.28577112
 20
-2.9887742412
 10
20.2595629421
 20
-3.2957208772
 10
20.2339559457
 20
-3.6023318701
 10
20.2089501552
 20
-3.9086070428
 10
20.1845455463
 20
-4.2145465724
 10
20.1607424113
 20
-4.5201467338
 10
20.1375407636
 20
-4.8254074455
 10
20.1149405899
 20
-5.130328789
 10
20.0929421421
 20
-5.4349072842
 10
20.0715454296
 20
-5.7391428769
 10
20.050750443
 20
-6.0430356213
 10
20.0305574057
 20
-6.3465822007
 10
20.010966322
 20
-6.649782627
 10
19.9919771876
 20
-6.9526368883
 10
19.9735902121
 20
-7.2551416328
 10
19.9558053991
 20
-7.5572968997
 10
19.9386227451
 20
-7.8591026497
 10
19.9220424488
 20
-8.1605554132
 10
19.9060645154
 20
-8.4616552241
 10
19.8906889398
 20
-8.7624020485
 10
19.8759159054
 20
-9.062792316
 10
19.8617454199
 20
-9.3628260201
 10
19.8481774757
 20
-9.6625031673
 10
19.8352122332
 20
-9.961820206
 10
19.8228497004
 20
-10.2607771167
 10
19.8110898693
 20
-10.559373919
 10
19.7999328762
 20
-10.8576071201
 10
19.7893787288
 20
-11.1554766974
 10
19.7794274194
 20
-11.4529826735
 10
19.7700790614
 20
-11.7501216229
 10
19.7613336616
 20
-12.04689354
 10
19.7531912133
 20
-12.3432984304
 10
19.7456518092
 20
-12.6393328861
 10
19.7387154563
 20
-12.9349969068
 10
19.7323821477
 20
-13.2302904928
 10
19.7266519564
 20
-13.5252102367
 10
19.7215248892
 20
-13.8197561409
 10
19.7170009394
 20
-14.113928203
 10
19.7130801594
 20
-14.4077230087
 10
19.7097625563
 20
-14.7011405551
 10
19.7070481231
 20
-14.9941808451
 10
19.7049368913
 20
-15.286840473
 10
19.7034288682
 20
-15.5791194344
 10
19.7025240465
 20
-15.8710177338
 10
19.7022224368
 20
-16.1625319791
 10
19.7025240462
 20
-16.4536621657
 10
19.7034288677
 20
-16.7444082982
 10
19.7049368907
 20
-17.0347669979
 10
19.7070481221
 20
-17.3247382603
 10
19.7097625551
 20
-17.6143220899
 10
19.713080158
 20
-17.9035151213
 10
19.7170009377
 20
-18.1923173485
 10
19.7215248874
 20
-18.4807287776
 10
19.7266519543
 20
-18.7687460611
 10
19.7323821454
 20
-19.0563691881
 10
19.7387154537
 20
-19.3435981696
 10
19.7456518064
 20
-19.630429691
 10
19.7531912102
 20
-19.916863744
 10
19.7613336584
 20
-20.202900337
 10
19.7700790579
 20
-20.4885361802
 10
19.7794274157
 20
-20.7737712707
 10
19.7893787248
 20
-21.0586056114
 10
19.799932872
 20
-21.3430359212
 10
19.8110898648
 20
-21.6270622129
 10
19.8228496957
 20
-21.9106844738
 10
19.8352122282
 20
-22.1938993847
 10
19.8481774705
 20
-22.4767069551
 10
19.8617454144
 20
-22.7591071755
 10
19.8759158996
 20
-23.0410966989
 10
19.8906889337
 20
-23.3226755219
 10
19.9060645091
 20
-23.6038436479
 10
19.9220424423
 20
-23.8845977399
 10
19.9386227383
 20
-24.1649377581
 10
19.9558053922
 20
-24.4448637424
 10
19.9735902049
 20
-24.7243724762
 10
19.9919771802
 20
-25.0034639155
 10
20.0109663144
 20
-25.2821381043
 10
20.0305573978
 20
-25.5603919575
 10
20.0507504349
 20
-25.8382254579
 10
20.0715454212
 20
-26.1156386227
 10
20.0929421333
 20
-26.3926284195
 10
20.1149405808
 20
-26.6691948906
 10
20.1375407541
 20
-26.9453379936
 10
20.1607424014
 20
-27.2210545698
 10
20.1845455359
 20
-27.4963446829
 10
20.2089501443
 20
-27.7712082692
 10
20.2339559345
 20
-28.045641978
 10
20.2595629306
 20
-28.3196459535
 10
20.2857711085
 20
-28.5932200516
 10
20.3125801033
 20
-28.8663604895
 10
20.3399897936
 20
-29.1390660062
 10
20.3680003009
 20
-29.4113378626
 10
20.3966116252
 20
-29.6831760587
  0
LINE
  5
389
100
AcDbEntity
  8
DRAFT
100
AcDbLine
 62
7
  6
CONTINUOUS
 10
21.8464597091
 20
-13.5598983099
 11
22.5906243864
 21
-13.0242383723
  0
LINE
  5
38A
100
AcDbEntity
  8
DRAFT
100
AcDbLine
 62
7
  6
CONTINUOUS
 10
21.9895836224
 20
-15.197839761
 11
21.8464597091
 21
-15.2770659889
  0
LINE
  5
38B
100
AcDbEntity
  8
DRAFT
100
AcDbLine
 62
7
  6
CONTINUOUS
 10
22.5906243864
 20
-15.622839761
 11
21.8464597091
 21
-16.0347720441
  0
LINE
  5
38C
100
AcDbEntity
  8
0
100
AcDbLine
 62
7
  6
CONTINUOUS
 10
13.790830715
 20
-23.2859538838
 11
13.7376421893
 21
-23.323563851
  0
LINE
  5
38D
100
AcDbEntity
  8
0
100
AcDbLine
 62
7
  6
CONTINUOUS
 10
13.9888305132
 20
-23.4259608838
 11
13.9356419875
 21
-23.463570851
  0
LINE
  5
38E
100
AcDbEntity
  8
0
100
AcDbLine
 62
7
  6
CONTINUOUS
 10
14.4265441065
 20
-23.7354711338
 11
14.3733555808
 21
-23.773081101
  0
LINE
  5
38F
100
AcDbEntity
  8
0
100
AcDbLine
 62
7
  6
CONTINUOUS
 10
14.6245439047
 20
-23.8754781338
 11
14.571355379
 21
-23.913088101
  0
LINE
  5
390
100
AcDbEntity
  8
0
100
AcDbLine
 62
7
  6
CONTINUOUS
 10
14.7565412953
 20
-23.9688143838
 11
14.7033527696
 21
-24.006424351
  0
LINE
  5
391
100
AcDbEntity
  8
0
100
AcDbLine
 62
7
  6
CONTINUOUS
 10
14.9545386187
 20
-24.1088196338
 11
14.901350093
 21
-24.146429601
  0
LINE
  5
392
100
AcDbEntity
  8
0
100
AcDbLine
 62
7
  6
CONTINUOUS
 10
14.3859051066
 20
-24.5846997876
 11
14.332688118
 21
-24.6223298811
  0
LINE
  5
393
100
AcDbEntity
  8
0
100
AcDbLine
 62
7
  6
CONTINUOUS
 10
15.1525285174
 20
-24.2488196338
 11
15.0993399917
 21
-24.286429601
  0
LINE
  5
394
100
AcDbEntity
  8
0
100
AcDbLine
 62
7
  6
CONTINUOUS
 10
15.4518471714
 20
-24.4604698838
 11
15.3986586457
 21
-24.498079851
  0
LINE
  5
395
100
AcDbEntity
  8
0
100
AcDbLine
 62
7
  6
CONTINUOUS
 10
15.0337528039
 20
-25.0427972876
 11
14.9805358154
 21
-25.0804273811
  0
LINE
  5
396
100
AcDbEntity
  8
0
100
AcDbLine
 62
7
  6
CONTINUOUS
 10
15.8215883576
 20
-24.7219163838
 11
15.7683998319
 21
-24.759526351
  0
LINE
  5
397
100
AcDbEntity
  8
0
100
AcDbLine
 62
7
  6
CONTINUOUS
 10
15.4297425009
 20
-25.3228042876
 11
15.3765255123
 21
-25.3604343811
  0
LINE
  5
398
100
AcDbEntity
  8
0
100
AcDbLine
 62
7
  6
CONTINUOUS
 10
16.1209070116
 20
-24.9335666338
 11
16.0677184859
 21
-24.971176601
  0
LINE
  5
399
100
AcDbEntity
  8
0
100
AcDbLine
 62
7
  6
CONTINUOUS
 10
15.8149291677
 20
-25.5951702087
 11
15.7617121791
 21
-25.6328003021
  0
LINE
  5
39A
100
AcDbEntity
  8
0
100
AcDbLine
 62
7
  6
CONTINUOUS
 10
16.5707547211
 20
-25.2516547931
 11
16.5175661954
 21
-25.2892647602
  0
LWPOLYLINE
  5
39B
100
AcDbEntity
  8
0
100
AcDbPolyline
 62
7
  6
CONTINUOUS
 90
150
 70
0
 10
17.9144344765
 20
-26.7028925776
 10
17.9149587054
 20
-26.7025188971
 10
17.9172109832
 20
-26.7008428653
 10
17.9194059838
 20
-26.6990927626
 10
17.9215436643
 20
-26.6972687313
 10
17.9236223333
 20
-26.6953721928
 10
17.9256417238
 20
-26.6934033375
 10
17.9276021081
 20
-26.6913619709
 10
17.9295026042
 20
-26.6892489376
 10
17.931343465
 20
-26.6870638472
 10
17.9331244428
 20
-26.684807086
 10
17.9348439041
 20
-26.6824806643
 10
17.9365015408
 20
-26.680084904
 10
17.9380976658
 20
-26.6776194795
 10
17.9396315767
 20
-26.6750854304
 10
17.9411034301
 20
-26.6724824036
 10
17.9425130741
 20
-26.6698107485
 10
17.9438593431
 20
-26.6670725584
 10
17.9451421132
 20
-26.6642679108
 10
17.9463615123
 20
-26.6613967249
 10
17.9475167531
 20
-26.6584608575
 10
17.9486077724
 20
-26.6554603789
 10
17.9496346371
 20
-26.6523952158
 10
17.9505967539
 20
-26.6492670102
 10
17.9514941673
 20
-26.6460753722
 10
17.9523268362
 20
-26.642820689
 10
17.9530940394
 20
-26.6395057682
 10
17.953795628
 20
-26.6361310846
 10
17.9544317535
 20
-26.6326961614
 10
17.9550021439
 20
-26.629202379
 10
17.9555068461
 20
-26.6256491257
 10
17.9559458158
 20
-26.6220370114
 10
17.9563186443
 20
-26.6183692489
 10
17.9566252333
 20
-26.6146462902
 10
17.9568656828
 20
-26.6108676821
 10
17.9570398809
 20
-26.6070352807
 10
17.957147809
 20
-26.6031487714
 10
17.9571894871
 20
-26.5992084677
 10
17.9571648602
 20
-26.5952171688
 10
17.9570738645
 20
-26.5911747849
 10
17.9569165647
 20
-26.5870814051
 10
17.9566930985
 20
-26.5829400977
 10
17.9564034595
 20
-26.5787512298
 10
17.9560476542
 20
-26.5745144341
 10
17.9556258395
 20
-26.570231677
 10
17.9551378974
 20
-26.5659022934
 10
17.9545839458
 20
-26.5615269486
 10
17.9539644946
 20
-26.5571096055
 10
17.9532796073
 20
-26.5526509687
 10
17.9525292196
 20
-26.5481503343
 10
17.9517136493
 20
-26.5436095538
 10
17.9508327366
 20
-26.5390279419
 10
17.9498866402
 20
-26.5344061848
 10
17.9488761554
 20
-26.5297481912
 10
17.9478013157
 20
-26.5250543427
 10
17.9466620858
 20
-26.5203242591
 10
17.9454591568
 20
-26.5155607073
 10
17.9441924888
 20
-26.5107636277
 10
17.9428621195
 20
-26.5059330817
 10
17.9414688563
 20
-26.5010720173
 10
17.9400125374
 20
-26.496180056
 10
17.9384933218
 20
-26.4912575785
 10
17.9369124972
 20
-26.4863086712
 10
17.9352702515
 20
-26.4813340049
 10
17.9335663935
 20
-26.4763329115
 10
17.9318016412
 20
-26.4713074697
 10
17.9299756558
 20
-26.4662568355
 10
17.9280887725
 20
-26.4611818556
 10
17.9261427204
 20
-26.4560871457
 10
17.9241377578
 20
-26.4509734797
 10
17.9220736222
 20
-26.4458400869
 10
17.9199512612
 20
-26.4406892661
 10
17.9177704158
 20
-26.4355204598
 10
17.9155313406
 20
-26.4303342288
 10
17.9132357537
 20
-26.4251345501
 10
17.9108836601
 20
-26.4199215496
 10
17.9084750499
 20
-26.4146951051
 10
17.9060116187
 20
-26.4094588212
 10
17.9034934941
 20
-26.4042130187
 10
17.9009205434
 20
-26.3989573809
 10
17.8982940711
 20
-26.3936945563
 10
17.8956136947
 20
-26.3884238738
 10
17.8928797914
 20
-26.3831460087
 10
17.8900948049
 20
-26.3778656285
 10
17.8872591595
 20
-26.3725835944
 10
17.8843724253
 20
-26.3672990496
 10
17.8814357644
 20
-26.3620140853
 10
17.8784486729
 20
-26.3567278614
 10
17.875411649
 20
-26.3514412224
 10
17.8723273573
 20
-26.3461587866
 10
17.8691961228
 20
-26.3408811838
 10
17.8660176145
 20
-26.3356077889
 10
17.8627935132
 20
-26.3303413383
 10
17.8595236429
 20
-26.3250815869
 10
17.8562081736
 20
-26.3198287844
 10
17.8528493044
 20
-26.3145864094
 10
17.8494468591
 20
-26.3093542677
 10
17.8460010079
 20
-26.3041325582
 10
17.8425144705
 20
-26.2989253483
 10
17.8389876382
 20
-26.29373326
 10
17.8354201135
 20
-26.2885556761
 10
17.8318134327
 20
-26.2833948061
 10
17.8281669896
 20
-26.2782498467
 10
17.8244813844
 20
-26.2731216057
 10
17.8207599627
 20
-26.2680147097
 10
17.8170033062
 20
-26.2629300061
 10
17.8132108273
 20
-26.2578666522
 10
17.8093841173
 20
-26.2528267394
 10
17.8055226677
 20
-26.2478096409
 10
17.8016269814
 20
-26.2428159879
 10
17.7977001662
 20
-26.2378497593
 10
17.7937424076
 20
-26.2329112541
 10
17.7897535147
 20
-26.2280001775
 10
17.7857360303
 20
-26.223119617
 10
17.7816900669
 20
-26.2182697392
 10
17.7776155067
 20
-26.2134503815
 10
17.7735145473
 20
-26.2086641384
 10
17.7693867305
 20
-26.2039105369
 10
17.7652325096
 20
-26.1991900536
 10
17.7610554485
 20
-26.1945067071
 10
17.7568561807
 20
-26.1898612409
 10
17.7526340681
 20
-26.185252915
 10
17.7483907681
 20
-26.180683522
 10
17.7441255707
 20
-26.1761523432
 10
17.7398391817
 20
-26.1716601006
 10
17.7355353819
 20
-26.1672107477
 10
17.7312147329
 20
-26.1628049118
 10
17.7268766691
 20
-26.1584419687
 10
17.7225232809
 20
-26.1541239944
 10
17.7181542499
 20
-26.1498507026
 10
17.713769891
 20
-26.1456223824
 10
17.7093732438
 20
-26.1414419728
 10
17.7049642235
 20
-26.1373094515
 10
17.7005429119
 20
-26.1332248432
 10
17.696112599
 20
-26.1291911578
 10
17.6916737215
 20
-26.1252088173
 10
17.68722584
 20
-26.1212774016
 10
17.6827709304
 20
-26.117398657
 10
17.6783083219
 20
-26.1135720482
 10
17.6738386832
 20
-26.109798112
 10
17.6693659992
 20
-26.106080203
 10
17.6648909964
 20
-26.1024189591
 10
17.6604129466
 20
-26.0988137435
 10
17.6559336535
 20
-26.0952659989
 10
17.6514524692
 20
-26.0917752336
 10
17.6469700405
 20
-26.0883419401
 10
17.6424901127
 20
-26.0849690372
 10
17.6380139343
 20
-26.0816574979
 10
17.6335402563
 20
-26.0784063496
 10
17.1654262672
 20
-25.7473710102
  0
LWPOLYLINE
  5
39C
100
AcDbEntity
  8
0
100
AcDbPolyline
 62
7
  6
CONTINUOUS
 90
150
 70
0
 10
17.9676364677
 20
-26.6652730889
 10
17.9681606325
 20
-26.6648994541
 10
17.9704128063
 20
-26.6632234979
 10
17.972607702
 20
-26.6614734713
 10
17.9747452764
 20
-26.6596495166
 10
17.9768238385
 20
-26.6577530554
 10
17.9788431211
 20
-26.6557842779
 10
17.9808033967
 20
-26.6537429896
 10
17.9827037831
 20
-26.6516300352
 10
17.9845445333
 20
-26.649445024
 10
17.9863253996
 20
-26.6471883425
 10
17.9880447486
 20
-26.644862001
 10
17.9897022722
 20
-26.6424663212
 10
17.9912982832
 20
-26.6400009776
 10
17.9928320794
 20
-26.6374670097
 10
17.9943038172
 20
-26.6348640645
 10
17.9957133449
 20
-26.6321924914
 10
17.9970594968
 20
-26.6294543836
 10
17.9983421491
 20
-26.6266498183
 10
17.9995614297
 20
-26.6237787152
 10
18.0007165513
 20
-26.6208429307
 10
18.0018074508
 20
-26.6178425353
 10
18.002834195
 20
-26.6147774556
 10
18.0037961907
 20
-26.6116493335
 10
18.0046934824
 20
-26.6084577792
 10
18.005526029
 20
-26.6052031798
 10
18.0062931093
 20
-26.601888343
 10
18.0069945745
 20
-26.5985137435
 10
18.0076305761
 20
-26.5950789043
 10
18.0082008423
 20
-26.5915852061
 10
18.0087054196
 20
-26.5880320371
 10
18.009144264
 20
-26.5844200071
 10
18.0095169667
 20
-26.5807523291
 10
18.0098234296
 20
-26.5770294547
 10
18.0100637527
 20
-26.5732509309
 10
18.010237824
 20
-26.5694186138
 10
18.010345625
 20
-26.5655321888
 10
18.0103871756
 20
-26.5615919694
 10
18.0103624212
 20
-26.5576007547
 10
18.0102712976
 20
-26.5535584549
 10
18.0101138696
 20
-26.5494651593
 10
18.0098902752
 20
-26.5453239358
 10
18.0096005078
 20
-26.5411351517
 10
18.009244574
 20
-26.5368984397
 10
18.0088226307
 20
-26.5326157663
 10
18.0083345599
 20
-26.5282864662
 10
18.0077804795
 20
-26.5239112047
 10
18.0071608997
 20
-26.5194939449
 10
18.0064758838
 20
-26.515035391
 10
18.0057253674
 20
-26.5105348395
 10
18.0049096687
 20
-26.5059941416
 10
18.0040286276
 20
-26.5014126122
 10
18.0030824029
 20
-26.4967909374
 10
18.0020717901
 20
-26.4921330258
 10
18.0009968226
 20
-26.4874392591
 10
17.9998574651
 20
-26.4827092573
 10
17.9986544089
 20
-26.4779457868
 10
17.997387614
 20
-26.4731487883
 10
17.9960571181
 20
-26.4683183231
 10
17.9946637286
 20
-26.4634573392
 10
17.9932072839
 20
-26.4585654583
 10
17.9916879429
 20
-26.4536430609
 10
17.9901069935
 20
-26.4486942333
 10
17.9884646235
 20
-26.4437196464
 10
17.9867606417
 20
-26.4387186322
 10
17.9849957662
 20
-26.4336932692
 10
17.9831696581
 20
-26.4286427134
 10
17.9812826529
 20
-26.4235678117
 10
17.9793364795
 20
-26.4184731796
 10
17.9773313964
 20
-26.4133595911
 10
17.975267141
 20
-26.4082262755
 10
17.9731446611
 20
-26.4030755314
 10
17.9709636974
 20
-26.3979068014
 10
17.9687245048
 20
-26.3927206464
 10
17.9664288014
 20
-26.3875210432
 10
17.9640765922
 20
-26.3823081179
 10
17.9616678673
 20
-26.3770817482
 10
17.9592043225
 20
-26.3718455386
 10
17.9566860853
 20
-26.36659981
 10
17.9541130229
 20
-26.3613442456
 10
17.9514864401
 20
-26.3560814938
 10
17.9488059542
 20
-26.3508108839
 10
17.9460719424
 20
-26.3455330908
 10
17.9432868488
 20
-26.3402527821
 10
17.9404510975
 20
-26.334970819
 10
17.9375642585
 20
-26.3296863447
 10
17.934627494
 20
-26.3244014504
 10
17.9316403002
 20
-26.3191152958
 10
17.9286031752
 20
-26.3138287256
 10
17.9255187838
 20
-26.3085463581
 10
17.9223874511
 20
-26.3032688231
 10
17.919208846
 20
-26.2979954954
 10
17.9159846492
 20
-26.2927291113
 10
17.9127146847
 20
-26.2874694257
 10
17.9093991226
 20
-26.2822166884
 10
17.9060401623
 20
-26.2769743779
 10
17.9026376272
 20
-26.2717423001
 10
17.899191688
 20
-26.2665206539
 10
17.8957050639
 20
-26.2613135066
 10
17.8921781466
 20
-26.25612148
 10
17.8886105384
 20
-26.2509439572
 10
17.8850037757
 20
-26.2457831475
 10
17.8813572524
 20
-26.2406382476
 10
17.8776715685
 20
-26.2355100654
 10
17.8739500699
 20
-26.2304032275
 10
17.8701933381
 20
-26.2253185811
 10
17.8664007857
 20
-26.2202552835
 10
17.8625740039
 20
-26.2152154262
 10
17.8587124841
 20
-26.2101983823
 10
17.8548167294
 20
-26.2052047831
 10
17.8508898475
 20
-26.2002386073
 10
17.8469320241
 20
-26.1953001541
 10
17.8429430682
 20
-26.1903891286
 10
17.8389255225
 20
-26.1855086182
 10
17.8348794996
 20
-26.1806587895
 10
17.8308048817
 20
-26.1758394799
 10
17.8267038664
 20
-26.1710532838
 10
17.8225759957
 20
-26.1662997284
 10
17.8184217225
 20
-26.1615792903
 10
17.8142446112
 20
-26.1568959878
 10
17.8100452949
 20
-26.1522505645
 10
17.8058231357
 20
-26.1476422805
 10
17.801579791
 20
-26.1430729282
 10
17.7973145508
 20
-26.138541789
 10
17.7930281207
 20
-26.134049585
 10
17.7887242818
 20
-26.1296002694
 10
17.7844035956
 20
-26.1251944697
 10
17.7800654966
 20
-26.1208315616
 10
17.7757120749
 20
-26.1165136211
 10
17.7713430124
 20
-26.1122403619
 10
17.7669586238
 20
-26.1080120729
 10
17.7625619488
 20
-26.1038316934
 10
17.7581529027
 20
-26.0996992009
 10
17.7537315672
 20
-26.0956146202
 10
17.7493012321
 20
-26.091580961
 10
17.7448623344
 20
-26.0875986454
 10
17.7404144347
 20
-26.0836672533
 10
17.7359595086
 20
-26.079788531
 10
17.7314968856
 20
-26.0759619431
 10
17.7270272342
 20
-26.0721880265
 10
17.7225545394
 20
-26.0684701357
 10
17.7180795276
 20
-26.0648089086
 10
17.7136014708
 20
-26.0612037084
 10
17.7091221724
 20
-26.0576559778
 10
17.7046409847
 20
-26.0541652251
 10
17.7001585544
 20
-26.0507319428
 10
17.6956786268
 20
-26.0473590496
 10
17.6912024504
 20
-26.0440475186
 10
17.6867287763
 20
-26.0407963771
 10
17.2186147928
 20
-25.7097610431
  0
LINE
  5
39D
100
AcDbEntity
  8
0
100
AcDbLine
 62
7
  6
CONTINUOUS
 10
16.7687619439
 20
-25.3916670431
 11
16.7155734183
 21
-25.4292770102
  0
LINE
  5
39E
100
AcDbEntity
  8
0
100
AcDbLine
 62
7
  6
CONTINUOUS
 10
16.2001236717
 20
-25.8675460376
 11
16.1469066832
 21
-25.9051761311
  0
LINE
  5
39F
100
AcDbEntity
  8
0
100
AcDbLine
 62
7
  6
CONTINUOUS
 10
16.6216006757
 20
-25.8272210695
 11
16.5683949801
 21
-25.8648431777
  0
LINE
  5
3A0
100
AcDbEntity
  8
0
100
AcDbLine
 62
7
  6
CONTINUOUS
 10
16.5301181793
 20
-26.1008852087
 11
16.4769011908
 21
-26.1385153021
  0
LINE
  5
3A1
100
AcDbEntity
  8
0
100
AcDbLine
 62
7
  6
CONTINUOUS
 10
17.2186147928
 20
-25.7097610431
 11
17.1654262672
 21
-25.7473710102
  0
LINE
  5
3A2
100
AcDbEntity
  8
0
100
AcDbLine
 62
7
  6
CONTINUOUS
 10
17.6822575704
 20
-26.037606091
 11
17.6290690448
 21
-26.0752160581
  0
LINE
  5
3A3
100
AcDbEntity
  8
0
100
AcDbLine
 62
7
  6
CONTINUOUS
 10
17.4470008864
 20
-26.2484784275
 11
17.3938004657
 21
-26.2860968058
  0
LINE
  5
3A4
100
AcDbEntity
  8
0
100
AcDbLine
 62
7
  6
CONTINUOUS
 10
17.1658342521
 20
-26.5504065376
 11
17.1126172635
 21
-26.5880366311
  0
LINE
  5
3A5
100
AcDbEntity
  8
0
100
AcDbLine
 62
7
  6
CONTINUOUS
 10
17.6878920704
 20
-26.4188141378
 11
17.6346916497
 21
-26.456432516
  0
LINE
  5
3A6
100
AcDbEntity
  8
0
100
AcDbLine
 62
7
  6
CONTINUOUS
 10
17.4958312345
 20
-26.7837474587
 11
17.442614246
 21
-26.8213775521
  0
LINE
  5
3A7
100
AcDbEntity
  8
ASSI
100
AcDbLine
 62
7
  6
CONTINUOUS
 10
17.9144344959
 20
-26.7028926027
 11
17.9676364871
 21
-26.665273114
  0
LINE
  5
3A8
100
AcDbEntity
  8
0
100
AcDbLine
 62
7
  6
CONTINUOUS
 10
18.0900927595
 20
-27.2039516297
 11
18.036875771
 21
-27.2415817231
  0
LWPOLYLINE
  5
3A9
100
AcDbEntity
  8
0
100
AcDbPolyline
 62
7
  6
CONTINUOUS
 90
53
 70
0
 10
17.7290038226
 20
-26.4779235645
 10
17.7288461806
 20
-26.4780343701
 10
17.7276679494
 20
-26.4788210875
 10
17.7264537334
 20
-26.4795602198
 10
17.7252044248
 20
-26.4802512765
 10
17.7239197524
 20
-26.4808943447
 10
17.7225999855
 20
-26.4814893388
 10
17.7212468268
 20
-26.4820355106
 10
17.7198603715
 20
-26.4825327401
 10
17.7184405225
 20
-26.4829811487
 10
17.7169886944
 20
-26.4833803502
 10
17.7155048708
 20
-26.4837303081
 10
17.7139890663
 20
-26.4840310604
 10
17.7124427422
 20
-26.4842823328
 10
17.710865685
 20
-26.4844840841
 10
17.7092581064
 20
-26.4846363569
 10
17.707622106
 20
-26.4847390033
 10
17.7059579765
 20
-26.4847919662
 10
17.7042654234
 20
-26.4847953041
 10
17.7025456658
 20
-26.4847490418
 10
17.7007982803
 20
-26.4846531109
 10
17.6990236885
 20
-26.4845075812
 10
17.6972243768
 20
-26.4843126851
 10
17.6954007176
 20
-26.484068417
 10
17.6935523367
 20
-26.4837747839
 10
17.6916806012
 20
-26.4834320363
 10
17.6897851679
 20
-26.483040072
 10
17.6878663783
 20
-26.4825989946
 10
17.685926626
 20
-26.4821093636
 10
17.6839660501
 20
-26.4815711594
 10
17.68198451
 20
-26.4809844028
 10
17.6799839797
 20
-26.4803497145
 10
17.6779644793
 20
-26.4796670722
 10
17.6759259875
 20
-26.4789364993
 10
17.6738704162
 20
-26.4781586855
 10
17.6717975079
 20
-26.4773334788
 10
17.6697075189
 20
-26.4764610322
 10
17.6676031331
 20
-26.4755424931
 10
17.6654847302
 20
-26.4745779969
 10
17.6633519293
 20
-26.4735674091
 10
17.6612062738
 20
-26.4725114716
 10
17.6590472957
 20
-26.4714099107
 10
17.656875462
 20
-26.4702630009
 10
17.6546937184
 20
-26.4690723061
 10
17.6525024861
 20
-26.4678380181
 10
17.6503013431
 20
-26.4665599456
 10
17.6480919703
 20
-26.4652390778
 10
17.6458739887
 20
-26.4638751619
 10
17.6436477769
 20
-26.462468451
 10
17.6414161527
 20
-26.4610206934
 10
17.639180055
 20
-26.4595324719
 10
17.6369385447
 20
-26.4580032039
 10
17.6346916216
 20
-26.4564328895
  0
LWPOLYLINE
  5
3AA
100
AcDbEntity
  8
RACCORDO
100
AcDbPolyline
 62
250
  6
CONTINUOUS
 90
112
 70
0
 10
20.3966116251
 20
-29.6831760587
 10
20.3904980951
 20
-29.6875640479
 10
20.3843142683
 20
-29.6918886162
 10
20.3780594735
 20
-29.6961508811
 10
20.3717311212
 20
-29.700353541
 10
20.3653302228
 20
-29.7044956904
 10
20.3588617479
 20
-29.7085731547
 10
20.3523254394
 20
-29.7125868521
 10
20.3457204307
 20
-29.7165376208
 10
20.3390513353
 20
-29.7204215556
 10
20.3323180982
 20
-29.7242395119
 10
20.3255200826
 20
-29.7279922714
 10
20.3186615675
 20
-29.7316761457
 10
20.3117427411
 20
-29.7352919228
 10
20.3047631957
 20
-29.7388403484
 10
20.2977268269
 20
-29.7423179445
 10
20.2906340612
 20
-29.7457254477
 10
20.2834847438
 20
-29.7490635721
 10
20.276282375
 20
-29.7523290274
 10
20.2690276152
 20
-29.7555225125
 10
20.2617205682
 20
-29.7586447213
 10
20.2543643375
 20
-29.7616925293
 10
20.2469598041
 20
-29.7646666128
 10
20.2395073291
 20
-29.7675676562
 10
20.2320096336
 20
-29.7703926785
 10
20.2244678018
 20
-29.773142346
 10
20.216882443
 20
-29.775817346
 10
20.209255919
 20
-29.7784148198
 10
20.2015894975
 20
-29.7809354356
 10
20.1938840203
 20
-29.7833798937
 10
20.1861415215
 20
-29.7857454402
 10
20.1783634304
 20
-29.7880327548
 10
20.1705508012
 20
-29.7902425596
 10
20.1627053763
 20
-29.7923721916
 10
20.1548287246
 20
-29.7944223491
 10
20.1469220901
 20
-29.7963937833
 10
20.1389869609
 20
-29.7982839114
 10
20.1310250239
 20
-29.8000934562
 10
20.1230376894
 20
-29.8018232027
 10
20.1150262281
 20
-29.8034706414
 10
20.106992425
 20
-29.8050365237
 10
20.0989378321
 20
-29.8065216717
 10
20.090863539
 20
-29.8079236448
 10
20.0827714096
 20
-29.8092432256
 10
20.0746631146
 20
-29.8104812755
 10
20.066539595
 20
-29.8116354205
 10
20.0584027767
 20
-29.8127064764
 10
20.0502544274
 20
-29.8136953442
 10
20.042095369
 20
-29.8145997162
 10
20.033927574
 20
-29.8154204424
 10
20.0257528869
 20
-29.8161584635
 10
20.0175720365
 20
-29.8168115386
 10
20.0093870284
 20
-29.8173805523
 10
20.0011997658
 20
-29.8178664843
 10
19.9930109065
 20
-29.8182671618
 10
19.9848224771
 20
-29.8185835044
 10
19.9766364238
 20
-29.8188165295
 10
19.9684533513
 20
-29.8189641339
 10
19.9602752977
 20
-29.8190272722
 10
19.9521042375
 20
-29.8190069988
 10
19.9439407376
 20
-29.8189012809
 10
19.9357868385
 20
-29.8187111083
 10
19.927644531
 20
-29.8184375713
 10
19.9195143561
 20
-29.8180787085
 10
19.911398349
 20
-29.8176355452
 10
19.9032985064
 20
-29.8171092062
 10
19.8952153523
 20
-29.8164978024
 10
19.8871509104
 20
-29.8158023945
 10
19.8791071741
 20
-29.8150241413
 10
19.8710846573
 20
-29.8141612255
 10
19.8630853664
 20
-29.8132147439
 10
19.855111284
 20
-29.8121858888
 10
19.8471629184
 20
-29.8110729137
 10
19.8392422543
 20
-29.8098769522
 10
19.8313512566
 20
-29.8085992297
 10
19.8234904312
 20
-29.8072380692
 10
19.8156617367
 20
-29.8057946416
 10
19.8078671152
 20
-29.8042702057
 10
19.8001070713
 20
-29.8026631516
 10
19.7923835342
 20
-29.8009746887
 10
19.7846984182
 20
-29.799206109
 10
19.7770522272
 20
-29.7973558673
 10
19.769446858
 20
-29.7954252122
 10
19.7618841928
 20
-29.7934154699
 10
19.7543647342
 20
-29.7913251561
 10
19.7468903439
 20
-29.7891555601
 10
19.7394628688
 20
-29.7869080428
 10
19.7320828087
 20
-29.7845811768
 10
19.7247519877
 20
-29.7821762933
 10
19.7174722145
 20
-29.7796947891
 10
19.7102439839
 20
-29.7771352892
 10
19.7030690807
 20
-29.7744991682
 10
19.6959492723
 20
-29.7717878595
 10
19.6888850468
 20
-29.7690000357
 10
19.6818781471
 20
-29.7661371164
 10
19.6749302972
 20
-29.7632005729
 10
19.6680419758
 20
-29.7601891201
 10
19.6612148821
 20
-29.7571042236
 10
19.654450695
 20
-29.7539473945
 10
19.6477498804
 20
-29.7507173839
 10
19.6411140926
 20
-29.7474157054
 10
19.6345449629
 20
-29.744043911
 10
19.6280429421
 20
-29.740600782
 10
19.6216096376
 20
-29.7370878817
 10
19.6152466315
 20
-29.7335068045
 10
19.6089543567
 20
-29.7298563556
 10
19.6027343719
 20
-29.7261381495
 10
19.5965882085
 20
-29.7223538247
 10
19.5905162785
 20
-29.7185022034
 10
19.584519729
 20
-29.7145839988
 10
19.5786004075
 20
-29.7106018437
 10
19.5727597657
 20
-29.7065574511
  0
LINE
  5
3AB
100
AcDbEntity
  8
RACCORDO
100
AcDbLine
 62
250
  6
CONTINUOUS
 10
20.3966116252
 20
-29.6831760587
 11
22.5906243864
 21
-28.3955454514
  0
LINE
  5
3AC
100
AcDbEntity
  8
RACCORDO
100
AcDbLine
 62
7
  6
CONTINUOUS
 10
20.2988256243
 20
-29.8853523027
 11
22.50220626
 21
-28.5922238414
  0
ARC
  5
3AD
100
AcDbEntity
  8
RACCORDO
100
AcDbCircle
 62
7
  6
CONTINUOUS
 10
19.9951332613
 20
-29.3678864114
 40
0.6
100
AcDbArc
 50
234.7356196172
 51
300.4079833576
  0
ARC
  5
3AE
100
AcDbEntity
  8
RACCORDO
100
AcDbCircle
 62
7
  6
CONTINUOUS
 10
-21.365393553
 20
27.8039205442
 40
0.6
100
AcDbArc
 50
130.0513455627
 51
175.2072063527
  0
ARC
  5
3AF
100
AcDbEntity
  8
RACCORDO
100
AcDbCircle
 62
7
  6
CONTINUOUS
 10
-21.365393553
 20
-0.1215774276
 40
0.6
100
AcDbArc
 50
185.5155257322
 51
234.7356717854
  0
ELLIPSE
  5
3B0
100
AcDbEntity
  8
RACCORDO
100
AcDbEllipse
 62
7
  6
CONTINUOUS
 10
-19.4109361789
 20
29.4468919381
 30
0.0
 11
-0.3470354473
 21
0.4914137604
 31
0.0
 40
0.4987101158
 41
-0.9531889164
 42
0.0420431208
  0
ELLIPSE
  5
3B1
100
AcDbEntity
  8
0
100
AcDbEllipse
 62
7
  6
CONTINUOUS
 10
159.4499922247
 20
94.4522738661
 30
0.0
 11
-0.2573339457
 21
228.5575162202
 31
0.0
 40
0.7320502981
 41
-4.1551297457
 42
-4.1525441887
  0
ELLIPSE
  5
3B2
100
AcDbEntity
  8
0
100
AcDbEllipse
 62
7
  6
CONTINUOUS
 10
160.9852203854
 20
93.366703623
 30
0.0
 11
64.3569226614
 21
205.610501648
 31
0.0
 40
0.6912146399
 41
-3.8946777159
 42
-3.8933626105
  0
ELLIPSE
  5
3B3
100
AcDbEntity
  8
0
100
AcDbEllipse
 62
7
  6
CONTINUOUS
 10
168.2725977272
 20
88.2137496875
 30
0.0
 11
150.8151492795
 21
150.3744487976
 31
0.0
 40
0.2655952353
 41
-3.6346599454
 42
-3.6279740432
  0
ELLIPSE
  5
3B4
100
AcDbEntity
  8
0
100
AcDbEllipse
 62
7
  6
CONTINUOUS
 10
160.9850856377
 20
93.3667989039
 30
0.0
 11
64.3540503966
 21
205.6118630865
 31
0.0
 40
0.6912189722
 41
-3.8979785223
 42
-3.8959601215
  0
ELLIPSE
  5
3B5
100
AcDbEntity
  8
0
100
AcDbEllipse
 62
7
  6
CONTINUOUS
 10
160.0577050395
 20
94.0225560137
 30
0.0
 11
73.1843988966
 21
201.2566463728
 31
0.0
 40
0.6762663434
 41
-3.8610271271
 42
-3.8566178351
  0
ELLIPSE
  5
3B6
100
AcDbEntity
  8
0
100
AcDbEllipse
 62
7
  6
CONTINUOUS
 10
167.1339730115
 20
89.0188789452
 30
0.0
 11
148.0509056685
 21
152.3331603566
 31
0.0
 40
0.2906993817
 41
-3.6350079422
 42
-3.6306542627
  0
ELLIPSE
  5
3B7
100
AcDbEntity
  8
0
100
AcDbEllipse
 62
7
  6
CONTINUOUS
 10
158.205146736
 20
95.3325125526
 30
0.0
 11
64.3539088897
 21
205.6119301591
 31
0.0
 40
0.6912191856
 41
-3.9000610221
 42
-3.8933751199
  0
ELLIPSE
  5
3B8
100
AcDbEntity
  8
0
100
AcDbEllipse
 62
7
  6
CONTINUOUS
 10
166.1283687783
 20
89.7299485177
 30
0.0
 11
150.8150157582
 21
150.3745431661
 31
0.0
 40
0.265596453
 41
-3.6346599249
 42
-3.630056717
  0
ELLIPSE
  5
3B9
100
AcDbEntity
  8
RACCORDO
100
AcDbEllipse
 62
7
  6
CONTINUOUS
 10
22.1657780806
 20
0.0477153457
 30
0.0
 11
-0.3467368537
 21
0.4897246201
 31
0.0
 40
0.501292524
 41
-2.5255069615
 42
-0.9574496904
  0
ELLIPSE
  5
3BA
100
AcDbEntity
  8
RACCORDO
100
AcDbEllipse
 62
7
  6
CONTINUOUS
 10
22.1657780806
 20
-28.0939700713
 30
0.0
 11
-0.3470354473
 21
0.4914137604
 31
0.0
 40
0.4987101158
 41
-3.1836357744
 42
-2.5267242989
  0
ELLIPSE
  5
3BB
100
AcDbEntity
  8
0
100
AcDbEllipse
 62
7
  6
CONTINUOUS
 10
159.6730479481
 20
94.2945496514
 30
0.0
 11
-0.2561336518
 21
228.5572062584
 31
0.0
 40
0.7320503028
 41
-4.1552860181
 42
-4.1525396587
  0
ELLIPSE
  5
3BC
100
AcDbEntity
  8
0
100
AcDbEllipse
 62
7
  6
CONTINUOUS
 10
159.6730479481
 20
94.2945496514
 30
0.0
 11
-0.2560422081
 21
228.475607827
 31
0.0
 40
0.7320503028
 41
-4.155011673
 42
-4.1525098894
  0
ELLIPSE
  5
3BD
100
AcDbEntity
  8
0
100
AcDbEllipse
 62
7
  6
CONTINUOUS
 10
165.4754267711
 20
90.1916482387
 30
0.0
 11
121.293511276
 21
171.520814472
 31
0.0
 40
0.499958854
 41
-3.6764769986
 42
-3.6738914248
  0
ELLIPSE
  5
3BE
100
AcDbEntity
  8
0
100
AcDbEllipse
 62
7
  6
CONTINUOUS
 10
165.4754267711
 20
90.1916482387
 30
0.0
 11
121.2502076304
 21
171.4595789081
 31
0.0
 40
0.499958854
 41
-3.6758739366
 42
-3.6738616556
  0
ELLIPSE
  5
3BF
100
AcDbEntity
  8
0
100
AcDbEllipse
 62
7
  6
CONTINUOUS
 10
165.4718580509
 20
90.1941717049
 30
0.0
 11
121.2856830602
 21
171.5263499034
 31
0.0
 40
0.5000072641
 41
-3.679363512
 42
-3.6777367113
  0
ELLIPSE
  5
3C0
100
AcDbEntity
  8
0
100
AcDbEllipse
 62
7
  6
CONTINUOUS
 10
165.4718580509
 20
90.1941717049
 30
0.0
 11
121.2423822094
 21
171.4651123632
 31
0.0
 40
0.5000072641
 41
-3.6787643752
 42
-3.6777083163
  0
ELLIPSE
  5
3C1
100
AcDbEntity
  8
0
100
AcDbEllipse
 62
7
  6
CONTINUOUS
 10
161.183050578
 20
93.2268165522
 30
0.0
 11
64.3532350599
 21
205.6122495453
 31
0.0
 40
0.6912202019
 41
-3.9000638432
 42
-3.893377941
  0
ELLIPSE
  5
3C2
100
AcDbEntity
  8
0
100
AcDbEllipse
 62
7
  6
CONTINUOUS
 10
161.183050578
 20
93.2268165522
 30
0.0
 11
64.330259967
 21
205.5388428158
 31
0.0
 40
0.6912202019
 41
-3.900036477
 42
-3.8933481717
  0
ELLIPSE
  5
3C3
100
AcDbEntity
  8
0
100
AcDbEllipse
 62
7
  6
CONTINUOUS
 10
168.4706439906
 20
88.0737098316
 30
0.0
 11
150.8154717778
 21
150.3742208663
 31
0.0
 40
0.265592294
 41
-3.6292891746
 42
-3.6279740692
  0
ELLIPSE
  5
3C4
100
AcDbEntity
  8
0
100
AcDbEllipse
 62
7
  6
CONTINUOUS
 10
168.4706439906
 20
88.0737098316
 30
0.0
 11
150.7616283391
 21
150.320534961
 31
0.0
 40
0.265592294
 41
-3.6286843649
 42
-3.6279443
  0
ELLIPSE
  5
3C5
100
AcDbEntity
  8
0
100
AcDbEllipse
 62
7
  6
CONTINUOUS
 10
168.4704238746
 20
88.0738654772
 30
0.0
 11
150.8139822101
 21
150.3752736453
 31
0.0
 40
0.2656058792
 41
-3.6325779844
 42
-3.6305595836
  0
ELLIPSE
  5
3C6
100
AcDbEntity
  8
0
100
AcDbEllipse
 62
7
  6
CONTINUOUS
 10
168.4704238746
 20
88.0738654772
 30
0.0
 11
150.7601393032
 21
150.3215873641
 31
0.0
 40
0.2656058792
 41
-3.6316331554
 42
-3.630530744
  0
ELLIPSE
  5
3C7
100
AcDbEntity
  8
0
100
AcDbEllipse
 62
7
  6
CONTINUOUS
 10
167.3319287211
 20
88.8789031205
 30
0.0
 11
148.0506125492
 21
152.3333685905
 31
0.0
 40
0.2907020299
 41
-3.6327314312
 42
-3.6283221559
  0
ELLIPSE
  5
3C8
100
AcDbEntity
  8
0
100
AcDbEllipse
 62
7
  6
CONTINUOUS
 10
167.3319287211
 20
88.8789031205
 30
0.0
 11
147.9977562077
 21
152.2789832394
 31
0.0
 40
0.2907020299
 41
-3.6312897958
 42
-3.6282923867
  0
ELLIPSE
  5
3C9
100
AcDbEntity
  8
0
100
AcDbEllipse
 62
7
  6
CONTINUOUS
 10
160.2556505208
 20
93.8825874216
 30
0.0
 11
73.1832472005
 21
201.2572368423
 31
0.0
 40
0.6762685217
 41
-3.8633085101
 42
-3.8589548307
  0
ELLIPSE
  5
3CA
100
AcDbEntity
  8
0
100
AcDbEllipse
 62
7
  6
CONTINUOUS
 10
160.2556505208
 20
93.8825874216
 30
0.0
 11
73.1571196578
 21
201.1853849191
 31
0.0
 40
0.6762685217
 41
-3.863281144
 42
-3.859346266
  0
ELLIPSE
  5
3CB
100
AcDbEntity
  8
0
100
AcDbEllipse
 62
7
  6
CONTINUOUS
 10
158.4031526405
 20
95.1925012349
 30
0.0
 11
64.3540539135
 21
205.6118614195
 31
0.0
 40
0.6912189668
 41
-3.9000604185
 42
-3.8954572107
  0
ELLIPSE
  5
3CC
100
AcDbEntity
  8
0
100
AcDbEllipse
 62
7
  6
CONTINUOUS
 10
158.4031526405
 20
95.1925012349
 30
0.0
 11
64.3310785283
 21
205.5384548285
 31
0.0
 40
0.6912189668
 41
-3.9000330524
 42
-3.895773174
  0
ELLIPSE
  5
3CD
100
AcDbEntity
  8
0
100
AcDbEllipse
 62
7
  6
CONTINUOUS
 10
166.3264533673
 20
89.5898815615
 30
0.0
 11
150.8156135342
 21
150.3741206776
 31
0.0
 40
0.2655910011
 41
-3.6346599421
 42
-3.6279740566
  0
ELLIPSE
  5
3CE
100
AcDbEntity
  8
0
100
AcDbEllipse
 62
7
  6
CONTINUOUS
 10
166.3264533673
 20
89.5898815615
 30
0.0
 11
150.7617700449
 21
150.320434808
 31
0.0
 40
0.2655910011
 41
-3.6346325759
 42
-3.6279442873
  0
ENDSEC
  0
SECTION
  2
OBJECTS
  0
DICTIONARY
  5
C
100
AcDbDictionary
280
0
281
1
  3
ACAD_GROUP
350
D
  3
ACAD_MLINESTYLE
350
17
  3
ACAD_LAYOUT
350
1A
  3
ACAD_PLOTSETTINGS
350
19
  3
ACAD_PLOTSTYLENAME
350
E
  0
DICTIONARY
  5
D
102
{ACAD_REACTORS
330
C
102
}
100
AcDbDictionary
280
0
281
1
  0
ACDBDICTIONARYWDFLT
  5
E
102
{ACAD_REACTORS
330
C
102
}
100
AcDbDictionary
281
1
  3
Normal
350
F
100
AcDbDictionaryWithDefault
340
F
  0
DICTIONARY
  5
17
102
{ACAD_REACTORS
330
C
102
}
100
AcDbDictionary
280
0
281
1
  3
Standard
350
18
  0
DICTIONARY
  5
19
102
{ACAD_REACTORS
330
C
102
}
100
AcDbDictionary
281
1
  0
DICTIONARY
  5
1A
102
{ACAD_REACTORS
330
C
102
}
100
AcDbDictionary
281
1
  3
Model
350
3CF
  3
Layout1
350
3D0
  0
ACDBPLACEHOLDER
  5
F
102
{ACAD_REACTORS
330
E
102
}
  0
MLINESTYLE
  5
18
102
{ACAD_REACTORS
330
17
102
}
100
AcDbMlineStyle
  2
STANDARD
 70
0
  3

 62
256
 51
90.0
 52
90.0
 71
2
 49
0.5
 62
256
  6
BYLAYER
 49
-0.5
 62
256
  6
BYLAYER
  0
LAYOUT
  5
3CF
102
{ACAD_REACTORS
330
1A
102
}
100
AcDbPlotSettings
  1

  2
none_device
  4
ISO_A4_(297.00_x_210.00_MM)
  6

 40
0.0
 41
0.0
 42
0.0
 43
0.0
 44
297.0
 45
210.0
 46
0.0
 47
0.0
 48
0.0
 49
0.0
140
0.0
141
0.0
142
1.0
143
1.0
 70
1024
 72
1
 73
0
 74
0
  7

 75
0
147
1.0
148
0.0
149
0.0
100
AcDbLayout
  1
Model
 70
0
 71
0
 10
0.0
 20
0.0
 11
297.0
 21
210.0
 12
0.0
 22
0.0
 32
0.0
 14
0.0
 24
0.0
 34
0.0
 15
0.0
 25
0.0
 35
0.0
146
0.0
 13
0.0
 23
0.0
 33
0.0
 16
1.0
 26
0.0
 36
0.0
 17
0.0
 27
1.0
 37
0.0
 76
0
330
212
345
0
346
0
  0
LAYOUT
  5
3D0
102
{ACAD_REACTORS
330
1A
102
}
100
AcDbPlotSettings
  1

  2
none_device
  4
ISO_A4_(297.00_x_210.00_MM)
  6

 40
0.0
 41
0.0
 42
0.0
 43
0.0
 44
297.0
 45
210.0
 46
0.0
 47
0.0
 48
0.0
 49
0.0
140
0.0
141
0.0
142
1.0
143
1.0
 70
0
 72
1
 73
0
 74
0
  7

 75
0
147
1.0
148
0.0
149
0.0
100
AcDbLayout
  1
Layout1
 70
0
 71
1
 10
0.0
 20
0.0
 11
297.0
 21
210.0
 12
0.0
 22
0.0
 32
0.0
 14
0.0
 24
0.0
 34
0.0
 15
0.0
 25
0.0
 35
0.0
146
0.0
 13
0.0
 23
0.0
 33
0.0
 16
1.0
 26
0.0
 36
0.0
 17
0.0
 27
1.0
 37
0.0
 76
0
330
213
345
0
346
0
  0
ENDSEC
  0
EOF
