  0
SECTION
  2
HEADER
  9
$ACADVER
  1
AC1024
  9
$DWGCODEPAGE
  3
ANSI_1252
  9
$EXTMAX
 10
297.0
 20
210.0
 30
0.0
  9
$EXTMIN
 10
0.0
 20
0.0
 30
0.0
  9
$LIMMIN
 10
0.0
 20
0.0
  9
$LIMMAX
 10
297.0
 20
210.0
  9
$VIEWCTR
 10
148.5
 20
105.0
  9
$VIEWSIZE
 40
210.0
  9
$CLAYER
  8
0
  9
$LTSCALE
 40
16.335
  9
$CELTYPE
  6
BYLAYER
  9
$DIMSCALE
 40
1.0
  9
$DIMASZ
 40
3.0
  9
$DIMEXO
 40
0.5
  9
$DIMDLI
 40
11.286
  9
$DIMEXE
 40
1.5
  9
$DIMCEN
 40
2.673
  9
$DIMLFAC
 40
1.0
  9
$DIMBLK
  1
_FILLED
  9
$DIMALT
 70
0
  9
$DIMALTF
 40
0.0393700787
  9
$DIMTXT
 40
3.0
  9
$DIMTOL
 70
1
  9
$DIMLIM
 70
0
  9
$DIMTFAC
 40
1.0
  9
$DIMTP
 40
0.01
  9
$DIMTM
 40
0.01
  9
$DIMGAP
 40
0.625
  9
$DIMDSEP
 70
44
  9
$AUNITS
 70
0
  9
$PDMODE
 70
3
  9
$PDSIZE
 40
3.0
  9
$HANDSEED
  5
3D8
  9
$TILEMODE
 70
1
  9
$MEASUREMENT
 70
1
  9
$INSUNITS
 70
4
  0
ENDSEC
  0
SECTION
  2
CLASSES
  0
CLASS
  1
ACDBDICTIONARYWDFLT
  2
AcDbDictionaryWithDefault
  3
AutoCAD 2000
 90
0
 91
1
280
0
281
0
  0
CLASS
  1
ACDBPLACEHOLDER
  2
AcDbPlaceHolder
  3
AutoCAD 2000
 90
0
 91
1
280
0
281
0
  0
CLASS
  1
LAYOUT
  2
AcDbLayout
  3
AutoCAD 2000
 90
0
 91
0
280
0
281
0
  0
ENDSEC
  0
SECTION
  2
TABLES
  0
TABLE
  2
VPORT
  5
8
100
AcDbSymbolTable
 70
2
  0
VPORT
  5
1F4
100
AcDbSymbolTableRecord
100
AcDbViewportTableRecord
  2
*ACTIVE
 70
0
 10
0.0
 20
0.0
 11
1.0
 21
1.0
 12
148.5
 22
105.0
 13
0.0
 23
0.0
 14
1.0
 24
1.0
 15
0.0
 25
0.0
 16
0.0
 26
0.0
 36
1.0
 17
0.0
 27
0.0
 37
0.0
 40
210.0
 41
1.4142857143
 42
50.0
 43
0.0
 44
0.0
 50
0.0
 51
0.0
 71
0
 72
100
 73
1
 74
1
 75
0
 76
0
 77
0
 78
0
  0
ENDTAB
  0
TABLE
  2
LTYPE
  5
5
100
AcDbSymbolTable
 70
6
  0
LTYPE
  5
14
100
AcDbSymbolTableRecord
100
AcDbLinetypeTableRecord
  2
BYBLOCK
 70
0
  3

 72
65
 73
0
 40
0.0
  0
LTYPE
  5
15
100
AcDbSymbolTableRecord
100
AcDbLinetypeTableRecord
  2
BYLAYER
 70
0
  3

 72
65
 73
0
 40
0.0
  0
LTYPE
  5
16
100
AcDbSymbolTableRecord
100
AcDbLinetypeTableRecord
  2
CONTINUOUS
 70
64
  3
Solid line
 72
65
 73
0
 40
0.0
  0
LTYPE
  5
1F5
100
AcDbSymbolTableRecord
100
AcDbLinetypeTableRecord
  2
CENTER
 70
64
  3
____ _ ____ _ ____ _ ____ _ ____ _ ____ _ ____
 72
65
 73
4
 40
0.6
 49
0.375
 74
0
 49
-0.075
 74
0
 49
0.075
 74
0
 49
-0.075
 74
0
  0
LTYPE
  5
1F6
100
AcDbSymbolTableRecord
100
AcDbLinetypeTableRecord
  2
HIDDEN
 70
64
  3
- - - - - - - - - - - - - - - - - - - -
 72
65
 73
2
 40
0.2
 49
0.1
 74
0
 49
-0.1
 74
0
  0
LTYPE
  5
1F7
100
AcDbSymbolTableRecord
100
AcDbLinetypeTableRecord
  2
PHANTOM
 70
64
  3
_____ _ _ _____ _ _ _____ _ _ _____
 72
65
 73
6
 40
0.8
 49
0.45
 74
0
 49
-0.05
 74
0
 49
0.1
 74
0
 49
-0.05
 74
0
 49
0.1
 74
0
 49
-0.05
 74
0
  0
LTYPE
  5
1F8
100
AcDbSymbolTableRecord
100
AcDbLinetypeTableRecord
  2
DOT
 70
64
  3
. . . . . . . . . . . . . . . . . . . .
 72
65
 73
2
 40
0.2
 49
0.1
 74
0
 49
-0.1
 74
0
  0
LTYPE
  5
1F9
100
AcDbSymbolTableRecord
100
AcDbLinetypeTableRecord
  2
DASHED
 70
64
  3
- - - - - - - - - - - - - - - - - - - -
 72
65
 73
2
 40
0.2
 49
0.1
 74
0
 49
-0.1
 74
0
  0
ENDTAB
  0
TABLE
  2
LAYER
  5
2
100
AcDbSymbolTable
 70
36
  0
LAYER
  5
10
100
AcDbSymbolTableRecord
100
AcDbLayerTableRecord
  2
0
 70
0
 62
7
  6
CONTINUOUS
370
-3
390
F
  0
LAYER
  5
1FA
100
AcDbSymbolTableRecord
100
AcDbLayerTableRecord
  2
DEFAULT_1
 70
0
 62
7
  6
CENTER
370
-3
390
F
  0
LAYER
  5
1FB
100
AcDbSymbolTableRecord
100
AcDbLayerTableRecord
  2
DEFAULT_2
 70
0
 62
7
  6
HIDDEN
370
-3
390
F
  0
LAYER
  5
1FC
100
AcDbSymbolTableRecord
100
AcDbLayerTableRecord
  2
DEFAULT_3
 70
0
 62
7
  6
PHANTOM
370
-3
390
F
  0
LAYER
  5
1FD
100
AcDbSymbolTableRecord
100
AcDbLayerTableRecord
  2
ASSI
 70
0
 62
7
  6
CONTINUOUS
370
-3
390
F
  0
LAYER
  5
1FE
100
AcDbSymbolTableRecord
100
AcDbLayerTableRecord
  2
COORDINATE
 70
0
 62
7
  6
CONTINUOUS
370
-3
390
F
  0
LAYER
  5
1FF
100
AcDbSymbolTableRecord
100
AcDbLayerTableRecord
  2
COORD_ORIGINE
 70
0
 62
7
  6
CONTINUOUS
370
-3
390
F
  0
LAYER
  5
200
100
AcDbSymbolTableRecord
100
AcDbLayerTableRecord
  2
COSMETICI
 70
0
 62
7
  6
CONTINUOUS
370
-3
390
F
  0
LAYER
  5
201
100
AcDbSymbolTableRecord
100
AcDbLayerTableRecord
  2
CURVE
 70
0
 62
7
  6
CONTINUOUS
370
-3
390
F
  0
LAYER
  5
202
100
AcDbSymbolTableRecord
100
AcDbLayerTableRecord
  2
DRAFT
 70
0
 62
7
  6
CONTINUOUS
370
-3
390
F
  0
LAYER
  5
203
100
AcDbSymbolTableRecord
100
AcDbLayerTableRecord
  2
IMPORT
 70
0
 62
7
  6
CONTINUOUS
370
-3
390
F
  0
LAYER
  5
204
100
AcDbSymbolTableRecord
100
AcDbLayerTableRecord
  2
INTF_1
 70
0
 62
7
  6
CONTINUOUS
370
-3
390
F
  0
LAYER
  5
205
100
AcDbSymbolTableRecord
100
AcDbLayerTableRecord
  2
NOTE
 70
0
 62
7
  6
CONTINUOUS
370
-3
390
F
  0
LAYER
  5
206
100
AcDbSymbolTableRecord
100
AcDbLayerTableRecord
  2
PIANI
 70
0
 62
7
  6
CONTINUOUS
370
-3
390
F
  0
LAYER
  5
207
100
AcDbSymbolTableRecord
100
AcDbLayerTableRecord
  2
PIANI_ORIGINE
 70
0
 62
7
  6
CONTINUOUS
370
-3
390
F
  0
LAYER
  5
208
100
AcDbSymbolTableRecord
100
AcDbLayerTableRecord
  2
PUNTI
 70
0
 62
7
  6
CONTINUOUS
370
-3
390
F
  0
LAYER
  5
209
100
AcDbSymbolTableRecord
100
AcDbLayerTableRecord
  2
RACCORDO
 70
0
 62
7
  6
CONTINUOUS
370
-3
390
F
  0
LAYER
  5
20A
100
AcDbSymbolTableRecord
100
AcDbLayerTableRecord
  2
RGB____0____0____0__
 70
0
 62
7
  6
CONTINUOUS
370
-3
390
F
  0
LAYER
  5
20B
100
AcDbSymbolTableRecord
100
AcDbLayerTableRecord
  2
SIMBOLI
 70
0
 62
7
  6
CONTINUOUS
370
-3
390
F
  0
LAYER
  5
20C
100
AcDbSymbolTableRecord
100
AcDbLayerTableRecord
  2
SNAPLINE
 70
0
 62
7
  6
CONTINUOUS
370
-3
390
F
  0
LAYER
  5
20D
100
AcDbSymbolTableRecord
100
AcDbLayerTableRecord
  2
SUPERFICI
 70
0
 62
7
  6
CONTINUOUS
370
-3
390
F
  0
LAYER
  5
20E
100
AcDbSymbolTableRecord
100
AcDbLayerTableRecord
  2
TRASH
 70
0
 62
7
  6
CONTINUOUS
370
-3
390
F
  0
LAYER
  5
20F
100
AcDbSymbolTableRecord
100
AcDbLayerTableRecord
  2
XSEC_DATUMS
 70
0
 62
7
  6
CONTINUOUS
370
-3
390
F
  0
ENDTAB
  0
TABLE
  2
STYLE
  5
3
100
AcDbSymbolTable
 70
1
  0
STYLE
  5
11
100
AcDbSymbolTableRecord
100
AcDbTextStyleTableRecord
  2
STANDARD
 70
0
 40
0.0
 41
0.8
 50
0.0
 71
0
 42
0.2
  3
txt
  4

  0
STYLE
  5
210
100
AcDbSymbolTableRecord
100
AcDbTextStyleTableRecord
  2
TEXTSTYLE_1
 70
0
 40
0.0
 41
0.8
 50
0.0
 71
0
 42
0.2
  3
gdt
  4

  0
ENDTAB
  0
TABLE
  2
VIEW
  5
6
100
AcDbSymbolTable
 70
0
  0
ENDTAB
  0
TABLE
  2
UCS
  5
7
100
AcDbSymbolTable
 70
0
  0
ENDTAB
  0
TABLE
  2
APPID
  5
9
100
AcDbSymbolTable
 70
1
  0
APPID
  5
211
100
AcDbSymbolTableRecord
100
AcDbRegAppTableRecord
  2
ACAD
 70
0
  0
ENDTAB
  0
TABLE
  2
BLOCK_RECORD
  5
1
100
AcDbSymbolTable
 70
0
  0
BLOCK_RECORD
  5
212
100
AcDbSymbolTableRecord
100
AcDbBlockTableRecord
  2
*Model_Space
  0
BLOCK_RECORD
  5
213
100
AcDbSymbolTableRecord
100
AcDbBlockTableRecord
  2
*Paper_Space
  0
BLOCK_RECORD
  5
214
100
AcDbSymbolTableRecord
100
AcDbBlockTableRecord
  2
_FILLED
  0
ENDTAB
  0
TABLE
  2
DIMSTYLE
  5
A
100
AcDbSymbolTable
 70
1
100
AcDbDimStyleTable
 71
0
  0
DIMSTYLE
105
215
100
AcDbSymbolTableRecord
100
AcDbDimStyleTableRecord
  2
STANDARD
 70
0
  3

  4

 40
1.0
 41
3.0
 42
0.5
 43
0.38
 44
1.5
 45
0.0
 46
0.0
 47
0.01
 48
0.01
140
3.0
141
0.09
142
0.0
143
25.4
144
1.0
145
0.0
146
1.0
147
0.625
 71
1
 72
0
 73
0
 74
0
 75
0
 76
0
 77
1
 78
8
 79
2
170
0
171
1
172
0
173
0
174
0
175
0
176
0
177
0
178
0
270
2
179
2
271
2
272
2
273
2
274
2
275
0
280
0
281
0
282
0
283
1
284
8
285
0
286
0
287
3
288
0
340
11
278
44
341
214
342
214
343
214
344
214
  0
ENDTAB
  0
ENDSEC
  0
SECTION
  2
BLOCKS
  0
BLOCK
  5
20
100
AcDbEntity
  8
0
100
AcDbBlockBegin
  2
*Model_Space
 70
0
 10
0.0
 20
0.0
 30
0.0
  3
*Model_Space
  1

  0
ENDBLK
  5
21
100
AcDbEntity
  8
0
100
AcDbBlockEnd
  0
BLOCK
  5
1C
100
AcDbEntity
  8
0
100
AcDbBlockBegin
  2
*Paper_Space
 70
0
 10
0.0
 20
0.0
 30
0.0
  3
*Paper_Space
  1

  0
ENDBLK
  5
1D
100
AcDbEntity
  8
0
100
AcDbBlockEnd
  0
BLOCK
  5
216
100
AcDbEntity
  8
0
100
AcDbBlockBegin
  2
_FILLED
 70
64
 10
0.0
 20
0.0
  3
_FILLED
  1

  0
SOLID
  5
217
100
AcDbEntity
  8
0
  6
BYBLOCK
 62
0
100
AcDbTrace
 10
0.0
 20
0.0
 11
-1.0
 21
0.3166666667
 12
-1.0
 22
-0.3166666667
 13
-1.0
 23
-0.3166666667
  0
ENDBLK
  5
218
100
AcDbEntity
  8
0
  6
BYBLOCK
 62
0
100
AcDbBlockEnd
  0
ENDSEC
  0
SECTION
  2
ENTITIES
  0
LINE
  5
219
100
AcDbEntity
  8
RACCORDO
100
AcDbLine
 62
7
  6
CONTINUOUS
 10
-52.3417904807
 20
62.7764398744
 11
-48.3747658777
 21
66.1112314274
  0
LINE
  5
21A
100
AcDbEntity
  8
RACCORDO
100
AcDbLine
 62
250
  6
CONTINUOUS
 10
-51.6140304023
 20
62.6738418373
 11
-47.6630344752
 21
65.9951592381
  0
LWPOLYLINE
  5
21B
100
AcDbEntity
  8
RACCORDO
100
AcDbPolyline
 62
250
  6
CONTINUOUS
 90
77
 70
0
 10
-52.3408347209
 20
62.7772397596
 10
-52.3348924281
 20
62.7820575658
 10
-52.3288194671
 20
62.7867175704
 10
-52.3226168747
 20
62.7912189776
 10
-52.3162857101
 20
62.795561019
 10
-52.3098270543
 20
62.799742953
 10
-52.30324201
 20
62.8037640657
 10
-52.2965317017
 20
62.8076236705
 10
-52.2896972751
 20
62.8113211082
 10
-52.2827398972
 20
62.8148557477
 10
-52.275660756
 20
62.8182269853
 10
-52.2684610602
 20
62.8214342454
 10
-52.2611420391
 20
62.8244769805
 10
-52.2537049424
 20
62.8273546709
 10
-52.24615104
 20
62.8300668253
 10
-52.2384816218
 20
62.8326129806
 10
-52.2306979972
 20
62.834992702
 10
-52.2228014953
 20
62.8372055833
 10
-52.2147934645
 20
62.8392512465
 10
-52.2066752719
 20
62.8411293424
 10
-52.1984483039
 20
62.8428395504
 10
-52.1901139652
 20
62.8443815783
 10
-52.1816736787
 20
62.8457551629
 10
-52.1731288858
 20
62.8469600696
 10
-52.1644810453
 20
62.8479960928
 10
-52.155731634
 20
62.8488630555
 10
-52.1468821457
 20
62.8495608097
 10
-52.1379340914
 20
62.8500892362
 10
-52.1288889991
 20
62.8504482449
 10
-52.1197484131
 20
62.8506377743
 10
-52.1105138942
 20
62.8506577923
 10
-52.1011870192
 20
62.8505082952
 10
-52.0917693806
 20
62.8501893088
 10
-52.0822625865
 20
62.8497008873
 10
-52.07266826
 20
62.8490431143
 10
-52.0629880395
 20
62.8482161021
 10
-52.0532235778
 20
62.8472199918
 10
-52.0433765422
 20
62.8460549535
 10
-52.033448614
 20
62.8447211862
 10
-52.0234414883
 20
62.8432189176
 10
-52.013356874
 20
62.8415484042
 10
-52.0031964929
 20
62.8397099312
 10
-51.9929620798
 20
62.8377038126
 10
-51.9826553823
 20
62.835530391
 10
-51.9722781603
 20
62.8331900373
 10
-51.9618321856
 20
62.8306831513
 10
-51.9513192418
 20
62.8280101609
 10
-51.940741124
 20
62.8251715226
 10
-51.9300996385
 20
62.822167721
 10
-51.9193966021
 20
62.8189992691
 10
-51.9086338424
 20
62.8156667079
 10
-51.8978131972
 20
62.8121706064
 10
-51.8869365141
 20
62.8085115615
 10
-51.8760056502
 20
62.804690198
 10
-51.8650224719
 20
62.8007071685
 10
-51.8539888546
 20
62.7965631529
 10
-51.8429066822
 20
62.7922588589
 10
-51.8317778471
 20
62.7877950215
 10
-51.8206042494
 20
62.7831724027
 10
-51.809387797
 20
62.778391792
 10
-51.7981304051
 20
62.7734540056
 10
-51.7868339958
 20
62.7683598866
 10
-51.7755004981
 20
62.7631103049
 10
-51.764131847
 20
62.7577061567
 10
-51.7527299838
 20
62.7521483649
 10
-51.7412968553
 20
62.7464378783
 10
-51.7298344137
 20
62.7405756722
 10
-51.7183446161
 20
62.7345627473
 10
-51.7068294244
 20
62.7284001305
 10
-51.6952908048
 20
62.7220888739
 10
-51.6837307275
 20
62.7156300552
 10
-51.6721511664
 20
62.7090247773
 10
-51.6605540987
 20
62.7022741679
 10
-51.6489415044
 20
62.6953793798
 10
-51.6373153665
 20
62.6883415901
 10
-51.6256776701
 20
62.6811620007
 10
-51.6140304023
 20
62.6738418373
  0
LWPOLYLINE
  5
21C
100
AcDbEntity
  8
RACCORDO
100
AcDbPolyline
 62
250
  6
CONTINUOUS
 90
109
 70
0
 10
-51.6140304023
 20
62.6738418373
 10
-51.6251988601
 20
62.6652853732
 10
-51.6363576561
 20
62.6565885448
 10
-51.6475048503
 20
62.647752864
 10
-51.658638505
 20
62.6387798668
 10
-51.6697566844
 20
62.6296711131
 10
-51.6808574559
 20
62.6204281865
 10
-51.6919388895
 20
62.6110526938
 10
-51.7029990588
 20
62.6015462649
 10
-51.714036041
 20
62.5919105524
 10
-51.7250479175
 20
62.5821472315
 10
-51.7360327738
 20
62.5722579995
 10
-51.7469887003
 20
62.5622445755
 10
-51.7579137922
 20
62.5521087005
 10
-51.7688061505
 20
62.5418521363
 10
-51.7796638814
 20
62.5314766662
 10
-51.7904850973
 20
62.5209840939
 10
-51.8012679172
 20
62.5103762434
 10
-51.8120104663
 20
62.4996549588
 10
-51.8227108772
 20
62.488822104
 10
-51.8333672897
 20
62.4778795624
 10
-51.8439778511
 20
62.466829236
 10
-51.854540717
 20
62.4556730462
 10
-51.8650540508
 20
62.4444129322
 10
-51.8755160251
 20
62.4330508516
 10
-51.8859248209
 20
62.4215887796
 10
-51.8962786288
 20
62.410028709
 10
-51.9065756488
 20
62.3983726493
 10
-51.9168140908
 20
62.3866226269
 10
-51.9269921749
 20
62.3747806845
 10
-51.9371081317
 20
62.3628488809
 10
-51.9471602026
 20
62.3508292901
 10
-51.95714664
 20
62.3387240019
 10
-51.9670657078
 20
62.3265351207
 10
-51.9769156818
 20
62.3142647655
 10
-51.9866948494
 20
62.3019150694
 10
-51.9964015107
 20
62.2894881793
 10
-52.0060339781
 20
62.2769862557
 10
-52.0155905771
 20
62.2644114719
 10
-52.0250696464
 20
62.2517660139
 10
-52.0344695379
 20
62.2390520803
 10
-52.0437886177
 20
62.2262718811
 10
-52.0530252656
 20
62.2134276383
 10
-52.0621778758
 20
62.2005215847
 10
-52.0712448573
 20
62.187555964
 10
-52.0802246337
 20
62.1745330302
 10
-52.089115644
 20
62.1614550473
 10
-52.0979163425
 20
62.1483242888
 10
-52.1066251993
 20
62.1351430375
 10
-52.1152407003
 20
62.1219135848
 10
-52.1237613477
 20
62.1086382307
 10
-52.1321856604
 20
62.0953192831
 10
-52.1405121737
 20
62.0819590573
 10
-52.1487394401
 20
62.0685598759
 10
-52.1568660294
 20
62.0551240685
 10
-52.1648905288
 20
62.0416539707
 10
-52.1728115433
 20
62.0281519242
 10
-52.1806276957
 20
62.0146202763
 10
-52.1883376274
 20
62.0010613795
 10
-52.195939998
 20
61.9874775909
 10
-52.2034334858
 20
61.973871272
 10
-52.2108167882
 20
61.9602447882
 10
-52.2180886215
 20
61.9466005084
 10
-52.2252477216
 20
61.9329408045
 10
-52.2322928439
 20
61.9192680514
 10
-52.2392227637
 20
61.9055846258
 10
-52.2460362762
 20
61.8918929067
 10
-52.2527321969
 20
61.8781952743
 10
-52.2593093617
 20
61.8644941098
 10
-52.2657666273
 20
61.8507917951
 10
-52.2721028711
 20
61.8370907124
 10
-52.2783169916
 20
61.8233932436
 10
-52.2844079083
 20
61.8097017697
 10
-52.2903745626
 20
61.7960186711
 10
-52.296215917
 20
61.7823463266
 10
-52.3019309562
 20
61.7686871129
 10
-52.3075186864
 20
61.7550434047
 10
-52.3129781365
 20
61.7414175739
 10
-52.3183083572
 20
61.7278119893
 10
-52.3235084219
 20
61.7142290161
 10
-52.3285774267
 20
61.7006710157
 10
-52.3335144902
 20
61.6871403451
 10
-52.3383187542
 20
61.6736393566
 10
-52.3429893835
 20
61.6601703972
 10
-52.3475255661
 20
61.6467358084
 10
-52.3519265135
 20
61.6333379259
 10
-52.3561914605
 20
61.6199790787
 10
-52.3603196657
 20
61.6066615893
 10
-52.3643104114
 20
61.5933877728
 10
-52.3681630039
 20
61.5801599369
 10
-52.3718767734
 20
61.566980381
 10
-52.3754510743
 20
61.5538513966
 10
-52.3788852851
 20
61.5407752659
 10
-52.382178809
 20
61.5277542622
 10
-52.3853310732
 20
61.5147906491
 10
-52.3883415299
 20
61.5018866804
 10
-52.3912096556
 20
61.4890445992
 10
-52.3939349517
 20
61.4762666383
 10
-52.3965169445
 20
61.4635550188
 10
-52.3989551851
 20
61.4509119508
 10
-52.4012492496
 20
61.4383396322
 10
-52.4033987391
 20
61.4258402485
 10
-52.4054032801
 20
61.4134159728
 10
-52.4072625241
 20
61.401068965
 10
-52.4089761477
 20
61.3888013715
 10
-52.4105438532
 20
61.376615325
 10
-52.4119653679
 20
61.364512944
 10
-52.4132404447
 20
61.3524963325
 10
-52.4143688621
 20
61.3405675795
  0
LWPOLYLINE
  5
21D
100
AcDbEntity
  8
RACCORDO
100
AcDbPolyline
 62
250
  6
CONTINUOUS
 90
64
 70
0
 10
-52.7656420443
 20
61.9554805364
 10
-52.7663557666
 20
61.9450433215
 10
-52.7668569031
 20
61.9345932619
 10
-52.7671457766
 20
61.9241269575
 10
-52.7672221301
 20
61.9136488924
 10
-52.7670857679
 20
61.9031635666
 10
-52.7667370734
 20
61.892667583
 10
-52.7661759337
 20
61.8821654076
 10
-52.7654022933
 20
61.8716615525
 10
-52.7644165871
 20
61.8611526535
 10
-52.7632188489
 20
61.8506431444
 10
-52.7618091674
 20
61.8401375291
 10
-52.7601880236
 20
61.8296324979
 10
-52.7583555986
 20
61.8191324426
 10
-52.7563121281
 20
61.8086418406
 10
-52.7540581357
 20
61.7981574537
 10
-52.7515939499
 20
61.7876836233
 10
-52.7489199538
 20
61.7772247861
 10
-52.7460367128
 20
61.7667777864
 10
-52.7429447015
 20
61.7563469089
 10
-52.7396444498
 20
61.7459365388
 10
-52.736136565
 20
61.735543609
 10
-52.7324216662
 20
61.7251723433
 10
-52.7285004289
 20
61.7148270663
 10
-52.7243735028
 20
61.7045048024
 10
-52.7200416494
 20
61.6942097111
 10
-52.7155056878
 20
61.6839460505
 10
-52.7107663117
 20
61.6737109351
 10
-52.7058244221
 20
61.6635084589
 10
-52.7006809792
 20
61.6533428085
 10
-52.6953367221
 20
61.6432111848
 10
-52.6897926889
 20
61.6331176157
 10
-52.6840499779
 20
61.6230662136
 10
-52.678109375
 20
61.6130542594
 10
-52.6719720525
 20
61.6030857151
 10
-52.6656392436
 20
61.5931646175
 10
-52.6591117823
 20
61.5832883192
 10
-52.6523909722
 20
61.5734607174
 10
-52.6454781782
 20
61.5636857729
 10
-52.6383742831
 20
61.5539609003
 10
-52.6310807188
 20
61.5442899334
 10
-52.6235989787
 20
61.5346767574
 10
-52.6159299949
 20
61.5251188382
 10
-52.6080753245
 20
61.5156199482
 10
-52.6000365861
 20
61.5061838983
 10
-52.5918147611
 20
61.4968081935
 10
-52.5834115287
 20
61.4874965475
 10
-52.5748286294
 20
61.4782526985
 10
-52.5660670935
 20
61.4690741781
 10
-52.5571287192
 20
61.4599646439
 10
-52.5480153656
 20
61.4509277638
 10
-52.5387281108
 20
61.4419610829
 10
-52.5292688694
 20
61.4330682057
 10
-52.5196396153
 20
61.424252732
 10
-52.5098414734
 20
61.4155122075
 10
-52.4998764711
 20
61.4068501862
 10
-52.4897466943
 20
61.3982702029
 10
-52.4794533128
 20
61.3897697904
 10
-52.4689984637
 20
61.3813524554
 10
-52.4583843417
 20
61.3730216705
 10
-52.4476121591
 20
61.3647749423
 10
-52.4366838061
 20
61.3566137487
 10
-52.4256019219
 20
61.3485434969
 10
-38.4188744797
 20
51.4442585957
  0
LWPOLYLINE
  5
21E
100
AcDbEntity
  8
RACCORDO
100
AcDbPolyline
 62
7
  6
CONTINUOUS
 90
94
 70
0
 10
-52.7654258442
 20
61.9581420654
 10
-52.8185829233
 20
61.3177126208
 10
-52.8707713905
 20
60.6758380149
 10
-52.9218038677
 20
60.0347526752
 10
-52.9716801243
 20
59.3944591437
 10
-53.0203999301
 20
58.7549599714
 10
-53.0679630572
 20
58.1162577792
 10
-53.1143692774
 20
57.4783552353
 10
-53.1596183661
 20
56.8412549721
 10
-53.2037101121
 20
56.2049595601
 10
-53.2466443052
 20
55.5694716039
 10
-53.2884207356
 20
54.9347937185
 10
-53.3290392046
 20
54.300928476
 10
-53.3684995153
 20
53.6678784791
 10
-53.4068014709
 20
53.0356463412
 10
-53.4439448853
 20
52.4042346426
 10
-53.4799295753
 20
51.7736459769
 10
-53.5147553586
 20
51.1438829415
 10
-53.5484220622
 20
50.5149481127
 10
-53.580929517
 20
49.8868440766
 10
-53.6122775547
 20
49.2595734185
 10
-53.6424660161
 20
48.6331387032
 10
-53.6714947459
 20
48.0075425057
 10
-53.6993635899
 20
47.3827874013
 10
-53.7260724025
 20
46.7588759449
 10
-53.7516210426
 20
46.1358107004
 10
-53.7760093696
 20
45.5135942333
 10
-53.7992372517
 20
44.8922290904
 10
-53.8213045617
 20
44.2717178261
 10
-53.842211173
 20
43.652062994
 10
-53.8619569676
 20
43.0332671298
 10
-53.8805418322
 20
42.4153327774
 10
-53.8979656543
 20
41.7982624794
 10
-53.9142283294
 20
41.1820587588
 10
-53.9293297582
 20
40.5667241523
 10
-53.9432698422
 20
39.9522611882
 10
-53.9560484909
 20
39.3386723666
 10
-53.9676656189
 20
38.7259602123
 10
-53.9781211415
 20
38.1141272436
 10
-53.9874149817
 20
37.5031759407
 10
-53.9955470683
 20
36.8931088054
 10
-54.00251733
 20
36.2839283573
 10
-54.0083257031
 20
35.6756370923
 10
-54.0129721303
 20
35.0682375018
 10
-54.0164565543
 20
34.4617320937
 10
-54.018778925
 20
33.856123377
 10
-54.019939199
 20
33.2514138437
 10
-54.0199373334
 20
32.6476059784
 10
-54.0187732919
 20
32.0447022678
 10
-54.0164470451
 20
31.4427051926
 10
-54.0129585642
 20
30.841617226
 10
-54.0083078266
 20
30.241440831
 10
-54.0024948168
 20
29.6421784736
 10
-53.9955195198
 20
29.043832619
 10
-53.9873819267
 20
28.446405718
 10
-53.9780820359
 20
27.8499002187
 10
-53.9676198463
 20
27.2543185814
 10
-53.955995363
 20
26.6596632633
 10
-53.9432085984
 20
26.0659366997
 10
-53.9292595654
 20
25.4731413407
 10
-53.9141482837
 20
24.8812796538
 10
-53.8978747797
 20
24.2903540697
 10
-53.8804390804
 20
23.7003670195
 10
-53.8618412196
 20
23.1113209592
 10
-53.8420812377
 20
22.5232183064
 10
-53.821159176
 20
21.9360614814
 10
-53.7990750823
 20
21.3498529317
 10
-53.7758290112
 20
20.7645950624
 10
-53.7514210182
 20
20.1802902823
 10
-53.7258511653
 20
19.5969410325
 10
-53.6991195214
 20
19.0145497083
 10
-53.6712261559
 20
18.4331187042
 10
-53.6421711452
 20
17.8526504486
 10
-53.611954572
 20
17.2731473221
 10
-53.58057652
 20
16.6946117095
 10
-53.5480370801
 20
16.1170460337
 10
-53.5143363489
 20
15.5404526607
 10
-53.4794744244
 20
14.9648339657
 10
-53.4434514126
 20
14.3901923724
 10
-53.4062674246
 20
13.8165302385
 10
-53.3679225722
 20
13.2438499217
 10
-53.3284169758
 20
12.6721538339
 10
-53.287750761
 20
12.1014443245
 10
-53.245924054
 20
11.5317237383
 10
-53.2029369888
 20
10.9629944663
 10
-53.1587897035
 20
10.3952588288
 10
-53.1134823386
 20
9.8285191605
 10
-53.0670150443
 20
9.2627778652
 10
-53.0193879761
 20
8.6980372797
 10
-52.970601291
 20
8.1342997496
 10
-52.920655154
 20
7.5715676678
 10
-52.8695497281
 20
7.009843297
 10
-52.8172851714
 20
6.4491288346
 10
-52.7640659979
 20
5.8915426162
  0
LWPOLYLINE
  5
21F
100
AcDbEntity
  8
RACCORDO
100
AcDbPolyline
 62
250
  6
CONTINUOUS
 90
13
 70
0
 10
-38.3316097833
 20
51.1642423226
 10
-38.3216484818
 20
51.1678181425
 10
-38.3118320538
 20
51.1712800422
 10
-38.3021623988
 20
51.1746273517
 10
-38.2926413879
 20
51.1778594233
 10
-38.2832708635
 20
51.1809756317
 10
-38.2740526388
 20
51.1839753737
 10
-38.2649884978
 20
51.1868580689
 10
-38.2560801943
 20
51.1896231595
 10
-38.2473294522
 20
51.1922701104
 10
-38.2387379648
 20
51.1947984095
 10
-38.2303073947
 20
51.1972075674
 10
-38.2220393732
 20
51.199497118
  0
LWPOLYLINE
  5
220
100
AcDbEntity
  8
RACCORDO
100
AcDbPolyline
 62
250
  6
CONTINUOUS
 90
13
 70
0
 10
33.8757576673
 20
-55.5050224885
 10
33.8691582519
 20
-55.5062210952
 10
33.8623783954
 20
-55.507535814
 10
33.8554194098
 20
-55.5089663903
 10
33.8482826416
 20
-55.5105125474
 10
33.840969472
 20
-55.512173986
 10
33.833481316
 20
-55.5139503847
 10
33.8258196227
 20
-55.5158413997
 10
33.8179858746
 20
-55.5178466651
 10
33.8099815878
 20
-55.5199657929
 10
33.8018083109
 20
-55.5221983729
 10
33.7934676258
 20
-55.5245439732
 10
33.7849611462
 20
-55.5270021399
  0
LWPOLYLINE
  5
221
100
AcDbEntity
  8
RACCORDO
100
AcDbPolyline
 62
250
  6
CONTINUOUS
 90
41
 70
0
 10
-52.4143688621
 20
5.329540129
 10
-52.4132404447
 20
5.3192071991
 10
-52.4119653679
 20
5.3089938186
 10
-52.4105438532
 20
5.298901763
 10
-52.4089761477
 20
5.2889327868
 10
-52.4072625241
 20
5.2790886231
 10
-52.4054032801
 20
5.2693709833
 10
-52.4033987391
 20
5.2597815567
 10
-52.4012492496
 20
5.2503220103
 10
-52.3989551851
 20
5.2409939887
 10
-52.3965169445
 20
5.2317991136
 10
-52.3939349517
 20
5.2227389834
 10
-52.3912096556
 20
5.2138151732
 10
-52.3883415299
 20
5.2050292343
 10
-52.3853310732
 20
5.1963826942
 10
-52.382178809
 20
5.187877056
 10
-52.3788852851
 20
5.1795137984
 10
-52.3754510743
 20
5.1712943753
 10
-52.3718767734
 20
5.1632202156
 10
-52.3681630039
 20
5.1552927229
 10
-52.3643104114
 20
5.1475132755
 10
-52.3603196657
 20
5.1398832258
 10
-52.3561914605
 20
5.1324039002
 10
-52.3519265135
 20
5.1250765989
 10
-52.3475255661
 20
5.1179025958
 10
-52.3429893835
 20
5.110883138
 10
-52.3383187542
 20
5.104019446
 10
-52.3335144902
 20
5.0973127127
 10
-52.3285774267
 20
5.0907641043
 10
-52.3235084219
 20
5.0843747592
 10
-52.3183083572
 20
5.0781457881
 10
-52.3129781365
 20
5.0720782739
 10
-52.3075186864
 20
5.0661732713
 10
-52.3019309562
 20
5.0604318071
 10
-52.296215917
 20
5.0548548793
 10
-52.2903745626
 20
5.0494434574
 10
-52.2844079083
 20
5.0441984822
 10
-52.2783169916
 20
5.0391208654
 10
-52.2721028711
 20
5.0342114899
 10
-52.2657666273
 20
5.0294712091
 10
-52.2624430691
 20
5.0270869302
  0
LWPOLYLINE
  5
222
100
AcDbEntity
  8
RACCORDO
100
AcDbPolyline
 62
250
  6
CONTINUOUS
 90
55
 70
0
 10
-52.7640660003
 20
5.891542616
 10
-52.7632187431
 20
5.8832935115
 10
-52.7618091294
 20
5.8713286711
 10
-52.7601879453
 20
5.8593878862
 10
-52.7583554782
 20
5.8474732759
 10
-52.7563120535
 20
5.8355869546
 10
-52.7540580338
 20
5.8237310317
 10
-52.751593819
 20
5.8119076112
 10
-52.7489198466
 20
5.8001187914
 10
-52.7460365909
 20
5.7883666643
 10
-52.7429445638
 20
5.7766533155
 10
-52.7396443139
 20
5.7649808237
 10
-52.7361364268
 20
5.7533512604
 10
-52.7324215252
 20
5.7417666894
 10
-52.7285002683
 20
5.7302291665
 10
-52.724373352
 20
5.7187407393
 10
-52.7200415085
 20
5.7073034465
 10
-52.7155055068
 20
5.6959193178
 10
-52.7107661518
 20
5.6845903735
 10
-52.7058242845
 20
5.6733186241
 10
-52.7006807819
 20
5.66210607
 10
-52.6953365569
 20
5.6509547008
 10
-52.6897925578
 20
5.6398664957
 10
-52.6840497685
 20
5.6288434224
 10
-52.6781092081
 20
5.6178874371
 10
-52.671971931
 20
5.607000484
 10
-52.6656390261
 20
5.5961844952
 10
-52.6591116174
 20
5.5854413902
 10
-52.6523908633
 20
5.5747730755
 10
-52.6454779564
 20
5.5641814443
 10
-52.6383741236
 20
5.5536683762
 10
-52.6310806256
 20
5.543235737
 10
-52.6235987566
 20
5.5328853781
 10
-52.6159298444
 20
5.5226191363
 10
-52.60807525
 20
5.5124388334
 10
-52.6000363673
 20
5.5023462762
 10
-52.5918146229
 20
5.4923432557
 10
-52.5834114759
 20
5.482431547
 10
-52.5748284175
 20
5.4726129092
 10
-52.5660669709
 20
5.4628890846
 10
-52.557128691
 20
5.453261799
 10
-52.5480151639
 20
5.4437327608
 10
-52.5387280071
 20
5.4343036611
 10
-52.5292688686
 20
5.4249761732
 10
-52.5196394271
 20
5.4157519524
 10
-52.5098413915
 20
5.4066326357
 10
-52.4998765006
 20
5.3976198414
 10
-52.4897465227
 20
5.388715169
 10
-52.4794532557
 20
5.3799201988
 10
-52.4689985262
 20
5.3712364914
 10
-52.4583841895
 20
5.3626655881
 10
-52.4476121293
 20
5.3542090097
 10
-52.4366842572
 20
5.345868257
 10
-52.4256025126
 20
5.3376448103
 10
-52.4143688621
 20
5.329540129
  0
LWPOLYLINE
  5
223
100
AcDbEntity
  8
RACCORDO
100
AcDbPolyline
 62
250
  6
CONTINUOUS
 90
94
 70
0
 10
-52.4143688621
 20
5.329540129
 10
-52.4676969446
 20
5.8882103576
 10
-52.5198690088
 20
6.447901285
 10
-52.5708848275
 20
7.0086105945
 10
-52.6207441719
 20
7.5703360122
 10
-52.6694468308
 20
8.1330751666
 10
-52.7169926113
 20
8.6968255871
 10
-52.7633813082
 20
9.2615849398
 10
-52.8086127195
 20
9.8273508874
 10
-52.8526866673
 20
10.3941209464
 10
-52.8956029595
 20
10.9618927334
 10
-52.9373614135
 20
11.5306639352
 10
-52.9779618739
 20
12.1004321666
 10
-53.0174041631
 20
12.671195015
 10
-53.0556881149
 20
13.242950172
 10
-53.092813598
 20
13.8156954039
 10
-53.1287804517
 20
14.3894283235
 10
-53.1635885214
 20
14.9641465748
 10
-53.1972376903
 20
15.5398479658
 10
-53.2297278148
 20
16.1165301471
 10
-53.2610587511
 20
16.6941907036
 10
-53.2912303888
 20
17.2728273404
 10
-53.3202425988
 20
17.8524377036
 10
-53.3480952521
 20
18.4330193602
 10
-53.3747882448
 20
19.0145698912
 10
-53.400321462
 20
19.5970869038
 10
-53.4246947914
 20
20.1805679807
 10
-53.4479081411
 20
20.7650106591
 10
-53.4699614109
 20
21.3504125101
 10
-53.4908545049
 20
21.9367711292
 10
-53.5105873464
 20
22.5240840845
 10
-53.5291598503
 20
23.1123489346
 10
-53.5465719361
 20
23.7015632646
 10
-53.5628235412
 20
24.2917246764
 10
-53.5779145959
 20
24.8828307301
 10
-53.5918450344
 20
25.4748789874
 10
-53.6046148065
 20
26.0678670472
 10
-53.6162238579
 20
26.6617924671
 10
-53.6266721373
 20
27.2566527896
 10
-53.6359596069
 20
27.8524455854
 10
-53.6440862271
 20
28.4491684014
 10
-53.6510519618
 20
29.046818769
 10
-53.6568567854
 20
29.6453942311
 10
-53.6615006737
 20
30.2448923193
 10
-53.6649836056
 20
30.8453105586
 10
-53.6673055683
 20
31.4466464766
 10
-53.6684665526
 20
32.048897593
 10
-53.6684665526
 20
32.652061423
 10
-53.6673055683
 20
33.2561354828
 10
-53.6649836056
 20
33.8611172815
 10
-53.6615006737
 20
34.4670043233
 10
-53.6568567854
 20
35.0737941113
 10
-53.6510519617
 20
35.681484143
 10
-53.6440862271
 20
36.2900719131
 10
-53.6359596069
 20
36.8995549152
 10
-53.6266721373
 20
37.5099306318
 10
-53.6162238579
 20
38.1211965515
 10
-53.6046148065
 20
38.7333501717
 10
-53.5918450343
 20
39.3463889645
 10
-53.5779145958
 20
39.9603104082
 10
-53.5628235411
 20
40.5751120046
 10
-53.546571936
 20
41.1907912241
 10
-53.5291598502
 20
41.8073455263
 10
-53.5105873463
 20
42.4247723912
 10
-53.4908545048
 20
43.0430692922
 10
-53.4699614108
 20
43.6622336657
 10
-53.447908141
 20
44.2822629306
 10
-53.4246947913
 20
44.9031545495
 10
-53.4003214619
 20
45.5249059492
 10
-53.3747882447
 20
46.1475144897
 10
-53.348095252
 20
46.7709775971
 10
-53.3202425987
 20
47.395292714
 10
-53.2912303887
 20
48.0204572205
 10
-53.2610587511
 20
48.6464685027
 10
-53.2297278147
 20
49.2733240228
 10
-53.1972376902
 20
49.9010212696
 10
-53.1635885213
 20
50.5295576267
 10
-53.1287804516
 20
51.1589305398
 10
-53.0928135978
 20
51.7891375863
 10
-53.0556881148
 20
52.4201761938
 10
-53.0174041629
 20
53.0520437459
 10
-52.9779618736
 20
53.684737751
 10
-52.9373614133
 20
54.3182556682
 10
-52.8956029593
 20
54.9525948312
 10
-52.852686667
 20
55.5877525549
 10
-52.8086127193
 20
56.2237262703
 10
-52.763381308
 20
56.8605133195
 10
-52.7169926111
 20
57.498110879
 10
-52.6694468306
 20
58.1365163283
 10
-52.6207441717
 20
58.7757270405
 10
-52.5708848274
 20
59.4157401766
 10
-52.5198690088
 20
60.056553034
 10
-52.4676969445
 20
60.6981630478
 10
-52.4143688621
 20
61.3405675795
  0
LWPOLYLINE
  5
224
100
AcDbEntity
  8
RACCORDO
100
AcDbPolyline
 62
250
  6
CONTINUOUS
 90
121
 70
0
 10
-37.1105993683
 20
39.5793181222
 10
-37.0996489462
 20
39.5892029973
 10
-37.0885550071
 20
39.5989833622
 10
-37.0773194519
 20
39.6086575412
 10
-37.065944205
 20
39.6182238733
 10
-37.0544312163
 20
39.6276807226
 10
-37.0427824608
 20
39.6370264784
 10
-37.0309999352
 20
39.6462595424
 10
-37.0190856576
 20
39.6553783295
 10
-37.0070416696
 20
39.6643812773
 10
-36.9948700347
 20
39.6732668432
 10
-36.9825728386
 20
39.6820335048
 10
-36.9701521882
 20
39.6906797598
 10
-36.9576102119
 20
39.6992041268
 10
-36.9449490586
 20
39.7076051451
 10
-36.9321708976
 20
39.7158813754
 10
-36.9192779186
 20
39.7240313994
 10
-36.9062723307
 20
39.7320538207
 10
-36.8931563622
 20
39.7399472648
 10
-36.8799322606
 20
39.7477103791
 10
-36.8666022916
 20
39.7553418334
 10
-36.8531687395
 20
39.7628403202
 10
-36.8396339058
 20
39.7702045547
 10
-36.8260001098
 20
39.7774332749
 10
-36.8122696875
 20
39.7845252424
 10
-36.7984449915
 20
39.7914792418
 10
-36.7845283907
 20
39.7982940817
 10
-36.7705222696
 20
39.8049685943
 10
-36.756429028
 20
39.811501636
 10
-36.7422510807
 20
39.8178920874
 10
-36.7279908571
 20
39.8241388535
 10
-36.7136508006
 20
39.8302408639
 10
-36.6992333683
 20
39.8361970732
 10
-36.6847410305
 20
39.8420064606
 10
-36.6701762704
 20
39.8476680309
 10
-36.6555415836
 20
39.853180814
 10
-36.6408394777
 20
39.8585438653
 10
-36.6260724718
 20
39.8637562657
 10
-36.6112430962
 20
39.8688171223
 10
-36.5963538918
 20
39.8737255679
 10
-36.5814074098
 20
39.8784807614
 10
-36.5664062112
 20
39.8830818881
 10
-36.5513528664
 20
39.8875281596
 10
-36.5362499547
 20
39.891818814
 10
-36.5211000639
 20
39.8959531162
 10
-36.5059057898
 20
39.8999303577
 10
-36.490669736
 20
39.9037498571
 10
-36.475394513
 20
39.90741096
 10
-36.4600827381
 20
39.9109130389
 10
-36.444737035
 20
39.9142554939
 10
-36.4293600331
 20
39.9174377522
 10
-36.4139543672
 20
39.9204592686
 10
-36.3985226768
 20
39.9233195254
 10
-36.3830676062
 20
39.9260180323
 10
-36.3675918034
 20
39.9285543272
 10
-36.3520979203
 20
39.9309279753
 10
-36.3365886116
 20
39.93313857
 10
-36.3210665347
 20
39.9351857325
 10
-36.3055343492
 20
39.9370691121
 10
-36.2899947166
 20
39.9387883859
 10
-36.2744502995
 20
39.9403432595
 10
-36.2589037613
 20
39.9417334664
 10
-36.2433577658
 20
39.9429587683
 10
-36.2278149767
 20
39.9440189555
 10
-36.2122780573
 20
39.9449138461
 10
-36.1967496697
 20
39.9456432869
 10
-36.1812324746
 20
39.9462071528
 10
-36.1657291308
 20
39.9466053473
 10
-36.1502422948
 20
39.9468378021
 10
-36.1347746201
 20
39.9469044774
 10
-36.119328757
 20
39.9468053618
 10
-36.103907352
 20
39.9465404723
 10
-36.0885130477
 20
39.9461098541
 10
-36.0731484816
 20
39.9455135812
 10
-36.0578162865
 20
39.9447517557
 10
-36.0425190895
 20
39.9438245081
 10
-36.0272595115
 20
39.9427319972
 10
-36.0120401673
 20
39.9414744104
 10
-35.9968636647
 20
39.940051963
 10
-35.981732604
 20
39.9384648989
 10
-35.9666495779
 20
39.9367134898
 10
-35.9516171708
 20
39.934798036
 10
-35.9366379583
 20
39.9327188656
 10
-35.9217145072
 20
39.9304763349
 10
-35.9068493745
 20
39.9280708281
 10
-35.8920451071
 20
39.9255027574
 10
-35.8773042419
 20
39.9227725628
 10
-35.8626293045
 20
39.9198807122
 10
-35.8480228094
 20
39.916827701
 10
-35.8334872594
 20
39.9136140523
 10
-35.819025145
 20
39.9102403168
 10
-35.8046389443
 20
39.9067070725
 10
-35.7903311222
 20
39.9030149249
 10
-35.7761041304
 20
39.8991645066
 10
-35.7619604065
 20
39.8951564773
 10
-35.7479023741
 20
39.8909915238
 10
-35.7339324418
 20
39.8866703597
 10
-35.7200530034
 20
39.8821937255
 10
-35.706266437
 20
39.8775623881
 10
-35.6925751048
 20
39.8727771412
 10
-35.6789813529
 20
39.8678388047
 10
-35.6654875105
 20
39.8627482246
 10
-35.6520958896
 20
39.8575062733
 10
-35.6388087848
 20
39.852113849
 10
-35.6256284728
 20
39.8465718756
 10
-35.612557212
 20
39.8408813026
 10
-35.599597242
 20
39.8350431052
 10
-35.5867507836
 20
39.8290582837
 10
-35.5740200378
 20
39.8229278636
 10
-35.5614071861
 20
39.8166528952
 10
-35.5489143895
 20
39.8102344538
 10
-35.5365437887
 20
39.803673639
 10
-35.5242975032
 20
39.7969715752
 10
-35.5121776315
 20
39.7901294106
 10
-35.5001862501
 20
39.7831483175
 10
-35.4883254138
 20
39.7760294923
 10
-35.4765971549
 20
39.7687741546
 10
-35.4650034828
 20
39.7613835477
 10
-35.4535463843
 20
39.7538589377
 10
-35.4422278222
 20
39.7462016142
 10
-35.4310497361
 20
39.738412889
  0
LWPOLYLINE
  5
225
100
AcDbEntity
  8
RACCORDO
100
AcDbPolyline
 62
250
  6
CONTINUOUS
 90
118
 70
0
 10
-37.4769118628
 20
41.2424796089
 10
-37.4656140485
 20
41.2523227462
 10
-37.4541653281
 20
41.2620559628
 10
-37.4425677653
 20
41.2716775043
 10
-37.4308234506
 20
41.2811856365
 10
-37.4189345006
 20
41.2905786455
 10
-37.4069030584
 20
41.2998548385
 10
-37.3947312925
 20
41.3090125432
 10
-37.3824213968
 20
41.3180501093
 10
-37.3699755902
 20
41.3269659076
 10
-37.3573961158
 20
41.3357583311
 10
-37.3446852412
 20
41.3444257952
 10
-37.3318452573
 20
41.3529667374
 10
-37.3188784784
 20
41.3613796184
 10
-37.3057872419
 20
41.3696629218
 10
-37.2925739072
 20
41.3778151545
 10
-37.279240856
 20
41.3858348472
 10
-37.2657904916
 20
41.3937205544
 10
-37.2522252382
 20
41.4014708547
 10
-37.2385475409
 20
41.4090843511
 10
-37.2247598652
 20
41.4165596715
 10
-37.210864696
 20
41.4238954683
 10
-37.1968645379
 20
41.4310904194
 10
-37.1827619145
 20
41.4381432278
 10
-37.1685593675
 20
41.4450526225
 10
-37.154259457
 20
41.4518173579
 10
-37.1398647604
 20
41.4584362149
 10
-37.1253778722
 20
41.4649080003
 10
-37.1108014037
 20
41.4712315477
 10
-37.0961379821
 20
41.4774057173
 10
-37.0813902505
 20
41.4834293963
 10
-37.0665608671
 20
41.4893014989
 10
-37.0516525048
 20
41.4950209666
 10
-37.0366678507
 20
41.5005867686
 10
-37.0216096057
 20
41.5059979018
 10
-37.0064804839
 20
41.5112533907
 10
-36.9912832124
 20
41.516352288
 10
-36.9760205304
 20
41.5212936749
 10
-36.9606951888
 20
41.5260766605
 10
-36.9453099499
 20
41.5307003827
 10
-36.9298675869
 20
41.5351640083
 10
-36.9143708832
 20
41.5394667326
 10
-36.8988226319
 20
41.5436077801
 10
-36.8832256355
 20
41.5475864044
 10
-36.8675827054
 20
41.5514018884
 10
-36.851896661
 20
41.5550535443
 10
-36.8361703296
 20
41.558540714
 10
-36.820406546
 20
41.5618627689
 10
-36.8046081513
 20
41.5650191102
 10
-36.7887779931
 20
41.5680091691
 10
-36.7729189248
 20
41.5708324065
 10
-36.7570338049
 20
41.5734883137
 10
-36.7411254965
 20
41.5759764118
 10
-36.7251968671
 20
41.5782962525
 10
-36.7092507876
 20
41.5804474176
 10
-36.6932901324
 20
41.5824295194
 10
-36.6773177781
 20
41.5842422005
 10
-36.6613366037
 20
41.5858851343
 10
-36.6453494898
 20
41.5873580247
 10
-36.6293593179
 20
41.5886606061
 10
-36.6133689701
 20
41.5897926439
 10
-36.5973813287
 20
41.5907539338
 10
-36.5813992752
 20
41.5915443027
 10
-36.5654256905
 20
41.5921636082
 10
-36.5494634535
 20
41.5926117385
 10
-36.5335154415
 20
41.5928886129
 10
-36.517584529
 20
41.5929941816
 10
-36.5016735874
 20
41.5929284254
 10
-36.4857854846
 20
41.5926913562
 10
-36.4699230842
 20
41.5922830168
 10
-36.4540892455
 20
41.5917034808
 10
-36.4382868224
 20
41.5909528526
 10
-36.4225186632
 20
41.5900312675
 10
-36.40678761
 20
41.5889388917
 10
-36.3910964982
 20
41.5876759219
 10
-36.3754481561
 20
41.5862425859
 10
-36.3598454041
 20
41.5846391421
 10
-36.3442910547
 20
41.5828658793
 10
-36.3287879114
 20
41.5809231174
 10
-36.3133387684
 20
41.5788112063
 10
-36.2979464106
 20
41.5765305268
 10
-36.2826136122
 20
41.57408149
 10
-36.2673431368
 20
41.5714645372
 10
-36.252137737
 20
41.5686801403
 10
-36.2370001533
 20
41.565728801
 10
-36.2219331143
 20
41.5626110512
 10
-36.2069393358
 20
41.5593274531
 10
-36.1920215201
 20
41.5558785984
 10
-36.1771823563
 20
41.5522651087
 10
-36.1624245189
 20
41.5484876353
 10
-36.147750668
 20
41.5445468593
 10
-36.1331634484
 20
41.5404434907
 10
-36.1186654895
 20
41.5361782693
 10
-36.1042594044
 20
41.5317519638
 10
-36.0899477897
 20
41.527165372
 10
-36.075733225
 20
41.5224193207
 10
-36.0616182724
 20
41.5175146653
 10
-36.047605476
 20
41.5124522898
 10
-36.0336973616
 20
41.5072331067
 10
-36.019896436
 20
41.5018580568
 10
-36.0062051868
 20
41.4963281087
 10
-35.9926260817
 20
41.4906442594
 10
-35.9791615683
 20
41.4848075332
 10
-35.9658140735
 20
41.4788189823
 10
-35.952586003
 20
41.4726796859
 10
-35.9394797413
 20
41.4663907507
 10
-35.9264976505
 20
41.4599533103
 10
-35.9136420707
 20
41.4533685248
 10
-35.900915319
 20
41.4466375813
 10
-35.8883196893
 20
41.4397616929
 10
-35.8758574519
 20
41.432742099
 10
-35.8635308531
 20
41.4255800648
 10
-35.8513421147
 20
41.4182768812
 10
-35.8392934336
 20
41.4108338645
 10
-35.8273869815
 20
41.4032523564
 10
-35.8156249044
 20
41.3955337234
 10
-35.8040093225
 20
41.3876793566
 10
-35.7925423294
 20
41.3796906719
  0
LINE
  5
226
100
AcDbEntity
  8
RACCORDO
100
AcDbLine
 62
250
  6
CONTINUOUS
 10
-35.8640836143
 20
39.79448608
 11
-35.8407471248
 21
39.8115550512
  0
LINE
  5
227
100
AcDbEntity
  8
RACCORDO
100
AcDbLine
 62
250
  6
CONTINUOUS
 10
-35.8837336676
 20
39.7802616894
 11
-35.8640836143
 21
39.79448608
  0
LINE
  5
228
100
AcDbEntity
  8
RACCORDO
100
AcDbLine
 62
250
  6
CONTINUOUS
 10
-35.9038447665
 20
39.7658520224
 11
-35.8837336676
 21
39.7802616894
  0
LINE
  5
229
100
AcDbEntity
  8
RACCORDO
100
AcDbLine
 62
250
  6
CONTINUOUS
 10
-35.9202743829
 20
39.7541963555
 11
-35.9038447665
 21
39.7658520224
  0
LINE
  5
22A
100
AcDbEntity
  8
RACCORDO
100
AcDbLine
 62
250
  6
CONTINUOUS
 10
-35.9370151848
 20
39.7424318596
 11
-35.9202743829
 21
39.7541963555
  0
LINE
  5
22B
100
AcDbEntity
  8
RACCORDO
100
AcDbLine
 62
250
  6
CONTINUOUS
 10
-35.9540747992
 20
39.7305631855
 11
-35.9370151848
 21
39.7424318596
  0
LINE
  5
22C
100
AcDbEntity
  8
RACCORDO
100
AcDbLine
 62
250
  6
CONTINUOUS
 10
-35.9714610161
 20
39.7185954141
 11
-35.9540747992
 21
39.7305631855
  0
LINE
  5
22D
100
AcDbEntity
  8
RACCORDO
100
AcDbLine
 62
250
  6
CONTINUOUS
 10
-35.9891816809
 20
39.7065346974
 11
-35.9714610161
 21
39.7185954141
  0
LINE
  5
22E
100
AcDbEntity
  8
RACCORDO
100
AcDbLine
 62
250
  6
CONTINUOUS
 10
-36.0072441153
 20
39.6943876333
 11
-35.9891816809
 21
39.7065346974
  0
LINE
  5
22F
100
AcDbEntity
  8
RACCORDO
100
AcDbLine
 62
250
  6
CONTINUOUS
 10
-36.0210203966
 20
39.6852245631
 11
-36.0072441153
 21
39.6943876333
  0
LINE
  5
230
100
AcDbEntity
  8
RACCORDO
100
AcDbLine
 62
250
  6
CONTINUOUS
 10
-36.0349976095
 20
39.6760195142
 11
-36.0210203966
 21
39.6852245631
  0
LINE
  5
231
100
AcDbEntity
  8
RACCORDO
100
AcDbLine
 62
250
  6
CONTINUOUS
 10
-36.0491794245
 20
39.6667757542
 11
-36.0349976095
 21
39.6760195142
  0
LINE
  5
232
100
AcDbEntity
  8
RACCORDO
100
AcDbLine
 62
250
  6
CONTINUOUS
 10
-36.063569612
 20
39.6574967457
 11
-36.0491794245
 21
39.6667757542
  0
LINE
  5
233
100
AcDbEntity
  8
RACCORDO
100
AcDbLine
 62
250
  6
CONTINUOUS
 10
-36.0781722277
 20
39.6481860453
 11
-36.063569612
 21
39.6574967457
  0
LINE
  5
234
100
AcDbEntity
  8
RACCORDO
100
AcDbLine
 62
250
  6
CONTINUOUS
 10
-36.0929912175
 20
39.638847576
 11
-36.0781722277
 21
39.6481860453
  0
LINE
  5
235
100
AcDbEntity
  8
RACCORDO
100
AcDbLine
 62
250
  6
CONTINUOUS
 10
-36.1080304393
 20
39.6294856294
 11
-36.0929912175
 21
39.638847576
  0
LINE
  5
236
100
AcDbEntity
  8
RACCORDO
100
AcDbLine
 62
250
  6
CONTINUOUS
 10
-36.1232941795
 20
39.6201045625
 11
-36.1080304393
 21
39.6294856294
  0
LINE
  5
237
100
AcDbEntity
  8
RACCORDO
100
AcDbLine
 62
250
  6
CONTINUOUS
 10
-36.1387865707
 20
39.6107091861
 11
-36.1232941795
 21
39.6201045625
  0
LINE
  5
238
100
AcDbEntity
  8
RACCORDO
100
AcDbLine
 62
250
  6
CONTINUOUS
 10
-36.1545117629
 20
39.6013046819
 11
-36.1387865707
 21
39.6107091861
  0
LINE
  5
239
100
AcDbEntity
  8
RACCORDO
100
AcDbLine
 62
250
  6
CONTINUOUS
 10
-36.1651269394
 20
39.5950323907
 11
-36.1545117629
 21
39.6013046819
  0
LINE
  5
23A
100
AcDbEntity
  8
RACCORDO
100
AcDbLine
 62
250
  6
CONTINUOUS
 10
-36.1758495074
 20
39.5887597614
 11
-36.1651269394
 21
39.5950323907
  0
LINE
  5
23B
100
AcDbEntity
  8
RACCORDO
100
AcDbLine
 62
250
  6
CONTINUOUS
 10
-36.1866801431
 20
39.5824893357
 11
-36.1758495074
 21
39.5887597614
  0
LINE
  5
23C
100
AcDbEntity
  8
RACCORDO
100
AcDbLine
 62
250
  6
CONTINUOUS
 10
-36.197620624
 20
39.5762221017
 11
-36.1866801431
 21
39.5824893357
  0
LINE
  5
23D
100
AcDbEntity
  8
RACCORDO
100
AcDbLine
 62
250
  6
CONTINUOUS
 10
-36.2086786368
 20
39.569956791
 11
-36.197620624
 21
39.5762221017
  0
LINE
  5
23E
100
AcDbEntity
  8
RACCORDO
100
AcDbLine
 62
250
  6
CONTINUOUS
 10
-36.2198448747
 20
39.563701954
 11
-36.2086786368
 21
39.569956791
  0
LINE
  5
23F
100
AcDbEntity
  8
RACCORDO
100
AcDbLine
 62
250
  6
CONTINUOUS
 10
-36.231100902
 20
39.5574697251
 11
-36.2198448747
 21
39.563701954
  0
LINE
  5
240
100
AcDbEntity
  8
RACCORDO
100
AcDbLine
 62
250
  6
CONTINUOUS
 10
-36.2423981063
 20
39.5512898563
 11
-36.231100902
 21
39.5574697251
  0
LINE
  5
241
100
AcDbEntity
  8
RACCORDO
100
AcDbLine
 62
250
  6
CONTINUOUS
 10
-36.253687068
 20
39.5451902083
 11
-36.2423981063
 21
39.5512898563
  0
LINE
  5
242
100
AcDbEntity
  8
RACCORDO
100
AcDbLine
 62
250
  6
CONTINUOUS
 10
-36.2649393316
 20
39.5391864934
 11
-36.253687068
 21
39.5451902083
  0
LINE
  5
243
100
AcDbEntity
  8
RACCORDO
100
AcDbLine
 62
250
  6
CONTINUOUS
 10
-36.2761124707
 20
39.5333012582
 11
-36.2649393316
 21
39.5391864934
  0
LINE
  5
244
100
AcDbEntity
  8
RACCORDO
100
AcDbLine
 62
250
  6
CONTINUOUS
 10
-36.2871990887
 20
39.52753722
 11
-36.2761124707
 21
39.5333012582
  0
LINE
  5
245
100
AcDbEntity
  8
RACCORDO
100
AcDbLine
 62
250
  6
CONTINUOUS
 10
-36.2981989669
 20
39.5218939199
 11
-36.2871990887
 21
39.52753722
  0
LINE
  5
246
100
AcDbEntity
  8
RACCORDO
100
AcDbLine
 62
250
  6
CONTINUOUS
 10
-36.3091267896
 20
39.5163628215
 11
-36.2981989669
 21
39.5218939199
  0
LINE
  5
247
100
AcDbEntity
  8
RACCORDO
100
AcDbLine
 62
250
  6
CONTINUOUS
 10
-36.3199820542
 20
39.5109434955
 11
-36.3091267896
 21
39.5163628215
  0
LINE
  5
248
100
AcDbEntity
  8
RACCORDO
100
AcDbLine
 62
250
  6
CONTINUOUS
 10
-36.3307646786
 20
39.5056354787
 11
-36.3199820542
 21
39.5109434955
  0
LINE
  5
249
100
AcDbEntity
  8
RACCORDO
100
AcDbLine
 62
250
  6
CONTINUOUS
 10
-36.3414724911
 20
39.5004390955
 11
-36.3307646786
 21
39.5056354787
  0
LINE
  5
24A
100
AcDbEntity
  8
RACCORDO
100
AcDbLine
 62
250
  6
CONTINUOUS
 10
-36.352106321
 20
39.4953531692
 11
-36.3414724911
 21
39.5004390955
  0
LINE
  5
24B
100
AcDbEntity
  8
RACCORDO
100
AcDbLine
 62
250
  6
CONTINUOUS
 10
-36.3626662819
 20
39.4903771357
 11
-36.352106321
 21
39.4953531692
  0
LINE
  5
24C
100
AcDbEntity
  8
RACCORDO
100
AcDbLine
 62
250
  6
CONTINUOUS
 10
-36.373152323
 20
39.4855102604
 11
-36.3626662819
 21
39.4903771357
  0
LINE
  5
24D
100
AcDbEntity
  8
RACCORDO
100
AcDbLine
 62
250
  6
CONTINUOUS
 10
-36.383564259
 20
39.4807518709
 11
-36.373152323
 21
39.4855102604
  0
LINE
  5
24E
100
AcDbEntity
  8
RACCORDO
100
AcDbLine
 62
250
  6
CONTINUOUS
 10
-36.3939019451
 20
39.4761015266
 11
-36.383564259
 21
39.4807518709
  0
LINE
  5
24F
100
AcDbEntity
  8
RACCORDO
100
AcDbLine
 62
250
  6
CONTINUOUS
 10
-36.4041650974
 20
39.4715585956
 11
-36.3939019451
 21
39.4761015266
  0
LINE
  5
250
100
AcDbEntity
  8
RACCORDO
100
AcDbLine
 62
250
  6
CONTINUOUS
 10
-36.4143534945
 20
39.4671224125
 11
-36.4041650974
 21
39.4715585956
  0
LWPOLYLINE
  5
251
100
AcDbEntity
  8
RACCORDO
100
AcDbPolyline
 62
250
  6
CONTINUOUS
 90
3
 70
0
 10
-36.4294954063
 20
39.4606672734
 10
-36.4244669286
 20
39.4627925581
 10
-36.4143534945
 20
39.4671224125
  0
LINE
  5
252
100
AcDbEntity
  8
RACCORDO
100
AcDbLine
 62
250
  6
CONTINUOUS
 10
-36.4394956523
 20
39.4564958249
 11
-36.4294954063
 21
39.4606672734
  0
LINE
  5
253
100
AcDbEntity
  8
RACCORDO
100
AcDbLine
 62
250
  6
CONTINUOUS
 10
-36.4494197507
 20
39.4524294102
 11
-36.4394956523
 21
39.4564958249
  0
LINE
  5
254
100
AcDbEntity
  8
RACCORDO
100
AcDbLine
 62
250
  6
CONTINUOUS
 10
-36.4592672991
 20
39.4484674086
 11
-36.4494197507
 21
39.4524294102
  0
LINE
  5
255
100
AcDbEntity
  8
RACCORDO
100
AcDbLine
 62
250
  6
CONTINUOUS
 10
-36.4690380058
 20
39.4446094134
 11
-36.4592672991
 21
39.4484674086
  0
LINE
  5
256
100
AcDbEntity
  8
RACCORDO
100
AcDbLine
 62
250
  6
CONTINUOUS
 10
-36.4787314473
 20
39.4408548051
 11
-36.4690380058
 21
39.4446094134
  0
LINE
  5
257
100
AcDbEntity
  8
RACCORDO
100
AcDbLine
 62
250
  6
CONTINUOUS
 10
-36.4883470825
 20
39.4372029938
 11
-36.4787314473
 21
39.4408548051
  0
LINE
  5
258
100
AcDbEntity
  8
RACCORDO
100
AcDbLine
 62
250
  6
CONTINUOUS
 10
-36.4978845484
 20
39.4336535821
 11
-36.4883470825
 21
39.4372029938
  0
LINE
  5
259
100
AcDbEntity
  8
RACCORDO
100
AcDbLine
 62
250
  6
CONTINUOUS
 10
-36.5073432861
 20
39.4302059734
 11
-36.4978845484
 21
39.4336535821
  0
LINE
  5
25A
100
AcDbEntity
  8
RACCORDO
100
AcDbLine
 62
250
  6
CONTINUOUS
 10
-36.5167226656
 20
39.4268595732
 11
-36.5073432861
 21
39.4302059734
  0
LINE
  5
25B
100
AcDbEntity
  8
RACCORDO
100
AcDbLine
 62
250
  6
CONTINUOUS
 10
-36.5260223404
 20
39.423613955
 11
-36.5167226656
 21
39.4268595732
  0
LINE
  5
25C
100
AcDbEntity
  8
RACCORDO
100
AcDbLine
 62
250
  6
CONTINUOUS
 10
-36.5352418647
 20
39.4204684443
 11
-36.5260223404
 21
39.423613955
  0
LINE
  5
25D
100
AcDbEntity
  8
RACCORDO
100
AcDbLine
 62
250
  6
CONTINUOUS
 10
-36.5443809935
 20
39.4174222865
 11
-36.5352418647
 21
39.4204684443
  0
LINE
  5
25E
100
AcDbEntity
  8
RACCORDO
100
AcDbLine
 62
250
  6
CONTINUOUS
 10
-36.5534394032
 20
39.4144750269
 11
-36.5443809935
 21
39.4174222865
  0
LINE
  5
25F
100
AcDbEntity
  8
RACCORDO
100
AcDbLine
 62
250
  6
CONTINUOUS
 10
-36.5624164046
 20
39.4116260473
 11
-36.5534394032
 21
39.4144750269
  0
LINE
  5
260
100
AcDbEntity
  8
RACCORDO
100
AcDbLine
 62
250
  6
CONTINUOUS
 10
-36.5713112285
 20
39.4088747185
 11
-36.5624164046
 21
39.4116260473
  0
LINE
  5
261
100
AcDbEntity
  8
RACCORDO
100
AcDbLine
 62
250
  6
CONTINUOUS
 10
-36.5801235691
 20
39.4062205538
 11
-36.5713112285
 21
39.4088747185
  0
LWPOLYLINE
  5
262
100
AcDbEntity
  8
RACCORDO
100
AcDbPolyline
 62
250
  6
CONTINUOUS
 90
3
 70
0
 10
-36.5931870576
 20
39.4024196544
 10
-36.5888532995
 20
39.4036627126
 10
-36.5801235691
 20
39.4062205538
  0
LWPOLYLINE
  5
263
100
AcDbEntity
  8
0
100
AcDbPolyline
 62
7
  6
CONTINUOUS
 90
30
 70
0
 10
44.3297953272
 20
-59.1418114819
 10
44.328723219
 20
-59.1416155745
 10
44.3250657352
 20
-59.1408636755
 10
44.3213666669
 20
-59.1400205582
 10
44.3176258473
 20
-59.1390862511
 10
44.313846445
 20
-59.1380615732
 10
44.3100280018
 20
-59.136946309
 10
44.3061709732
 20
-59.1357406759
 10
44.302279898
 20
-59.1344461426
 10
44.2983553361
 20
-59.133062836
 10
44.2943967252
 20
-59.1315906309
 10
44.2904069202
 20
-59.1300306171
 10
44.2863851982
 20
-59.128382432
 10
44.28233228
 20
-59.1266464398
 10
44.2782531866
 20
-59.1248248204
 10
44.27414862
 20
-59.1229178245
 10
44.2700178764
 20
-59.1209252028
 10
44.2658638679
 20
-59.118848386
 10
44.2616858857
 20
-59.1166869507
 10
44.2574846371
 20
-59.1144413216
 10
44.2532651586
 20
-59.1121142007
 10
44.2490280107
 20
-59.1097058282
 10
44.2447726317
 20
-59.1072159649
 10
44.2405023748
 20
-59.1046465947
 10
44.2362167364
 20
-59.10199737
 10
44.2319162192
 20
-59.0992686391
 10
44.2276056858
 20
-59.0964634296
 10
44.223286757
 20
-59.0935827509
 10
44.2189578116
 20
-59.090625594
 10
44.2146188495
 20
-59.0875919588
  0
LWPOLYLINE
  5
264
100
AcDbEntity
  8
RACCORDO
100
AcDbPolyline
 62
250
  6
CONTINUOUS
 90
64
 70
0
 10
-37.4769118627
 20
41.2424796082
 10
-37.512411693
 20
40.6359356902
 10
-37.5467674681
 20
40.03013653
 10
-37.5799791879
 20
39.4250821277
 10
-37.6120469723
 20
38.8207701457
 10
-37.6429707014
 20
38.2172029216
 10
-37.672750016
 20
37.6143874683
 10
-37.7013849025
 20
37.0123237969
 10
-37.7288753745
 20
36.4110118963
 10
-37.7552211127
 20
35.8104587465
 10
-37.780422104
 20
35.2106643564
 10
-37.8044783616
 20
34.6116287172
 10
-37.8273896062
 20
34.0133587823
 10
-37.8491558246
 20
33.4158545606
 10
-37.8697770301
 20
32.8191160432
 10
-37.8892529832
 20
32.2231501572
 10
-37.9075836707
 20
31.6279569114
 10
-37.9247691059
 20
31.0335362968
 10
-37.9408090893
 20
30.4398952136
 10
-37.9557036076
 20
29.8470336706
 10
-37.9694526741
 20
29.2549516588
 10
-37.9820561292
 20
28.6636560511
 10
-37.9935139595
 20
28.0731468567
 10
-38.0038261784
 20
27.4834240664
 10
-38.0129926663
 20
26.8944945256
 10
-38.0210134096
 20
26.3063582435
 10
-38.0278884219
 20
25.719015211
 10
-38.0336176232
 20
25.1324722458
 10
-38.0382010003
 20
24.5467293573
 10
-38.0416385664
 20
23.9617865362
 10
-38.0439302817
 20
23.3776505725
 10
-38.0450761328
 20
22.7943214755
 10
-38.0450761331
 20
22.2117992359
 10
-38.0439302825
 20
21.6300906161
 10
-38.0416385678
 20
21.0491956258
 10
-38.0382010022
 20
20.4691142554
 10
-38.0336176256
 20
19.8898532383
 10
-38.0278884248
 20
19.3114125842
 10
-38.0210134131
 20
18.7337922836
 10
-38.0129926701
 20
18.1569990413
 10
-38.0038261828
 20
17.5810328671
 10
-37.9935139643
 20
17.0058937513
 10
-37.9820561343
 20
16.4315883701
 10
-37.9694526796
 20
15.8581167331
 10
-37.9557036134
 20
15.2854788306
 10
-37.9408090954
 20
14.7136813099
 10
-37.9247691122
 20
14.1427241806
 10
-37.9075836772
 20
13.5726074331
 10
-37.8892529898
 20
13.003337685
 10
-37.8697770367
 20
12.4349149464
 10
-37.8491558313
 20
11.8673392073
 10
-37.8273896128
 20
11.3006170562
 10
-37.8044783681
 20
10.7347485029
 10
-37.7804221103
 20
10.1697335377
 10
-37.7552211188
 20
9.6055787189
 10
-37.7288753802
 20
9.0422840566
 10
-37.7013849078
 20
8.4798495408
 10
-37.6727500208
 20
7.9182817009
 10
-37.6429707058
 20
7.3575805458
 10
-37.6120469761
 20
6.7977460666
 10
-37.5799791911
 20
6.2387847662
 10
-37.5467674704
 20
5.6806988123
 10
-37.5124116942
 20
5.1234860371
 10
-37.4769118627
 20
4.5671464407
  0
LWPOLYLINE
  5
265
100
AcDbEntity
  8
RACCORDO
100
AcDbPolyline
 62
250
  6
CONTINUOUS
 90
97
 70
0
 10
-38.4188744797
 20
51.4442585957
 10
-38.4734029117
 20
50.8239347367
 10
-38.526786616
 20
50.2043141643
 10
-38.5790253859
 20
49.5853992771
 10
-38.6301190191
 20
48.967192471
 10
-38.680067318
 20
48.3496961391
 10
-38.7288700892
 20
47.7329126713
 10
-38.7765271438
 20
47.1168444549
 10
-38.8230382972
 20
46.5014938751
 10
-38.8684033695
 20
45.8868633141
 10
-38.9126221849
 20
45.2729551511
 10
-38.9556945725
 20
44.6597717625
 10
-38.9976203653
 20
44.0473155221
 10
-39.0383994012
 20
43.4355888006
 10
-39.0780315222
 20
42.8245939661
 10
-39.1165165749
 20
42.2143333837
 10
-39.1538544104
 20
41.6048094156
 10
-39.1900448842
 20
40.9960244214
 10
-39.2250878561
 20
40.3879807578
 10
-39.2589831904
 20
39.7806807785
 10
-39.291730756
 20
39.1741268345
 10
-39.3233304262
 20
38.5683212737
 10
-39.3537820785
 20
37.9632664413
 10
-39.3830855951
 20
37.3589646793
 10
-39.4112408626
 20
36.7554183272
 10
-39.4382477719
 20
36.1526297212
 10
-39.4641062186
 20
35.5506011948
 10
-39.4888161025
 20
34.9493350783
 10
-39.512377328
 20
34.3488336994
 10
-39.5347898039
 20
33.7490993826
 10
-39.5560534433
 20
33.1501344494
 10
-39.5761681641
 20
32.5519412187
 10
-39.5951338883
 20
31.9545220058
 10
-39.6129505425
 20
31.3578791236
 10
-39.6296180578
 20
30.7620148815
 10
-39.6451363696
 20
30.1669315863
 10
-39.6595054179
 20
29.5726315415
 10
-39.672725147
 20
28.9791170476
 10
-39.6847955057
 20
28.3863904023
 10
-39.6957164474
 20
27.7944538999
 10
-39.7054879297
 20
27.2033098318
 10
-39.7141099149
 20
26.6129604865
 10
-39.7215823696
 20
26.0234081491
 10
-39.7279052647
 20
25.4346551019
 10
-39.7330785759
 20
24.8467036239
 10
-39.7371022832
 20
24.2595559911
 10
-39.7399763709
 20
23.6732144764
 10
-39.7417008279
 20
23.0876813495
 10
-39.7422756476
 20
22.5029588771
 10
-39.7417008277
 20
21.9190493226
 10
-39.7399763705
 20
21.3359549464
 10
-39.7371022826
 20
20.7536780057
 10
-39.7330785751
 20
20.1722207544
 10
-39.7279052637
 20
19.5915854434
 10
-39.7215823683
 20
19.0117743205
 10
-39.7141099135
 20
18.4327896299
 10
-39.7054879281
 20
17.8546336131
 10
-39.6957164455
 20
17.277308508
 10
-39.6847955036
 20
16.7008165496
 10
-39.6727251447
 20
16.1251599695
 10
-39.6595054154
 20
15.550340996
 10
-39.6451363669
 20
14.9763618542
 10
-39.6296180549
 20
14.4032247662
 10
-39.6129505394
 20
13.8309319504
 10
-39.595133885
 20
13.2594856224
 10
-39.5761681605
 20
12.6888879941
 10
-39.5560534396
 20
12.1191412744
 10
-39.5347897999
 20
11.5502476687
 10
-39.5123773238
 20
10.9822093794
 10
-39.4888160981
 20
10.4150286053
 10
-39.464106214
 20
9.8487075419
 10
-39.4382477671
 20
9.2832483817
 10
-39.4112408575
 20
8.7186533133
 10
-39.3830855899
 20
8.1549245224
 10
-39.353782073
 20
7.5920641913
 10
-39.3233304205
 20
7.0300744986
 10
-39.2917307502
 20
6.4689576201
 10
-39.2589831843
 20
5.9087157277
 10
-39.2250878498
 20
5.3493509902
 10
-39.1900448777
 20
4.7908655728
 10
-39.1538544037
 20
4.2332616376
 10
-39.116516568
 20
3.676541343
 10
-39.078031515
 20
3.1207068443
 10
-39.0383993938
 20
2.565760293
 10
-38.9976203578
 20
2.0117038372
 10
-38.9556945647
 20
1.4585396218
 10
-38.912622177
 20
0.906269788
 10
-38.8684033613
 20
0.3548964737
 10
-38.8230382888
 20
-0.1955781867
 10
-38.7765271352
 20
-0.7451520624
 10
-38.7288700804
 20
-1.2938230256
 10
-38.6800673087
 20
-1.8415889561
 10
-38.6301190093
 20
-2.3884477298
 10
-38.5790253765
 20
-2.9343972192
 10
-38.5267866085
 20
-3.4794353073
 10
-38.4734029073
 20
-4.023559888
 10
-38.4188744797
 20
-4.5667688548
  0
LWPOLYLINE
  5
266
100
AcDbEntity
  8
RACCORDO
100
AcDbPolyline
 62
250
  6
CONTINUOUS
 90
3
 70
0
 10
-37.8553905892
 20
46.7964540512
 10
-37.8291472145
 20
46.4374835465
 10
-37.8159786487
 20
46.2557949078
  0
LWPOLYLINE
  5
267
100
AcDbEntity
  8
RACCORDO
100
AcDbPolyline
 62
250
  6
CONTINUOUS
 90
3
 70
0
 10
-37.8159786487
 20
46.2557949078
 10
-37.7895505642
 20
45.8881574468
 10
-37.7763492481
 20
45.7033695604
  0
LINE
  5
268
100
AcDbEntity
  8
RACCORDO
100
AcDbLine
 62
250
  6
CONTINUOUS
 10
-37.7763492481
 20
45.7033695604
 11
-37.7500185756
 21
45.3323077415
  0
LINE
  5
269
100
AcDbEntity
  8
RACCORDO
100
AcDbLine
 62
250
  6
CONTINUOUS
 10
-37.7500185756
 20
45.3323077415
 11
-37.7238687239
 21
44.9610596609
  0
LINE
  5
26A
100
AcDbEntity
  8
RACCORDO
100
AcDbLine
 62
250
  6
CONTINUOUS
 10
-37.7238687239
 20
44.9610596609
 11
-37.6980189887
 21
44.5916530899
  0
LINE
  5
26B
100
AcDbEntity
  8
RACCORDO
100
AcDbLine
 62
250
  6
CONTINUOUS
 10
-37.6980189887
 20
44.5916530899
 11
-37.6725813092
 21
44.2252849004
  0
LINE
  5
26C
100
AcDbEntity
  8
RACCORDO
100
AcDbLine
 62
250
  6
CONTINUOUS
 10
-37.6725813092
 20
44.2252849004
 11
-37.6476634655
 21
43.8636402357
  0
LINE
  5
26D
100
AcDbEntity
  8
RACCORDO
100
AcDbLine
 62
250
  6
CONTINUOUS
 10
-37.6476634655
 20
43.8636402357
 11
-37.623349445
 21
43.5077996084
  0
LWPOLYLINE
  5
26E
100
AcDbEntity
  8
RACCORDO
100
AcDbPolyline
 62
250
  6
CONTINUOUS
 90
14
 70
0
 10
-37.623349445
 20
43.5077996084
 10
-37.5997304403
 20
43.1584695219
 10
-37.5882075251
 20
42.986646127
 10
-37.5768907257
 20
42.8166919696
 10
-37.5657895861
 20
42.6489066991
 10
-37.5549143645
 20
42.483314361
 10
-37.5442735212
 20
42.3198676798
 10
-37.5338727313
 20
42.1587571808
 10
-37.5237189986
 20
41.9999777425
 10
-37.5138208916
 20
41.8435098926
 10
-37.5041852211
 20
41.6895211618
 10
-37.4948180814
 20
41.5380584443
 10
-37.4857252213
 20
41.3890488545
 10
-37.4769118628
 20
41.2424796089
  0
LWPOLYLINE
  5
26F
100
AcDbEntity
  8
RACCORDO
100
AcDbPolyline
 62
250
  6
CONTINUOUS
 90
79
 70
0
 10
-35.4485563788
 20
8.5705957214
 10
-35.4485277027
 20
8.5677276349
 10
-35.4484416859
 20
8.5648201573
 10
-35.4482983633
 20
8.5618744677
 10
-35.448097793
 20
8.5588917608
 10
-35.4478400564
 20
8.5558732462
 10
-35.447525258
 20
8.5528201479
 10
-35.4471535255
 20
8.5497337041
 10
-35.4467250096
 20
8.5466151666
 10
-35.446239884
 20
8.5434658
 10
-35.4456983456
 20
8.5402868815
 10
-35.445100614
 20
8.5370797003
 10
-35.4444469315
 20
8.5338455571
 10
-35.4437375632
 20
8.5305857634
 10
-35.4429727969
 20
8.5273016413
 10
-35.4421529426
 20
8.5239945224
 10
-35.4412783329
 20
8.5206657482
 10
-35.4403493225
 20
8.5173166684
 10
-35.4393662881
 20
8.5139486413
 10
-35.4383296283
 20
8.5105630328
 10
-35.4372397636
 20
8.5071612159
 10
-35.4360971359
 20
8.5037445701
 10
-35.4349022087
 20
8.5003144811
 10
-35.4336554665
 20
8.4968723399
 10
-35.432357415
 20
8.4934195424
 10
-35.4310085805
 20
8.4899574889
 10
-35.4296095101
 20
8.4864875833
 10
-35.4281607712
 20
8.483011233
 10
-35.4266629512
 20
8.4795298476
 10
-35.4251166576
 20
8.4760448391
 10
-35.4235225175
 20
8.4725576207
 10
-35.4218811774
 20
8.4690696067
 10
-35.4201933029
 20
8.4655822116
 10
-35.4184595785
 20
8.4620968497
 10
-35.4166807073
 20
8.4586149345
 10
-35.4148574107
 20
8.4551378779
 10
-35.4129904282
 20
8.4516670902
 10
-35.4110805169
 20
8.4482039788
 10
-35.4091284513
 20
8.4447499482
 10
-35.407135023
 20
8.4413063992
 10
-35.4051010406
 20
8.4378747282
 10
-35.4030273288
 20
8.4344563269
 10
-35.4009147287
 20
8.4310525817
 10
-35.398764097
 20
8.4276648729
 10
-35.3965763058
 20
8.4242945744
 10
-35.3943522424
 20
8.4209430529
 10
-35.3920928088
 20
8.4176116677
 10
-35.3897989212
 20
8.4143017697
 10
-35.3874715099
 20
8.4110147013
 10
-35.3851115188
 20
8.4077517955
 10
-35.382719905
 20
8.4045143755
 10
-35.3802976383
 20
8.4013037543
 10
-35.3778457011
 20
8.398121234
 10
-35.3753650877
 20
8.394968105
 10
-35.3728568042
 20
8.3918456463
 10
-35.3703218677
 20
8.388755124
 10
-35.3677613064
 20
8.3856977915
 10
-35.3651761585
 20
8.3826748887
 10
-35.3625674725
 20
8.3796876415
 10
-35.3599363063
 20
8.3767372613
 10
-35.3572837269
 20
8.3738249447
 10
-35.3546108102
 20
8.3709518727
 10
-35.35191864
 20
8.3681192105
 10
-35.3492083082
 20
8.3653281068
 10
-35.3464809139
 20
8.3625796935
 10
-35.3437375632
 20
8.3598750853
 10
-35.3409793686
 20
8.357215379
 10
-35.3382074487
 20
8.3546016532
 10
-35.3354229277
 20
8.3520349678
 10
-35.3326269347
 20
8.3495163638
 10
-35.3298206036
 20
8.3470468625
 10
-35.3270050726
 20
8.3446274656
 10
-35.3241814835
 20
8.342259154
 10
-35.3213509813
 20
8.3399428883
 10
-35.3185147139
 20
8.3376796078
 10
-35.3156738316
 20
8.3354702304
 10
-35.3128294865
 20
8.3333156521
 10
-35.309982832
 20
8.3312167466
 10
-35.3071350226
 20
8.3291743651
  0
LWPOLYLINE
  5
270
100
AcDbEntity
  8
RACCORDO
100
AcDbPolyline
 62
7
  6
CONTINUOUS
 90
79
 70
0
 10
-35.216792248
 20
8.7344777099
 10
-35.2167634754
 20
8.731607631
 10
-35.2166774698
 20
8.7287005405
 10
-35.2165342314
 20
8.7257564384
 10
-35.2163336549
 20
8.7227740954
 10
-35.2160758455
 20
8.7197547408
 10
-35.2157611188
 20
8.716702062
 10
-35.2153894067
 20
8.7136160297
 10
-35.2149607772
 20
8.7104966733
 10
-35.2144757498
 20
8.707347769
 10
-35.2139342553
 20
8.7041692735
 10
-35.2133363628
 20
8.7009612302
 10
-35.2126828001
 20
8.6977275443
 10
-35.2119734992
 20
8.6944681848
 10
-35.211208528
 20
8.6911831828
 10
-35.2103888182
 20
8.6878765371
 10
-35.2095143056
 20
8.6845482293
 10
-35.2085850545
 20
8.6811982778
 10
-35.2076021887
 20
8.6778307365
 10
-35.2065656383
 20
8.6744455683
 10
-35.2054754733
 20
8.6710428103
 10
-35.2043330283
 20
8.6676266278
 10
-35.2031382472
 20
8.6641970259
 10
-35.2018911861
 20
8.6607539995
 10
-35.2005933479
 20
8.6573016988
 10
-35.1992446614
 20
8.6538400878
 10
-35.1978451977
 20
8.6503692025
 10
-35.1963966735
 20
8.646893301
 10
-35.1948990394
 20
8.6434124016
 10
-35.1933523449
 20
8.639926486
 10
-35.1917584545
 20
8.6364397568
 10
-35.190117301
 20
8.6329521912
 10
-35.1884289516
 20
8.6294638119
 10
-35.186695473
 20
8.6259788898
 10
-35.184916818
 20
8.6224974449
 10
-35.1830930338
 20
8.6190194571
 10
-35.1812263283
 20
8.6155491365
 10
-35.1793166449
 20
8.6120864839
 10
-35.1773640402
 20
8.6086314985
 10
-35.1753708918
 20
8.605188388
 10
-35.1733371501
 20
8.6017571671
 10
-35.1712628646
 20
8.5983378211
 10
-35.1691505621
 20
8.5949345142
 10
-35.1670002017
 20
8.5915472742
 10
-35.1648118241
 20
8.5881760734
 10
-35.1625880782
 20
8.5848249926
 10
-35.1603289105
 20
8.5814940412
 10
-35.1580343746
 20
8.5781832099
 10
-35.1557072797
 20
8.5748965518
 10
-35.1533476012
 20
8.5716341168
 10
-35.1509553638
 20
8.5683958549
 10
-35.1485334516
 20
8.5651856704
 10
-35.1460818114
 20
8.5620035748
 10
-35.1436004964
 20
8.5588495564
 10
-35.1410925508
 20
8.5557274845
 10
-35.1385579603
 20
8.5526374202
 10
-35.1359967392
 20
8.5495793023
 10
-35.1334119751
 20
8.546556817
 10
-35.1308036232
 20
8.5435699887
 10
-35.1281717283
 20
8.5406187929
 10
-35.1255195119
 20
8.5377068423
 10
-35.1228469616
 20
8.5348341981
 10
-35.1201540899
 20
8.5320007991
 10
-35.1174441559
 20
8.5292100738
 10
-35.1147171325
 20
8.5264620674
 10
-35.1119730469
 20
8.5237567346
 10
-35.1092152389
 20
8.5210973689
 10
-35.1064436916
 20
8.5184840264
 10
-35.1036584221
 20
8.5159166509
 10
-35.1008628211
 20
8.5133983679
 10
-35.0980568829
 20
8.5109292426
 10
-35.0952406133
 20
8.5085092098
 10
-35.0924174211
 20
8.5061411994
 10
-35.0895872878
 20
8.5038252662
 10
-35.086750232
 20
8.5015613554
 10
-35.083909718
 20
8.4993522322
 10
-35.0810669007
 20
8.4971988184
 10
-35.0782206253
 20
8.4951001922
 10
-35.0753708918
 20
8.4930563537
  0
LINE
  5
271
100
AcDbEntity
  8
RACCORDO
100
AcDbLine
 62
7
  6
CONTINUOUS
 10
-35.216792248
 20
39.4639318216
 11
-35.216792248
 21
8.7344777099
  0
LWPOLYLINE
  5
272
100
AcDbEntity
  8
RACCORDO
100
AcDbPolyline
 62
250
  6
CONTINUOUS
 90
112
 70
0
 10
-37.4769118628
 20
4.5671464399
 10
-37.4857290925
 20
4.4085895787
 10
-37.4948260685
 20
4.2482989477
 10
-37.5041975617
 20
4.0862878591
 10
-37.5138378183
 20
3.9225105494
 10
-37.5237407332
 20
3.7570400558
 10
-37.5338994784
 20
3.59006742
 10
-37.5443054676
 20
3.4215999627
 10
-37.5549516906
 20
3.2516568554
 10
-37.5658324696
 20
3.0804456729
 10
-37.5769393312
 20
2.9079440421
 10
-37.5882620018
 20
2.7342000689
 10
-37.5997909306
 20
2.5595251428
 10
-37.6115145822
 20
2.3839142331
 10
-37.6234223419
 20
2.2073955519
 10
-37.635504925
 20
2.0303275412
 10
-37.6477490585
 20
1.8527085931
 10
-37.66014315
 20
1.6745601867
 10
-37.6726797546
 20
1.496272193
 10
-37.6853471937
 20
1.3178057767
 10
-37.6981304718
 20
1.139216006
 10
-37.7110167995
 20
0.9610292517
 10
-37.723993179
 20
0.7832169211
 10
-37.7370447022
 20
0.6058176139
 10
-37.7501557185
 20
0.4294523456
 10
-37.7633112091
 20
0.2541233171
 10
-37.7764983697
 20
0.0798302233
 10
-37.7897055924
 20
-0.0928164744
 10
-37.8029286042
 20
-0.26393076
 10
-37.8161455516
 20
-0.4334038495
 10
-37.8293199902
 20
-0.6003009112
 10
-37.8424812741
 20
-0.7650714357
 10
-37.855577316
 20
-0.9272828461
 10
-37.8684533843
 20
-1.0847030157
 10
-37.8811103862
 20
-1.2372824348
 10
-37.8935350913
 20
-1.3851288545
 10
-37.9055589498
 20
-1.5262828683
 10
-37.9171145306
 20
-1.6598775346
 10
-37.9282730928
 20
-1.7868737832
 10
-37.9390781826
 20
-1.9080646545
 10
-37.9495268526
 20
-2.0234161819
 10
-37.9596297869
 20
-2.133032949
 10
-37.969449099
 20
-2.2379024597
 10
-37.9789982284
 20
-2.3381680203
 10
-37.9882719134
 20
-2.4337373482
 10
-37.9973018874
 20
-2.525233685
 10
-38.0060932284
 20
-2.6126982128
 10
-38.0146495771
 20
-2.6961302644
 10
-38.0229986903
 20
-2.7760833105
 10
-38.0311402816
 20
-2.8525550378
 10
-38.039083012
 20
-2.9255797035
 10
-38.0468659229
 20
-2.9957591609
 10
-38.054506562
 20
-3.0632442257
 10
-38.061993917
 20
-3.1279068681
 10
-38.0693228598
 20
-3.1899268659
 10
-38.0764987486
 20
-3.2493215351
 10
-38.0835233898
 20
-3.3060944536
 10
-38.0903861852
 20
-3.3604039691
 10
-38.0970787834
 20
-3.4121732504
 10
-38.1036172282
 20
-3.4614984654
 10
-38.1100265904
 20
-3.5087953069
 10
-38.1163114436
 20
-3.5541046432
 10
-38.1224731366
 20
-3.5973997036
 10
-38.1285303674
 20
-3.6389916498
 10
-38.134491126
 20
-3.6789351386
 10
-38.1403521509
 20
-3.7171862383
 10
-38.1461143944
 20
-3.7539065339
 10
-38.1517803211
 20
-3.7891057921
 10
-38.1573519545
 20
-3.822783642
 10
-38.1628291838
 20
-3.8550856585
 10
-38.1682136251
 20
-3.8860171786
 10
-38.1735078492
 20
-3.915581037
 10
-38.1787128001
 20
-3.9439183503
 10
-38.1838297961
 20
-3.9710343684
 10
-38.1888613452
 20
-3.9969308695
 10
-38.1938097833
 20
-4.0217430819
 10
-38.1986755961
 20
-4.0454740343
 10
-38.2034617312
 20
-4.0681266806
 10
-38.20817378
 20
-4.0898354375
 10
-38.2128115878
 20
-4.1106030893
 10
-38.2173782646
 20
-4.1304317955
 10
-38.2218837822
 20
-4.149454267
 10
-38.2263295266
 20
-4.1676809759
 10
-38.2307164754
 20
-4.1851053193
 10
-38.2350534768
 20
-4.2018336743
 10
-38.2393487866
 20
-4.2178963885
 10
-38.2435959786
 20
-4.2332660882
 10
-38.2477817858
 20
-4.2479624075
 10
-38.2519102702
 20
-4.2619911556
 10
-38.2559795152
 20
-4.2753497173
 10
-38.259967664
 20
-4.288045517
 10
-38.2638701272
 20
-4.3000590801
 10
-38.2676941645
 20
-4.3114135221
 10
-38.2714358883
 20
-4.3221803497
 10
-38.2750912363
 20
-4.3323508617
 10
-38.2786667649
 20
-4.3419370108
 10
-38.2821742315
 20
-4.3510409234
 10
-38.2856118649
 20
-4.3596650694
 10
-38.28898336
 20
-4.367809437
 10
-38.2923081374
 20
-4.3755718015
 10
-38.2955840754
 20
-4.3829561043
 10
-38.2988145846
 20
-4.3899600599
 10
-38.302026735
 20
-4.3966713721
 10
-38.3052175784
 20
-4.403094727
 10
-38.308390639
 20
-4.4092262663
 10
-38.3115819188
 20
-4.4151400351
 10
-38.314786651
 20
-4.4208412068
 10
-38.318009332
 20
-4.4263245246
 10
-38.321298873
 20
-4.4316473566
 10
-38.3246708383
 20
-4.4368281362
 10
-38.3281080634
 20
-4.4418470063
 10
-38.3316097817
 20
-4.4467033083
  0
LWPOLYLINE
  5
273
100
AcDbEntity
  8
RACCORDO
100
AcDbPolyline
 62
250
  6
CONTINUOUS
 90
112
 70
0
 10
-35.7552213636
 20
4.6496783314
 10
-35.819249477
 20
4.2419200566
 10
-35.8467392089
 20
4.0703525568
 10
-35.8749965257
 20
3.8973001065
 10
-35.9040054223
 20
3.7226960321
 10
-35.9337509786
 20
3.5466257188
 10
-35.9642209154
 20
3.3693257671
 10
-35.9954045645
 20
3.1908001811
 10
-36.0272836113
 20
3.011063077
 10
-36.0598370515
 20
2.8303648344
 10
-36.0930614281
 20
2.6486786352
 10
-36.1269333371
 20
2.4660486937
 10
-36.1614057511
 20
2.2828298752
 10
-36.1964746236
 20
2.0990146654
 10
-36.2321215627
 20
1.9146259023
 10
-36.268283376
 20
1.7300610511
 10
-36.304957768
 20
1.5453166622
 10
-36.3421301783
 20
1.3604086635
 10
-36.3797252655
 20
1.1757600775
 10
-36.4177520965
 20
0.9913298908
 10
-36.4561910283
 20
0.8071682024
 10
-36.4949315546
 20
0.6238301507
 10
-36.5339859701
 20
0.441287299
 10
-36.5733406205
 20
0.2595718708
 10
-36.612856135
 20
0.0793240611
 10
-36.6525428436
 20
-0.0994518233
 10
-36.6924001835
 20
-0.2767629921
 10
-36.7322832742
 20
-0.4519930501
 10
-36.7722362246
 20
-0.6252526879
 10
-36.8122345975
 20
-0.7964403454
 10
-36.8520440977
 20
-0.9646294872
 10
-36.8918122378
 20
-1.1302528917
 10
-36.9314248002
 20
-1.2928956864
 10
-36.9702815067
 20
-1.4503764287
 10
-37.0084364294
 20
-1.6026077171
 10
-37.0459059288
 20
-1.7497187007
 10
-37.0820659493
 20
-1.8898734621
 10
-37.1167403652
 20
-2.0221873092
 10
-37.1502012144
 20
-2.1476038904
 10
-37.1825037895
 20
-2.2670345256
 10
-37.2136486357
 20
-2.380445721
 10
-37.243705212
 20
-2.4879145723
 10
-37.2728188214
 20
-2.5905099795
 10
-37.3010338895
 20
-2.6883732707
 10
-37.3283557066
 20
-2.7813944064
 10
-37.3548602995
 20
-2.8702585772
 10
-37.3805639557
 20
-2.9550051262
 10
-37.4054884391
 20
-3.0356189033
 10
-37.4297110727
 20
-3.1126989682
 10
-37.4532316833
 20
-3.1862436442
 10
-37.4760793623
 20
-3.2562731544
 10
-37.4983694733
 20
-3.3234156481
 10
-37.5201516233
 20
-3.3878149656
 10
-37.5413968233
 20
-3.4493405734
 10
-37.5620988715
 20
-3.5082066929
 10
-37.5822685522
 20
-3.5644261684
 10
-37.6019125494
 20
-3.6179975203
 10
-37.6210168768
 20
-3.6691124354
 10
-37.6395545446
 20
-3.7176969302
 10
-37.6575672265
 20
-3.7638346096
 10
-37.6751417944
 20
-3.8079521469
 10
-37.692289634
 20
-3.8500884877
 10
-37.7090098357
 20
-3.8902115815
 10
-37.7253685337
 20
-3.928640096
 10
-37.7413855001
 20
-3.965424339
 10
-37.7570487535
 20
-4.0005191514
 10
-37.7723754263
 20
-4.0340990946
 10
-37.7873691845
 20
-4.066171943
 10
-37.8020326905
 20
-4.0967341231
 10
-37.8163807432
 20
-4.1259426257
 10
-37.8304147497
 20
-4.1538012926
 10
-37.8441383889
 20
-4.180309671
 10
-37.857569181
 20
-4.2056178549
 10
-37.8707079854
 20
-4.2297298515
 10
-37.8835579838
 20
-4.2526443552
 10
-37.8961395981
 20
-4.2745031019
 10
-37.9084519633
 20
-4.2953084772
 10
-37.9204991254
 20
-4.3150602284
 10
-37.9323083755
 20
-4.3338958008
 10
-37.9438778883
 20
-4.3518178722
 10
-37.9552119503
 20
-4.3688254192
 10
-37.9663465877
 20
-4.3850500451
 10
-37.9772843439
 20
-4.4005012545
 10
-37.988024537
 20
-4.4151707965
 10
-37.9985980115
 20
-4.4291634094
 10
-38.0090233725
 20
-4.4425039602
 10
-38.0192834314
 20
-4.4551685378
 10
-38.0293551689
 20
-4.467188596
 10
-38.0392451891
 20
-4.4785667177
 10
-38.0489481427
 20
-4.4893011687
 10
-38.0584230331
 20
-4.4994168952
 10
-38.0676557346
 20
-4.5088967911
 10
-38.0766614952
 20
-4.5177587233
 10
-38.0854432905
 20
-4.5260800379
 10
-38.0939898564
 20
-4.5338544235
 10
-38.1023133243
 20
-4.5410887803
 10
-38.1104516072
 20
-4.5478801668
 10
-38.1184001372
 20
-4.5542321817
 10
-38.1261640953
 20
-4.5601416427
 10
-38.1337958638
 20
-4.5656953325
 10
-38.1412910657
 20
-4.5708987006
 10
-38.1486544979
 20
-4.5757465828
 10
-38.1559521773
 20
-4.5803097545
 10
-38.163179007
 20
-4.5845951157
 10
-38.1703403595
 20
-4.5885959539
 10
-38.1775178544
 20
-4.5923625565
 10
-38.1847035283
 20
-4.5959036573
 10
-38.1919055138
 20
-4.5992106376
 10
-38.1992294911
 20
-4.6023076991
 10
-38.2067107004
 20
-4.6052029182
 10
-38.2143139823
 20
-4.6078882734
 10
-38.2220393801
 20
-4.6103637941
  0
LWPOLYLINE
  5
274
100
AcDbEntity
  8
RACCORDO
100
AcDbPolyline
 62
250
  6
CONTINUOUS
 90
9
 70
0
 10
-37.1541799208
 20
6.5045154873
 10
-37.1970410113
 20
6.2610470771
 10
-37.23918264
 20
6.0179467939
 10
-37.2806052456
 20
5.7752120197
 10
-37.3213083894
 20
5.5328453724
 10
-37.3612907546
 20
5.2908547056
 10
-37.4005519025
 20
5.0492426369
 10
-37.4390922719
 20
4.8080065486
 10
-37.4769118627
 20
4.5671464407
  0
LWPOLYLINE
  5
275
100
AcDbEntity
  8
RACCORDO
100
AcDbPolyline
 62
250
  6
CONTINUOUS
 90
9
 70
0
 10
-35.4310497361
 20
6.564499126
 10
-35.4740561889
 20
6.3238748752
 10
-35.5163535808
 20
6.0836084835
 10
-35.557941434
 20
5.8437026807
 10
-35.598819285
 20
5.6041601541
 10
-35.6389866653
 20
5.3649836638
 10
-35.6784431023
 20
5.1261760427
 10
-35.7171881451
 20
4.887740042
 10
-35.7552213636
 20
4.6496783314
  0
LINE
  5
276
100
AcDbEntity
  8
RACCORDO
100
AcDbLine
 62
250
  6
CONTINUOUS
 10
-37.1101129289
 20
6.7510293244
 11
-37.1541799208
 21
6.5045154873
  0
LINE
  5
277
100
AcDbEntity
  8
RACCORDO
100
AcDbLine
 62
250
  6
CONTINUOUS
 10
-37.1091113535
 20
6.7563984618
 11
-37.1101129289
 21
6.7510293244
  0
LINE
  5
278
100
AcDbEntity
  8
RACCORDO
100
AcDbLine
 62
250
  6
CONTINUOUS
 10
-37.1080715812
 20
6.7617866905
 11
-37.1091113535
 21
6.7563984618
  0
LINE
  5
279
100
AcDbEntity
  8
RACCORDO
100
AcDbLine
 62
250
  6
CONTINUOUS
 10
-37.1069932586
 20
6.7671956198
 11
-37.1080715812
 21
6.7617866905
  0
LINE
  5
27A
100
AcDbEntity
  8
RACCORDO
100
AcDbLine
 62
250
  6
CONTINUOUS
 10
-37.1058761768
 20
6.772626108
 11
-37.1069932586
 21
6.7671956198
  0
LINE
  5
27B
100
AcDbEntity
  8
RACCORDO
100
AcDbLine
 62
250
  6
CONTINUOUS
 10
-37.1047200096
 20
6.7780794088
 11
-37.1058761768
 21
6.772626108
  0
LINE
  5
27C
100
AcDbEntity
  8
RACCORDO
100
AcDbLine
 62
250
  6
CONTINUOUS
 10
-37.1035243652
 20
6.7835567868
 11
-37.1047200096
 21
6.7780794088
  0
LINE
  5
27D
100
AcDbEntity
  8
RACCORDO
100
AcDbLine
 62
250
  6
CONTINUOUS
 10
-37.1022889552
 20
6.7890591458
 11
-37.1035243652
 21
6.7835567868
  0
LINE
  5
27E
100
AcDbEntity
  8
RACCORDO
100
AcDbLine
 62
250
  6
CONTINUOUS
 10
-37.1010133165
 20
6.7945878958
 11
-37.1022889552
 21
6.7890591458
  0
LINE
  5
27F
100
AcDbEntity
  8
RACCORDO
100
AcDbLine
 62
250
  6
CONTINUOUS
 10
-37.0996968564
 20
6.8001446983
 11
-37.1010133165
 21
6.7945878958
  0
LINE
  5
280
100
AcDbEntity
  8
RACCORDO
100
AcDbLine
 62
250
  6
CONTINUOUS
 10
-37.0983391779
 20
6.8057306026
 11
-37.0996968564
 21
6.8001446983
  0
LINE
  5
281
100
AcDbEntity
  8
RACCORDO
100
AcDbLine
 62
250
  6
CONTINUOUS
 10
-37.0969396641
 20
6.8113471702
 11
-37.0983391779
 21
6.8057306026
  0
LINE
  5
282
100
AcDbEntity
  8
RACCORDO
100
AcDbLine
 62
250
  6
CONTINUOUS
 10
-37.0954976852
 20
6.8169957476
 11
-37.0969396641
 21
6.8113471702
  0
LINE
  5
283
100
AcDbEntity
  8
RACCORDO
100
AcDbLine
 62
250
  6
CONTINUOUS
 10
-37.0940128066
 20
6.8226772423
 11
-37.0954976852
 21
6.8169957476
  0
LINE
  5
284
100
AcDbEntity
  8
RACCORDO
100
AcDbLine
 62
250
  6
CONTINUOUS
 10
-37.0924843633
 20
6.828392992
 11
-37.0940128066
 21
6.8226772423
  0
LINE
  5
285
100
AcDbEntity
  8
RACCORDO
100
AcDbLine
 62
250
  6
CONTINUOUS
 10
-37.0909116242
 20
6.8341443577
 11
-37.0924843633
 21
6.828392992
  0
LINE
  5
286
100
AcDbEntity
  8
RACCORDO
100
AcDbLine
 62
250
  6
CONTINUOUS
 10
-37.089294089
 20
6.8399322489
 11
-37.0909116242
 21
6.8341443577
  0
LINE
  5
287
100
AcDbEntity
  8
RACCORDO
100
AcDbLine
 62
250
  6
CONTINUOUS
 10
-37.0876309868
 20
6.8457580332
 11
-37.089294089
 21
6.8399322489
  0
LINE
  5
288
100
AcDbEntity
  8
RACCORDO
100
AcDbLine
 62
250
  6
CONTINUOUS
 10
-37.0859214845
 20
6.8516230897
 11
-37.0876309868
 21
6.8457580332
  0
LINE
  5
289
100
AcDbEntity
  8
RACCORDO
100
AcDbLine
 62
250
  6
CONTINUOUS
 10
-37.0841650123
 20
6.8575283424
 11
-37.0859214845
 21
6.8516230897
  0
LINE
  5
28A
100
AcDbEntity
  8
RACCORDO
100
AcDbLine
 62
250
  6
CONTINUOUS
 10
-37.0823606927
 20
6.8634751913
 11
-37.0841650123
 21
6.8575283424
  0
LINE
  5
28B
100
AcDbEntity
  8
RACCORDO
100
AcDbLine
 62
250
  6
CONTINUOUS
 10
-37.0805075746
 20
6.869465078
 11
-37.0823606927
 21
6.8634751913
  0
LINE
  5
28C
100
AcDbEntity
  8
RACCORDO
100
AcDbLine
 62
250
  6
CONTINUOUS
 10
-37.0786050915
 20
6.8754987189
 11
-37.0805075746
 21
6.869465078
  0
LINE
  5
28D
100
AcDbEntity
  8
RACCORDO
100
AcDbLine
 62
250
  6
CONTINUOUS
 10
-37.0766524468
 20
6.8815769515
 11
-37.0786050915
 21
6.8754987189
  0
LINE
  5
28E
100
AcDbEntity
  8
RACCORDO
100
AcDbLine
 62
250
  6
CONTINUOUS
 10
-37.0746490911
 20
6.8876997844
 11
-37.0766524468
 21
6.8815769515
  0
LINE
  5
28F
100
AcDbEntity
  8
RACCORDO
100
AcDbLine
 62
250
  6
CONTINUOUS
 10
-37.0725945954
 20
6.8938674125
 11
-37.0746490911
 21
6.8876997844
  0
LINE
  5
290
100
AcDbEntity
  8
RACCORDO
100
AcDbLine
 62
250
  6
CONTINUOUS
 10
-37.0704877655
 20
6.9000816903
 11
-37.0725945954
 21
6.8938674125
  0
LINE
  5
291
100
AcDbEntity
  8
RACCORDO
100
AcDbLine
 62
250
  6
CONTINUOUS
 10
-37.0683305895
 20
6.9063353525
 11
-37.0704877655
 21
6.9000816903
  0
LINE
  5
292
100
AcDbEntity
  8
RACCORDO
100
AcDbLine
 62
250
  6
CONTINUOUS
 10
-37.0661242564
 20
6.9126241969
 11
-37.0683305895
 21
6.9063353525
  0
LINE
  5
293
100
AcDbEntity
  8
RACCORDO
100
AcDbLine
 62
250
  6
CONTINUOUS
 10
-37.0638712563
 20
6.918940213
 11
-37.0661242564
 21
6.9126241969
  0
LINE
  5
294
100
AcDbEntity
  8
RACCORDO
100
AcDbLine
 62
250
  6
CONTINUOUS
 10
-37.0615713955
 20
6.9252834597
 11
-37.0638712563
 21
6.918940213
  0
LINE
  5
295
100
AcDbEntity
  8
RACCORDO
100
AcDbLine
 62
250
  6
CONTINUOUS
 10
-37.0592245716
 20
6.9316538321
 11
-37.0615713955
 21
6.9252834597
  0
LINE
  5
296
100
AcDbEntity
  8
RACCORDO
100
AcDbLine
 62
250
  6
CONTINUOUS
 10
-37.0568302404
 20
6.9380522681
 11
-37.0592245716
 21
6.9316538321
  0
LINE
  5
297
100
AcDbEntity
  8
RACCORDO
100
AcDbLine
 62
250
  6
CONTINUOUS
 10
-37.0543880252
 20
6.9444791696
 11
-37.0568302404
 21
6.9380522681
  0
LINE
  5
298
100
AcDbEntity
  8
RACCORDO
100
AcDbLine
 62
250
  6
CONTINUOUS
 10
-37.0518976655
 20
6.950934821
 11
-37.0543880252
 21
6.9444791696
  0
LINE
  5
299
100
AcDbEntity
  8
RACCORDO
100
AcDbLine
 62
250
  6
CONTINUOUS
 10
-37.0493587732
 20
6.9574196239
 11
-37.0518976655
 21
6.950934821
  0
LINE
  5
29A
100
AcDbEntity
  8
RACCORDO
100
AcDbLine
 62
250
  6
CONTINUOUS
 10
-37.0467709525
 20
6.9639339535
 11
-37.0493587732
 21
6.9574196239
  0
LINE
  5
29B
100
AcDbEntity
  8
RACCORDO
100
AcDbLine
 62
250
  6
CONTINUOUS
 10
-37.044133934
 20
6.9704780641
 11
-37.0467709525
 21
6.9639339535
  0
LINE
  5
29C
100
AcDbEntity
  8
RACCORDO
100
AcDbLine
 62
250
  6
CONTINUOUS
 10
-37.0414473105
 20
6.977052332
 11
-37.044133934
 21
6.9704780641
  0
LINE
  5
29D
100
AcDbEntity
  8
RACCORDO
100
AcDbLine
 62
250
  6
CONTINUOUS
 10
-37.0387106407
 20
6.9836571719
 11
-37.0414473105
 21
6.977052332
  0
LINE
  5
29E
100
AcDbEntity
  8
RACCORDO
100
AcDbLine
 62
250
  6
CONTINUOUS
 10
-37.0359236233
 20
6.9902928674
 11
-37.0387106407
 21
6.9836571719
  0
LINE
  5
29F
100
AcDbEntity
  8
RACCORDO
100
AcDbLine
 62
250
  6
CONTINUOUS
 10
-37.0330857934
 20
6.9969598608
 11
-37.0359236233
 21
6.9902928674
  0
LINE
  5
2A0
100
AcDbEntity
  8
RACCORDO
100
AcDbLine
 62
250
  6
CONTINUOUS
 10
-37.0301966643
 20
7.0036585978
 11
-37.0330857934
 21
6.9969598608
  0
LINE
  5
2A1
100
AcDbEntity
  8
RACCORDO
100
AcDbLine
 62
250
  6
CONTINUOUS
 10
-37.0272559084
 20
7.0103893737
 11
-37.0301966643
 21
7.0036585978
  0
LINE
  5
2A2
100
AcDbEntity
  8
RACCORDO
100
AcDbLine
 62
250
  6
CONTINUOUS
 10
-37.0242630281
 20
7.0171526299
 11
-37.0272559084
 21
7.0103893737
  0
LINE
  5
2A3
100
AcDbEntity
  8
RACCORDO
100
AcDbLine
 62
250
  6
CONTINUOUS
 10
-37.0212175102
 20
7.0239487995
 11
-37.0242630281
 21
7.0171526299
  0
LINE
  5
2A4
100
AcDbEntity
  8
RACCORDO
100
AcDbLine
 62
250
  6
CONTINUOUS
 10
-37.0181190086
 20
7.0307781703
 11
-37.0212175102
 21
7.0239487995
  0
LINE
  5
2A5
100
AcDbEntity
  8
RACCORDO
100
AcDbLine
 62
250
  6
CONTINUOUS
 10
-37.0149669997
 20
7.0376411711
 11
-37.0181190086
 21
7.0307781703
  0
LINE
  5
2A6
100
AcDbEntity
  8
RACCORDO
100
AcDbLine
 62
250
  6
CONTINUOUS
 10
-37.0117609422
 20
7.0445382267
 11
-37.0149669997
 21
7.0376411711
  0
LINE
  5
2A7
100
AcDbEntity
  8
RACCORDO
100
AcDbLine
 62
250
  6
CONTINUOUS
 10
-37.0085004675
 20
7.0514696283
 11
-37.0117609422
 21
7.0445382267
  0
LINE
  5
2A8
100
AcDbEntity
  8
RACCORDO
100
AcDbLine
 62
250
  6
CONTINUOUS
 10
-37.0051850128
 20
7.0584358205
 11
-37.0085004675
 21
7.0514696283
  0
LINE
  5
2A9
100
AcDbEntity
  8
RACCORDO
100
AcDbLine
 62
250
  6
CONTINUOUS
 10
-37.0018139884
 20
7.0654372619
 11
-37.0051850128
 21
7.0584358205
  0
LINE
  5
2AA
100
AcDbEntity
  8
RACCORDO
100
AcDbLine
 62
250
  6
CONTINUOUS
 10
-36.9983869905
 20
7.0724742705
 11
-37.0018139884
 21
7.0654372619
  0
LINE
  5
2AB
100
AcDbEntity
  8
RACCORDO
100
AcDbLine
 62
250
  6
CONTINUOUS
 10
-36.9949033981
 20
7.0795473418
 11
-36.9983869905
 21
7.0724742705
  0
LINE
  5
2AC
100
AcDbEntity
  8
RACCORDO
100
AcDbLine
 62
250
  6
CONTINUOUS
 10
-36.9913625566
 20
7.086656993
 11
-36.9949033981
 21
7.0795473418
  0
LINE
  5
2AD
100
AcDbEntity
  8
RACCORDO
100
AcDbLine
 62
250
  6
CONTINUOUS
 10
-36.9877640392
 20
7.0938035406
 11
-36.9913625566
 21
7.086656993
  0
LINE
  5
2AE
100
AcDbEntity
  8
RACCORDO
100
AcDbLine
 62
250
  6
CONTINUOUS
 10
-36.9822567265
 20
7.1045935058
 11
-36.9877640392
 21
7.0938035406
  0
LINE
  5
2AF
100
AcDbEntity
  8
RACCORDO
100
AcDbLine
 62
250
  6
CONTINUOUS
 10
-36.9766163404
 20
7.1154686672
 11
-36.9822567265
 21
7.1045935058
  0
LINE
  5
2B0
100
AcDbEntity
  8
RACCORDO
100
AcDbLine
 62
250
  6
CONTINUOUS
 10
-36.9708409461
 20
7.1264302362
 11
-36.9766163404
 21
7.1154686672
  0
LINE
  5
2B1
100
AcDbEntity
  8
RACCORDO
100
AcDbLine
 62
250
  6
CONTINUOUS
 10
-36.9649285289
 20
7.137479483
 11
-36.9708409461
 21
7.1264302362
  0
LINE
  5
2B2
100
AcDbEntity
  8
RACCORDO
100
AcDbLine
 62
250
  6
CONTINUOUS
 10
-36.9588770123
 20
7.1486177
 11
-36.9649285289
 21
7.137479483
  0
LINE
  5
2B3
100
AcDbEntity
  8
RACCORDO
100
AcDbLine
 62
250
  6
CONTINUOUS
 10
-36.9526842868
 20
7.1598461452
 11
-36.9588770123
 21
7.1486177
  0
LINE
  5
2B4
100
AcDbEntity
  8
RACCORDO
100
AcDbLine
 62
250
  6
CONTINUOUS
 10
-36.9463482353
 20
7.1711659995
 11
-36.9526842868
 21
7.1598461452
  0
LINE
  5
2B5
100
AcDbEntity
  8
RACCORDO
100
AcDbLine
 62
250
  6
CONTINUOUS
 10
-36.939866729
 20
7.1825783762
 11
-36.9463482353
 21
7.1711659995
  0
LINE
  5
2B6
100
AcDbEntity
  8
RACCORDO
100
AcDbLine
 62
250
  6
CONTINUOUS
 10
-36.9332376109
 20
7.1940843538
 11
-36.939866729
 21
7.1825783762
  0
LINE
  5
2B7
100
AcDbEntity
  8
RACCORDO
100
AcDbLine
 62
250
  6
CONTINUOUS
 10
-36.9264586824
 20
7.2056849981
 11
-36.9332376109
 21
7.1940843538
  0
LINE
  5
2B8
100
AcDbEntity
  8
RACCORDO
100
AcDbLine
 62
250
  6
CONTINUOUS
 10
-36.9195277058
 20
7.217381358
 11
-36.9264586824
 21
7.2056849981
  0
LINE
  5
2B9
100
AcDbEntity
  8
RACCORDO
100
AcDbLine
 62
250
  6
CONTINUOUS
 10
-36.91244242
 20
7.2291744371
 11
-36.9195277058
 21
7.217381358
  0
LINE
  5
2BA
100
AcDbEntity
  8
RACCORDO
100
AcDbLine
 62
250
  6
CONTINUOUS
 10
-36.90520059
 20
7.2410651147
 11
-36.91244242
 21
7.2291744371
  0
LINE
  5
2BB
100
AcDbEntity
  8
RACCORDO
100
AcDbLine
 62
250
  6
CONTINUOUS
 10
-36.8978000523
 20
7.2530540775
 11
-36.90520059
 21
7.2410651147
  0
LINE
  5
2BC
100
AcDbEntity
  8
RACCORDO
100
AcDbLine
 62
250
  6
CONTINUOUS
 10
-36.8902387384
 20
7.2651417934
 11
-36.8978000523
 21
7.2530540775
  0
LINE
  5
2BD
100
AcDbEntity
  8
RACCORDO
100
AcDbLine
 62
250
  6
CONTINUOUS
 10
-36.8825145268
 20
7.2773287536
 11
-36.8902387384
 21
7.2651417934
  0
LINE
  5
2BE
100
AcDbEntity
  8
RACCORDO
100
AcDbLine
 62
250
  6
CONTINUOUS
 10
-36.8746251979
 20
7.289615539
 11
-36.8825145268
 21
7.2773287536
  0
LINE
  5
2BF
100
AcDbEntity
  8
RACCORDO
100
AcDbLine
 62
250
  6
CONTINUOUS
 10
-36.8665685268
 20
7.3020026689
 11
-36.8746251979
 21
7.289615539
  0
LINE
  5
2C0
100
AcDbEntity
  8
RACCORDO
100
AcDbLine
 62
250
  6
CONTINUOUS
 10
-36.8583423907
 20
7.3144904403
 11
-36.8665685268
 21
7.3020026689
  0
LINE
  5
2C1
100
AcDbEntity
  8
RACCORDO
100
AcDbLine
 62
250
  6
CONTINUOUS
 10
-36.8499447458
 20
7.3270789722
 11
-36.8583423907
 21
7.3144904403
  0
LINE
  5
2C2
100
AcDbEntity
  8
RACCORDO
100
AcDbLine
 62
250
  6
CONTINUOUS
 10
-36.8413736006
 20
7.3397682527
 11
-36.8499447458
 21
7.3270789722
  0
LINE
  5
2C3
100
AcDbEntity
  8
RACCORDO
100
AcDbLine
 62
250
  6
CONTINUOUS
 10
-36.8326271034
 20
7.3525580164
 11
-36.8413736006
 21
7.3397682527
  0
LINE
  5
2C4
100
AcDbEntity
  8
RACCORDO
100
AcDbLine
 62
250
  6
CONTINUOUS
 10
-36.8237035104
 20
7.3654478012
 11
-36.8326271034
 21
7.3525580164
  0
LINE
  5
2C5
100
AcDbEntity
  8
RACCORDO
100
AcDbLine
 62
250
  6
CONTINUOUS
 10
-36.8146009952
 20
7.3784372276
 11
-36.8237035104
 21
7.3654478012
  0
LINE
  5
2C6
100
AcDbEntity
  8
RACCORDO
100
AcDbLine
 62
250
  6
CONTINUOUS
 10
-36.8053175091
 20
7.3915261849
 11
-36.8146009952
 21
7.3784372276
  0
LINE
  5
2C7
100
AcDbEntity
  8
RACCORDO
100
AcDbLine
 62
250
  6
CONTINUOUS
 10
-36.7958510441
 20
7.4047144478
 11
-36.8053175091
 21
7.3915261849
  0
LINE
  5
2C8
100
AcDbEntity
  8
RACCORDO
100
AcDbLine
 62
250
  6
CONTINUOUS
 10
-36.7862007112
 20
7.4180002025
 11
-36.7958510441
 21
7.4047144478
  0
LINE
  5
2C9
100
AcDbEntity
  8
RACCORDO
100
AcDbLine
 62
250
  6
CONTINUOUS
 10
-36.7763655375
 20
7.4313817624
 11
-36.7862007112
 21
7.4180002025
  0
LINE
  5
2CA
100
AcDbEntity
  8
RACCORDO
100
AcDbLine
 62
250
  6
CONTINUOUS
 10
-36.7663439662
 20
7.4448582261
 11
-36.7763655375
 21
7.4313817624
  0
LINE
  5
2CB
100
AcDbEntity
  8
RACCORDO
100
AcDbLine
 62
250
  6
CONTINUOUS
 10
-36.7561347045
 20
7.4584283069
 11
-36.7663439662
 21
7.4448582261
  0
LINE
  5
2CC
100
AcDbEntity
  8
RACCORDO
100
AcDbLine
 62
250
  6
CONTINUOUS
 10
-36.7457367028
 20
7.4720903786
 11
-36.7561347045
 21
7.4584283069
  0
LINE
  5
2CD
100
AcDbEntity
  8
RACCORDO
100
AcDbLine
 62
250
  6
CONTINUOUS
 10
-36.7351490783
 20
7.485842589
 11
-36.7457367028
 21
7.4720903786
  0
LINE
  5
2CE
100
AcDbEntity
  8
RACCORDO
100
AcDbLine
 62
250
  6
CONTINUOUS
 10
-36.7243711585
 20
7.4996828128
 11
-36.7351490783
 21
7.485842589
  0
LWPOLYLINE
  5
2CF
100
AcDbEntity
  8
RACCORDO
100
AcDbPolyline
 62
250
  6
CONTINUOUS
 90
3
 70
0
 10
-36.7097036136
 20
7.5182694108
 10
-36.7134023867
 20
7.5136087833
 10
-36.7243711585
 20
7.4996828128
  0
LINE
  5
2D0
100
AcDbEntity
  8
RACCORDO
100
AcDbLine
 62
250
  6
CONTINUOUS
 10
-35.4586412544
 20
6.8964588856
 11
-35.4528997737
 21
6.8674585112
  0
LWPOLYLINE
  5
2D1
100
AcDbEntity
  8
RACCORDO
100
AcDbPolyline
 62
250
  6
CONTINUOUS
 90
41
 70
0
 10
-35.4528997737
 20
6.8674585112
 10
-35.4479122946
 20
6.8411298555
 10
-35.4456630653
 20
6.8288173225
 10
-35.4435861988
 20
6.8170742185
 10
-35.4416461707
 20
6.8057913458
 10
-35.4398443584
 20
6.7949602237
 10
-35.4381881173
 20
6.7845877611
 10
-35.4366486557
 20
6.7745883376
 10
-35.4352266655
 20
6.7649550669
 10
-35.4339279102
 20
6.7556935187
 10
-35.4327295976
 20
6.7467371614
 10
-35.4316321254
 20
6.7380807199
 10
-35.4306399408
 20
6.7297283879
 10
-35.4297351578
 20
6.7216281639
 10
-35.4289180218
 20
6.7137760665
 10
-35.4281919706
 20
6.7061752
 10
-35.4275430382
 20
6.6987844544
 10
-35.4269713698
 20
6.691600748
 10
-35.4264796449
 20
6.6846264605
 10
-35.4260570385
 20
6.6778288899
 10
-35.4257036315
 20
6.6712057752
 10
-35.425421523
 20
6.6647588232
 10
-35.4252023993
 20
6.6584614629
 10
-35.425046264
 20
6.6523120313
 10
-35.4249547912
 20
6.6463117666
 10
-35.4249217537
 20
6.6404386044
 10
-35.4249470729
 20
6.6346911963
 10
-35.4250320971
 20
6.6290705837
 10
-35.425172388
 20
6.6235584247
 10
-35.4253677933
 20
6.6181536801
 10
-35.4256193986
 20
6.6128571901
 10
-35.4259243214
 20
6.6076535566
 10
-35.4262823304
 20
6.6025419865
 10
-35.4266943036
 20
6.597523176
 10
-35.4271587558
 20
6.5925840771
 10
-35.4276753787
 20
6.587724048
 10
-35.4282448735
 20
6.5829437338
 10
-35.4288670268
 20
6.5782321279
 10
-35.4295417711
 20
6.5735856203
 10
-35.4302693132
 20
6.5690079364
 10
-35.4310497361
 20
6.564499126
  0
LINE
  5
2D2
100
AcDbEntity
  8
RACCORDO
100
AcDbLine
 62
250
  6
CONTINUOUS
 10
-38.400432093
 20
-4.5407936742
 11
-38.4188744797
 21
-4.5667688547
  0
LINE
  5
2D3
100
AcDbEntity
  8
RACCORDO
100
AcDbLine
 62
250
  6
CONTINUOUS
 10
-38.3814259392
 20
-4.5143961848
 11
-38.400432093
 21
-4.5407936742
  0
LINE
  5
2D4
100
AcDbEntity
  8
RACCORDO
100
AcDbLine
 62
250
  6
CONTINUOUS
 10
-38.3618777084
 20
-4.4875850355
 11
-38.3814259392
 21
-4.5143961848
  0
LWPOLYLINE
  5
2D5
100
AcDbEntity
  8
RACCORDO
100
AcDbPolyline
 62
250
  6
CONTINUOUS
 90
3
 70
0
 10
-38.3316097817
 20
-4.4467033083
 10
-38.3418223576
 20
-4.4604225854
 10
-38.3618777084
 20
-4.4875850355
  0
LINE
  5
2D6
100
AcDbEntity
  8
RACCORDO
100
AcDbLine
 62
250
  6
CONTINUOUS
 10
-36.6984795066
 20
7.5323061939
 11
-36.7097036136
 21
7.5182694108
  0
LINE
  5
2D7
100
AcDbEntity
  8
RACCORDO
100
AcDbLine
 62
250
  6
CONTINUOUS
 10
-36.6870633198
 20
7.5464233647
 11
-36.6984795066
 21
7.5323061939
  0
LINE
  5
2D8
100
AcDbEntity
  8
RACCORDO
100
AcDbLine
 62
250
  6
CONTINUOUS
 10
-36.6754548562
 20
7.5606182282
 11
-36.6870633198
 21
7.5464233647
  0
LINE
  5
2D9
100
AcDbEntity
  8
RACCORDO
100
AcDbLine
 62
250
  6
CONTINUOUS
 10
-36.6636546339
 20
7.5748872444
 11
-36.6754548562
 21
7.5606182282
  0
LINE
  5
2DA
100
AcDbEntity
  8
RACCORDO
100
AcDbLine
 62
250
  6
CONTINUOUS
 10
-36.651663656
 20
7.5892263397
 11
-36.6636546339
 21
7.5748872444
  0
LINE
  5
2DB
100
AcDbEntity
  8
RACCORDO
100
AcDbLine
 62
250
  6
CONTINUOUS
 10
-36.6394821894
 20
7.6036323745
 11
-36.651663656
 21
7.5892263397
  0
LINE
  5
2DC
100
AcDbEntity
  8
RACCORDO
100
AcDbLine
 62
250
  6
CONTINUOUS
 10
-36.6271101972
 20
7.6181025886
 11
-36.6394821894
 21
7.6036323745
  0
LINE
  5
2DD
100
AcDbEntity
  8
RACCORDO
100
AcDbLine
 62
250
  6
CONTINUOUS
 10
-36.6145482745
 20
7.6326334973
 11
-36.6271101972
 21
7.6181025886
  0
LINE
  5
2DE
100
AcDbEntity
  8
RACCORDO
100
AcDbLine
 62
250
  6
CONTINUOUS
 10
-36.6017974355
 20
7.6472211709
 11
-36.6145482745
 21
7.6326334973
  0
LINE
  5
2DF
100
AcDbEntity
  8
RACCORDO
100
AcDbLine
 62
250
  6
CONTINUOUS
 10
-36.588858766
 20
7.6618616489
 11
-36.6017974355
 21
7.6472211709
  0
LINE
  5
2E0
100
AcDbEntity
  8
RACCORDO
100
AcDbLine
 62
250
  6
CONTINUOUS
 10
-36.5757333685
 20
7.6765510011
 11
-36.588858766
 21
7.6618616489
  0
LINE
  5
2E1
100
AcDbEntity
  8
RACCORDO
100
AcDbLine
 62
250
  6
CONTINUOUS
 10
-36.5624221701
 20
7.6912855343
 11
-36.5757333685
 21
7.6765510011
  0
LINE
  5
2E2
100
AcDbEntity
  8
RACCORDO
100
AcDbLine
 62
250
  6
CONTINUOUS
 10
-36.5489262896
 20
7.706061384
 11
-36.5624221701
 21
7.6912855343
  0
LINE
  5
2E3
100
AcDbEntity
  8
RACCORDO
100
AcDbLine
 62
250
  6
CONTINUOUS
 10
-36.5352479216
 20
7.720873564
 11
-36.5489262896
 21
7.706061384
  0
LINE
  5
2E4
100
AcDbEntity
  8
RACCORDO
100
AcDbLine
 62
250
  6
CONTINUOUS
 10
-36.5213888408
 20
7.7357176202
 11
-36.5352479216
 21
7.720873564
  0
LINE
  5
2E5
100
AcDbEntity
  8
RACCORDO
100
AcDbLine
 62
250
  6
CONTINUOUS
 10
-36.5073499716
 20
7.7505900625
 11
-36.5213888408
 21
7.7357176202
  0
LINE
  5
2E6
100
AcDbEntity
  8
RACCORDO
100
AcDbLine
 62
250
  6
CONTINUOUS
 10
-36.4931327032
 20
7.765486938
 11
-36.5073499716
 21
7.7505900625
  0
LINE
  5
2E7
100
AcDbEntity
  8
RACCORDO
100
AcDbLine
 62
250
  6
CONTINUOUS
 10
-36.4787388406
 20
7.7804039051
 11
-36.4931327032
 21
7.765486938
  0
LINE
  5
2E8
100
AcDbEntity
  8
RACCORDO
100
AcDbLine
 62
250
  6
CONTINUOUS
 10
-36.46417001
 20
7.7953368643
 11
-36.4787388406
 21
7.7804039051
  0
LINE
  5
2E9
100
AcDbEntity
  8
RACCORDO
100
AcDbLine
 62
250
  6
CONTINUOUS
 10
-36.449427642
 20
7.8102819629
 11
-36.46417001
 21
7.7953368643
  0
LINE
  5
2EA
100
AcDbEntity
  8
RACCORDO
100
AcDbLine
 62
250
  6
CONTINUOUS
 10
-36.4345130589
 20
7.825235496
 11
-36.449427642
 21
7.8102819629
  0
LINE
  5
2EB
100
AcDbEntity
  8
RACCORDO
100
AcDbLine
 62
250
  6
CONTINUOUS
 10
-36.419427793
 20
7.8401935878
 11
-36.4345130589
 21
7.825235496
  0
LINE
  5
2EC
100
AcDbEntity
  8
RACCORDO
100
AcDbLine
 62
250
  6
CONTINUOUS
 10
-36.4041735249
 20
7.8551522596
 11
-36.419427793
 21
7.8401935878
  0
LINE
  5
2ED
100
AcDbEntity
  8
RACCORDO
100
AcDbLine
 62
250
  6
CONTINUOUS
 10
-36.3887512284
 20
7.8701082668
 11
-36.4041735249
 21
7.8551522596
  0
LINE
  5
2EE
100
AcDbEntity
  8
RACCORDO
100
AcDbLine
 62
250
  6
CONTINUOUS
 10
-36.3731615261
 20
7.8850587226
 11
-36.3887512284
 21
7.8701082668
  0
LINE
  5
2EF
100
AcDbEntity
  8
RACCORDO
100
AcDbLine
 62
250
  6
CONTINUOUS
 10
-36.3574051063
 20
7.9000006864
 11
-36.3731615261
 21
7.8850587226
  0
LINE
  5
2F0
100
AcDbEntity
  8
RACCORDO
100
AcDbLine
 62
250
  6
CONTINUOUS
 10
-36.3414824161
 20
7.9149314577
 11
-36.3574051063
 21
7.9000006864
  0
LINE
  5
2F1
100
AcDbEntity
  8
RACCORDO
100
AcDbLine
 62
250
  6
CONTINUOUS
 10
-36.3253929806
 20
7.9298491883
 11
-36.3414824161
 21
7.9149314577
  0
LINE
  5
2F2
100
AcDbEntity
  8
RACCORDO
100
AcDbLine
 62
250
  6
CONTINUOUS
 10
-36.3091371843
 20
7.9447512391
 11
-36.3253929806
 21
7.9298491883
  0
LINE
  5
2F3
100
AcDbEntity
  8
RACCORDO
100
AcDbLine
 62
250
  6
CONTINUOUS
 10
-36.2927188562
 20
7.9596318729
 11
-36.3091371843
 21
7.9447512391
  0
LINE
  5
2F4
100
AcDbEntity
  8
RACCORDO
100
AcDbLine
 62
250
  6
CONTINUOUS
 10
-36.2761251926
 20
7.9745002486
 11
-36.2927188562
 21
7.9596318729
  0
LINE
  5
2F5
100
AcDbEntity
  8
RACCORDO
100
AcDbLine
 62
250
  6
CONTINUOUS
 10
-36.259335402
 20
7.9893721913
 11
-36.2761251926
 21
7.9745002486
  0
LINE
  5
2F6
100
AcDbEntity
  8
RACCORDO
100
AcDbLine
 62
250
  6
CONTINUOUS
 10
-36.2424032269
 20
8.0041978264
 11
-36.259335402
 21
7.9893721913
  0
LINE
  5
2F7
100
AcDbEntity
  8
RACCORDO
100
AcDbLine
 62
250
  6
CONTINUOUS
 10
-36.2254607231
 20
8.0188619894
 11
-36.2424032269
 21
8.0041978264
  0
LINE
  5
2F8
100
AcDbEntity
  8
RACCORDO
100
AcDbLine
 62
250
  6
CONTINUOUS
 10
-36.2086614325
 20
8.0332365257
 11
-36.2254607231
 21
8.0188619894
  0
LINE
  5
2F9
100
AcDbEntity
  8
RACCORDO
100
AcDbLine
 62
250
  6
CONTINUOUS
 10
-36.1921155786
 20
8.0472353837
 11
-36.2086614325
 21
8.0332365257
  0
LINE
  5
2FA
100
AcDbEntity
  8
RACCORDO
100
AcDbLine
 62
250
  6
CONTINUOUS
 10
-36.1758301714
 20
8.0608624069
 11
-36.1921155786
 21
8.0472353837
  0
LINE
  5
2FB
100
AcDbEntity
  8
RACCORDO
100
AcDbLine
 62
250
  6
CONTINUOUS
 10
-36.1597869886
 20
8.0741421443
 11
-36.1758301714
 21
8.0608624069
  0
LINE
  5
2FC
100
AcDbEntity
  8
RACCORDO
100
AcDbLine
 62
250
  6
CONTINUOUS
 10
-36.1439836837
 20
8.0870851385
 11
-36.1597869886
 21
8.0741421443
  0
LINE
  5
2FD
100
AcDbEntity
  8
RACCORDO
100
AcDbLine
 62
250
  6
CONTINUOUS
 10
-36.1284148865
 20
8.0997040097
 11
-36.1439836837
 21
8.0870851385
  0
LINE
  5
2FE
100
AcDbEntity
  8
RACCORDO
100
AcDbLine
 62
250
  6
CONTINUOUS
 10
-36.1130758442
 20
8.1120104298
 11
-36.1284148865
 21
8.0997040097
  0
LINE
  5
2FF
100
AcDbEntity
  8
RACCORDO
100
AcDbLine
 62
250
  6
CONTINUOUS
 10
-36.0979627002
 20
8.1240149523
 11
-36.1130758442
 21
8.1120104298
  0
LINE
  5
300
100
AcDbEntity
  8
RACCORDO
100
AcDbLine
 62
250
  6
CONTINUOUS
 10
-36.0830712256
 20
8.1357280673
 11
-36.0979627002
 21
8.1240149523
  0
LINE
  5
301
100
AcDbEntity
  8
RACCORDO
100
AcDbLine
 62
250
  6
CONTINUOUS
 10
-36.0683973381
 20
8.1471598067
 11
-36.0830712256
 21
8.1357280673
  0
LINE
  5
302
100
AcDbEntity
  8
RACCORDO
100
AcDbLine
 62
250
  6
CONTINUOUS
 10
-36.0539372533
 20
8.1583196495
 11
-36.0683973381
 21
8.1471598067
  0
LINE
  5
303
100
AcDbEntity
  8
RACCORDO
100
AcDbLine
 62
250
  6
CONTINUOUS
 10
-36.0396869082
 20
8.1692169909
 11
-36.0539372533
 21
8.1583196495
  0
LINE
  5
304
100
AcDbEntity
  8
RACCORDO
100
AcDbLine
 62
250
  6
CONTINUOUS
 10
-36.0210060317
 20
8.1833537493
 11
-36.0396869082
 21
8.1692169909
  0
LINE
  5
305
100
AcDbEntity
  8
RACCORDO
100
AcDbLine
 62
250
  6
CONTINUOUS
 10
-36.0026821959
 20
8.1970602856
 11
-36.0210060317
 21
8.1833537493
  0
LINE
  5
306
100
AcDbEntity
  8
RACCORDO
100
AcDbLine
 62
250
  6
CONTINUOUS
 10
-35.9847065664
 20
8.2103558659
 11
-36.0026821959
 21
8.1970602856
  0
LINE
  5
307
100
AcDbEntity
  8
RACCORDO
100
AcDbLine
 62
250
  6
CONTINUOUS
 10
-35.9670708618
 20
8.2232586387
 11
-35.9847065664
 21
8.2103558659
  0
LINE
  5
308
100
AcDbEntity
  8
RACCORDO
100
AcDbLine
 62
250
  6
CONTINUOUS
 10
-35.9540626012
 20
8.2326885002
 11
-35.9670708618
 21
8.2232586387
  0
LWPOLYLINE
  5
309
100
AcDbEntity
  8
RACCORDO
100
AcDbPolyline
 62
250
  6
CONTINUOUS
 90
13
 70
0
 10
-38.3316097817
 20
-4.4467033083
 10
-38.3216484809
 20
-4.4596121114
 10
-38.3118320536
 20
-4.4726621767
 10
-38.3021623993
 20
-4.4858509789
 10
-38.2926413891
 20
-4.4991759659
 10
-38.2832708653
 20
-4.5126345592
 10
-38.2740526414
 20
-4.5262241545
 10
-38.2649885011
 20
-4.539942122
 10
-38.2560801983
 20
-4.5537858072
 10
-38.2473294569
 20
-4.5677525313
 10
-38.2387379703
 20
-4.5818395915
 10
-38.2303074008
 20
-4.596044262
 10
-38.22203938
 20
-4.6103637941
  0
LINE
  5
30A
100
AcDbEntity
  8
RACCORDO
100
AcDbLine
 62
250
  6
CONTINUOUS
 10
-35.4963135489
 20
7.0768037393
 11
-35.4651478927
 21
6.9283234169
  0
LINE
  5
30B
100
AcDbEntity
  8
RACCORDO
100
AcDbLine
 62
250
  6
CONTINUOUS
 10
-35.4651478927
 20
6.9283234169
 11
-35.4586412544
 21
6.8964588856
  0
LWPOLYLINE
  5
30C
100
AcDbEntity
  8
RACCORDO
100
AcDbPolyline
 62
250
  6
CONTINUOUS
 90
10
 70
0
 10
-37.4769118627
 20
41.2424796082
 10
-37.439092272
 20
41.0551044793
 10
-37.4005519028
 20
40.8683727046
 10
-37.361290755
 20
40.6822842842
 10
-37.3213083899
 20
40.4968372209
 10
-37.2806052462
 20
40.3120335119
 10
-37.2391826405
 20
40.1278791484
 10
-37.1970410118
 20
39.9443761275
 10
-37.154179921
 20
39.7615224521
 10
-37.1105993683
 20
39.5793181222
  0
LINE
  5
30D
100
AcDbEntity
  8
RACCORDO
100
AcDbLine
 62
250
  6
CONTINUOUS
 10
-35.9370034906
 20
8.2449453162
 11
-35.9540626012
 21
8.2326885002
  0
LWPOLYLINE
  5
30E
100
AcDbEntity
  8
RACCORDO
100
AcDbPolyline
 62
250
  6
CONTINUOUS
 90
91
 70
0
 10
-35.3071350226
 20
8.3291743651
 10
-35.3113413767
 20
8.3261712138
 10
-35.3156662978
 20
8.3229848727
 10
-35.3201096475
 20
8.3196127562
 10
-35.324656644
 20
8.3160728731
 10
-35.3293217058
 20
8.3123420404
 10
-35.3341484194
 20
8.3083546591
 10
-35.3391468401
 20
8.3041023055
 10
-35.3443062141
 20
8.2995849922
 10
-35.3496387607
 20
8.2947476586
 10
-35.3551868101
 20
8.2895429149
 10
-35.3609067458
 20
8.2840064948
 10
-35.3666818396
 20
8.2782092742
 10
-35.3725031794
 20
8.2721471128
 10
-35.3783782087
 20
8.2658171409
 10
-35.3842149894
 20
8.2592966283
 10
-35.3899840579
 20
8.2526125428
 10
-35.3957135628
 20
8.2457357218
 10
-35.401398144
 20
8.2386614787
 10
-35.4070371623
 20
8.2313883723
 10
-35.4126296903
 20
8.2239152229
 10
-35.4181698835
 20
8.216237765
 10
-35.4236569283
 20
8.2083546713
 10
-35.4290898569
 20
8.2002647598
 10
-35.4344625407
 20
8.1919640313
 10
-35.4397740279
 20
8.1834512546
 10
-35.4450232647
 20
8.1747252937
 10
-35.4502039175
 20
8.165782353
 10
-35.4553148946
 20
8.1566213204
 10
-35.4603550492
 20
8.1472411102
 10
-35.4653179117
 20
8.1376380359
 10
-35.4702022517
 20
8.1278111212
 10
-35.4750068198
 20
8.1177593371
 10
-35.4797250632
 20
8.1074789915
 10
-35.4843556131
 20
8.0969692568
 10
-35.4888971079
 20
8.0862291663
 10
-35.4933429477
 20
8.075254891
 10
-35.4976916242
 20
8.0640457628
 10
-35.5019416539
 20
8.0526008812
 10
-35.5060864095
 20
8.0409161354
 10
-35.5101242407
 20
8.0289910229
 10
-35.5140535308
 20
8.0168247144
 10
-35.5178676313
 20
8.0044126661
 10
-35.5215647424
 20
7.9917545469
 10
-35.5251431037
 20
7.9788496014
 10
-35.5285960407
 20
7.9656926959
 10
-35.5319215884
 20
7.9522836979
 10
-35.5351178354
 20
7.9386219061
 10
-35.538178085
 20
7.9247013625
 10
-35.5411001953
 20
7.9105221208
 10
-35.5438820834
 20
7.8960835515
 10
-35.5465170135
 20
7.8813786832
 10
-35.5490026394
 20
7.866407774
 10
-35.5513366927
 20
7.8511702546
 10
-35.553512393
 20
7.8356579044
 10
-35.5555271537
 20
7.8198712017
 10
-35.5573785025
 20
7.803809631
 10
-35.5590596226
 20
7.787463451
 10
-35.5605676376
 20
7.7708333751
 10
-35.5618998489
 20
7.7539189401
 10
-35.5630494392
 20
7.7367085882
 10
-35.5640131708
 20
7.7192032747
 10
-35.5647880956
 20
7.7014026032
 10
-35.5653674847
 20
7.6832929156
 10
-35.5657476341
 20
7.664875381
 10
-35.5659253274
 20
7.6461497307
 10
-35.5658941206
 20
7.6271000599
 10
-35.5656496807
 20
7.6077276299
 10
-35.5651885271
 20
7.5880324732
 10
-35.5645049226
 20
7.5679967462
 10
-35.5635936351
 20
7.547621347
 10
-35.562450994
 20
7.5269071477
 10
-35.5610729039
 20
7.5058361877
 10
-35.5594527509
 20
7.4844077831
 10
-35.5575869501
 20
7.4626249997
 10
-35.5554751812
 20
7.4404754944
 10
-35.5531085576
 20
7.4179538327
 10
-35.5504843551
 20
7.3950686601
 10
-35.5476109443
 20
7.3718289142
 10
-35.5444673122
 20
7.3481605091
 10
-35.5410610959
 20
7.3241417584
 10
-35.5374471721
 20
7.3000112963
 10
-35.5335951416
 20
7.2756316863
 10
-35.5295283604
 20
7.251146985
 10
-35.525397696
 20
7.2272204219
 10
-35.5212533623
 20
7.2040819479
 10
-35.5170656625
 20
7.1815102723
 10
-35.5128763532
 20
7.1594924583
 10
-35.5087027337
 20
7.1380663147
 10
-35.5045439778
 20
7.1171995987
 10
-35.4963135489
 20
7.0768037393
  0
LINE
  5
30F
100
AcDbEntity
  8
RACCORDO
100
AcDbLine
 62
250
  6
CONTINUOUS
 10
-35.9202631873
 20
8.2568554562
 11
-35.9370034906
 21
8.2449453162
  0
LINE
  5
310
100
AcDbEntity
  8
RACCORDO
100
AcDbLine
 62
250
  6
CONTINUOUS
 10
-35.0753708918
 20
8.4930563537
 11
-35.3071350226
 21
8.3291743651
  0
LINE
  5
311
100
AcDbEntity
  8
RACCORDO
100
AcDbLine
 62
250
  6
CONTINUOUS
 10
-35.216792248
 20
8.7344777099
 11
-35.4571521738
 21
8.5645435998
  0
LINE
  5
312
100
AcDbEntity
  8
RACCORDO
100
AcDbLine
 62
250
  6
CONTINUOUS
 10
-35.8997744573
 20
8.271279237
 11
-35.9202631873
 21
8.2568554562
  0
LINE
  5
313
100
AcDbEntity
  8
RACCORDO
100
AcDbLine
 62
250
  6
CONTINUOUS
 10
-35.4571521738
 20
8.5645435998
 11
-35.4680676101
 21
8.5569301189
  0
LINE
  5
314
100
AcDbEntity
  8
RACCORDO
100
AcDbLine
 62
250
  6
CONTINUOUS
 10
-35.8797572409
 20
8.2852148542
 11
-35.8997744573
 21
8.271279237
  0
LINE
  5
315
100
AcDbEntity
  8
RACCORDO
100
AcDbLine
 62
250
  6
CONTINUOUS
 10
-35.4680676101
 20
8.5569301189
 11
-35.4791801267
 21
8.5492561003
  0
LINE
  5
316
100
AcDbEntity
  8
RACCORDO
100
AcDbLine
 62
250
  6
CONTINUOUS
 10
-35.8601983898
 20
8.2986893552
 11
-35.8797572409
 21
8.2852148542
  0
LINE
  5
317
100
AcDbEntity
  8
RACCORDO
100
AcDbLine
 62
250
  6
CONTINUOUS
 10
-35.4791801267
 20
8.5492561003
 11
-35.4927863635
 21
8.5399568257
  0
LINE
  5
318
100
AcDbEntity
  8
RACCORDO
100
AcDbLine
 62
250
  6
CONTINUOUS
 10
-35.8373158408
 20
8.3142850789
 11
-35.8601983898
 21
8.2986893552
  0
LINE
  5
319
100
AcDbEntity
  8
RACCORDO
100
AcDbLine
 62
250
  6
CONTINUOUS
 10
-35.4927863635
 20
8.5399568257
 11
-35.5067015425
 21
8.5305460673
  0
LINE
  5
31A
100
AcDbEntity
  8
RACCORDO
100
AcDbLine
 62
250
  6
CONTINUOUS
 10
-35.8150531399
 20
8.3292955823
 11
-35.8373158408
 21
8.3142850789
  0
LINE
  5
31B
100
AcDbEntity
  8
RACCORDO
100
AcDbLine
 62
250
  6
CONTINUOUS
 10
-35.5067015425
 20
8.5305460673
 11
-35.5233451982
 21
8.519406834
  0
LINE
  5
31C
100
AcDbEntity
  8
RACCORDO
100
AcDbLine
 62
250
  6
CONTINUOUS
 10
-35.7898353147
 20
8.3461210038
 11
-35.8150531399
 21
8.3292955823
  0
LINE
  5
31D
100
AcDbEntity
  8
RACCORDO
100
AcDbLine
 62
250
  6
CONTINUOUS
 10
-35.5233451982
 20
8.519406834
 11
-35.5429316921
 21
8.5064373661
  0
LINE
  5
31E
100
AcDbEntity
  8
RACCORDO
100
AcDbLine
 62
250
  6
CONTINUOUS
 10
-35.7619720269
 20
8.3645164684
 11
-35.7898353147
 21
8.3461210038
  0
LINE
  5
31F
100
AcDbEntity
  8
RACCORDO
100
AcDbLine
 62
250
  6
CONTINUOUS
 10
-35.5429316921
 20
8.5064373661
 11
-35.5657235533
 21
8.491499191
  0
LINE
  5
320
100
AcDbEntity
  8
RACCORDO
100
AcDbLine
 62
250
  6
CONTINUOUS
 10
-35.728514733
 20
8.386377351
 11
-35.7619720269
 21
8.3645164684
  0
LINE
  5
321
100
AcDbEntity
  8
RACCORDO
100
AcDbLine
 62
250
  6
CONTINUOUS
 10
-35.5657235533
 20
8.491499191
 11
-35.5947374912
 21
8.4726594006
  0
LINE
  5
322
100
AcDbEntity
  8
RACCORDO
100
AcDbLine
 62
250
  6
CONTINUOUS
 10
-35.5947374912
 20
8.4726594006
 11
-35.6194806796
 21
8.456694117
  0
LINE
  5
323
100
AcDbEntity
  8
RACCORDO
100
AcDbLine
 62
250
  6
CONTINUOUS
 10
-35.6749109687
 20
8.4210359035
 11
-35.728514733
 21
8.386377351
  0
LINE
  5
324
100
AcDbEntity
  8
RACCORDO
100
AcDbLine
 62
250
  6
CONTINUOUS
 10
-35.6688615528
 20
8.4249297464
 11
-35.6749109687
 21
8.4210359035
  0
LINE
  5
325
100
AcDbEntity
  8
RACCORDO
100
AcDbLine
 62
250
  6
CONTINUOUS
 10
-35.6194806796
 20
8.456694117
 11
-35.6279377659
 21
8.4512499684
  0
LINE
  5
326
100
AcDbEntity
  8
RACCORDO
100
AcDbLine
 62
250
  6
CONTINUOUS
 10
-35.6279377659
 20
8.4512499684
 11
-35.6336354932
 21
8.4475843281
  0
LINE
  5
327
100
AcDbEntity
  8
RACCORDO
100
AcDbLine
 62
250
  6
CONTINUOUS
 10
-35.6628640344
 20
8.4287883804
 11
-35.6688615528
 21
8.4249297464
  0
LWPOLYLINE
  5
328
100
AcDbEntity
  8
RACCORDO
100
AcDbPolyline
 62
250
  6
CONTINUOUS
 90
9
 70
0
 10
-35.6336354932
 20
8.4475843281
 10
-35.639381758
 20
8.4438886634
 10
-35.6422733162
 20
8.4420292484
 10
-35.6451772419
 20
8.440162001
 10
-35.6480935275
 20
8.4382869238
 10
-35.6510223785
 20
8.4364036994
 10
-35.6539637972
 20
8.4345123289
 10
-35.6569177813
 20
8.4326128113
 10
-35.6628640344
 20
8.4287883804
  0
LWPOLYLINE
  5
329
100
AcDbEntity
  8
RACCORDO
100
AcDbPolyline
 62
250
  6
CONTINUOUS
 90
121
 70
0
 10
-37.1105993683
 20
6.7483520243
 10
-37.0996489482
 20
6.7537477596
 10
-37.088555011
 20
6.759039777
 10
-37.0773194577
 20
6.7642271695
 10
-37.0659442125
 20
6.7693090528
 10
-37.0544312254
 20
6.7742845516
 10
-37.0427824714
 20
6.7791528007
 10
-37.0309999472
 20
6.7839129615
 10
-37.019085671
 20
6.7885642227
 10
-37.0070416842
 20
6.7931057871
 10
-36.9948700504
 20
6.7975368765
 10
-36.9825728554
 20
6.8018567316
 10
-36.970152206
 20
6.8060646124
 10
-36.9576102306
 20
6.8101597977
 10
-36.9449490781
 20
6.8141415858
 10
-36.932170918
 20
6.8180092946
 10
-36.9192779397
 20
6.8217622613
 10
-36.9062723523
 20
6.8253998428
 10
-36.8931563844
 20
6.8289214158
 10
-36.8799322833
 20
6.832326377
 10
-36.8666023148
 20
6.8356141428
 10
-36.853168763
 20
6.8387841498
 10
-36.8396339297
 20
6.841835855
 10
-36.826000134
 20
6.8447687354
 10
-36.8122697119
 20
6.8475822885
 10
-36.7984450162
 20
6.8502760322
 10
-36.7845284155
 20
6.8528495049
 10
-36.7705222945
 20
6.8553022658
 10
-36.7564290529
 20
6.8576338944
 10
-36.7422511057
 20
6.8598439915
 10
-36.7279908821
 20
6.8619321781
 10
-36.7136508256
 20
6.8638980966
 10
-36.6992333932
 20
6.86574141
 10
-36.6847410553
 20
6.8674618025
 10
-36.6701762951
 20
6.8690589794
 10
-36.6555416082
 20
6.8705326669
 10
-36.6408395021
 20
6.8718826125
 10
-36.626072496
 20
6.8731085849
 10
-36.6112431202
 20
6.8742103741
 10
-36.5963539156
 20
6.8751877912
 10
-36.5814074333
 20
6.8760406686
 10
-36.5664062345
 20
6.8767688604
 10
-36.5513528894
 20
6.8773722417
 10
-36.5362499774
 20
6.8778507092
 10
-36.5211000863
 20
6.8782041807
 10
-36.5059058119
 20
6.8784325958
 10
-36.4906697577
 20
6.8785359154
 10
-36.4753945344
 20
6.8785141217
 10
-36.4600827592
 20
6.8783672184
 10
-36.4447370558
 20
6.8780952307
 10
-36.4293600535
 20
6.8776982053
 10
-36.4139543871
 20
6.8771762102
 10
-36.3985226964
 20
6.8765293347
 10
-36.3830676254
 20
6.8757576898
 10
-36.3675918223
 20
6.8748614076
 10
-36.3520979388
 20
6.8738406417
 10
-36.3365886297
 20
6.872695567
 10
-36.3210665524
 20
6.8714263798
 10
-36.3055343666
 20
6.8700332975
 10
-36.2899947336
 20
6.8685165587
 10
-36.2744503161
 20
6.8668764234
 10
-36.2589037775
 20
6.8651131727
 10
-36.2433577816
 20
6.8632271085
 10
-36.2278149922
 20
6.8612185541
 10
-36.2122780724
 20
6.8590878537
 10
-36.1967496844
 20
6.8568353723
 10
-36.181232489
 20
6.8544614959
 10
-36.1657291448
 20
6.8519666312
 10
-36.1502423084
 20
6.8493512057
 10
-36.1347746333
 20
6.8466156676
 10
-36.1193287699
 20
6.8437604856
 10
-36.1039073646
 20
6.8407861488
 10
-36.0885130599
 20
6.837693167
 10
-36.0731484935
 20
6.8344820701
 10
-36.0578162981
 20
6.8311534083
 10
-36.0425191006
 20
6.827707752
 10
-36.0272595224
 20
6.8241456915
 10
-36.0120401779
 20
6.8204678373
 10
-35.9968636749
 20
6.8166748194
 10
-35.9817326139
 20
6.8127672878
 10
-35.9666495875
 20
6.8087459121
 10
-35.95161718
 20
6.8046113812
 10
-35.9366379673
 20
6.8003644037
 10
-35.9217145159
 20
6.7960057072
 10
-35.9068493828
 20
6.7915360386
 10
-35.8920451152
 20
6.7869561636
 10
-35.8773042497
 20
6.7822668672
 10
-35.862629312
 20
6.7774689526
 10
-35.8480228166
 20
6.7725632422
 10
-35.8334872663
 20
6.7675505763
 10
-35.8190251517
 20
6.762431814
 10
-35.8046389507
 20
6.7572078323
 10
-35.7903311284
 20
6.7518795262
 10
-35.7761041363
 20
6.7464478089
 10
-35.7619604122
 20
6.7409136109
 10
-35.7479023794
 20
6.7352778805
 10
-35.7339324469
 20
6.7295415835
 10
-35.7200530082
 20
6.7237057026
 10
-35.7062664416
 20
6.7177712379
 10
-35.6925751092
 20
6.7117392061
 10
-35.6789813571
 20
6.7056106408
 10
-35.6654875144
 20
6.6993865922
 10
-35.6520958932
 20
6.6930681267
 10
-35.6388087882
 20
6.6866563269
 10
-35.625628476
 20
6.6801522915
 10
-35.6125572149
 20
6.6735571349
 10
-35.5995972448
 20
6.6668719871
 10
-35.5867507861
 20
6.6600979937
 10
-35.5740200401
 20
6.6532363152
 10
-35.5614071882
 20
6.6462881275
 10
-35.5489143914
 20
6.639254621
 10
-35.5365437903
 20
6.6321370009
 10
-35.5242975047
 20
6.6249364868
 10
-35.5121776327
 20
6.6176543125
 10
-35.5001862512
 20
6.6102917257
 10
-35.4883254147
 20
6.6028499879
 10
-35.4765971556
 20
6.5953303743
 10
-35.4650034834
 20
6.5877341733
 10
-35.4535463846
 20
6.5800626865
 10
-35.4422278224
 20
6.5723172284
 10
-35.4310497361
 20
6.564499126
  0
LWPOLYLINE
  5
32A
100
AcDbEntity
  8
0
100
AcDbPolyline
 62
7
  6
CONTINUOUS
 90
54
 70
0
 10
44.1082179518
 20
-59.1628294622
 10
44.1125556161
 20
-59.165861882
 10
44.1168858441
 20
-59.1688196316
 10
44.1212072265
 20
-59.1717017419
 10
44.1255185177
 20
-59.1745073934
 10
44.1298181461
 20
-59.1772355384
 10
44.1341042166
 20
-59.1798849348
 10
44.1383748292
 20
-59.1824544558
 10
44.1426290873
 20
-59.1849436096
 10
44.1468666007
 20
-59.1873521215
 10
44.151086656
 20
-59.1896795626
 10
44.1552871683
 20
-59.1919247445
 10
44.159465699
 20
-59.1940863069
 10
44.1636200711
 20
-59.196163209
 10
44.1677497253
 20
-59.1981552452
 10
44.1718546541
 20
-59.2000623384
 10
44.1759343004
 20
-59.2018842002
 10
44.1799864698
 20
-59.2036198094
 10
44.1840087104
 20
-59.2052680298
 10
44.1879989163
 20
-59.2068280926
 10
44.191956543
 20
-59.208299867
 10
44.195881492
 20
-59.2096832223
 10
44.1997730621
 20
-59.2109778956
 10
44.2036292907
 20
-59.2121832085
 10
44.2074481955
 20
-59.213298433
 10
44.2112280542
 20
-59.2143231415
 10
44.2149680381
 20
-59.2152571725
 10
44.2186675267
 20
-59.2161002648
 10
44.2223254345
 20
-59.2168521909
 10
44.2259403236
 20
-59.2175126672
 10
44.2295110501
 20
-59.2180813626
 10
44.2330364675
 20
-59.2185581244
 10
44.2365152756
 20
-59.2189427953
 10
44.2399461329
 20
-59.2192351165
 10
44.243327529
 20
-59.2194350288
 10
44.2466586433
 20
-59.2195425468
 10
44.2499391747
 20
-59.2195575386
 10
44.2531684524
 20
-59.2194799778
 10
44.2563448238
 20
-59.2193098706
 10
44.2594665492
 20
-59.219047201
 10
44.2625319628
 20
-59.218692209
 10
44.265540613
 20
-59.2182450406
 10
44.2684925966
 20
-59.217705573
 10
44.2713874404
 20
-59.2170738289
 10
44.2742234596
 20
-59.2163501036
 10
44.2769989624
 20
-59.2155347331
 10
44.2797124084
 20
-59.2146282704
 10
44.2823634404
 20
-59.2136309304
 10
44.2849521696
 20
-59.2125425932
 10
44.2874781014
 20
-59.2113633813
 10
44.2899397903
 20
-59.2100938759
 10
44.292335944
 20
-59.2087346783
 10
44.2946653497
 20
-59.2072865363
 10
44.2968423922
 20
-59.2058101033
  0
LINE
  5
32B
100
AcDbEntity
  8
ASSI
100
AcDbLine
 62
7
  6
CONTINUOUS
 10
-52.2624421938
 20
5.0270863113
 11
48.1362809644
 21
-65.9655316564
  0
LINE
  5
32C
100
AcDbEntity
  8
RACCORDO
100
AcDbLine
 62
250
  6
CONTINUOUS
 10
-52.4143688621
 20
5.329540129
 11
-38.4188744796
 21
-4.5667688549
  0
LINE
  5
32D
100
AcDbEntity
  8
RACCORDO
100
AcDbLine
 62
250
  6
CONTINUOUS
 10
33.9888599137
 20
-55.7667688548
 11
47.9843542962
 21
-65.6630778387
  0
LINE
  5
32E
100
AcDbEntity
  8
RACCORDO
100
AcDbLine
 62
250
  6
CONTINUOUS
 10
-38.2220393801
 20
-4.6103637941
 11
33.7849611323
 21
-55.5270021494
  0
LINE
  5
32F
100
AcDbEntity
  8
0
100
AcDbLine
 62
7
  6
CONTINUOUS
 10
41.3966429124
 20
-58.2469876986
 11
41.7926371465
 21
-58.5269935406
  0
LINE
  5
330
100
AcDbEntity
  8
0
100
AcDbLine
 62
7
  6
CONTINUOUS
 10
39.9662747885
 20
-57.2355646986
 11
40.3622591231
 21
-57.5155635406
  0
LINE
  5
331
100
AcDbEntity
  8
0
100
AcDbLine
 62
7
  6
CONTINUOUS
 10
38.4039121614
 20
-56.1308118566
 11
38.7999063956
 21
-56.4108176986
  0
LINE
  5
332
100
AcDbEntity
  8
0
100
AcDbLine
 62
7
  6
CONTINUOUS
 10
37.1082019174
 20
-55.2146063566
 11
37.5042110008
 21
-55.4946226986
  0
LINE
  5
333
100
AcDbEntity
  8
0
100
AcDbLine
 62
7
  6
CONTINUOUS
 10
44.4665600253
 20
-60.4177425406
 11
44.9125863069
 21
-60.7331263826
  0
LINE
  5
334
100
AcDbEntity
  8
0
100
AcDbLine
 62
7
  6
CONTINUOUS
 10
39.1958911428
 20
-56.6908211986
 11
39.5918857895
 21
-56.9708316986
  0
LINE
  5
335
100
AcDbEntity
  8
0
100
AcDbLine
 62
7
  6
CONTINUOUS
 10
40.7366534845
 20
-57.7803046986
 11
41.1326481312
 21
-58.0603151986
  0
LINE
  5
336
100
AcDbEntity
  8
0
100
AcDbLine
 62
7
  6
CONTINUOUS
 10
43.3280636604
 20
-59.6127040406
 11
43.7240632569
 21
-59.8927180406
  0
LINE
  5
337
100
AcDbEntity
  8
0
100
AcDbLine
 62
7
  6
CONTINUOUS
 10
42.6680692827
 20
-59.1460175406
 11
43.0640692918
 21
-59.4260361986
  0
LINE
  5
338
100
AcDbEntity
  8
0
100
AcDbLine
 62
7
  6
CONTINUOUS
 10
41.8854546854
 20
-58.2487837951
 11
42.5108602277
 21
-58.6910122951
  0
LINE
  5
339
100
AcDbEntity
  8
0
100
AcDbLine
 62
7
  6
CONTINUOUS
 10
41.975624725
 20
-57.9796492918
 11
42.3594479427
 21
-58.2510532918
  0
LINE
  5
33A
100
AcDbEntity
  8
0
100
AcDbLine
 62
7
  6
CONTINUOUS
 10
43.6612905242
 20
-59.1715906247
 11
44.0069070408
 21
-59.4159827918
  0
LINE
  5
33B
100
AcDbEntity
  8
0
100
AcDbLine
 62
7
  6
CONTINUOUS
 10
42.0820361163
 20
-57.9044050754
 11
42.291267201
 21
-58.0523537943
  0
LINE
  5
33C
100
AcDbEntity
  8
0
100
AcDbLine
 62
7
  6
CONTINUOUS
 10
43.6264356962
 20
-58.822156548
 11
44.1082180643
 21
-59.1628279684
  0
LINE
  5
33D
100
AcDbEntity
  8
0
100
AcDbLine
 62
7
  6
CONTINUOUS
 10
43.7328365376
 20
-58.7469197915
 11
44.2146187932
 21
-59.0875912915
  0
LINE
  5
33E
100
AcDbEntity
  8
0
100
AcDbLine
 62
7
  6
CONTINUOUS
 10
43.5885176782
 20
-58.3671433176
 11
44.0703048836
 21
-58.7078183176
  0
LINE
  5
33F
100
AcDbEntity
  8
0
100
AcDbLine
 62
7
  6
CONTINUOUS
 10
36.3141191434
 20
-52.8970906384
 11
36.7101187399
 21
-53.1771046384
  0
LINE
  5
340
100
AcDbEntity
  8
0
100
AcDbLine
 62
7
  6
CONTINUOUS
 10
37.5855459264
 20
-53.7961251384
 11
37.9815455228
 21
-54.0761391384
  0
LINE
  5
341
100
AcDbEntity
  8
0
100
AcDbLine
 62
7
  6
CONTINUOUS
 10
38.245540304
 20
-54.2628116384
 11
38.6415349507
 21
-54.5428221384
  0
LINE
  5
342
100
AcDbEntity
  8
0
100
AcDbLine
 62
7
  6
CONTINUOUS
 10
39.0375147482
 20
-54.8228221384
 11
39.6361520563
 21
-55.2461226384
  0
LINE
  5
343
100
AcDbEntity
  8
0
100
AcDbLine
 62
7
  6
CONTINUOUS
 10
40.3756344285
 20
-55.7690156384
 11
40.9742717366
 21
-56.1923161384
  0
LINE
  5
344
100
AcDbEntity
  8
0
100
AcDbLine
 62
7
  6
CONTINUOUS
 10
41.8739671556
 20
-56.8284924569
 11
42.2699816013
 21
-57.1085169569
  0
LINE
  5
345
100
AcDbEntity
  8
0
100
AcDbLine
 62
7
  6
CONTINUOUS
 10
43.1696872992
 20
-57.7447049569
 11
44.0969728544
 21
-58.4003950526
  0
LINE
  5
346
100
AcDbEntity
  8
0
100
AcDbLine
 62
7
  6
CONTINUOUS
 10
36.4204961949
 20
-52.821870704
 11
36.8164957913
 21
-53.101884704
  0
LINE
  5
347
100
AcDbEntity
  8
0
100
AcDbLine
 62
7
  6
CONTINUOUS
 10
37.6919229778
 20
-53.720905204
 11
38.0879225742
 21
-54.000919204
  0
LINE
  5
348
100
AcDbEntity
  8
0
100
AcDbLine
 62
7
  6
CONTINUOUS
 10
38.3519173555
 20
-54.187591704
 11
38.7479120022
 21
-54.467602204
  0
LINE
  5
349
100
AcDbEntity
  8
0
100
AcDbLine
 62
7
  6
CONTINUOUS
 10
39.1438917996
 20
-54.747602204
 11
39.7425291077
 21
-55.170902704
  0
LINE
  5
34A
100
AcDbEntity
  8
0
100
AcDbLine
 62
7
  6
CONTINUOUS
 10
40.48201148
 20
-55.693795704
 11
41.080648788
 21
-56.117096204
  0
LINE
  5
34B
100
AcDbEntity
  8
0
100
AcDbLine
 62
7
  6
CONTINUOUS
 10
41.9803442069
 20
-56.7532725225
 11
42.3763586526
 21
-57.0332970225
  0
LINE
  5
34C
100
AcDbEntity
  8
0
100
AcDbLine
 62
7
  6
CONTINUOUS
 10
43.2760643505
 20
-57.6694850225
 11
44.2033500412
 21
-58.3251750225
  0
LWPOLYLINE
  5
34D
100
AcDbEntity
  8
RACCORDO
100
AcDbPolyline
 62
250
  6
CONTINUOUS
 90
41
 70
0
 10
48.1362809644
 20
-65.9655316564
 10
48.1329565309
 20
-65.9631467586
 10
48.1266202871
 20
-65.9584064778
 10
48.1204061667
 20
-65.9534971022
 10
48.1143152499
 20
-65.9484194855
 10
48.1083485957
 20
-65.9431745103
 10
48.1025072413
 20
-65.9377630884
 10
48.0967922021
 20
-65.9321861606
 10
48.0912044718
 20
-65.9264446963
 10
48.0857450218
 20
-65.9205396938
 10
48.0804148011
 20
-65.9144721796
 10
48.0752147364
 20
-65.9082432085
 10
48.0701457316
 20
-65.9018538634
 10
48.0652086681
 20
-65.8953052549
 10
48.0604044041
 20
-65.8885985217
 10
48.0557337748
 20
-65.8817348296
 10
48.0511975922
 20
-65.8747153719
 10
48.0467966448
 20
-65.8675413688
 10
48.0425316978
 20
-65.8602140675
 10
48.0384034926
 20
-65.8527347419
 10
48.0344127468
 20
-65.8451046922
 10
48.0305601544
 20
-65.8373252448
 10
48.0268463849
 20
-65.8293977521
 10
48.023272084
 20
-65.8213235924
 10
48.0198378731
 20
-65.8131041693
 10
48.0165443493
 20
-65.8047409117
 10
48.013392085
 20
-65.7962352735
 10
48.0103816284
 20
-65.7875887334
 10
48.0075135027
 20
-65.7788027945
 10
48.0047882066
 20
-65.7698789843
 10
48.0022062138
 20
-65.7608188541
 10
47.9997679732
 20
-65.7516239789
 10
47.9974739087
 20
-65.7422959574
 10
47.9953244191
 20
-65.732836411
 10
47.9933198781
 20
-65.7232469844
 10
47.9914606342
 20
-65.7135293445
 10
47.9897470106
 20
-65.7036851808
 10
47.9881793051
 20
-65.6937162047
 10
47.9867577904
 20
-65.6836241491
 10
47.9854827136
 20
-65.6734107686
 10
47.9843542962
 20
-65.6630778387
  0
LWPOLYLINE
  5
34E
100
AcDbEntity
  8
RACCORDO
100
AcDbPolyline
 62
250
  6
CONTINUOUS
 90
9
 70
0
 10
-38.4188744797
 20
51.4442585956
 10
-38.4097247316
 20
51.4126242455
 10
-38.400432093
 20
51.3811103039
 10
-38.3909987622
 20
51.3497180131
 10
-38.3814255905
 20
51.3184390094
 10
-38.3717161283
 20
51.2872841147
 10
-38.3618768754
 20
51.2562831623
 10
-38.3519117613
 20
51.2254466847
 10
-38.3418218942
 20
51.1947660886
  0
LWPOLYLINE
  5
34F
100
AcDbEntity
  8
RACCORDO
100
AcDbPolyline
 62
250
  6
CONTINUOUS
 90
200
 70
0
 10
-37.1105993683
 20
39.5793181222
 10
-37.1101130064
 20
39.5773290599
 10
-37.1096170721
 20
39.5753486428
 10
-37.1091115653
 20
39.5733768711
 10
-37.1085965188
 20
39.5714138426
 10
-37.1080718999
 20
39.5694594595
 10
-37.1075376107
 20
39.5675134277
 10
-37.106993656
 20
39.5655757363
 10
-37.106440031
 20
39.5636463963
 10
-37.1058766235
 20
39.5617251466
 10
-37.1053034397
 20
39.5598119806
 10
-37.1047204734
 20
39.5579069049
 10
-37.1041275935
 20
39.5560096784
 10
-37.1035248066
 20
39.5541202956
 10
-37.1029121063
 20
39.5522387619
 10
-37.1022893424
 20
39.5503648526
 10
-37.1016565209
 20
39.5484985604
 10
-37.1010136359
 20
39.5466398925
 10
-37.1003605198
 20
39.5447886465
 10
-37.0996971766
 20
39.5429448103
 10
-37.0990236024
 20
39.5411083959
 10
-37.0983396178
 20
39.5392792364
 10
-37.0976452307
 20
39.5374573303
 10
-37.0969404332
 20
39.535642679
 10
-37.0962250232
 20
39.5338351205
 10
-37.0954990209
 20
39.5320346801
 10
-37.0947624061
 20
39.5302413324
 10
-37.0940149157
 20
39.5284548391
 10
-37.0932565618
 20
39.5266751996
 10
-37.0924873323
 20
39.5249024144
 10
-37.0917069279
 20
39.5231362462
 10
-37.0909153398
 20
39.5213766499
 10
-37.0901125767
 20
39.5196236706
 10
-37.0892983665
 20
39.5178772066
 10
-37.0884727047
 20
39.5161372303
 10
-37.0876355958
 20
39.5144037692
 10
-37.0867867804
 20
39.512676804
 10
-37.085926263
 20
39.5109563281
 10
-37.0850540392
 20
39.5092423481
 10
-37.0841698362
 20
39.5075348639
 10
-37.0832736567
 20
39.5058338657
 10
-37.0823654981
 20
39.5041393633
 10
-37.0814450803
 20
39.502451386
 10
-37.0805124
 20
39.5007699154
 10
-37.0795674606
 20
39.4990949699
 10
-37.0786099918
 20
39.4974266337
 10
-37.0776399966
 20
39.4957649017
 10
-37.076657472
 20
39.494109779
 10
-37.0756621385
 20
39.4924613658
 10
-37.0746539925
 20
39.4908196471
 10
-37.0736330375
 20
39.489184638
 10
-37.0725990045
 20
39.4875564834
 10
-37.0715515458
 20
39.485934685
 10
-37.0704910091
 20
39.4843197411
 10
-37.0694181681
 20
39.4827132922
 10
-37.068333081
 20
39.4811155056
 10
-37.0672356896
 20
39.479526214
 10
-37.0661265932
 20
39.4779465566
 10
-37.0650060059
 20
39.4763768695
 10
-37.0638737136
 20
39.4748168166
 10
-37.0627296736
 20
39.4732665287
 10
-37.0615739144
 20
39.4717260422
 10
-37.0604064075
 20
39.4701953207
 10
-37.0592270244
 20
39.4686743857
 10
-37.0580357629
 20
39.4671632296
 10
-37.0568326252
 20
39.4656618601
 10
-37.0556174894
 20
39.4641703221
 10
-37.0543903581
 20
39.4626886142
 10
-37.0531512285
 20
39.4612167378
 10
-37.0518999713
 20
39.4597547418
 10
-37.0506365883
 20
39.4583026241
 10
-37.0493610776
 20
39.4568603868
 10
-37.0480733041
 20
39.4554280857
 10
-37.0467732696
 20
39.4540057185
 10
-37.0454609723
 20
39.4525932875
 10
-37.0441362713
 20
39.4511908551
 10
-37.0427991691
 20
39.4497984196
 10
-37.0414496632
 20
39.4484159828
 10
-37.0400876057
 20
39.4470436122
 10
-37.0387129986
 20
39.4456813059
 10
-37.0373258398
 20
39.4443290659
 10
-37.035925975
 20
39.4429869665
 10
-37.0345134058
 20
39.4416550051
 10
-37.0330881307
 20
39.4403331843
 10
-37.0316499899
 20
39.4390215859
 10
-37.0301989855
 20
39.4377202077
 10
-37.0287351156
 20
39.436429052
 10
-37.0272582147
 20
39.4351482077
 10
-37.0257682849
 20
39.4338776725
 10
-37.0242653241
 20
39.4326174487
 10
-37.022749161
 20
39.4313676324
 10
-37.0212197974
 20
39.4301282209
 10
-37.0196772315
 20
39.4288992169
 10
-37.0181212868
 20
39.4276807241
 10
-37.016551965
 20
39.4264727398
 10
-37.0149692645
 20
39.4252752668
 10
-37.0133730033
 20
39.4240884163
 10
-37.0117631835
 20
39.422912186
 10
-37.0101398031
 20
39.4217465782
 10
-37.0085026739
 20
39.4205917113
 10
-37.0068517975
 20
39.4194475825
 10
-37.0051871723
 20
39.4183141946
 10
-37.0035086052
 20
39.4171916738
 10
-37.0018161015
 20
39.4160800198
 10
-37.0001096559
 20
39.4149792329
 10
-36.9983890591
 20
39.4138894409
 10
-36.9966543131
 20
39.4128106408
 10
-36.994905416
 20
39.4117428356
 10
-36.993142152
 20
39.4106861615
 10
-36.9913645187
 20
39.4096406133
 10
-36.9895725186
 20
39.4086061962
 10
-36.9877659429
 20
39.4075830624
 10
-36.9859447917
 20
39.4065712084
 10
-36.9841090649
 20
39.4055706377
 10
-36.9822585541
 20
39.4045815129
 10
-36.9803932618
 20
39.403603832
 10
-36.9785131855
 20
39.402637597
 10
-36.976618109
 20
39.4016829766
 10
-36.9747080352
 20
39.4007399687
 10
-36.9727829612
 20
39.3998085755
 10
-36.9708426618
 20
39.3988889716
 10
-36.968887139
 20
39.3979811543
 10
-36.9669163907
 20
39.3970851263
 10
-36.964930186
 20
39.3962010702
 10
-36.9629285257
 20
39.395328983
 10
-36.9609114091
 20
39.3944688677
 10
-36.9588786021
 20
39.3936209162
 10
-36.9568301051
 20
39.3927851254
 10
-36.9547659178
 20
39.3919614984
 10
-36.9526858053
 20
39.3911502369
 10
-36.9505897683
 20
39.3903513379
 10
-36.9484778061
 20
39.3895648044
 10
-36.9463496816
 20
39.3887908469
 10
-36.9442053957
 20
39.3880294627
 10
-36.9420449475
 20
39.3872806544
 10
-36.9398680964
 20
39.3865446411
 10
-36.9376748436
 20
39.38582142
 10
-36.9354651878
 20
39.3851109938
 10
-36.9332388852
 20
39.3844135897
 10
-36.9309959368
 20
39.383729205
 10
-36.9287363415
 20
39.3830578424
 10
-36.9264598523
 20
39.3823997375
 10
-36.92416647
 20
39.3817548875
 10
-36.9218561937
 20
39.3811232952
 10
-36.9195287741
 20
39.3805052048
 10
-36.9171842118
 20
39.3799006134
 10
-36.914822506
 20
39.3793095238
 10
-36.9124434051
 20
39.3787321887
 10
-36.910046906
 20
39.3781686045
 10
-36.9076330116
 20
39.3776187748
 10
-36.9052014794
 20
39.3770829628
 10
-36.9027523032
 20
39.3765611648
 10
-36.9002854892
 20
39.3760533846
 10
-36.897800814
 20
39.3755598965
 10
-36.8952982817
 20
39.3750806991
 10
-36.8927778882
 20
39.3746157939
 10
-36.890239397
 20
39.3741654593
 10
-36.887682813
 20
39.3737296935
 10
-36.8851081314
 20
39.3733084984
 10
-36.8825151007
 20
39.3729021573
 10
-36.8799037199
 20
39.3725106674
 10
-36.8772739902
 20
39.3721340317
 10
-36.8746256634
 20
39.3717725419
 10
-36.8719587349
 20
39.3714261951
 10
-36.8692732094
 20
39.3710949944
 10
-36.8665688532
 20
39.3707792406
 10
-36.8638456639
 20
39.3704789314
 10
-36.8611036438
 20
39.3701940692
 10
-36.8583425665
 20
39.3699249619
 10
-36.8555624294
 20
39.3696716076
 10
-36.852763235
 20
39.3694340082
 10
-36.8499447644
 20
39.3692124782
 10
-36.8471070127
 20
39.3690070155
 10
-36.8442499848
 20
39.3688176223
 10
-36.8413734757
 20
39.3686446188
 10
-36.8384774829
 20
39.3684880036
 10
-36.835562009
 20
39.3683477782
 10
-36.832626857
 20
39.3682242677
 10
-36.829672031
 20
39.3681174707
 10
-36.8266975269
 20
39.3680273886
 10
-36.8237031347
 20
39.3679543506
 10
-36.820688861
 20
39.3678983549
 10
-36.8176546992
 20
39.3678594033
 10
-36.8146004202
 20
39.3678378303
 10
-36.8115260173
 20
39.3678336341
 10
-36.8084314972
 20
39.3678468165
 10
-36.8053166506
 20
39.3678777183
 10
-36.802181441
 20
39.3679263392
 10
-36.7990259051
 20
39.3679926794
 10
-36.7958499433
 20
39.36807708
 10
-36.7926535627
 20
39.3681795408
 10
-36.7894367562
 20
39.368300062
 10
-36.7861994034
 20
39.3684389843
 10
-36.7829415175
 20
39.3685963066
 10
-36.7796630853
 20
39.36877203
 10
-36.776363946
 20
39.3689664988
 10
-36.7730440927
 20
39.3691797124
 10
-36.7697035324
 20
39.3694116715
 10
-36.766342125
 20
39.3696627214
 10
-36.7629598654
 20
39.3699328621
  0
LWPOLYLINE
  5
350
100
AcDbEntity
  8
RACCORDO
100
AcDbPolyline
 62
250
  6
CONTINUOUS
 90
25
 70
0
 10
-36.7629598654
 20
39.3699328621
 10
-36.7595567587
 20
39.3702220937
 10
-36.7561326805
 20
39.3705307623
 10
-36.7526876228
 20
39.3708588684
 10
-36.7492215937
 20
39.3712064114
 10
-36.7457344928
 20
39.3715737363
 10
-36.7422263117
 20
39.371960844
 10
-36.7386970588
 20
39.3723677335
 10
-36.7351466593
 20
39.3727947467
 10
-36.7315751094
 20
39.3732418844
 10
-36.7279824128
 20
39.3737091458
 10
-36.7243685063
 20
39.3741968706
 10
-36.7207333883
 20
39.3747050593
 10
-36.7170770603
 20
39.3752337115
 10
-36.7133994639
 20
39.3757831654
 10
-36.7097005962
 20
39.3763534215
 10
-36.7059804599
 20
39.3769444794
 10
-36.7022390049
 20
39.3775566753
 10
-36.6984762284
 20
39.3781900098
 10
-36.694692133
 20
39.3788444822
 10
-36.6908866765
 20
39.379520427
 10
-36.6870598391
 20
39.3802178482
 10
-36.6832116405
 20
39.3809367417
 10
-36.6793420973
 20
39.3816774289
 10
-36.6715389
 20
39.3832242041
  0
LWPOLYLINE
  5
351
100
AcDbEntity
  8
RACCORDO
100
AcDbPolyline
 62
250
  6
CONTINUOUS
 90
57
 70
0
 10
-35.474056189
 20
39.9182168316
 10
-35.4302707658
 20
39.7351140098
 10
-35.4295444709
 20
39.731877144
 10
-35.4288707687
 20
39.7287024583
 10
-35.4282494533
 20
39.7255918653
 10
-35.4276805918
 20
39.7225437632
 10
-35.4271643975
 20
39.7195531544
 10
-35.4267001766
 20
39.7166201099
 10
-35.4262882331
 20
39.7137451134
 10
-35.4259300376
 20
39.7109240168
 10
-35.4256247194
 20
39.7081570008
 10
-35.4253725078
 20
39.7054446958
 10
-35.4251762589
 20
39.7027838857
 10
-35.4250348961
 20
39.7001749134
 10
-35.4249485704
 20
39.6976185478
 10
-35.4249216804
 20
39.6951125117
 10
-35.4249528896
 20
39.6926573295
 10
-35.4250422755
 20
39.6902539528
 10
-35.4251960095
 20
39.6879011015
 10
-35.4254124324
 20
39.685599489
 10
-35.4256915403
 20
39.6833503326
 10
-35.4260415721
 20
39.6811535416
 10
-35.4264604478
 20
39.6790101237
 10
-35.426948087
 20
39.6769215772
 10
-35.4275152173
 20
39.6748890917
 10
-35.4281591861
 20
39.6729140271
 10
-35.4288798478
 20
39.6709982849
 10
-35.4296910366
 20
39.6691445775
 10
-35.4305893516
 20
39.6673546792
 10
-35.4315745472
 20
39.6656311034
 10
-35.4326643335
 20
39.6639786239
 10
-35.4338543134
 20
39.6623996083
 10
-35.435144091
 20
39.6608973958
 10
-35.4365562247
 20
39.6594795267
 10
-35.4380850186
 20
39.6581492042
 10
-35.4397297878
 20
39.6569109445
 10
-35.4415190229
 20
39.655776098
 10
-35.4434454523
 20
39.65474911
 10
-35.4455077239
 20
39.6538361734
 10
-35.447741005
 20
39.653053885
 10
-35.4501372918
 20
39.6524086634
 10
-35.4526927374
 20
39.6519090557
 10
-35.4554458656
 20
39.6515783987
 10
-35.4583917335
 20
39.6514271612
 10
-35.4615191443
 20
39.6514658718
 10
-35.4648543925
 20
39.65172166
 10
-35.4684306207
 20
39.6522196995
 10
-35.4721932219
 20
39.6529638084
 10
-35.4760423047
 20
39.6539426289
 10
-35.479958137
 20
39.6551604782
 10
-35.4839551089
 20
39.6566230569
 10
-35.4879920511
 20
39.6583117666
 10
-35.4920511248
 20
39.6602244914
 10
-35.4961456508
 20
39.6623729142
 10
-35.5002787734
 20
39.664762627
 10
-35.5044477193
 20
39.6674054602
 10
-35.5076002048
 20
39.6695640999
  0
LWPOLYLINE
  5
352
100
AcDbEntity
  8
RACCORDO
100
AcDbPolyline
 62
250
  6
CONTINUOUS
 90
9
 70
0
 10
-35.7925423294
 20
41.3796906719
 10
-35.7552213636
 20
41.1947857713
 10
-35.717188145
 20
41.0105111541
 10
-35.6784431022
 20
40.8268689184
 10
-35.6389866653
 20
40.6438611259
 10
-35.5988192851
 20
40.4614898902
 10
-35.5579414341
 20
40.2797573751
 10
-35.516353581
 20
40.0986656783
 10
-35.474056189
 20
39.9182168316
  0
LWPOLYLINE
  5
353
100
AcDbEntity
  8
RACCORDO
100
AcDbPolyline
 62
250
  6
CONTINUOUS
 90
118
 70
0
 10
-37.4769118628
 20
4.5671464399
 10
-37.4656140484
 20
4.5730645317
 10
-37.4541653281
 20
4.5788734103
 10
-37.4425677653
 20
4.5845720286
 10
-37.4308234504
 20
4.5901593594
 10
-37.4189345004
 20
4.5956343957
 10
-37.4069030582
 20
4.6009961507
 10
-37.3947312923
 20
4.6062436578
 10
-37.3824213966
 20
4.6113759714
 10
-37.3699755899
 20
4.6163921662
 10
-37.3573961155
 20
4.6212913382
 10
-37.3446852409
 20
4.6260726043
 10
-37.3318452569
 20
4.6307351028
 10
-37.318878478
 20
4.6352779932
 10
-37.3057872414
 20
4.6397004567
 10
-37.2925739067
 20
4.6440016961
 10
-37.2792408555
 20
4.6481809363
 10
-37.265790491
 20
4.6522374239
 10
-37.2522252376
 20
4.6561704278
 10
-37.2385475404
 20
4.659979239
 10
-37.2247598645
 20
4.6636631711
 10
-37.2108646953
 20
4.66722156
 10
-37.1968645373
 20
4.6706537644
 10
-37.1827619138
 20
4.6739591655
 10
-37.1685593668
 20
4.6771371678
 10
-37.1542594562
 20
4.6801871982
 10
-37.1398647595
 20
4.6831087072
 10
-37.1253778713
 20
4.685901168
 10
-37.1108014028
 20
4.6885640774
 10
-37.0961379812
 20
4.6910969554
 10
-37.0813902496
 20
4.6934993454
 10
-37.0665608661
 20
4.6957708145
 10
-37.0516525038
 20
4.6979109532
 10
-37.0366678496
 20
4.6999193758
 10
-37.0216096046
 20
4.7017957202
 10
-37.0064804828
 20
4.7035396483
 10
-36.9912832113
 20
4.7051508457
 10
-36.9760205292
 20
4.7066290221
 10
-36.9606951875
 20
4.7079739109
 10
-36.9453099487
 20
4.7091852699
 10
-36.9298675856
 20
4.7102628805
 10
-36.9143708819
 20
4.7112065487
 10
-36.8988226306
 20
4.7120161043
 10
-36.8832256342
 20
4.7126914013
 10
-36.867582704
 20
4.7132323182
 10
-36.8518966596
 20
4.7136387574
 10
-36.8361703282
 20
4.7139106455
 10
-36.8204065445
 20
4.7140479337
 10
-36.8046081498
 20
4.7140505972
 10
-36.7887779916
 20
4.7139186354
 10
-36.7729189233
 20
4.7136520723
 10
-36.7570338034
 20
4.7132509557
 10
-36.741125495
 20
4.7127153581
 10
-36.7251968655
 20
4.7120453759
 10
-36.7092507861
 20
4.71124113
 10
-36.6932901308
 20
4.7103027652
 10
-36.6773177765
 20
4.7092304508
 10
-36.6613366021
 20
4.70802438
 10
-36.6453494882
 20
4.7066847701
 10
-36.6293593162
 20
4.7052118627
 10
-36.6133689685
 20
4.7036059232
 10
-36.597381327
 20
4.7018672411
 10
-36.5813992736
 20
4.6999961298
 10
-36.5654256888
 20
4.6979929265
 10
-36.5494634519
 20
4.6958579923
 10
-36.5335154399
 20
4.693591712
 10
-36.5175845274
 20
4.6911944941
 10
-36.5016735857
 20
4.6886667706
 10
-36.4857854829
 20
4.6860089973
 10
-36.4699230826
 20
4.6832216531
 10
-36.4540892439
 20
4.6803052404
 10
-36.4382868208
 20
4.6772602849
 10
-36.4225186616
 20
4.6740873355
 10
-36.4067876084
 20
4.670786964
 10
-36.3910964966
 20
4.6673597653
 10
-36.3754481545
 20
4.6638063572
 10
-36.3598454026
 20
4.6601273801
 10
-36.3442910532
 20
4.6563234971
 10
-36.3287879099
 20
4.6523953939
 10
-36.313338767
 20
4.6483437785
 10
-36.2979464091
 20
4.6441693812
 10
-36.2826136107
 20
4.6398729544
 10
-36.2673431354
 20
4.6354552724
 10
-36.2521377356
 20
4.6309171316
 10
-36.237000152
 20
4.62625935
 10
-36.221933113
 20
4.621482767
 10
-36.2069393344
 20
4.6165882436
 10
-36.1920215188
 20
4.611576662
 10
-36.177182355
 20
4.6064489256
 10
-36.1624245176
 20
4.6012059585
 10
-36.1477506668
 20
4.5958487059
 10
-36.1331634473
 20
4.5903781333
 10
-36.1186654884
 20
4.5847952267
 10
-36.1042594033
 20
4.5791009924
 10
-36.0899477887
 20
4.5732964569
 10
-36.075733224
 20
4.5673826662
 10
-36.0616182714
 20
4.5613606864
 10
-36.0476054751
 20
4.5552316029
 10
-36.0336973608
 20
4.5489965204
 10
-36.0198964352
 20
4.5426565628
 10
-36.006205186
 20
4.5362128727
 10
-35.992626081
 20
4.5296666117
 10
-35.9791615676
 20
4.5230189596
 10
-35.9658140728
 20
4.5162711146
 10
-35.9525860024
 20
4.5094242931
 10
-35.9394797407
 20
4.5024797291
 10
-35.92649765
 20
4.4954386744
 10
-35.9136420702
 20
4.488302398
 10
-35.9009153186
 20
4.4810721862
 10
-35.8883196889
 20
4.4737493422
 10
-35.8758574516
 20
4.466335186
 10
-35.8635308529
 20
4.4588310538
 10
-35.8513421145
 20
4.4512382983
 10
-35.8392934334
 20
4.443558288
 10
-35.8273869813
 20
4.4357924072
 10
-35.8156249043
 20
4.4279420556
 10
-35.8040093225
 20
4.4200086482
 10
-35.7925423294
 20
4.4119936151
  0
LWPOLYLINE
  5
354
100
AcDbEntity
  8
0
100
AcDbPolyline
 62
7
  6
CONTINUOUS
 90
154
 70
0
 10
44.0969729899
 20
-58.4003931895
 10
44.1056335876
 20
-58.4065722478
 10
44.1143022508
 20
-58.4128670212
 10
44.1229772202
 20
-58.4192762434
 10
44.1316570788
 20
-58.4257988625
 10
44.1403397256
 20
-58.4324333325
 10
44.1490223797
 20
-58.4391775691
 10
44.157702427
 20
-58.4460294835
 10
44.1663789825
 20
-58.4529883122
 10
44.1750518583
 20
-58.4600539479
 10
44.1837204308
 20
-58.4672259142
 10
44.1923818184
 20
-58.4745018729
 10
44.2010324534
 20
-58.4818788842
 10
44.2096694012
 20
-58.4893543438
 10
44.2182921457
 20
-58.4969277154
 10
44.2269007513
 20
-58.5045991318
 10
44.2354946186
 20
-58.5123680776
 10
44.2440708806
 20
-58.5202319913
 10
44.2526262069
 20
-58.5281879178
 10
44.2611580259
 20
-58.5362333613
 10
44.2696655199
 20
-58.5443674633
 10
44.2781480022
 20
-58.5525896789
 10
44.2866042702
 20
-58.5608988105
 10
44.2950321409
 20
-58.5692926902
 10
44.3034294593
 20
-58.5777693135
 10
44.3117945794
 20
-58.5863269437
 10
44.3201258197
 20
-58.5949638053
 10
44.3284209954
 20
-58.6036777843
 10
44.3366779702
 20
-58.6124665246
 10
44.344895625
 20
-58.6213287321
 10
44.3530733021
 20
-58.6302638805
 10
44.3612102424
 20
-58.639271098
 10
44.3693039497
 20
-58.6483475964
 10
44.3773511843
 20
-58.6574899414
 10
44.3853493188
 20
-58.6666949767
 10
44.3932978743
 20
-58.6759619916
 10
44.4011968432
 20
-58.6852912033
 10
44.4090457698
 20
-58.6946820317
 10
44.4168419638
 20
-58.7041312296
 10
44.4245820829
 20
-58.7136349972
 10
44.4322636393
 20
-58.7231900831
 10
44.4398861621
 20
-58.7327957212
 10
44.4474493577
 20
-58.7424518141
 10
44.454952487
 20
-58.7521573354
 10
44.4623933059
 20
-58.7619093106
 10
44.4697692713
 20
-58.7717047142
 10
44.4770786021
 20
-58.7815409987
 10
44.4843202524
 20
-58.7914165942
 10
44.4914928223
 20
-58.8013299137
 10
44.4985948674
 20
-58.8112787929
 10
44.5056250767
 20
-58.821261236
 10
44.5125822525
 20
-58.831275907
 10
44.5194654909
 20
-58.8413213598
 10
44.5262729948
 20
-58.851394847
 10
44.5330022719
 20
-58.8614930613
 10
44.5396513326
 20
-58.871612759
 10
44.5462196658
 20
-58.8817529143
 10
44.5527070067
 20
-58.8919135401
 10
44.5591129579
 20
-58.9020938881
 10
44.5654353759
 20
-58.9122904426
 10
44.5716714119
 20
-58.9224990586
 10
44.577819047
 20
-58.9327161159
 10
44.5838780392
 20
-58.9429409107
 10
44.5898482334
 20
-58.9531736652
 10
44.5957292367
 20
-58.9634135536
 10
44.6015191226
 20
-58.9736570811
 10
44.6072154554
 20
-58.9839004657
 10
44.6128166471
 20
-58.9941405234
 10
44.6183222355
 20
-59.0043760975
 10
44.623731522
 20
-59.0146064425
 10
44.6290437609
 20
-59.0248299123
 10
44.6342576696
 20
-59.0350438108
 10
44.6393717503
 20
-59.0452458176
 10
44.6443851065
 20
-59.0554338506
 10
44.6492967646
 20
-59.065605655
 10
44.6541051758
 20
-59.0757586581
 10
44.6588091705
 20
-59.0858900164
 10
44.6634082372
 20
-59.0959982605
 10
44.6679018223
 20
-59.1060828779
 10
44.6722895704
 20
-59.1161428201
 10
44.6765701586
 20
-59.1261748186
 10
44.6807416352
 20
-59.1361750428
 10
44.6848027539
 20
-59.146140008
 10
44.6887534064
 20
-59.1560689579
 10
44.6925933754
 20
-59.1659621593
 10
44.6963224804
 20
-59.1758188884
 10
44.6999394755
 20
-59.1856356039
 10
44.7034425808
 20
-59.1954083588
 10
44.7068308014
 20
-59.2051337976
 10
44.7101040621
 20
-59.2148111296
 10
44.7132620123
 20
-59.2244402703
 10
44.7163043992
 20
-59.2340200945
 10
44.7192303697
 20
-59.2435475662
 10
44.7220386899
 20
-59.2530197422
 10
44.7247287939
 20
-59.2624341166
 10
44.7273004122
 20
-59.2717891482
 10
44.7297528259
 20
-59.2810833732
 10
44.7320856475
 20
-59.2903147202
 10
44.7342985471
 20
-59.2994812708
 10
44.7363909007
 20
-59.3085817939
 10
44.7383625154
 20
-59.3176148848
 10
44.740212962
 20
-59.3265780051
 10
44.7419413324
 20
-59.3354682623
 10
44.7435472715
 20
-59.3442827996
 10
44.745030809
 20
-59.3530207005
 10
44.7463916349
 20
-59.3616819937
 10
44.7476297271
 20
-59.3702659356
 10
44.7487447355
 20
-59.3787694663
 10
44.749735908
 20
-59.3871891743
 10
44.7506031063
 20
-59.3955220767
 10
44.7513464815
 20
-59.4037676057
 10
44.7519657574
 20
-59.411925999
 10
44.7524609658
 20
-59.4199965192
 10
44.7528320158
 20
-59.4279763028
 10
44.753078477
 20
-59.4358624205
 10
44.7532004634
 20
-59.4436523875
 10
44.7531981521
 20
-59.4513453469
 10
44.753071269
 20
-59.4589408588
 10
44.7528199477
 20
-59.4664376806
 10
44.7524443686
 20
-59.473833733
 10
44.7519443394
 20
-59.4811273308
 10
44.7513201032
 20
-59.4883169039
 10
44.7505719326
 20
-59.4954008663
 10
44.749699756
 20
-59.5023775749
 10
44.7487039797
 20
-59.5092451076
 10
44.747584921
 20
-59.5160024152
 10
44.7463423864
 20
-59.5226491738
 10
44.7449765943
 20
-59.5291845913
 10
44.743488066
 20
-59.5356065031
 10
44.7418771223
 20
-59.5419125851
 10
44.7401445143
 20
-59.5481006783
 10
44.7382905725
 20
-59.554170317
 10
44.736315016
 20
-59.5601217451
 10
44.7342180465
 20
-59.5659544447
 10
44.7320004735
 20
-59.5716662396
 10
44.7296629665
 20
-59.5772549277
 10
44.7272065166
 20
-59.5827186063
 10
44.7246315045
 20
-59.5880568669
 10
44.7219377314
 20
-59.5932698002
 10
44.7191255622
 20
-59.5983567557
 10
44.7161959635
 20
-59.6033160315
 10
44.7131496558
 20
-59.6081461624
 10
44.7099876013
 20
-59.6128458396
 10
44.7067104334
 20
-59.6174143261
 10
44.7033184441
 20
-59.6218510903
 10
44.6998124622
 20
-59.6261551593
 10
44.6961933479
 20
-59.6303255783
 10
44.692461447
 20
-59.6343618526
 10
44.6886174243
 20
-59.6382632898
 10
44.6846623989
 20
-59.6420287758
 10
44.6805974589
 20
-59.6456572629
 10
44.676424033
 20
-59.6491476282
 10
44.672142719
 20
-59.6524995145
 10
44.6677037545
 20
-59.6557481433
  0
LWPOLYLINE
  5
355
100
AcDbEntity
  8
RACCORDO
100
AcDbPolyline
 62
250
  6
CONTINUOUS
 90
80
 70
0
 10
-38.3418218942
 20
51.1947660886
 10
-38.3281033881
 20
51.1536663703
 10
-38.3246616351
 20
51.1430134329
 10
-38.3212852919
 20
51.1322830032
 10
-38.3179914585
 20
51.1215184938
 10
-38.31476464
 20
51.1106753876
 10
-38.3115561303
 20
51.0996217476
 10
-38.308361558
 20
51.0883590353
 10
-38.3051855744
 20
51.0768857407
 10
-38.3019920225
 20
51.0650662911
 10
-38.2987773668
 20
51.0529026577
 10
-38.2955445712
 20
51.0403935537
 10
-38.2922664474
 20
51.0273991958
 10
-38.2889395676
 20
51.0139210011
 10
-38.2855660721
 20
50.9999589096
 10
-38.2821264718
 20
50.985371513
 10
-38.2786171089
 20
50.9701585618
 10
-38.2750397174
 20
50.954322321
 10
-38.2713823584
 20
50.9377256681
 10
-38.2676383337
 20
50.9203507338
 10
-38.2638118402
 20
50.9022180684
 10
-38.2599069979
 20
50.8832484771
 10
-38.2559165928
 20
50.8634109917
 10
-38.2518451695
 20
50.8427395938
 10
-38.2477146868
 20
50.8212523553
 10
-38.2435271287
 20
50.7989590518
 10
-38.239278371
 20
50.7758525794
 10
-38.2349815882
 20
50.7519253504
 10
-38.2306432479
 20
50.7272214599
 10
-38.2262550558
 20
50.7016993318
 10
-38.2218079468
 20
50.6752230171
 10
-38.2173008297
 20
50.6478041725
 10
-38.2127324258
 20
50.6194344342
 10
-38.2080928757
 20
50.5899484285
 10
-38.203379101
 20
50.5593473367
 10
-38.1985912236
 20
50.5276341913
 10
-38.19372367
 20
50.4946470425
 10
-38.1887734922
 20
50.4603873932
 10
-38.1837402037
 20
50.4248588671
 10
-38.1786214878
 20
50.3879032939
 10
-38.173414842
 20
50.3495252826
 10
-38.1681189423
 20
50.3097262864
 10
-38.1627328471
 20
50.268343992
 10
-38.1572539808
 20
50.2253829503
 10
-38.151680732
 20
50.1808457118
 10
-38.1460132286
 20
50.1345675815
 10
-38.1402494281
 20
50.0865585801
 10
-38.1343868855
 20
50.0368169179
 10
-38.1284247257
 20
49.9851608934
 10
-38.1223663472
 20
49.9316589197
 10
-38.1162036304
 20
49.8762520517
 10
-38.1099175489
 20
49.8185690462
 10
-38.1035067131
 20
49.7586571334
 10
-38.0969665806
 20
49.6964816185
 10
-38.0902718465
 20
49.6315510871
 10
-38.0834060059
 20
49.5637602369
 10
-38.0763778414
 20
49.4932316839
 10
-38.0691990765
 20
49.4198177863
 10
-38.0618687308
 20
49.3435448661
 10
-38.0543806695
 20
49.2644054107
 10
-38.04673874
 20
49.1822018375
 10
-38.0389533251
 20
49.0971069671
 10
-38.0310074696
 20
49.0089689369
 10
-38.0228626655
 20
48.9171066407
 10
-38.0145103791
 20
48.8215125222
 10
-38.0059507731
 20
48.7222235594
 10
-37.9971562654
 20
48.6186313031
 10
-37.9881233573
 20
48.510779828
 10
-37.9788468466
 20
48.3986627254
 10
-37.9692947767
 20
48.2816022968
 10
-37.9594723564
 20
48.1597578808
 10
-37.9493662088
 20
48.0330181589
 10
-37.938914168
 20
47.9003096075
 10
-37.9281056449
 20
47.7615860995
 10
-37.916943512
 20
47.6169608626
 10
-37.9053839115
 20
47.4656120682
 10
-37.8933541936
 20
47.3065313193
 10
-37.880923185
 20
47.1408176446
 10
-37.8682633774
 20
46.970800471
 10
-37.8553905892
 20
46.7964540512
  0
LWPOLYLINE
  5
356
100
AcDbEntity
  8
RACCORDO
100
AcDbPolyline
 62
250
  6
CONTINUOUS
 90
10
 70
0
 10
-38.2220393801
 20
-4.6103637941
 10
-38.2443387778
 20
-4.6060216944
 10
-38.2665375313
 20
-4.6015566853
 10
-38.2886351787
 20
-4.5969665116
 10
-38.3106388408
 20
-4.5922454149
 10
-38.3325404976
 20
-4.5873946232
 10
-38.3543172398
 20
-4.5824225384
 10
-38.3759614516
 20
-4.5773306707
 10
-38.3974805587
 20
-4.5721134518
 10
-38.4188744796
 20
-4.5667688549
  0
LINE
  5
357
100
AcDbEntity
  8
RACCORDO
100
AcDbLine
 62
250
  6
CONTINUOUS
 10
-35.4310497361
 20
6.564499126
 11
32.6292280172
 21
-41.5613848028
  0
LINE
  5
358
100
AcDbEntity
  8
RACCORDO
100
AcDbLine
 62
250
  6
CONTINUOUS
 10
-35.3071350226
 20
8.3291743651
 11
32.544918567
 21
-39.6494728455
  0
LINE
  5
359
100
AcDbEntity
  8
0
100
AcDbLine
 62
7
  6
CONTINUOUS
 10
32.4967129976
 20
-38.3876223834
 11
-35.216792248
 21
9.4930563537
  0
LWPOLYLINE
  5
35A
100
AcDbEntity
  8
RACCORDO
100
AcDbPolyline
 62
250
  6
CONTINUOUS
 90
10
 70
0
 10
33.9888599137
 20
-55.7667688548
 10
33.9654979893
 20
-55.7404662943
 10
33.942307291
 20
-55.7140689074
 10
33.9192877375
 20
-55.6875787207
 10
33.8964315218
 20
-55.6609905275
 10
33.8737462611
 20
-55.6343135925
 10
33.8512547444
 20
-55.6075718381
 10
33.8289641837
 20
-55.5807748118
 10
33.8068664671
 20
-55.553917497
 10
33.7849611323
 20
-55.5270021494
  0
LWPOLYLINE
  5
35B
100
AcDbEntity
  8
RACCORDO
100
AcDbPolyline
 62
250
  6
CONTINUOUS
 90
112
 70
0
 10
-38.2220393801
 20
51.1994971129
 10
-38.214304458
 20
51.1866077755
 10
-38.2066916915
 20
51.173691585
 10
-38.1992010372
 20
51.1607485736
 10
-38.1918674051
 20
51.1478338941
 10
-38.1846558038
 20
51.1348924533
 10
-38.1774612998
 20
51.1217589414
 10
-38.1702761185
 20
51.1084311513
 10
-38.1631078656
 20
51.094911414
 10
-38.1558745958
 20
51.0810412879
 10
-38.1485709149
 20
51.0668200552
 10
-38.1412019414
 20
51.0522486361
 10
-38.1337013963
 20
51.0371711207
 10
-38.1260644479
 20
51.0215862842
 10
-38.1182955076
 20
51.0054956602
 10
-38.1103420341
 20
50.9887475697
 10
-38.1021989392
 20
50.9713389594
 10
-38.0938706972
 20
50.9532733337
 10
-38.0853189552
 20
50.934408965
 10
-38.0765312546
 20
50.9147233527
 10
-38.0675191843
 20
50.894239637
 10
-38.058280308
 20
50.8728846659
 10
-38.0487994729
 20
50.8506228134
 10
-38.0390907077
 20
50.8274905333
 10
-38.0291952616
 20
50.8035228571
 10
-38.019118636
 20
50.7787306964
 10
-38.0088540741
 20
50.7531040659
 10
-37.99842439
 20
50.7266466866
 10
-37.9878468794
 20
50.6994061351
 10
-37.9771028291
 20
50.6713358829
 10
-37.9661608649
 20
50.6422986239
 10
-37.955021401
 20
50.6123046484
 10
-37.9436821575
 20
50.5813450479
 10
-37.9321073734
 20
50.5492539735
 10
-37.9202928354
 20
50.5160300102
 10
-37.9082402922
 20
50.4816764018
 10
-37.8959224945
 20
50.4460346084
 10
-37.8833353912
 20
50.4091035919
 10
-37.8704798482
 20
50.3708867591
 10
-37.8573354941
 20
50.3312326079
 10
-37.8438991571
 20
50.2901434107
 10
-37.8301699631
 20
50.2476199117
 10
-37.8161304057
 20
50.2035087507
 10
-37.8017767885
 20
50.1578120505
 10
-37.7871077163
 20
50.110531496
 10
-37.772108448
 20
50.0615135842
 10
-37.7567762606
 20
50.0107660783
 10
-37.7411075426
 20
49.9582859686
 10
-37.7250853938
 20
49.9039042153
 10
-37.7087221665
 20
49.8476888039
 10
-37.6919977163
 20
49.7895776189
 10
-37.6748450214
 20
49.7292075069
 10
-37.6572649135
 20
49.6666217958
 10
-37.6392460666
 20
49.6017850917
 10
-37.6207009131
 20
49.5342179024
 10
-37.6015864639
 20
49.4638052874
 10
-37.5819309765
 20
49.3906733684
 10
-37.561751637
 20
49.3147058576
 10
-37.5410440384
 20
49.2359265037
 10
-37.5197951591
 20
49.1543248678
 10
-37.4980076203
 20
49.0697346482
 10
-37.4757086645
 20
48.9823273817
 10
-37.4528503594
 20
48.8919474383
 10
-37.429318866
 20
48.7979406122
 10
-37.4050853975
 20
48.7002897703
 10
-37.3801497909
 20
48.5990344213
 10
-37.3544353098
 20
48.4936098267
 10
-37.3279205607
 20
48.384050767
 10
-37.3005888699
 20
48.2703520957
 10
-37.2723636573
 20
48.1518945802
 10
-37.2432394273
 20
48.0288258451
 10
-37.2131719112
 20
47.9010373262
 10
-37.1820157755
 20
47.7675338185
 10
-37.1497017594
 20
47.628252362
 10
-37.1162290598
 20
47.483311366
 10
-37.0815416362
 20
47.3319982973
 10
-37.0453632533
 20
47.1733066352
 10
-37.0078740078
 20
47.0083197677
 10
-36.9697098266
 20
46.8394544176
 10
-36.9308624426
 20
46.6667101401
 10
-36.8912705669
 20
46.4901445494
 10
-36.8515234553
 20
46.3122357254
 10
-36.8117316018
 20
46.1334734301
 10
-36.7717512025
 20
45.9533970924
 10
-36.7318163118
 20
45.773038517
 10
-36.6919512106
 20
45.5925284297
 10
-36.6521119817
 20
45.4117547631
 10
-36.6124437837
 20
45.2313744129
 10
-36.5729474272
 20
45.0513962076
 10
-36.5336123988
 20
44.8718221728
 10
-36.4945776939
 20
44.6932902145
 10
-36.4558569347
 20
44.5158385619
 10
-36.4174378853
 20
44.3394308239
 10
-36.3794307847
 20
44.1645847069
 10
-36.3418551982
 20
43.9913459417
 10
-36.3047021367
 20
43.8196629221
 10
-36.2680468914
 20
43.6499007437
 10
-36.2319040631
 20
43.4820677732
 10
-36.1962759031
 20
43.3161442834
 10
-36.1612254141
 20
43.1524479128
 10
-36.1267709294
 20
42.9909886947
 10
-36.0929165299
 20
42.8317402034
 10
-36.0597091775
 20
42.6749607603
 10
-36.0271722464
 20
42.5206744886
 10
-35.995309192
 20
42.3688366971
 10
-35.9641409905
 20
42.219599042
 10
-35.9336859436
 20
42.0729575661
 10
-35.9039546978
 20
41.9288933855
 10
-35.8749594836
 20
41.7875332797
 10
-35.8467151899
 20
41.6489107275
 10
-35.8192378119
 20
41.5129672601
 10
-35.7925423294
 20
41.3796906719
  0
LINE
  5
35C
100
AcDbEntity
  8
DRAFT
100
AcDbLine
 62
7
  6
CONTINUOUS
 10
52.6058699754
 20
-36.4956424583
 11
54.0200835377
 21
-37.4956424583
  0
LWPOLYLINE
  5
35D
100
AcDbEntity
  8
RACCORDO
100
AcDbPolyline
 62
250
  6
CONTINUOUS
 90
10
 70
0
 10
-38.4188744796
 20
51.4442585956
 10
-38.3974806394
 20
51.4165645285
 10
-38.3759614624
 20
51.3889850521
 10
-38.3543170266
 20
51.3615220801
 10
-38.3325397259
 20
51.3341699306
 10
-38.3106373482
 20
51.3069380804
 10
-38.2886333399
 20
51.2798509874
 10
-38.2665359102
 20
51.252917827
 10
-38.2443377671
 20
51.2261326701
 10
-38.2220393801
 20
51.1994971129
  0
LWPOLYLINE
  5
35E
100
AcDbEntity
  8
RACCORDO
100
AcDbPolyline
 62
250
  6
CONTINUOUS
 90
99
 70
0
 10
33.7849611323
 20
-55.5270021494
 10
33.7776129054
 20
-55.5138725508
 10
33.7703940084
 20
-55.5007106539
 10
33.7633044846
 20
-55.487516429
 10
33.7563779788
 20
-55.4743465586
 10
33.7495809271
 20
-55.4611443054
 10
33.7428125977
 20
-55.4477394846
 10
33.7360648875
 20
-55.4341292275
 10
33.729346069
 20
-55.4203162877
 10
33.7225800567
 20
-55.4061388568
 10
33.7157616001
 20
-55.3915961317
 10
33.7088962256
 20
-55.3766887281
 10
33.7019241145
 20
-55.3612568961
 10
33.69484078
 20
-55.345299232
 10
33.6876511291
 20
-55.3288168541
 10
33.6803095609
 20
-55.3116537093
 10
33.6728114873
 20
-55.2938060493
 10
33.6651621096
 20
-55.275277206
 10
33.6573306654
 20
-55.2559216422
 10
33.6493065834
 20
-55.2357162678
 10
33.6411013024
 20
-55.2146835843
 10
33.63271723
 20
-55.1927463372
 10
33.6241417671
 20
-55.1698670672
 10
33.6153886347
 20
-55.1460824733
 10
33.6064998084
 20
-55.1214264799
 10
33.5974815978
 20
-55.0959092446
 10
33.5883289471
 20
-55.0695197618
 10
33.5790668309
 20
-55.0422601799
 10
33.5697117228
 20
-55.0141782096
 10
33.5602485653
 20
-54.9852251847
 10
33.5506552113
 20
-54.9552585702
 10
33.540933526
 20
-54.9242882826
 10
33.5310835059
 20
-54.8923031514
 10
33.5210805443
 20
-54.8591287793
 10
33.5109227908
 20
-54.8247618499
 10
33.5006145572
 20
-54.7892040251
 10
33.4901409117
 20
-54.7522880849
 10
33.4795009567
 20
-54.7140107871
 10
33.4686987706
 20
-54.674373241
 10
33.457727384
 20
-54.6332144205
 10
33.4465874605
 20
-54.5905338519
 10
33.4352823769
 20
-54.5463293073
 10
33.4238098154
 20
-54.5004367411
 10
33.4121709939
 20
-54.4528548595
 10
33.4003697797
 20
-54.4035815677
 10
33.3884085136
 20
-54.3524511642
 10
33.3762903302
 20
-54.2994676292
 10
33.3640184221
 20
-54.2446227825
 10
33.3515960449
 20
-54.187732133
 10
33.3390384151
 20
-54.1288602175
 10
33.3263381056
 20
-54.0679373512
 10
33.3134657802
 20
-54.004576803
 10
33.3004294022
 20
-53.9388166871
 10
33.2872314863
 20
-53.870611993
 10
33.2738368181
 20
-53.7994497897
 10
33.260226808
 20
-53.7252040087
 10
33.2464347311
 20
-53.6479910962
 10
33.2325053078
 20
-53.5676604969
 10
33.2184482139
 20
-53.4842158038
 10
33.2042712464
 20
-53.3976420561
 10
33.190017944
 20
-53.3077598169
 10
33.1757217478
 20
-53.2147433247
 10
33.1613698439
 20
-53.1184050282
 10
33.1469400582
 20
-53.0180204399
 10
33.132433856
 20
-52.9135498966
 10
33.117878693
 20
-52.8050145132
 10
33.103297232
 20
-52.6917772132
 10
33.0887022822
 20
-52.5738471138
 10
33.074119083
 20
-52.4511909068
 10
33.0595958588
 20
-52.3231034868
 10
33.0451596286
 20
-52.1897102807
 10
33.0308330891
 20
-52.0508545734
 10
33.0166685577
 20
-51.9054013865
 10
33.0026751768
 20
-51.7532305839
 10
32.9889138131
 20
-51.5944186967
 10
32.975527729
 20
-51.4281174458
 10
32.9624863306
 20
-51.2531698759
 10
32.9499161145
 20
-51.0706739918
 10
32.9381888778
 20
-50.8831686798
 10
32.9273719474
 20
-50.690559903
 10
32.9174684416
 20
-50.4928999429
 10
32.9087210515
 20
-50.2929678644
 10
32.9011933638
 20
-50.0913051895
 10
32.894855068
 20
-49.8873525022
 10
32.8897813943
 20
-49.6822540311
 10
32.8859935338
 20
-49.476143136
 10
32.8834899716
 20
-49.268877324
 10
32.8822984824
 20
-49.0611952758
 10
32.8824297441
 20
-48.8530978519
 10
32.8838828445
 20
-48.6445812898
 10
32.886657343
 20
-48.4363838601
 10
32.8907575935
 20
-48.2285504108
 10
32.8961778847
 20
-48.0210398797
 10
32.9028926181
 20
-47.8144676051
 10
32.910898936
 20
-47.6088956378
 10
32.9201891189
 20
-47.4042710135
 10
32.930722377
 20
-47.2010411016
 10
32.9424932106
 20
-46.9992281893
 10
32.9433094776
 20
-46.9866419077
  0
LWPOLYLINE
  5
35F
100
AcDbEntity
  8
RACCORDO
100
AcDbPolyline
 62
250
  6
CONTINUOUS
 90
100
 70
0
 10
33.7849628201
 20
0.2828575641
 10
33.7792194875
 20
0.2811849082
 10
33.7733965738
 20
0.2793005887
 10
33.7674941609
 20
0.2772046655
 10
33.7615416288
 20
0.274921495
 10
33.7555097612
 20
0.2724268409
 10
33.7493107965
 20
0.2696479107
 10
33.7429080077
 20
0.2665730106
 10
33.736338433
 20
0.2632140626
 10
33.7296250266
 20
0.2595337477
 10
33.7227795081
 20
0.25553928
 10
33.7157905251
 20
0.2512237148
 10
33.7086464769
 20
0.2465285352
 10
33.7013485074
 20
0.2414579261
 10
33.6938959696
 20
0.2360080673
 10
33.6862746706
 20
0.230108503
 10
33.6784866515
 20
0.2237653302
 10
33.6705305415
 20
0.2169729443
 10
33.6623871632
 20
0.2096434357
 10
33.6540573756
 20
0.201783206
 10
33.6455412375
 20
0.1933865285
 10
33.6368185605
 20
0.1843474403
 10
33.6278902339
 20
0.1746734014
 10
33.6187566284
 20
0.1643578796
 10
33.609397038
 20
0.1532741145
 10
33.5998100076
 20
0.141426964
 10
33.5899987291
 20
0.1288128511
 10
33.5799498063
 20
0.1152926136
 10
33.569662722
 20
0.1008714312
 10
33.5591403452
 20
0.0855458617
 10
33.5483747859
 20
0.0691641263
 10
33.5373675061
 20
0.0517340841
 10
33.5261201831
 20
0.0332502001
 10
33.5146258011
 20
0.0135410124
 10
33.5028862669
 20
-0.0073845247
 10
33.4909038483
 20
-0.0295322675
 10
33.4786727891
 20
-0.0530953594
 10
33.4661958323
 20
-0.0780629139
 10
33.4534757596
 20
-0.1044417061
 10
33.4405078136
 20
-0.1324506715
 10
33.4272954946
 20
-0.1620769695
 10
33.4138425921
 20
-0.1933279982
 10
33.4001460129
 20
-0.2264521294
 10
33.38621018
 20
-0.2614342509
 10
33.372040264
 20
-0.298282286
 10
33.3576359018
 20
-0.3372779519
 10
33.3430028033
 20
-0.3784029784
 10
33.3281478523
 20
-0.4216661582
 10
33.3130745496
 20
-0.4673882173
 10
33.2977903278
 20
-0.5155463729
 10
33.282304257
 20
-0.5661509278
 10
33.2666250533
 20
-0.6195701446
 10
33.2507621426
 20
-0.6757760251
 10
33.2347277188
 20
-0.7347801267
 10
33.2185382864
 20
-0.7970072714
 10
33.2022065665
 20
-0.8624186939
 10
33.1857481596
 20
-0.9310314854
 10
33.1691887591
 20
-1.0033505154
 10
33.1525427353
 20
-1.0793340699
 10
33.1358330426
 20
-1.1589950943
 10
33.119104745
 20
-1.2429154266
 10
33.1023807814
 20
-1.3310120091
 10
33.0856872317
 20
-1.4233298073
 10
33.0690830389
 20
-1.5206355524
 10
33.0525526978
 20
-1.6231645403
 10
33.0361793317
 20
-1.7306284745
 10
33.02017583
 20
-1.8430038952
 10
33.0045428053
 20
-1.9606736099
 10
32.9893557514
 20
-2.0831943488
 10
32.9749301008
 20
-2.2093109179
 10
32.9613332804
 20
-2.3388836274
 10
32.9485554423
 20
-2.4720052148
 10
32.9367777028
 20
-2.6077833226
 10
32.9260422317
 20
-2.7461238554
 10
32.9163512785
 20
-2.8870835377
 10
32.9078119056
 20
-3.0300072702
 10
32.9004495881
 20
-3.1748958427
 10
32.8942728219
 20
-3.3217187685
 10
32.8893502352
 20
-3.4697842557
 10
32.8857010802
 20
-3.6190558968
 10
32.8833268147
 20
-3.769550594
 10
32.8822565453
 20
-3.9206667867
 10
32.8825011254
 20
-4.0723748772
 10
32.8840585444
 20
-4.2246943329
 10
32.8869273598
 20
-4.3771063306
 10
32.8911113484
 20
-4.5295847803
 10
32.8966051463
 20
-4.6821541288
 10
32.9033840445
 20
-4.8343792376
 10
32.9114461362
 20
-4.9862410927
 10
32.9207831351
 20
-5.1377642945
 10
32.931352908
 20
-5.2885857101
 10
32.9431491483
 20
-5.4386924783
 10
32.9561610959
 20
-5.5881090311
 10
32.9703336069
 20
-5.7365335732
 10
32.9856571418
 20
-5.8839591427
 10
33.0021188982
 20
-6.0304090626
 10
33.0196538202
 20
-6.1756313197
 10
33.0382508559
 20
-6.3196288006
 10
33.0578948473
 20
-6.4624186809
 10
33.0621921974
 20
-6.4918842798
  0
LWPOLYLINE
  5
360
100
AcDbEntity
  8
RACCORDO
100
AcDbPolyline
 62
250
  6
CONTINUOUS
 90
10
 70
0
 10
33.7849611323
 20
0.2828587576
 10
33.806865467
 20
0.278238252
 10
33.828962558
 20
0.273701937
 10
33.8512528753
 20
0.2692482162
 10
33.8737447227
 20
0.2648719956
 10
33.8964307143
 20
0.2605751235
 10
33.9192875094
 20
0.2563662134
 10
33.9423073001
 20
0.252246812
 10
33.9654980755
 20
0.2482115774
 10
33.9888599137
 20
0.2442585958
  0
LINE
  5
361
100
AcDbEntity
  8
RACCORDO
100
AcDbLine
 62
7
  6
CONTINUOUS
 10
-35.5095657878
 20
39.6709500099
 11
32.918877966
 21
-8.7152626274
  0
LINE
  5
362
100
AcDbEntity
  8
RACCORDO
100
AcDbLine
 62
250
  6
CONTINUOUS
 10
-35.4310497361
 20
39.738412889
 11
32.9261146129
 21
-8.5974015649
  0
LWPOLYLINE
  5
363
100
AcDbEntity
  8
RACCORDO
100
AcDbPolyline
 62
250
  6
CONTINUOUS
 90
10
 70
0
 10
33.9888599138
 20
-55.7667688547
 10
33.9756381643
 20
-55.7380137203
 10
33.9625745513
 20
-55.7091663895
 10
33.9496707462
 20
-55.680228477
 10
33.9369258717
 20
-55.6511931381
 10
33.9243441058
 20
-55.6220704544
 10
33.911934412
 20
-55.5928876278
 10
33.8997005209
 20
-55.5636550351
 10
33.8876412006
 20
-55.5343660342
 10
33.8757576713
 20
-55.505022486
  0
LWPOLYLINE
  5
364
100
AcDbEntity
  8
RACCORDO
100
AcDbPolyline
 62
250
  6
CONTINUOUS
 90
74
 70
0
 10
33.8757576713
 20
-55.505022486
 10
33.8717256418
 20
-55.494843241
 10
33.867754082
 20
-55.484589558
 10
33.8638421714
 20
-55.4742620527
 10
33.8600067819
 20
-55.4639046505
 10
33.8562292631
 20
-55.4534747141
 10
33.8524562583
 20
-55.442842541
 10
33.8486847876
 20
-55.4320080924
 10
33.8449177477
 20
-55.4209716165
 10
33.8411119047
 20
-55.4096030394
 10
33.83726592
 20
-55.3979027759
 10
33.8333822076
 20
-55.3858699316
 10
33.8294242334
 20
-55.373371837
 10
33.8253914061
 20
-55.3604079431
 10
33.8212864513
 20
-55.3469777364
 10
33.8170787429
 20
-55.3329480703
 10
33.8127679351
 20
-55.3183160769
 10
33.8083575394
 20
-55.3030830405
 10
33.8038235213
 20
-55.2871216052
 10
33.7991621159
 20
-55.2704123952
 10
33.79438128
 20
-55.2529727325
 10
33.7894750232
 20
-55.2347300779
 10
33.7844377477
 20
-55.2156523198
 10
33.7792797527
 20
-55.19576937
 10
33.7740186426
 20
-55.1751018872
 10
33.7686592943
 20
-55.1536574575
 10
33.7632009753
 20
-55.1314267218
 10
33.7576523349
 20
-55.1084052306
 10
33.7520249535
 20
-55.0846330852
 10
33.7463111346
 20
-55.0600686647
 10
33.7404908293
 20
-55.0345848587
 10
33.734568015
 20
-55.0081902645
 10
33.7285437752
 20
-54.9808743198
 10
33.7223946578
 20
-54.9524807549
 10
33.7161229121
 20
-54.923006801
 10
33.7097327627
 20
-54.8924527697
 10
33.7032047221
 20
-54.8606665862
 10
33.6965419545
 20
-54.8276454513
 10
33.6897491482
 20
-54.7933893063
 10
33.6828100186
 20
-54.7577498281
 10
33.6757290618
 20
-54.7207266463
 10
33.6685110345
 20
-54.6823169413
 10
33.6611409401
 20
-54.6423683937
 10
33.6536240354
 20
-54.6008800626
 10
33.6459658588
 20
-54.5578493918
 10
33.6381527715
 20
-54.5131213291
 10
33.6301917581
 20
-54.4666998211
 10
33.6220882925
 20
-54.4185771644
 10
33.613827541
 20
-54.3685805024
 10
33.6054259208
 20
-54.3167678134
 10
33.5968812956
 20
-54.2630771503
 10
33.5881532546
 20
-54.2071550474
 10
33.5792562475
 20
-54.1490373425
 10
33.5701946476
 20
-54.0886832154
 10
33.5609170096
 20
-54.0256229373
 10
33.551420333
 20
-53.9597470086
 10
33.5417334935
 20
-53.8911584449
 10
33.5318557509
 20
-53.8197055264
 10
33.5218023917
 20
-53.7453942011
 10
33.5115862674
 20
-53.6682124471
 10
33.5012041392
 20
-53.5879814772
 10
33.4906919712
 20
-53.5048621353
 10
33.4800446843
 20
-53.4186879915
 10
33.4692026111
 20
-53.3287882363
 10
33.4581839464
 20
-53.2351354454
 10
33.4470138737
 20
-53.1377498481
 10
33.4356519394
 20
-53.0360303169
 10
33.4241277719
 20
-52.9299961702
 10
33.4124670162
 20
-52.8196205015
 10
33.4006327661
 20
-52.7042312976
 10
33.3886728607
 20
-52.5839584089
 10
33.3766094642
 20
-52.4586646809
 10
33.3643820253
 20
-52.3272755752
 10
33.3560640306
 20
-52.2351892428
  0
LINE
  5
365
100
AcDbEntity
  8
RACCORDO
100
AcDbLine
 62
250
  6
CONTINUOUS
 10
-38.2220393801
 20
51.1994971129
 11
33.7849628201
 21
0.2828575641
  0
LINE
  5
366
100
AcDbEntity
  8
RACCORDO
100
AcDbLine
 62
250
  6
CONTINUOUS
 10
33.9888599138
 20
0.2442585957
 11
47.9957273184
 21
-9.6600565188
  0
LINE
  5
367
100
AcDbEntity
  8
RACCORDO
100
AcDbLine
 62
250
  6
CONTINUOUS
 10
-51.6140304023
 20
62.6738418373
 11
48.784692756
 21
-8.3187761304
  0
LWPOLYLINE
  5
368
100
AcDbEntity
  8
RACCORDO
100
AcDbPolyline
 62
250
  6
CONTINUOUS
 90
97
 70
0
 10
33.9888599138
 20
-55.7667688548
 10
33.9343314818
 20
-55.2235598439
 10
33.8809477775
 20
-54.6794352301
 10
33.8287090076
 20
-54.1343971197
 10
33.7776153743
 20
-53.5884476227
 10
33.7276670755
 20
-53.0415888525
 10
33.6788643043
 20
-52.4938229255
 10
33.6312072497
 20
-51.9451519621
 10
33.5846960963
 20
-51.3955780862
 10
33.539331024
 20
-50.8451034256
 10
33.4951122085
 20
-50.2937301111
 10
33.452039821
 20
-49.7414602772
 10
33.4101140282
 20
-49.1882960615
 10
33.3693349923
 20
-48.6342396056
 10
33.3297028713
 20
-48.0792930541
 10
33.2912178186
 20
-47.5234585551
 10
33.253879983
 20
-46.9667382604
 10
33.2176895093
 20
-46.409134325
 10
33.1826465374
 20
-45.8506489074
 10
33.1487512031
 20
-45.2912841697
 10
33.1160036374
 20
-44.7310422771
 10
33.0844039673
 20
-44.1699253984
 10
33.053952315
 20
-43.6079357056
 10
33.0246487984
 20
-43.0450753742
 10
32.9964935309
 20
-42.4813465831
 10
32.9694866215
 20
-41.9167515146
 10
32.9436281749
 20
-41.3512923541
 10
32.918918291
 20
-40.7849712906
 10
32.8953570655
 20
-40.2177905163
 10
32.8729445896
 20
-39.6497522268
 10
32.8516809501
 20
-39.080858621
 10
32.8315662294
 20
-38.5111119011
 10
32.8126005052
 20
-37.9405142726
 10
32.7947838509
 20
-37.3690679444
 10
32.7781163357
 20
-36.7967751284
 10
32.7625980239
 20
-36.2236380402
 10
32.7482289756
 20
-35.6496588982
 10
32.7350092465
 20
-35.0748399245
 10
32.7229388878
 20
-34.4991833442
 10
32.7120179461
 20
-33.9226913856
 10
32.7022464637
 20
-33.3453662804
 10
32.6936244786
 20
-32.7672102634
 10
32.6861520239
 20
-32.1882255727
 10
32.6798291288
 20
-31.6084144495
 10
32.6746558176
 20
-31.0277791384
 10
32.6706321103
 20
-30.4463218869
 10
32.6677580226
 20
-29.864044946
 10
32.6660335656
 20
-29.2809505696
 10
32.6654587459
 20
-28.697041015
 10
32.6660335658
 20
-28.1123185424
 10
32.667758023
 20
-27.5267854153
 10
32.6706321109
 20
-26.9404439004
 10
32.6746558184
 20
-26.3532962675
 10
32.6798291298
 20
-25.7653447893
 10
32.6861520252
 20
-25.1765917419
 10
32.6936244801
 20
-24.5870394043
 10
32.7022464655
 20
-23.9966900588
 10
32.712017948
 20
-23.4055459905
 10
32.7229388899
 20
-22.813609488
 10
32.7350092489
 20
-22.2208828425
 10
32.7482289782
 20
-21.6273683484
 10
32.7625980267
 20
-21.0330683034
 10
32.7781163387
 20
-20.437985008
 10
32.7947838542
 20
-19.8421207658
 10
32.8126005086
 20
-19.2454778834
 10
32.831566233
 20
-18.6480586704
 10
32.851680954
 20
-18.0498654394
 10
32.8729445937
 20
-17.4509005061
 10
32.8953570698
 20
-16.8511661891
 10
32.9189182955
 20
-16.25066481
 10
32.9436281796
 20
-15.6493986934
 10
32.9694866265
 20
-15.0473701668
 10
32.9964935361
 20
-14.4445815607
 10
33.0246488037
 20
-13.8410352083
 10
33.0539523206
 20
-13.2367334462
 10
33.0844039731
 20
-12.6316786136
 10
33.1160036434
 20
-12.0258730526
 10
33.1487512093
 20
-11.4193191084
 10
33.1826465439
 20
-10.812019129
 10
33.217689516
 20
-10.2039754653
 10
33.2538799899
 20
-9.5951904709
 10
33.2912178257
 20
-8.9856665026
 10
33.3297028786
 20
-8.37540592
 10
33.3693349998
 20
-7.7644110853
 10
33.4101140359
 20
-7.1526843637
 10
33.452039829
 20
-6.5402281231
 10
33.4951122167
 20
-5.9270447344
 10
33.5393310324
 20
-5.3131365712
 10
33.5846961049
 20
-4.69850601
 10
33.6312072585
 20
-4.08315543
 10
33.6788643133
 20
-3.4670872135
 10
33.727667085
 20
-2.8503037413
 10
33.7776153845
 20
-2.2328074049
 10
33.8287090173
 20
-1.6146006072
 10
33.8809477852
 20
-0.9956857456
 10
33.9343314863
 20
-0.3760652118
 10
33.9888599138
 20
0.2442585957
  0
LINE
  5
369
100
AcDbEntity
  8
RACCORDO
100
AcDbLine
 62
250
  6
CONTINUOUS
 10
33.8757576713
 20
0.1059231462
 11
33.8996996279
 21
0.135842256
  0
LINE
  5
36A
100
AcDbEntity
  8
RACCORDO
100
AcDbLine
 62
250
  6
CONTINUOUS
 10
33.8996996279
 20
0.135842256
 11
33.9243432484
 21
0.1662502209
  0
LINE
  5
36B
100
AcDbEntity
  8
RACCORDO
100
AcDbLine
 62
250
  6
CONTINUOUS
 10
33.9243432484
 20
0.1662502209
 11
33.9496706137
 21
0.1971401447
  0
LWPOLYLINE
  5
36C
100
AcDbEntity
  8
RACCORDO
100
AcDbPolyline
 62
250
  6
CONTINUOUS
 90
3
 70
0
 10
33.9496706137
 20
0.1971401447
 10
33.975638211
 20
0.2284432601
 10
33.9888599138
 20
0.2442585956
  0
LINE
  5
36D
100
AcDbEntity
  8
RACCORDO
100
AcDbLine
 62
7
  6
CONTINUOUS
 10
-47.6630344752
 20
65.9951592381
 11
53.1727182786
 21
-5.3064853201
  0
LWPOLYLINE
  5
36E
100
AcDbEntity
  8
0
100
AcDbPolyline
 62
7
  6
CONTINUOUS
 90
6
 70
0
 10
39.6394142174
 20
-56.2202770845
 10
39.6505098504
 20
-56.349138614
 10
39.6623556874
 20
-56.4858310105
 10
39.6742726176
 20
-56.6224672752
 10
39.686260644
 20
-56.7590474422
 10
39.6983197666
 20
-56.8955715116
  0
LWPOLYLINE
  5
36F
100
AcDbEntity
  8
0
100
AcDbPolyline
 62
7
  6
CONTINUOUS
 90
10
 70
0
 10
39.4859513112
 20
-55.7400695507
 10
39.4974374998
 20
-55.8770448952
 10
39.5089947678
 20
-56.0139642666
 10
39.5206231153
 20
-56.1508276649
 10
39.5323225452
 20
-56.2876351242
 10
39.5440930545
 20
-56.4243866104
 10
39.5559346345
 20
-56.5610820212
 10
39.5678472822
 20
-56.6977213224
 10
39.5798310005
 20
-56.8343045482
 10
39.5918857895
 20
-56.9708316986
  0
LWPOLYLINE
  5
370
100
AcDbEntity
  8
0
100
AcDbPolyline
 62
7
  6
CONTINUOUS
 90
10
 70
0
 10
38.245540304
 20
-54.2628116384
 10
38.2624834162
 20
-54.4708814142
 10
38.279589976
 20
-54.6788227291
 10
38.2968599835
 20
-54.8866355832
 10
38.3142934487
 20
-55.0943200938
 10
38.3318903616
 20
-55.3018761436
 10
38.3496506923
 20
-55.50930338
 10
38.3675744309
 20
-55.7166016855
 10
38.3856615872
 20
-55.9237711778
 10
38.4039121614
 20
-56.1308118566
  0
LWPOLYLINE
  5
371
100
AcDbEntity
  8
0
100
AcDbPolyline
 62
7
  6
CONTINUOUS
 90
10
 70
0
 10
38.6415349507
 20
-54.5428221384
 10
38.6584780203
 20
-54.7508913941
 10
38.6755845367
 20
-54.9588321895
 10
38.6928545001
 20
-55.1666445247
 10
38.7102879202
 20
-55.3743285171
 10
38.7278847873
 20
-55.5818840493
 10
38.7456450713
 20
-55.7893107688
 10
38.7635687624
 20
-55.9966085581
 10
38.7816558705
 20
-56.2037775347
 10
38.7999063956
 20
-56.4108176986
  0
LWPOLYLINE
  5
372
100
AcDbEntity
  8
0
100
AcDbPolyline
 62
7
  6
CONTINUOUS
 90
10
 70
0
 10
38.7479120022
 20
-54.467602204
 10
38.7648611618
 20
-54.6756671906
 10
38.7819738271
 20
-54.8836036662
 10
38.799249998
 20
-55.0914116308
 10
38.8166896845
 20
-55.2990912019
 10
38.8342928767
 20
-55.5066422619
 10
38.8520595446
 20
-55.7140644581
 10
38.8699896783
 20
-55.9213576731
 10
38.8880832876
 20
-56.1285220242
 10
38.9063403727
 20
-56.3355575116
  0
LWPOLYLINE
  5
373
100
AcDbEntity
  8
0
100
AcDbPolyline
 62
7
  6
CONTINUOUS
 90
10
 70
0
 10
39.0375147482
 20
-54.8228221384
 10
39.0544583679
 20
-55.0308917831
 10
39.0715654344
 20
-55.2388329674
 10
39.0888359477
 20
-55.4466456916
 10
39.1062699179
 20
-55.6543300729
 10
39.1238673349
 20
-55.861885994
 10
39.1416281689
 20
-56.0693131024
 10
39.1595524099
 20
-56.2766112805
 10
39.1776400679
 20
-56.4837806459
 10
39.1958911428
 20
-56.6908211986
  0
LWPOLYLINE
  5
374
100
AcDbEntity
  8
RACCORDO
100
AcDbPolyline
 62
7
  6
CONTINUOUS
 90
83
 70
0
 10
33.2839920246
 20
-3.4159590953
 10
33.2698245779
 20
-3.6015505591
 10
33.2220682404
 20
-4.2369967887
 10
33.1755334646
 20
-4.8716832244
 10
33.1302203924
 20
-5.5056084054
 10
33.0861293265
 20
-6.1387685859
 10
33.0432605405
 20
-6.7711602592
 10
33.0016142708
 20
-7.4027803154
 10
32.9611906794
 20
-8.0336266876
 10
32.9219899194
 20
-8.6636974404
 10
32.8840121718
 20
-9.2929901738
 10
32.847257635
 20
-9.9215021236
 10
32.8117264857
 20
-10.5492308103
 10
32.7774188794
 20
-11.1761740743
 10
32.7443350128
 20
-11.8023289288
 10
32.7124751111
 20
-12.4276916641
 10
32.6818393786
 20
-13.052258725
 10
32.6524279151
 20
-13.6760285521
 10
32.6242407856
 20
-14.2990004325
 10
32.5972780789
 20
-14.9211733232
 10
32.5715400127
 20
-15.5425431515
 10
32.547026834
 20
-16.1631046698
 10
32.5237387368
 20
-16.7828533787
 10
32.5016757586
 20
-17.401788712
 10
32.4808379076
 20
-18.0199113252
 10
32.4612252404
 20
-18.6372209414
 10
32.4428379573
 20
-19.2537127553
 10
32.4256762718
 20
-19.8693806375
 10
32.4097403311
 20
-20.4842197952
 10
32.3950301548
 20
-21.0982300004
 10
32.3815457555
 20
-21.7114119787
 10
32.3692871918
 20
-22.3237651381
 10
32.3582545983
 20
-22.9352850324
 10
32.3484480989
 20
-23.5459666096
 10
32.3398677768
 20
-24.1558059872
 10
32.3325136689
 20
-24.76480206
 10
32.3263858159
 20
-25.372953952
 10
32.3214842725
 20
-25.9802600141
 10
32.3178091036
 20
-26.5867169088
 10
32.3153603626
 20
-27.1923212301
 10
32.3141380903
 20
-27.7970702078
 10
32.3141423206
 20
-28.4009616574
 10
32.3153730839
 20
-29.003993061
 10
32.3178304044
 20
-29.6061616867
 10
32.3215143029
 20
-30.2074653329
 10
32.326424802
 20
-30.8079022809
 10
32.3325619265
 20
-31.4074708985
 10
32.3399256811
 20
-32.0061678959
 10
32.3485160447
 20
-32.6039890783
 10
32.3583329831
 20
-33.2009306086
 10
32.3693765003
 20
-33.7969914453
 10
32.3816466295
 20
-34.3921715903
 10
32.3951434084
 20
-34.9864705717
 10
32.4098667841
 20
-35.5798839724
 10
32.4258166406
 20
-36.1724058871
 10
32.4429928616
 20
-36.7640315433
 10
32.461395458
 20
-37.3547608906
 10
32.4810244982
 20
-37.944595112
 10
32.5018800312
 20
-38.5335341586
 10
32.5239619381
 20
-39.1215732309
 10
32.5472700281
 20
-39.7087063919
 10
32.5718041371
 20
-40.2949291477
 10
32.5975642673
 20
-40.8802412122
 10
32.6245504662
 20
-41.4646429695
 10
32.6527627434
 20
-42.0481336577
 10
32.682200949
 20
-42.6307092433
 10
32.7128648876
 20
-43.2123652069
 10
32.7447544006
 20
-43.7930981099
 10
32.7778694392
 20
-44.3729066464
 10
32.8122099585
 20
-44.9517895075
 10
32.8477758828
 20
-45.529744818
 10
32.8845670715
 20
-46.106769716
 10
32.9225833797
 20
-46.6828614167
 10
32.9618246896
 20
-47.2580176512
 10
33.0022908666
 20
-47.8322359793
 10
33.0439817268
 20
-48.4055133706
 10
33.0868970768
 20
-48.9778468209
 10
33.1310368166
 20
-49.5492346572
 10
33.1764008989
 20
-50.1196758486
 10
33.2229892785
 20
-50.6891693089
 10
33.2708017035
 20
-51.2577114506
 10
33.3198378014
 20
-51.8252975033
 10
33.3560617689
 20
-52.2351638931
  0
LWPOLYLINE
  5
375
100
AcDbEntity
  8
RACCORDO
100
AcDbPolyline
 62
250
  6
CONTINUOUS
 90
80
 70
0
 10
33.2839917026
 20
-3.4159632996
 10
33.2894741334
 20
-3.345281646
 10
33.3017605203
 20
-3.1929019825
 10
33.3143195495
 20
-3.0448572637
 10
33.3269251616
 20
-2.9031941563
 10
33.3394257791
 20
-2.7688553271
 10
33.3518422833
 20
-2.6408990172
 10
33.3641925041
 20
-2.5185475923
 10
33.3764196455
 20
-2.4018723603
 10
33.3884830845
 20
-2.2908056882
 10
33.4004433359
 20
-2.1843605676
 10
33.4122781363
 20
-2.0824193936
 10
33.4239396886
 20
-1.9851040244
 10
33.4354651067
 20
-1.8917853676
 10
33.4468289128
 20
-1.8024423984
 10
33.4580013116
 20
-1.7171008693
 10
33.4690224695
 20
-1.6352008308
 10
33.4798673093
 20
-1.5567613286
 10
33.490517496
 20
-1.4817679634
 10
33.5010319871
 20
-1.4096094106
 10
33.5114150057
 20
-1.340149192
 10
33.5216313069
 20
-1.2735274714
 10
33.5316858399
 20
-1.2095471095
 10
33.5415669164
 20
-1.14819669
 10
33.5512582021
 20
-1.0894916644
 10
33.5607588438
 20
-1.033275102
 10
33.5700392473
 20
-0.9796423288
 10
33.5791030369
 20
-0.9285024334
 10
33.588002023
 20
-0.8794185984
 10
33.596731799
 20
-0.83235643
 10
33.605277915
 20
-0.7873537248
 10
33.6136812327
 20
-0.7440810462
 10
33.6219440908
 20
-0.7024867022
 10
33.6300498792
 20
-0.662625098
 10
33.6380133024
 20
-0.6243254291
 10
33.6458288509
 20
-0.5875836662
 10
33.653489571
 20
-0.552406427
 10
33.6610090675
 20
-0.5186386408
 10
33.6683817911
 20
-0.4862800799
 10
33.6756024904
 20
-0.4553333951
 10
33.6826861523
 20
-0.4256476114
 10
33.6896280236
 20
-0.3972217565
 10
33.6964235996
 20
-0.3700590235
 10
33.703089137
 20
-0.344014453
 10
33.7096199423
 20
-0.3190886932
 10
33.7160128505
 20
-0.2952830943
 10
33.7222873274
 20
-0.2724534924
 10
33.7284391821
 20
-0.2505998731
 10
33.7344661261
 20
-0.2297239747
 10
33.740391477
 20
-0.2096839571
 10
33.7462140069
 20
-0.1904716222
 10
33.7519298697
 20
-0.1720965517
 10
33.7575593977
 20
-0.1544432712
 10
33.7631103513
 20
-0.137481567
 10
33.7685710888
 20
-0.1212427179
 10
33.7739330641
 20
-0.1057034289
 10
33.7791970945
 20
-0.090859904
 10
33.7843582246
 20
-0.0767171919
 10
33.7893987076
 20
-0.0632654884
 10
33.7943082885
 20
-0.0505282058
 10
33.7990925206
 20
-0.0384835041
 10
33.8037571102
 20
-0.0270538214
 10
33.8082939198
 20
-0.0162511338
 10
33.8127068828
 20
-0.006064945
 10
33.8170202743
 20
0.0036161831
 10
33.8212306369
 20
0.0127936326
 10
33.825338261
 20
0.0214648813
 10
33.8293738542
 20
0.0297358315
 10
33.8333346757
 20
0.0376099881
 10
33.8372213328
 20
0.0450830831
 10
33.8410704901
 20
0.0522497482
 10
33.8448797294
 20
0.0591150691
 10
33.8486503987
 20
0.0656736236
 10
33.852425888
 20
0.0720047483
 10
33.8562034498
 20
0.0781151729
 10
33.8599859267
 20
0.083998341
 10
33.8638264018
 20
0.089714251
 10
33.8677434353
 20
0.0952833489
 10
33.8717202506
 20
0.1006861587
 10
33.8757576713
 20
0.1059231462
  0
LINE
  5
376
100
AcDbEntity
  8
RACCORDO
100
AcDbLine
 62
250
  6
CONTINUOUS
 10
53.1727182786
 20
-5.3064853201
 11
48.784692756
 21
-8.3187761304
  0
LWPOLYLINE
  5
377
100
AcDbEntity
  8
RACCORDO
100
AcDbPolyline
 62
250
  6
CONTINUOUS
 90
114
 70
0
 10
49.6320580151
 20
-9.7653191104
 10
49.6201602838
 20
-9.7717255308
 10
49.608122168
 20
-9.7780189088
 10
49.5959458039
 20
-9.7841981273
 10
49.5836333524
 20
-9.7902620899
 10
49.5711869985
 20
-9.7962097203
 10
49.558608951
 20
-9.802039963
 10
49.5459014421
 20
-9.8077517835
 10
49.5330667269
 20
-9.813344168
 10
49.5201070831
 20
-9.8188161242
 10
49.5070248106
 20
-9.8241666809
 10
49.493822231
 20
-9.8293948886
 10
49.4805016872
 20
-9.8344998196
 10
49.4670655432
 20
-9.8394805677
 10
49.4535161835
 20
-9.8443362492
 10
49.4398560126
 20
-9.8490660024
 10
49.4260874546
 20
-9.8536689878
 10
49.412212953
 20
-9.8581443886
 10
49.39823497
 20
-9.8624914106
 10
49.3841559862
 20
-9.8667092824
 10
49.3699785001
 20
-9.8707972554
 10
49.3557050277
 20
-9.8747546041
 10
49.3413381021
 20
-9.8785806263
 10
49.3268802728
 20
-9.882274643
 10
49.3123341057
 20
-9.8858359986
 10
49.297702182
 20
-9.8892640612
 10
49.2829870985
 20
-9.8925582223
 10
49.2681914666
 20
-9.8957178974
 10
49.253317912
 20
-9.8987425257
 10
49.2383690741
 20
-9.9016315704
 10
49.2233476059
 20
-9.904384519
 10
49.2082561732
 20
-9.9070008827
 10
49.1930974541
 20
-9.9094801974
 10
49.1778741387
 20
-9.911822023
 10
49.1625889287
 20
-9.9140259439
 10
49.1472445366
 20
-9.916091569
 10
49.1318436856
 20
-9.9180185318
 10
49.1163891086
 20
-9.9198064902
 10
49.1008835484
 20
-9.921455127
 10
49.0853297566
 20
-9.9229641496
 10
49.0697304935
 20
-9.9243332903
 10
49.0540885274
 20
-9.9255623059
 10
49.0384066341
 20
-9.9266509784
 10
49.0226875966
 20
-9.9275991147
 10
49.0069342046
 20
-9.9284065465
 10
48.9911492536
 20
-9.9290731304
 10
48.975335545
 20
-9.9295987482
 10
48.959495885
 20
-9.9299833065
 10
48.9436330848
 20
-9.9302267373
 10
48.9277499593
 20
-9.9303289972
 10
48.9118493272
 20
-9.930290068
 10
48.8959340103
 20
-9.9301099568
 10
48.8800068331
 20
-9.9297886955
 10
48.864070622
 20
-9.9293263411
 10
48.8481282051
 20
-9.9287229756
 10
48.8321824116
 20
-9.9279787061
 10
48.8162360715
 20
-9.9270936647
 10
48.8002920144
 20
-9.9260680085
 10
48.7843530701
 20
-9.9249019195
 10
48.7684220669
 20
-9.9235956045
 10
48.7525018322
 20
-9.9221492955
 10
48.7365951912
 20
-9.9205632492
 10
48.7207049668
 20
-9.9188377469
 10
48.7048339788
 20
-9.9169730948
 10
48.6889850439
 20
-9.914969624
 10
48.6731609747
 20
-9.9128276899
 10
48.6573645793
 20
-9.9105476727
 10
48.641598661
 20
-9.908129977
 10
48.6258660178
 20
-9.9055750318
 10
48.6101694416
 20
-9.9028832905
 10
48.594511718
 20
-9.9000552309
 10
48.5788956257
 20
-9.8970913548
 10
48.563323936
 20
-9.8939921882
 10
48.5477994123
 20
-9.8907582811
 10
48.5323248096
 20
-9.8873902073
 10
48.5169028741
 20
-9.8838885647
 10
48.5015363428
 20
-9.8802539746
 10
48.4862279425
 20
-9.876487082
 10
48.4709803899
 20
-9.8725885554
 10
48.4557963911
 20
-9.8685590867
 10
48.4406786405
 20
-9.8643993909
 10
48.4256298211
 20
-9.8601102063
 10
48.4106526034
 20
-9.855692294
 10
48.3957496455
 20
-9.8511464381
 10
48.3809235919
 20
-9.8464734452
 10
48.3661770739
 20
-9.8416741447
 10
48.3515127084
 20
-9.8367493882
 10
48.3369330978
 20
-9.8317000498
 10
48.3224408294
 20
-9.8265270255
 10
48.3080384752
 20
-9.8212312333
 10
48.293728591
 20
-9.8158136131
 10
48.2795137163
 20
-9.8102751262
 10
48.2653963738
 20
-9.8046167557
 10
48.2513790687
 20
-9.7988395055
 10
48.2374642886
 20
-9.792944401
 10
48.223654503
 20
-9.7869324884
 10
48.2099521625
 20
-9.7808048345
 10
48.1963596988
 20
-9.7745625268
 10
48.1828795242
 20
-9.7682066731
 10
48.1695140308
 20
-9.7617384013
 10
48.1562655905
 20
-9.7551588593
 10
48.1431365545
 20
-9.7484692147
 10
48.1301292528
 20
-9.7416706547
 10
48.1172459935
 20
-9.7347643858
 10
48.1044890631
 20
-9.7277516336
 10
48.0918607255
 20
-9.7206336427
 10
48.0793632216
 20
-9.7134116762
 10
48.0669987695
 20
-9.7060870157
 10
48.0547695633
 20
-9.6986609611
 10
48.0426777733
 20
-9.6911348304
 10
48.0307255453
 20
-9.683509959
 10
48.0189150004
 20
-9.6757877002
 10
48.0072482347
 20
-9.6679694243
 10
47.9957273184
 20
-9.6600565188
  0
LWPOLYLINE
  5
378
100
AcDbEntity
  8
RACCORDO
100
AcDbPolyline
 62
250
  6
CONTINUOUS
 90
13
 70
0
 10
33.8757576711
 20
0.1059231461
 10
33.8691582556
 20
0.1212091611
 10
33.8623783988
 20
0.136406406
 10
33.8554194126
 20
0.15151194
 10
33.8482826436
 20
0.1665228402
 10
33.8409694729
 20
0.1814362017
 10
33.8334813155
 20
0.1962491387
 10
33.8258196206
 20
0.2109587849
 10
33.8179858707
 20
0.2255622937
 10
33.8099815817
 20
0.2400568393
 10
33.8018083025
 20
0.2544396169
 10
33.7934676146
 20
0.2687078433
 10
33.7849611322
 20
0.2828587575
  0
LWPOLYLINE
  5
379
100
AcDbEntity
  8
0
100
AcDbPolyline
 62
7
  6
CONTINUOUS
 90
10
 70
0
 10
40.6307140564
 20
-56.5495390507
 10
40.6422007951
 20
-56.6865147842
 10
40.6537586131
 20
-56.8234345445
 10
40.6653875107
 20
-56.9602983317
 10
40.6770874905
 20
-57.0971061799
 10
40.6888585498
 20
-57.233858055
 10
40.7007006798
 20
-57.3705538546
 10
40.7126138774
 20
-57.5071935447
 10
40.7245981456
 20
-57.6437771594
 10
40.7366534845
 20
-57.7803046986
  0
LWPOLYLINE
  5
37A
100
AcDbEntity
  8
0
100
AcDbPolyline
 62
7
  6
CONTINUOUS
 90
10
 70
0
 10
40.9742717366
 20
-56.1923161384
 10
40.9912153563
 20
-56.4003857831
 10
41.0083224228
 20
-56.6083269674
 10
41.0255929361
 20
-56.8161396916
 10
41.0430269063
 20
-57.0238240729
 10
41.0606243233
 20
-57.231379994
 10
41.0783851573
 20
-57.4388071024
 10
41.0963093983
 20
-57.6461052805
 10
41.1143970562
 20
-57.8532746459
 10
41.1326481312
 20
-58.0603151986
  0
LWPOLYLINE
  5
37B
100
AcDbEntity
  8
0
100
AcDbPolyline
 62
7
  6
CONTINUOUS
 90
10
 70
0
 10
41.080648788
 20
-56.117096204
 10
41.0975984978
 20
-56.3251615796
 10
41.1147117131
 20
-56.5330984442
 10
41.1319884341
 20
-56.7409067977
 10
41.1494286706
 20
-56.9485867576
 10
41.1670324128
 20
-57.1561382066
 10
41.1847996306
 20
-57.3635607917
 10
41.2027303141
 20
-57.5708543954
 10
41.2208244734
 20
-57.7780191354
 10
41.2390821083
 20
-57.9850550116
  0
LWPOLYLINE
  5
37C
100
AcDbEntity
  8
0
100
AcDbPolyline
 62
7
  6
CONTINUOUS
 90
10
 70
0
 10
43.1696872992
 20
-57.7447049569
 10
43.1866309151
 20
-57.9527746041
 10
43.2037379779
 20
-58.1607157911
 10
43.2210084876
 20
-58.3685285178
 10
43.2384424541
 20
-58.5762129018
 10
43.2560398674
 20
-58.7837688255
 10
43.2738006977
 20
-58.9911959365
 10
43.291724935
 20
-59.1984941172
 10
43.3098125892
 20
-59.4056634853
 10
43.3280636604
 20
-59.6127040406
  0
LINE
  5
37D
100
AcDbEntity
  8
RACCORDO
100
AcDbLine
 62
250
  6
CONTINUOUS
 10
54.0200835377
 20
-6.7530283001
 11
49.6320580195
 21
-9.7653191073
  0
LINE
  5
37E
100
AcDbEntity
  8
RACCORDO
100
AcDbLine
 62
250
  6
CONTINUOUS
 10
-36.6636507509
 20
39.3848590292
 11
-36.6556778255
 21
39.3865825017
  0
LINE
  5
37F
100
AcDbEntity
  8
RACCORDO
100
AcDbLine
 62
250
  6
CONTINUOUS
 10
-36.6715389
 20
39.3832242041
 11
-36.6636507509
 21
39.3848590292
  0
LWPOLYLINE
  5
380
100
AcDbEntity
  8
RACCORDO
100
AcDbPolyline
 62
250
  6
CONTINUOUS
 90
121
 70
0
 10
49.6320580151
 20
-9.7653191104
 10
49.6313804699
 20
-9.7545809889
 10
49.6305659391
 20
-9.7437369552
 10
49.6296145587
 20
-9.7327888586
 10
49.6285264851
 20
-9.7217385381
 10
49.6273019032
 20
-9.7105879056
 10
49.6259410298
 20
-9.6993389479
 10
49.6244441015
 20
-9.6879936162
 10
49.6228113704
 20
-9.6765538178
 10
49.6210431144
 20
-9.6650215007
 10
49.6191396347
 20
-9.6533986302
 10
49.6171012566
 20
-9.6416871942
 10
49.6149283291
 20
-9.6298891981
 10
49.6126212234
 20
-9.6180066581
 10
49.6101803333
 20
-9.6060416012
 10
49.6076060755
 20
-9.5939960703
 10
49.6048988893
 20
-9.5818721217
 10
49.6020592372
 20
-9.5696718259
 10
49.599087604
 20
-9.5573972665
 10
49.5959844973
 20
-9.5450505397
 10
49.5927504469
 20
-9.5326337532
 10
49.5893860049
 20
-9.5201490272
 10
49.5858917458
 20
-9.5075984933
 10
49.5822682661
 20
-9.4949842946
 10
49.5785161848
 20
-9.4823085849
 10
49.5746361423
 20
-9.4695735286
 10
49.5706288012
 20
-9.4567813001
 10
49.5664948458
 20
-9.4439340836
 10
49.5622349819
 20
-9.4310340729
 10
49.5578499369
 20
-9.4180834705
 10
49.5533404595
 20
-9.4050844877
 10
49.5487073196
 20
-9.3920393441
 10
49.5439513085
 20
-9.3789502671
 10
49.5390732381
 20
-9.3658194917
 10
49.5340739414
 20
-9.3526492598
 10
49.528954272
 20
-9.3394418202
 10
49.5237151041
 20
-9.3261994282
 10
49.5183573322
 20
-9.3129243448
 10
49.5128818712
 20
-9.2996188367
 10
49.507289656
 20
-9.2862851757
 10
49.5015816414
 20
-9.2729256387
 10
49.4957588021
 20
-9.2595425067
 10
49.4898221324
 20
-9.2461380648
 10
49.4837726458
 20
-9.2327146018
 10
49.4776113754
 20
-9.2192744098
 10
49.4713393731
 20
-9.2058197836
 10
49.4649577099
 20
-9.1923530206
 10
49.4584674754
 20
-9.1788764202
 10
49.4518697779
 20
-9.1653922835
 10
49.4451657439
 20
-9.1519029129
 10
49.438356518
 20
-9.1384106117
 10
49.431443263
 20
-9.1249176837
 10
49.4244271592
 20
-9.1114264328
 10
49.4173094047
 20
-9.0979391625
 10
49.4100912148
 20
-9.0844581758
 10
49.4027738219
 20
-9.0709857746
 10
49.3953584756
 20
-9.0575242592
 10
49.3878464419
 20
-9.0440759282
 10
49.3802390036
 20
-9.0306430778
 10
49.3725374596
 20
-9.0172280017
 10
49.3647431248
 20
-9.0038329905
 10
49.3568573303
 20
-8.9904603313
 10
49.3488814224
 20
-8.9771123076
 10
49.340816763
 20
-8.9637911984
 10
49.3326647293
 20
-8.9504992783
 10
49.324426713
 20
-8.9372388169
 10
49.3161041208
 20
-8.9240120783
 10
49.3076983738
 20
-8.9108213212
 10
49.2992109073
 20
-8.8976687976
 10
49.2906431705
 20
-8.8845567534
 10
49.2819966263
 20
-8.8714874275
 10
49.273272751
 20
-8.8584630513
 10
49.2644730343
 20
-8.8454858489
 10
49.2555989788
 20
-8.832558036
 10
49.2466520995
 20
-8.8196818201
 10
49.2376339243
 20
-8.8068593997
 10
49.2285459929
 20
-8.7940929642
 10
49.219389857
 20
-8.7813846934
 10
49.2101670802
 20
-8.7687367574
 10
49.2008792371
 20
-8.7561513157
 10
49.1915279136
 20
-8.7436305172
 10
49.1821147064
 20
-8.7311764998
 10
49.1726412229
 20
-8.7187913901
 10
49.1631090806
 20
-8.7064773028
 10
49.1535199071
 20
-8.6942363404
 10
49.1438753397
 20
-8.6820705932
 10
49.1341770253
 20
-8.6699821383
 10
49.1244266198
 20
-8.6579730399
 10
49.114625788
 20
-8.6460453485
 10
49.1047762034
 20
-8.6342011007
 10
49.094879548
 20
-8.622442319
 10
49.0849375113
 20
-8.610771011
 10
49.0749517911
 20
-8.5991891697
 10
49.0649240925
 20
-8.5876987726
 10
49.0548561275
 20
-8.5763017818
 10
49.0447496153
 20
-8.5650001431
 10
49.0346062816
 20
-8.5537957864
 10
49.0244278583
 20
-8.5426906247
 10
49.0142160833
 20
-8.5316865543
 10
49.0039727004
 20
-8.5207854541
 10
48.9936994585
 20
-8.5099891854
 10
48.9833981118
 20
-8.4992995917
 10
48.9730704192
 20
-8.4887184981
 10
48.9627181441
 20
-8.4782477115
 10
48.9523430542
 20
-8.4678890196
 10
48.9419469211
 20
-8.4576441911
 10
48.9315315197
 20
-8.4475149755
 10
48.9210986286
 20
-8.4375031022
 10
48.9106500291
 20
-8.4276102807
 10
48.9001875054
 20
-8.4178382002
 10
48.8897128438
 20
-8.4081885292
 10
48.8792278328
 20
-8.3986629155
 10
48.8687342629
 20
-8.3892629855
 10
48.8582339257
 20
-8.3799903443
 10
48.8477286142
 20
-8.370846575
 10
48.8372201222
 20
-8.3618332391
 10
48.8267102439
 20
-8.3529518756
 10
48.8162007739
 20
-8.3442040008
 10
48.8056935066
 20
-8.3355911084
 10
48.7951902362
 20
-8.3271146692
 10
48.784692756
 20
-8.3187761304
  0
LWPOLYLINE
  5
381
100
AcDbEntity
  8
RACCORDO
100
AcDbPolyline
 62
250
  6
CONTINUOUS
 90
93
 70
0
 10
47.9251452024
 20
-10.2902964169
 10
47.8672196607
 20
-10.9278381077
 10
47.8105778985
 20
-11.5646728223
 10
47.7552201217
 20
-12.2007979795
 10
47.7011465642
 20
-12.8362108929
 10
47.6483574868
 20
-13.4709087714
 10
47.5968530966
 20
-14.1048889894
 10
47.5466335937
 20
-14.7381489253
 10
47.4976992189
 20
-15.3706857997
 10
47.4500501661
 20
-16.0024969564
 10
47.4036866162
 20
-16.6335798248
 10
47.3586087811
 20
-17.26393176
 10
47.3148168405
 20
-17.8935500971
 10
47.2723109585
 20
-18.5224322938
 10
47.2310913176
 20
-19.1505758944
 10
47.1911580797
 20
-19.7779782838
 10
47.1525113979
 20
-20.4046368883
 10
47.1151514352
 20
-21.030549318
 10
47.0790783364
 20
-21.6557130194
 10
47.0442922441
 20
-22.2801253752
 10
47.0107933109
 20
-22.9037839043
 10
46.9785816672
 20
-23.5266860695
 10
46.9476574408
 20
-24.1488292562
 10
46.9180207737
 20
-24.7702108714
 10
46.8896717823
 20
-25.390828359
 10
46.8626105775
 20
-26.0106791437
 10
46.8368372845
 20
-26.6297606093
 10
46.8123520052
 20
-27.2480701838
 10
46.7891548339
 20
-27.8656053287
 10
46.7672458757
 20
-28.4823634828
 10
46.7466252174
 20
-29.0983420838
 10
46.7272929377
 20
-29.7135386039
 10
46.7092491229
 20
-30.3279505398
 10
46.692493844
 20
-30.9415753519
 10
46.6770271656
 20
-31.55441051
 10
46.6628491563
 20
-32.1664535288
 10
46.6499598723
 20
-32.7777018878
 10
46.6383593632
 20
-33.3881530581
 10
46.628047681
 20
-33.997804547
 10
46.6190248669
 20
-34.6066538443
 10
46.6112909554
 20
-35.2146984314
 10
46.6048459814
 20
-35.8219358085
 10
46.599689971
 20
-36.4283634714
 10
46.5958229436
 20
-37.0339789167
 10
46.5932449167
 20
-37.6387796506
 10
46.5919559011
 20
-38.2427631785
 10
46.5919559011
 20
-38.8459270086
 10
46.5932449167
 20
-39.4482686568
 10
46.5958229436
 20
-40.0497856396
 10
46.599689971
 20
-40.6504754754
 10
46.6048459814
 20
-41.2503356886
 10
46.6112909553
 20
-41.8493638054
 10
46.6190248669
 20
-42.447557356
 10
46.628047681
 20
-43.0449138768
 10
46.6383593631
 20
-43.6414309003
 10
46.6499598722
 20
-44.2371059722
 10
46.6628491563
 20
-44.8319366532
 10
46.6770271655
 20
-45.425920487
 10
46.692493844
 20
-46.01905503
 10
46.7092491228
 20
-46.6113378679
 10
46.7272929376
 20
-47.2027665634
 10
46.7466252173
 20
-47.7933386755
 10
46.7672458757
 20
-48.3830517895
 10
46.7891548338
 20
-48.9719034916
 10
46.8123520052
 20
-49.5598913395
 10
46.8368372844
 20
-50.1470128808
 10
46.8626105774
 20
-50.7332657125
 10
46.8896717822
 20
-51.3186474043
 10
46.9180207736
 20
-51.9031554699
 10
46.9476574407
 20
-52.486787493
 10
46.9785816671
 20
-53.0695410799
 10
47.0107933108
 20
-53.6514137843
 10
47.044292244
 20
-54.2324031743
 10
47.0790783364
 20
-54.8125068951
 10
47.1151514351
 20
-55.3917226217
 10
47.1525113978
 20
-55.9700479402
 10
47.1911580795
 20
-56.5474805002
 10
47.2310913174
 20
-57.1240180769
 10
47.2723109584
 20
-57.6996583156
 10
47.3148168403
 20
-58.274398828
 10
47.3586087809
 20
-58.8482373444
 10
47.4036866159
 20
-59.4211715578
 10
47.4500501659
 20
-59.9931990541
 10
47.4976992186
 20
-60.5643174082
 10
47.5466335935
 20
-61.1345243082
 10
47.5968530963
 20
-61.7038173691
 10
47.6483574866
 20
-62.2721940633
 10
47.701146564
 20
-62.8396520545
 10
47.7552201215
 20
-63.4061890078
 10
47.8105778984
 20
-63.9718024044
 10
47.8672196607
 20
-64.5364898568
 10
47.9251452024
 20
-65.1002491071
 10
47.9843542962
 20
-65.6630778387
  0
LWPOLYLINE
  5
382
100
AcDbEntity
  8
RACCORDO
100
AcDbPolyline
 62
250
  6
CONTINUOUS
 90
97
 70
0
 10
49.6320580195
 20
-9.7653191073
 10
49.5748354889
 20
-10.3818594505
 10
49.5188146
 20
-10.9977368435
 10
49.463995353
 20
-11.6129512863
 10
49.4103775166
 20
-12.227505467
 10
49.357961322
 20
-12.8413966975
 10
49.3067474624
 20
-13.4546169137
 10
49.2567359774
 20
-14.0671658423
 10
49.2079268274
 20
-14.6790437565
 10
49.1603205871
 20
-15.2902434117
 10
49.1139172731
 20
-15.9007647781
 10
49.0687168688
 20
-16.5106078855
 10
49.024719899
 20
-17.1197655791
 10
48.9819263816
 20
-17.7282377946
 10
48.9403362986
 20
-18.3360245963
 10
48.8999501214
 20
-18.9431190223
 10
48.8607678645
 20
-19.5495210395
 10
48.8227895133
 20
-20.1552306811
 10
48.7860154951
 20
-20.7602410843
 10
48.7504458215
 20
-21.3645522626
 10
48.7160804809
 20
-21.9681642026
 10
48.6829198657
 20
-22.5710700013
 10
48.6509639873
 20
-23.1732696906
 10
48.6202128343
 20
-23.7747632388
 10
48.5906667646
 20
-24.3755436472
 10
48.5623257918
 20
-24.9756109241
 10
48.5351899024
 20
-25.5749650614
 10
48.5092594138
 20
-26.173599036
 10
48.4845343409
 20
-26.7715128307
 10
48.4610146688
 20
-27.3687064627
 10
48.4387006708
 20
-27.9651729605
 10
48.4175923617
 20
-28.5609122979
 10
48.3976897265
 20
-29.1559245011
 10
48.3789929945
 20
-29.7502026766
 10
48.3615021796
 20
-30.3437468096
 10
48.3452172677
 20
-30.9365569149
 10
48.330138446
 20
-31.5286261443
 10
48.3162657281
 20
-32.1199544916
 10
48.3035991003
 20
-32.7105419628
 10
48.2921387086
 20
-33.3003817277
 10
48.2818845667
 20
-33.8894737836
 10
48.2728366609
 20
-34.4778181331
 10
48.2649950959
 20
-35.0654079537
 10
48.2583598856
 20
-35.6522432388
 10
48.2529310161
 20
-36.2383239949
 10
48.2487085504
 20
-36.8236434191
 10
48.2456925024
 20
-37.4082015027
 10
48.2438828581
 20
-37.9919982543
 10
48.2432796385
 20
-38.5750268972
 10
48.2438828576
 20
-39.1572874225
 10
48.2456925015
 20
-39.7387798391
 10
48.248708549
 20
-40.3194973971
 10
48.2529310143
 20
-40.8994400873
 10
48.2583598834
 20
-41.4786079187
 10
48.2649950932
 20
-42.0569941687
 10
48.2728366578
 20
-42.6345988259
 10
48.2818845631
 20
-43.2114219015
 10
48.2921387045
 20
-43.7874567065
 10
48.3035990958
 20
-44.3627032257
 10
48.3162657231
 20
-44.9371614742
 10
48.3301384406
 20
-45.5108248073
 10
48.3452172618
 20
-46.0836932138
 10
48.3615021732
 20
-46.6557667048
 10
48.3789929876
 20
-47.2270386703
 10
48.3976897192
 20
-47.7975091073
 10
48.4175923538
 20
-48.3671780187
 10
48.4387006625
 20
-48.9360388029
 10
48.46101466
 20
-49.5040914671
 10
48.4845343316
 20
-50.0713360042
 10
48.509259404
 20
-50.6377657904
 10
48.5351898921
 20
-51.2033808243
 10
48.562325781
 20
-51.7681811074
 10
48.5906667533
 20
-52.332160021
 10
48.6202128225
 20
-52.8953175398
 10
48.6509639751
 20
-53.4576536891
 10
48.682919853
 20
-54.0191619262
 10
48.7160804678
 20
-54.5798422044
 10
48.7504458079
 20
-55.1396945704
 10
48.786015481
 20
-55.6987126205
 10
48.8227894987
 20
-56.2568963265
 10
48.8607678493
 20
-56.8142457166
 10
48.8999501056
 20
-57.3707544724
 10
48.9403362822
 20
-57.9264226083
 10
48.9819263645
 20
-58.48125011
 10
49.0247198813
 20
-59.0352306158
 10
49.0687168504
 20
-59.5883641677
 10
49.1139172541
 20
-60.1406507238
 10
49.1603205675
 20
-60.6920837974
 10
49.207926807
 20
-61.2426633961
 10
49.2567359562
 20
-61.7923895123
 10
49.3067474408
 20
-62.341255637
 10
49.3579612999
 20
-62.8892619891
 10
49.4103774944
 20
-63.4364083496
 10
49.4639953327
 20
-63.9826875527
 10
49.5188145843
 20
-64.5280972098
 10
49.5748354798
 20
-65.0726397094
 10
49.632058019
 20
-65.6163150516
  0
LWPOLYLINE
  5
383
100
AcDbEntity
  8
RACCORDO
100
AcDbPolyline
 62
250
  6
CONTINUOUS
 90
109
 70
0
 10
47.9251452024
 20
-10.2902964169
 10
47.9854827136
 20
-9.6401216351
 10
47.9867577904
 20
-9.6281050236
 10
47.9881793051
 20
-9.6160026427
 10
47.9897470106
 20
-9.6038165962
 10
47.9914606342
 20
-9.5915490027
 10
47.9933198781
 20
-9.5792019949
 10
47.9953244191
 20
-9.5667777192
 10
47.9974739087
 20
-9.5542783355
 10
47.9997679732
 20
-9.5417060169
 10
48.0022062138
 20
-9.5290629488
 10
48.0047882066
 20
-9.5163513294
 10
48.0075135027
 20
-9.5035733684
 10
48.0103816284
 20
-9.4907312873
 10
48.013392085
 20
-9.4778273186
 10
48.0165443493
 20
-9.4648637055
 10
48.0198378731
 20
-9.4518427018
 10
48.023272084
 20
-9.4387665711
 10
48.0268463849
 20
-9.4256375866
 10
48.0305601544
 20
-9.4124580308
 10
48.0344127468
 20
-9.3992301949
 10
48.0384034926
 20
-9.3859563784
 10
48.0425316978
 20
-9.372638889
 10
48.0467966448
 20
-9.3592800418
 10
48.0511975922
 20
-9.3458821593
 10
48.0557337748
 20
-9.3324475705
 10
48.0604044041
 20
-9.3189786111
 10
48.0652086681
 20
-9.3054776226
 10
48.0701457316
 20
-9.291946952
 10
48.0752147364
 20
-9.2783889516
 10
48.0804148011
 20
-9.2648059784
 10
48.0857450218
 20
-9.2512003938
 10
48.0912044718
 20
-9.237574563
 10
48.0967922021
 20
-9.2239308548
 10
48.1025072413
 20
-9.2102716411
 10
48.1083485957
 20
-9.1965992966
 10
48.1143152499
 20
-9.182916198
 10
48.1204061667
 20
-9.1692247241
 10
48.1266202871
 20
-9.1555272552
 10
48.1329565309
 20
-9.1418261725
 10
48.1394137965
 20
-9.1281238579
 10
48.1459909614
 20
-9.1144226934
 10
48.1526868821
 20
-9.100725061
 10
48.1595003946
 20
-9.0870333419
 10
48.1664303144
 20
-9.0733499163
 10
48.1734754367
 20
-9.0596771632
 10
48.1806345368
 20
-9.0460174593
 10
48.1879063701
 20
-9.0323731795
 10
48.1952896725
 20
-9.0187466957
 10
48.2027831603
 20
-9.0051403767
 10
48.2103855308
 20
-8.9915565881
 10
48.2180954625
 20
-8.9779976913
 10
48.225911615
 20
-8.9644660435
 10
48.2338326295
 20
-8.950963997
 10
48.2418571288
 20
-8.9374938992
 10
48.2499837181
 20
-8.9240580917
 10
48.2582109846
 20
-8.9106589104
 10
48.2665374979
 20
-8.8972986846
 10
48.2749618105
 20
-8.8839797369
 10
48.283482458
 20
-8.8707043829
 10
48.292097959
 20
-8.8574749302
 10
48.3008068157
 20
-8.8442936789
 10
48.3096075142
 20
-8.8311629204
 10
48.3184985245
 20
-8.8180849375
 10
48.327478301
 20
-8.8050620037
 10
48.3365452824
 20
-8.792096383
 10
48.3456978927
 20
-8.7791903294
 10
48.3549345406
 20
-8.7663460865
 10
48.3642536203
 20
-8.7535658874
 10
48.3736535119
 20
-8.7408519537
 10
48.3831325812
 20
-8.7282064958
 10
48.3926891802
 20
-8.715631712
 10
48.4023216476
 20
-8.7031297884
 10
48.4120283089
 20
-8.6907028983
 10
48.4218074765
 20
-8.6783532022
 10
48.4316574504
 20
-8.6660828469
 10
48.4415765183
 20
-8.6538939657
 10
48.4515629557
 20
-8.6417886775
 10
48.4616150266
 20
-8.6297690868
 10
48.4717309834
 20
-8.6178372831
 10
48.4819090675
 20
-8.6059953408
 10
48.4921475095
 20
-8.5942453184
 10
48.5024445295
 20
-8.5825892587
 10
48.5127983374
 20
-8.5710291881
 10
48.5232071332
 20
-8.5595671161
 10
48.5336691075
 20
-8.5482050355
 10
48.5441824413
 20
-8.5369449215
 10
48.5547453071
 20
-8.5257887316
 10
48.5653558686
 20
-8.5147384053
 10
48.576012281
 20
-8.5037958636
 10
48.5867126919
 20
-8.4929630089
 10
48.5974552411
 20
-8.4822417243
 10
48.6082380609
 20
-8.4716338738
 10
48.6190592769
 20
-8.4611413014
 10
48.6299170078
 20
-8.4507658313
 10
48.640809366
 20
-8.4405092672
 10
48.651734458
 20
-8.4303733921
 10
48.6626903845
 20
-8.4203599682
 10
48.6736752408
 20
-8.4104707362
 10
48.6846871172
 20
-8.4007074153
 10
48.6957240995
 20
-8.3910717028
 10
48.7067842688
 20
-8.3815652739
 10
48.7178657024
 20
-8.3721897812
 10
48.7289664738
 20
-8.3629468545
 10
48.7400846533
 20
-8.3538381009
 10
48.7512183079
 20
-8.3448651037
 10
48.7623655022
 20
-8.3360294229
 10
48.7735242982
 20
-8.3273325945
 10
48.784692756
 20
-8.3187761304
  0
LINE
  5
384
100
AcDbEntity
  8
RACCORDO
100
AcDbLine
 62
250
  6
CONTINUOUS
 10
-36.6017922529
 20
39.4000050023
 11
-36.5931870576
 21
39.4024196544
  0
LINE
  5
385
100
AcDbEntity
  8
RACCORDO
100
AcDbLine
 62
250
  6
CONTINUOUS
 10
-36.6103139386
 20
39.3976848513
 11
-36.6017922529
 21
39.4000050023
  0
LINE
  5
386
100
AcDbEntity
  8
RACCORDO
100
AcDbLine
 62
250
  6
CONTINUOUS
 10
-36.6187518619
 20
39.3954586679
 11
-36.6103139386
 21
39.3976848513
  0
LINE
  5
387
100
AcDbEntity
  8
RACCORDO
100
AcDbLine
 62
250
  6
CONTINUOUS
 10
-36.6271056562
 20
39.3933256412
 11
-36.6187518619
 21
39.3954586679
  0
LINE
  5
388
100
AcDbEntity
  8
RACCORDO
100
AcDbLine
 62
250
  6
CONTINUOUS
 10
-36.6353749933
 20
39.3912849288
 11
-36.6271056562
 21
39.3933256412
  0
LWPOLYLINE
  5
389
100
AcDbEntity
  8
RACCORDO
100
AcDbPolyline
 62
7
  6
CONTINUOUS
 90
101
 70
0
 10
-36.0113705493
 20
39.8161625224
 10
-36.0115930313
 20
39.816109092
 10
-36.0116168041
 20
39.81610351
 10
-36.0115102103
 20
39.8161274182
 10
-36.011276065
 20
39.8161784414
 10
-36.0109158088
 20
39.8162545553
 10
-36.0104306865
 20
39.8163538039
 10
-36.0098228782
 20
39.8164740727
 10
-36.0090936813
 20
39.8166134603
 10
-36.0082442351
 20
39.8167701189
 10
-36.0072761565
 20
39.8169421367
 10
-36.0061906766
 20
39.8171276989
 10
-36.0049888006
 20
39.8173250491
 10
-36.0036714903
 20
39.8175324531
 10
-36.002239822
 20
39.8177481734
 10
-36.0006947274
 20
39.8179705107
 10
-35.9990366427
 20
39.8181978442
 10
-35.9972665859
 20
39.8184284787
 10
-35.9953853622
 20
39.8186607593
 10
-35.9933927977
 20
39.8188931508
 10
-35.9912898197
 20
39.819123982
 10
-35.9890771404
 20
39.8193516152
 10
-35.9867539744
 20
39.8195745561
 10
-35.9843211366
 20
39.8197911367
 10
-35.9817792781
 20
39.8199997096
 10
-35.9791270939
 20
39.8201987696
 10
-35.976365337
 20
39.8203866256
 10
-35.9734945775
 20
39.8205616014
 10
-35.9705129818
 20
39.8207221403
 10
-35.9674212075
 20
39.8208665074
 10
-35.9642198009
 20
39.8209929719
 10
-35.9609065326
 20
39.8210998785
 10
-35.9574820189
 20
39.8211854257
 10
-35.9539467715
 20
39.82124781
 10
-35.9502982059
 20
39.8212852411
 10
-35.9465368794
 20
39.821295831
 10
-35.9426633285
 20
39.821277684
 10
-35.9386747752
 20
39.8212288416
 10
-35.9345717158
 20
39.8211473118
 10
-35.9303547691
 20
39.821031093
 10
-35.9260212266
 20
39.8208780434
 10
-35.9215716246
 20
39.8206860582
 10
-35.9170066379
 20
39.8204530246
 10
-35.9123237071
 20
39.8201766138
 10
-35.9075234332
 20
39.819854604
 10
-35.9026065905
 20
39.8194847693
 10
-35.89757087
 20
39.8190646004
 10
-35.892416912
 20
39.8185917538
 10
-35.8871456818
 20
39.8180638981
 10
-35.8817553999
 20
39.8174783807
 10
-35.8762467174
 20
39.8168327369
 10
-35.8706208951
 20
39.8161245547
 10
-35.8648771748
 20
39.8153511348
 10
-35.859016548
 20
39.8145099575
 10
-35.8530403365
 20
39.813598535
 10
-35.8469484404
 20
39.8126141344
 10
-35.8407418354
 20
39.8115541479
 10
-35.8344223072
 20
39.810416092
 10
-35.8279911805
 20
39.809197397
 10
-35.8214492459
 20
39.8078953682
 10
-35.8147989898
 20
39.8065076347
 10
-35.8080445637
 20
39.8050322238
 10
-35.8011877035
 20
39.8034666911
 10
-35.794230566
 20
39.8018086903
 10
-35.7871782524
 20
39.8000566327
 10
-35.7800325688
 20
39.7982081922
 10
-35.7727961779
 20
39.7962612746
 10
-35.765475772
 20
39.7942149645
 10
-35.7580734729
 20
39.7920671983
 10
-35.7505921731
 20
39.7898161582
 10
-35.7430400112
 20
39.7874617328
 10
-35.7354197508
 20
39.7850023202
 10
-35.7277341255
 20
39.7824363479
 10
-35.7199914715
 20
39.7797642462
 10
-35.7121947365
 20
39.7769847878
 10
-35.7043468344
 20
39.7740967844
 10
-35.6964562292
 20
39.7711012374
 10
-35.6885250852
 20
39.7679969578
 10
-35.6805573552
 20
39.764783507
 10
-35.6725643137
 20
39.7614636364
 10
-35.664548144
 20
39.7580366198
 10
-35.656512923
 20
39.7545026025
 10
-35.6484728169
 20
39.7508664765
 10
-35.6404310094
 20
39.7471285934
 10
-35.6323905351
 20
39.7432893205
 10
-35.6243652789
 20
39.739354498
 10
-35.6163584022
 20
39.7353251487
 10
-35.6083727123
 20
39.7312022116
 10
-35.6004214042
 20
39.72699228
 10
-35.5925072813
 20
39.7226968797
 10
-35.5846330912
 20
39.7183176026
 10
-35.5768116922
 20
39.713861966
 10
-35.569045597
 20
39.7093320353
 10
-35.5613372512
 20
39.7047299318
 10
-35.5536990683
 20
39.7000640319
 10
-35.5461331724
 20
39.6953368681
 10
-35.5386416667
 20
39.6905510502
 10
-35.5312365105
 20
39.6857157868
 10
-35.523919314
 20
39.6808339664
 10
-35.5166918433
 20
39.6759086613
 10
-35.5095657878
 20
39.6709500099
  0
LINE
  5
38A
100
AcDbEntity
  8
RACCORDO
100
AcDbLine
 62
250
  6
CONTINUOUS
 10
-36.6435597143
 20
39.3893359517
 11
-36.6353749933
 21
39.3912849288
  0
LWPOLYLINE
  5
38B
100
AcDbEntity
  8
RACCORDO
100
AcDbPolyline
 62
250
  6
CONTINUOUS
 90
3
 70
0
 10
-36.6556778255
 20
39.3865825017
 10
-36.6516596307
 20
39.3874778212
 10
-36.6435597143
 20
39.3893359517
  0
LINE
  5
38C
100
AcDbEntity
  8
DRAFT
100
AcDbLine
 62
7
  6
CONTINUOUS
 10
52.5317541831
 20
-33.3697595562
 11
52.5317541831
 21
-38.3195070245
  0
LINE
  5
38D
100
AcDbEntity
  8
RACCORDO
100
AcDbLine
 62
7
  6
CONTINUOUS
 10
54.0200835377
 20
-63.0410538392
 11
54.0200835377
 21
-37.4956424583
  0
LINE
  5
38E
100
AcDbEntity
  8
RACCORDO
100
AcDbLine
 62
7
  6
CONTINUOUS
 10
54.0200835377
 20
-32.298439681
 11
54.0200835377
 21
-6.7530283001
  0
LWPOLYLINE
  5
38F
100
AcDbEntity
  8
RACCORDO
100
AcDbPolyline
 62
250
  6
CONTINUOUS
 90
51
 70
0
 10
49.6320580151
 20
-65.6163150539
 10
49.6313804468
 20
-65.627721339
 10
49.6305658911
 20
-65.6390180064
 10
49.6296144871
 20
-65.6502031273
 10
49.6285263972
 20
-65.6612747919
 10
49.6273018071
 20
-65.6722311096
 10
49.6259409261
 20
-65.6830702098
 10
49.6244439865
 20
-65.6937902416
 10
49.6228112438
 20
-65.7043893746
 10
49.6210429769
 20
-65.7148657992
 10
49.6191394877
 20
-65.7252177263
 10
49.6171011011
 20
-65.7354433885
 10
49.6149281653
 20
-65.7455410398
 10
49.6126210513
 20
-65.755508956
 10
49.610180153
 20
-65.7653454351
 10
49.6076058872
 20
-65.7750487975
 10
49.6048986934
 20
-65.7846173865
 10
49.6020590339
 20
-65.7940495681
 10
49.5990873935
 20
-65.8033437319
 10
49.5959842797
 20
-65.812498291
 10
49.5927502223
 20
-65.8215116822
 10
49.5893857735
 20
-65.8303823664
 10
49.5858915078
 20
-65.8391088291
 10
49.5822680218
 20
-65.8476895801
 10
49.5785159342
 20
-65.8561231545
 10
49.5746358858
 20
-65.8644081121
 10
49.5706285389
 20
-65.8725430383
 10
49.5664945778
 20
-65.880526544
 10
49.5622347084
 20
-65.8883572663
 10
49.5578496581
 20
-65.8960338678
 10
49.5533401757
 20
-65.903555038
 10
49.548707031
 20
-65.9109194925
 10
49.5439510151
 20
-65.9181259738
 10
49.5390729403
 20
-65.9251732516
 10
49.5340736393
 20
-65.9320601225
 10
49.5289539659
 20
-65.9387854106
 10
49.5237147941
 20
-65.9453479675
 10
49.5183570186
 20
-65.9517466727
 10
49.5128815542
 20
-65.9579804337
 10
49.5072893358
 20
-65.964048186
 10
49.5015813182
 20
-65.9699488936
 10
49.4957584762
 20
-65.9756815489
 10
49.4898218038
 20
-65.9812451732
 10
49.4837723149
 20
-65.9866388164
 10
49.4776110424
 20
-65.9918615575
 10
49.4713390382
 20
-65.9969125049
 10
49.4649573733
 20
-66.0017907961
 10
49.4584671374
 20
-66.0064955981
 10
49.4518694387
 20
-66.0110261075
 10
49.4451654036
 20
-66.0153815509
 10
49.4383561769
 20
-66.0195611845
  0
LINE
  5
390
100
AcDbEntity
  8
DRAFT
100
AcDbLine
 62
7
  6
CONTINUOUS
 10
52.5317541831
 20
-36.5366692477
 11
52.6058699754
 21
-36.4956424583
  0
LINE
  5
391
100
AcDbEntity
  8
DRAFT
100
AcDbLine
 62
7
  6
CONTINUOUS
 10
54.0200835377
 20
-32.298439681
 11
52.5317541831
 21
-33.3697595562
  0
LINE
  5
392
100
AcDbEntity
  8
DRAFT
100
AcDbLine
 62
7
  6
CONTINUOUS
 10
52.5317541831
 20
-38.3195070245
 11
54.0200835377
 21
-37.4956424583
  0
LINE
  5
393
100
AcDbEntity
  8
0
100
AcDbLine
 62
7
  6
CONTINUOUS
 10
36.4204961949
 20
-52.821870704
 11
36.3141191434
 21
-52.8970906384
  0
LINE
  5
394
100
AcDbEntity
  8
0
100
AcDbLine
 62
7
  6
CONTINUOUS
 10
36.8164957913
 20
-53.101884704
 11
36.7101187399
 21
-53.1771046384
  0
LINE
  5
395
100
AcDbEntity
  8
0
100
AcDbLine
 62
7
  6
CONTINUOUS
 10
37.6919229778
 20
-53.720905204
 11
37.5855459264
 21
-53.7961251384
  0
LINE
  5
396
100
AcDbEntity
  8
0
100
AcDbLine
 62
7
  6
CONTINUOUS
 10
38.0879225742
 20
-54.000919204
 11
37.9815455228
 21
-54.0761391384
  0
LINE
  5
397
100
AcDbEntity
  8
0
100
AcDbLine
 62
7
  6
CONTINUOUS
 10
38.3519173555
 20
-54.187591704
 11
38.245540304
 21
-54.2628116384
  0
LINE
  5
398
100
AcDbEntity
  8
0
100
AcDbLine
 62
7
  6
CONTINUOUS
 10
38.7479120022
 20
-54.467602204
 11
38.6415349507
 21
-54.5428221384
  0
LINE
  5
399
100
AcDbEntity
  8
0
100
AcDbLine
 62
7
  6
CONTINUOUS
 10
37.6106449779
 20
-55.4193625116
 11
37.5042110008
 21
-55.4946226986
  0
LINE
  5
39A
100
AcDbEntity
  8
0
100
AcDbLine
 62
7
  6
CONTINUOUS
 10
39.1438917996
 20
-54.747602204
 11
39.0375147482
 21
-54.8228221384
  0
LINE
  5
39B
100
AcDbEntity
  8
0
100
AcDbLine
 62
7
  6
CONTINUOUS
 10
39.7425291077
 20
-55.170902704
 11
39.6361520563
 21
-55.2461226384
  0
LINE
  5
39C
100
AcDbEntity
  8
0
100
AcDbLine
 62
7
  6
CONTINUOUS
 10
38.9063403727
 20
-56.3355575116
 11
38.7999063956
 21
-56.4108176986
  0
LINE
  5
39D
100
AcDbEntity
  8
0
100
AcDbLine
 62
7
  6
CONTINUOUS
 10
40.48201148
 20
-55.693795704
 11
40.3756344285
 21
-55.7690156384
  0
LWPOLYLINE
  5
39E
100
AcDbEntity
  8
0
100
AcDbPolyline
 62
7
  6
CONTINUOUS
 90
122
 70
0
 10
44.2968423922
 20
-59.2058101033
 10
44.2991223652
 20
-59.2041245343
 10
44.3012491953
 20
-59.202411139
 10
44.3033070054
 20
-59.2006103461
 10
44.3052951052
 20
-59.1987227506
 10
44.3072127018
 20
-59.1967490638
 10
44.3090591032
 20
-59.1946899502
 10
44.3108338291
 20
-59.1925460133
 10
44.312536098
 20
-59.1903181568
 10
44.3141653616
 20
-59.1880070513
 10
44.3157215011
 20
-59.1856129669
 10
44.3172040535
 20
-59.183136407
 10
44.3186122034
 20
-59.1805785095
 10
44.3199453601
 20
-59.1779405613
 10
44.3212027872
 20
-59.1752240048
 10
44.3223842304
 20
-59.1724293675
 10
44.3234898457
 20
-59.1695565925
 10
44.3245193244
 20
-59.1666060308
 10
44.3254719443
 20
-59.1635792612
 10
44.3263472873
 20
-59.1604781162
 10
44.3271448216
 20
-59.1573044194
 10
44.3278644089
 20
-59.1540586448
 10
44.3285062606
 20
-59.1507406421
 10
44.3290701233
 20
-59.14735081
 10
44.329555516
 20
-59.1438909873
 10
44.3299623432
 20
-59.1403632148
 10
44.3302903344
 20
-59.1367694196
 10
44.3305393825
 20
-59.133110235
 10
44.3307096902
 20
-59.1293858099
 10
44.3308010683
 20
-59.1255968875
 10
44.3308133174
 20
-59.1217452755
 10
44.330746647
 20
-59.1178327364
 10
44.3306009923
 20
-59.1138609345
 10
44.3303762987
 20
-59.1098309712
 10
44.3300728597
 20
-59.1057438163
 10
44.3296906632
 20
-59.101600889
 10
44.3292297222
 20
-59.0974036224
 10
44.328690383
 20
-59.0931530179
 10
44.3280726502
 20
-59.088850214
 10
44.3273766394
 20
-59.0844970073
 10
44.3266029311
 20
-59.0800954304
 10
44.3257518217
 20
-59.0756476433
 10
44.3248234048
 20
-59.0711545873
 10
44.3238179795
 20
-59.066616481
 10
44.3227355311
 20
-59.062034022
 10
44.3215764528
 20
-59.0574096077
 10
44.3203417084
 20
-59.0527460334
 10
44.3190319227
 20
-59.0480459175
 10
44.3176472058
 20
-59.0433099177
 10
44.3161877851
 20
-59.0385379063
 10
44.3146536603
 20
-59.0337304574
 10
44.313045503
 20
-59.0288902422
 10
44.3113645861
 20
-59.0240202922
 10
44.3096117677
 20
-59.0191232983
 10
44.3077872205
 20
-59.0141999568
 10
44.3058912357
 20
-59.0092503262
 10
44.3039239648
 20
-59.0042752261
 10
44.3018862483
 20
-58.9992772077
 10
44.2997794343
 20
-58.9942589316
 10
44.2976044174
 20
-58.9892227374
 10
44.2953615803
 20
-58.984169734
 10
44.2930515598
 20
-58.9791007497
 10
44.2906748783
 20
-58.9740172178
 10
44.2882323437
 20
-58.9689211595
 10
44.2857250337
 20
-58.963814286
 10
44.2831536336
 20
-58.9586982307
 10
44.2805189417
 20
-58.9535748354
 10
44.2778222638
 20
-58.9484461286
 10
44.2750646804
 20
-58.9433143315
 10
44.2722467739
 20
-58.9381807038
 10
44.2693691163
 20
-58.933045832
 10
44.2664321069
 20
-58.927910681
 10
44.2634370301
 20
-58.9227777642
 10
44.2603858286
 20
-58.9176499851
 10
44.2572800492
 20
-58.9125300376
 10
44.2541200837
 20
-58.9074186753
 10
44.2509061649
 20
-58.9023158896
 10
44.2476385622
 20
-58.8972223438
 10
44.2443189037
 20
-58.892140826
 10
44.240949489
 20
-58.8870745039
 10
44.2375321
 20
-58.8820261182
 10
44.2340671106
 20
-58.8769962984
 10
44.2305547377
 20
-58.8719850373
 10
44.2269953689
 20
-58.8669930818
 10
44.2233907338
 20
-58.8620230652
 10
44.2197430789
 20
-58.8570777973
 10
44.2160541171
 20
-58.8521596583
 10
44.2123244565
 20
-58.8472695348
 10
44.2085547191
 20
-58.8424079775
 10
44.2047457083
 20
-58.837576156
 10
44.2008989516
 20
-58.8327761525
 10
44.1970161638
 20
-58.8280098787
 10
44.1930986565
 20
-58.8232790211
 10
44.1891475631
 20
-58.8185850451
 10
44.1851643643
 20
-58.8139294981
 10
44.1811505263
 20
-58.8093141534
 10
44.1771071061
 20
-58.8047402963
 10
44.1730349746
 20
-58.8002087351
 10
44.1689349424
 20
-58.7957204692
 10
44.1648087498
 20
-58.7912775193
 10
44.1606586842
 20
-58.7868821894
 10
44.1564867503
 20
-58.782536606
 10
44.1522936065
 20
-58.7782414706
 10
44.1480795303
 20
-58.7739969366
 10
44.1438450501
 20
-58.7698036361
 10
44.1395922881
 20
-58.7656637855
 10
44.1353239228
 20
-58.7615798827
 10
44.1310421777
 20
-58.7575540286
 10
44.1267475803
 20
-58.7535867072
 10
44.122440276
 20
-58.749677965
 10
44.1181208275
 20
-58.7458283933
 10
44.1137914094
 20
-58.7420400237
 10
44.1094545883
 20
-58.7383150379
 10
44.105112459
 20
-58.7346552029
 10
44.1007657254
 20
-58.7310610957
 10
44.096414876
 20
-58.7275330718
 10
44.0920608239
 20
-58.724071915
 10
44.0877054536
 20
-58.7206791772
 10
44.0833507114
 20
-58.7173563518
 10
44.0789981863
 20
-58.7141046336
 10
44.0746491071
 20
-58.7109249472
 10
44.0703048836
 20
-58.7078183176
  0
LWPOLYLINE
  5
39F
100
AcDbEntity
  8
0
100
AcDbPolyline
 62
7
  6
CONTINUOUS
 90
154
 70
0
 10
44.7741077387
 20
-59.580509164
 10
44.7785453626
 20
-59.5772615479
 10
44.7828271837
 20
-59.5739093146
 10
44.7870000964
 20
-59.57041935
 10
44.7910644765
 20
-59.5667912113
 10
44.7950199582
 20
-59.5630253335
 10
44.7988635425
 20
-59.5591244237
 10
44.8025949305
 20
-59.5550885974
 10
44.8062144305
 20
-59.5509177318
 10
44.8097199532
 20
-59.5466141777
 10
44.8131114559
 20
-59.5421778655
 10
44.8163889904
 20
-59.5376088577
 10
44.8195506082
 20
-59.5329097039
 10
44.8225963925
 20
-59.5280800362
 10
44.8255262688
 20
-59.5231202157
 10
44.8283380519
 20
-59.5180338861
 10
44.8310314062
 20
-59.5128215023
 10
44.833606675
 20
-59.5074826034
 10
44.8360626913
 20
-59.50201946
 10
44.83839969
 20
-59.4964312625
 10
44.8406174437
 20
-59.4907188147
 10
44.8427140906
 20
-59.4848868083
 10
44.844689272
 20
-59.4789359947
 10
44.8465433529
 20
-59.4728656176
 10
44.8482755568
 20
-59.4666781071
 10
44.8498860382
 20
-59.4603725648
 10
44.8513746484
 20
-59.4539498845
 10
44.8527401556
 20
-59.447415185
 10
44.8539823336
 20
-59.4407690776
 10
44.8551014132
 20
-59.4340109473
 10
44.8560968471
 20
-59.4271440741
 10
44.8569686365
 20
-59.4201679729
 10
44.8577167843
 20
-59.4130831256
 10
44.858340745
 20
-59.4058942634
 10
44.8588404149
 20
-59.3986013294
 10
44.8592159008
 20
-59.3912043781
 10
44.8594669715
 20
-59.383708309
 10
44.8595935587
 20
-59.3761134888
 10
44.8595957328
 20
-59.368419549
 10
44.8594734691
 20
-59.3606302871
 10
44.8592266566
 20
-59.3527448411
 10
44.8588554076
 20
-59.3447640717
 10
44.858360032
 20
-59.3366943605
 10
44.8577405321
 20
-59.3285367184
 10
44.8569969055
 20
-59.3202901345
 10
44.856129454
 20
-59.3119579581
 10
44.8551379664
 20
-59.3035389443
 10
44.8540226534
 20
-59.2950343383
 10
44.8527844489
 20
-59.2864512248
 10
44.8514234438
 20
-59.2777907161
 10
44.8499395453
 20
-59.2690517014
 10
44.8483334102
 20
-59.260237932
 10
44.8466047915
 20
-59.2513484047
 10
44.8447539339
 20
-59.2423841245
 10
44.8427822305
 20
-59.2333518551
 10
44.8406897148
 20
-59.2242521282
 10
44.8384763497
 20
-59.2150844149
 10
44.8361434222
 20
-59.2058538887
 10
44.8336908547
 20
-59.1965604429
 10
44.8311187204
 20
-59.1872041876
 10
44.8284285314
 20
-59.1777906226
 10
44.8256200553
 20
-59.1683192415
 10
44.8226935194
 20
-59.1587905547
 10
44.8196511236
 20
-59.1492115877
 10
44.8164931145
 20
-59.1395832713
 10
44.8132192395
 20
-59.1299046795
 10
44.8098309496
 20
-59.1201800537
 10
44.8063277133
 20
-59.1104080948
 10
44.8027100556
 20
-59.100590107
 10
44.7989810106
 20
-59.0907342375
 10
44.7951410485
 20
-59.0808418811
 10
44.7911896914
 20
-59.070911649
 10
44.7871285509
 20
-59.0609475129
 10
44.7829569982
 20
-59.050948094
 10
44.7786756543
 20
-59.0409147773
 10
44.7742880048
 20
-59.0308556803
 10
44.7697944639
 20
-59.0207719124
 10
44.7651946085
 20
-59.0106623712
 10
44.7604906678
 20
-59.0005318577
 10
44.7556822634
 20
-58.9903796724
 10
44.7507697647
 20
-58.9802065219
 10
44.7457565215
 20
-58.9700193174
 10
44.7406424981
 20
-58.9598181547
 10
44.7354277205
 20
-58.9496029457
 10
44.7301156313
 20
-58.9393803255
 10
44.7247064538
 20
-58.9291508146
 10
44.7191999546
 20
-58.9189139004
 10
44.7135988905
 20
-58.9086746692
 10
44.7079026322
 20
-58.8984321184
 10
44.7021117986
 20
-58.8881872585
 10
44.6962310189
 20
-58.8779481956
 10
44.6902610134
 20
-58.8677162755
 10
44.6842010508
 20
-58.8574901608
 10
44.6780535824
 20
-58.8472739327
 10
44.6718176624
 20
-58.8370661404
 10
44.6654942259
 20
-58.8268682431
 10
44.6590885445
 20
-58.8166886876
 10
44.652601443
 20
-58.8065288855
 10
44.6460320856
 20
-58.7963874338
 10
44.6393832529
 20
-58.7862685574
 10
44.6326541585
 20
-58.7761711521
 10
44.6258455779
 20
-58.7660963305
 10
44.618962634
 20
-58.7560516433
 10
44.6120057227
 20
-58.7460377827
 10
44.6049744371
 20
-58.736054065
 10
44.5978726961
 20
-58.7261059777
 10
44.5907003956
 20
-58.7161934451
 10
44.583457629
 20
-58.7063165511
 10
44.5761486114
 20
-58.696481023
 10
44.5687729251
 20
-58.6866864153
 10
44.5613309774
 20
-58.6769331816
 10
44.5538282209
 20
-58.6672283972
 10
44.5462653777
 20
-58.6575730614
 10
44.5386417155
 20
-58.647966183
 10
44.5309605052
 20
-58.6384118521
 10
44.5232206937
 20
-58.6289088593
 10
44.5154233245
 20
-58.6194584216
 10
44.5075748128
 20
-58.6100682686
 10
44.4996762502
 20
-58.600739779
 10
44.4917265358
 20
-58.5914715815
 10
44.4837287954
 20
-58.5822672802
 10
44.4756819173
 20
-58.5731256769
 10
44.4675870046
 20
-58.5640479768
 10
44.4594505059
 20
-58.5550413892
 10
44.4512732665
 20
-58.5461069341
 10
44.4430544329
 20
-58.5372435981
 10
44.4347979062
 20
-58.5284555405
 10
44.4265031496
 20
-58.519742251
 10
44.4181706924
 20
-58.5111042458
 10
44.4098060348
 20
-58.5025472243
 10
44.4014091708
 20
-58.494071277
 10
44.3929800995
 20
-58.4856763188
 10
44.3845243292
 20
-58.4773677854
 10
44.376042333
 20
-58.4691461927
 10
44.3675336316
 20
-58.4610110296
 10
44.3590023051
 20
-58.4529661908
 10
44.3504474538
 20
-58.4450109177
 10
44.341869972
 20
-58.4371459731
 10
44.3332766307
 20
-58.4293775345
 10
44.3246685569
 20
-58.4217066763
 10
44.3160446191
 20
-58.4141323277
 10
44.3074082012
 20
-58.4066574478
 10
44.2987580741
 20
-58.3992810485
 10
44.2900954632
 20
-58.3920041209
 10
44.2814274349
 20
-58.3848325929
 10
44.2727551185
 20
-58.3777674655
 10
44.264077382
 20
-58.37080774
 10
44.2553978992
 20
-58.3639563443
 10
44.2467157337
 20
-58.3572125735
 10
44.23803182
 20
-58.350577134
 10
44.2293526394
 20
-58.3440550708
 10
44.220680352
 20
-58.3376480657
 10
44.2120127967
 20
-58.3313544377
 10
44.2033499734
 20
-58.3251741868
  0
LINE
  5
3A0
100
AcDbEntity
  8
0
100
AcDbLine
 62
7
  6
CONTINUOUS
 10
39.6983197666
 20
-56.8955715116
 11
39.5918857895
 21
-56.9708316986
  0
LINE
  5
3A1
100
AcDbEntity
  8
0
100
AcDbLine
 62
7
  6
CONTINUOUS
 10
41.080648788
 20
-56.117096204
 11
40.9742717366
 21
-56.1923161384
  0
LINE
  5
3A2
100
AcDbEntity
  8
0
100
AcDbLine
 62
7
  6
CONTINUOUS
 10
40.4686931001
 20
-57.4403033537
 11
40.3622591231
 21
-57.5155635406
  0
LINE
  5
3A3
100
AcDbEntity
  8
0
100
AcDbLine
 62
7
  6
CONTINUOUS
 10
41.9803442069
 20
-56.7532725225
 11
41.8739671556
 21
-56.8284924569
  0
LINE
  5
3A4
100
AcDbEntity
  8
0
100
AcDbLine
 62
7
  6
CONTINUOUS
 10
42.3763586526
 20
-57.0332970225
 11
42.2699816013
 21
-57.1085169569
  0
LINE
  5
3A5
100
AcDbEntity
  8
0
100
AcDbLine
 62
7
  6
CONTINUOUS
 10
41.2390821083
 20
-57.9850550116
 11
41.1326481312
 21
-58.0603151986
  0
LINE
  5
3A6
100
AcDbEntity
  8
0
100
AcDbLine
 62
7
  6
CONTINUOUS
 10
42.0820361163
 20
-57.9044050754
 11
41.975624725
 21
-57.9796492918
  0
LINE
  5
3A7
100
AcDbEntity
  8
0
100
AcDbLine
 62
7
  6
CONTINUOUS
 10
41.8990711235
 20
-58.4517333537
 11
41.7926371465
 21
-58.5269935406
  0
LINE
  5
3A8
100
AcDbEntity
  8
0
100
AcDbLine
 62
7
  6
CONTINUOUS
 10
43.2760643505
 20
-57.6694850225
 11
43.1696872992
 21
-57.7447049569
  0
LINE
  5
3A9
100
AcDbEntity
  8
0
100
AcDbLine
 62
7
  6
CONTINUOUS
 10
44.2033500412
 20
-58.3251750225
 11
44.0969728544
 21
-58.4003950526
  0
LINE
  5
3AA
100
AcDbEntity
  8
0
100
AcDbLine
 62
7
  6
CONTINUOUS
 10
43.7328365376
 20
-58.7469197915
 11
43.6264356962
 21
-58.822156548
  0
LINE
  5
3AB
100
AcDbEntity
  8
0
100
AcDbLine
 62
7
  6
CONTINUOUS
 10
43.1705032689
 20
-59.3507760116
 11
43.0640692918
 21
-59.4260361986
  0
LINE
  5
3AC
100
AcDbEntity
  8
0
100
AcDbLine
 62
7
  6
CONTINUOUS
 10
44.2146187932
 20
-59.0875912915
 11
44.1082180643
 21
-59.1628279684
  0
LINE
  5
3AD
100
AcDbEntity
  8
0
100
AcDbLine
 62
7
  6
CONTINUOUS
 10
43.8304972339
 20
-59.8174578537
 11
43.7240632569
 21
-59.8927180406
  0
LINE
  5
3AE
100
AcDbEntity
  8
ASSI
100
AcDbLine
 62
7
  6
CONTINUOUS
 10
44.6677037566
 20
-59.6557481419
 11
44.774107739
 21
-59.5805091644
  0
LWPOLYLINE
  5
3AF
100
AcDbEntity
  8
0
100
AcDbPolyline
 62
7
  6
CONTINUOUS
 90
40
 70
0
 10
44.6677037545
 20
-59.6557481433
 10
44.6632563897
 20
-59.6587878565
 10
44.6586533643
 20
-59.6617227843
 10
44.6539459974
 20
-59.6645167962
 10
44.6491360977
 20
-59.66716895
 10
44.6442241486
 20
-59.6696791021
 10
44.6392098927
 20
-59.6720474641
 10
44.634093762
 20
-59.6742737418
 10
44.6288775567
 20
-59.6763570574
 10
44.6235630908
 20
-59.6782967807
 10
44.618152156
 20
-59.6800923265
 10
44.612645452
 20
-59.6817435231
 10
44.6070431991
 20
-59.683250431
 10
44.6013463021
 20
-59.6846127535
 10
44.5955563555
 20
-59.6858300507
 10
44.5896746179
 20
-59.686902179
 10
44.5837023928
 20
-59.6878288817
 10
44.5776410145
 20
-59.6886099238
 10
44.5714918375
 20
-59.6892452846
 10
44.5652566021
 20
-59.6897347957
 10
44.5589363348
 20
-59.6900783812
 10
44.5525313246
 20
-59.6902761694
 10
44.5460422754
 20
-59.690328049
 10
44.5394712578
 20
-59.6902339054
 10
44.5328206441
 20
-59.6899939321
 10
44.526092795
 20
-59.6896082567
 10
44.5192883247
 20
-59.689076948
 10
44.5124070009
 20
-59.6884001438
 10
44.5054493052
 20
-59.6875777794
 10
44.4984176864
 20
-59.6866100236
 10
44.4913148803
 20
-59.6854974076
 10
44.4841433643
 20
-59.6842403532
 10
44.4769037824
 20
-59.6828389961
 10
44.4695961441
 20
-59.6812934951
 10
44.4622212529
 20
-59.6796039293
 10
44.4547814028
 20
-59.6777707256
 10
44.4472788442
 20
-59.6757945806
 10
44.4397154073
 20
-59.6736760242
 10
44.4320924798
 20
-59.6714153613
 10
44.4244116832
 20
-59.6690130485
  0
LWPOLYLINE
  5
3B0
100
AcDbEntity
  8
RACCORDO
100
AcDbPolyline
 62
250
  6
CONTINUOUS
 90
115
 70
0
 10
49.6320580151
 20
-65.6163150539
 10
49.6201548928
 20
-65.6248613406
 10
49.6081182557
 20
-65.6332875884
 10
49.5959468535
 20
-65.6415958555
 10
49.5836358864
 20
-65.6497911302
 10
49.5711872283
 20
-65.6578717438
 10
49.5586100697
 20
-65.6658299744
 10
49.5459038993
 20
-65.673667523
 10
49.533067114
 20
-65.6813859428
 10
49.520108271
 20
-65.6889779958
 10
49.5070272204
 20
-65.6964452702
 10
49.4938227684
 20
-65.7037892165
 10
49.4805028766
 20
-65.7110029888
 10
49.4670678315
 20
-65.7180880516
 10
49.453516847
 20
-65.7250457899
 10
49.4398572008
 20
-65.7318697391
 10
49.4260896084
 20
-65.738561269
 10
49.4122137352
 20
-65.7451217049
 10
49.3982361504
 20
-65.7515449249
 10
49.3841579926
 20
-65.7578322279
 10
49.369979391
 20
-65.7639848994
 10
49.3557061994
 20
-65.7699971222
 10
49.3413399582
 20
-65.7758701501
 10
49.3268812606
 20
-65.7816052482
 10
49.3123352658
 20
-65.7871968641
 10
49.2977038879
 20
-65.7926462298
 10
49.282988169
 20
-65.7979546111
 10
49.2681926126
 20
-65.8031166828
 10
49.2533194717
 20
-65.8081336765
 10
49.2383702124
 20
-65.813006877
 10
49.2233487348
 20
-65.8177311546
 10
49.2082575935
 20
-65.8223077577
 10
49.193098645
 20
-65.8267380065
 10
49.1778752473
 20
-65.8310169405
 10
49.1625902181
 20
-65.8351458388
 10
49.1472457656
 20
-65.8391260702
 10
49.1318447708
 20
-65.8429528232
 10
49.1163902766
 20
-65.8466274186
 10
49.1008848015
 20
-65.8501512834
 10
49.0853308154
 20
-65.8535197412
 10
49.0697315499
 20
-65.8567341621
 10
49.0540897917
 20
-65.8597960382
 10
49.0384076633
 20
-65.8627008191
 10
49.0226885511
 20
-65.8654499298
 10
49.0069354686
 20
-65.8680449315
 10
48.9911502505
 20
-65.8704813948
 10
48.9753364066
 20
-65.8727608033
 10
48.9594971384
 20
-65.8748847894
 10
48.9436340466
 20
-65.8768490428
 10
48.9277507363
 20
-65.8786551078
 10
48.9118505608
 20
-65.8803046884
 10
48.8959349346
 20
-65.8817935938
 10
48.880007533
 20
-65.8831234305
 10
48.8640718281
 20
-65.8842959729
 10
48.8481290895
 20
-65.8853071514
 10
48.832183041
 20
-65.8861586355
 10
48.8162372435
 20
-65.8868522685
 10
48.8002928571
 20
-65.8873841045
 10
48.7843536343
 20
-65.8877558758
 10
48.7684231993
 20
-65.887969493
 10
48.7525026313
 20
-65.8880211361
 10
48.7365956952
 20
-65.8879126006
 10
48.720706055
 20
-65.8876458622
 10
48.7048347328
 20
-65.8872172288
 10
48.6889854915
 20
-65.8866285594
 10
48.6731620151
 20
-65.885881893
 10
48.6573652869
 20
-65.8849736665
 10
48.6415990554
 20
-65.8839058027
 10
48.6258670076
 20
-65.8826804024
 10
48.6101701019
 20
-65.881294032
 10
48.594512062
 20
-65.8797486785
 10
48.5788965628
 20
-65.8780465034
 10
48.5633245482
 20
-65.8761842017
 10
48.547799708
 20
-65.8741638255
 10
48.5323256924
 20
-65.8719875964
 10
48.5169034378
 20
-65.8696523359
 10
48.5015365921
 20
-65.8671601625
 10
48.4862287701
 20
-65.8645133574
 10
48.4709809049
 20
-65.8617088659
 10
48.4557965956
 20
-65.8587488741
 10
48.4406794126
 20
-65.855635723
 10
48.4256302873
 20
-65.8523664774
 10
48.4106527645
 20
-65.8489433928
 10
48.395750362
 20
-65.8453688707
 10
48.3809240098
 20
-65.8416400901
 10
48.3661771928
 20
-65.8377593777
 10
48.3515133698
 20
-65.8337291967
 10
48.3369334677
 20
-65.8295468339
 10
48.3224409073
 20
-65.8252146894
 10
48.3080390823
 20
-65.8207352895
 10
48.2937289138
 20
-65.8161060216
 10
48.2795137544
 20
-65.8113293616
 10
48.2653969276
 20
-65.8064079005
 10
48.2513793454
 20
-65.8013391182
 10
48.2374642881
 20
-65.7961255689
 10
48.2236550049
 20
-65.7907699103
 10
48.2099523943
 20
-65.7852697061
 10
48.1963596611
 20
-65.7796275914
 10
48.1828799759
 20
-65.7738462929
 10
48.1695142191
 20
-65.7679234483
 10
48.1562655169
 20
-65.7618617762
 10
48.1431369578
 20
-65.7556640751
 10
48.1301293992
 20
-65.7493280464
 10
48.1172458856
 20
-65.7428564952
 10
48.10448942
 20
-65.7362522939
 10
48.0918608319
 20
-65.7295131971
 10
48.0793630811
 20
-65.7226420994
 10
48.0669990822
 20
-65.7156419498
 10
48.0547696317
 20
-65.7085105448
 10
48.0426776021
 20
-65.7012508712
 10
48.0307258164
 20
-65.6938659574
 10
48.0189150335
 20
-65.6863536306
 10
48.0072473684
 20
-65.6787152095
 10
47.9957262294
 20
-65.6709555578
 10
47.9843542962
 20
-65.6630778387
  0
LINE
  5
3B1
100
AcDbEntity
  8
0
100
AcDbLine
 62
7
  6
CONTINUOUS
 10
45.0190202838
 20
-60.6578661958
 11
44.9125863069
 21
-60.7331263826
  0
LINE
  5
3B2
100
AcDbEntity
  8
RACCORDO
100
AcDbLine
 62
250
  6
CONTINUOUS
 10
49.632058019
 20
-65.6163150516
 11
54.0200835377
 21
-63.0410538392
  0
LINE
  5
3B3
100
AcDbEntity
  8
RACCORDO
100
AcDbLine
 62
7
  6
CONTINUOUS
 10
49.4364860134
 20
-66.0206675419
 11
53.8432472848
 21
-63.4344106193
  0
ARC
  5
3B4
100
AcDbEntity
  8
RACCORDO
100
AcDbCircle
 62
7
  6
CONTINUOUS
 10
-51.5696218708
 20
6.0068822084
 40
1.2
100
AcDbArc
 50
185.5155257347
 51
234.7355591352
  0
ARC
  5
3B5
100
AcDbEntity
  8
RACCORDO
100
AcDbCircle
 62
7
  6
CONTINUOUS
 10
-51.5696218708
 20
61.8578781519
 40
1.2
100
AcDbArc
 50
130.0513455627
 51
175.2071460811
  0
ARC
  5
3B6
100
AcDbEntity
  8
RACCORDO
100
AcDbCircle
 62
7
  6
CONTINUOUS
 10
48.8291012874
 20
-64.9857357593
 40
1.2
100
AcDbArc
 50
234.7356114477
 51
300.4079833576
  0
ELLIPSE
  5
3B7
100
AcDbEntity
  8
RACCORDO
100
AcDbEllipse
 62
7
  6
CONTINUOUS
 10
-47.6607071227
 20
65.1438209398
 30
0.0
 11
-0.6940708947
 21
0.9828275207
 31
0.0
 40
0.4987101158
 41
-0.9531889164
 42
0.0420431208
  0
ELLIPSE
  5
3B8
100
AcDbEntity
  8
0
100
AcDbEllipse
 62
7
  6
CONTINUOUS
 10
341.0955723215
 20
173.2099340989
 30
0.0
 11
301.6300315164
 21
300.7490863323
 31
0.0
 40
0.265596453
 41
-3.6346599249
 42
-3.630056717
  0
ELLIPSE
  5
3B9
100
AcDbEntity
  8
0
100
AcDbEllipse
 62
7
  6
CONTINUOUS
 10
325.2491282369
 20
184.4150621688
 30
0.0
 11
128.7078177795
 21
411.2238603181
 31
0.0
 40
0.6912191856
 41
-3.9000610221
 42
-3.8933751199
  0
ELLIPSE
  5
3BA
100
AcDbEntity
  8
0
100
AcDbEllipse
 62
7
  6
CONTINUOUS
 10
343.1067807879
 20
171.7877949539
 30
0.0
 11
296.1018113369
 21
304.6663207133
 31
0.0
 40
0.2906993817
 41
-3.6350079422
 42
-3.6306542627
  0
ELLIPSE
  5
3BB
100
AcDbEntity
  8
0
100
AcDbEllipse
 62
7
  6
CONTINUOUS
 10
328.9542448439
 20
181.7951490909
 30
0.0
 11
146.3687977933
 21
402.5132927455
 31
0.0
 40
0.6762663434
 41
-3.8610271271
 42
-3.8566178351
  0
ELLIPSE
  5
3BC
100
AcDbEntity
  8
0
100
AcDbEllipse
 62
7
  6
CONTINUOUS
 10
345.3840302191
 20
170.1775364386
 30
0.0
 11
301.630298559
 21
300.7488975952
 31
0.0
 40
0.2655952353
 41
-3.6346599454
 42
-3.6279740432
  0
ELLIPSE
  5
3BD
100
AcDbEntity
  8
0
100
AcDbEllipse
 62
7
  6
CONTINUOUS
 10
330.8092755356
 20
180.4834443095
 30
0.0
 11
128.7138453229
 21
411.2210032961
 31
0.0
 40
0.6912146399
 41
-3.8946777159
 42
-3.8933626105
  0
ELLIPSE
  5
3BE
100
AcDbEntity
  8
0
100
AcDbEllipse
 62
7
  6
CONTINUOUS
 10
330.8090060403
 20
180.4836348715
 30
0.0
 11
128.7081007931
 21
411.223726173
 31
0.0
 40
0.6912189722
 41
-3.8979785223
 42
-3.8959601215
  0
ELLIPSE
  5
3BF
100
AcDbEntity
  8
0
100
AcDbEllipse
 62
7
  6
CONTINUOUS
 10
327.7388192142
 20
182.6545847957
 30
0.0
 11
-0.5146678914
 21
457.1150324405
 31
0.0
 40
0.7320502981
 41
-4.1551297457
 42
-4.1525441887
  0
ELLIPSE
  5
3C0
100
AcDbEntity
  8
RACCORDO
100
AcDbEllipse
 62
7
  6
CONTINUOUS
 10
53.1703909261
 20
-62.4379030791
 30
0.0
 11
-0.6940708947
 21
0.9828275207
 31
0.0
 40
0.4987101158
 41
-3.1836357744
 42
-2.5267242989
  0
ELLIPSE
  5
3C1
100
AcDbEntity
  8
RACCORDO
100
AcDbEllipse
 62
7
  6
CONTINUOUS
 10
53.1703909261
 20
-6.154532245
 30
0.0
 11
-0.6934737074
 21
0.9794492403
 31
0.0
 40
0.501292524
 41
-2.5255069615
 42
-0.9574496904
  0
ELLIPSE
  5
3C2
100
AcDbEntity
  8
0
100
AcDbEllipse
 62
7
  6
CONTINUOUS
 10
325.6451400457
 20
184.1350395334
 30
0.0
 11
128.708107827
 21
411.223722839
 31
0.0
 40
0.6912189668
 41
-3.9000604185
 42
-3.8954572107
  0
ELLIPSE
  5
3C3
100
AcDbEntity
  8
0
100
AcDbEllipse
 62
7
  6
CONTINUOUS
 10
325.6451400457
 20
184.1350395334
 30
0.0
 11
128.6621570566
 21
411.076909657
 31
0.0
 40
0.6912189668
 41
-3.9000330524
 42
-3.895773174
  0
ELLIPSE
  5
3C4
100
AcDbEntity
  8
0
100
AcDbEllipse
 62
7
  6
CONTINUOUS
 10
341.4917414995
 20
172.9298001867
 30
0.0
 11
301.6312270684
 21
300.7482413552
 31
0.0
 40
0.2655910011
 41
-3.6346599421
 42
-3.6279740566
  0
ELLIPSE
  5
3C5
100
AcDbEntity
  8
0
100
AcDbEllipse
 62
7
  6
CONTINUOUS
 10
341.4917414995
 20
172.9298001867
 30
0.0
 11
301.5235400898
 21
300.6408696161
 31
0.0
 40
0.2655910011
 41
-3.6346325759
 42
-3.6279442873
  0
ELLIPSE
  5
3C6
100
AcDbEntity
  8
0
100
AcDbEllipse
 62
7
  6
CONTINUOUS
 10
329.3501358063
 20
181.5152119068
 30
0.0
 11
146.366494401
 21
402.5144736846
 31
0.0
 40
0.6762685217
 41
-3.8633085101
 42
-3.8589548307
  0
ELLIPSE
  5
3C7
100
AcDbEntity
  8
0
100
AcDbEllipse
 62
7
  6
CONTINUOUS
 10
329.3501358063
 20
181.5152119068
 30
0.0
 11
146.3142393155
 21
402.3707698382
 31
0.0
 40
0.6762685217
 41
-3.863281144
 42
-3.859346266
  0
ELLIPSE
  5
3C8
100
AcDbEntity
  8
0
100
AcDbEllipse
 62
7
  6
CONTINUOUS
 10
343.5026922071
 20
171.5078433047
 30
0.0
 11
296.1012250984
 21
304.6667371811
 31
0.0
 40
0.2907020299
 41
-3.6327314312
 42
-3.6283221559
  0
ELLIPSE
  5
3C9
100
AcDbEntity
  8
0
100
AcDbEllipse
 62
7
  6
CONTINUOUS
 10
343.5026922071
 20
171.5078433047
 30
0.0
 11
295.9955124154
 21
304.5579664788
 31
0.0
 40
0.2907020299
 41
-3.6312897958
 42
-3.6282923867
  0
ELLIPSE
  5
3CA
100
AcDbEntity
  8
0
100
AcDbEllipse
 62
7
  6
CONTINUOUS
 10
331.2049359208
 20
180.2036701681
 30
0.0
 11
128.7064701197
 21
411.2244990907
 31
0.0
 40
0.6912202019
 41
-3.9000638432
 42
-3.893377941
  0
ELLIPSE
  5
3CB
100
AcDbEntity
  8
0
100
AcDbEllipse
 62
7
  6
CONTINUOUS
 10
331.2049359208
 20
180.2036701681
 30
0.0
 11
128.6605199341
 21
411.0776856315
 31
0.0
 40
0.6912202019
 41
-3.900036477
 42
-3.8933481717
  0
ELLIPSE
  5
3CC
100
AcDbEntity
  8
0
100
AcDbEllipse
 62
7
  6
CONTINUOUS
 10
345.7801227461
 20
169.8974567269
 30
0.0
 11
301.6309435557
 21
300.7484417327
 31
0.0
 40
0.265592294
 41
-3.6292891746
 42
-3.6279740692
  0
ELLIPSE
  5
3CD
100
AcDbEntity
  8
0
100
AcDbEllipse
 62
7
  6
CONTINUOUS
 10
345.7801227461
 20
169.8974567269
 30
0.0
 11
301.5232566783
 21
300.641069922
 31
0.0
 40
0.265592294
 41
-3.6286843649
 42
-3.6279443
  0
ELLIPSE
  5
3CE
100
AcDbEntity
  8
0
100
AcDbEllipse
 62
7
  6
CONTINUOUS
 10
345.7796825141
 20
169.8977680179
 30
0.0
 11
301.6279644201
 21
300.7505472905
 31
0.0
 40
0.2656058792
 41
-3.6325779844
 42
-3.6305595836
  0
ELLIPSE
  5
3CF
100
AcDbEntity
  8
0
100
AcDbEllipse
 62
7
  6
CONTINUOUS
 10
345.7796825141
 20
169.8977680179
 30
0.0
 11
301.5202786064
 21
300.6431747281
 31
0.0
 40
0.2656058792
 41
-3.6316331554
 42
-3.630530744
  0
ELLIPSE
  5
3D0
100
AcDbEntity
  8
0
100
AcDbEllipse
 62
7
  6
CONTINUOUS
 10
328.184930661
 20
182.3391363665
 30
0.0
 11
-0.5122673036
 21
457.1144125167
 31
0.0
 40
0.7320503028
 41
-4.1552860181
 42
-4.1525396587
  0
ELLIPSE
  5
3D1
100
AcDbEntity
  8
0
100
AcDbEllipse
 62
7
  6
CONTINUOUS
 10
328.184930661
 20
182.3391363665
 30
0.0
 11
-0.5120844163
 21
456.951215654
 31
0.0
 40
0.7320503028
 41
-4.1550116876
 42
-4.1525098894
  0
ELLIPSE
  5
3D2
100
AcDbEntity
  8
0
100
AcDbEllipse
 62
7
  6
CONTINUOUS
 10
339.7896883071
 20
174.1333335409
 30
0.0
 11
242.587022552
 21
343.041628944
 31
0.0
 40
0.499958854
 41
-3.6764769986
 42
-3.6738914248
  0
ELLIPSE
  5
3D3
100
AcDbEntity
  8
0
100
AcDbEllipse
 62
7
  6
CONTINUOUS
 10
339.7896883071
 20
174.1333335409
 30
0.0
 11
242.5004152609
 21
342.9191578162
 31
0.0
 40
0.499958854
 41
-3.6758739366
 42
-3.6738616556
  0
ELLIPSE
  5
3D4
100
AcDbEntity
  8
0
100
AcDbEllipse
 62
7
  6
CONTINUOUS
 10
339.7825508667
 20
174.1383804734
 30
0.0
 11
242.5713661204
 21
343.0526998067
 31
0.0
 40
0.5000072641
 41
-3.679363512
 42
-3.6777367113
  0
ELLIPSE
  5
3D5
100
AcDbEntity
  8
0
100
AcDbEllipse
 62
7
  6
CONTINUOUS
 10
339.7825508667
 20
174.1383804734
 30
0.0
 11
242.4847644188
 21
342.9302247265
 31
0.0
 40
0.5000072641
 41
-3.6787643752
 42
-3.6777083163
  0
ENDSEC
  0
SECTION
  2
OBJECTS
  0
DICTIONARY
  5
C
100
AcDbDictionary
280
0
281
1
  3
ACAD_GROUP
350
D
  3
ACAD_MLINESTYLE
350
17
  3
ACAD_LAYOUT
350
1A
  3
ACAD_PLOTSETTINGS
350
19
  3
ACAD_PLOTSTYLENAME
350
E
  0
DICTIONARY
  5
D
102
{ACAD_REACTORS
330
C
102
}
100
AcDbDictionary
280
0
281
1
  0
ACDBDICTIONARYWDFLT
  5
E
102
{ACAD_REACTORS
330
C
102
}
100
AcDbDictionary
281
1
  3
Normal
350
F
100
AcDbDictionaryWithDefault
340
F
  0
DICTIONARY
  5
17
102
{ACAD_REACTORS
330
C
102
}
100
AcDbDictionary
280
0
281
1
  3
Standard
350
18
  0
DICTIONARY
  5
19
102
{ACAD_REACTORS
330
C
102
}
100
AcDbDictionary
281
1
  0
DICTIONARY
  5
1A
102
{ACAD_REACTORS
330
C
102
}
100
AcDbDictionary
281
1
  3
Model
350
3D6
  3
Layout1
350
3D7
  0
ACDBPLACEHOLDER
  5
F
102
{ACAD_REACTORS
330
E
102
}
  0
MLINESTYLE
  5
18
102
{ACAD_REACTORS
330
17
102
}
100
AcDbMlineStyle
  2
STANDARD
 70
0
  3

 62
256
 51
90.0
 52
90.0
 71
2
 49
0.5
 62
256
  6
BYLAYER
 49
-0.5
 62
256
  6
BYLAYER
  0
LAYOUT
  5
3D6
102
{ACAD_REACTORS
330
1A
102
}
100
AcDbPlotSettings
  1

  2
none_device
  4
ISO_A4_(297.00_x_210.00_MM)
  6

 40
0.0
 41
0.0
 42
0.0
 43
0.0
 44
297.0
 45
210.0
 46
0.0
 47
0.0
 48
0.0
 49
0.0
140
0.0
141
0.0
142
1.0
143
1.0
 70
1024
 72
1
 73
0
 74
0
  7

 75
0
147
1.0
148
0.0
149
0.0
100
AcDbLayout
  1
Model
 70
0
 71
0
 10
0.0
 20
0.0
 11
297.0
 21
210.0
 12
0.0
 22
0.0
 32
0.0
 14
0.0
 24
0.0
 34
0.0
 15
0.0
 25
0.0
 35
0.0
146
0.0
 13
0.0
 23
0.0
 33
0.0
 16
1.0
 26
0.0
 36
0.0
 17
0.0
 27
1.0
 37
0.0
 76
0
330
212
345
0
346
0
  0
LAYOUT
  5
3D7
102
{ACAD_REACTORS
330
1A
102
}
100
AcDbPlotSettings
  1

  2
none_device
  4
ISO_A4_(297.00_x_210.00_MM)
  6

 40
0.0
 41
0.0
 42
0.0
 43
0.0
 44
297.0
 45
210.0
 46
0.0
 47
0.0
 48
0.0
 49
0.0
140
0.0
141
0.0
142
1.0
143
1.0
 70
0
 72
1
 73
0
 74
0
  7

 75
0
147
1.0
148
0.0
149
0.0
100
AcDbLayout
  1
Layout1
 70
0
 71
1
 10
0.0
 20
0.0
 11
297.0
 21
210.0
 12
0.0
 22
0.0
 32
0.0
 14
0.0
 24
0.0
 34
0.0
 15
0.0
 25
0.0
 35
0.0
146
0.0
 13
0.0
 23
0.0
 33
0.0
 16
1.0
 26
0.0
 36
0.0
 17
0.0
 27
1.0
 37
0.0
 76
0
330
213
345
0
346
0
  0
ENDSEC
  0
EOF
