  0
SECTION
  2
HEADER
  9
$ACADVER
  1
AC1024
  9
$DWGCODEPAGE
  3
ANSI_1252
  9
$EXTMAX
 10
297.0
 20
210.0
 30
0.0
  9
$EXTMIN
 10
0.0
 20
0.0
 30
0.0
  9
$LIMMIN
 10
0.0
 20
0.0
  9
$LIMMAX
 10
297.0
 20
210.0
  9
$VIEWCTR
 10
148.5
 20
105.0
  9
$VIEWSIZE
 40
210.0
  9
$CLAYER
  8
0
  9
$LTSCALE
 40
16.335
  9
$CELTYPE
  6
BYLAYER
  9
$DIMSCALE
 40
1.0
  9
$DIMASZ
 40
3.0
  9
$DIMEXO
 40
0.5
  9
$DIMDLI
 40
11.286
  9
$DIMEXE
 40
1.5
  9
$DIMCEN
 40
2.673
  9
$DIMLFAC
 40
1.0
  9
$DIMBLK
  1
_FILLED
  9
$DIMALT
 70
0
  9
$DIMALTF
 40
0.0393700787
  9
$DIMTXT
 40
3.0
  9
$DIMTOL
 70
1
  9
$DIMLIM
 70
0
  9
$DIMTFAC
 40
1.0
  9
$DIMTP
 40
0.01
  9
$DIMTM
 40
0.01
  9
$DIMGAP
 40
0.625
  9
$DIMDSEP
 70
44
  9
$AUNITS
 70
0
  9
$PDMODE
 70
3
  9
$PDSIZE
 40
3.0
  9
$HANDSEED
  5
306
  9
$TILEMODE
 70
1
  9
$MEASUREMENT
 70
1
  9
$INSUNITS
 70
4
  0
ENDSEC
  0
SECTION
  2
CLASSES
  0
CLASS
  1
ACDBDICTIONARYWDFLT
  2
AcDbDictionaryWithDefault
  3
AutoCAD 2000
 90
0
 91
1
280
0
281
0
  0
CLASS
  1
ACDBPLACEHOLDER
  2
AcDbPlaceHolder
  3
AutoCAD 2000
 90
0
 91
1
280
0
281
0
  0
CLASS
  1
LAYOUT
  2
AcDbLayout
  3
AutoCAD 2000
 90
0
 91
0
280
0
281
0
  0
ENDSEC
  0
SECTION
  2
TABLES
  0
TABLE
  2
VPORT
  5
8
100
AcDbSymbolTable
 70
2
  0
VPORT
  5
1F4
100
AcDbSymbolTableRecord
100
AcDbViewportTableRecord
  2
*ACTIVE
 70
0
 10
0.0
 20
0.0
 11
1.0
 21
1.0
 12
148.5
 22
105.0
 13
0.0
 23
0.0
 14
1.0
 24
1.0
 15
0.0
 25
0.0
 16
0.0
 26
0.0
 36
1.0
 17
0.0
 27
0.0
 37
0.0
 40
210.0
 41
1.4142857143
 42
50.0
 43
0.0
 44
0.0
 50
0.0
 51
0.0
 71
0
 72
100
 73
1
 74
1
 75
0
 76
0
 77
0
 78
0
  0
ENDTAB
  0
TABLE
  2
LTYPE
  5
5
100
AcDbSymbolTable
 70
6
  0
LTYPE
  5
14
100
AcDbSymbolTableRecord
100
AcDbLinetypeTableRecord
  2
BYBLOCK
 70
0
  3

 72
65
 73
0
 40
0.0
  0
LTYPE
  5
15
100
AcDbSymbolTableRecord
100
AcDbLinetypeTableRecord
  2
BYLAYER
 70
0
  3

 72
65
 73
0
 40
0.0
  0
LTYPE
  5
16
100
AcDbSymbolTableRecord
100
AcDbLinetypeTableRecord
  2
CONTINUOUS
 70
64
  3
Solid line
 72
65
 73
0
 40
0.0
  0
LTYPE
  5
1F5
100
AcDbSymbolTableRecord
100
AcDbLinetypeTableRecord
  2
CENTER
 70
64
  3
____ _ ____ _ ____ _ ____ _ ____ _ ____ _ ____
 72
65
 73
4
 40
0.6
 49
0.375
 74
0
 49
-0.075
 74
0
 49
0.075
 74
0
 49
-0.075
 74
0
  0
LTYPE
  5
1F6
100
AcDbSymbolTableRecord
100
AcDbLinetypeTableRecord
  2
HIDDEN
 70
64
  3
- - - - - - - - - - - - - - - - - - - -
 72
65
 73
2
 40
0.2
 49
0.1
 74
0
 49
-0.1
 74
0
  0
LTYPE
  5
1F7
100
AcDbSymbolTableRecord
100
AcDbLinetypeTableRecord
  2
PHANTOM
 70
64
  3
_____ _ _ _____ _ _ _____ _ _ _____
 72
65
 73
6
 40
0.8
 49
0.45
 74
0
 49
-0.05
 74
0
 49
0.1
 74
0
 49
-0.05
 74
0
 49
0.1
 74
0
 49
-0.05
 74
0
  0
LTYPE
  5
1F8
100
AcDbSymbolTableRecord
100
AcDbLinetypeTableRecord
  2
DOT
 70
64
  3
. . . . . . . . . . . . . . . . . . . .
 72
65
 73
2
 40
0.2
 49
0.1
 74
0
 49
-0.1
 74
0
  0
LTYPE
  5
1F9
100
AcDbSymbolTableRecord
100
AcDbLinetypeTableRecord
  2
DASHED
 70
64
  3
- - - - - - - - - - - - - - - - - - - -
 72
65
 73
2
 40
0.2
 49
0.1
 74
0
 49
-0.1
 74
0
  0
ENDTAB
  0
TABLE
  2
LAYER
  5
2
100
AcDbSymbolTable
 70
36
  0
LAYER
  5
10
100
AcDbSymbolTableRecord
100
AcDbLayerTableRecord
  2
0
 70
0
 62
7
  6
CONTINUOUS
370
-3
390
F
  0
LAYER
  5
1FA
100
AcDbSymbolTableRecord
100
AcDbLayerTableRecord
  2
DEFAULT_1
 70
0
 62
7
  6
CENTER
370
-3
390
F
  0
LAYER
  5
1FB
100
AcDbSymbolTableRecord
100
AcDbLayerTableRecord
  2
DEFAULT_2
 70
0
 62
7
  6
HIDDEN
370
-3
390
F
  0
LAYER
  5
1FC
100
AcDbSymbolTableRecord
100
AcDbLayerTableRecord
  2
DEFAULT_3
 70
0
 62
7
  6
PHANTOM
370
-3
390
F
  0
LAYER
  5
1FD
100
AcDbSymbolTableRecord
100
AcDbLayerTableRecord
  2
26216763_GEN
 70
0
 62
7
  6
CONTINUOUS
370
-3
390
F
  0
LAYER
  5
1FE
100
AcDbSymbolTableRecord
100
AcDbLayerTableRecord
  2
ASSI
 70
0
 62
7
  6
CONTINUOUS
370
-3
390
F
  0
LAYER
  5
1FF
100
AcDbSymbolTableRecord
100
AcDbLayerTableRecord
  2
COORDINATE
 70
0
 62
7
  6
CONTINUOUS
370
-3
390
F
  0
LAYER
  5
200
100
AcDbSymbolTableRecord
100
AcDbLayerTableRecord
  2
COORD_ORIGINE
 70
0
 62
7
  6
CONTINUOUS
370
-3
390
F
  0
LAYER
  5
201
100
AcDbSymbolTableRecord
100
AcDbLayerTableRecord
  2
COSMETICI
 70
0
 62
7
  6
CONTINUOUS
370
-3
390
F
  0
LAYER
  5
202
100
AcDbSymbolTableRecord
100
AcDbLayerTableRecord
  2
CURVE
 70
0
 62
7
  6
CONTINUOUS
370
-3
390
F
  0
LAYER
  5
203
100
AcDbSymbolTableRecord
100
AcDbLayerTableRecord
  2
IGES_SCRITTE
 70
0
 62
7
  6
CONTINUOUS
370
-3
390
F
  0
LAYER
  5
204
100
AcDbSymbolTableRecord
100
AcDbLayerTableRecord
  2
INTF_1
 70
0
 62
7
  6
CONTINUOUS
370
-3
390
F
  0
LAYER
  5
205
100
AcDbSymbolTableRecord
100
AcDbLayerTableRecord
  2
INTF_7
 70
0
 62
7
  6
CONTINUOUS
370
-3
390
F
  0
LAYER
  5
206
100
AcDbSymbolTableRecord
100
AcDbLayerTableRecord
  2
NOTE
 70
0
 62
7
  6
CONTINUOUS
370
-3
390
F
  0
LAYER
  5
207
100
AcDbSymbolTableRecord
100
AcDbLayerTableRecord
  2
PIANI
 70
0
 62
7
  6
CONTINUOUS
370
-3
390
F
  0
LAYER
  5
208
100
AcDbSymbolTableRecord
100
AcDbLayerTableRecord
  2
PIANI_DI_RIFERIMENTO
 70
0
 62
7
  6
CONTINUOUS
370
-3
390
F
  0
LAYER
  5
209
100
AcDbSymbolTableRecord
100
AcDbLayerTableRecord
  2
PIANI_ORIGINE
 70
0
 62
7
  6
CONTINUOUS
370
-3
390
F
  0
LAYER
  5
20A
100
AcDbSymbolTableRecord
100
AcDbLayerTableRecord
  2
PUNTI
 70
0
 62
7
  6
CONTINUOUS
370
-3
390
F
  0
LAYER
  5
20B
100
AcDbSymbolTableRecord
100
AcDbLayerTableRecord
  2
RGB__255__255__255__
 70
0
 62
7
  6
CONTINUOUS
370
-3
390
F
  0
LAYER
  5
20C
100
AcDbSymbolTableRecord
100
AcDbLayerTableRecord
  2
RGB____0____0____0__
 70
0
 62
7
  6
CONTINUOUS
370
-3
390
F
  0
LAYER
  5
20D
100
AcDbSymbolTableRecord
100
AcDbLayerTableRecord
  2
SIMBOLI
 70
0
 62
7
  6
CONTINUOUS
370
-3
390
F
  0
LAYER
  5
20E
100
AcDbSymbolTableRecord
100
AcDbLayerTableRecord
  2
SNAPLINE
 70
0
 62
7
  6
CONTINUOUS
370
-3
390
F
  0
LAYER
  5
20F
100
AcDbSymbolTableRecord
100
AcDbLayerTableRecord
  2
SUPERFICI
 70
0
 62
7
  6
CONTINUOUS
370
-3
390
F
  0
LAYER
  5
210
100
AcDbSymbolTableRecord
100
AcDbLayerTableRecord
  2
TRASH
 70
0
 62
7
  6
CONTINUOUS
370
-3
390
F
  0
LAYER
  5
211
100
AcDbSymbolTableRecord
100
AcDbLayerTableRecord
  2
XSEC_DATUMS
 70
0
 62
7
  6
CONTINUOUS
370
-3
390
F
  0
ENDTAB
  0
TABLE
  2
STYLE
  5
3
100
AcDbSymbolTable
 70
1
  0
STYLE
  5
11
100
AcDbSymbolTableRecord
100
AcDbTextStyleTableRecord
  2
STANDARD
 70
0
 40
0.0
 41
0.8
 50
0.0
 71
0
 42
0.2
  3
txt
  4

  0
STYLE
  5
212
100
AcDbSymbolTableRecord
100
AcDbTextStyleTableRecord
  2
TEXTSTYLE_1
 70
0
 40
0.0
 41
0.8
 50
0.0
 71
0
 42
0.2
  3
gdt
  4

  0
ENDTAB
  0
TABLE
  2
VIEW
  5
6
100
AcDbSymbolTable
 70
0
  0
ENDTAB
  0
TABLE
  2
UCS
  5
7
100
AcDbSymbolTable
 70
0
  0
ENDTAB
  0
TABLE
  2
APPID
  5
9
100
AcDbSymbolTable
 70
1
  0
APPID
  5
213
100
AcDbSymbolTableRecord
100
AcDbRegAppTableRecord
  2
ACAD
 70
0
  0
ENDTAB
  0
TABLE
  2
BLOCK_RECORD
  5
1
100
AcDbSymbolTable
 70
0
  0
BLOCK_RECORD
  5
214
100
AcDbSymbolTableRecord
100
AcDbBlockTableRecord
  2
*Model_Space
  0
BLOCK_RECORD
  5
215
100
AcDbSymbolTableRecord
100
AcDbBlockTableRecord
  2
*Paper_Space
  0
BLOCK_RECORD
  5
216
100
AcDbSymbolTableRecord
100
AcDbBlockTableRecord
  2
_FILLED
  0
ENDTAB
  0
TABLE
  2
DIMSTYLE
  5
A
100
AcDbSymbolTable
 70
1
100
AcDbDimStyleTable
 71
0
  0
DIMSTYLE
105
217
100
AcDbSymbolTableRecord
100
AcDbDimStyleTableRecord
  2
STANDARD
 70
0
  3

  4

 40
1.0
 41
3.0
 42
0.5
 43
0.38
 44
1.5
 45
0.0
 46
0.0
 47
0.01
 48
0.01
140
3.0
141
0.09
142
0.0
143
25.4
144
1.0
145
0.0
146
1.0
147
0.625
 71
1
 72
0
 73
0
 74
0
 75
0
 76
0
 77
1
 78
8
 79
2
170
0
171
1
172
0
173
0
174
0
175
0
176
0
177
0
178
0
270
2
179
2
271
2
272
2
273
2
274
2
275
0
280
0
281
0
282
0
283
1
284
8
285
0
286
0
287
3
288
0
340
11
278
44
341
216
342
216
343
216
344
216
  0
ENDTAB
  0
ENDSEC
  0
SECTION
  2
BLOCKS
  0
BLOCK
  5
20
100
AcDbEntity
  8
0
100
AcDbBlockBegin
  2
*Model_Space
 70
0
 10
0.0
 20
0.0
 30
0.0
  3
*Model_Space
  1

  0
ENDBLK
  5
21
100
AcDbEntity
  8
0
100
AcDbBlockEnd
  0
BLOCK
  5
1C
100
AcDbEntity
  8
0
100
AcDbBlockBegin
  2
*Paper_Space
 70
0
 10
0.0
 20
0.0
 30
0.0
  3
*Paper_Space
  1

  0
ENDBLK
  5
1D
100
AcDbEntity
  8
0
100
AcDbBlockEnd
  0
BLOCK
  5
218
100
AcDbEntity
  8
0
100
AcDbBlockBegin
  2
_FILLED
 70
64
 10
0.0
 20
0.0
  3
_FILLED
  1

  0
SOLID
  5
219
100
AcDbEntity
  8
0
  6
BYBLOCK
 62
0
100
AcDbTrace
 10
0.0
 20
0.0
 11
-1.0
 21
0.3166666667
 12
-1.0
 22
-0.3166666667
 13
-1.0
 23
-0.3166666667
  0
ENDBLK
  5
21A
100
AcDbEntity
  8
0
  6
BYBLOCK
 62
0
100
AcDbBlockEnd
  0
ENDSEC
  0
SECTION
  2
ENTITIES
  0
LWPOLYLINE
  5
21B
100
AcDbEntity
  8
0
100
AcDbPolyline
 62
7
  6
CONTINUOUS
 90
18
 70
0
 10
-40.7401005477
 20
55.2764297147
 10
-40.7984220648
 20
55.2290899343
 10
-41.0075893125
 20
55.0494162691
 10
-41.2093381173
 20
54.8601481481
 10
-41.4032433263
 20
54.6615539864
 10
-41.5890236224
 20
54.4537712849
 10
-41.7662107011
 20
54.2371702212
 10
-41.934355965
 20
54.0121584966
 10
-42.0932079333
 20
53.7789103466
 10
-42.2423456043
 20
53.5378560931
 10
-42.3813858377
 20
53.2894469965
 10
-42.5101389657
 20
53.0338413222
 10
-42.6282768829
 20
52.7714656143
 10
-42.7354709857
 20
52.5028277931
 10
-42.8315400685
 20
52.2281262019
 10
-42.9162554486
 20
51.9477329253
 10
-42.9893505749
 20
51.6622482347
 10
-43.0266933589
 20
51.4928323621
  0
LINE
  5
21C
100
AcDbEntity
  8
0
100
AcDbLine
 62
7
  6
CONTINUOUS
 10
-39.4061717541
 20
56.34622482
 11
-40.7405195214
 21
55.2761006154
  0
LWPOLYLINE
  5
21D
100
AcDbEntity
  8
0
100
AcDbPolyline
 62
250
  6
CONTINUOUS
 90
24
 70
0
 10
-40.7401284382
 20
55.2764141825
 10
-40.6940819902
 20
55.3123128397
 10
-40.5445522132
 20
55.4159963433
 10
-40.3864738641
 20
55.5068400403
 10
-40.2201464756
 20
55.5846749582
 10
-40.0459237193
 20
55.6493277147
 10
-39.8641384317
 20
55.7006799496
 10
-39.6751351989
 20
55.7386415185
 10
-39.4793085759
 20
55.7631201697
 10
-39.2770354552
 20
55.7740754114
 10
-39.0687015204
 20
55.771495397
 10
-38.8547342457
 20
55.7553696836
 10
-38.6355490532
 20
55.7257359035
 10
-38.4115644549
 20
55.6826605117
 10
-38.183228235
 20
55.6262136857
 10
-37.9509781129
 20
55.5565076854
 10
-37.7152662082
 20
55.4736860666
 10
-37.4765743303
 20
55.3779041251
 10
-37.2353754227
 20
55.2693556635
 10
-36.9921287461
 20
55.1482569747
 10
-36.7473039012
 20
55.0148329971
 10
-36.5013763707
 20
54.8693408465
 10
-36.2548269145
 20
54.7120715999
 10
-36.0081369787
 20
54.543333829
  0
LWPOLYLINE
  5
21E
100
AcDbEntity
  8
0
100
AcDbPolyline
 62
250
  6
CONTINUOUS
 90
28
 70
0
 10
-36.0081369787
 20
54.543333829
 10
-36.2113691077
 20
54.383625664
 10
-36.4134835413
 20
54.2140802988
 10
-36.6139249244
 20
54.0351635973
 10
-36.8121424993
 20
53.8473671736
 10
-37.0075916186
 20
53.6512070406
 10
-37.1997352419
 20
53.4472221923
 10
-37.3880454113
 20
53.2359731231
 10
-37.5720047022
 20
53.0180402872
 10
-37.7511076451
 20
52.7940225043
 10
-37.9248621144
 20
52.5645353136
 10
-38.0927906805
 20
52.3302092828
 10
-38.2544319219
 20
52.0916882754
 10
-38.4093416929
 20
51.8496276815
 10
-38.5570943441
 20
51.6046926171
 10
-38.6972838917
 20
51.3575560964
 10
-38.8295251336
 20
51.1088971827
 10
-38.953454707
 20
50.8593991222
 10
-39.0687320876
 20
50.6097474671
 10
-39.1750405249
 20
50.3606281914
 10
-39.2720879125
 20
50.1127258064
 10
-39.3596075908
 20
49.8667214797
 10
-39.4373590799
 20
49.6232911635
 10
-39.50512874
 20
49.3831037375
 10
-39.5627303587
 20
49.1468191707
 10
-39.6100056627
 20
48.9150867079
 10
-39.6468247523
 20
48.6885430865
 10
-39.6730864589
 20
48.4678107859
  0
LINE
  5
21F
100
AcDbEntity
  8
0
100
AcDbLine
 62
250
  6
CONTINUOUS
 10
-34.6906633431
 20
55.5439742382
 11
-36.0081369787
 21
54.543333829
  0
LWPOLYLINE
  5
220
100
AcDbEntity
  8
0
100
AcDbPolyline
 62
250
  6
CONTINUOUS
 90
3
 70
0
 10
-42.3506991875
 20
43.4951654756
 10
-41.9536015765
 20
45.7558393723
 10
-41.5122610067
 20
48.0141009559
  0
LWPOLYLINE
  5
221
100
AcDbEntity
  8
0
100
AcDbPolyline
 62
250
  6
CONTINUOUS
 90
20
 70
0
 10
-43.0267957018
 20
51.4923429527
 10
-43.0415939962
 20
51.4154567842
 10
-43.0688842479
 20
51.2221872914
 10
-43.082467738
 20
51.0267799307
 10
-43.0823101627
 20
50.8297281865
 10
-43.06841192
 20
50.631529696
 10
-43.0408081086
 20
50.4326849924
 10
-42.9995684395
 20
50.2336962408
 10
-42.9447970601
 20
50.0350659702
 10
-42.8766322906
 20
49.837295804
 10
-42.7952462754
 20
49.6408851939
 10
-42.7008445477
 20
49.4463301578
 10
-42.5936655111
 20
49.2541220276
 10
-42.4739798368
 20
49.0647462085
 10
-42.3420897808
 20
48.8786809526
 10
-42.19832842
 20
48.6963961518
 10
-42.0430588113
 20
48.5183521506
 10
-41.8766730746
 20
48.3449985837
 10
-41.6995914028
 20
48.1767732405
 10
-41.5122610005
 20
48.0141009597
  0
LWPOLYLINE
  5
222
100
AcDbEntity
  8
0
100
AcDbPolyline
 62
7
  6
CONTINUOUS
 90
22
 70
0
 10
-43.0267957018
 20
51.4923429527
 10
-43.4723523586
 20
49.2376901629
 10
-43.8858840429
 20
46.9133903821
 10
-44.2540887962
 20
44.5829141843
 10
-44.5767498765
 20
42.246761881
 10
-44.8536984499
 20
39.9054267399
 10
-45.0847788584
 20
37.5594241488
 10
-45.2698538164
 20
35.2092252293
 10
-45.4088268185
 20
32.855326454
 10
-45.5016121019
 20
30.498282166
 10
-45.5481415321
 20
28.1385804397
 10
-45.5483920404
 20
25.7767258295
 10
-45.5023565667
 20
23.4132964091
 10
-45.410043756
 20
21.0487946972
 10
-45.2715072358
 20
18.6837070231
 10
-45.0868183001
 20
16.3185841613
 10
-44.8560585921
 20
13.9539175262
 10
-44.5793501672
 20
11.5901718029
 10
-44.2568329163
 20
9.2278528893
 10
-43.8886594237
 20
6.8674441625
 10
-43.4750299938
 20
4.5094380038
 10
-43.0303801261
 20
2.2239623122
  0
LINE
  5
223
100
AcDbEntity
  8
0
100
AcDbLine
 62
7
  6
CONTINUOUS
 10
-43.0266941407
 20
51.4928325243
 11
-43.0267957018
 21
51.4923429527
  0
LWPOLYLINE
  5
224
100
AcDbEntity
  8
0
100
AcDbPolyline
 62
250
  6
CONTINUOUS
 90
34
 70
0
 10
-41.5122610067
 20
48.0141009559
 10
-41.4951128873
 20
48.0881354952
 10
-41.4747924598
 20
48.15907433
 10
-41.4513004335
 20
48.2269170212
 10
-41.4245794761
 20
48.2917901774
 10
-41.3946882291
 20
48.353566379
 10
-41.3618017441
 20
48.4118639116
 10
-41.3259038602
 20
48.4666575745
 10
-41.2870128519
 20
48.5179712709
 10
-41.245356134
 20
48.5654965127
 10
-41.2009193214
 20
48.6092092847
 10
-41.1537194509
 20
48.6491319815
 10
-41.1040316625
 20
48.6850253708
 10
-41.0518420621
 20
48.7168652396
 10
-40.997167542
 20
48.7446739743
 10
-40.9403298887
 20
48.7682819592
 10
-40.8813176761
 20
48.7876630775
 10
-40.8201454688
 20
48.8028415387
 10
-40.7571743722
 20
48.813723016
 10
-40.6923953075
 20
48.8202808343
 10
-40.6258204089
 20
48.8225398158
 10
-40.5578427958
 20
48.8204827623
 10
-40.4884560338
 20
48.8140832749
 10
-40.4176693119
 20
48.8033660846
 10
-40.3458992489
 20
48.7883906496
 10
-40.2731394572
 20
48.7691301723
 10
-40.1993985821
 20
48.7456100851
 10
-40.1251157451
 20
48.7179682202
 10
-40.0502847949
 20
48.6861761828
 10
-39.9749134839
 20
48.6502614002
 10
-39.8994616559
 20
48.6104455188
 10
-39.8240828749
 20
48.5668022497
 10
-39.7486244067
 20
48.5192573805
 10
-39.6730864589
 20
48.4678107859
  0
LWPOLYLINE
  5
225
100
AcDbEntity
  8
0
100
AcDbPolyline
 62
250
  6
CONTINUOUS
 90
4
 70
0
 10
-43.8935919729
 20
27.6104235853
 10
-43.805442907
 20
29.8860829621
 10
-43.6732036958
 20
32.1601816667
 10
-43.4968848965
 20
34.4320931336
  0
LINE
  5
226
100
AcDbEntity
  8
0
100
AcDbLine
 62
250
  6
CONTINUOUS
 10
-43.4968848965
 20
34.4320931336
 11
-43.2765479775
 21
36.7011638673
  0
LINE
  5
227
100
AcDbEntity
  8
0
100
AcDbLine
 62
250
  6
CONTINUOUS
 10
-43.2765479775
 20
36.7011638673
 11
-43.0121568546
 21
38.967643534
  0
LWPOLYLINE
  5
228
100
AcDbEntity
  8
0
100
AcDbPolyline
 62
250
  6
CONTINUOUS
 90
3
 70
0
 10
-43.0121568546
 20
38.967643534
 10
-42.7035637274
 20
41.2322678024
 10
-42.3506991875
 20
43.4951654756
  0
LWPOLYLINE
  5
229
100
AcDbEntity
  8
0
100
AcDbPolyline
 62
250
  6
CONTINUOUS
 90
19
 70
0
 10
-29.5814751879
 20
32.6913307613
 10
-29.5536553264
 20
32.7248671709
 10
-29.5233564374
 20
32.7562457183
 10
-29.4908091103
 20
32.7852275925
 10
-29.4562610463
 20
32.8115922223
 10
-29.4199751749
 20
32.8351389544
 10
-29.3822276524
 20
32.8556885807
 10
-29.3433057583
 20
32.8730847036
 10
-29.3035057108
 20
32.887194925
 10
-29.2631304137
 20
32.897911854
 10
-29.2224871469
 20
32.9051539257
 10
-29.1818852308
 20
32.9088660207
 10
-29.1416336737
 20
32.9090198851
 10
-29.1020388151
 20
32.9056143458
 10
-29.0634019969
 20
32.8986753191
 10
-29.0260172731
 20
32.8882556145
 10
-28.9901691662
 20
32.8744345318
 10
-28.956130502
 20
32.8573172568
 10
-28.9241603367
 20
32.8370340617
  0
LWPOLYLINE
  5
22A
100
AcDbEntity
  8
0
100
AcDbPolyline
 62
7
  6
CONTINUOUS
 90
8
 70
0
 10
32.6951873501
 20
-51.0700791135
 10
32.6882829387
 20
-51.068688289
 10
32.6719665727
 20
-51.0638828084
 10
32.6549048726
 20
-51.0574062146
 10
32.6373959348
 20
-51.0493869139
 10
32.6195390727
 20
-51.0398677503
 10
32.6012348248
 20
-51.0288059982
 10
32.582483154
 20
-51.0162016872
  0
LWPOLYLINE
  5
22B
100
AcDbEntity
  8
0
100
AcDbPolyline
 62
250
  6
CONTINUOUS
 90
15
 70
0
 10
-29.1681913936
 20
32.3772443049
 10
-29.1424894409
 20
32.4123907635
 10
-29.1142933858
 20
32.4453677157
 10
-29.0838177857
 20
32.4759241686
 10
-29.0512950313
 20
32.503827837
 10
-29.0169721493
 20
32.5288660651
 10
-28.9811089433
 20
32.5508474601
 10
-28.9439778371
 20
32.5696044238
 10
-28.9058619713
 20
32.5849945297
 10
-28.8670516344
 20
32.5969007703
 10
-28.8278421981
 20
32.6052325317
 10
-28.7885320713
 20
32.6099264022
 10
-28.7494206245
 20
32.6109467714
 10
-28.7108055162
 20
32.6082858695
 10
-28.6729806289
 20
32.6019639437
  0
LWPOLYLINE
  5
22C
100
AcDbEntity
  8
0
100
AcDbPolyline
 62
250
  6
CONTINUOUS
 90
4
 70
0
 10
-28.6300045675
 20
32.5121568541
 10
-28.6074950601
 20
32.5260837431
 10
-28.5854028504
 20
32.5400310047
 10
-28.5637925718
 20
32.5539653799
  0
LWPOLYLINE
  5
22D
100
AcDbEntity
  8
0
100
AcDbPolyline
 62
250
  6
CONTINUOUS
 90
14
 70
0
 10
-43.029941258
 20
2.221815341
 10
-42.99956899
 20
2.0906010112
 10
-42.9447975719
 20
1.9063732391
 10
-42.8766327617
 20
1.7257236195
 10
-42.7952467039
 20
1.5491083675
 10
-42.7008449319
 20
1.3769735098
 10
-42.5936658492
 20
1.2097537582
 10
-42.4739801275
 20
1.0478714117
 10
-42.3420900226
 20
0.8917352904
 10
-42.1983286118
 20
0.7417397025
 10
-42.0430589522
 20
0.598263449
 10
-41.8766731638
 20
0.4616688669
 10
-41.6995914397
 20
0.332300914
 10
-41.5122609846
 20
0.210486298
  0
LWPOLYLINE
  5
22E
100
AcDbEntity
  8
0
100
AcDbPolyline
 62
7
  6
CONTINUOUS
 90
25
 70
0
 10
-43.0299406437
 20
2.2218154665
 10
-43.0022795334
 20
2.0921864236
 10
-42.944882815
 20
1.8522264586
 10
-42.8739977928
 20
1.5934458936
 10
-42.7861302762
 20
1.3114110382
 10
-42.6807344847
 20
1.0119829576
 10
-42.5617838094
 20
0.7100168655
 10
-42.4289403084
 20
0.4056387731
 10
-42.2814531735
 20
0.0982188316
 10
-42.1252672907
 20
-0.2002340749
 10
-41.963098065
 20
-0.4866457015
 10
-41.7931941731
 20
-0.7657244464
 10
-41.616118612
 20
-1.0374597731
 10
-41.4327494389
 20
-1.3012910993
 10
-41.2424310507
 20
-1.5587306301
 10
-41.0432675043
 20
-1.812381342
 10
-40.8334154558
 20
-2.0641097177
 10
-40.6138190953
 20
-2.3121267527
 10
-40.3866392207
 20
-2.5536098137
 10
-40.1499315886
 20
-2.7901756901
 10
-39.9045797185
 20
-3.0203290372
 10
-39.6575382417
 20
-3.2375419893
 10
-39.4112446697
 20
-3.4403753756
 10
-39.1631009866
 20
-3.6315244614
 10
-38.9800500144
 20
-3.7643616247
  0
LINE
  5
22F
100
AcDbEntity
  8
0
100
AcDbLine
 62
7
  6
CONTINUOUS
 10
-43.0303801261
 20
2.2239623122
 11
-43.029941258
 21
2.221815341
  0
LWPOLYLINE
  5
230
100
AcDbEntity
  8
0
100
AcDbPolyline
 62
250
  6
CONTINUOUS
 90
13
 70
0
 10
-41.5122610067
 20
0.2104862802
 10
-41.9535981765
 20
2.4988903792
 10
-42.3506939169
 20
4.7866928583
 10
-42.7035579191
 20
7.0736913562
 10
-43.0121521279
 20
9.359359124
 10
-43.2765452073
 20
11.6438109536
 10
-43.4968835087
 20
13.9278253275
 10
-43.6732026965
 20
16.2116821843
 10
-43.8054420068
 20
18.4947334398
 10
-43.8935912935
 20
20.7763749303
 10
-43.9376568143
 20
23.0559976273
 10
-43.9376570572
 20
25.3338063706
 10
-43.8935919729
 20
27.6104235853
  0
LWPOLYLINE
  5
231
100
AcDbEntity
  8
0
100
AcDbPolyline
 62
250
  6
CONTINUOUS
 90
17
 70
0
 10
-30.8457370187
 20
38.5209360418
 10
-31.0545872821
 20
35.9149059881
 10
-31.2389201289
 20
33.3242525289
 10
-31.3987172403
 20
30.7492331268
 10
-31.5339627363
 20
28.1901036788
 10
-31.6446431757
 20
25.6471185259
 10
-31.7307475582
 20
23.120530427
 10
-31.7922673276
 20
20.6105905034
 10
-31.8291963724
 20
18.1175481683
 10
-31.8415310237
 20
15.6416511378
 10
-31.8292700559
 20
13.1831454702
 10
-31.7924146874
 20
10.7422754946
 10
-31.7309685797
 20
8.3192837426
 10
-31.6449378369
 20
5.9144109899
 10
-31.534331008
 20
3.5278962628
 10
-31.3991590859
 20
1.1599767676
 10
-31.2394355044
 20
-1.1891121581
  0
LWPOLYLINE
  5
232
100
AcDbEntity
  8
0
100
AcDbPolyline
 62
250
  6
CONTINUOUS
 90
3
 70
0
 10
-31.2394355044
 20
-1.1891121581
 10
-31.0551761361
 20
-3.5191370688
 10
-30.8463992926
 20
-5.8298664033
  0
LWPOLYLINE
  5
233
100
AcDbEntity
  8
0
100
AcDbPolyline
 62
250
  6
CONTINUOUS
 90
16
 70
0
 10
-29.5814751065
 20
32.6913306911
 10
-29.7215741494
 20
30.373982697
 10
-29.8416651774
 20
28.0699640624
 10
-29.9417481905
 20
25.7792747873
 10
-30.0218281878
 20
23.5017268554
 10
-30.0819001703
 20
21.2375082831
 10
-30.12194914
 20
18.9871831191
 10
-30.1419701006
 20
16.7507627722
 10
-30.1419680486
 20
14.5282358338
 10
-30.1219429754
 20
12.3201321268
 10
-30.0818898877
 20
10.1264473537
 10
-30.021813779
 20
7.9471858122
 10
-29.9417296209
 20
5.7828902185
 10
-29.8416424042
 20
3.633741478
 10
-29.7215471383
 20
1.4995586854
 10
-29.581443823
 20
-0.6196581593
  0
LWPOLYLINE
  5
234
100
AcDbEntity
  8
0
100
AcDbPolyline
 62
250
  6
CONTINUOUS
 90
10
 70
0
 10
-30.5509325447
 20
-3.5311988641
 10
-30.5921102824
 20
-3.7904649751
 10
-30.6316929653
 20
-4.0490013215
 10
-30.669463129
 20
-4.3068206879
 10
-30.705203916
 20
-4.5643479812
 10
-30.738698804
 20
-4.8212062235
 10
-30.76974954
 20
-5.076236197
 10
-30.7981722814
 20
-5.3291054433
 10
-30.8237810304
 20
-5.5802885095
 10
-30.8463992927
 20
-5.8298664014
  0
LWPOLYLINE
  5
235
100
AcDbEntity
  8
0
100
AcDbPolyline
 62
250
  6
CONTINUOUS
 90
16
 70
0
 10
-28.2352349209
 20
1.1923794075
 10
-28.2342021988
 20
1.1772337216
 10
-28.2316313496
 20
1.1611583527
 10
-28.2275505403
 20
1.1443294262
 10
-28.2220044807
 20
1.1269313235
 10
-28.2150539349
 20
1.1091546618
 10
-28.2067750544
 20
1.0911942062
 10
-28.1972585443
 20
1.0732467345
 10
-28.1866086696
 20
1.0555088838
 10
-28.1749421141
 20
1.0381749955
 10
-28.1623866993
 20
1.0214349831
 10
-28.1490799852
 20
1.0054722536
 10
-28.1351677652
 20
0.9904616995
 10
-28.1208024654
 20
0.9765677793
 10
-28.1061414746
 20
0.9639427159
 10
-28.0913454217
 20
0.9527248311
  0
LWPOLYLINE
  5
236
100
AcDbEntity
  8
0
100
AcDbPolyline
 62
250
  6
CONTINUOUS
 90
10
 70
0
 10
-30.8457370189
 20
38.5209360397
 10
-30.8232052315
 20
38.1661870315
 10
-30.7976801293
 20
37.8145878995
 10
-30.769337703
 20
37.4662446828
 10
-30.7383624755
 20
37.1207579156
 10
-30.70493876
 20
36.7787221489
 10
-30.669268057
 20
36.4417082168
 10
-30.6315685225
 20
36.1102703621
 10
-30.5920562042
 20
35.7839635986
 10
-30.5509488039
 20
35.4628312813
  0
LINE
  5
237
100
AcDbEntity
  8
0
100
AcDbLine
 62
7
  6
CONTINUOUS
 10
-27.3160476517
 20
1.8583874322
 11
-27.3160476517
 21
31.66991498
  0
LWPOLYLINE
  5
238
100
AcDbEntity
  8
0
100
AcDbPolyline
 62
250
  6
CONTINUOUS
 90
10
 70
0
 10
-30.3330664621
 20
-3.6574312848
 10
-30.4011552948
 20
-3.906693689
 10
-30.4668394014
 20
-4.1544074314
 10
-30.5300322269
 20
-4.4004593114
 10
-30.5908843256
 20
-4.6449543707
 10
-30.6490612611
 20
-4.887546171
 10
-30.7037991431
 20
-5.1274775167
 10
-30.7548420997
 20
-5.3644561585
 10
-30.8023868194
 20
-5.598614097
 10
-30.8463992926
 20
-5.8298664033
  0
LWPOLYLINE
  5
239
100
AcDbEntity
  8
0
100
AcDbPolyline
 62
250
  6
CONTINUOUS
 90
6
 70
0
 10
-29.5814439012
 20
-0.6196583373
 10
-29.6319598742
 20
-0.7767480577
 10
-29.6837978504
 20
-0.930150757
 10
-29.7363723784
 20
-1.0799896739
 10
-29.7893928449
 20
-1.227737705
 10
-29.8421520133
 20
-1.3722300285
  0
LWPOLYLINE
  5
23A
100
AcDbEntity
  8
0
100
AcDbPolyline
 62
250
  6
CONTINUOUS
 90
18
 70
0
 10
-30.1899987651
 20
-2.2991234576
 10
-30.2242895835
 20
-2.393335286
 10
-30.2568515633
 20
-2.4841049748
 10
-30.2876911785
 20
-2.5716374783
 10
-30.3167096372
 20
-2.6560023069
 10
-30.3440600131
 20
-2.737441753
 10
-30.3697409202
 20
-2.816065694
 10
-30.3937210856
 20
-2.8919835424
 10
-30.416119318
 20
-2.9654086445
 10
-30.4369443813
 20
-3.0364281349
 10
-30.4561889649
 20
-3.105128004
 10
-30.4739524398
 20
-3.1716997412
 10
-30.4902465696
 20
-3.2362119495
 10
-30.5050786385
 20
-3.2987304361
 10
-30.5185424775
 20
-3.3594269921
 10
-30.5306775357
 20
-3.4183909946
 10
-30.5414697072
 20
-3.475633462
 10
-30.5509325447
 20
-3.5311988641
  0
LINE
  5
23B
100
AcDbEntity
  8
0
100
AcDbLine
 62
250
  6
CONTINUOUS
 10
-30.1155762513
 20
-2.0988516694
 11
-30.1899987651
 21
-2.2991234576
  0
LINE
  5
23C
100
AcDbEntity
  8
0
100
AcDbLine
 62
250
  6
CONTINUOUS
 10
-29.8421520133
 20
-1.3722300285
 11
-30.1155762513
 21
-2.0988516694
  0
LWPOLYLINE
  5
23D
100
AcDbEntity
  8
0
100
AcDbPolyline
 62
250
  6
CONTINUOUS
 90
8
 70
0
 10
-28.9240943898
 20
-0.8356953428
 10
-28.996095765
 20
-0.9996152143
 10
-29.0686077346
 20
-1.1588498385
 10
-29.1416696953
 20
-1.313317323
 10
-29.2165231728
 20
-1.4638365834
 10
-29.2919647242
 20
-1.6094281787
 10
-29.3645912981
 20
-1.7473752389
 10
-29.433929781
 20
-1.8763720446
  0
LWPOLYLINE
  5
23E
100
AcDbEntity
  8
0
100
AcDbPolyline
 62
250
  6
CONTINUOUS
 90
7
 70
0
 10
-29.1682199327
 20
0.2790685829
 10
-29.2451670523
 20
0.1227715687
 10
-29.3188835835
 20
-0.030921756
 10
-29.3893695261
 20
-0.1820113911
 10
-29.4566248803
 20
-0.3304973367
 10
-29.5206496459
 20
-0.4763795928
 10
-29.581443823
 20
-0.6196581593
  0
LWPOLYLINE
  5
23F
100
AcDbEntity
  8
0
100
AcDbPolyline
 62
250
  6
CONTINUOUS
 90
7
 70
0
 10
-28.5351777185
 20
0.0101652788
 10
-28.607780297
 20
-0.1369696144
 10
-28.6771725505
 20
-0.2817217903
 10
-28.7434257829
 20
-0.4240261841
 10
-28.8066133996
 20
-0.56382405
 10
-28.8668106515
 20
-0.7010627167
 10
-28.9240943898
 20
-0.8356953428
  0
LWPOLYLINE
  5
240
100
AcDbEntity
  8
0
100
AcDbPolyline
 62
250
  6
CONTINUOUS
 90
14
 70
0
 10
-29.9774295514
 20
-2.8518553492
 10
-30.0178532658
 20
-2.9277609125
 10
-30.0559107522
 20
-3.0008119028
 10
-30.0917344726
 20
-3.071009041
 10
-30.1252588959
 20
-3.1387869746
 10
-30.1565497267
 20
-3.2042083489
 10
-30.1857159632
 20
-3.2672823343
 10
-30.2127363113
 20
-3.3283553465
 10
-30.2376654044
 20
-3.3874828413
 10
-30.2605955537
 20
-3.4446776431
 10
-30.2815448584
 20
-3.5002146557
 10
-30.300557682
 20
-3.5542048753
 10
-30.3177117961
 20
-3.6065997377
 10
-30.3330664621
 20
-3.6574312848
  0
LWPOLYLINE
  5
241
100
AcDbEntity
  8
0
100
AcDbPolyline
 62
250
  6
CONTINUOUS
 90
3
 70
0
 10
-29.8417553926
 20
-2.6050122022
 10
-29.8893837819
 20
-2.6907137316
 10
-29.9774295514
 20
-2.8518553492
  0
LWPOLYLINE
  5
242
100
AcDbEntity
  8
0
100
AcDbPolyline
 62
250
  6
CONTINUOUS
 90
3
 70
0
 10
-29.433929781
 20
-1.8763720446
 10
-29.625674423
 20
-2.2215727569
 10
-29.8417553926
 20
-2.6050122022
  0
LWPOLYLINE
  5
243
100
AcDbEntity
  8
0
100
AcDbPolyline
 62
7
  6
CONTINUOUS
 90
11
 70
0
 10
32.4759621298
 20
-51.0915079889
 10
32.4987188684
 20
-51.1066632814
 10
32.52108162
 20
-51.1196427931
 10
32.5428457071
 20
-51.1303305772
 10
32.5638006506
 20
-51.1386376003
 10
32.5837603302
 20
-51.1444878252
 10
32.6025640894
 20
-51.1478169364
 10
32.6200283541
 20
-51.1486021471
 10
32.6359860525
 20
-51.1468380468
 10
32.6503161007
 20
-51.1425206258
 10
32.6633741906
 20
-51.135345912
  0
LWPOLYLINE
  5
244
100
AcDbEntity
  8
0
100
AcDbPolyline
 62
7
  6
CONTINUOUS
 90
27
 70
0
 10
34.034656421
 20
-55.3935555673
 10
34.2217522815
 20
-55.5223678781
 10
34.4757495312
 20
-55.686307385
 10
34.7365974932
 20
-55.8419192219
 10
35.0054880704
 20
-55.9891838016
 10
35.2823730038
 20
-56.1272524762
 10
35.5658367801
 20
-56.2546751659
 10
35.8562957027
 20
-56.37096765
 10
36.1539225489
 20
-56.4754488018
 10
36.4565309897
 20
-56.5667179917
 10
36.7635982461
 20
-56.644167177
 10
37.0752645406
 20
-56.707354824
 10
37.3898103448
 20
-56.7555113211
 10
37.7065924064
 20
-56.7882414884
 10
38.0250745211
 20
-56.8052027183
 10
38.3432751405
 20
-56.8060980537
 10
38.6602448371
 20
-56.7908601144
 10
38.9752941341
 20
-56.7594937419
 10
39.2865977868
 20
-56.7122410068
 10
39.593223856
 20
-56.6494100054
 10
39.8944226966
 20
-56.5713463515
 10
40.1886071579
 20
-56.4787421393
 10
40.4750500579
 20
-56.3722086977
 10
40.7530779443
 20
-56.2524061295
 10
41.0212994199
 20
-56.120441482
 10
41.2789647615
 20
-55.9773158149
 10
41.397850709
 20
-55.9054902107
  0
LINE
  5
245
100
AcDbEntity
  8
0
100
AcDbLine
 62
7
  6
CONTINUOUS
 10
34.0348057959
 20
-55.3936618993
 11
-38.9800243622
 21
-3.7643803673
  0
LINE
  5
246
100
AcDbEntity
  8
0
100
AcDbLine
 62
250
  6
CONTINUOUS
 10
33.3417436937
 20
-54.0381102386
 11
-39.6730864589
 21
-2.4088287105
  0
LINE
  5
247
100
AcDbEntity
  8
0
100
AcDbLine
 62
7
  6
CONTINUOUS
 10
29.7783862502
 20
-50.1657673245
 11
30.1743804212
 21
-50.4457732112
  0
LINE
  5
248
100
AcDbEntity
  8
0
100
AcDbLine
 62
7
  6
CONTINUOUS
 10
28.3480181263
 20
-49.1543443245
 11
28.7440023978
 21
-49.4343432112
  0
LINE
  5
249
100
AcDbEntity
  8
0
100
AcDbLine
 62
7
  6
CONTINUOUS
 10
26.7856555624
 20
-48.0495914379
 11
27.1816497334
 21
-48.3295973245
  0
LINE
  5
24A
100
AcDbEntity
  8
0
100
AcDbLine
 62
7
  6
CONTINUOUS
 10
32.8483033
 20
-52.3365222112
 11
33.2943295184
 21
-52.6519060978
  0
LINE
  5
24B
100
AcDbEntity
  8
0
100
AcDbLine
 62
7
  6
CONTINUOUS
 10
25.4899453184
 20
-47.1333859379
 11
25.8859543386
 21
-47.4134023245
  0
LINE
  5
24C
100
AcDbEntity
  8
0
100
AcDbLine
 62
7
  6
CONTINUOUS
 10
27.5776344806
 20
-48.6096008245
 11
27.9736291273
 21
-48.8896113245
  0
LINE
  5
24D
100
AcDbEntity
  8
0
100
AcDbLine
 62
7
  6
CONTINUOUS
 10
29.1183968223
 20
-49.6990843245
 11
29.514391469
 21
-49.9790948245
  0
LINE
  5
24E
100
AcDbEntity
  8
0
100
AcDbLine
 62
7
  6
CONTINUOUS
 10
31.7098069351
 20
-51.5314837112
 11
32.1058065315
 21
-51.8114977112
  0
LINE
  5
24F
100
AcDbEntity
  8
0
100
AcDbLine
 62
7
  6
CONTINUOUS
 10
31.0498125574
 20
-51.0647972112
 11
31.4458126296
 21
-51.3448158245
  0
LWPOLYLINE
  5
250
100
AcDbEntity
  8
0
100
AcDbPolyline
 62
250
  6
CONTINUOUS
 90
34
 70
0
 10
-39.6730864589
 20
-2.4088287105
 10
-39.7486293763
 20
-2.3539460995
 10
-39.8240915899
 20
-2.2962554581
 10
-39.8994728926
 20
-2.2357566184
 10
-39.9749256153
 20
-2.1723158322
 10
-40.050296597
 20
-2.1060661749
 10
-40.1251272027
 20
-2.0374075609
 10
-40.199410085
 20
-1.9663269807
 10
-40.27315099
 20
-1.8928361466
 10
-40.3459107901
 20
-1.8173719477
 10
-40.4176808417
 20
-1.7399234147
 10
-40.4884675306
 20
-1.6604996893
 10
-40.5578542269
 20
-1.5795677897
 10
-40.6258317497
 20
-1.4971172651
 10
-40.6924065251
 20
-1.4131563385
 10
-40.7571853976
 20
-1.3281800911
 10
-40.8201562162
 20
-1.2421812617
 10
-40.8813280765
 20
-1.1551646434
 10
-40.9403398875
 20
-1.0676435579
 10
-40.9971770734
 20
-0.9796140597
 10
-41.0518510714
 20
-0.8910775627
 10
-41.1040401432
 20
-0.8025556976
 10
-41.153727412
 20
-0.7140488596
 10
-41.2009267563
 20
-0.6255542397
 10
-41.2453630366
 20
-0.5375890403
 10
-41.2870192101
 20
-0.4501542448
 10
-41.3259096678
 20
-0.3632467403
 10
-41.3618070131
 20
-0.2773780633
 10
-41.3946930641
 20
-0.1925498142
 10
-41.4245838888
 20
-0.1087587007
 10
-41.4513041764
 20
-0.0265094939
 10
-41.4747951999
 20
0.0540297779
 10
-41.4951143794
 20
0.1330281817
 10
-41.5122610067
 20
0.2104862802
  0
LWPOLYLINE
  5
251
100
AcDbEntity
  8
0
100
AcDbPolyline
 62
250
  6
CONTINUOUS
 90
11
 70
0
 10
-38.9800502988
 20
-3.7643620269
 10
-39.0687321755
 20
-3.6960791705
 10
-39.1750406012
 20
-3.5973027245
 10
-39.2720879768
 20
-3.4866460695
 10
-39.3596076432
 20
-3.3644132599
 10
-39.4373591206
 20
-3.2309401582
 10
-39.5051287698
 20
-3.086593512
 10
-39.5627303786
 20
-2.9317699464
 10
-39.6100056741
 20
-2.7668948743
 10
-39.646824757
 20
-2.5924213272
 10
-39.6730864589
 20
-2.4088287105
  0
LWPOLYLINE
  5
252
100
AcDbEntity
  8
0
100
AcDbPolyline
 62
250
  6
CONTINUOUS
 90
31
 70
0
 10
-30.5509488039
 20
35.4628312813
 10
-30.5416114406
 20
35.3953463187
 10
-30.5309364291
 20
35.3256427952
 10
-30.5189100384
 20
35.2537607903
 10
-30.505545564
 20
35.179779823
 10
-30.4908038571
 20
35.1037115987
 10
-30.4745926167
 20
35.0255034304
 10
-30.45690199
 20
34.9452158019
 10
-30.437722295
 20
34.8629115488
 10
-30.4169628871
 20
34.7785552771
 10
-30.3946290536
 20
34.6922244139
 10
-30.3707137317
 20
34.604001448
 10
-30.3451126715
 20
34.5138761117
 10
-30.3178537527
 20
34.4219420629
 10
-30.2889412834
 20
34.3283092772
 10
-30.2582462058
 20
34.2330160625
 10
-30.2258708584
 20
34.1362736952
 10
-30.1918032313
 20
34.0381256873
 10
-30.1557642727
 20
33.9384033541
 10
-30.1179836896
 20
33.8374525538
 10
-30.078422841
 20
33.7352662643
 10
-30.036454212
 20
33.6312516931
 10
-29.9922789024
 20
33.5253965804
 10
-29.9461060736
 20
33.4182462303
 10
-29.8974414378
 20
33.3102049732
 10
-29.8462603485
 20
33.2006325669
 10
-29.7934437883
 20
33.0909415321
 10
-29.739947243
 20
32.9846108438
 10
-29.6864445773
 20
32.8829322513
 10
-29.6333957846
 20
32.7851009447
 10
-29.5814751879
 20
32.6913307613
  0
LWPOLYLINE
  5
253
100
AcDbEntity
  8
0
100
AcDbPolyline
 62
250
  6
CONTINUOUS
 90
10
 70
0
 10
-30.8457370187
 20
38.5209360418
 10
-30.8018151315
 20
38.1569369819
 10
-30.7543569983
 20
37.7970027826
 10
-30.7033959765
 20
37.4411705775
 10
-30.64873291
 20
37.0888807363
 10
-30.5906245397
 20
36.7407703039
 10
-30.5298404269
 20
36.3986342803
 10
-30.4667179159
 20
36.063051427
 10
-30.4011051315
 20
35.7334230723
 10
-30.333089258
 20
35.4097394733
  0
LINE
  5
254
100
AcDbEntity
  8
0
100
AcDbLine
 62
7
  6
CONTINUOUS
 10
30.2622819556
 20
-50.1710396058
 11
30.8876874979
 21
-50.6132681058
  0
LINE
  5
255
100
AcDbEntity
  8
0
100
AcDbLine
 62
7
  6
CONTINUOUS
 10
30.3478022198
 20
-49.9051929902
 11
30.7316254375
 21
-50.1765969902
  0
LINE
  5
256
100
AcDbEntity
  8
0
100
AcDbLine
 62
7
  6
CONTINUOUS
 10
32.0334679584
 20
-51.0971343659
 11
32.3790845356
 21
-51.3415264902
  0
LINE
  5
257
100
AcDbEntity
  8
0
100
AcDbLine
 62
7
  6
CONTINUOUS
 10
30.454325938
 20
-49.8298693467
 11
30.659916449
 21
-49.9752437911
  0
LINE
  5
258
100
AcDbEntity
  8
0
100
AcDbLine
 62
7
  6
CONTINUOUS
 10
31.9941798742
 20
-50.7508350747
 11
32.4759622592
 21
-51.0915064832
  0
LINE
  5
259
100
AcDbEntity
  8
0
100
AcDbLine
 62
7
  6
CONTINUOUS
 10
32.1006889902
 20
-50.6755217566
 11
32.5824713752
 21
-51.0161931651
  0
LINE
  5
25A
100
AcDbEntity
  8
0
100
AcDbLine
 62
7
  6
CONTINUOUS
 10
31.9505717666
 20
-50.2998453453
 11
32.432358972
 21
-50.6405203453
  0
LINE
  5
25B
100
AcDbEntity
  8
0
100
AcDbLine
 62
250
  6
CONTINUOUS
 10
23.8836655713
 20
-44.5298664033
 11
-30.8463992926
 21
-5.8298664033
  0
LINE
  5
25C
100
AcDbEntity
  8
0
100
AcDbLine
 62
7
  6
CONTINUOUS
 10
24.6719547972
 20
-44.8327755499
 11
25.0679543936
 21
-45.1127895499
  0
LINE
  5
25D
100
AcDbEntity
  8
0
100
AcDbLine
 62
7
  6
CONTINUOUS
 10
25.9433815801
 20
-45.7318100499
 11
26.3393811766
 21
-46.0118240499
  0
LINE
  5
25E
100
AcDbEntity
  8
0
100
AcDbLine
 62
7
  6
CONTINUOUS
 10
26.6033759578
 20
-46.1984965499
 11
26.9993706045
 21
-46.4785070499
  0
LINE
  5
25F
100
AcDbEntity
  8
0
100
AcDbLine
 62
7
  6
CONTINUOUS
 10
27.3953504019
 20
-46.7585070499
 11
27.99398771
 21
-47.1818075499
  0
LINE
  5
260
100
AcDbEntity
  8
0
100
AcDbLine
 62
7
  6
CONTINUOUS
 10
28.7334700823
 20
-47.7047005499
 11
29.3321073903
 21
-48.1280010499
  0
LINE
  5
261
100
AcDbEntity
  8
0
100
AcDbLine
 62
7
  6
CONTINUOUS
 10
30.231802753
 20
-48.7641774082
 11
30.6278171987
 21
-49.0442019082
  0
LINE
  5
262
100
AcDbEntity
  8
0
100
AcDbLine
 62
7
  6
CONTINUOUS
 10
31.5275228965
 20
-49.6803899082
 11
32.4548084317
 21
-50.3360800182
  0
LINE
  5
263
100
AcDbEntity
  8
0
100
AcDbLine
 62
7
  6
CONTINUOUS
 10
24.7784310287
 20
-44.7574854845
 11
25.1744306252
 21
-45.0374994845
  0
LINE
  5
264
100
AcDbEntity
  8
0
100
AcDbLine
 62
7
  6
CONTINUOUS
 10
26.0498578117
 20
-45.6565199845
 11
26.4458574081
 21
-45.9365339845
  0
LINE
  5
265
100
AcDbEntity
  8
0
100
AcDbLine
 62
7
  6
CONTINUOUS
 10
26.7098521893
 20
-46.1232064845
 11
27.105846836
 21
-46.4032169845
  0
LINE
  5
266
100
AcDbEntity
  8
0
100
AcDbLine
 62
7
  6
CONTINUOUS
 10
27.5018266335
 20
-46.6832169845
 11
28.1004639416
 21
-47.1065174845
  0
LINE
  5
267
100
AcDbEntity
  8
0
100
AcDbLine
 62
7
  6
CONTINUOUS
 10
28.8399463138
 20
-47.6294104845
 11
29.4385836219
 21
-48.0527109845
  0
LINE
  5
268
100
AcDbEntity
  8
0
100
AcDbLine
 62
7
  6
CONTINUOUS
 10
30.3382789844
 20
-48.6888873429
 11
30.7342934301
 21
-48.9689118429
  0
LINE
  5
269
100
AcDbEntity
  8
0
100
AcDbLine
 62
7
  6
CONTINUOUS
 10
31.6339991279
 20
-49.6050998429
 11
32.561284663
 21
-50.260789953
  0
LINE
  5
26A
100
AcDbEntity
  8
0
100
AcDbLine
 62
250
  6
CONTINUOUS
 10
-30.3330664621
 20
-3.6574312848
 11
23.2253861741
 21
-41.5289763337
  0
LWPOLYLINE
  5
26B
100
AcDbEntity
  8
0
100
AcDbPolyline
 62
7
  6
CONTINUOUS
 90
32
 70
0
 10
32.4548085872
 20
-50.3360781408
 10
32.4976844965
 20
-50.3677065212
 10
32.5405837384
 20
-50.4019879169
 10
32.583296223
 20
-50.4387466748
 10
32.625624477
 20
-50.4777941819
 10
32.667354903
 20
-50.5189310547
 10
32.7082596686
 20
-50.5619460681
 10
32.7481153183
 20
-50.606576082
 10
32.786770942
 20
-50.6526296457
 10
32.8241083449
 20
-50.6999996064
 10
32.8600147922
 20
-50.7485399023
 10
32.8942409958
 20
-50.7979220649
 10
32.9264841743
 20
-50.8477562414
 10
32.9565355067
 20
-50.8976481567
 10
32.9843602599
 20
-50.9474742235
 10
33.0099211329
 20
-50.9972442353
 10
33.0331640043
 20
-51.0468695817
 10
33.0538705641
 20
-51.0959147574
 10
33.0717872374
 20
-51.1438784773
 10
33.0868175472
 20
-51.190342944
 10
33.0990010184
 20
-51.2352603962
 10
33.1083095704
 20
-51.2786873671
 10
33.1147100904
 20
-51.3205316306
 10
33.118125119
 20
-51.3603933031
 10
33.1184816761
 20
-51.3978859563
 10
33.1158347925
 20
-51.43271866
 10
33.1102459314
 20
-51.4648526309
 10
33.1016839463
 20
-51.4943019258
 10
33.0901628339
 20
-51.520955062
 10
33.0757615955
 20
-51.5445767948
 10
33.0585534722
 20
-51.5650065645
 10
33.0367599793
 20
-51.5834989129
  0
LWPOLYLINE
  5
26C
100
AcDbEntity
  8
0
100
AcDbPolyline
 62
250
  6
CONTINUOUS
 90
11
 70
0
 10
34.0346560944
 20
-55.3935560293
 10
33.946098065
 20
-55.3253607715
 10
33.8397896277
 20
-55.2265843295
 10
33.7427422401
 20
-55.1159276762
 10
33.6552225618
 20
-54.9936948656
 10
33.5774710727
 20
-54.8602217598
 10
33.5097014126
 20
-54.7158751062
 10
33.4520997939
 20
-54.5610515298
 10
33.4048244899
 20
-54.3961764431
 10
33.3680054003
 20
-54.2217028776
 10
33.3417436937
 20
-54.0381102386
  0
LWPOLYLINE
  5
26D
100
AcDbEntity
  8
0
100
AcDbPolyline
 62
250
  6
CONTINUOUS
 90
31
 70
0
 10
-30.333089258
 20
35.4097394733
 10
-30.3179229325
 20
35.3443522388
 10
-30.3009465104
 20
35.2767621507
 10
-30.2820986258
 20
35.2070224177
 10
-30.2612965198
 20
35.1352172898
 10
-30.2384957999
 20
35.0613764468
 10
-30.2136849817
 20
34.9854794266
 10
-30.1867691457
 20
34.9075866895
 10
-30.1576939278
 20
34.8277790493
 10
-30.1264944841
 20
34.7460808859
 10
-30.0930616609
 20
34.6625686294
 10
-30.0573304101
 20
34.5773405409
 10
-30.0193845469
 20
34.490472261
 10
-29.9790927597
 20
34.4020539556
 10
-29.9363827202
 20
34.3122123892
 10
-29.8914054871
 20
34.2211018158
 10
-29.8440451052
 20
34.1289203258
 10
-29.7941832297
 20
34.0357364742
 10
-29.741928418
 20
33.9415533919
 10
-29.6871479988
 20
33.8466861075
 10
-29.6296774177
 20
33.7511767265
 10
-29.5694838653
 20
33.6547220175
 10
-29.5060325959
 20
33.5572904282
 10
-29.4393926444
 20
33.45949179
 10
-29.3703295986
 20
33.3621129673
 10
-29.2977702191
 20
33.2645619848
 10
-29.2221740346
 20
33.1682523518
 10
-29.1467476225
 20
33.0768347886
 10
-29.0725748485
 20
32.9915691245
 10
-28.9984112165
 20
32.9115638565
 10
-28.9241603369
 20
32.8370340619
  0
LWPOLYLINE
  5
26E
100
AcDbEntity
  8
0
100
AcDbPolyline
 62
250
  6
CONTINUOUS
 90
22
 70
0
 10
-28.0913454217
 20
0.9527248311
 10
-28.1237863421
 20
0.9268317768
 10
-28.1552152011
 20
0.8972456941
 10
-28.1855622817
 20
0.8638776081
 10
-28.21468218
 20
0.8265489099
 10
-28.2425425032
 20
0.7852824416
 10
-28.269226231
 20
0.7403167035
 10
-28.2947640213
 20
0.6908443043
 10
-28.3188548483
 20
0.6375746633
 10
-28.3411517661
 20
0.5832269758
 10
-28.3613258054
 20
0.5283157797
 10
-28.3796176015
 20
0.4726591325
 10
-28.3966819603
 20
0.4181503452
 10
-28.412439512
 20
0.3655670851
 10
-28.4270531245
 20
0.3144849041
 10
-28.4415751861
 20
0.2649990759
 10
-28.4561840967
 20
0.2170708816
 10
-28.4707482728
 20
0.1709373907
 10
-28.4858332029
 20
0.1270700545
 10
-28.5016568999
 20
0.0856735437
 10
-28.5180886275
 20
0.0466860353
 10
-28.5351777185
 20
0.0101652788
  0
LWPOLYLINE
  5
26F
100
AcDbEntity
  8
0
100
AcDbPolyline
 62
250
  6
CONTINUOUS
 90
44
 70
0
 10
-28.5019487414
 20
1.0035285175
 10
-28.521952254
 20
0.9887766636
 10
-28.5425979175
 20
0.9733565172
 10
-28.5638197554
 20
0.957312913
 10
-28.5854338037
 20
0.9406784009
 10
-28.6074844222
 20
0.923411335
 10
-28.6299272511
 20
0.9055533611
 10
-28.6524452463
 20
0.8872619664
 10
-28.6750915022
 20
0.8684695188
 10
-28.6978129244
 20
0.8492436504
 10
-28.720133186
 20
0.8299447449
 10
-28.7419755811
 20
0.8106107392
 10
-28.7634168156
 20
0.7912036963
 10
-28.7842106799
 20
0.7719701894
 10
-28.8042678405
 20
0.7529812824
 10
-28.823677631
 20
0.7341659112
 10
-28.842461843
 20
0.7155574565
 10
-28.8606073702
 20
0.6971697609
 10
-28.878127319
 20
0.6789889817
 10
-28.8950827999
 20
0.661006971
 10
-28.9114757319
 20
0.6432246781
 10
-28.9273041961
 20
0.6256411537
 10
-28.9426235461
 20
0.608245402
 10
-28.9574351342
 20
0.5910390474
 10
-28.971737608
 20
0.5740204655
 10
-28.9855822638
 20
0.5571737873
 10
-28.9989725499
 20
0.5404977275
 10
-29.0119050181
 20
0.5239935714
 10
-29.0244206199
 20
0.5076493057
 10
-29.0365210108
 20
0.4914653381
 10
-29.0482045354
 20
0.4754412609
 10
-29.0595071789
 20
0.459563837
 10
-29.070430119
 20
0.4438339943
 10
-29.0809721779
 20
0.428250805
 10
-29.0911658073
 20
0.412798248
 10
-29.1010131837
 20
0.3974755375
 10
-29.1105121304
 20
0.3822834593
 10
-29.1196885694
 20
0.3672083501
 10
-29.128543973
 20
0.3522500305
 10
-29.1370768688
 20
0.3374086798
 10
-29.1453087621
 20
0.3226711722
 10
-29.1532468214
 20
0.3080331326
 10
-29.1608838783
 20
0.2934989362
 10
-29.1682199327
 20
0.2790685829
  0
LINE
  5
270
100
AcDbEntity
  8
0
100
AcDbLine
 62
250
  6
CONTINUOUS
 10
-27.1746262955
 20
1.6169445336
 11
-28.0913454217
 21
0.9527248311
  0
LINE
  5
271
100
AcDbEntity
  8
0
100
AcDbLine
 62
250
  6
CONTINUOUS
 10
-27.3160476517
 20
1.8583874322
 11
-28.2478551334
 21
1.1832839337
  0
LWPOLYLINE
  5
272
100
AcDbEntity
  8
0
100
AcDbPolyline
 62
250
  6
CONTINUOUS
 90
3
 70
0
 10
-28.445379906
 20
1.0443383307
 10
-28.463656274
 20
1.0312638064
 10
-28.5019487414
 20
1.0035285175
  0
LINE
  5
273
100
AcDbEntity
  8
0
100
AcDbLine
 62
250
  6
CONTINUOUS
 10
-28.2478551334
 20
1.1832839337
 11
-28.2741181325
 21
1.1645345434
  0
LINE
  5
274
100
AcDbEntity
  8
0
100
AcDbLine
 62
250
  6
CONTINUOUS
 10
-28.393631635
 20
1.0808511097
 11
-28.445379906
 21
1.0443383307
  0
LINE
  5
275
100
AcDbEntity
  8
0
100
AcDbLine
 62
250
  6
CONTINUOUS
 10
-28.2741181325
 20
1.1645345434
 11
-28.3160690668
 21
1.1350143512
  0
LINE
  5
276
100
AcDbEntity
  8
0
100
AcDbLine
 62
250
  6
CONTINUOUS
 10
-28.3160690668
 20
1.1350143512
 11
-28.393631635
 21
1.0808511097
  0
LINE
  5
277
100
AcDbEntity
  8
0
100
AcDbLine
 62
250
  6
CONTINUOUS
 10
-28.5351777185
 20
0.0101652788
 11
22.949228683
 21
-36.394807613
  0
LINE
  5
278
100
AcDbEntity
  8
0
100
AcDbLine
 62
250
  6
CONTINUOUS
 10
-28.0913454217
 20
0.9527248311
 11
22.8732884443
 21
-35.0847133762
  0
LWPOLYLINE
  5
279
100
AcDbEntity
  8
0
100
AcDbPolyline
 62
250
  6
CONTINUOUS
 90
10
 70
0
 10
-30.5509325464
 20
-3.5311988686
 10
-30.5237523598
 20
-3.5408797408
 10
-30.4971159893
 20
-3.5517445402
 10
-30.4711124908
 20
-3.5637569415
 10
-30.4458288046
 20
-3.5768767824
 10
-30.4213494639
 20
-3.591060198
 10
-30.3977563131
 20
-3.6062597676
 10
-30.3751282334
 20
-3.6224246729
 10
-30.3535408795
 20
-3.6395008682
 10
-30.3330664266
 20
-3.6574312609
  0
LINE
  5
27A
100
AcDbEntity
  8
0
100
AcDbLine
 62
7
  6
CONTINUOUS
 10
-27.3160476517
 20
2.6280528689
 11
22.759093513
 21
-32.7804190176
  0
LINE
  5
27B
100
AcDbEntity
  8
0
100
AcDbLine
 62
7
  6
CONTINUOUS
 10
45.1134952452
 20
-34.836830962
 11
44.8980173053
 21
-34.6972931679
  0
LWPOLYLINE
  5
27C
100
AcDbEntity
  8
0
100
AcDbPolyline
 62
250
  6
CONTINUOUS
 90
19
 70
0
 10
-29.1682199378
 20
0.2790685731
 10
-29.1425043827
 20
0.2764922722
 10
-29.1142967444
 20
0.2720270062
 10
-29.0838115786
 20
0.26570697
 10
-29.0512816227
 20
0.2575787553
 10
-29.0169535511
 20
0.2477060156
 10
-28.9810861395
 20
0.236168919
 10
-28.9439516549
 20
0.2230567062
 10
-28.9058334399
 20
0.2084676868
 10
-28.8670213187
 20
0.192513454
 10
-28.8278106311
 20
0.1753155196
 10
-28.7884998698
 20
0.1570046161
 10
-28.7493881212
 20
0.1377202827
 10
-28.7107730606
 20
0.117609262
 10
-28.6729485989
 20
0.0968245615
 10
-28.6362025367
 20
0.0755245042
 10
-28.6008145242
 20
0.0538712196
 10
-28.5670539328
 20
0.0320294115
 10
-28.5351777185
 20
0.0101652788
  0
LINE
  5
27D
100
AcDbEntity
  8
0
100
AcDbLine
 62
7
  6
CONTINUOUS
 10
44.711763667
 20
-34.5527638389
 11
45.1134924807
 21
-34.8368290072
  0
LWPOLYLINE
  5
27E
100
AcDbEntity
  8
0
100
AcDbPolyline
 62
7
  6
CONTINUOUS
 90
33
 70
0
 10
44.8980173053
 20
-34.6972931679
 10
44.7288276011
 20
-34.5679915744
 10
44.5609188332
 20
-34.4181509639
 10
44.4036207696
 20
-34.2542200826
 10
44.2573767476
 20
-34.0765010889
 10
44.122773823
 20
-33.8857018206
 10
44.0000350936
 20
-33.6822398789
 10
43.8892705834
 20
-33.4664075882
 10
43.7907228476
 20
-33.2389242735
 10
43.7045672551
 20
-33.0005910775
 10
43.6307025253
 20
-32.7515580803
 10
43.5689661718
 20
-32.4915561662
 10
43.5194041809
 20
-32.220671138
 10
43.4821816705
 20
-31.9396157656
 10
43.457358721
 20
-31.6490156415
 10
43.4449530818
 20
-31.3495097767
 10
43.4449532043
 20
-31.0414256744
 10
43.4573587109
 20
-30.7249357634
 10
43.4821796718
 20
-30.4003444259
 10
43.5193978058
 20
-30.0683237443
 10
43.5689562981
 20
-29.7296053351
 10
43.6306939804
 20
-29.3851039215
 10
43.7045653747
 20
-29.0349995813
 10
43.790732851
 20
-28.6789047479
 10
43.8893014228
 20
-28.3168092035
 10
44.0000945605
 20
-27.9497786275
 10
44.1228579843
 20
-27.5790387648
 10
44.2574740831
 20
-27.205053195
 10
44.4037216582
 20
-26.8285411751
 10
44.5610132512
 20
-26.4511605922
 10
44.7289044329
 20
-26.0738804829
 10
44.9071939706
 20
-25.6969611949
 10
45.0955484698
 20
-25.3210073984
  0
LWPOLYLINE
  5
27F
100
AcDbEntity
  8
0
100
AcDbPolyline
 62
250
  6
CONTINUOUS
 90
19
 70
0
 10
-29.5814439012
 20
-0.6196583373
 10
-29.5536208942
 20
-0.6176493319
 10
-29.523318917
 20
-0.6175582979
 10
-29.490768586
 20
-0.619385924
 10
-29.4562176416
 20
-0.6231182969
 10
-29.419929025
 20
-0.6287270069
 10
-29.3821788711
 20
-0.6361693707
 10
-29.3432544664
 20
-0.6453887545
 10
-29.3034520549
 20
-0.6563149939
 10
-29.2630745409
 20
-0.6688649342
 10
-29.2224292084
 20
-0.6829430729
 10
-29.1818254055
 20
-0.6984422668
 10
-29.1415721765
 20
-0.7152445412
 10
-29.1019758657
 20
-0.7332220273
 10
-29.0633378384
 20
-0.7522379019
 10
-29.0259522051
 20
-0.7721474044
 10
-28.9901035057
 20
-0.7927989958
 10
-28.9560645501
 20
-0.8140355163
 10
-28.9240943898
 20
-0.8356953428
  0
LWPOLYLINE
  5
280
100
AcDbEntity
  8
0
100
AcDbPolyline
 62
250
  6
CONTINUOUS
 90
5
 70
0
 10
-28.9241603369
 20
32.8370340619
 10
-28.8670373786
 20
32.7835992821
 10
-28.8069425277
 20
32.7316097729
 10
-28.7437926994
 20
32.6812292447
 10
-28.6829868499
 20
32.6364869565
  0
LWPOLYLINE
  5
281
100
AcDbEntity
  8
0
100
AcDbPolyline
 62
250
  6
CONTINUOUS
 90
7
 70
0
 10
-29.5814751065
 20
32.6913306911
 10
-29.5208716977
 20
32.6342170513
 10
-29.4569574039
 20
32.5790097746
 10
-29.3897322252
 20
32.5257088609
 10
-29.3191961616
 20
32.4743143102
 10
-29.245349213
 20
32.4248261226
 10
-29.1681913796
 20
32.377244298
  0
LWPOLYLINE
  5
282
100
AcDbEntity
  8
0
100
AcDbPolyline
 62
250
  6
CONTINUOUS
 90
10
 70
0
 10
23.3521124173
 20
-41.6464070103
 10
23.3439692546
 20
-41.6311105807
 10
23.3342482701
 20
-41.6162669203
 10
23.322981965
 20
-41.6019256575
 10
23.310208007
 20
-41.5881347413
 10
23.2959691046
 20
-41.5749402804
 10
23.2803128639
 20
-41.5623863894
 10
23.2632916299
 20
-41.5505150412
 10
23.2449623115
 20
-41.5393659269
 10
23.2253861907
 20
-41.5289763225
  0
LINE
  5
283
100
AcDbEntity
  8
0
100
AcDbLine
 62
7
  6
CONTINUOUS
 10
-28.6829868499
 20
32.6364869565
 11
23.190054181
 21
-4.0432921172
  0
LWPOLYLINE
  5
284
100
AcDbEntity
  8
0
100
AcDbPolyline
 62
250
  6
CONTINUOUS
 90
38
 70
0
 10
-29.1681913796
 20
32.377244298
 10
-29.1608572688
 20
32.3731949916
 10
-29.1532233694
 20
32.3694674657
 10
-29.1452896816
 20
32.3660617204
 10
-29.1370636453
 20
32.3629721636
 10
-29.1285378206
 20
32.3602043873
 10
-29.119689887
 20
32.3577751675
 10
-29.1105211295
 20
32.3556824252
 10
-29.1010302632
 20
32.3539282392
 10
-29.0911911124
 20
32.3525356228
 10
-29.0810059542
 20
32.3515022457
 10
-29.0704725116
 20
32.350830438
 10
-29.0595577774
 20
32.3505502037
 10
-29.0482632087
 20
32.3506588373
 10
-29.0365873485
 20
32.3511590443
 10
-29.0244928186
 20
32.3520889447
 10
-29.0119807034
 20
32.3534458026
 10
-28.9990499185
 20
32.3552323539
 10
-28.9856598331
 20
32.3574949255
 10
-28.9718127637
 20
32.3602303747
 10
-28.9575063937
 20
32.3634418442
 10
-28.9426931425
 20
32.3671850889
 10
-28.9273778729
 20
32.3714554935
 10
-28.911555722
 20
32.3762576734
 10
-28.8951645206
 20
32.3816612301
 10
-28.8782046656
 20
32.3876626062
 10
-28.8606757601
 20
32.3942653592
 10
-28.8425144442
 20
32.4015497635
 10
-28.8236971637
 20
32.4095260132
 10
-28.8042474728
 20
32.4181839142
 10
-28.7841726744
 20
32.4275731581
 10
-28.7634027753
 20
32.4377397664
 10
-28.7420077687
 20
32.4486377175
 10
-28.7202049366
 20
32.4601786386
 10
-28.6979131997
 20
32.4724337675
 10
-28.6752136373
 20
32.4853318663
 10
-28.6525667692
 20
32.4985708481
 10
-28.6300045675
 20
32.5121568541
  0
LINE
  5
285
100
AcDbEntity
  8
0
100
AcDbLine
 62
250
  6
CONTINUOUS
 10
-30.333089258
 20
35.4097394733
 11
23.2254089701
 21
-2.4618378139
  0
LINE
  5
286
100
AcDbEntity
  8
0
100
AcDbLine
 62
250
  6
CONTINUOUS
 10
-30.8457370187
 20
38.5209360418
 11
23.8843278451
 21
-0.1790639582
  0
LWPOLYLINE
  5
287
100
AcDbEntity
  8
0
100
AcDbPolyline
 62
250
  6
CONTINUOUS
 90
9
 70
0
 10
23.8836655713
 20
-44.5298664033
 10
23.7903992425
 20
-44.2015504469
 10
23.702071787
 20
-43.8713197312
 10
23.6186493842
 20
-43.5392590363
 10
23.5398382115
 20
-43.204886077
 10
23.4658733759
 20
-42.8688430399
 10
23.397462992
 20
-42.5329376201
 10
23.3347629546
 20
-42.1978666673
 10
23.2774329409
 20
-41.8631751217
  0
LWPOLYLINE
  5
288
100
AcDbEntity
  8
0
100
AcDbPolyline
 62
250
  6
CONTINUOUS
 90
10
 70
0
 10
23.8836655711
 20
-44.5298664015
 10
23.8098892456
 20
-44.2121344247
 10
23.7394854358
 20
-43.8930635564
 10
23.6725863156
 20
-43.5727908396
 10
23.6092533562
 20
-43.2510133678
 10
23.5496632558
 20
-42.9283213733
 10
23.494081614
 20
-42.6062115854
 10
23.4426253946
 20
-42.2853003299
 10
23.395288913
 20
-41.9653090723
 10
23.3521119231
 20
-41.6464071339
  0
LWPOLYLINE
  5
289
100
AcDbEntity
  8
0
100
AcDbPolyline
 62
250
  6
CONTINUOUS
 90
17
 70
0
 10
23.8836655713
 20
-44.5298664033
 10
23.674888728
 20
-42.2191370722
 10
23.4906293599
 20
-39.8891121638
 10
23.3309057784
 20
-37.5400232392
 10
23.1957338561
 20
-35.1721037436
 10
23.0851270271
 20
-32.7855890149
 10
22.9990962842
 20
-30.3807162605
 10
22.9376501764
 20
-27.9577245066
 10
22.9007948079
 20
-25.516854529
 10
22.8885338401
 20
-23.0583488605
 10
22.9008684915
 20
-20.582451831
 10
22.9377975362
 20
-18.0894094979
 10
22.9993173055
 20
-15.5794695762
 10
23.085421688
 20
-13.0528814792
 10
23.1961021272
 20
-10.5098963281
 10
23.3313476232
 20
-7.9507668806
 10
23.4911447345
 20
-5.3757474773
  0
LINE
  5
28A
100
AcDbEntity
  8
0
100
AcDbLine
 62
250
  6
CONTINUOUS
 10
-39.6730864589
 20
48.4678107859
 11
33.3417436937
 21
-3.1614707422
  0
LWPOLYLINE
  5
28B
100
AcDbEntity
  8
0
100
AcDbPolyline
 62
250
  6
CONTINUOUS
 90
34
 70
0
 10
33.3417436937
 20
-3.1614707422
 10
33.4169318701
 20
-3.2166041929
 10
33.4913460749
 20
-3.2750358885
 10
33.5649865153
 20
-3.3367657037
 10
33.638000045
 20
-3.4019312599
 10
33.7102406403
 20
-3.4703944345
 10
33.781269383
 20
-3.5417413717
 10
33.8510762717
 20
-3.6159869573
 10
33.919672909
 20
-3.693115338
 10
33.9866529145
 20
-3.7726664688
 10
34.0520060654
 20
-3.8546524358
 10
34.1157448422
 20
-3.9390597877
 10
34.1774969668
 20
-4.0253901447
 10
34.2372523351
 20
-4.1136546105
 10
34.2950238059
 20
-4.2038404135
 10
34.3504734809
 20
-4.2954133996
 10
34.4035889416
 20
-4.3883810195
 10
34.4543856621
 20
-4.4827339694
 10
34.5025673885
 20
-4.5779130813
 10
34.5481197983
 20
-4.6739221212
 10
34.5910603526
 20
-4.7707554158
 10
34.6311401398
 20
-4.8678398381
 10
34.6683430519
 20
-4.9651744494
 10
34.7026881953
 20
-5.062758362
 10
34.7339790134
 20
-5.1600188069
 10
34.7621989728
 20
-5.2569544404
 10
34.7873672588
 20
-5.3535649855
 10
34.8093403007
 20
-5.449279632
 10
34.8280997883
 20
-5.5440968698
 10
34.8436661458
 20
-5.6380169112
 10
34.8559531927
 20
-5.7304719603
 10
34.8649324922
 20
-5.8212725706
 10
34.870633788
 20
-5.9106073791
 10
34.8730577882
 20
-5.9984759471
  0
LWPOLYLINE
  5
28C
100
AcDbEntity
  8
0
100
AcDbPolyline
 62
250
  6
CONTINUOUS
 90
5
 70
0
 10
23.1988127991
 20
-3.912255872
 10
23.1841175579
 20
-3.8886853753
 10
23.1492102659
 20
-3.8209313457
 10
23.1208610077
 20
-3.7543438876
 10
23.0989132086
 20
-3.6899050988
  0
LINE
  5
28D
100
AcDbEntity
  8
0
100
AcDbLine
 62
250
  6
CONTINUOUS
 10
23.2774329409
 20
-41.8631751217
 11
23.2035582068
 21
-41.3869355223
  0
LWPOLYLINE
  5
28E
100
AcDbEntity
  8
0
100
AcDbPolyline
 62
250
  6
CONTINUOUS
 90
22
 70
0
 10
23.2035582068
 20
-41.3869355223
 10
23.18034145
 20
-41.2319897524
 10
23.1683674263
 20
-41.1495980397
 10
23.1563423781
 20
-41.0637984644
 10
23.1443169246
 20
-40.9745500363
 10
23.1323890049
 20
-40.8818249555
 10
23.1208038503
 20
-40.785528449
 10
23.1096211959
 20
-40.6856179663
 10
23.0989533791
 20
-40.5820662732
 10
23.0891408248
 20
-40.4747960187
 10
23.080250114
 20
-40.3637659463
 10
23.0724141535
 20
-40.2489490905
 10
23.0660933431
 20
-40.130283588
 10
23.0613556071
 20
-40.0078471183
 10
23.0583623612
 20
-39.8815002155
 10
23.0577539657
 20
-39.750843035
 10
23.0595666436
 20
-39.616056205
 10
23.0640582746
 20
-39.4768976934
 10
23.0722952747
 20
-39.3323043918
 10
23.0843401491
 20
-39.181787028
 10
23.1005914897
 20
-39.0257567324
 10
23.1141146672
 20
-38.9271935961
  0
LINE
  5
28F
100
AcDbEntity
  8
0
100
AcDbLine
 62
250
  6
CONTINUOUS
 10
23.3521119231
 20
-41.6464071339
 11
23.3246331219
 21
-41.4315913169
  0
LWPOLYLINE
  5
290
100
AcDbEntity
  8
0
100
AcDbPolyline
 62
250
  6
CONTINUOUS
 90
9
 70
0
 10
23.3246331219
 20
-41.4315913169
 10
23.3052244231
 20
-41.2737123767
 10
23.2953864189
 20
-41.1901928788
 10
23.2855685235
 20
-41.1035680722
 10
23.2758661478
 20
-41.0138265037
 10
23.2663661203
 20
-40.9208316984
 10
23.2571838929
 20
-40.8245837212
 10
23.2484401472
 20
-40.7250757369
 10
23.2450375234
 20
-40.6836579554
  0
LINE
  5
291
100
AcDbEntity
  8
0
100
AcDbLine
 62
7
  6
CONTINUOUS
 10
28.0134784628
 20
-48.1569559903
 11
28.0801841445
 21
-48.8142655493
  0
LINE
  5
292
100
AcDbEntity
  8
0
100
AcDbLine
 62
7
  6
CONTINUOUS
 10
26.6925281428
 20
-47.1256324368
 11
26.7856555624
 21
-48.0495914379
  0
LINE
  5
293
100
AcDbEntity
  8
0
100
AcDbLine
 62
7
  6
CONTINUOUS
 10
27.0885225616
 20
-47.4056406222
 11
27.1816497334
 21
-48.3295973245
  0
LINE
  5
294
100
AcDbEntity
  8
0
100
AcDbLine
 62
7
  6
CONTINUOUS
 10
27.1950373269
 20
-47.3303234676
 11
27.2882047505
 21
-48.2542515493
  0
LINE
  5
295
100
AcDbEntity
  8
0
100
AcDbLine
 62
7
  6
CONTINUOUS
 10
27.4845048344
 20
-47.6856423725
 11
27.5776344806
 21
-48.6096008245
  0
LINE
  5
296
100
AcDbEntity
  8
0
100
AcDbLine
 62
7
  6
CONTINUOUS
 10
29.4212618227
 20
-49.0551363725
 11
29.514391469
 21
-49.9790948245
  0
LINE
  5
297
100
AcDbEntity
  8
0
100
AcDbLine
 62
7
  6
CONTINUOUS
 10
29.527776588
 20
-48.9798192179
 11
29.6209464861
 21
-49.9037490493
  0
LWPOLYLINE
  5
298
100
AcDbEntity
  8
0
100
AcDbPolyline
 62
7
  6
CONTINUOUS
 90
3
 70
0
 10
27.8516245841
 20
-47.6702124284
 10
27.8714784403
 20
-47.8738300287
 10
27.9736291273
 20
-48.8896113245
  0
LWPOLYLINE
  5
299
100
AcDbEntity
  8
0
100
AcDbPolyline
 62
7
  6
CONTINUOUS
 90
3
 70
0
 10
28.9963873293
 20
-48.4796819284
 10
29.0162420106
 20
-48.6833001121
 10
29.1183968223
 20
-49.6990843245
  0
LINE
  5
29A
100
AcDbEntity
  8
0
100
AcDbLine
 62
7
  6
CONTINUOUS
 10
27.105846836
 20
-46.4032169845
 11
27.1950373269
 21
-47.3303234676
  0
LINE
  5
29B
100
AcDbEntity
  8
0
100
AcDbLine
 62
7
  6
CONTINUOUS
 10
26.6033759578
 20
-46.1984965499
 11
26.6925281428
 21
-47.1256324368
  0
LINE
  5
29C
100
AcDbEntity
  8
0
100
AcDbLine
 62
7
  6
CONTINUOUS
 10
26.9993706045
 20
-46.4785070499
 11
27.0885225616
 21
-47.4056406222
  0
LINE
  5
29D
100
AcDbEntity
  8
0
100
AcDbLine
 62
7
  6
CONTINUOUS
 10
27.3953504019
 20
-46.7585070499
 11
27.4845048344
 21
-47.6856423725
  0
LINE
  5
29E
100
AcDbEntity
  8
0
100
AcDbLine
 62
7
  6
CONTINUOUS
 10
29.3321073903
 20
-48.1280010499
 11
29.4212618227
 21
-49.0551363725
  0
LINE
  5
29F
100
AcDbEntity
  8
0
100
AcDbLine
 62
7
  6
CONTINUOUS
 10
23.2450375234
 20
-40.6836579554
 11
23.2446312803
 21
-40.678593117
  0
LWPOLYLINE
  5
2A0
100
AcDbEntity
  8
0
100
AcDbPolyline
 62
7
  6
CONTINUOUS
 90
14
 70
0
 10
23.2200950162
 20
-3.5938561211
 10
23.0732987455
 20
-5.7900509926
 10
22.8961122833
 20
-8.873513546
 10
22.7543158818
 20
-11.9341404007
 10
22.6479359647
 20
-14.9714945553
 10
22.576994066
 20
-17.9851384592
 10
22.5415065232
 20
-20.9746473798
 10
22.5414849423
 20
-23.9395939297
 10
22.5769357483
 20
-26.8795431289
 10
22.6478603503
 20
-29.7940802733
 10
22.7542552536
 20
-32.6827896947
 10
22.896111073
 20
-35.5452421749
 10
23.0734135556
 20
-38.3810260349
 10
23.2446304006
 20
-40.678582123
  0
LWPOLYLINE
  5
2A1
100
AcDbEntity
  8
0
100
AcDbPolyline
 62
250
  6
CONTINUOUS
 90
3
 70
0
 10
23.4911447345
 20
-5.3757474773
 10
23.6754775815
 20
-2.7850940157
 10
23.8843278451
 20
-0.1790639582
  0
LWPOLYLINE
  5
2A2
100
AcDbEntity
  8
0
100
AcDbPolyline
 62
250
  6
CONTINUOUS
 90
9
 70
0
 10
23.2201801126
 20
-3.5926547803
 10
23.2212861155
 20
-3.5774939392
 10
23.2270895484
 20
-3.5079411002
 10
23.2338647898
 20
-3.4396045844
 10
23.2414507805
 20
-3.3724656863
 10
23.2496936264
 20
-3.3065255813
 10
23.2584465937
 20
-3.2417549651
 10
23.2675994951
 20
-3.1780973216
 10
23.2770330326
 20
-3.1155573469
  0
LINE
  5
2A3
100
AcDbEntity
  8
0
100
AcDbLine
 62
250
  6
CONTINUOUS
 10
23.2770330326
 20
-3.1155573469
 11
23.2963250782
 21
-2.9937293538
  0
LINE
  5
2A4
100
AcDbEntity
  8
0
100
AcDbLine
 62
250
  6
CONTINUOUS
 10
23.3343901557
 20
-2.7622990647
 11
23.3521278465
 21
-2.652399745
  0
LINE
  5
2A5
100
AcDbEntity
  8
0
100
AcDbLine
 62
250
  6
CONTINUOUS
 10
23.2963250782
 20
-2.9937293538
 11
23.3343901557
 21
-2.7622990647
  0
LWPOLYLINE
  5
2A6
100
AcDbEntity
  8
0
100
AcDbPolyline
 62
250
  6
CONTINUOUS
 90
10
 70
0
 10
23.3521278465
 20
-2.652399745
 10
23.3953643081
 20
-2.390919958
 10
23.4427639733
 20
-2.126076222
 10
23.4942877264
 20
-1.8577300867
 10
23.5499439686
 20
-1.5852859544
 10
23.609614497
 20
-1.3090634756
 10
23.6730272036
 20
-1.0303093317
 10
23.7400023277
 20
-0.7493645196
 10
23.8104800945
 20
-0.4656534032
 10
23.8843278449
 20
-0.1790639604
  0
LWPOLYLINE
  5
2A7
100
AcDbEntity
  8
0
100
AcDbPolyline
 62
250
  6
CONTINUOUS
 90
10
 70
0
 10
23.2254089701
 20
-2.4618378139
 10
23.2775124931
 20
-2.2231031628
 10
23.3349038095
 20
-1.9804585551
 10
23.397670326
 20
-1.7338940836
 10
23.4661555805
 20
-1.4831576357
 10
23.5402020524
 20
-1.2284810335
 10
23.6190936943
 20
-0.9706191566
 10
23.7025917338
 20
-0.709862553
 10
23.790992061
 20
-0.4459984029
 10
23.8843278451
 20
-0.1790639582
  0
LINE
  5
2A8
100
AcDbEntity
  8
0
100
AcDbLine
 62
250
  6
CONTINUOUS
 10
23.2148732776
 20
-2.5088156053
 11
23.2254089701
 21
-2.4618378139
  0
LINE
  5
2A9
100
AcDbEntity
  8
0
100
AcDbLine
 62
250
  6
CONTINUOUS
 10
23.1926832157
 20
-2.6044779394
 11
23.2148732776
 21
-2.5088156053
  0
LINE
  5
2AA
100
AcDbEntity
  8
0
100
AcDbLine
 62
250
  6
CONTINUOUS
 10
23.1338356887
 20
-2.8519301524
 11
23.1575078365
 21
-2.7514324987
  0
LINE
  5
2AB
100
AcDbEntity
  8
0
100
AcDbLine
 62
250
  6
CONTINUOUS
 10
23.1575078365
 20
-2.7514324987
 11
23.1926832157
 21
-2.6044779394
  0
LWPOLYLINE
  5
2AC
100
AcDbEntity
  8
0
100
AcDbPolyline
 62
250
  6
CONTINUOUS
 90
28
 70
0
 10
37.0066931739
 20
2.9140523009
 10
36.8034610243
 20
2.754344118
 10
36.6013465718
 20
2.584798734
 10
36.4009051714
 20
2.4058820133
 10
36.2026875808
 20
2.2180855699
 10
36.0072384477
 20
2.0219254174
 10
35.8150948128
 20
1.8179405501
 10
35.626784634
 20
1.6066914629
 10
35.4428253358
 20
1.3887586102
 10
35.2637223879
 20
1.1647408121
 10
35.089967916
 20
0.9352536081
 10
34.9220393493
 20
0.7009275661
 10
34.7603981095
 20
0.46240655
 10
34.605488342
 20
0.2203459501
 10
34.4577356961
 20
-0.0245891175
 10
34.3175461554
 20
-0.2717256385
 10
34.1853049219
 20
-0.5203845495
 10
34.061375358
 20
-0.7698826042
 10
33.9460979877
 20
-1.0195342506
 10
33.8397895613
 20
-1.2686535146
 10
33.7427421849
 20
-1.5165558849
 10
33.6552225176
 20
-1.7625601944
 10
33.5774710391
 20
-2.0059904907
 10
33.5097013888
 20
-2.2461778947
 10
33.4520997786
 20
-2.4824624376
 10
33.4048244817
 20
-2.7141948747
 10
33.3680053973
 20
-2.9407384693
 10
33.3417436937
 20
-3.1614707422
  0
LINE
  5
2AD
100
AcDbEntity
  8
0
100
AcDbLine
 62
250
  6
CONTINUOUS
 10
38.3241668095
 20
3.9146927102
 11
37.0066931739
 21
2.9140523009
  0
LWPOLYLINE
  5
2AE
100
AcDbEntity
  8
0
100
AcDbPolyline
 62
250
  6
CONTINUOUS
 90
31
 70
0
 10
42.3993020212
 20
-6.0705742125
 10
42.1882438267
 20
-6.1786591073
 10
41.9684874029
 20
-6.2803250859
 10
41.7405877257
 20
-6.3753153996
 10
41.5051203362
 20
-6.4633901584
 10
41.262679887
 20
-6.5443269372
 10
41.0138786406
 20
-6.6179213371
 10
40.7593449232
 20
-6.6839875018
 10
40.4997215377
 20
-6.7423585867
 10
40.2356641408
 20
-6.7928871809
 10
39.9678395866
 20
-6.8354456787
 10
39.6969242431
 20
-6.8699266021
 10
39.4236022837
 20
-6.8962428727
 10
39.1485639594
 20
-6.914328031
 10
38.8725038559
 20
-6.9241364044
 10
38.5961191393
 20
-6.9256432227
 10
38.3201077954
 20
-6.9188446806
 10
38.045166867
 20
-6.9037579473
 10
37.771990694
 20
-6.8804211229
 10
37.5012691592
 20
-6.8488931426
 10
37.2336859466
 20
-6.8092536277
 10
36.9699168146
 20
-6.7616026843
 10
36.7106278894
 20
-6.7060606507
 10
36.4564739829
 20
-6.6427677937
 10
36.208096939
 20
-6.5718839538
 10
35.9661240125
 20
-6.4935881421
 10
35.7311662853
 20
-6.408078088
 10
35.5038171228
 20
-6.3155697397
 10
35.2846506759
 20
-6.2162967192
 10
35.0742204306
 20
-6.1105097318
 10
34.8730578103
 20
-5.9984759336
  0
LWPOLYLINE
  5
2AF
100
AcDbEntity
  8
0
100
AcDbPolyline
 62
250
  6
CONTINUOUS
 90
3
 70
0
 10
-28.6729806289
 20
32.6019639437
 10
-28.6362340287
 20
32.5920292189
 10
-28.6013145549
 20
32.5787359229
  0
LINE
  5
2B0
100
AcDbEntity
  8
0
100
AcDbLine
 62
250
  6
CONTINUOUS
 10
-36.0081369787
 20
54.543333829
 11
37.0066931739
 21
2.9140523009
  0
LWPOLYLINE
  5
2B1
100
AcDbEntity
  8
0
100
AcDbPolyline
 62
250
  6
CONTINUOUS
 90
34
 70
0
 10
37.0066931739
 20
2.9140523009
 10
37.2530313023
 20
2.734166541
 10
37.4985482682
 20
2.5434922463
 10
37.7427626256
 20
2.3424017193
 10
37.9851865896
 20
2.131288768
 10
38.2253517049
 20
1.9105637355
 10
38.4628094484
 20
1.6806508505
 10
38.6970953268
 20
1.4419869796
 10
38.9277416266
 20
1.195043488
 10
39.1543033084
 20
0.9403204928
 10
39.376324509
 20
0.6783164905
 10
39.5933712509
 20
0.4095355896
 10
39.8050437502
 20
0.1345069331
 10
40.0109193639
 20
-0.1462411442
 10
40.210586804
 20
-0.4321617
 10
40.4036789932
 20
-0.7226824617
 10
40.5898071769
 20
-1.0172439732
 10
40.7685975325
 20
-1.3152749078
 10
40.9397251112
 20
-1.6161742541
 10
41.1028424748
 20
-1.9193625393
 10
41.2576196351
 20
-2.224252712
 10
41.4037810795
 20
-2.530226478
 10
41.5410261567
 20
-2.8366904712
 10
41.6690757914
 20
-3.1430565406
 10
41.7877121041
 20
-3.4487135449
 10
41.8966893251
 20
-3.7530790515
 10
41.9957786671
 20
-4.0555595347
 10
42.0848159499
 20
-4.3555318841
 10
42.163612432
 20
-4.6524122529
 10
42.2320004121
 20
-4.9456356666
 10
42.2898772206
 20
-5.234616988
 10
42.3371292911
 20
-5.5187931849
 10
42.3736332782
 20
-5.797624414
 10
42.3993020452
 20
-6.0705742285
  0
LWPOLYLINE
  5
2B2
100
AcDbEntity
  8
0
100
AcDbPolyline
 62
250
  6
CONTINUOUS
 90
10
 70
0
 10
23.3521277873
 20
-2.6523997538
 10
23.3439834904
 20
-2.6292717119
 10
23.3342618936
 20
-2.6064598426
 10
23.3229954894
 20
-2.5840403906
 10
23.3102219337
 20
-2.5620882887
 10
23.2959839199
 20
-2.5406769078
 10
23.2803290358
 20
-2.5198778115
 10
23.263309605
 20
-2.499760517
 10
23.2449825119
 20
-2.4803922626
 10
23.2254090114
 20
-2.4618377832
  0
LWPOLYLINE
  5
2B3
100
AcDbEntity
  8
0
100
AcDbPolyline
 62
250
  6
CONTINUOUS
 90
16
 70
0
 10
23.0989132086
 20
-3.6899050988
 10
23.0829153137
 20
-3.6274504478
 10
23.071164149
 20
-3.5660815046
 10
23.0632485599
 20
-3.5060853646
 10
23.0591043042
 20
-3.4477649768
 10
23.057644191
 20
-3.3901297098
 10
23.0585982524
 20
-3.3331790712
 10
23.0619221921
 20
-3.2772881467
 10
23.0669571035
 20
-3.2219300962
 10
23.0735262376
 20
-3.1671567685
 10
23.0815576688
 20
-3.1131961727
 10
23.090591647
 20
-3.0597394751
 10
23.100486174
 20
-3.0068687924
 10
23.1111726175
 20
-2.9547244866
 10
23.1223274171
 20
-2.9030568851
 10
23.1338356887
 20
-2.8519301524
  0
LINE
  5
2B4
100
AcDbEntity
  8
0
100
AcDbLine
 62
7
  6
CONTINUOUS
 10
32.1561976246
 20
-51.1839188717
 11
32.2123615485
 21
-51.7361519361
  0
LINE
  5
2B5
100
AcDbEntity
  8
0
100
AcDbLine
 62
7
  6
CONTINUOUS
 10
32.0334679584
 20
-51.0971343659
 11
32.1058065315
 21
-51.8114977112
  0
LINE
  5
2B6
100
AcDbEntity
  8
0
100
AcDbLine
 62
7
  6
CONTINUOUS
 10
31.6166773089
 20
-50.6075252449
 11
31.7098069351
 21
-51.5314837112
  0
LINE
  5
2B7
100
AcDbEntity
  8
0
100
AcDbLine
 62
7
  6
CONTINUOUS
 10
32.0725774219
 20
-50.3861163715
 11
32.1006889902
 21
-50.6755217566
  0
LINE
  5
2B8
100
AcDbEntity
  8
0
100
AcDbLine
 62
7
  6
CONTINUOUS
 10
31.9505717666
 20
-50.2998453453
 11
31.9941798742
 21
-50.7508350747
  0
LWPOLYLINE
  5
2B9
100
AcDbEntity
  8
0
100
AcDbPolyline
 62
7
  6
CONTINUOUS
 90
3
 70
0
 10
29.4385836219
 20
-48.0527109845
 10
29.4678727293
 20
-48.3621002181
 10
29.527776588
 20
-48.9798192179
  0
LINE
  5
2BA
100
AcDbEntity
  8
0
100
AcDbLine
 62
7
  6
CONTINUOUS
 10
31.5275228965
 20
-49.6803899082
 11
31.6166773089
 21
-50.6075252449
  0
LINE
  5
2BB
100
AcDbEntity
  8
0
100
AcDbLine
 62
250
  6
CONTINUOUS
 10
43.9447800256
 20
-5.0772332375
 11
42.3993020452
 21
-6.0705742285
  0
LWPOLYLINE
  5
2BC
100
AcDbEntity
  8
0
100
AcDbPolyline
 62
7
  6
CONTINUOUS
 90
24
 70
0
 10
-34.6906633431
 20
55.5439742382
 10
-34.9411245625
 20
55.7154920889
 10
-35.190201607
 20
55.8750930896
 10
-35.4378944765
 20
56.0227772404
 10
-35.6847496549
 20
56.1588161502
 10
-35.9302206584
 20
56.28293821
 10
-36.1726680359
 20
56.3943285936
 10
-36.4119021281
 20
56.4928483616
 10
-36.6481125944
 20
56.5786364534
 10
-36.880228961
 20
56.6512948597
 10
-37.1084502585
 20
56.7108033407
 10
-37.3325774564
 20
56.7571821362
 10
-37.5509429898
 20
56.790093957
 10
-37.7632673571
 20
56.8094354072
 10
-37.9698300599
 20
56.8153098827
 10
-38.1698020384
 20
56.8076902814
 10
-38.3633874629
 20
56.7864783848
 10
-38.5503821632
 20
56.7517724115
 10
-38.7293445686
 20
56.703839915
 10
-38.9000105704
 20
56.6426695888
 10
-39.0626442774
 20
56.5682727394
 10
-39.2165964447
 20
56.4809508404
 10
-39.3619922977
 20
56.380525379
 10
-39.4062083432
 20
56.3461954754
  0
LINE
  5
2BD
100
AcDbEntity
  8
0
100
AcDbLine
 62
7
  6
CONTINUOUS
 10
38.3241668095
 20
3.9146927102
 11
-34.6906633431
 21
55.5439742382
  0
LWPOLYLINE
  5
2BE
100
AcDbEntity
  8
0
100
AcDbPolyline
 62
250
  6
CONTINUOUS
 90
10
 70
0
 10
-30.5509486708
 20
35.4628315907
 10
-30.5237701079
 20
35.4609825435
 10
-30.4971352154
 20
35.4580864355
 10
-30.4711330153
 20
35.4541529466
 10
-30.4458504153
 20
35.4491952239
 10
-30.4213719177
 20
35.4432298378
 10
-30.3977793372
 20
35.4362767268
 10
-30.3751515277
 20
35.4283591306
 10
-30.3535641184
 20
35.4195035125
 10
-30.3330892613
 20
35.4097394709
  0
LWPOLYLINE
  5
2BF
100
AcDbEntity
  8
0
100
AcDbPolyline
 62
250
  6
CONTINUOUS
 90
22
 70
0
 10
34.8730577882
 20
-5.9984759471
 10
34.8943861175
 20
-8.5838908654
 10
34.9135784
 20
-11.1389242815
 10
34.9306247737
 20
-13.6633876431
 10
34.9455017261
 20
-16.1567404942
 10
34.9582017626
 20
-18.6191548747
 10
34.9687627215
 20
-21.0514962292
 10
34.9772096434
 20
-23.454056775
 10
34.9835428353
 20
-25.8261404899
 10
34.9877750423
 20
-28.1671229806
 10
34.9899008209
 20
-30.476402091
 10
34.9899008081
 20
-32.7542108258
 10
34.9877750178
 20
-35.0011717233
 10
34.9835428469
 20
-37.2174906272
 10
34.9772096638
 20
-39.4025574907
 10
34.9687626612
 20
-41.5557652505
 10
34.9582015171
 20
-43.6765076534
 10
34.9455013887
 20
-45.7650228562
 10
34.9306245677
 20
-47.8219610042
 10
34.9135784099
 20
-49.8473940753
 10
34.8943862426
 20
-51.8408380769
 10
34.8730577882
 20
-53.8020906228
  0
LWPOLYLINE
  5
2C0
100
AcDbEntity
  8
0
100
AcDbPolyline
 62
250
  6
CONTINUOUS
 90
34
 70
0
 10
34.8730577882
 20
-53.8020906228
 10
34.8706332457
 20
-53.8657140206
 10
34.8649314191
 20
-53.9263159434
 10
34.855951599
 20
-53.983896955
 10
34.8436640488
 20
-54.0385641512
 10
34.8280971957
 20
-54.0902114767
 10
34.8093371954
 20
-54.1385200764
 10
34.7873636101
 20
-54.1834677733
 10
34.7621947638
 20
-54.2250784361
 10
34.7339742444
 20
-54.263102851
 10
34.7026828724
 20
-54.2975203928
 10
34.6683371756
 20
-54.3283538164
 10
34.6311337101
 20
-54.3554194562
 10
34.5910533556
 20
-54.3786967952
 10
34.5481122342
 20
-54.3982087643
 10
34.5025592995
 20
-54.4138372482
 10
34.4543770984
 20
-54.4255603919
 10
34.4035799452
 20
-54.433402582
 10
34.3504641115
 20
-54.4373153361
 10
34.2950141381
 20
-54.4372764908
 10
34.2372424284
 20
-54.4333106777
 10
34.1774868535
 20
-54.4254397652
 10
34.1157345487
 20
-54.4136419014
 10
34.0519956238
 20
-54.397941166
 10
33.9866423465
 20
-54.3784283784
 10
33.9196622336
 20
-54.355081051
 10
33.8510655105
 20
-54.3279234989
 10
33.7812585545
 20
-54.2971167082
 10
33.7102293602
 20
-54.2626364233
 10
33.6379883318
 20
-54.2245081967
 10
33.5649755931
 20
-54.1829676186
 10
33.4913375694
 20
-54.1380934482
 10
33.4169270053
 20
-54.0898075989
 10
33.3417436937
 20
-54.0381102386
  0
LWPOLYLINE
  5
2C1
100
AcDbEntity
  8
0
100
AcDbPolyline
 62
7
  6
CONTINUOUS
 90
11
 70
0
 10
-28.6699352009
 20
32.5859876273
 10
-28.6719192444
 20
32.5856204691
 10
-28.6722478794
 20
32.5855559504
 10
-28.6689481791
 20
32.5858223216
 10
-28.6624251486
 20
32.5859967273
 10
-28.6535885849
 20
32.5857351551
 10
-28.6427605866
 20
32.5847918896
 10
-28.6304030534
 20
32.5829787846
 10
-28.6176953104
 20
32.5803442902
 10
-28.6051774244
 20
32.5769928932
 10
-28.5933496281
 20
32.5731038691
  0
LWPOLYLINE
  5
2C2
100
AcDbEntity
  8
0
100
AcDbPolyline
 62
250
  6
CONTINUOUS
 90
22
 70
0
 10
42.3993020452
 20
-6.0705742285
 10
42.4285040248
 20
-8.6628027457
 10
42.4547200977
 20
-11.2246322127
 10
42.47797049
 20
-13.7558420488
 10
42.4982729923
 20
-16.2558270082
 10
42.5156644345
 20
-18.7247627549
 10
42.5301622468
 20
-21.1635809684
 10
42.5417537258
 20
-23.5725367258
 10
42.5504321582
 20
-25.9509001845
 10
42.5562027585
 20
-28.2981124293
 10
42.5590780277
 20
-30.6135322006
 10
42.5590780202
 20
-32.8973624727
 10
42.5562027243
 20
-35.1502991027
 10
42.5504320614
 20
-37.3725052212
 10
42.5417536031
 20
-39.5633334075
 10
42.5301621706
 20
-41.7222517942
 10
42.5156644374
 20
-43.848608457
 10
42.4982729324
 20
-45.9426078514
 10
42.477970207
 20
-48.0049860257
 10
42.4547196377
 20
-50.0358097295
 10
42.4285036049
 20
-52.0345056816
 10
42.3993020452
 20
-54.0008248302
  0
LWPOLYLINE
  5
2C3
100
AcDbEntity
  8
0
100
AcDbPolyline
 62
7
  6
CONTINUOUS
 90
34
 70
0
 10
43.9447800256
 20
-5.0772332375
 10
43.9109252814
 20
-4.8050688751
 10
43.866358953
 20
-4.5279417401
 10
43.8110810407
 20
-4.2458518324
 10
43.7449157061
 20
-3.9581448088
 10
43.6680387875
 20
-3.6654750126
 10
43.5809777991
 20
-3.369805474
 10
43.4837493762
 20
-3.0713369461
 10
43.3763368835
 20
-2.7698686758
 10
43.2592179298
 20
-2.4667614351
 10
43.1322100775
 20
-2.1617066583
 10
42.9954957641
 20
-1.855012911
 10
42.850099911
 20
-1.5489666623
 10
42.6961477437
 20
-1.2439235203
 10
42.5335140367
 20
-0.9395278769
 10
42.3628480349
 20
-0.6369993762
 10
42.1838856295
 20
-0.3359758189
 10
41.9968909293
 20
-0.0368194044
 10
41.8033055048
 20
0.2581636251
 10
41.6033335262
 20
0.5485863105
 10
41.3967708234
 20
0.8348356108
 10
41.1844464562
 20
1.1157661603
 10
40.9660809227
 20
1.3916698385
 10
40.7419537248
 20
1.6622547659
 10
40.5137324273
 20
1.9254999391
 10
40.2816160607
 20
2.1811036466
 10
40.0454055944
 20
2.4293675997
 10
39.8061715022
 20
2.6691759295
 10
39.5637241247
 20
2.9006579154
 10
39.3182531213
 20
3.1236842778
 10
39.0713979429
 20
3.3367513092
 10
38.8237050733
 20
3.5393577739
 10
38.5746280288
 20
3.7320049075
 10
38.3241668095
 20
3.9146927102
  0
LWPOLYLINE
  5
2C4
100
AcDbEntity
  8
0
100
AcDbPolyline
 62
7
  6
CONTINUOUS
 90
10
 70
0
 10
45.2404643331
 20
-24.7831358598
 10
45.1789665288
 20
-22.6469059815
 10
45.0968435003
 20
-20.4972070017
 10
44.9940952475
 20
-18.3340389204
 10
44.8707105109
 20
-16.1572145548
 10
44.7267005501
 20
-13.9669210877
 10
44.5620991433
 20
-11.7637200676
 10
44.37691755
 20
-9.5477986773
 10
44.1711445108
 20
-7.3189697339
 10
43.9447800256
 20
-5.0772332375
  0
LWPOLYLINE
  5
2C5
100
AcDbEntity
  8
0
100
AcDbPolyline
 62
7
  6
CONTINUOUS
 90
10
 70
0
 10
45.2404643331
 20
-35.1513565365
 10
45.2397408285
 20
-35.1019101602
 10
45.2350337815
 20
-35.0552425383
 10
45.2263738943
 20
-35.0116055428
 10
45.2138126835
 20
-34.9712353262
 10
45.1974195497
 20
-34.9343468591
 10
45.1772805425
 20
-34.9011336787
 10
45.1535018574
 20
-34.8717721288
 10
45.1262101204
 20
-34.8464195161
 10
45.1134952452
 20
-34.836830962
  0
LWPOLYLINE
  5
2C6
100
AcDbEntity
  8
0
100
AcDbPolyline
 62
250
  6
CONTINUOUS
 90
13
 70
0
 10
42.3993020452
 20
-54.0008248302
 10
42.3736333963
 20
-54.2169559873
 10
42.3371294772
 20
-54.4238022309
 10
42.2898774318
 20
-54.6209503491
 10
42.2320005983
 20
-54.8079954458
 10
42.1636125666
 20
-54.9845746
 10
42.084816052
 20
-55.1503663604
 10
41.9957787727
 20
-55.3050398261
 10
41.896689448
 20
-55.4482811578
 10
41.7877122382
 20
-55.5798271811
 10
41.6690759218
 20
-55.6994120785
 10
41.5410262805
 20
-55.8067968382
 10
41.3978252734
 20
-55.9055061991
  0
LWPOLYLINE
  5
2C7
100
AcDbEntity
  8
0
100
AcDbPolyline
 62
7
  6
CONTINUOUS
 90
10
 70
0
 10
43.9447800256
 20
-53.0248848385
 10
44.1711445108
 20
-51.1032760671
 10
44.37691755
 20
-49.1654541466
 10
44.5620991433
 20
-47.211419077
 10
44.7267005501
 20
-45.2409995988
 10
44.8707105109
 20
-43.2543669715
 10
44.9940952475
 20
-41.2520349737
 10
45.0968435003
 20
-39.2341748651
 10
45.1789665288
 20
-37.200615386
 10
45.2404643331
 20
-35.1513565365
  0
LWPOLYLINE
  5
2C8
100
AcDbEntity
  8
0
100
AcDbPolyline
 62
7
  6
CONTINUOUS
 90
10
 70
0
 10
45.0955484698
 20
-25.3210073984
 10
45.1262101204
 20
-25.2582241639
 10
45.1535018574
 20
-25.1954270955
 10
45.1772805425
 20
-25.1329524657
 10
45.1974195497
 20
-25.0711350022
 10
45.2138126835
 20
-25.0103028874
 10
45.2263738943
 20
-24.9507763167
 10
45.2350337815
 20
-24.8928700637
 10
45.2397408285
 20
-24.836891481
 10
45.2404643331
 20
-24.7831358598
  0
LINE
  5
2C9
100
AcDbEntity
  8
0
100
AcDbLine
 62
7
  6
CONTINUOUS
 10
24.6719547972
 20
-44.8327755499
 11
24.7784310287
 21
-44.7574854845
  0
LINE
  5
2CA
100
AcDbEntity
  8
0
100
AcDbLine
 62
7
  6
CONTINUOUS
 10
25.0679543936
 20
-45.1127895499
 11
25.1744306252
 21
-45.0374994845
  0
LINE
  5
2CB
100
AcDbEntity
  8
0
100
AcDbLine
 62
7
  6
CONTINUOUS
 10
25.9433815801
 20
-45.7318100499
 11
26.0498578117
 21
-45.6565199845
  0
LINE
  5
2CC
100
AcDbEntity
  8
0
100
AcDbLine
 62
7
  6
CONTINUOUS
 10
26.3393811766
 20
-46.0118240499
 11
26.4458574081
 21
-45.9365339845
  0
LINE
  5
2CD
100
AcDbEntity
  8
0
100
AcDbLine
 62
7
  6
CONTINUOUS
 10
26.6033759578
 20
-46.1984965499
 11
26.7098521893
 21
-46.1232064845
  0
LINE
  5
2CE
100
AcDbEntity
  8
0
100
AcDbLine
 62
7
  6
CONTINUOUS
 10
26.9993706045
 20
-46.4785070499
 11
27.105846836
 21
-46.4032169845
  0
LINE
  5
2CF
100
AcDbEntity
  8
0
100
AcDbLine
 62
7
  6
CONTINUOUS
 10
25.8859543386
 20
-47.4134023245
 11
25.9925093558
 21
-47.3380565493
  0
LINE
  5
2D0
100
AcDbEntity
  8
0
100
AcDbLine
 62
7
  6
CONTINUOUS
 10
27.3953504019
 20
-46.7585070499
 11
27.5018266335
 21
-46.6832169845
  0
LINE
  5
2D1
100
AcDbEntity
  8
0
100
AcDbLine
 62
7
  6
CONTINUOUS
 10
27.99398771
 20
-47.1818075499
 11
28.1004639416
 21
-47.1065174845
  0
LINE
  5
2D2
100
AcDbEntity
  8
0
100
AcDbLine
 62
7
  6
CONTINUOUS
 10
27.1816497334
 20
-48.3295973245
 11
27.2882047505
 21
-48.2542515493
  0
LINE
  5
2D3
100
AcDbEntity
  8
0
100
AcDbLine
 62
7
  6
CONTINUOUS
 10
28.7334700823
 20
-47.7047005499
 11
28.8399463138
 21
-47.6294104845
  0
LINE
  5
2D4
100
AcDbEntity
  8
0
100
AcDbLine
 62
7
  6
CONTINUOUS
 10
27.9736291273
 20
-48.8896113245
 11
28.0801841445
 21
-48.8142655493
  0
LINE
  5
2D5
100
AcDbEntity
  8
0
100
AcDbLine
 62
7
  6
CONTINUOUS
 10
29.3321073903
 20
-48.1280010499
 11
29.4385836219
 21
-48.0527109845
  0
LINE
  5
2D6
100
AcDbEntity
  8
0
100
AcDbLine
 62
7
  6
CONTINUOUS
 10
28.7440023978
 20
-49.4343432112
 11
28.8505574147
 21
-49.3589974361
  0
LINE
  5
2D7
100
AcDbEntity
  8
0
100
AcDbLine
 62
7
  6
CONTINUOUS
 10
30.231802753
 20
-48.7641774082
 11
30.3382789844
 21
-48.6888873429
  0
LINE
  5
2D8
100
AcDbEntity
  8
0
100
AcDbLine
 62
7
  6
CONTINUOUS
 10
30.6278171987
 20
-49.0442019082
 11
30.7342934301
 21
-48.9689118429
  0
LINE
  5
2D9
100
AcDbEntity
  8
0
100
AcDbLine
 62
7
  6
CONTINUOUS
 10
29.514391469
 20
-49.9790948245
 11
29.6209464861
 21
-49.9037490493
  0
LINE
  5
2DA
100
AcDbEntity
  8
0
100
AcDbLine
 62
7
  6
CONTINUOUS
 10
30.3478022198
 20
-49.9051929902
 11
30.454325938
 21
-49.8298693467
  0
LINE
  5
2DB
100
AcDbEntity
  8
0
100
AcDbLine
 62
7
  6
CONTINUOUS
 10
30.1743804212
 20
-50.4457732112
 11
30.2809354381
 21
-50.3704274361
  0
LWPOLYLINE
  5
2DC
100
AcDbEntity
  8
0
100
AcDbPolyline
 62
7
  6
CONTINUOUS
 90
24
 70
0
 10
32.6633741906
 20
-51.135345912
 10
32.6735216199
 20
-51.1264398038
 10
32.6822037883
 20
-51.1148034432
 10
32.6888176483
 20
-51.1009059263
 10
32.6932856796
 20
-51.0848828943
 10
32.6956014211
 20
-51.066855729
 10
32.6957239615
 20
-51.0470005057
 10
32.6936331813
 20
-51.0255103797
 10
32.6893857431
 20
-51.0025596716
 10
32.68300366
 20
-50.9783708905
 10
32.6745261649
 20
-50.953177156
 10
32.6640674979
 20
-50.9271864456
 10
32.6517096739
 20
-50.9006465646
 10
32.6375469931
 20
-50.8738112595
 10
32.621739883
 20
-50.8469039134
 10
32.6044224494
 20
-50.8201765979
 10
32.5857356434
 20
-50.7938824891
 10
32.5658721951
 20
-50.7682424202
 10
32.5450075735
 20
-50.7434934011
 10
32.5233167319
 20
-50.7198663976
 10
32.5010064778
 20
-50.6975598452
 10
32.4782784053
 20
-50.6767726808
 10
32.4553276645
 20
-50.6577016931
 10
32.432358972
 20
-50.6405203453
  0
LWPOLYLINE
  5
2DD
100
AcDbEntity
  8
0
100
AcDbPolyline
 62
7
  6
CONTINUOUS
 90
30
 70
0
 10
33.1432503672
 20
-51.508142137
 10
33.1586639565
 20
-51.4957785208
 10
33.1781333438
 20
-51.4747941635
 10
33.1943102628
 20
-51.449998034
 10
33.2072457846
 20
-51.4214620356
 10
33.2167114169
 20
-51.3896929765
 10
33.2226474928
 20
-51.3546564675
 10
33.2251146333
 20
-51.3163861392
 10
33.2240639773
 20
-51.2754914701
 10
33.2194279136
 20
-51.2318843479
 10
33.2112742308
 20
-51.1856527466
 10
33.199756261
 20
-51.1376709966
 10
33.1848294912
 20
-51.0879629502
 10
33.1665376013
 20
-51.0365054222
 10
33.1451653596
 20
-50.9841028676
 10
33.1206249547
 20
-50.9306701275
 10
33.0930027504
 20
-50.8762935164
 10
33.0628440713
 20
-50.8220352613
 10
33.0301525773
 20
-50.7679820488
 10
32.9949226258
 20
-50.7140487723
 10
32.9576851051
 20
-50.6610403526
 10
32.9183529538
 20
-50.6089001954
 10
32.8770113248
 20
-50.5576864144
 10
32.8344492168
 20
-50.5083761601
 10
32.7906952196
 20
-50.4610612631
 10
32.7457191634
 20
-50.4156511498
 10
32.7002219002
 20
-50.3728493698
 10
32.6544367416
 20
-50.3328906828
 10
32.608129508
 20
-50.2955410194
 10
32.5612999815
 20
-50.2608005528
  0
LINE
  5
2DE
100
AcDbEntity
  8
0
100
AcDbLine
 62
7
  6
CONTINUOUS
 10
31.5275228965
 20
-49.6803899082
 11
31.6339991279
 21
-49.6050998429
  0
LINE
  5
2DF
100
AcDbEntity
  8
0
100
AcDbLine
 62
7
  6
CONTINUOUS
 10
32.4548084317
 20
-50.3360800182
 11
32.561284663
 21
-50.260789953
  0
LINE
  5
2E0
100
AcDbEntity
  8
0
100
AcDbLine
 62
7
  6
CONTINUOUS
 10
31.9941798742
 20
-50.7508350747
 11
32.1006889902
 21
-50.6755217566
  0
LINE
  5
2E1
100
AcDbEntity
  8
0
100
AcDbLine
 62
7
  6
CONTINUOUS
 10
31.4458126296
 20
-51.3448158245
 11
31.5523676468
 21
-51.2694700493
  0
LINE
  5
2E2
100
AcDbEntity
  8
0
100
AcDbLine
 62
7
  6
CONTINUOUS
 10
32.4759622592
 20
-51.0915064832
 11
32.5824713752
 21
-51.0161931651
  0
LINE
  5
2E3
100
AcDbEntity
  8
0
100
AcDbLine
 62
7
  6
CONTINUOUS
 10
32.1058065315
 20
-51.8114977112
 11
32.2123615485
 21
-51.7361519361
  0
LINE
  5
2E4
100
AcDbEntity
  8
0
100
AcDbLine
 62
7
  6
CONTINUOUS
 10
33.1432789038
 20
-51.508178659
 11
33.0367654415
 21
-51.5834950505
  0
LINE
  5
2E5
100
AcDbEntity
  8
0
100
AcDbLine
 62
7
  6
CONTINUOUS
 10
33.2943295184
 20
-52.6519060978
 11
33.4008845351
 21
-52.5765603229
  0
LWPOLYLINE
  5
2E6
100
AcDbEntity
  8
0
100
AcDbPolyline
 62
7
  6
CONTINUOUS
 90
9
 70
0
 10
33.0367599793
 20
-51.5834989129
 10
33.0162429722
 20
-51.5958650053
 10
32.9912779946
 20
-51.6062256246
 10
32.9638986882
 20
-51.6131370246
 10
32.9342664589
 20
-51.6165384321
 10
32.90249538
 20
-51.6164256061
 10
32.8687371449
 20
-51.6127929377
 10
32.8331801557
 20
-51.6056333625
 10
32.7960075457
 20
-51.5949680231
  0
LWPOLYLINE
  5
2E7
100
AcDbEntity
  8
0
100
AcDbPolyline
 62
7
  6
CONTINUOUS
 90
13
 70
0
 10
42.8420106829
 20
-55.0100819106
 10
42.9954957641
 20
-54.9046144879
 10
43.1322100775
 20
-54.7912639768
 10
43.2592179298
 20
-54.6658254272
 10
43.3763368835
 20
-54.5283493993
 10
43.4837493762
 20
-54.378785333
 10
43.5809777991
 20
-54.2178185593
 10
43.6680387875
 20
-54.0452718513
 10
43.7449157061
 20
-53.861322436
 10
43.8110810407
 20
-53.6671873259
 10
43.866358953
 20
-53.4632721916
 10
43.9109252814
 20
-53.2491713625
 10
43.9447800256
 20
-53.0248848385
  0
LWPOLYLINE
  5
2E8
100
AcDbEntity
  8
0
100
AcDbPolyline
 62
250
  6
CONTINUOUS
 90
31
 70
0
 10
42.3993012864
 20
-54.0008241427
 10
42.1882431114
 20
-54.1428307152
 10
41.9684867089
 20
-54.2761158088
 10
41.7405870546
 20
-54.4003428235
 10
41.5051196895
 20
-54.5151980348
 10
41.2626792661
 20
-54.6203913856
 10
41.0138780467
 20
-54.7156572193
 10
40.7593443573
 20
-54.8007549502
 10
40.4997210008
 20
-54.8754696714
 10
40.2356636335
 20
-54.9396126973
 10
39.9678391096
 20
-54.9930220401
 10
39.6969237967
 20
-55.0355628193
 10
39.4236018681
 20
-55.0671276017
 10
39.1485635747
 20
-55.0876366732
 10
38.8725035019
 20
-55.0970382399
 10
38.5961188157
 20
-55.095308559
 10
38.3201075018
 20
-55.0824519987
 10
38.0451666028
 20
-55.0585010269
 10
37.7719904582
 20
-55.02351613
 10
37.5012689508
 20
-54.9775856592
 10
37.2336857645
 20
-54.9208256079
 10
36.9699166575
 20
-54.8533793187
 10
36.7106277557
 20
-54.7754171215
 10
36.4564738711
 20
-54.6871359031
 10
36.2080968473
 20
-54.5887586099
 10
35.966123939
 20
-54.4805336854
 10
35.7311662278
 20
-54.3627344423
 10
35.5038170793
 20
-54.2356583725
 10
35.2846506441
 20
-54.0996263954
 10
35.074220408
 20
-53.9549820482
 10
34.8730577945
 20
-53.8020906177
  0
LINE
  5
2E9
100
AcDbEntity
  8
0
100
AcDbLine
 62
250
  6
CONTINUOUS
 10
43.9447800256
 20
-53.0248848385
 11
42.3993020452
 21
-54.0008248302
  0
LINE
  5
2EA
100
AcDbEntity
  8
0
100
AcDbLine
 62
7
  6
CONTINUOUS
 10
42.8420331078
 20
-55.0100680069
 11
41.3971303444
 21
-55.9059372854
  0
ELLIPSE
  5
2EB
100
AcDbEntity
  8
0
100
AcDbEllipse
 62
7
  6
CONTINUOUS
 10
279.5529526215
 20
145.4488044164
 30
0.0
 11
251.3763073557
 21
250.6421339504
 31
0.0
 40
0.265596453
 41
-3.6233465496
 42
-3.6178175692
  0
ELLIPSE
  5
2EC
100
AcDbEntity
  8
0
100
AcDbEllipse
 62
7
  6
CONTINUOUS
 10
264.3422151444
 20
156.2044200333
 30
0.0
 11
107.2641732608
 21
342.7110191369
 31
0.0
 40
0.6912191856
 41
-3.8887476468
 42
-3.8807168543
  0
ELLIPSE
  5
2ED
100
AcDbEntity
  8
0
100
AcDbEllipse
 62
7
  6
CONTINUOUS
 10
281.5981328613
 20
144.0026436001
 30
0.0
 11
246.7691282628
 21
253.90672902
 31
0.0
 40
0.2906993817
 41
-3.6236945669
 42
-3.6184653186
  0
ELLIPSE
  5
2EE
100
AcDbEntity
  8
0
100
AcDbEllipse
 62
7
  6
CONTINUOUS
 10
268.0133511992
 20
153.6085348344
 30
0.0
 11
121.982707479
 21
335.4516945254
 31
0.0
 40
0.6762663434
 41
-3.8492559913
 42
-3.8439595729
  0
ELLIPSE
  5
2EF
100
AcDbEntity
  8
0
100
AcDbEllipse
 62
7
  6
CONTINUOUS
 10
269.902092428
 20
152.2729931035
 30
0.0
 11
107.2644091222
 21
342.7109073413
 31
0.0
 40
0.6912189722
 41
-3.8862465391
 42
-3.8838221511
  0
ELLIPSE
  5
2F0
100
AcDbEntity
  8
0
100
AcDbEllipse
 62
7
  6
CONTINUOUS
 10
-27.1746262955
 20
1.7583874322
 30
0.0
 11
-0.1154602812
 21
0.1633186643
 31
0.0
 40
0.5000253781
 41
0.6155993881
 42
2.1863957149
  0
ELLIPSE
  5
2F1
100
AcDbEntity
  8
0
100
AcDbEllipse
 62
7
  6
CONTINUOUS
 10
269.9023513737
 20
152.2728100013
 30
0.0
 11
107.2691965722
 21
342.7086381152
 31
0.0
 40
0.6912146399
 41
-3.8822841257
 42
-3.8807043517
  0
ELLIPSE
  5
2F2
100
AcDbEntity
  8
0
100
AcDbEllipse
 62
7
  6
CONTINUOUS
 10
283.8414088671
 20
142.4164079244
 30
0.0
 11
251.376529907
 21
250.6419766583
 31
0.0
 40
0.2655952353
 41
-3.6233465735
 42
-3.615315781
  0
ELLIPSE
  5
2F3
100
AcDbEntity
  8
0
100
AcDbEllipse
 62
7
  6
CONTINUOUS
 10
267.0272213701
 20
154.3058339236
 30
0.0
 11
-0.4289205336
 21
380.9563932144
 31
0.0
 40
0.7320502981
 41
-4.1429917753
 42
-4.1398859298
  0
ELLIPSE
  5
2F4
100
AcDbEntity
  8
0
100
AcDbEllipse
 62
7
  6
CONTINUOUS
 10
279.949114403
 20
145.1686757343
 30
0.0
 11
251.3773037201
 21
250.6414297526
 31
0.0
 40
0.2655910011
 41
-3.6233465667
 42
-3.6153157944
  0
ELLIPSE
  5
2F5
100
AcDbEntity
  8
0
100
AcDbEllipse
 62
7
  6
CONTINUOUS
 10
279.949114403
 20
145.1686757343
 30
0.0
 11
251.2696167415
 21
250.5340580134
 31
0.0
 40
0.2655910011
 41
-3.6233088459
 42
-3.6152746025
  0
ELLIPSE
  5
2F6
100
AcDbEntity
  8
0
100
AcDbEllipse
 62
7
  6
CONTINUOUS
 10
264.7382264205
 20
155.9243977745
 30
0.0
 11
107.2644149842
 21
342.7109045628
 31
0.0
 40
0.6912189668
 41
-3.8887470432
 42
-3.8832180629
  0
ELLIPSE
  5
2F7
100
AcDbEntity
  8
0
100
AcDbEllipse
 62
7
  6
CONTINUOUS
 10
264.7382264205
 20
155.9243977745
 30
0.0
 11
107.2184642138
 21
342.5640913808
 31
0.0
 40
0.6912189668
 41
-3.8887093223
 42
-3.8836010609
  0
ELLIPSE
  5
2F8
100
AcDbEntity
  8
0
100
AcDbEllipse
 62
7
  6
CONTINUOUS
 10
281.9940478562
 20
143.7226894225
 30
0.0
 11
246.7686396958
 21
253.9070761013
 31
0.0
 40
0.2907020299
 41
-3.6209602955
 42
-3.6156638971
  0
ELLIPSE
  5
2F9
100
AcDbEntity
  8
0
100
AcDbEllipse
 62
7
  6
CONTINUOUS
 10
281.9940478562
 20
143.7226894225
 30
0.0
 11
246.6629270128
 21
253.798305399
 31
0.0
 40
0.2907020299
 41
-3.6191883569
 42
-3.6156227052
  0
ELLIPSE
  5
2FA
100
AcDbEntity
  8
0
100
AcDbEllipse
 62
7
  6
CONTINUOUS
 10
268.4092468134
 20
153.3285943609
 30
0.0
 11
121.9807878484
 21
335.4526787116
 31
0.0
 40
0.6762685217
 41
-3.8519951348
 42
-3.8467658865
  0
ELLIPSE
  5
2FB
100
AcDbEntity
  8
0
100
AcDbEllipse
 62
7
  6
CONTINUOUS
 10
268.4092468134
 20
153.3285943609
 30
0.0
 11
121.928532763
 21
335.3089748652
 31
0.0
 40
0.6762685217
 41
-3.8519574139
 42
-3.8472413585
  0
ELLIPSE
  5
2FC
100
AcDbEntity
  8
0
100
AcDbEllipse
 62
7
  6
CONTINUOUS
 10
284.2370756026
 20
142.1366292926
 30
0.0
 11
251.3745846524
 21
250.6433515025
 31
0.0
 40
0.2656058792
 41
-3.6208460012
 42
-3.6184216132
  0
ELLIPSE
  5
2FD
100
AcDbEntity
  8
0
100
AcDbEllipse
 62
7
  6
CONTINUOUS
 10
284.2370756026
 20
142.1366292926
 30
0.0
 11
251.2668988386
 21
250.5359789401
 31
0.0
 40
0.2656058792
 41
-3.6196834516
 42
-3.6183817643
  0
ELLIPSE
  5
2FE
100
AcDbEntity
  8
0
100
AcDbEllipse
 62
7
  6
CONTINUOUS
 10
270.2980253032
 20
151.9930262826
 30
0.0
 11
107.2630501307
 21
342.7115514854
 31
0.0
 40
0.6912202019
 41
-3.8887504712
 42
-3.8807196788
  0
ELLIPSE
  5
2FF
100
AcDbEntity
  8
0
100
AcDbEllipse
 62
7
  6
CONTINUOUS
 10
270.2980253032
 20
151.9930262826
 30
0.0
 11
107.217099945
 21
342.5647380263
 31
0.0
 40
0.6912202019
 41
-3.8887127503
 42
-3.8806784869
  0
ELLIPSE
  5
300
100
AcDbEntity
  8
0
100
AcDbEllipse
 62
7
  6
CONTINUOUS
 10
284.2374974036
 20
142.1363310342
 30
0.0
 11
251.3770674426
 21
250.6415967457
 31
0.0
 40
0.265592294
 41
-3.6168955844
 42
-3.6153158104
  0
ELLIPSE
  5
301
100
AcDbEntity
  8
0
100
AcDbEllipse
 62
7
  6
CONTINUOUS
 10
284.2374974036
 20
142.1363310342
 30
0.0
 11
251.2693805652
 21
250.534224935
 31
0.0
 40
0.265592294
 41
2.6670365899
 42
2.6679106886
  0
ELLIPSE
  5
302
100
AcDbEntity
  8
0
100
AcDbEllipse
 62
7
  6
CONTINUOUS
 10
267.4733295199
 20
153.9903878258
 30
0.0
 11
-0.4269199009
 21
380.9558765744
 31
0.0
 40
0.7320503028
 41
-4.1431804008
 42
-4.1398814032
  0
ELLIPSE
  5
303
100
AcDbEntity
  8
0
100
AcDbEllipse
 62
7
  6
CONTINUOUS
 10
267.4733295199
 20
153.9903878258
 30
0.0
 11
-0.4267370136
 21
380.7926797117
 31
0.0
 40
0.7320503028
 41
-4.1428162354
 42
-4.1398402114
  0
ENDSEC
  0
SECTION
  2
OBJECTS
  0
DICTIONARY
  5
C
100
AcDbDictionary
280
0
281
1
  3
ACAD_GROUP
350
D
  3
ACAD_MLINESTYLE
350
17
  3
ACAD_LAYOUT
350
1A
  3
ACAD_PLOTSETTINGS
350
19
  3
ACAD_PLOTSTYLENAME
350
E
  0
DICTIONARY
  5
D
102
{ACAD_REACTORS
330
C
102
}
100
AcDbDictionary
280
0
281
1
  0
ACDBDICTIONARYWDFLT
  5
E
102
{ACAD_REACTORS
330
C
102
}
100
AcDbDictionary
281
1
  3
Normal
350
F
100
AcDbDictionaryWithDefault
340
F
  0
DICTIONARY
  5
17
102
{ACAD_REACTORS
330
C
102
}
100
AcDbDictionary
280
0
281
1
  3
Standard
350
18
  0
DICTIONARY
  5
19
102
{ACAD_REACTORS
330
C
102
}
100
AcDbDictionary
281
1
  0
DICTIONARY
  5
1A
102
{ACAD_REACTORS
330
C
102
}
100
AcDbDictionary
281
1
  3
Model
350
304
  3
Layout1
350
305
  0
ACDBPLACEHOLDER
  5
F
102
{ACAD_REACTORS
330
E
102
}
  0
MLINESTYLE
  5
18
102
{ACAD_REACTORS
330
17
102
}
100
AcDbMlineStyle
  2
STANDARD
 70
0
  3

 62
256
 51
90.0
 52
90.0
 71
2
 49
0.5
 62
256
  6
BYLAYER
 49
-0.5
 62
256
  6
BYLAYER
  0
LAYOUT
  5
304
102
{ACAD_REACTORS
330
1A
102
}
100
AcDbPlotSettings
  1

  2
none_device
  4
ISO_A4_(297.00_x_210.00_MM)
  6

 40
0.0
 41
0.0
 42
0.0
 43
0.0
 44
297.0
 45
210.0
 46
0.0
 47
0.0
 48
0.0
 49
0.0
140
0.0
141
0.0
142
1.0
143
1.0
 70
1024
 72
1
 73
0
 74
0
  7

 75
0
147
1.0
148
0.0
149
0.0
100
AcDbLayout
  1
Model
 70
0
 71
0
 10
0.0
 20
0.0
 11
297.0
 21
210.0
 12
0.0
 22
0.0
 32
0.0
 14
0.0
 24
0.0
 34
0.0
 15
0.0
 25
0.0
 35
0.0
146
0.0
 13
0.0
 23
0.0
 33
0.0
 16
1.0
 26
0.0
 36
0.0
 17
0.0
 27
1.0
 37
0.0
 76
0
330
214
345
0
346
0
  0
LAYOUT
  5
305
102
{ACAD_REACTORS
330
1A
102
}
100
AcDbPlotSettings
  1

  2
none_device
  4
ISO_A4_(297.00_x_210.00_MM)
  6

 40
0.0
 41
0.0
 42
0.0
 43
0.0
 44
297.0
 45
210.0
 46
0.0
 47
0.0
 48
0.0
 49
0.0
140
0.0
141
0.0
142
1.0
143
1.0
 70
0
 72
1
 73
0
 74
0
  7

 75
0
147
1.0
148
0.0
149
0.0
100
AcDbLayout
  1
Layout1
 70
0
 71
1
 10
0.0
 20
0.0
 11
297.0
 21
210.0
 12
0.0
 22
0.0
 32
0.0
 14
0.0
 24
0.0
 34
0.0
 15
0.0
 25
0.0
 35
0.0
146
0.0
 13
0.0
 23
0.0
 33
0.0
 16
1.0
 26
0.0
 36
0.0
 17
0.0
 27
1.0
 37
0.0
 76
0
330
215
345
0
346
0
  0
ENDSEC
  0
EOF
