  0
SECTION
  2
HEADER
  9
$ACADVER
  1
AC1015
  9
$DWGCODEPAGE
  3
ANSI_1252
  9
$EXTMAX
 10
297.0
 20
210.0
 30
0.0
  9
$EXTMIN
 10
0.0
 20
0.0
 30
0.0
  9
$LIMMIN
 10
0.0
 20
0.0
  9
$LIMMAX
 10
297.0
 20
210.0
  9
$VIEWCTR
 10
148.5
 20
105.0
  9
$VIEWSIZE
 40
210.0
  9
$CLAYER
  8
0
  9
$LTSCALE
 40
16.335
  9
$CELTYPE
  6
BYLAYER
  9
$DIMSCALE
 40
1.0
  9
$DIMASZ
 40
3.0
  9
$DIMEXO
 40
1.85625
  9
$DIMDLI
 40
11.286
  9
$DIMEXE
 40
5.346
  9
$DIMCEN
 40
2.673
  9
$DIMLFAC
 40
1.0
  9
$DIMBLK
  1
_FILLED
  9
$DIMTXT
 40
3.0
  9
$DIMTOL
 70
1
  9
$DIMLIM
 70
0
  9
$DIMTFAC
 40
1.0
  9
$DIMTP
 40
0.01
  9
$DIMTM
 40
0.01
  9
$PDMODE
 70
3
  9
$PDSIZE
 40
3.0
  9
$HANDSEED
  5
4F6
  9
$TILEMODE
 70
1
  9
$MEASUREMENT
 70
1
  9
$INSUNITS
 70
4
  0
ENDSEC
  0
SECTION
  2
CLASSES
  0
CLASS
  1
ACDBDICTIONARYWDFLT
  2
AcDbDictionaryWithDefault
  3
AutoCAD 2000
 90
0
280
0
281
0
  0
CLASS
  1
ACDBPLACEHOLDER
  2
AcDbPlaceHolder
  3
AutoCAD 2000
 90
0
280
0
281
0
  0
CLASS
  1
LAYOUT
  2
AcDbLayout
  3
AutoCAD 2000
 90
0
280
0
281
0
  0
ENDSEC
  0
SECTION
  2
TABLES
  0
TABLE
  2
VPORT
  5
8
100
AcDbSymbolTable
 70
2
  0
VPORT
  5
1F4
100
AcDbSymbolTableRecord
100
AcDbViewportTableRecord
  2
*ACTIVE
 70
0
 10
0.0
 20
0.0
 11
1.0
 21
1.0
 12
148.5
 22
105.0
 13
0.0
 23
0.0
 14
1.0
 24
1.0
 15
0.0
 25
0.0
 16
0.0
 26
0.0
 36
1.0
 17
0.0
 27
0.0
 37
0.0
 40
210.0
 41
1.4142857143
 42
50.0
 43
0.0
 44
0.0
 50
0.0
 51
0.0
 71
0
 72
100
 73
1
 74
1
 75
0
 76
0
 77
0
 78
0
  0
ENDTAB
  0
TABLE
  2
LTYPE
  5
5
100
AcDbSymbolTable
 70
6
  0
LTYPE
  5
14
100
AcDbSymbolTableRecord
100
AcDbLinetypeTableRecord
  2
BYBLOCK
 70
0
  3

 72
65
 73
0
 40
0.0
  0
LTYPE
  5
15
100
AcDbSymbolTableRecord
100
AcDbLinetypeTableRecord
  2
BYLAYER
 70
0
  3

 72
65
 73
0
 40
0.0
  0
LTYPE
  5
16
100
AcDbSymbolTableRecord
100
AcDbLinetypeTableRecord
  2
CONTINUOUS
 70
64
  3
Solid line
 72
65
 73
0
 40
0.0
  0
LTYPE
  5
1F5
100
AcDbSymbolTableRecord
100
AcDbLinetypeTableRecord
  2
CENTER
 70
64
  3
____ _ ____ _ ____ _ ____ _ ____ _ ____ _ ____
 72
65
 73
4
 40
0.6
 49
0.375
 74
0
 49
-0.075
 74
0
 49
0.075
 74
0
 49
-0.075
 74
0
  0
LTYPE
  5
1F6
100
AcDbSymbolTableRecord
100
AcDbLinetypeTableRecord
  2
HIDDEN
 70
64
  3
- - - - - - - - - - - - - - - - - - - -
 72
65
 73
2
 40
0.2
 49
0.1
 74
0
 49
-0.1
 74
0
  0
LTYPE
  5
1F7
100
AcDbSymbolTableRecord
100
AcDbLinetypeTableRecord
  2
PHANTOM
 70
64
  3
_____ _ _ _____ _ _ _____ _ _ _____
 72
65
 73
6
 40
0.8
 49
0.45
 74
0
 49
-0.05
 74
0
 49
0.1
 74
0
 49
-0.05
 74
0
 49
0.1
 74
0
 49
-0.05
 74
0
  0
LTYPE
  5
1F8
100
AcDbSymbolTableRecord
100
AcDbLinetypeTableRecord
  2
DOT
 70
64
  3
. . . . . . . . . . . . . . . . . . . .
 72
65
 73
2
 40
0.2
 49
0.1
 74
0
 49
-0.1
 74
0
  0
LTYPE
  5
1F9
100
AcDbSymbolTableRecord
100
AcDbLinetypeTableRecord
  2
DASHED
 70
64
  3
- - - - - - - - - - - - - - - - - - - -
 72
65
 73
2
 40
0.2
 49
0.1
 74
0
 49
-0.1
 74
0
  0
ENDTAB
  0
TABLE
  2
LAYER
  5
2
100
AcDbSymbolTable
 70
36
  0
LAYER
  5
10
100
AcDbSymbolTableRecord
100
AcDbLayerTableRecord
  2
0
 70
0
 62
7
  6
CONTINUOUS
370
-3
390
F
  0
LAYER
  5
1FA
100
AcDbSymbolTableRecord
100
AcDbLayerTableRecord
  2
DEFAULT_1
 70
0
 62
7
  6
CENTER
370
-3
390
F
  0
LAYER
  5
1FB
100
AcDbSymbolTableRecord
100
AcDbLayerTableRecord
  2
DEFAULT_2
 70
0
 62
7
  6
HIDDEN
370
-3
390
F
  0
LAYER
  5
1FC
100
AcDbSymbolTableRecord
100
AcDbLayerTableRecord
  2
DEFAULT_3
 70
0
 62
7
  6
PHANTOM
370
-3
390
F
  0
LAYER
  5
1FD
100
AcDbSymbolTableRecord
100
AcDbLayerTableRecord
  2
ASSI
 70
0
 62
7
  6
CONTINUOUS
370
-3
390
F
  0
LAYER
  5
1FE
100
AcDbSymbolTableRecord
100
AcDbLayerTableRecord
  2
COORDINATE
 70
0
 62
7
  6
CONTINUOUS
370
-3
390
F
  0
LAYER
  5
1FF
100
AcDbSymbolTableRecord
100
AcDbLayerTableRecord
  2
COORD_ORIGINE
 70
0
 62
7
  6
CONTINUOUS
370
-3
390
F
  0
LAYER
  5
200
100
AcDbSymbolTableRecord
100
AcDbLayerTableRecord
  2
COPY_PUBLISH
 70
0
 62
7
  6
CONTINUOUS
370
-3
390
F
  0
LAYER
  5
201
100
AcDbSymbolTableRecord
100
AcDbLayerTableRecord
  2
COSMETIC
 70
0
 62
7
  6
CONTINUOUS
370
-3
390
F
  0
LAYER
  5
202
100
AcDbSymbolTableRecord
100
AcDbLayerTableRecord
  2
COSMETICI
 70
0
 62
7
  6
CONTINUOUS
370
-3
390
F
  0
LAYER
  5
203
100
AcDbSymbolTableRecord
100
AcDbLayerTableRecord
  2
CURVE
 70
0
 62
7
  6
CONTINUOUS
370
-3
390
F
  0
LAYER
  5
204
100
AcDbSymbolTableRecord
100
AcDbLayerTableRecord
  2
DRAFT
 70
0
 62
7
  6
CONTINUOUS
370
-3
390
F
  0
LAYER
  5
205
100
AcDbSymbolTableRecord
100
AcDbLayerTableRecord
  2
IMPORT
 70
0
 62
7
  6
CONTINUOUS
370
-3
390
F
  0
LAYER
  5
206
100
AcDbSymbolTableRecord
100
AcDbLayerTableRecord
  2
IMPORT_IGES
 70
0
 62
7
  6
CONTINUOUS
370
-3
390
F
  0
LAYER
  5
207
100
AcDbSymbolTableRecord
100
AcDbLayerTableRecord
  2
INTFCLR_11
 70
0
 62
7
  6
CONTINUOUS
370
-3
390
F
  0
LAYER
  5
208
100
AcDbSymbolTableRecord
100
AcDbLayerTableRecord
  2
INTF_1
 70
0
 62
7
  6
CONTINUOUS
370
-3
390
F
  0
LAYER
  5
209
100
AcDbSymbolTableRecord
100
AcDbLayerTableRecord
  2
INTF_3
 70
0
 62
7
  6
CONTINUOUS
370
-3
390
F
  0
LAYER
  5
20A
100
AcDbSymbolTableRecord
100
AcDbLayerTableRecord
  2
NOTE
 70
0
 62
7
  6
CONTINUOUS
370
-3
390
F
  0
LAYER
  5
20B
100
AcDbSymbolTableRecord
100
AcDbLayerTableRecord
  2
PIANI
 70
0
 62
7
  6
CONTINUOUS
370
-3
390
F
  0
LAYER
  5
20C
100
AcDbSymbolTableRecord
100
AcDbLayerTableRecord
  2
PIANI_ORIGINE
 70
0
 62
7
  6
CONTINUOUS
370
-3
390
F
  0
LAYER
  5
20D
100
AcDbSymbolTableRecord
100
AcDbLayerTableRecord
  2
PIANI_RIFERIMENTO
 70
0
 62
7
  6
CONTINUOUS
370
-3
390
F
  0
LAYER
  5
20E
100
AcDbSymbolTableRecord
100
AcDbLayerTableRecord
  2
PUNTI
 70
0
 62
7
  6
CONTINUOUS
370
-3
390
F
  0
LAYER
  5
20F
100
AcDbSymbolTableRecord
100
AcDbLayerTableRecord
  2
RACCORDO
 70
0
 62
7
  6
CONTINUOUS
370
-3
390
F
  0
LAYER
  5
210
100
AcDbSymbolTableRecord
100
AcDbLayerTableRecord
  2
SIMBOLI
 70
0
 62
7
  6
CONTINUOUS
370
-3
390
F
  0
LAYER
  5
211
100
AcDbSymbolTableRecord
100
AcDbLayerTableRecord
  2
SMUSSO
 70
0
 62
7
  6
CONTINUOUS
370
-3
390
F
  0
LAYER
  5
212
100
AcDbSymbolTableRecord
100
AcDbLayerTableRecord
  2
SNAPLINE
 70
0
 62
7
  6
CONTINUOUS
370
-3
390
F
  0
LAYER
  5
213
100
AcDbSymbolTableRecord
100
AcDbLayerTableRecord
  2
SUPERFICI
 70
0
 62
7
  6
CONTINUOUS
370
-3
390
F
  0
LAYER
  5
214
100
AcDbSymbolTableRecord
100
AcDbLayerTableRecord
  2
TRASH
 70
0
 62
7
  6
CONTINUOUS
370
-3
390
F
  0
LAYER
  5
215
100
AcDbSymbolTableRecord
100
AcDbLayerTableRecord
  2
XSEC_DATUMS
 70
0
 62
7
  6
CONTINUOUS
370
-3
390
F
  0
LAYER
  5
216
100
AcDbSymbolTableRecord
100
AcDbLayerTableRecord
  2
___SHELL
 70
0
 62
7
  6
CONTINUOUS
370
-3
390
F
  0
ENDTAB
  0
TABLE
  2
STYLE
  5
3
100
AcDbSymbolTable
 70
1
  0
STYLE
  5
11
100
AcDbSymbolTableRecord
100
AcDbTextStyleTableRecord
  2
STANDARD
 70
0
 40
0.0
 41
0.8
 50
0.0
 71
0
 42
0.2
  3
txt
  4

  0
STYLE
  5
217
100
AcDbSymbolTableRecord
100
AcDbTextStyleTableRecord
  2
TEXTSTYLE_1
 70
0
 40
0.0
 41
0.8
 50
0.0
 71
0
 42
0.2
  3
gdt
  4

  0
ENDTAB
  0
TABLE
  2
VIEW
  5
6
100
AcDbSymbolTable
 70
0
  0
ENDTAB
  0
TABLE
  2
UCS
  5
7
100
AcDbSymbolTable
 70
0
  0
ENDTAB
  0
TABLE
  2
APPID
  5
9
100
AcDbSymbolTable
 70
1
  0
APPID
  5
218
100
AcDbSymbolTableRecord
100
AcDbRegAppTableRecord
  2
ACAD
 70
0
  0
ENDTAB
  0
TABLE
  2
BLOCK_RECORD
  5
1
100
AcDbSymbolTable
 70
0
  0
BLOCK_RECORD
  5
219
100
AcDbSymbolTableRecord
100
AcDbBlockTableRecord
  2
*Model_Space
  0
BLOCK_RECORD
  5
21A
100
AcDbSymbolTableRecord
100
AcDbBlockTableRecord
  2
*Paper_Space
  0
ENDTAB
  0
TABLE
  2
DIMSTYLE
  5
A
100
AcDbSymbolTable
 70
1
100
AcDbDimStyleTable
 71
0
  0
DIMSTYLE
105
21B
100
AcDbSymbolTableRecord
100
AcDbDimStyleTableRecord
  2
STANDARD
 70
0
  3

  4

 40
1.0
 41
3.0
 42
0.0625
 43
0.38
 44
0.18
 45
0.0
 46
0.0
 47
0.01
 48
0.01
140
3.0
141
0.09
142
0.0
143
25.4
144
1.0
145
0.0
146
1.0
147
0.09
 71
1.0
 72
0.0
 73
0
 74
0
 75
0
 76
0
 77
1
 78
8
170
0
171
2
172
0
173
0
174
0
175
0
176
0
177
0
178
0
270
2
271
2
272
2
273
2
274
2
275
0
280
0
281
0
282
0
283
1
284
8
285
0
286
0
287
3
288
0
340
11
  0
ENDTAB
  0
ENDSEC
  0
SECTION
  2
BLOCKS
  0
BLOCK
  5
20
100
AcDbEntity
  8
0
100
AcDbBlockBegin
  2
*Model_Space
 70
0
 10
0.0
 20
0.0
 30
0.0
  3
*Model_Space
  1

  0
ENDBLK
  5
21
100
AcDbEntity
  8
0
100
AcDbBlockEnd
  0
BLOCK
  5
1C
100
AcDbEntity
  8
0
100
AcDbBlockBegin
  2
*Paper_Space
 70
0
 10
0.0
 20
0.0
 30
0.0
  3
*Paper_Space
  1

  0
ENDBLK
  5
1D
100
AcDbEntity
  8
0
100
AcDbBlockEnd
  0
ENDSEC
  0
SECTION
  2
ENTITIES
  0
LWPOLYLINE
  5
21C
100
AcDbEntity
  8
RACCORDO
100
AcDbPolyline
 62
7
  6
CONTINUOUS
 90
18
 70
0
 10
-29.6084145165
 20
27.1172607456
 10
-29.6651493055
 20
27.0596069236
 10
-29.7179594612
 20
26.9982940595
 10
-29.7670891233
 20
26.9338291553
 10
-29.8129236851
 20
26.8663801359
 10
-29.8557192727
 20
26.7960639647
 10
-29.8955068606
 20
26.7232304859
 10
-29.9323280022
 20
26.6480946592
 10
-29.9661836141
 20
26.5708845373
 10
-29.9969942448
 20
26.4918950676
 10
-30.0246742563
 20
26.411403609
 10
-30.0491016781
 20
26.3296939862
 10
-30.0701432627
 20
26.2470275433
 10
-30.0876250543
 20
26.163723296
 10
-30.101359826
 20
26.0800104871
 10
-30.1111330924
 20
25.9960187019
 10
-30.1166537631
 20
25.9120026571
 10
-30.1173311223
 20
25.8910935151
  0
LINE
  5
21D
100
AcDbEntity
  8
0
100
AcDbLine
 62
7
  6
CONTINUOUS
 10
-26.1510109847
 20
30.5480870611
 11
-25.6239146741
 21
31.0512187188
  0
LINE
  5
21E
100
AcDbEntity
  8
0
100
AcDbLine
 62
253
  6
CONTINUOUS
 10
-25.818233346
 20
30.5949274695
 11
-25.4169113845
 21
30.9780031612
  0
LINE
  5
21F
100
AcDbEntity
  8
RACCORDO
100
AcDbLine
 62
7
  6
CONTINUOUS
 10
-27.1895474479
 20
29.3687699816
 11
-29.6084145165
 21
27.1172607456
  0
LINE
  5
220
100
AcDbEntity
  8
RACCORDO
100
AcDbLine
 62
253
  6
CONTINUOUS
 10
-26.8586897586
 20
29.4135015101
 11
-29.2683341947
 21
27.1706354213
  0
LINE
  5
221
100
AcDbEntity
  8
RACCORDO
100
AcDbLine
 62
7
  6
CONTINUOUS
 10
-29.6013117992
 20
27.1239291094
 11
-29.6018664961
 21
27.1234143984
  0
LINE
  5
222
100
AcDbEntity
  8
0
100
AcDbLine
 62
7
  6
CONTINUOUS
 10
-25.7719441507
 20
31.8300784842
 11
-24.5563810684
 21
32.8736257483
  0
LINE
  5
223
100
AcDbEntity
  8
0
100
AcDbLine
 62
253
  6
CONTINUOUS
 10
-25.6098913215
 20
31.8493902898
 11
-24.3946467443
 21
32.8926641207
  0
LINE
  5
224
100
AcDbEntity
  8
0
100
AcDbLine
 62
7
  6
CONTINUOUS
 10
-24.5563794905
 20
32.8736271029
 11
-24.5541942278
 21
32.8754597879
  0
LINE
  5
225
100
AcDbEntity
  8
0
100
AcDbLine
 62
7
  6
CONTINUOUS
 10
-24.5541936211
 20
32.8754602849
 11
-24.1409288052
 21
33.2140085973
  0
LINE
  5
226
100
AcDbEntity
  8
0
100
AcDbLine
 62
253
  6
CONTINUOUS
 10
-24.3946467443
 20
32.8926641207
 11
-23.9817087986
 21
33.2309446596
  0
LINE
  5
227
100
AcDbEntity
  8
0
100
AcDbLine
 62
7
  6
CONTINUOUS
 10
-22.172166191
 20
30.3453807251
 11
-22.8598632755
 21
29.7209051656
  0
LINE
  5
228
100
AcDbEntity
  8
0
100
AcDbLine
 62
7
  6
CONTINUOUS
 10
-19.8238886007
 20
30.8566849341
 11
-20.6335282893
 21
30.161618348
  0
LINE
  5
229
100
AcDbEntity
  8
0
100
AcDbLine
 62
253
  6
CONTINUOUS
 10
-22.3818302847
 20
32.1807455824
 11
-21.9762253961
 21
32.5216197703
  0
LINE
  5
22A
100
AcDbEntity
  8
0
100
AcDbLine
 62
253
  6
CONTINUOUS
 10
-22.172166191
 20
31.896924824
 11
-21.7665613023
 21
32.2377990119
  0
LINE
  5
22B
100
AcDbEntity
  8
0
100
AcDbLine
 62
7
  6
CONTINUOUS
 10
-16.2316682973
 20
35.3378313869
 11
-21.6324063986
 21
30.7989999639
  0
LINE
  5
22C
100
AcDbEntity
  8
0
100
AcDbLine
 62
253
  6
CONTINUOUS
 10
-23.6190456469
 20
31.1452426583
 11
-22.3818302847
 21
32.1807455824
  0
LINE
  5
22D
100
AcDbEntity
  8
0
100
AcDbLine
 62
253
  6
CONTINUOUS
 10
-23.4093815531
 20
30.8614218999
 11
-22.172166191
 21
31.896924824
  0
LINE
  5
22E
100
AcDbEntity
  8
0
100
AcDbLine
 62
7
  6
CONTINUOUS
 10
-16.5888974652
 20
35.1596405723
 11
-21.763956066
 21
30.8455281243
  0
LINE
  5
22F
100
AcDbEntity
  8
0
100
AcDbLine
 62
7
  6
CONTINUOUS
 10
-16.7999395988
 20
33.3339169462
 11
-19.8238886007
 21
30.8566849341
  0
LINE
  5
230
100
AcDbEntity
  8
0
100
AcDbLine
 62
253
  6
CONTINUOUS
 10
-22.172166191
 20
31.1928448783
 11
-21.7665613023
 21
31.9012448493
  0
LINE
  5
231
100
AcDbEntity
  8
0
100
AcDbLine
 62
7
  6
CONTINUOUS
 10
-22.172166191
 20
31.1307672509
 11
-21.76006302
 21
31.8505166488
  0
LINE
  5
232
100
AcDbEntity
  8
0
100
AcDbLine
 62
7
  6
CONTINUOUS
 10
-19.8441101137
 20
28.4819235446
 11
-19.2994710787
 21
28.9826491355
  0
LINE
  5
233
100
AcDbEntity
  8
0
100
AcDbLine
 62
7
  6
CONTINUOUS
 10
-19.8441101137
 20
29.8824068824
 11
-19.1911769844
 21
30.4358520947
  0
LINE
  5
234
100
AcDbEntity
  8
0
100
AcDbLine
 62
253
  6
CONTINUOUS
 10
-17.2622346781
 20
29.7535992343
 11
-17.0982092549
 21
29.8926319791
  0
LINE
  5
235
100
AcDbEntity
  8
0
100
AcDbLine
 62
253
  6
CONTINUOUS
 10
-17.0938668518
 20
29.5270730998
 11
-16.9304751413
 21
29.6655686912
  0
LINE
  5
236
100
AcDbEntity
  8
0
100
AcDbLine
 62
7
  6
CONTINUOUS
 10
-13.4188929624
 20
32.8494239575
 11
-16.4688234066
 21
30.2915370597
  0
LINE
  5
237
100
AcDbEntity
  8
0
100
AcDbLine
 62
7
  6
CONTINUOUS
 10
-16.3858361063
 20
28.9438141546
 11
-16.9304751413
 21
28.4914327347
  0
LINE
  5
238
100
AcDbEntity
  8
0
100
AcDbLine
 62
7
  6
CONTINUOUS
 10
-16.0300525868
 20
33.0616135111
 11
-18.4825125262
 21
31.0267783258
  0
LINE
  5
239
100
AcDbEntity
  8
0
100
AcDbLine
 62
7
  6
CONTINUOUS
 10
-17.3486037299
 20
30.6257230339
 11
-16.0092399298
 21
31.7370091114
  0
LINE
  5
23A
100
AcDbEntity
  8
0
100
AcDbLine
 62
7
  6
CONTINUOUS
 10
-16.929268446
 20
30.4774071946
 11
-12.6136183284
 21
34.0581534346
  0
LINE
  5
23B
100
AcDbEntity
  8
0
100
AcDbLine
 62
253
  6
CONTINUOUS
 10
-17.0982092549
 20
29.8926319791
 11
-16.5535702199
 21
30.3445254653
  0
LINE
  5
23C
100
AcDbEntity
  8
0
100
AcDbLine
 62
253
  6
CONTINUOUS
 10
-16.9304751413
 20
29.6655686912
 11
-16.3858361063
 21
30.1174621774
  0
LWPOLYLINE
  5
23D
100
AcDbEntity
  8
RACCORDO
100
AcDbPolyline
 62
7
  6
CONTINUOUS
 90
17
 70
0
 10
-30.1173081643
 20
-9.0388111546
 10
-30.1168611397
 20
-9.0527679025
 10
-30.1115729421
 20
-9.1313221326
 10
-30.1018078549
 20
-9.2058328509
 10
-30.0877053354
 20
-9.2764475076
 10
-30.069354876
 20
-9.3433584905
 10
-30.0468148585
 20
-9.4066472559
 10
-30.0201468893
 20
-9.466339323
 10
-29.9894202571
 20
-9.5223864671
 10
-29.9548232916
 20
-9.574533973
 10
-29.9166012914
 20
-9.622555654
 10
-29.8749689654
 20
-9.6663303815
 10
-29.8302759874
 20
-9.7056261618
 10
-29.7829215942
 20
-9.7402438138
 10
-29.7332969363
 20
-9.7700609513
 10
-29.6818736185
 20
-9.7949730557
 10
-29.6516526038
 20
-9.8070669981
  0
LWPOLYLINE
  5
23E
100
AcDbEntity
  8
RACCORDO
100
AcDbPolyline
 62
7
  6
CONTINUOUS
 90
10
 70
0
 10
-30.1173279555
 20
25.8913761049
 10
-30.2067291664
 20
21.9857716688
 10
-30.2751336297
 20
18.0299901284
 10
-30.3207512476
 20
14.0935460977
 10
-30.3435698366
 20
10.1768383255
 10
-30.3435866455
 20
6.2801929014
 10
-30.3208009966
 20
2.4039088378
 10
-30.2752142792
 20
-1.4516915353
 10
-30.2068373146
 20
-5.2862299381
 10
-30.1173118908
 20
-9.0388208351
  0
LINE
  5
23F
100
AcDbEntity
  8
0
100
AcDbLine
 62
7
  6
CONTINUOUS
 10
-16.9304751413
 20
28.4914327347
 11
-17.0938668518
 21
28.3412150575
  0
LINE
  5
240
100
AcDbEntity
  8
0
100
AcDbLine
 62
7
  6
CONTINUOUS
 10
-15.2143147841
 20
29.1658882265
 11
-15.3781111792
 21
29.0270496126
  0
LINE
  5
241
100
AcDbEntity
  8
0
100
AcDbLine
 62
253
  6
CONTINUOUS
 10
-15.0853998918
 20
29.1807159508
 11
-15.249425315
 21
29.041683206
  0
LINE
  5
242
100
AcDbEntity
  8
0
100
AcDbLine
 62
7
  6
CONTINUOUS
 10
-13.3204830088
 20
28.3594303455
 11
-13.9734161381
 21
27.8059851332
  0
LINE
  5
243
100
AcDbEntity
  8
0
100
AcDbLine
 62
7
  6
CONTINUOUS
 10
-9.3894715992
 20
30.7128883267
 11
-12.359720546
 21
28.2166629958
  0
LINE
  5
244
100
AcDbEntity
  8
0
100
AcDbLine
 62
7
  6
CONTINUOUS
 10
-15.2135165615
 20
29.1665576474
 11
-15.2143140555
 21
29.1658888441
  0
LINE
  5
245
100
AcDbEntity
  8
0
100
AcDbLine
 62
7
  6
CONTINUOUS
 10
-12.359720546
 20
28.2166629958
 11
-13.1839979625
 21
27.5267736676
  0
LINE
  5
246
100
AcDbEntity
  8
0
100
AcDbLine
 62
7
  6
CONTINUOUS
 10
-14.6688762485
 20
29.6184521942
 11
-15.2135157254
 21
29.1665583414
  0
LINE
  5
247
100
AcDbEntity
  8
0
100
AcDbLine
 62
253
  6
CONTINUOUS
 10
-14.5407608568
 20
29.632609437
 11
-15.0853998918
 21
29.1807159508
  0
LINE
  5
248
100
AcDbEntity
  8
0
100
AcDbLine
 62
7
  6
CONTINUOUS
 10
-10.1593586112
 20
30.9851917619
 11
-12.6118185505
 21
28.9503565765
  0
LINE
  5
249
100
AcDbEntity
  8
0
100
AcDbLine
 62
7
  6
CONTINUOUS
 10
-7.5815949208
 20
32.2783633639
 11
-9.3525629769
 21
30.8089701009
  0
LINE
  5
24A
100
AcDbEntity
  8
DRAFT
100
AcDbLine
 62
7
  6
CONTINUOUS
 10
-26.2372494322
 20
30.3236031953
 11
-26.2372494322
 21
29.1937025877
  0
LINE
  5
24B
100
AcDbEntity
  8
0
100
AcDbLine
 62
7
  6
CONTINUOUS
 10
-12.359720546
 20
26.8747900871
 11
-13.1839979625
 21
26.1262903298
  0
LINE
  5
24C
100
AcDbEntity
  8
0
100
AcDbLine
 62
7
  6
CONTINUOUS
 10
-11.1790762685
 20
26.668687279
 11
-9.9635131861
 21
27.712234543
  0
LINE
  5
24D
100
AcDbEntity
  8
0
100
AcDbLine
 62
253
  6
CONTINUOUS
 10
-11.0170234392
 20
26.6879990845
 11
-9.801778862
 21
27.7312729155
  0
LINE
  5
24E
100
AcDbEntity
  8
0
100
AcDbLine
 62
7
  6
CONTINUOUS
 10
-12.359720546
 20
26.8747900871
 11
-9.3674044393
 21
29.389560868
  0
LINE
  5
24F
100
AcDbEntity
  8
0
100
AcDbLine
 62
7
  6
CONTINUOUS
 10
-9.9635116083
 20
27.7122358976
 11
-9.9613263455
 21
27.7140685827
  0
LINE
  5
250
100
AcDbEntity
  8
0
100
AcDbLine
 62
7
  6
CONTINUOUS
 10
-9.9613257389
 20
27.7140690796
 11
-9.548060923
 21
28.0526173921
  0
LINE
  5
251
100
AcDbEntity
  8
0
100
AcDbLine
 62
253
  6
CONTINUOUS
 10
-9.801778862
 20
27.7312729155
 11
-9.3888409163
 21
28.0695534544
  0
LINE
  5
252
100
AcDbEntity
  8
0
100
AcDbLine
 62
7
  6
CONTINUOUS
 10
-3.9635449519
 20
30.9986854116
 11
-8.0503927687
 21
27.6507221246
  0
LINE
  5
253
100
AcDbEntity
  8
0
100
AcDbLine
 62
7
  6
CONTINUOUS
 10
-25.8590991806
 20
31.6403905413
 11
-25.8590991806
 21
31.3111552427
  0
LINE
  5
254
100
AcDbEntity
  8
0
100
AcDbLine
 62
253
  6
CONTINUOUS
 10
-25.7452589393
 20
31.5261973591
 11
-25.7452589393
 21
31.1969620604
  0
LINE
  5
255
100
AcDbEntity
  8
0
100
AcDbLine
 62
7
  6
CONTINUOUS
 10
-25.3193393882
 20
30.943492656
 11
-25.3193393882
 21
30.4974048919
  0
LINE
  5
256
100
AcDbEntity
  8
0
100
AcDbLine
 62
253
  6
CONTINUOUS
 10
-25.205499147
 20
30.9032281908
 11
-25.205499147
 21
30.378207841
  0
LINE
  5
257
100
AcDbEntity
  8
0
100
AcDbLine
 62
253
  6
CONTINUOUS
 10
-23.7544132647
 20
30.4928144289
 11
-23.7544132647
 21
30.8220497276
  0
LINE
  5
258
100
AcDbEntity
  8
0
100
AcDbLine
 62
253
  6
CONTINUOUS
 10
-23.4093815531
 20
30.5321866013
 11
-23.4093815531
 21
30.8614218999
  0
LINE
  5
259
100
AcDbEntity
  8
0
100
AcDbLine
 62
253
  6
CONTINUOUS
 10
-23.2048949871
 20
29.6706087043
 11
-23.2048949871
 21
30.3347213789
  0
LINE
  5
25A
100
AcDbEntity
  8
0
100
AcDbLine
 62
253
  6
CONTINUOUS
 10
-22.8598632755
 20
29.7209051656
 11
-22.8598632755
 21
30.5030268993
  0
LINE
  5
25B
100
AcDbEntity
  8
0
100
AcDbLine
 62
7
  6
CONTINUOUS
 10
-7.5792983087
 20
25.1839895199
 11
-8.2669953932
 21
24.5595139603
  0
LINE
  5
25C
100
AcDbEntity
  8
0
100
AcDbLine
 62
7
  6
CONTINUOUS
 10
-3.0585086143
 20
30.3740404708
 11
-7.1786676439
 21
26.6690883994
  0
LINE
  5
25D
100
AcDbEntity
  8
0
100
AcDbLine
 62
253
  6
CONTINUOUS
 10
-7.1603757794
 20
25.035819669
 11
-7.9992929058
 21
24.2924978705
  0
LINE
  5
25E
100
AcDbEntity
  8
0
100
AcDbLine
 62
253
  6
CONTINUOUS
 10
-6.7413596932
 20
24.4680895122
 11
-7.5802768196
 21
23.7247677138
  0
LINE
  5
25F
100
AcDbEntity
  8
0
100
AcDbLine
 62
7
  6
CONTINUOUS
 10
-3.0585086143
 20
29.8008674267
 11
-7.5792983087
 21
25.8605260911
  0
LINE
  5
260
100
AcDbEntity
  8
RACCORDO
100
AcDbLine
 62
7
  6
CONTINUOUS
 10
-3.6208758711
 20
29.2627144028
 11
-7.5761686955
 21
25.827410949
  0
LINE
  5
261
100
AcDbEntity
  8
0
100
AcDbLine
 62
253
  6
CONTINUOUS
 10
-6.6222716863
 20
25.4900245165
 11
-7.1595917541
 21
25.0355423649
  0
LINE
  5
262
100
AcDbEntity
  8
0
100
AcDbLine
 62
253
  6
CONTINUOUS
 10
-6.2029417246
 20
24.9223894686
 11
-6.7402617924
 21
24.467907317
  0
LINE
  5
263
100
AcDbEntity
  8
0
100
AcDbLine
 62
253
  6
CONTINUOUS
 10
-7.7889624025
 20
27.0193543772
 11
-7.3833575138
 21
27.360228565
  0
LINE
  5
264
100
AcDbEntity
  8
0
100
AcDbLine
 62
253
  6
CONTINUOUS
 10
-7.5792983087
 20
26.7355336188
 11
-7.1736934201
 21
27.0764078066
  0
LINE
  5
265
100
AcDbEntity
  8
0
100
AcDbLine
 62
253
  6
CONTINUOUS
 10
-9.0261777646
 20
25.983851453
 11
-7.7889624025
 21
27.0193543772
  0
LINE
  5
266
100
AcDbEntity
  8
0
100
AcDbLine
 62
253
  6
CONTINUOUS
 10
-8.8165136708
 20
25.7000306946
 11
-7.5792983087
 21
26.7355336188
  0
LINE
  5
267
100
AcDbEntity
  8
0
100
AcDbLine
 62
253
  6
CONTINUOUS
 10
30.5664821375
 20
-26.6036601464
 11
30.1608772488
 21
-26.584341608
  0
LINE
  5
268
100
AcDbEntity
  8
0
100
AcDbLine
 62
253
  6
CONTINUOUS
 10
30.4241057822
 20
-26.2914937316
 11
30.3023138339
 21
-26.285692908
  0
LINE
  5
269
100
AcDbEntity
  8
0
100
AcDbLine
 62
7
  6
CONTINUOUS
 10
-22.172166191
 20
30.3453807251
 11
-22.172166191
 21
31.896924824
  0
LINE
  5
26A
100
AcDbEntity
  8
0
100
AcDbLine
 62
253
  6
CONTINUOUS
 10
-21.7665613023
 20
32.2377990119
 11
-21.7665613023
 21
31.9012448493
  0
LINE
  5
26B
100
AcDbEntity
  8
0
100
AcDbLine
 62
7
  6
CONTINUOUS
 10
-21.727017537
 20
32.3112913312
 11
-21.727017537
 21
31.9747371687
  0
LINE
  5
26C
100
AcDbEntity
  8
0
100
AcDbLine
 62
7
  6
CONTINUOUS
 10
-20.6335282893
 20
30.161618348
 11
-20.6335282893
 21
28.7611350102
  0
LINE
  5
26D
100
AcDbEntity
  8
0
100
AcDbLine
 62
7
  6
CONTINUOUS
 10
-19.8441101137
 20
28.4819235446
 11
-19.8441101137
 21
29.8824068824
  0
LINE
  5
26E
100
AcDbEntity
  8
0
100
AcDbLine
 62
253
  6
CONTINUOUS
 10
-7.5792983087
 20
26.031453673
 11
-7.1736934201
 21
26.7398536441
  0
LINE
  5
26F
100
AcDbEntity
  8
0
100
AcDbLine
 62
7
  6
CONTINUOUS
 10
-7.5792983087
 20
25.9693760457
 11
-7.1671951377
 21
26.6891254435
  0
LINE
  5
270
100
AcDbEntity
  8
0
100
AcDbLine
 62
7
  6
CONTINUOUS
 10
-6.1824986175
 20
22.1004831251
 11
-5.6656216567
 21
22.5494079676
  0
LWPOLYLINE
  5
271
100
AcDbEntity
  8
RACCORDO
100
AcDbPolyline
 62
7
  6
CONTINUOUS
 90
13
 70
0
 10
25.4986761036
 20
-29.31333558
 10
25.5247533846
 20
-29.321524162
 10
25.5809344034
 20
-29.3352549622
 10
25.6388050593
 20
-29.3441125405
 10
25.6982179755
 20
-29.3479057433
 10
25.7588704329
 20
-29.3464230606
 10
25.8202698789
 20
-29.3394964168
 10
25.8820688674
 20
-29.3270014478
 10
25.9439662037
 20
-29.3088388033
 10
26.0056249822
 20
-29.2849623657
 10
26.0668580946
 20
-29.2552908661
 10
26.1275620023
 20
-29.2196887143
 10
26.1894955446
 20
-29.1766205176
  0
LWPOLYLINE
  5
272
100
AcDbEntity
  8
RACCORDO
100
AcDbPolyline
 62
7
  6
CONTINUOUS
 90
10
 70
0
 10
-29.6519168812
 20
-9.8069741663
 10
-23.6722385838
 20
-12.0151755657
 10
-17.5879614234
 20
-14.2381761363
 10
-11.4827585924
 20
-16.4449064416
 10
-5.3567881624
 20
-18.6353064044
 10
0.7897894054
 20
-20.8093166756
 10
6.9568098634
 20
-22.9668798185
 10
13.1441085772
 20
-25.1079398915
 10
19.3515191192
 20
-27.2324432157
 10
25.4988128431
 20
-29.3133861761
  0
LINE
  5
273
100
AcDbEntity
  8
0
100
AcDbLine
 62
7
  6
CONTINUOUS
 10
-19.2994710787
 20
30.1772977502
 11
-19.2994710787
 21
28.9826491355
  0
LINE
  5
274
100
AcDbEntity
  8
0
100
AcDbLine
 62
253
  6
CONTINUOUS
 10
-17.3705287724
 20
28.300396275
 11
-17.3705287724
 21
29.4950448897
  0
LINE
  5
275
100
AcDbEntity
  8
0
100
AcDbLine
 62
253
  6
CONTINUOUS
 10
-17.0938668518
 20
28.3412150575
 11
-17.0938668518
 21
29.5270730998
  0
LINE
  5
276
100
AcDbEntity
  8
0
100
AcDbLine
 62
7
  6
CONTINUOUS
 10
-16.3858361063
 20
30.1174621774
 11
-16.3858361063
 21
28.9438141546
  0
LINE
  5
277
100
AcDbEntity
  8
0
100
AcDbLine
 62
7
  6
CONTINUOUS
 10
27.6140155215
 20
-28.1029734379
 11
28.6314274101
 21
-28.4628246212
  0
LINE
  5
278
100
AcDbEntity
  8
0
100
AcDbLine
 62
253
  6
CONTINUOUS
 10
27.7068689736
 20
-28.0329902706
 11
28.5786301751
 21
-28.3413258654
  0
LINE
  5
279
100
AcDbEntity
  8
0
100
AcDbLine
 62
253
  6
CONTINUOUS
 10
28.5786301751
 20
-28.0120905668
 11
28.0041770797
 21
-27.8089106862
  0
LINE
  5
27A
100
AcDbEntity
  8
0
100
AcDbLine
 62
253
  6
CONTINUOUS
 10
28.6467100545
 20
-27.7734164714
 11
28.2414503368
 21
-27.6300790575
  0
LINE
  5
27B
100
AcDbEntity
  8
0
100
AcDbLine
 62
253
  6
CONTINUOUS
 10
-16.0092399298
 20
33.0776549191
 11
-16.0092399298
 21
31.7370091114
  0
LINE
  5
27C
100
AcDbEntity
  8
0
100
AcDbLine
 62
7
  6
CONTINUOUS
 10
-15.9352094893
 20
33.1361636408
 11
-15.9352094893
 21
31.871907787
  0
LINE
  5
27D
100
AcDbEntity
  8
0
100
AcDbLine
 62
7
  6
CONTINUOUS
 10
-15.4487916023
 20
28.8744834072
 11
-15.4487916023
 21
27.6838504953
  0
LINE
  5
27E
100
AcDbEntity
  8
0
100
AcDbLine
 62
253
  6
CONTINUOUS
 10
-15.3577194093
 20
28.7831288614
 11
-15.3577194093
 21
27.5884802467
  0
LINE
  5
27F
100
AcDbEntity
  8
0
100
AcDbLine
 62
7
  6
CONTINUOUS
 10
-13.9734161381
 20
27.8059851332
 11
-13.9734161381
 21
26.4055017954
  0
LINE
  5
280
100
AcDbEntity
  8
0
100
AcDbLine
 62
7
  6
CONTINUOUS
 10
-13.1839979625
 20
26.1262903298
 11
-13.1839979625
 21
27.5267736676
  0
LINE
  5
281
100
AcDbEntity
  8
0
100
AcDbLine
 62
7
  6
CONTINUOUS
 10
29.1281484527
 20
-26.9517852429
 11
28.9130467055
 21
-26.8757053198
  0
LINE
  5
282
100
AcDbEntity
  8
0
100
AcDbLine
 62
7
  6
CONTINUOUS
 10
29.7408826518
 20
-26.4965105182
 11
29.1281484527
 21
-26.2797908897
  0
LINE
  5
283
100
AcDbEntity
  8
0
100
AcDbLine
 62
253
  6
CONTINUOUS
 10
30.3367469733
 20
-26.2605955565
 11
30.4241057822
 21
-26.2914937316
  0
LINE
  5
284
100
AcDbEntity
  8
0
100
AcDbLine
 62
7
  6
CONTINUOUS
 10
30.3389853639
 20
-26.2589640562
 11
30.4393884266
 21
-26.2944758891
  0
LINE
  5
285
100
AcDbEntity
  8
0
100
AcDbLine
 62
7
  6
CONTINUOUS
 10
-12.359720546
 20
26.8747900871
 11
-12.359720546
 21
28.2166629958
  0
LINE
  5
286
100
AcDbEntity
  8
0
100
AcDbLine
 62
7
  6
CONTINUOUS
 10
-12.072147857
 20
33.6736124074
 11
-12.072147857
 21
33.2240959288
  0
LINE
  5
287
100
AcDbEntity
  8
0
100
AcDbLine
 62
7
  6
CONTINUOUS
 10
-11.2662312983
 20
26.478999336
 11
-11.2662312983
 21
26.1497640374
  0
LINE
  5
288
100
AcDbEntity
  8
0
100
AcDbLine
 62
253
  6
CONTINUOUS
 10
-11.1523910571
 20
26.3648061538
 11
-11.1523910571
 21
26.0355708552
  0
LINE
  5
289
100
AcDbEntity
  8
0
100
AcDbLine
 62
7
  6
CONTINUOUS
 10
-10.726471506
 20
25.7821014507
 11
-10.726471506
 21
25.3360136867
  0
LINE
  5
28A
100
AcDbEntity
  8
0
100
AcDbLine
 62
253
  6
CONTINUOUS
 10
-10.6126312647
 20
25.7418369856
 11
-10.6126312647
 21
25.2168166358
  0
LINE
  5
28B
100
AcDbEntity
  8
RACCORDO
100
AcDbLine
 62
7
  6
CONTINUOUS
 10
30.159898738
 20
-21.8463534584
 11
28.9130467055
 21
-21.4053509655
  0
LINE
  5
28C
100
AcDbEntity
  8
0
100
AcDbLine
 62
253
  6
CONTINUOUS
 10
-9.3674044393
 20
30.730028893
 11
-9.3674044393
 21
30.2062197646
  0
LINE
  5
28D
100
AcDbEntity
  8
0
100
AcDbLine
 62
253
  6
CONTINUOUS
 10
-9.3674044393
 20
29.8281289117
 11
-9.3674044393
 21
29.389560868
  0
LINE
  5
28E
100
AcDbEntity
  8
0
100
AcDbLine
 62
7
  6
CONTINUOUS
 10
-9.2948214684
 20
30.7875008691
 11
-9.2948214684
 21
29.5232503376
  0
LINE
  5
28F
100
AcDbEntity
  8
0
100
AcDbLine
 62
253
  6
CONTINUOUS
 10
-9.1615453825
 20
25.3314232237
 11
-9.1615453825
 21
25.6606585223
  0
LINE
  5
290
100
AcDbEntity
  8
0
100
AcDbLine
 62
253
  6
CONTINUOUS
 10
-8.8165136708
 20
25.370795396
 11
-8.8165136708
 21
25.7000306946
  0
LINE
  5
291
100
AcDbEntity
  8
0
100
AcDbLine
 62
253
  6
CONTINUOUS
 10
-8.6120271048
 20
24.509217499
 11
-8.6120271048
 21
25.1733301736
  0
LINE
  5
292
100
AcDbEntity
  8
0
100
AcDbLine
 62
253
  6
CONTINUOUS
 10
-8.2669953932
 20
24.5595139603
 11
-8.2669953932
 21
25.3416356941
  0
LINE
  5
293
100
AcDbEntity
  8
DRAFT
100
AcDbLine
 62
7
  6
CONTINUOUS
 10
-7.5802768196
 20
23.7247677138
 11
-7.5802768196
 21
22.5948671061
  0
LINE
  5
294
100
AcDbEntity
  8
0
100
AcDbLine
 62
7
  6
CONTINUOUS
 10
-7.5792983087
 20
25.1839895199
 11
-7.5792983087
 21
26.7355336188
  0
LINE
  5
295
100
AcDbEntity
  8
0
100
AcDbLine
 62
253
  6
CONTINUOUS
 10
-7.1736934201
 20
27.0764078066
 11
-7.1736934201
 21
26.7398536441
  0
LINE
  5
296
100
AcDbEntity
  8
0
100
AcDbLine
 62
7
  6
CONTINUOUS
 10
-7.1341496547
 20
27.149900126
 11
-7.1341496547
 21
26.8133459634
  0
LINE
  5
297
100
AcDbEntity
  8
0
100
AcDbLine
 62
7
  6
CONTINUOUS
 10
-6.7413596932
 20
24.4680895122
 11
-6.7413596932
 21
22.2981482218
  0
LINE
  5
298
100
AcDbEntity
  8
0
100
AcDbLine
 62
7
  6
CONTINUOUS
 10
-6.7402617924
 20
24.467907317
 11
-6.7402617924
 21
22.2977599022
  0
LINE
  5
299
100
AcDbEntity
  8
0
100
AcDbLine
 62
7
  6
CONTINUOUS
 10
-6.2029417246
 20
24.9223894686
 11
-6.2029417246
 21
22.1077137033
  0
LINE
  5
29A
100
AcDbEntity
  8
0
100
AcDbLine
 62
7
  6
CONTINUOUS
 10
11.9682314068
 20
18.4816529534
 11
13.1837944892
 21
19.5252002175
  0
LINE
  5
29B
100
AcDbEntity
  8
0
100
AcDbLine
 62
7
  6
CONTINUOUS
 10
13.183796067
 20
19.5252015721
 11
13.1859813298
 21
19.5270342571
  0
LINE
  5
29C
100
AcDbEntity
  8
0
100
AcDbLine
 62
7
  6
CONTINUOUS
 10
13.1859819364
 20
19.5270347541
 11
13.5992467523
 21
19.8655830665
  0
LINE
  5
29D
100
AcDbEntity
  8
0
100
AcDbLine
 62
253
  6
CONTINUOUS
 10
13.3455288133
 20
19.5442385899
 11
13.758466759
 21
19.8825191288
  0
LINE
  5
29E
100
AcDbEntity
  8
0
100
AcDbLine
 62
7
  6
CONTINUOUS
 10
-5.6656216567
 20
22.5494079676
 11
-5.6656216567
 21
21.9176675044
  0
LINE
  5
29F
100
AcDbEntity
  8
RACCORDO
100
AcDbLine
 62
253
  6
CONTINUOUS
 10
-3.6208758711
 20
29.3107055087
 11
-3.6208758711
 21
29.2627144028
  0
LINE
  5
2A0
100
AcDbEntity
  8
0
100
AcDbLine
 62
253
  6
CONTINUOUS
 10
-3.0585086143
 20
30.3740404708
 11
-3.0585086143
 21
29.8008674267
  0
LINE
  5
2A1
100
AcDbEntity
  8
0
100
AcDbLine
 62
7
  6
CONTINUOUS
 10
-2.9825326624
 20
30.5860240627
 11
-2.9825326624
 21
29.945174785
  0
LINE
  5
2A2
100
AcDbEntity
  8
0
100
AcDbLine
 62
7
  6
CONTINUOUS
 10
11.5891645729
 20
17.1996615303
 11
12.1162608834
 21
17.702793188
  0
LINE
  5
2A3
100
AcDbEntity
  8
0
100
AcDbLine
 62
253
  6
CONTINUOUS
 10
11.9219422115
 20
17.2465019387
 11
12.3232641731
 21
17.6295776304
  0
LINE
  5
2A4
100
AcDbEntity
  8
0
100
AcDbLine
 62
253
  6
CONTINUOUS
 10
12.1302842361
 20
18.500964759
 11
13.3455288133
 21
19.5442385899
  0
LINE
  5
2A5
100
AcDbEntity
  8
0
100
AcDbLine
 62
253
  6
CONTINUOUS
 10
15.3583452728
 20
18.8323200516
 11
15.7639501615
 21
19.1731942395
  0
LINE
  5
2A6
100
AcDbEntity
  8
0
100
AcDbLine
 62
253
  6
CONTINUOUS
 10
15.5680093666
 20
18.5484992933
 11
15.9736142552
 21
18.8893734811
  0
LINE
  5
2A7
100
AcDbEntity
  8
0
100
AcDbLine
 62
7
  6
CONTINUOUS
 10
21.5085072603
 20
21.9894058561
 11
16.107769159
 21
17.4505744331
  0
LINE
  5
2A8
100
AcDbEntity
  8
0
100
AcDbLine
 62
253
  6
CONTINUOUS
 10
14.1211299107
 20
17.7968171275
 11
15.3583452728
 21
18.8323200516
  0
LINE
  5
2A9
100
AcDbEntity
  8
0
100
AcDbLine
 62
253
  6
CONTINUOUS
 10
14.3307940044
 20
17.5129963691
 11
15.5680093666
 21
18.5484992933
  0
LINE
  5
2AA
100
AcDbEntity
  8
0
100
AcDbLine
 62
7
  6
CONTINUOUS
 10
21.1512780923
 20
21.8112150415
 11
15.9762194915
 21
17.4971025935
  0
LINE
  5
2AB
100
AcDbEntity
  8
RACCORDO
100
AcDbLine
 62
7
  6
CONTINUOUS
 10
34.1506213973
 20
-18.0971239641
 11
34.5299624126
 21
-18.2312941215
  0
LINE
  5
2AC
100
AcDbEntity
  8
RACCORDO
100
AcDbLine
 62
253
  6
CONTINUOUS
 10
32.0745539008
 20
-16.8158362052
 11
33.3901948086
 21
-17.2811688229
  0
LINE
  5
2AD
100
AcDbEntity
  8
RACCORDO
100
AcDbLine
 62
7
  6
CONTINUOUS
 10
32.0745539008
 20
-16.7725560228
 11
33.4273997085
 21
-17.2510477429
  0
LINE
  5
2AE
100
AcDbEntity
  8
RACCORDO
100
AcDbLine
 62
253
  6
CONTINUOUS
 10
33.6064784706
 20
-17.1060656103
 11
34.1192996865
 21
-17.2874467435
  0
LINE
  5
2AF
100
AcDbEntity
  8
RACCORDO
100
AcDbLine
 62
7
  6
CONTINUOUS
 10
33.7075603787
 20
-17.0985373633
 11
34.1496966918
 21
-17.2549177607
  0
LINE
  5
2B0
100
AcDbEntity
  8
0
100
AcDbLine
 62
7
  6
CONTINUOUS
 10
15.5680093666
 20
16.9969551943
 11
14.8803122821
 21
16.3724796348
  0
LINE
  5
2B1
100
AcDbEntity
  8
0
100
AcDbLine
 62
7
  6
CONTINUOUS
 10
17.9162869568
 20
17.5082594033
 11
17.1066472683
 21
16.8131928172
  0
LINE
  5
2B2
100
AcDbEntity
  8
0
100
AcDbLine
 62
7
  6
CONTINUOUS
 10
17.8960654439
 20
16.5339813516
 11
18.5489985732
 21
17.0874265639
  0
LINE
  5
2B3
100
AcDbEntity
  8
0
100
AcDbLine
 62
7
  6
CONTINUOUS
 10
21.7101229708
 20
19.7131879803
 11
19.2576630314
 21
17.678352795
  0
LINE
  5
2B4
100
AcDbEntity
  8
0
100
AcDbLine
 62
7
  6
CONTINUOUS
 10
20.3915718276
 20
17.2772975031
 11
21.7309356277
 21
18.3885835807
  0
LINE
  5
2B5
100
AcDbEntity
  8
0
100
AcDbLine
 62
7
  6
CONTINUOUS
 10
20.8109071116
 20
17.1289816638
 11
25.1265572291
 21
20.7097279038
  0
LINE
  5
2B6
100
AcDbEntity
  8
0
100
AcDbLine
 62
7
  6
CONTINUOUS
 10
20.9402359587
 20
19.9854914154
 11
17.9162869568
 21
17.5082594033
  0
LINE
  5
2B7
100
AcDbEntity
  8
0
100
AcDbLine
 62
7
  6
CONTINUOUS
 10
17.8960654439
 20
15.1334980138
 11
18.4407044789
 21
15.6342236047
  0
LINE
  5
2B8
100
AcDbEntity
  8
0
100
AcDbLine
 62
7
  6
CONTINUOUS
 10
20.8097004162
 20
15.1430072039
 11
20.6463087057
 21
14.9927895267
  0
LINE
  5
2B9
100
AcDbEntity
  8
0
100
AcDbLine
 62
253
  6
CONTINUOUS
 10
20.4779408794
 20
16.4051737035
 11
20.6419663026
 21
16.5442064483
  0
LINE
  5
2BA
100
AcDbEntity
  8
0
100
AcDbLine
 62
253
  6
CONTINUOUS
 10
20.6463087057
 20
16.178647569
 11
20.8097004162
 21
16.3171431604
  0
LINE
  5
2BB
100
AcDbEntity
  8
0
100
AcDbLine
 62
7
  6
CONTINUOUS
 10
22.5258607735
 20
15.8174626957
 11
22.3620643784
 21
15.6786240818
  0
LINE
  5
2BC
100
AcDbEntity
  8
0
100
AcDbLine
 62
253
  6
CONTINUOUS
 10
22.6547756657
 20
15.83229042
 11
22.4907502425
 21
15.6932576752
  0
LINE
  5
2BD
100
AcDbEntity
  8
0
100
AcDbLine
 62
7
  6
CONTINUOUS
 10
24.3212825951
 20
19.5009984267
 11
21.2713521509
 21
16.9431115289
  0
LINE
  5
2BE
100
AcDbEntity
  8
0
100
AcDbLine
 62
7
  6
CONTINUOUS
 10
22.526658996
 20
15.8181321166
 11
22.525861502
 21
15.8174633133
  0
LINE
  5
2BF
100
AcDbEntity
  8
0
100
AcDbLine
 62
7
  6
CONTINUOUS
 10
21.3543394513
 20
15.5953886238
 11
20.8097004162
 21
15.1430072039
  0
LINE
  5
2C0
100
AcDbEntity
  8
0
100
AcDbLine
 62
253
  6
CONTINUOUS
 10
20.6419663026
 20
16.5442064483
 11
21.1866053377
 21
16.9960999345
  0
LINE
  5
2C1
100
AcDbEntity
  8
0
100
AcDbLine
 62
253
  6
CONTINUOUS
 10
20.8097004162
 20
16.3171431604
 11
21.3543394513
 21
16.7690366466
  0
LINE
  5
2C2
100
AcDbEntity
  8
0
100
AcDbLine
 62
7
  6
CONTINUOUS
 10
23.0712993091
 20
16.2700266635
 11
22.5266598321
 21
15.8181328106
  0
LINE
  5
2C3
100
AcDbEntity
  8
0
100
AcDbLine
 62
253
  6
CONTINUOUS
 10
23.1994147007
 20
16.2841839062
 11
22.6547756657
 21
15.83229042
  0
LINE
  5
2C4
100
AcDbEntity
  8
DRAFT
100
AcDbLine
 62
7
  6
CONTINUOUS
 10
29.2659496548
 20
-8.6462506715
 11
28.9130467055
 21
-8.5214314657
  0
LINE
  5
2C5
100
AcDbEntity
  8
0
100
AcDbLine
 62
253
  6
CONTINUOUS
 10
15.5680093666
 20
17.8444193475
 11
15.9736142552
 21
18.5528193185
  0
LINE
  5
2C6
100
AcDbEntity
  8
0
100
AcDbLine
 62
7
  6
CONTINUOUS
 10
15.5680093666
 20
17.7823417201
 11
15.9801125376
 21
18.502091118
  0
LINE
  5
2C7
100
AcDbEntity
  8
0
100
AcDbLine
 62
7
  6
CONTINUOUS
 10
25.3804550115
 20
13.5263645563
 11
24.5561775951
 21
12.777864799
  0
LINE
  5
2C8
100
AcDbEntity
  8
0
100
AcDbLine
 62
7
  6
CONTINUOUS
 10
24.4196925488
 20
15.0110048147
 11
23.7667594195
 21
14.4575596024
  0
LINE
  5
2C9
100
AcDbEntity
  8
0
100
AcDbLine
 62
7
  6
CONTINUOUS
 10
28.3507039584
 20
17.3644627959
 11
25.3804550115
 21
14.868237465
  0
LINE
  5
2CA
100
AcDbEntity
  8
0
100
AcDbLine
 62
7
  6
CONTINUOUS
 10
25.3804550115
 20
13.5263645563
 11
28.3727711183
 21
16.0411353373
  0
LINE
  5
2CB
100
AcDbEntity
  8
0
100
AcDbLine
 62
7
  6
CONTINUOUS
 10
27.7766639493
 20
14.3638103668
 11
27.778849212
 21
14.3656430519
  0
LINE
  5
2CC
100
AcDbEntity
  8
0
100
AcDbLine
 62
7
  6
CONTINUOUS
 10
25.3804550115
 20
14.868237465
 11
24.5561775951
 21
14.1783481368
  0
LINE
  5
2CD
100
AcDbEntity
  8
0
100
AcDbLine
 62
7
  6
CONTINUOUS
 10
27.5808169464
 20
17.6367662311
 11
25.128357007
 21
15.6019310458
  0
LINE
  5
2CE
100
AcDbEntity
  8
0
100
AcDbLine
 62
7
  6
CONTINUOUS
 10
30.1585806368
 20
18.9299378331
 11
28.3876125807
 21
17.4605445701
  0
LINE
  5
2CF
100
AcDbEntity
  8
0
100
AcDbLine
 62
7
  6
CONTINUOUS
 10
27.7788498187
 20
14.3656435489
 11
28.1921146346
 21
14.7041918613
  0
LINE
  5
2D0
100
AcDbEntity
  8
0
100
AcDbLine
 62
253
  6
CONTINUOUS
 10
27.9383966955
 20
14.3828473847
 11
28.3513346412
 21
14.7211279236
  0
LINE
  5
2D1
100
AcDbEntity
  8
RACCORDO
100
AcDbLine
 62
7
  6
CONTINUOUS
 10
34.1192996865
 20
15.914288872
 11
30.164006862
 21
12.4789854182
  0
LINE
  5
2D2
100
AcDbEntity
  8
0
100
AcDbLine
 62
7
  6
CONTINUOUS
 10
26.5610992891
 20
13.3202617482
 11
27.7766623714
 21
14.3638090122
  0
LINE
  5
2D3
100
AcDbEntity
  8
0
100
AcDbLine
 62
253
  6
CONTINUOUS
 10
26.7231521183
 20
13.3395735537
 11
27.9383966955
 21
14.3828473847
  0
LINE
  5
2D4
100
AcDbEntity
  8
0
100
AcDbLine
 62
253
  6
CONTINUOUS
 10
29.9512131551
 20
13.6709288464
 11
30.3568180437
 21
14.0118030342
  0
LINE
  5
2D5
100
AcDbEntity
  8
0
100
AcDbLine
 62
253
  6
CONTINUOUS
 10
30.1608772488
 20
13.387108088
 11
30.5664821375
 21
13.7279822758
  0
LINE
  5
2D6
100
AcDbEntity
  8
0
100
AcDbLine
 62
253
  6
CONTINUOUS
 10
28.7139977929
 20
12.6354259222
 11
29.9512131551
 21
13.6709288464
  0
LINE
  5
2D7
100
AcDbEntity
  8
0
100
AcDbLine
 62
253
  6
CONTINUOUS
 10
28.9236618867
 20
12.3516051638
 11
30.1608772488
 21
13.387108088
  0
LINE
  5
2D8
100
AcDbEntity
  8
0
100
AcDbLine
 62
7
  6
CONTINUOUS
 10
33.7766306056
 20
17.6502598808
 11
29.6897827889
 21
14.3022965938
  0
LINE
  5
2D9
100
AcDbEntity
  8
0
100
AcDbLine
 62
7
  6
CONTINUOUS
 10
-6.2029417246
 20
23.2767742344
 11
-5.6656216567
 21
22.5494079676
  0
LINE
  5
2DA
100
AcDbEntity
  8
DRAFT
100
AcDbLine
 62
7
  6
CONTINUOUS
 10
11.5029261254
 20
16.9751776645
 11
11.5029261254
 21
15.8452770569
  0
LINE
  5
2DB
100
AcDbEntity
  8
0
100
AcDbLine
 62
7
  6
CONTINUOUS
 10
11.881076377
 20
18.2919650105
 11
11.881076377
 21
17.9627297119
  0
LINE
  5
2DC
100
AcDbEntity
  8
0
100
AcDbLine
 62
253
  6
CONTINUOUS
 10
11.9949166182
 20
18.1777718283
 11
11.9949166182
 21
17.8485365297
  0
LINE
  5
2DD
100
AcDbEntity
  8
0
100
AcDbLine
 62
7
  6
CONTINUOUS
 10
12.4208361693
 20
17.5950671252
 11
12.4208361693
 21
17.1489793611
  0
LINE
  5
2DE
100
AcDbEntity
  8
0
100
AcDbLine
 62
253
  6
CONTINUOUS
 10
12.5346764106
 20
17.55480266
 11
12.5346764106
 21
17.0297823102
  0
LINE
  5
2DF
100
AcDbEntity
  8
0
100
AcDbLine
 62
7
  6
CONTINUOUS
 10
30.1608772488
 20
11.8355639891
 11
29.4731801643
 21
11.2110884296
  0
LINE
  5
2E0
100
AcDbEntity
  8
0
100
AcDbLine
 62
7
  6
CONTINUOUS
 10
34.6816669432
 20
17.02561494
 11
30.5615079136
 21
13.3206628686
  0
LINE
  5
2E1
100
AcDbEntity
  8
0
100
AcDbLine
 62
253
  6
CONTINUOUS
 10
30.5797997781
 20
11.6873941382
 11
29.7408826518
 21
10.9440723397
  0
LINE
  5
2E2
100
AcDbEntity
  8
0
100
AcDbLine
 62
253
  6
CONTINUOUS
 10
30.9988158643
 20
11.1196639814
 11
30.159898738
 21
10.376342183
  0
LINE
  5
2E3
100
AcDbEntity
  8
0
100
AcDbLine
 62
7
  6
CONTINUOUS
 10
34.6816669432
 20
16.4524418959
 11
30.1608772488
 21
12.5121005603
  0
LINE
  5
2E4
100
AcDbEntity
  8
0
100
AcDbLine
 62
253
  6
CONTINUOUS
 10
31.1179038713
 20
12.1415989858
 11
30.5805838034
 21
11.6871168341
  0
LINE
  5
2E5
100
AcDbEntity
  8
0
100
AcDbLine
 62
253
  6
CONTINUOUS
 10
31.537233833
 20
11.5739639379
 11
30.9999137651
 21
11.1194817862
  0
LINE
  5
2E6
100
AcDbEntity
  8
RACCORDO
100
AcDbLine
 62
253
  6
CONTINUOUS
 10
25.8817184938
 20
7.6644630099
 11
28.4938551173
 21
9.8357090833
  0
LINE
  5
2E7
100
AcDbEntity
  8
RACCORDO
100
AcDbLine
 62
253
  6
CONTINUOUS
 10
26.3009100786
 20
7.0970064037
 11
28.9130467055
 21
9.26825248
  0
LINE
  5
2E8
100
AcDbEntity
  8
0
100
AcDbLine
 62
7
  6
CONTINUOUS
 10
25.6680277005
 20
19.875670398
 11
24.3212825951
 21
19.5009984267
  0
LINE
  5
2E9
100
AcDbEntity
  8
0
100
AcDbLine
 62
7
  6
CONTINUOUS
 10
28.7015425426
 20
11.8475421086
 11
29.1847050181
 21
11.8219035187
  0
LINE
  5
2EA
100
AcDbEntity
  8
0
100
AcDbLine
 62
253
  6
CONTINUOUS
 10
28.9236618867
 20
12.0223698652
 11
29.4731801643
 21
11.9932101633
  0
LINE
  5
2EB
100
AcDbEntity
  8
0
100
AcDbLine
 62
253
  6
CONTINUOUS
 10
13.9857622928
 20
17.1443888982
 11
13.9857622928
 21
17.4736241968
  0
LINE
  5
2EC
100
AcDbEntity
  8
0
100
AcDbLine
 62
253
  6
CONTINUOUS
 10
14.3307940044
 20
17.1837610705
 11
14.3307940044
 21
17.5129963691
  0
LINE
  5
2ED
100
AcDbEntity
  8
0
100
AcDbLine
 62
253
  6
CONTINUOUS
 10
14.5352805705
 20
16.3221831735
 11
14.5352805705
 21
16.9862958481
  0
LINE
  5
2EE
100
AcDbEntity
  8
0
100
AcDbLine
 62
253
  6
CONTINUOUS
 10
14.8803122821
 20
16.3724796348
 11
14.8803122821
 21
17.1546013685
  0
LINE
  5
2EF
100
AcDbEntity
  8
0
100
AcDbLine
 62
7
  6
CONTINUOUS
 10
15.5680093666
 20
16.9969551943
 11
15.5680093666
 21
18.5484992933
  0
LINE
  5
2F0
100
AcDbEntity
  8
0
100
AcDbLine
 62
253
  6
CONTINUOUS
 10
15.9736142552
 20
18.8893734811
 11
15.9736142552
 21
18.5528193185
  0
LINE
  5
2F1
100
AcDbEntity
  8
0
100
AcDbLine
 62
7
  6
CONTINUOUS
 10
16.0131580206
 20
18.9628658005
 11
16.0131580206
 21
18.6263116379
  0
LINE
  5
2F2
100
AcDbEntity
  8
0
100
AcDbLine
 62
7
  6
CONTINUOUS
 10
31.537233833
 20
8.7343020754
 11
32.0745539008
 21
9.2009824369
  0
LINE
  5
2F3
100
AcDbEntity
  8
RACCORDO
100
AcDbLine
 62
7
  6
CONTINUOUS
 10
28.9130467055
 20
6.4385118903
 11
30.159898738
 21
5.9975093974
  0
LINE
  5
2F4
100
AcDbEntity
  8
0
100
AcDbLine
 62
7
  6
CONTINUOUS
 10
17.1066472683
 20
16.8131928172
 11
17.1066472683
 21
15.4127094794
  0
LINE
  5
2F5
100
AcDbEntity
  8
0
100
AcDbLine
 62
7
  6
CONTINUOUS
 10
17.8960654439
 20
15.1334980138
 11
17.8960654439
 21
16.5339813516
  0
LINE
  5
2F6
100
AcDbEntity
  8
0
100
AcDbLine
 62
7
  6
CONTINUOUS
 10
18.4407044789
 20
16.8288722194
 11
18.4407044789
 21
15.6342236047
  0
LINE
  5
2F7
100
AcDbEntity
  8
0
100
AcDbLine
 62
253
  6
CONTINUOUS
 10
30.1608772488
 20
12.6830281422
 11
30.5664821375
 21
13.3914281133
  0
LINE
  5
2F8
100
AcDbEntity
  8
0
100
AcDbLine
 62
7
  6
CONTINUOUS
 10
30.1608772488
 20
12.6209505149
 11
30.5729804198
 21
13.3406999128
  0
LINE
  5
2F9
100
AcDbEntity
  8
0
100
AcDbLine
 62
7
  6
CONTINUOUS
 10
14.1086746603
 20
17.0089333138
 11
14.5918361089
 21
16.9832947784
  0
LINE
  5
2FA
100
AcDbEntity
  8
0
100
AcDbLine
 62
253
  6
CONTINUOUS
 10
14.3307940044
 20
17.1837610705
 11
14.8803122821
 21
17.1546013685
  0
LINE
  5
2FB
100
AcDbEntity
  8
RACCORDO
100
AcDbLine
 62
7
  6
CONTINUOUS
 10
-26.8586897586
 20
29.4135015101
 11
28.4938551173
 21
9.8357090833
  0
LINE
  5
2FC
100
AcDbEntity
  8
0
100
AcDbLine
 62
7
  6
CONTINUOUS
 10
29.7408826518
 20
10.9440723397
 11
29.1281484527
 21
11.1607919682
  0
LINE
  5
2FD
100
AcDbEntity
  8
0
100
AcDbLine
 62
7
  6
CONTINUOUS
 10
27.1275442928
 20
11.868391105
 11
24.5561775951
 21
12.777864799
  0
LINE
  5
2FE
100
AcDbEntity
  8
0
100
AcDbLine
 62
7
  6
CONTINUOUS
 10
23.7667594195
 20
13.0570762646
 11
17.8960654439
 21
15.1334980138
  0
LINE
  5
2FF
100
AcDbEntity
  8
0
100
AcDbLine
 62
7
  6
CONTINUOUS
 10
17.1066472683
 20
15.4127094794
 11
14.5352805705
 21
16.3221831735
  0
LINE
  5
300
100
AcDbEntity
  8
0
100
AcDbLine
 62
7
  6
CONTINUOUS
 10
12.5346764106
 20
17.0297823102
 11
11.9219422115
 21
17.2465019387
  0
LINE
  5
301
100
AcDbEntity
  8
0
100
AcDbLine
 62
7
  6
CONTINUOUS
 10
-7.9992929058
 20
24.2924978705
 11
-8.6120271048
 21
24.509217499
  0
LINE
  5
302
100
AcDbEntity
  8
0
100
AcDbLine
 62
7
  6
CONTINUOUS
 10
-10.6126312647
 20
25.2168166358
 11
-13.1839979625
 21
26.1262903298
  0
LINE
  5
303
100
AcDbEntity
  8
0
100
AcDbLine
 62
7
  6
CONTINUOUS
 10
-13.9734161381
 20
26.4055017954
 11
-19.8441101137
 21
28.4819235446
  0
LINE
  5
304
100
AcDbEntity
  8
0
100
AcDbLine
 62
7
  6
CONTINUOUS
 10
-20.6335282893
 20
28.7611350102
 11
-23.2048949871
 21
29.6706087043
  0
LINE
  5
305
100
AcDbEntity
  8
0
100
AcDbLine
 62
7
  6
CONTINUOUS
 10
-25.205499147
 20
30.378207841
 11
-25.818233346
 21
30.5949274695
  0
LINE
  5
306
100
AcDbEntity
  8
0
100
AcDbLine
 62
253
  6
CONTINUOUS
 10
20.3696467851
 20
14.9519707442
 11
20.3696467851
 21
16.1466193589
  0
LINE
  5
307
100
AcDbEntity
  8
0
100
AcDbLine
 62
253
  6
CONTINUOUS
 10
20.6463087057
 20
14.9927895267
 11
20.6463087057
 21
16.178647569
  0
LINE
  5
308
100
AcDbEntity
  8
0
100
AcDbLine
 62
7
  6
CONTINUOUS
 10
21.3543394513
 20
16.7690366466
 11
21.3543394513
 21
15.5953886238
  0
LINE
  5
309
100
AcDbEntity
  8
0
100
AcDbLine
 62
253
  6
CONTINUOUS
 10
21.7309356277
 20
19.7292293883
 11
21.7309356277
 21
18.3885835807
  0
LINE
  5
30A
100
AcDbEntity
  8
0
100
AcDbLine
 62
7
  6
CONTINUOUS
 10
21.8049660682
 20
19.7877381101
 11
21.8049660682
 21
18.5234822563
  0
LINE
  5
30B
100
AcDbEntity
  8
0
100
AcDbLine
 62
7
  6
CONTINUOUS
 10
22.2913839552
 20
15.5260578764
 11
22.2913839552
 21
14.3354249645
  0
LINE
  5
30C
100
AcDbEntity
  8
0
100
AcDbLine
 62
253
  6
CONTINUOUS
 10
22.3824561482
 20
15.4347033306
 11
22.3824561482
 21
14.2400547159
  0
LINE
  5
30D
100
AcDbEntity
  8
0
100
AcDbLine
 62
7
  6
CONTINUOUS
 10
-25.6924617044
 20
31.0754633047
 11
-23.7016160297
 21
30.3713156732
  0
LINE
  5
30E
100
AcDbEntity
  8
0
100
AcDbLine
 62
7
  6
CONTINUOUS
 10
-11.0995938221
 20
25.9140720994
 11
-9.1087481475
 21
25.2099244679
  0
LINE
  5
30F
100
AcDbEntity
  8
0
100
AcDbLine
 62
7
  6
CONTINUOUS
 10
12.0477138532
 20
17.7270377739
 11
14.0385595278
 21
17.0228901424
  0
LINE
  5
310
100
AcDbEntity
  8
0
100
AcDbLine
 62
7
  6
CONTINUOUS
 10
26.6405817354
 20
12.5656465686
 11
28.6314274101
 21
11.8614989371
  0
LINE
  5
311
100
AcDbEntity
  8
0
100
AcDbLine
 62
253
  6
CONTINUOUS
 10
-25.7452589393
 20
31.1969620604
 11
-23.7544132647
 21
30.4928144289
  0
LINE
  5
312
100
AcDbEntity
  8
0
100
AcDbLine
 62
253
  6
CONTINUOUS
 10
-11.1523910571
 20
26.0355708552
 11
-9.1615453825
 21
25.3314232237
  0
LINE
  5
313
100
AcDbEntity
  8
0
100
AcDbLine
 62
253
  6
CONTINUOUS
 10
11.9949166182
 20
17.8485365297
 11
13.9857622928
 21
17.1443888982
  0
LINE
  5
314
100
AcDbEntity
  8
0
100
AcDbLine
 62
253
  6
CONTINUOUS
 10
26.5877845005
 20
12.6871453244
 11
28.5786301751
 21
11.9829976929
  0
LINE
  5
315
100
AcDbEntity
  8
0
100
AcDbLine
 62
7
  6
CONTINUOUS
 10
23.7667594195
 20
13.7504367198
 11
22.3824561482
 21
14.2400547159
  0
LINE
  5
316
100
AcDbEntity
  8
0
100
AcDbLine
 62
7
  6
CONTINUOUS
 10
20.3696467851
 20
14.9519707442
 11
18.4407044789
 21
15.6342236047
  0
LINE
  5
317
100
AcDbEntity
  8
0
100
AcDbLine
 62
7
  6
CONTINUOUS
 10
-13.9734161381
 20
27.0988622506
 11
-15.3577194093
 21
27.5884802467
  0
LINE
  5
318
100
AcDbEntity
  8
0
100
AcDbLine
 62
7
  6
CONTINUOUS
 10
-17.3705287724
 20
28.300396275
 11
-19.2994710787
 21
28.9826491355
  0
LINE
  5
319
100
AcDbEntity
  8
0
100
AcDbLine
 62
253
  6
CONTINUOUS
 10
28.5786301751
 20
12.3122329915
 11
26.5877845005
 21
13.016380623
  0
LINE
  5
31A
100
AcDbEntity
  8
0
100
AcDbLine
 62
253
  6
CONTINUOUS
 10
13.9857622928
 20
17.4736241968
 11
11.9949166182
 21
18.1777718283
  0
LINE
  5
31B
100
AcDbEntity
  8
0
100
AcDbLine
 62
253
  6
CONTINUOUS
 10
-9.1615453825
 20
25.6606585223
 11
-11.1523910571
 21
26.3648061538
  0
LINE
  5
31C
100
AcDbEntity
  8
0
100
AcDbLine
 62
253
  6
CONTINUOUS
 10
-23.7544132647
 20
30.8220497276
 11
-25.7452589393
 21
31.5261973591
  0
LINE
  5
31D
100
AcDbEntity
  8
0
100
AcDbLine
 62
7
  6
CONTINUOUS
 10
-16.9304751413
 20
28.4914327347
 11
-15.4487916023
 21
27.9673720464
  0
LINE
  5
31E
100
AcDbEntity
  8
0
100
AcDbLine
 62
7
  6
CONTINUOUS
 10
30.5805838034
 20
11.6871168341
 11
30.1608772488
 21
11.8355639891
  0
LINE
  5
31F
100
AcDbEntity
  8
0
100
AcDbLine
 62
7
  6
CONTINUOUS
 10
26.4741667858
 20
13.1395266586
 11
25.3804550115
 21
13.5263645563
  0
LINE
  5
320
100
AcDbEntity
  8
0
100
AcDbLine
 62
7
  6
CONTINUOUS
 10
17.1066472683
 20
16.4527501623
 11
15.5680093666
 21
16.9969551943
  0
LINE
  5
321
100
AcDbEntity
  8
0
100
AcDbLine
 62
7
  6
CONTINUOUS
 10
20.8097004162
 20
15.1430072039
 11
22.2913839552
 21
14.6189465156
  0
LINE
  5
322
100
AcDbEntity
  8
0
100
AcDbLine
 62
7
  6
CONTINUOUS
 10
-7.1595917541
 20
25.0355423649
 11
-7.5792983087
 21
25.1839895199
  0
LINE
  5
323
100
AcDbEntity
  8
0
100
AcDbLine
 62
7
  6
CONTINUOUS
 10
-11.2660087717
 20
26.4879521894
 11
-12.359720546
 21
26.8747900871
  0
LINE
  5
324
100
AcDbEntity
  8
0
100
AcDbLine
 62
7
  6
CONTINUOUS
 10
-20.6335282893
 20
29.801175693
 11
-22.172166191
 21
30.3453807251
  0
LINE
  5
325
100
AcDbEntity
  8
0
100
AcDbLine
 62
253
  6
CONTINUOUS
 10
28.7139977929
 20
12.6354259222
 11
26.7231521183
 21
13.3395735537
  0
LINE
  5
326
100
AcDbEntity
  8
0
100
AcDbLine
 62
253
  6
CONTINUOUS
 10
14.1211299107
 20
17.7968171275
 11
12.1302842361
 21
18.500964759
  0
LINE
  5
327
100
AcDbEntity
  8
0
100
AcDbLine
 62
253
  6
CONTINUOUS
 10
-9.0261777646
 20
25.983851453
 11
-11.0170234392
 21
26.6879990845
  0
LINE
  5
328
100
AcDbEntity
  8
0
100
AcDbLine
 62
253
  6
CONTINUOUS
 10
-23.6190456469
 20
31.1452426583
 11
-25.6098913215
 21
31.8493902898
  0
LINE
  5
329
100
AcDbEntity
  8
0
100
AcDbLine
 62
7
  6
CONTINUOUS
 10
-20.6335282893
 20
30.161618348
 11
-19.8441101137
 21
29.8824068824
  0
LINE
  5
32A
100
AcDbEntity
  8
0
100
AcDbLine
 62
7
  6
CONTINUOUS
 10
-13.9734161381
 20
27.8059851332
 11
-13.1839979625
 21
27.5267736676
  0
LINE
  5
32B
100
AcDbEntity
  8
0
100
AcDbLine
 62
7
  6
CONTINUOUS
 10
17.1066472683
 20
16.8131928172
 11
17.8960654439
 21
16.5339813516
  0
LINE
  5
32C
100
AcDbEntity
  8
0
100
AcDbLine
 62
7
  6
CONTINUOUS
 10
23.7667594195
 20
14.4575596024
 11
24.5561775951
 21
14.1783481368
  0
LINE
  5
32D
100
AcDbEntity
  8
0
100
AcDbLine
 62
7
  6
CONTINUOUS
 10
31.1179038713
 20
12.1415989858
 11
30.1608772488
 21
12.4800923396
  0
LINE
  5
32E
100
AcDbEntity
  8
0
100
AcDbLine
 62
7
  6
CONTINUOUS
 10
16.107769159
 20
17.4505744331
 11
15.5680093666
 21
17.6414835449
  0
LINE
  5
32F
100
AcDbEntity
  8
0
100
AcDbLine
 62
7
  6
CONTINUOUS
 10
-6.6222716863
 20
25.4900245165
 11
-7.5792983087
 21
25.8285178704
  0
LINE
  5
330
100
AcDbEntity
  8
0
100
AcDbLine
 62
7
  6
CONTINUOUS
 10
-21.6324063986
 20
30.7989999639
 11
-22.172166191
 21
30.9899090757
  0
LINE
  5
331
100
AcDbEntity
  8
0
100
AcDbLine
 62
7
  6
CONTINUOUS
 10
22.2913839552
 20
15.2639627998
 11
21.3543394513
 21
15.5953886238
  0
LINE
  5
332
100
AcDbEntity
  8
0
100
AcDbLine
 62
7
  6
CONTINUOUS
 10
-15.4487916023
 20
28.6123883306
 11
-16.3858361063
 21
28.9438141546
  0
LINE
  5
333
100
AcDbEntity
  8
0
100
AcDbLine
 62
253
  6
CONTINUOUS
 10
24.1725837915
 20
14.8015482065
 11
22.3824561482
 21
15.4347033306
  0
LINE
  5
334
100
AcDbEntity
  8
0
100
AcDbLine
 62
253
  6
CONTINUOUS
 10
20.3696467851
 20
16.1466193589
 11
18.4407044789
 21
16.8288722194
  0
LINE
  5
335
100
AcDbEntity
  8
0
100
AcDbLine
 62
253
  6
CONTINUOUS
 10
-13.567591766
 20
28.1499737373
 11
-15.3577194093
 21
28.7831288614
  0
LINE
  5
336
100
AcDbEntity
  8
0
100
AcDbLine
 62
253
  6
CONTINUOUS
 10
-17.3705287724
 20
29.4950448897
 11
-19.2994710787
 21
30.1772977502
  0
LINE
  5
337
100
AcDbEntity
  8
0
100
AcDbLine
 62
253
  6
CONTINUOUS
 10
24.4196925488
 20
15.0110048147
 11
22.4907502425
 21
15.6932576752
  0
LINE
  5
338
100
AcDbEntity
  8
0
100
AcDbLine
 62
253
  6
CONTINUOUS
 10
20.4779408794
 20
16.4051737035
 11
18.5489985732
 21
17.0874265639
  0
LINE
  5
339
100
AcDbEntity
  8
0
100
AcDbLine
 62
253
  6
CONTINUOUS
 10
-13.3204830088
 20
28.3594303455
 11
-15.249425315
 21
29.041683206
  0
LINE
  5
33A
100
AcDbEntity
  8
0
100
AcDbLine
 62
253
  6
CONTINUOUS
 10
-17.2622346781
 20
29.7535992343
 11
-19.1911769844
 21
30.4358520947
  0
LINE
  5
33B
100
AcDbEntity
  8
0
100
AcDbLine
 62
7
  6
CONTINUOUS
 10
-19.8238886007
 20
30.8566849341
 11
-17.0982092549
 21
29.8926319791
  0
LINE
  5
33C
100
AcDbEntity
  8
0
100
AcDbLine
 62
7
  6
CONTINUOUS
 10
-15.0853998918
 20
29.1807159508
 11
-12.359720546
 21
28.2166629958
  0
LINE
  5
33D
100
AcDbEntity
  8
0
100
AcDbLine
 62
7
  6
CONTINUOUS
 10
17.9162869568
 20
17.5082594033
 11
20.6419663026
 21
16.5442064483
  0
LINE
  5
33E
100
AcDbEntity
  8
0
100
AcDbLine
 62
7
  6
CONTINUOUS
 10
22.6547756657
 20
15.83229042
 11
25.3804550115
 21
14.868237465
  0
LINE
  5
33F
100
AcDbEntity
  8
0
100
AcDbLine
 62
7
  6
CONTINUOUS
 10
29.9512131551
 20
13.6709288464
 11
27.9383966955
 21
14.3828473847
  0
LINE
  5
340
100
AcDbEntity
  8
0
100
AcDbLine
 62
7
  6
CONTINUOUS
 10
15.3583452728
 20
18.8323200516
 11
13.3455288133
 21
19.5442385899
  0
LINE
  5
341
100
AcDbEntity
  8
0
100
AcDbLine
 62
7
  6
CONTINUOUS
 10
-7.7889624025
 20
27.0193543772
 11
-9.801778862
 21
27.7312729155
  0
LINE
  5
342
100
AcDbEntity
  8
0
100
AcDbLine
 62
7
  6
CONTINUOUS
 10
-22.3818302847
 20
32.1807455824
 11
-24.3946467443
 21
32.8926641207
  0
LINE
  5
343
100
AcDbEntity
  8
0
100
AcDbLine
 62
7
  6
CONTINUOUS
 10
25.128357007
 20
15.6019310458
 11
23.1994147007
 21
16.2841839062
  0
LINE
  5
344
100
AcDbEntity
  8
0
100
AcDbLine
 62
7
  6
CONTINUOUS
 10
21.1866053377
 20
16.9960999345
 11
19.2576630314
 21
17.678352795
  0
LINE
  5
345
100
AcDbEntity
  8
0
100
AcDbLine
 62
7
  6
CONTINUOUS
 10
-12.6118185505
 20
28.9503565765
 11
-14.5407608568
 21
29.632609437
  0
LINE
  5
346
100
AcDbEntity
  8
0
100
AcDbLine
 62
7
  6
CONTINUOUS
 10
-16.5535702199
 20
30.3445254653
 11
-18.4825125262
 21
31.0267783258
  0
LINE
  5
347
100
AcDbEntity
  8
0
100
AcDbLine
 62
253
  6
CONTINUOUS
 10
-23.9817087986
 20
33.2309446596
 11
-21.9762253961
 21
32.5216197703
  0
LINE
  5
348
100
AcDbEntity
  8
0
100
AcDbLine
 62
253
  6
CONTINUOUS
 10
-9.3888409163
 20
28.0695534544
 11
-7.3833575138
 21
27.360228565
  0
LINE
  5
349
100
AcDbEntity
  8
0
100
AcDbLine
 62
253
  6
CONTINUOUS
 10
13.758466759
 20
19.8825191288
 11
15.7639501615
 21
19.1731942395
  0
LINE
  5
34A
100
AcDbEntity
  8
0
100
AcDbLine
 62
253
  6
CONTINUOUS
 10
28.3513346412
 20
14.7211279236
 11
30.3568180437
 21
14.0118030342
  0
LINE
  5
34B
100
AcDbEntity
  8
0
100
AcDbLine
 62
7
  6
CONTINUOUS
 10
-23.8991384157
 20
33.2563081586
 11
-21.8936550132
 21
32.5469832692
  0
LINE
  5
34C
100
AcDbEntity
  8
0
100
AcDbLine
 62
7
  6
CONTINUOUS
 10
-9.3062705335
 20
28.0949169533
 11
-7.3007871309
 21
27.385592064
  0
LINE
  5
34D
100
AcDbEntity
  8
0
100
AcDbLine
 62
7
  6
CONTINUOUS
 10
13.8410371418
 20
19.9078826278
 11
15.8465205444
 21
19.1985577384
  0
LINE
  5
34E
100
AcDbEntity
  8
0
100
AcDbLine
 62
7
  6
CONTINUOUS
 10
28.4339050241
 20
14.7464914226
 11
30.4393884266
 21
14.0371665332
  0
LINE
  5
34F
100
AcDbEntity
  8
0
100
AcDbLine
 62
7
  6
CONTINUOUS
 10
23.7667594195
 20
14.4575596024
 11
23.7667594195
 21
13.0570762646
  0
LINE
  5
350
100
AcDbEntity
  8
0
100
AcDbLine
 62
7
  6
CONTINUOUS
 10
24.5561775951
 20
12.777864799
 11
24.5561775951
 21
14.1783481368
  0
LINE
  5
351
100
AcDbEntity
  8
0
100
AcDbLine
 62
7
  6
CONTINUOUS
 10
25.3804550115
 20
13.5263645563
 11
25.3804550115
 21
14.868237465
  0
LINE
  5
352
100
AcDbEntity
  8
0
100
AcDbLine
 62
7
  6
CONTINUOUS
 10
25.6680277005
 20
20.3251868766
 11
25.6680277005
 21
19.875670398
  0
LINE
  5
353
100
AcDbEntity
  8
0
100
AcDbLine
 62
7
  6
CONTINUOUS
 10
26.4739442592
 20
13.1305738052
 11
26.4739442592
 21
12.8013385066
  0
LINE
  5
354
100
AcDbEntity
  8
0
100
AcDbLine
 62
253
  6
CONTINUOUS
 10
26.5877845005
 20
13.016380623
 11
26.5877845005
 21
12.6871453244
  0
LINE
  5
355
100
AcDbEntity
  8
0
100
AcDbLine
 62
7
  6
CONTINUOUS
 10
-9.038633015
 20
25.1959676394
 11
-8.5554705394
 21
25.1703290494
  0
LINE
  5
356
100
AcDbEntity
  8
0
100
AcDbLine
 62
253
  6
CONTINUOUS
 10
-8.8165136708
 20
25.370795396
 11
-8.2669953932
 21
25.3416356941
  0
LINE
  5
357
100
AcDbEntity
  8
0
100
AcDbLine
 62
253
  6
CONTINUOUS
 10
28.3507039584
 20
17.3644627959
 11
27.5808169464
 21
17.6367662311
  0
LINE
  5
358
100
AcDbEntity
  8
0
100
AcDbLine
 62
253
  6
CONTINUOUS
 10
21.7101229708
 20
19.7131879803
 11
20.9402359587
 21
19.9854914154
  0
LINE
  5
359
100
AcDbEntity
  8
0
100
AcDbLine
 62
253
  6
CONTINUOUS
 10
-9.3894715992
 20
30.7128883267
 11
-10.1593586112
 21
30.9851917619
  0
LINE
  5
35A
100
AcDbEntity
  8
0
100
AcDbLine
 62
253
  6
CONTINUOUS
 10
-16.0300525868
 20
33.0616135111
 11
-16.7999395988
 21
33.3339169462
  0
LINE
  5
35B
100
AcDbEntity
  8
0
100
AcDbLine
 62
7
  6
CONTINUOUS
 10
28.4446708399
 20
17.4403634789
 11
27.8168954349
 21
17.6624030725
  0
LINE
  5
35C
100
AcDbEntity
  8
0
100
AcDbLine
 62
7
  6
CONTINUOUS
 10
21.804330548
 20
19.789003531
 11
21.176554665
 21
20.0110432936
  0
LINE
  5
35D
100
AcDbEntity
  8
0
100
AcDbLine
 62
7
  6
CONTINUOUS
 10
-9.2955047177
 20
30.7887890097
 11
-9.9232801226
 21
31.0108286033
  0
LINE
  5
35E
100
AcDbEntity
  8
0
100
AcDbLine
 62
7
  6
CONTINUOUS
 10
-15.9358450096
 20
33.1374290618
 11
-16.5636208925
 21
33.3594688244
  0
LINE
  5
35F
100
AcDbEntity
  8
0
100
AcDbLine
 62
7
  6
CONTINUOUS
 10
-13.4188929624
 20
32.8494239575
 11
-8.8436731912
 21
31.2312020096
  0
LINE
  5
360
100
AcDbEntity
  8
0
100
AcDbLine
 62
7
  6
CONTINUOUS
 10
24.3212825951
 20
19.5009984267
 11
28.8965023664
 21
17.8827764789
  0
LINE
  5
361
100
AcDbEntity
  8
DRAFT
100
AcDbLine
 62
7
  6
CONTINUOUS
 10
30.159898738
 20
-21.8463534584
 11
29.2659496548
 21
-8.6462506715
  0
LINE
  5
362
100
AcDbEntity
  8
0
100
AcDbLine
 62
7
  6
CONTINUOUS
 10
27.0137040516
 20
12.4336759199
 11
27.0137040516
 21
11.9875881559
  0
LINE
  5
363
100
AcDbEntity
  8
0
100
AcDbLine
 62
253
  6
CONTINUOUS
 10
27.1275442928
 20
12.3934114548
 11
27.1275442928
 21
11.868391105
  0
LINE
  5
364
100
AcDbEntity
  8
0
100
AcDbLine
 62
253
  6
CONTINUOUS
 10
28.3727711183
 20
17.3816033622
 11
28.3727711183
 21
16.8577942338
  0
LINE
  5
365
100
AcDbEntity
  8
0
100
AcDbLine
 62
253
  6
CONTINUOUS
 10
28.3727711183
 20
16.4797033809
 11
28.3727711183
 21
16.0411353373
  0
LINE
  5
366
100
AcDbEntity
  8
0
100
AcDbLine
 62
7
  6
CONTINUOUS
 10
28.4453540892
 20
17.4390753383
 11
28.4453540892
 21
16.1748248068
  0
LINE
  5
367
100
AcDbEntity
  8
0
100
AcDbLine
 62
253
  6
CONTINUOUS
 10
28.5786301751
 20
-28.3413258654
 11
28.5786301751
 21
-28.0120905668
  0
LINE
  5
368
100
AcDbEntity
  8
0
100
AcDbLine
 62
253
  6
CONTINUOUS
 10
28.5786301751
 20
11.9829976929
 11
28.5786301751
 21
12.3122329915
  0
LINE
  5
369
100
AcDbEntity
  8
RACCORDO
100
AcDbLine
 62
7
  6
CONTINUOUS
 10
28.9130467055
 20
-26.9626034467
 11
28.9130467055
 21
9.26825248
  0
LINE
  5
36A
100
AcDbEntity
  8
0
100
AcDbLine
 62
253
  6
CONTINUOUS
 10
28.9236618867
 20
-28.3019536931
 11
28.9236618867
 21
-27.9727183945
  0
LINE
  5
36B
100
AcDbEntity
  8
0
100
AcDbLine
 62
253
  6
CONTINUOUS
 10
28.9236618867
 20
12.0223698652
 11
28.9236618867
 21
12.3516051638
  0
LINE
  5
36C
100
AcDbEntity
  8
0
100
AcDbLine
 62
253
  6
CONTINUOUS
 10
29.1281484527
 20
-26.9517852429
 11
29.1281484527
 21
-26.2797908897
  0
LINE
  5
36D
100
AcDbEntity
  8
0
100
AcDbLine
 62
253
  6
CONTINUOUS
 10
29.1281484527
 20
11.1607919682
 11
29.1281484527
 21
11.8249046428
  0
LINE
  5
36E
100
AcDbEntity
  8
0
100
AcDbLine
 62
253
  6
CONTINUOUS
 10
29.4731801643
 20
-27.0334647401
 11
29.4731801643
 21
-26.4018260959
  0
LINE
  5
36F
100
AcDbEntity
  8
0
100
AcDbLine
 62
253
  6
CONTINUOUS
 10
29.4731801643
 20
11.2110884296
 11
29.4731801643
 21
11.9932101633
  0
LINE
  5
370
100
AcDbEntity
  8
DRAFT
100
AcDbLine
 62
7
  6
CONTINUOUS
 10
30.159898738
 20
10.376342183
 11
30.159898738
 21
5.9975093974
  0
LINE
  5
371
100
AcDbEntity
  8
DRAFT
100
AcDbLine
 62
7
  6
CONTINUOUS
 10
30.159898738
 20
-21.8463534584
 11
30.159898738
 21
-26.225186244
  0
LINE
  5
372
100
AcDbEntity
  8
0
100
AcDbLine
 62
7
  6
CONTINUOUS
 10
30.1608772488
 20
-26.3887820761
 11
30.1608772488
 21
-27.2884215538
  0
LINE
  5
373
100
AcDbEntity
  8
0
100
AcDbLine
 62
7
  6
CONTINUOUS
 10
30.1608772488
 20
11.8355639891
 11
30.1608772488
 21
13.387108088
  0
LINE
  5
374
100
AcDbEntity
  8
DRAFT
100
AcDbLine
 62
7
  6
CONTINUOUS
 10
29.2659496548
 20
-8.6462506715
 11
30.159898738
 21
5.9975093974
  0
LINE
  5
375
100
AcDbEntity
  8
0
100
AcDbLine
 62
7
  6
CONTINUOUS
 10
-23.6315008972
 20
30.3573588446
 11
-23.1483394486
 21
30.3317203092
  0
LINE
  5
376
100
AcDbEntity
  8
0
100
AcDbLine
 62
253
  6
CONTINUOUS
 10
-23.4093815531
 20
30.5321866013
 11
-22.8598632755
 21
30.5030268993
  0
LINE
  5
377
100
AcDbEntity
  8
0
100
AcDbLine
 62
7
  6
CONTINUOUS
 10
29.615618975
 20
18.4794360834
 11
25.6680277005
 21
19.875670398
  0
LINE
  5
378
100
AcDbEntity
  8
0
100
AcDbLine
 62
7
  6
CONTINUOUS
 10
-8.1245565826
 20
31.8278616142
 11
-12.072147857
 21
33.2240959288
  0
LINE
  5
379
100
AcDbEntity
  8
0
100
AcDbLine
 62
253
  6
CONTINUOUS
 10
-16.2316682973
 20
35.3378313869
 11
-12.6136183284
 21
34.0581534346
  0
LINE
  5
37A
100
AcDbEntity
  8
0
100
AcDbLine
 62
253
  6
CONTINUOUS
 10
-7.5815949208
 20
32.2783633639
 11
-3.9635449519
 21
30.9986854116
  0
LINE
  5
37B
100
AcDbEntity
  8
0
100
AcDbLine
 62
253
  6
CONTINUOUS
 10
21.5085072603
 20
21.9894058561
 11
25.1265572291
 21
20.7097279038
  0
LINE
  5
37C
100
AcDbEntity
  8
0
100
AcDbLine
 62
253
  6
CONTINUOUS
 10
30.1585806368
 20
18.9299378331
 11
33.7766306056
 21
17.6502598808
  0
LINE
  5
37D
100
AcDbEntity
  8
0
100
AcDbLine
 62
7
  6
CONTINUOUS
 10
-16.0775946086
 20
35.5016088149
 11
-12.2833367969
 21
34.1596074305
  0
LINE
  5
37E
100
AcDbEntity
  8
0
100
AcDbLine
 62
7
  6
CONTINUOUS
 10
-7.2513133892
 20
32.3798173598
 11
-3.4570555776
 21
31.0378159754
  0
LINE
  5
37F
100
AcDbEntity
  8
0
100
AcDbLine
 62
7
  6
CONTINUOUS
 10
21.662580949
 20
22.1531832841
 11
25.4568387606
 21
20.8111818997
  0
LINE
  5
380
100
AcDbEntity
  8
0
100
AcDbLine
 62
7
  6
CONTINUOUS
 10
30.4888621683
 20
19.031391829
 11
34.28311998
 21
17.6893904446
  0
LINE
  5
381
100
AcDbEntity
  8
0
100
AcDbLine
 62
253
  6
CONTINUOUS
 10
30.5664821375
 20
13.7279822758
 11
30.5664821375
 21
13.3914281133
  0
LINE
  5
382
100
AcDbEntity
  8
0
100
AcDbLine
 62
253
  6
CONTINUOUS
 10
30.5664821375
 20
-26.6036601464
 11
30.5664821375
 21
-26.940214309
  0
LINE
  5
383
100
AcDbEntity
  8
0
100
AcDbLine
 62
7
  6
CONTINUOUS
 10
30.6060259028
 20
13.8014745952
 11
30.6060259028
 21
13.4649204327
  0
LINE
  5
384
100
AcDbEntity
  8
0
100
AcDbLine
 62
7
  6
CONTINUOUS
 10
30.6060259028
 20
-26.530167827
 11
30.6060259028
 21
-26.8667219896
  0
LINE
  5
385
100
AcDbEntity
  8
0
100
AcDbLine
 62
7
  6
CONTINUOUS
 10
30.9988158643
 20
11.1196639814
 11
30.9988158643
 21
-25.6137230316
  0
LINE
  5
386
100
AcDbEntity
  8
0
100
AcDbLine
 62
7
  6
CONTINUOUS
 10
30.9999137651
 20
11.1194817862
 11
30.9999137651
 21
-25.6143174755
  0
LINE
  5
387
100
AcDbEntity
  8
0
100
AcDbLine
 62
7
  6
CONTINUOUS
 10
31.537233833
 20
11.5739639379
 11
31.537233833
 21
8.7343020754
  0
LINE
  5
388
100
AcDbEntity
  8
0
100
AcDbLine
 62
7
  6
CONTINUOUS
 10
31.537233833
 20
-22.3104149762
 11
31.537233833
 21
-25.1500768386
  0
LINE
  5
389
100
AcDbEntity
  8
0
100
AcDbLine
 62
7
  6
CONTINUOUS
 10
32.0745539008
 20
9.2009824369
 11
32.0745539008
 21
-21.8583725491
  0
LINE
  5
38A
100
AcDbEntity
  8
0
100
AcDbLine
 62
7
  6
CONTINUOUS
 10
31.537233833
 20
9.9283487036
 11
32.0745539008
 21
9.2009824369
  0
LINE
  5
38B
100
AcDbEntity
  8
RACCORDO
100
AcDbLine
 62
253
  6
CONTINUOUS
 10
34.1192996865
 20
15.9622799779
 11
34.1192996865
 21
15.914288872
  0
LINE
  5
38C
100
AcDbEntity
  8
RACCORDO
100
AcDbLine
 62
253
  6
CONTINUOUS
 10
34.1192996865
 20
-17.2874467435
 11
34.1192996865
 21
-18.2147938058
  0
LINE
  5
38D
100
AcDbEntity
  8
RACCORDO
100
AcDbLine
 62
7
  6
CONTINUOUS
 10
34.1506213973
 20
-17.2559949771
 11
34.1506213973
 21
-18.1562669378
  0
LINE
  5
38E
100
AcDbEntity
  8
0
100
AcDbLine
 62
253
  6
CONTINUOUS
 10
34.6816669432
 20
17.02561494
 11
34.6816669432
 21
16.4524418959
  0
LINE
  5
38F
100
AcDbEntity
  8
0
100
AcDbLine
 62
253
  6
CONTINUOUS
 10
34.6816669432
 20
-18.6039878442
 11
34.6816669432
 21
-19.1771608883
  0
LINE
  5
390
100
AcDbEntity
  8
0
100
AcDbLine
 62
7
  6
CONTINUOUS
 10
34.7576428951
 20
17.2375985319
 11
34.7576428951
 21
16.5967492543
  0
LINE
  5
391
100
AcDbEntity
  8
0
100
AcDbLine
 62
7
  6
CONTINUOUS
 10
34.7576428951
 20
-18.4596804859
 11
34.7576428951
 21
-19.1005297635
  0
LINE
  5
392
100
AcDbEntity
  8
0
100
AcDbLine
 62
7
  6
CONTINUOUS
 10
34.6816669432
 20
-18.6039878442
 11
32.0745539008
 21
-20.8763597044
  0
LINE
  5
393
100
AcDbEntity
  8
RACCORDO
100
AcDbLine
 62
7
  6
CONTINUOUS
 10
34.1192996865
 20
-18.2147938058
 11
32.0745539008
 21
-19.9628715926
  0
LINE
  5
394
100
AcDbEntity
  8
RACCORDO
100
AcDbLine
 62
7
  6
CONTINUOUS
 10
34.1192996865
 20
-17.2874467435
 11
32.0745539008
 21
-19.0076725513
  0
LINE
  5
395
100
AcDbEntity
  8
RACCORDO
100
AcDbLine
 62
7
  6
CONTINUOUS
 10
33.6064784706
 20
-17.1060656103
 11
32.0745539008
 21
-18.3463114579
  0
LINE
  5
396
100
AcDbEntity
  8
0
100
AcDbLine
 62
7
  6
CONTINUOUS
 10
-12.072147857
 20
33.2240959288
 11
-13.4188929624
 21
32.8494239575
  0
LINE
  5
397
100
AcDbEntity
  8
0
100
AcDbLine
 62
253
  6
CONTINUOUS
 10
29.1275385474
 20
-26.9515695238
 11
28.6467100545
 21
-27.7734164714
  0
LINE
  5
398
100
AcDbEntity
  8
0
100
AcDbLine
 62
253
  6
CONTINUOUS
 10
29.4731801643
 20
-27.0334647401
 11
28.9236618867
 21
-27.9727183945
  0
LINE
  5
399
100
AcDbEntity
  8
0
100
AcDbLine
 62
253
  6
CONTINUOUS
 10
30.9999137651
 20
-25.6143174755
 11
31.537233833
 21
-25.1500768386
  0
LINE
  5
39A
100
AcDbEntity
  8
0
100
AcDbLine
 62
7
  6
CONTINUOUS
 10
30.9046479177
 20
-25.8467401918
 11
31.4419679856
 21
-25.3824995549
  0
LINE
  5
39B
100
AcDbEntity
  8
0
100
AcDbLine
 62
7
  6
CONTINUOUS
 10
34.6816669432
 20
-19.1771608883
 11
32.0745539008
 21
-21.3775220746
  0
LINE
  5
39C
100
AcDbEntity
  8
0
100
AcDbLine
 62
7
  6
CONTINUOUS
 10
31.537233833
 20
-22.3104149762
 11
32.0745539008
 21
-21.8583725491
  0
LINE
  5
39D
100
AcDbEntity
  8
RACCORDO
100
AcDbLine
 62
253
  6
CONTINUOUS
 10
28.9130467055
 20
-26.9626034467
 11
26.3009100806
 21
-28.9313573325
  0
LINE
  5
39E
100
AcDbEntity
  8
RACCORDO
100
AcDbLine
 62
7
  6
CONTINUOUS
 10
26.1894983924
 20
-29.1766243061
 11
28.8049257781
 21
-27.205390527
  0
LINE
  5
39F
100
AcDbEntity
  8
0
100
AcDbLine
 62
253
  6
CONTINUOUS
 10
30.159898738
 20
-26.225186244
 11
30.9988158643
 21
-25.6137230316
  0
LINE
  5
3A0
100
AcDbEntity
  8
0
100
AcDbLine
 62
7
  6
CONTINUOUS
 10
30.0485074308
 20
-26.4706852912
 11
30.8874197447
 21
-25.8592255865
  0
LINE
  5
3A1
100
AcDbEntity
  8
0
100
AcDbLine
 62
253
  6
CONTINUOUS
 10
30.1608772488
 20
-27.2884215538
 11
30.5664821375
 21
-26.940214309
  0
LINE
  5
3A2
100
AcDbEntity
  8
0
100
AcDbLine
 62
7
  6
CONTINUOUS
 10
30.1129474792
 20
-27.4048906105
 11
30.518870873
 21
-27.0564099325
  0
LINE
  5
3A3
100
AcDbEntity
  8
0
100
AcDbLine
 62
7
  6
CONTINUOUS
 10
30.1129458986
 20
-27.4048919674
 11
30.1107606355
 21
-27.4067246527
  0
LINE
  5
3A4
100
AcDbEntity
  8
0
100
AcDbLine
 62
253
  6
CONTINUOUS
 10
28.9236618867
 20
-28.3019536931
 11
30.1608772488
 21
-27.2884215538
  0
LINE
  5
3A5
100
AcDbEntity
  8
0
100
AcDbLine
 62
7
  6
CONTINUOUS
 10
28.8732177996
 20
-28.4205250599
 11
30.1107600319
 21
-27.4067251471
  0
ARC
  5
3A6
100
AcDbEntity
  8
0
100
AcDbCircle
 62
253
  6
CONTINUOUS
 10
-34.0083421877
 20
-13.8614490381
 40
33.2774040284
100
AcDbArc
 50
7.4827374598
 51
8.7123817762
  0
ARC
  5
3A7
100
AcDbEntity
  8
0
100
AcDbCircle
 62
253
  6
CONTINUOUS
 10
-29.7678380429
 20
-13.327683085
 40
29.0035016224
100
AcDbArc
 50
5.1306080465
 51
7.5100457538
  0
ARC
  5
3A8
100
AcDbEntity
  8
0
100
AcDbCircle
 62
253
  6
CONTINUOUS
 10
-28.3242622679
 20
-13.0287246472
 40
27.6823053468
100
AcDbArc
 50
2.3551710965
 51
3.6969203056
  0
ARC
  5
3A9
100
AcDbEntity
  8
0
100
AcDbCircle
 62
253
  6
CONTINUOUS
 10
-26.9936596614
 20
-12.9719147211
 40
26.3504920711
100
AcDbArc
 50
2.087162669
 51
2.3008303205
  0
ARC
  5
3AA
100
AcDbEntity
  8
0
100
AcDbCircle
 62
253
  6
CONTINUOUS
 10
-26.0398603138
 20
-12.9984437074
 40
25.2609862456
100
AcDbArc
 50
3.4501809575
 51
4.9670247377
  0
ARC
  5
3AB
100
AcDbEntity
  8
0
100
AcDbCircle
 62
253
  6
CONTINUOUS
 10
-24.8971306341
 20
-12.9269841591
 40
24.1160274149
100
AcDbArc
 50
3.272054002
 51
3.4440992068
  0
ARC
  5
3AC
100
AcDbEntity
  8
DRAFT
100
AcDbCircle
 62
7
  6
CONTINUOUS
 10
-2.8847357609
 20
-10.1434077195
 40
4.3476080617
100
AcDbArc
 50
247.471314542
 51
247.8997348144
  0
ARC
  5
3AD
100
AcDbEntity
  8
0
100
AcDbCircle
 62
7
  6
CONTINUOUS
 10
-2.9013379571
 20
-10.1811728625
 40
4.3063929812
100
AcDbArc
 50
247.9037587789
 51
250.4221417872
  0
ARC
  5
3AE
100
AcDbEntity
  8
0
100
AcDbCircle
 62
7
  6
CONTINUOUS
 10
-2.5513102776
 20
-12.8799962836
 40
4.3059563385
100
AcDbArc
 50
67.5520350125
 51
67.9912806651
  0
ARC
  5
3AF
100
AcDbEntity
  8
0
100
AcDbCircle
 62
7
  6
CONTINUOUS
 10
-2.5358847194
 20
-12.8448873736
 40
4.2676509482
100
AcDbArc
 50
68.0067383595
 51
70.5513241002
  0
ARC
  5
3B0
100
AcDbEntity
  8
DRAFT
100
AcDbCircle
 62
7
  6
CONTINUOUS
 10
-2.9393441795
 20
-10.2811123467
 40
4.1994759506
100
AcDbArc
 50
247.8831954938
 51
250.45288252
  0
ARC
  5
3B1
100
AcDbEntity
  8
0
100
AcDbCircle
 62
7
  6
CONTINUOUS
 10
-5.8230283744
 20
-11.4500502635
 40
4.0487428712
100
AcDbArc
 50
70.471031371
 51
73.1039421413
  0
ARC
  5
3B2
100
AcDbEntity
  8
0
100
AcDbCircle
 62
7
  6
CONTINUOUS
 10
-5.761760369
 20
-11.2573729572
 40
3.8465507377
100
AcDbArc
 50
73.1429212357
 51
73.5885762726
  0
ARC
  5
3B3
100
AcDbEntity
  8
DRAFT
100
AcDbCircle
 62
7
  6
CONTINUOUS
 10
-5.7957443323
 20
-9.3646873632
 40
1.903322691
100
AcDbArc
 50
134.2082990864
 51
136.1170387838
  0
ARC
  5
3B4
100
AcDbEntity
  8
0
100
AcDbCircle
 62
7
  6
CONTINUOUS
 10
-5.7970481505
 20
-9.363365727
 40
1.9014662176
100
AcDbArc
 50
133.9628197641
 51
134.2079253196
  0
ARC
  5
3B5
100
AcDbEntity
  8
0
100
AcDbCircle
 62
7
  6
CONTINUOUS
 10
-9.0251215009
 20
25.4469406989
 40
0.2513364613
100
AcDbArc
 50
250.5643930763
 51
266.9164945133
  0
ARC
  5
3B6
100
AcDbEntity
  8
0
100
AcDbCircle
 62
7
  6
CONTINUOUS
 10
-23.617998645
 20
30.608287356
 40
0.2512915212
100
AcDbArc
 50
250.5620316665
 51
266.919932686
  0
ARC
  5
3B7
100
AcDbEntity
  8
0
100
AcDbCircle
 62
7
  6
CONTINUOUS
 10
-25.6090943355
 20
31.6403884651
 40
0.2500048719
100
AcDbArc
 50
130.6462524908
 51
180.0021645012
  0
ARC
  5
3B8
100
AcDbEntity
  8
0
100
AcDbCircle
 62
7
  6
CONTINUOUS
 10
-11.0162264533
 20
26.4789972598
 40
0.2500048719
100
AcDbArc
 50
130.6462524908
 51
180.0021645012
  0
ARC
  5
3B9
100
AcDbEntity
  8
0
100
AcDbCircle
 62
7
  6
CONTINUOUS
 10
-9.3896333897
 20
27.8592246949
 40
0.2500000372
100
AcDbArc
 50
70.5188818344
 51
129.3243759758
  0
ARC
  5
3BA
100
AcDbEntity
  8
0
100
AcDbCircle
 62
7
  6
CONTINUOUS
 10
-25.6090993931
 20
31.3111549634
 40
0.2499996658
100
AcDbArc
 50
180.0015494136
 51
250.5217080162
  0
ARC
  5
3BB
100
AcDbEntity
  8
0
100
AcDbCircle
 62
7
  6
CONTINUOUS
 10
-23.9825009023
 20
33.0206166783
 40
0.2499995561
100
AcDbArc
 50
70.5216565073
 51
129.3250916071
  0
ARC
  5
3BC
100
AcDbEntity
  8
0
100
AcDbCircle
 62
7
  6
CONTINUOUS
 10
-7.3841490363
 20
27.1499012633
 40
0.2499987216
100
AcDbArc
 50
359.9997570084
 51
70.5217301402
  0
ARC
  5
3BD
100
AcDbEntity
  8
0
100
AcDbCircle
 62
7
  6
CONTINUOUS
 10
-21.9770169186
 20
32.3112924685
 40
0.2499987216
100
AcDbArc
 50
359.9997570084
 51
70.5217301402
  0
ARC
  5
3BE
100
AcDbEntity
  8
0
100
AcDbCircle
 62
7
  6
CONTINUOUS
 10
-11.0162323593
 20
26.1497627202
 40
0.2499983537
100
AcDbArc
 50
179.9968242045
 51
250.525133008
  0
ARC
  5
3BF
100
AcDbEntity
  8
0
100
AcDbCircle
 62
7
  6
CONTINUOUS
 10
-7.38414808
 20
26.8133452061
 40
0.2499982572
100
AcDbArc
 50
330.2060377584
 51
0.0008024747
  0
ARC
  5
3C0
100
AcDbEntity
  8
0
100
AcDbCircle
 62
7
  6
CONTINUOUS
 10
-21.9770159623
 20
31.9747364114
 40
0.2499982572
100
AcDbArc
 50
330.2060377584
 51
0.0008024747
  0
ARC
  5
3C1
100
AcDbEntity
  8
0
100
AcDbCircle
 62
7
  6
CONTINUOUS
 10
-15.2487854398
 20
28.8744801655
 40
0.2000061626
100
AcDbArc
 50
130.2860461847
 51
179.9990713751
  0
ARC
  5
3C2
100
AcDbEntity
  8
0
100
AcDbCircle
 62
7
  6
CONTINUOUS
 10
-24.4756498891
 20
32.7795704679
 40
0.1239514877
100
AcDbArc
 50
124.7985438049
 51
129.3214038408
  0
ARC
  5
3C3
100
AcDbEntity
  8
0
100
AcDbCircle
 62
7
  6
CONTINUOUS
 10
-9.8827820068
 20
27.6181792626
 40
0.1239514877
100
AcDbArc
 50
124.798543805
 51
129.3214038408
  0
ARC
  5
3C4
100
AcDbEntity
  8
0
100
AcDbCircle
 62
253
  6
CONTINUOUS
 10
-9.4696709697
 20
27.9569302542
 40
0.1236972498
100
AcDbArc
 50
127.985332002
 51
129.3254270232
  0
ARC
  5
3C5
100
AcDbEntity
  8
0
100
AcDbCircle
 62
253
  6
CONTINUOUS
 10
-24.0625499705
 20
33.1183353947
 40
0.1236794236
100
AcDbArc
 50
128.6197261333
 51
129.3255319902
  0
ARC
  5
3C6
100
AcDbEntity
  8
0
100
AcDbCircle
 62
253
  6
CONTINUOUS
 10
6.2889606179
 20
-10.9043681956
 40
11.4305571786
100
AcDbArc
 50
163.0718353184
 51
165.9230651844
  0
ARC
  5
3C7
100
AcDbEntity
  8
0
100
AcDbCircle
 62
253
  6
CONTINUOUS
 10
6.0544518143
 20
-10.8445927041
 40
11.1885517614
100
AcDbArc
 50
166.0517100241
 51
166.2815747198
  0
ARC
  5
3C8
100
AcDbEntity
  8
0
100
AcDbCircle
 62
253
  6
CONTINUOUS
 10
5.7757707459
 20
-11.0253429631
 40
10.7919966209
100
AcDbArc
 50
161.6860892064
 51
162.8270502394
  0
ARC
  5
3C9
100
AcDbEntity
  8
0
100
AcDbCircle
 62
253
  6
CONTINUOUS
 10
5.6418689725
 20
-10.7515636861
 40
10.7656794155
100
AcDbArc
 50
166.2418236732
 51
171.5532242451
  0
ARC
  5
3CA
100
AcDbEntity
  8
0
100
AcDbCircle
 62
253
  6
CONTINUOUS
 10
5.4037561083
 20
-10.7140008682
 40
10.5246320231
100
AcDbArc
 50
171.5650856746
 51
171.7791968604
  0
ARC
  5
3CB
100
AcDbEntity
  8
0
100
AcDbCircle
 62
253
  6
CONTINUOUS
 10
5.371993196
 20
-10.7094424657
 40
10.4925436962
100
AcDbArc
 50
171.779032154
 51
172.3295063054
  0
ARC
  5
3CC
100
AcDbEntity
  8
0
100
AcDbCircle
 62
253
  6
CONTINUOUS
 10
5.2685071868
 20
-10.6960708997
 40
10.3881973734
100
AcDbArc
 50
172.5121678066
 51
174.4735975852
  0
ARC
  5
3CD
100
AcDbEntity
  8
0
100
AcDbCircle
 62
253
  6
CONTINUOUS
 10
5.1938739595
 20
-10.8573135608
 40
10.1863891503
100
AcDbArc
 50
163.0208815334
 51
168.8808542929
  0
ARC
  5
3CE
100
AcDbEntity
  8
0
100
AcDbCircle
 62
253
  6
CONTINUOUS
 10
4.9057914404
 20
-10.7979174091
 40
9.8922601888
100
AcDbArc
 50
169.0703084406
 51
169.2756519865
  0
ARC
  5
3CF
100
AcDbEntity
  8
0
100
AcDbCircle
 62
253
  6
CONTINUOUS
 10
4.7216988855
 20
-10.7657707591
 40
9.7053932491
100
AcDbArc
 50
169.4558032806
 51
173.1881728141
  0
ARC
  5
3D0
100
AcDbEntity
  8
0
100
AcDbCircle
 62
253
  6
CONTINUOUS
 10
4.6250068163
 20
-10.75360701
 40
9.6079410148
100
AcDbArc
 50
173.1918065517
 51
173.4218414112
  0
ARC
  5
3D1
100
AcDbEntity
  8
0
100
AcDbCircle
 62
7
  6
CONTINUOUS
 10
0.3722952166
 20
-11.5573585289
 40
4.1005602499
100
AcDbArc
 50
250.6011323454
 51
253.2038612733
  0
ARC
  5
3D2
100
AcDbEntity
  8
DRAFT
100
AcDbCircle
 62
7
  6
CONTINUOUS
 10
0.3393111879
 20
-11.65814701
 40
3.9945182916
100
AcDbArc
 50
250.5678821135
 51
253.2391647796
  0
ARC
  5
3D3
100
AcDbEntity
  8
DRAFT
100
AcDbCircle
 62
7
  6
CONTINUOUS
 10
0.3096690991
 20
-11.7552787486
 40
3.8929649267
100
AcDbArc
 50
253.2446428223
 51
253.6603899837
  0
ARC
  5
3D4
100
AcDbEntity
  8
DRAFT
100
AcDbCircle
 62
7
  6
CONTINUOUS
 10
0.3306542459
 20
-13.6909005487
 40
1.9099976364
100
AcDbArc
 50
301.3708666525
 51
305.7569982089
  0
ARC
  5
3D5
100
AcDbEntity
  8
0
100
AcDbCircle
 62
7
  6
CONTINUOUS
 10
0.3411787957
 20
-13.7058017653
 40
1.8917552597
100
AcDbArc
 50
305.7620492339
 51
309.1181872119
  0
ARC
  5
3D6
100
AcDbEntity
  8
0
100
AcDbCircle
 62
7
  6
CONTINUOUS
 10
28.7147898966
 20
-28.2271331408
 40
0.2499995561
100
AcDbArc
 50
250.5216565073
 51
309.3250916072
  0
ARC
  5
3D7
100
AcDbEntity
  8
0
100
AcDbCircle
 62
7
  6
CONTINUOUS
 10
30.3560263042
 20
-26.5301670866
 40
0.2499991681
100
AcDbArc
 50
0.0003457886
 51
70.5217135726
  0
ARC
  5
3D8
100
AcDbEntity
  8
0
100
AcDbCircle
 62
7
  6
CONTINUOUS
 10
30.3560281901
 20
-26.866723704
 40
0.249997098
100
AcDbArc
 50
310.6466774769
 51
0.0012445189
  0
ARC
  5
3D9
100
AcDbEntity
  8
0
100
AcDbCircle
 62
7
  6
CONTINUOUS
 10
30.742200543
 20
-25.6586402759
 40
0.248537138
100
AcDbArc
 50
302.8737923756
 51
310.8133658922
  0
ARC
  5
3DA
100
AcDbEntity
  8
0
100
AcDbCircle
 62
7
  6
CONTINUOUS
 10
30.7412822347
 20
-25.6587530248
 40
0.2480833234
100
AcDbArc
 50
306.0929785797
 51
315.0478347621
  0
ARC
  5
3DB
100
AcDbEntity
  8
0
100
AcDbCircle
 62
7
  6
CONTINUOUS
 10
28.7150540566
 20
12.0985151681
 40
0.2513364613
100
AcDbArc
 50
250.5643930763
 51
266.9164945134
  0
ARC
  5
3DC
100
AcDbEntity
  8
0
100
AcDbCircle
 62
7
  6
CONTINUOUS
 10
14.1221769126
 20
17.2598618252
 40
0.2512915212
100
AcDbArc
 50
250.5620316666
 51
266.919932686
  0
ARC
  5
3DD
100
AcDbEntity
  8
0
100
AcDbCircle
 62
7
  6
CONTINUOUS
 10
12.131081222
 20
18.2919629343
 40
0.2500048719
100
AcDbArc
 50
130.6462524908
 51
180.0021645012
  0
ARC
  5
3DE
100
AcDbEntity
  8
0
100
AcDbCircle
 62
7
  6
CONTINUOUS
 10
26.7239491043
 20
13.130571729
 40
0.2500048719
100
AcDbArc
 50
130.6462524908
 51
180.0021645012
  0
ARC
  5
3DF
100
AcDbEntity
  8
0
100
AcDbCircle
 62
7
  6
CONTINUOUS
 10
28.3505421678
 20
14.5107991641
 40
0.2500000372
100
AcDbArc
 50
70.5188818344
 51
129.3243759758
  0
ARC
  5
3E0
100
AcDbEntity
  8
0
100
AcDbCircle
 62
7
  6
CONTINUOUS
 10
12.1310761644
 20
17.9627294326
 40
0.2499996658
100
AcDbArc
 50
180.0015494136
 51
250.5217080162
  0
ARC
  5
3E1
100
AcDbEntity
  8
0
100
AcDbCircle
 62
7
  6
CONTINUOUS
 10
13.7576746553
 20
19.6721911475
 40
0.2499995561
100
AcDbArc
 50
70.5216565073
 51
129.3250916071
  0
ARC
  5
3E2
100
AcDbEntity
  8
0
100
AcDbCircle
 62
7
  6
CONTINUOUS
 10
30.3560265212
 20
13.8014757325
 40
0.2499987216
100
AcDbArc
 50
359.9997570084
 51
70.5217301402
  0
ARC
  5
3E3
100
AcDbEntity
  8
0
100
AcDbCircle
 62
7
  6
CONTINUOUS
 10
15.763158639
 20
18.9628669377
 40
0.2499987216
100
AcDbArc
 50
359.9997570084
 51
70.5217301402
  0
ARC
  5
3E4
100
AcDbEntity
  8
0
100
AcDbCircle
 62
7
  6
CONTINUOUS
 10
26.7239431982
 20
12.8013371894
 40
0.2499983537
100
AcDbArc
 50
179.9968242045
 51
250.525133008
  0
ARC
  5
3E5
100
AcDbEntity
  8
0
100
AcDbCircle
 62
7
  6
CONTINUOUS
 10
30.3560274775
 20
13.4649196753
 40
0.2499982572
100
AcDbArc
 50
330.2060377584
 51
0.0008024747
  0
ARC
  5
3E6
100
AcDbEntity
  8
0
100
AcDbCircle
 62
7
  6
CONTINUOUS
 10
15.7631595953
 20
18.6263108806
 40
0.2499982572
100
AcDbArc
 50
330.2060377584
 51
0.0008024747
  0
ARC
  5
3E7
100
AcDbEntity
  8
0
100
AcDbCircle
 62
7
  6
CONTINUOUS
 10
22.4913901178
 20
15.5260546348
 40
0.2000061626
100
AcDbArc
 50
130.2860461847
 51
179.9990713751
  0
ARC
  5
3E8
100
AcDbEntity
  8
0
100
AcDbCircle
 62
7
  6
CONTINUOUS
 10
13.2645256685
 20
19.4311449371
 40
0.1239514877
100
AcDbArc
 50
124.798543805
 51
129.3214038409
  0
ARC
  5
3E9
100
AcDbEntity
  8
0
100
AcDbCircle
 62
7
  6
CONTINUOUS
 10
27.8573935507
 20
14.2697537318
 40
0.1239514877
100
AcDbArc
 50
124.7985438051
 51
129.3214038407
  0
ARC
  5
3EA
100
AcDbEntity
  8
0
100
AcDbCircle
 62
253
  6
CONTINUOUS
 10
28.2705045879
 20
14.6085047234
 40
0.1236972498
100
AcDbArc
 50
127.9853320022
 51
129.3254270232
  0
ARC
  5
3EB
100
AcDbEntity
  8
0
100
AcDbCircle
 62
253
  6
CONTINUOUS
 10
13.677625587
 20
19.7699098639
 40
0.1236794236
100
AcDbArc
 50
128.6197261336
 51
129.3255319906
  0
ARC
  5
3EC
100
AcDbEntity
  8
RACCORDO
100
AcDbCircle
 62
253
  6
CONTINUOUS
 10
635.8259758357
 20
8.2018767895
 40
665.9543102969
100
AcDbArc
 50
178.4968199316
 51
181.503180064
  0
ARC
  5
3ED
100
AcDbEntity
  8
RACCORDO
100
AcDbCircle
 62
253
  6
CONTINUOUS
 10
639.076581349
 20
-11.3005401826
 40
614.0848459766
100
AcDbArc
 50
178.3698189626
 51
181.6301810329
  0
ARC
  5
3EE
100
AcDbEntity
  8
RACCORDO
100
AcDbCircle
 62
253
  6
CONTINUOUS
 10
632.4306188028
 20
-11.2232426958
 40
606.7669663456
100
AcDbArc
 50
178.3518180203
 51
181.6481819833
  0
ARC
  5
3EF
100
AcDbEntity
  8
RACCORDO
100
AcDbCircle
 62
253
  6
CONTINUOUS
 10
615.7458716259
 20
1763.4136675213
 40
1853.8072349258
100
AcDbArc
 50
249.6178182669
 51
251.4255486107
  0
ARC
  5
3F0
100
AcDbEntity
  8
RACCORDO
100
AcDbCircle
 62
253
  6
CONTINUOUS
 10
608.2738673096
 20
1707.3464538854
 40
1831.4018935761
100
AcDbArc
 50
249.6067594606
 51
251.4366074169
  0
ARC
  5
3F1
100
AcDbEntity
  8
RACCORDO
100
AcDbCircle
 62
253
  6
CONTINUOUS
 10
594.0138193777
 20
1701.6679885455
 40
1786.735019129
100
AcDbArc
 50
249.5837044752
 51
251.4596624057
  0
ARC
  5
3F2
100
AcDbEntity
  8
0
100
AcDbCircle
 62
7
  6
CONTINUOUS
 10
543.1820876985
 20
1528.4543759939
 40
1636.9748783568
100
AcDbArc
 50
250.4594107653
 51
250.5839561113
  0
ARC
  5
3F3
100
AcDbEntity
  8
DRAFT
100
AcDbCircle
 62
7
  6
CONTINUOUS
 10
490.8356604057
 20
1387.4130752552
 40
1480.3662836295
100
AcDbArc
 50
250.4528247689
 51
250.5905421087
  0
SPLINE
  5
3F4
100
AcDbEntity
  8
0
100
AcDbSpline
 62
7
  6
CONTINUOUS
 70
0
 71
3
 72
11
 73
7
 74
5
 42
0.0000001
 43
0.0000001
 44
0.0000000001
 12
-1.3741605779
 22
-1.3366825253
 32
0.0
 13
0.0361356544
 23
-1.9166981196
 33
0.0
 40
0.0
 40
0.0
 40
0.0
 40
0.0
 40
0.234006103
 40
0.4756639578
 40
0.7299638103
 40
1.0
 40
1.0
 40
1.0
 40
1.0
 10
-7.1228725882
 20
-8.0003678044
 30
0.0
 10
-7.2300599088
 20
-8.1046317606
 30
0.0
 10
-7.4233169849
 20
-8.3434322806
 30
0.0
 10
-7.6288223676
 20
-8.7661291373
 30
0.0
 10
-7.7482936824
 20
-9.2439878093
 30
0.0
 10
-7.7685279445
 20
-9.5803902098
 30
0.0
 10
-7.7652752997
 20
-9.7529161621
 30
0.0
 11
-7.1228725882
 21
-8.0003678044
 31
0.0
 11
-7.4058455751
 21
-8.3484585066
 31
0.0
 11
-7.6104788244
 21
-8.7640809049
 31
0.0
 11
-7.7313625197
 21
-9.2363583448
 31
0.0
 11
-7.7652752997
 21
-9.7529161621
 31
0.0
  0
SPLINE
  5
3F5
100
AcDbEntity
  8
0
100
AcDbSpline
 62
7
  6
CONTINUOUS
 70
0
 71
3
 72
13
 73
9
 74
7
 42
0.0000001
 43
0.0000001
 44
0.0000000001
 12
0.1084307674
 22
-5.7513569773
 32
0.0
 13
5.3293042566
 23
-2.1652668316
 33
0.0
 40
0.0
 40
0.0
 40
0.0
 40
0.0
 40
0.2318181824
 40
0.3577601069
 40
0.4877621688
 40
0.6194921456
 40
0.7504479643
 40
1.0
 40
1.0
 40
1.0
 40
1.0
 10
-7.7652752997
 20
-9.7529161621
 30
0.0
 10
-7.7568965586
 20
-10.1973392024
 30
0.0
 10
-7.6047978524
 20
-10.8835948238
 30
0.0
 10
-7.212091518
 20
-11.7335936867
 30
0.0
 10
-6.8101952034
 20
-12.3619763868
 30
0.0
 10
-6.3237167493
 20
-12.939678803
 30
0.0
 10
-5.5986681298
 20
-13.6042806253
 30
0.0
 10
-4.9645602235
 20
-13.9911359566
 30
0.0
 10
-4.5212473149
 20
-14.1712515384
 30
0.0
 11
-7.7652752997
 21
-9.7529161621
 31
0.0
 11
-7.5027085676
 21
-11.0603170531
 31
0.0
 11
-7.2010096772
 21
-11.7189734927
 31
0.0
 11
-6.7989328953
 21
-12.3495055761
 31
0.0
 11
-6.3110909612
 21
-12.9293431456
 31
0.0
 11
-5.7552218669
 21
-13.4377541457
 31
0.0
 11
-4.5212473149
 21
-14.1712515384
 31
0.0
  0
SPLINE
  5
3F6
100
AcDbEntity
  8
0
100
AcDbSpline
 62
7
  6
CONTINUOUS
 70
0
 71
3
 72
11
 73
7
 74
5
 42
0.0000001
 43
0.0000001
 44
0.0000000001
 12
2.2492880981
 22
-0.6771888783
 32
0.0
 13
1.906084027
 23
1.3728530173
 33
0.0
 40
0.0
 40
0.0
 40
0.0
 40
0.0
 40
0.2762879178
 40
0.5329053699
 40
0.7722414228
 40
1.0
 40
1.0
 40
1.0
 40
1.0
 10
-0.8126369825
 20
-15.4829596605
 30
0.0
 10
-0.6054866074
 20
-15.5453260289
 30
0.0
 10
-0.1947422959
 20
-15.6329142283
 30
0.0
 10
0.4143902527
 20
-15.6404645114
 30
0.0
 10
0.9730980881
 20
-15.517010845
 30
0.0
 10
1.3020500255
 20
-15.345094996
 30
0.0
 10
1.4467590208
 20
-15.240868646
 30
0.0
 11
-0.8126369825
 21
-15.4829596605
 31
0.0
 11
-0.1769996156
 21
-15.6140043631
 31
0.0
 11
0.4257932273
 21
-15.6166852018
 31
0.0
 11
0.9737272561
 21
-15.4908193967
 31
0.0
 11
1.4467590208
 21
-15.240868646
 31
0.0
  0
SPLINE
  5
3F7
100
AcDbEntity
  8
0
100
AcDbSpline
 62
7
  6
CONTINUOUS
 70
0
 71
3
 72
13
 73
9
 74
7
 42
0.0000001
 43
0.0000001
 44
0.0000000001
 12
-2.4898494796
 22
0.7333268603
 32
0.0
 13
-1.8682852572
 23
-1.8018404237
 33
0.0
 40
0.0
 40
0.0
 40
0.0
 40
0.0
 40
0.2769595036
 40
0.53239498
 40
0.6533776064
 40
0.7708327027
 40
0.885925242
 40
1.0
 40
1.0
 40
1.0
 40
1.0
 10
-4.6749839233
 20
-7.5675396907
 30
0.0
 10
-4.9048464152
 20
-7.4998390763
 30
0.0
 10
-5.3605280901
 20
-7.4104574658
 30
0.0
 10
-5.9318315051
 20
-7.4303284381
 30
0.0
 10
-6.3482082909
 20
-7.5318448297
 30
0.0
 10
-6.6330388898
 20
-7.6464274423
 30
0.0
 10
-6.8922408677
 20
-7.7994877842
 30
0.0
 10
-7.0459883109
 20
-7.9261937137
 30
0.0
 10
-7.117029707
 20
-7.9947085504
 30
0.0
 11
-4.6749839233
 21
-7.5675396907
 31
0.0
 11
-5.3816126488
 21
-7.4354144104
 31
0.0
 11
-6.0439695084
 21
-7.4647755975
 31
0.0
 11
-6.3488858926
 21
-7.5398477639
 31
0.0
 11
-6.6315085539
 21
-7.654161795
 31
0.0
 11
-6.8885571448
 21
-7.8063717411
 31
0.0
 11
-7.117029707
 21
-7.9947085504
 31
0.0
  0
SPLINE
  5
3F8
100
AcDbEntity
  8
0
100
AcDbSpline
 62
253
  6
CONTINUOUS
 70
0
 71
3
 72
11
 73
7
 74
5
 42
0.0000001
 43
0.0000001
 44
0.0000000001
 12
-1.4710366723
 22
4.2972493896
 32
0.0
 13
0.437253891
 23
4.5209634197
 33
0.0
 40
0.0
 40
0.0
 40
0.0
 40
0.0
 40
0.2565708499
 40
0.5068733682
 40
0.7536993059
 40
1.0
 40
1.0
 40
1.0
 40
1.0
 10
-4.5212473244
 20
-14.1712515458
 30
0.0
 10
-4.6470557009
 20
-13.8037352364
 30
0.0
 10
-4.8605993475
 20
-13.065023855
 30
0.0
 10
-5.0617724157
 20
-11.9396383917
 30
0.0
 10
-5.1387711674
 20
-10.8145244567
 30
0.0
 10
-5.1073037231
 20
-10.0668136165
 30
0.0
 10
-5.0714050775
 20
-9.6956414737
 30
0.0
 11
-4.5212473244
 21
-14.1712515458
 31
0.0
 11
-4.8431903369
 21
-13.0512441512
 31
0.0
 11
-5.0421149703
 21
-11.9318937923
 31
0.0
 11
-5.1181461459
 21
-10.8133769179
 31
0.0
 11
-5.0714050775
 21
-9.6956414737
 31
0.0
  0
LINE
  5
3F9
100
AcDbEntity
  8
0
100
AcDbLine
 62
253
  6
CONTINUOUS
 10
-5.0311054427
 20
-9.3423263331
 11
-5.0266639411
 21
-9.3089414977
  0
LINE
  5
3FA
100
AcDbEntity
  8
0
100
AcDbLine
 62
253
  6
CONTINUOUS
 10
-4.8041905959
 20
-8.1476359886
 11
-4.7983370108
 21
-8.1241759887
  0
SPLINE
  5
3FB
100
AcDbEntity
  8
0
100
AcDbSpline
 62
253
  6
CONTINUOUS
 70
0
 71
3
 72
11
 73
7
 74
5
 42
0.0000001
 43
0.0000001
 44
0.0000000001
 12
-1.5935431446
 22
4.3806161501
 32
0.0
 13
0.5340075027
 23
4.6307681431
 33
0.0
 40
0.0
 40
0.0
 40
0.0
 40
0.0
 40
0.2581833292
 40
0.5087388479
 40
0.7548678264
 40
1.0
 40
1.0
 40
1.0
 40
1.0
 10
-4.344359207
 20
-14.2385773802
 30
0.0
 10
-4.4815012984
 20
-13.8615766931
 30
0.0
 10
-4.7136278702
 20
-13.1040249441
 30
0.0
 10
-4.9291891307
 20
-11.9484722454
 30
0.0
 10
-5.0054510973
 20
-10.7956725136
 30
0.0
 10
-4.9633145355
 20
-10.0313194658
 30
0.0
 10
-4.9196803956
 20
-9.6529360457
 30
0.0
 11
-4.344359207
 21
-14.2385773802
 31
0.0
 11
-4.694739723
 21
-13.0871996246
 31
0.0
 11
-4.907353712
 21
-11.9387610847
 31
0.0
 11
-4.9822994068
 21
-10.793891968
 31
0.0
 11
-4.9196803956
 21
-9.6529360457
 31
0.0
  0
LINE
  5
3FC
100
AcDbEntity
  8
0
100
AcDbLine
 62
253
  6
CONTINUOUS
 10
-4.8198095059
 20
-8.9897426803
 11
-4.8136886349
 21
-8.957124453
  0
LINE
  5
3FD
100
AcDbEntity
  8
0
100
AcDbLine
 62
253
  6
CONTINUOUS
 10
-4.8070289717
 20
-8.9223025011
 11
-4.8012991144
 21
-8.8928698368
  0
LINE
  5
3FE
100
AcDbEntity
  8
0
100
AcDbLine
 62
253
  6
CONTINUOUS
 10
-4.5485031979
 20
-7.8826520264
 11
-4.5399634031
 21
-7.8547268705
  0
LINE
  5
3FF
100
AcDbEntity
  8
0
100
AcDbLine
 62
253
  6
CONTINUOUS
 10
-4.5399634031
 20
-7.8547268705
 11
-4.5350956148
 21
-7.8389302533
  0
SPLINE
  5
400
100
AcDbEntity
  8
0
100
AcDbSpline
 62
7
  6
CONTINUOUS
 70
0
 71
3
 72
9
 73
5
 74
3
 42
0.0000001
 43
0.0000001
 44
0.0000000001
 12
-1.4915831733
 22
0.5255513852
 32
0.0
 13
-1.491022834
 23
0.5271390041
 33
0.0
 40
0.0
 40
0.0
 40
0.0
 40
0.0
 40
0.2634806825
 40
1.0
 40
1.0
 40
1.0
 40
1.0
 10
-1.1149203736
 20
-8.8207745937
 30
0.0
 10
-1.2459214911
 20
-8.7746170478
 30
0.0
 10
-1.7430919962
 20
-8.5993654663
 30
0.0
 10
-2.2401678655
 20
-8.4238454301
 30
0.0
 10
-2.6062235722
 20
-8.2944294103
 30
0.0
 11
-1.1149203736
 21
-8.8207745937
 31
0.0
 11
-1.5079045693
 21
-8.6822475985
 31
0.0
 11
-2.6062235722
 21
-8.2944294103
 31
0.0
  0
LINE
  5
401
100
AcDbEntity
  8
0
100
AcDbLine
 62
7
  6
CONTINUOUS
 10
-2.6062235722
 20
-8.2944294103
 11
-2.9791219215
 21
-8.1625381348
  0
SPLINE
  5
402
100
AcDbEntity
  8
0
100
AcDbSpline
 62
7
  6
CONTINUOUS
 70
0
 71
3
 72
9
 73
5
 74
3
 42
0.0000001
 43
0.0000001
 44
0.0000000001
 12
-1.4907614322
 22
0.5274951613
 32
0.0
 13
-1.4901977439
 23
0.52908551
 33
0.0
 40
0.0
 40
0.0
 40
0.0
 40
0.0
 40
0.2439260266
 40
1.0
 40
1.0
 40
1.0
 40
1.0
 10
-2.9791219215
 20
-8.1625381348
 30
0.0
 10
-3.1003337591
 20
-8.1196482019
 30
0.0
 10
-3.5972313972
 20
-7.9437519424
 30
0.0
 10
-4.0940352581
 20
-7.7675907613
 30
0.0
 10
-4.4696018346
 20
-7.6342481667
 30
0.0
 11
-2.9791219215
 21
-8.1625381348
 31
0.0
 11
-3.3427407124
 21
-8.0338210877
 31
0.0
 11
-4.4696018346
 21
-7.6342481667
 31
0.0
  0
SPLINE
  5
403
100
AcDbEntity
  8
0
100
AcDbSpline
 62
253
  6
CONTINUOUS
 70
0
 71
3
 72
9
 73
5
 74
3
 42
0.0000001
 43
0.0000001
 44
0.0000000001
 12
0.6543154622
 22
3.8288986041
 32
0.0
 13
-0.2216998909
 23
3.8780719956
 33
0.0
 40
0.0
 40
0.0
 40
0.0
 40
0.0
 40
0.4726585219
 40
1.0
 40
1.0
 40
1.0
 40
1.0
 10
-0.9896773643
 20
-15.4251005893
 30
0.0
 10
-0.8865881045
 20
-14.8218467377
 30
0.0
 10
-0.7619737765
 20
-13.5290261102
 30
0.0
 10
-0.7814472613
 20
-12.2322011577
 30
0.0
 10
-0.8204177774
 20
-11.5505117516
 30
0.0
 11
-0.9896773643
 21
-15.4251005893
 31
0.0
 11
-0.8009781496
 21
-13.5988267733
 31
0.0
 11
-0.8204177774
 21
-11.5505117516
 31
0.0
  0
LINE
  5
404
100
AcDbEntity
  8
0
100
AcDbLine
 62
253
  6
CONTINUOUS
 10
-0.8737368121
 20
-10.8112871066
 11
-0.8760827489
 21
-10.7843514266
  0
LINE
  5
405
100
AcDbEntity
  8
0
100
AcDbLine
 62
253
  6
CONTINUOUS
 10
-0.8760827489
 20
-10.7843514266
 11
-0.8793861748
 21
-10.7469423105
  0
LINE
  5
406
100
AcDbEntity
  8
0
100
AcDbLine
 62
253
  6
CONTINUOUS
 10
-0.8793861748
 20
-10.7469423105
 11
-0.8805408362
 21
-10.7340049148
  0
LINE
  5
407
100
AcDbEntity
  8
0
100
AcDbLine
 62
253
  6
CONTINUOUS
 10
-1.0131295948
 20
-9.5369247933
 11
-1.0143237943
 21
-9.5278167137
  0
SPLINE
  5
408
100
AcDbEntity
  8
0
100
AcDbSpline
 62
7
  6
CONTINUOUS
 70
0
 71
3
 72
11
 73
7
 74
5
 42
0.0000001
 43
0.0000001
 44
0.0000000001
 12
1.613263649
 22
1.3120037313
 32
0.0
 13
-0.0391958253
 23
2.0790471566
 33
0.0
 40
0.0
 40
0.0
 40
0.0
 40
0.0
 40
0.2338603552
 40
0.4744969557
 40
0.7285118701
 40
1.0
 40
1.0
 40
1.0
 40
1.0
 10
1.5347290224
 20
-15.1735128468
 30
0.0
 10
1.6604884924
 20
-15.0712376273
 30
0.0
 10
1.8894975517
 20
-14.8291665626
 30
0.0
 10
2.1349440029
 20
-14.3823354169
 30
0.0
 10
2.2779294888
 20
-13.8666164902
 30
0.0
 10
2.3023185828
 20
-13.5006418452
 30
0.0
 10
2.2987715157
 20
-13.3124963037
 30
0.0
 11
1.5347290224
 21
-15.1735128468
 31
0.0
 11
1.8694312896
 21
-14.820730512
 31
0.0
 11
2.1128438095
 21
-14.3835414983
 31
0.0
 11
2.2574515956
 21
-13.8755190407
 31
0.0
 11
2.2987715157
 21
-13.3124963037
 31
0.0
  0
SPLINE
  5
409
100
AcDbEntity
  8
0
100
AcDbSpline
 62
253
  6
CONTINUOUS
 70
0
 71
3
 72
9
 73
5
 74
3
 42
0.0000001
 43
0.0000001
 44
0.0000000001
 12
0.4875596689
 22
3.4430683717
 32
0.0
 13
-0.1266313414
 23
3.4751113286
 33
0.0
 40
0.0
 40
0.0
 40
0.0
 40
0.0
 40
0.4764469573
 40
1.0
 40
1.0
 40
1.0
 40
1.0
 10
-0.8126369923
 20
-15.4829596679
 30
0.0
 10
-0.7352048854
 20
-14.9361465181
 30
0.0
 10
-0.6362501655
 20
-13.7791025261
 30
0.0
 10
-0.6385496559
 20
-12.6187033194
 30
0.0
 10
-0.6606490639
 20
-12.0122349495
 30
0.0
 11
-0.8126369923
 21
-15.4829596679
 31
0.0
 11
-0.6638964132
 21
-13.8328446998
 31
0.0
 11
-0.6606490639
 21
-12.0122349495
 31
0.0
  0
LINE
  5
40A
100
AcDbEntity
  8
0
100
AcDbLine
 62
253
  6
CONTINUOUS
 10
-0.6644110032
 20
-11.9140406811
 11
-0.6653404886
 21
-11.891150335
  0
LINE
  5
40B
100
AcDbEntity
  8
0
100
AcDbLine
 62
253
  6
CONTINUOUS
 10
-0.6995614319
 20
-11.2438064328
 11
-0.7029108145
 21
-11.1924550755
  0
LINE
  5
40C
100
AcDbEntity
  8
0
100
AcDbLine
 62
253
  6
CONTINUOUS
 10
-0.7029108145
 20
-11.1924550755
 11
-0.7039718147
 21
-11.1764708156
  0
SPLINE
  5
40D
100
AcDbEntity
  8
0
100
AcDbSpline
 62
253
  6
CONTINUOUS
 70
0
 71
3
 72
9
 73
5
 74
3
 42
0.0000001
 43
0.0000001
 44
0.0000000001
 12
-0.1530097444
 22
2.2956964092
 32
0.0
 13
-0.3063607336
 23
2.2803019726
 33
0.0
 40
0.0
 40
0.0
 40
0.0
 40
0.0
 40
0.2407176769
 40
1.0
 40
1.0
 40
1.0
 40
1.0
 10
-0.7039718147
 20
-11.1764708156
 30
0.0
 10
-0.7162491981
 20
-10.9922659134
 30
0.0
 10
-0.7744408198
 20
-10.2275181956
 30
0.0
 10
-0.8601249976
 20
-9.4649596043
 30
0.0
 10
-0.9376630941
 20
-8.8878286113
 30
0.0
 11
-0.7039718147
 21
-11.1764708156
 31
0.0
 11
-0.7458577582
 21
-10.6242161743
 31
0.0
 11
-0.9376630941
 21
-8.8878286113
 31
0.0
  0
SPLINE
  5
40E
100
AcDbEntity
  8
0
100
AcDbSpline
 62
7
  6
CONTINUOUS
 70
0
 71
3
 72
13
 73
9
 74
7
 42
0.0000001
 43
0.0000001
 44
0.0000000001
 12
-0.1078418126
 22
5.7202064863
 32
0.0
 13
-5.2877187373
 23
2.1845875258
 33
0.0
 40
0.0
 40
0.0
 40
0.0
 40
0.0
 40
0.2317559007
 40
0.3576325155
 40
0.4875382881
 40
0.6191749489
 40
0.7500976902
 40
1.0
 40
1.0
 40
1.0
 40
1.0
 10
2.2987715157
 20
-13.3124963037
 30
0.0
 10
2.2904405235
 20
-12.8705991016
 30
0.0
 10
2.1410760533
 20
-12.1883177894
 30
0.0
 10
1.7549527725
 20
-11.3413585344
 30
0.0
 10
1.3593000716
 20
-10.714413242
 30
0.0
 10
0.8794944892
 20
-10.1370257312
 30
0.0
 10
0.1623792145
 20
-9.4710287177
 30
0.0
 10
-0.4666346805
 20
-9.082294299
 30
0.0
 10
-0.9071057225
 20
-8.9003164761
 30
0.0
 11
2.2987715157
 21
-13.3124963037
 31
0.0
 11
2.0406361447
 21
-12.01193911
 31
0.0
 11
1.7439414293
 21
-11.3557269105
 31
0.0
 11
1.3480798728
 21
-10.7267043111
 31
0.0
 11
0.8669526584
 21
-10.1472991139
 31
0.0
 11
0.3175151371
 21
-9.6382051886
 31
0.0
 11
-0.9071057225
 21
-8.9003164761
 31
0.0
  0
SPLINE
  5
40F
100
AcDbEntity
  8
RACCORDO
100
AcDbSpline
 62
7
  6
CONTINUOUS
 70
0
 71
3
 72
11
 73
7
 74
5
 42
0.0000001
 43
0.0000001
 44
0.0000000001
 12
-0.0046565888
 22
-0.083089663
 32
0.0
 13
-0.0628303992
 23
-0.0545702928
 33
0.0
 40
0.0
 40
0.0
 40
0.0
 40
0.0
 40
0.2701799306
 40
0.5262531927
 40
0.7684747231
 40
1.0
 40
1.0
 40
1.0
 40
1.0
 10
-3.5898451633
 20
29.3376987031
 30
0.0
 10
-3.5902645355
 20
29.33021565
 30
0.0
 10
-3.5919951166
 20
29.315663624
 30
0.0
 10
-3.5978742715
 20
29.2950561502
 30
0.0
 10
-3.6072486848
 20
29.2769357828
 30
0.0
 10
-3.6160269292
 20
29.2669258702
 30
0.0
 10
-3.6208758711
 20
29.2627144028
 30
0.0
 11
-3.5898451633
 21
29.3376987031
 31
0.0
 11
-3.5926465541
 21
29.3153895161
 31
0.0
 11
-3.5986638054
 21
29.294946252
 31
0.0
 11
-3.6080900834
 21
29.2771283504
 31
0.0
 11
-3.6208758711
 21
29.2627144028
 31
0.0
  0
SPLINE
  5
410
100
AcDbEntity
  8
0
100
AcDbSpline
 62
7
  6
CONTINUOUS
 70
0
 71
3
 72
9
 73
5
 74
3
 42
0.0000001
 43
0.0000001
 44
0.0000000001
 12
0.0202252696
 22
0.0167811468
 32
0.0
 13
0.0214126095
 23
0.0152370789
 33
0.0
 40
0.0
 40
0.0
 40
0.0
 40
0.0
 40
0.2556788454
 40
1.0
 40
1.0
 40
1.0
 40
1.0
 10
-10.1593586112
 20
30.9851917619
 30
0.0
 10
-10.1576348866
 20
30.9866219566
 30
0.0
 10
-10.1508448789
 20
30.9921570947
 30
0.0
 10
-10.1438585736
 20
30.9974527432
 30
0.0
 10
-10.1385459542
 20
31.0012331699
 30
0.0
 11
-10.1593586112
 21
30.9851917619
 31
0.0
 11
-10.1541499317
 21
30.9894367362
 31
0.0
 11
-10.1385459542
 21
31.0012331699
 31
0.0
  0
LINE
  5
411
100
AcDbEntity
  8
0
100
AcDbLine
 62
7
  6
CONTINUOUS
 10
-15.9355651629
 20
33.1373299772
 11
-15.9352095035
 21
33.1368176402
  0
SPLINE
  5
412
100
AcDbEntity
  8
0
100
AcDbSpline
 62
7
  6
CONTINUOUS
 70
0
 71
3
 72
12
 73
8
 74
6
 42
0.0000001
 43
0.0000001
 44
0.0000000001
 12
0.2773926715
 22
0.2301559993
 32
0.0
 13
0.3398134999
 23
-0.12018845
 33
0.0
 40
0.0
 40
0.0
 40
0.0
 40
0.0
 40
0.3001713997
 40
0.5613915215
 40
0.7899450951
 40
0.8962525941
 40
1.0
 40
1.0
 40
1.0
 40
1.0
 10
-7.5815949208
 20
32.2783633639
 30
0.0
 10
-7.5538398053
 20
32.3013921133
 30
0.0
 10
-7.4988159675
 20
32.3410300411
 30
0.0
 10
-7.4121029477
 20
32.3812811576
 30
0.0
 10
-7.3404658232
 20
32.3941550812
 30
0.0
 10
-7.2876796759
 20
32.3902484628
 30
0.0
 10
-7.2630693358
 20
32.3839751244
 30
0.0
 10
-7.2513177461
 20
32.3798187111
 30
0.0
 11
-7.5815949208
 21
32.2783633639
 31
0.0
 11
-7.4931111324
 21
32.3406260883
 31
0.0
 11
-7.4070668856
 21
32.3788556402
 31
0.0
 11
-7.3257479119
 21
32.3920367543
 31
0.0
 11
-7.2875430722
 21
32.3890980664
 31
0.0
 11
-7.2513177461
 21
32.3798187111
 31
0.0
  0
LINE
  5
413
100
AcDbEntity
  8
0
100
AcDbLine
 62
7
  6
CONTINUOUS
 10
-9.2951761366
 20
30.7886726741
 11
-9.2948214647
 21
30.7881605336
  0
SPLINE
  5
414
100
AcDbEntity
  8
0
100
AcDbSpline
 62
7
  6
CONTINUOUS
 70
0
 71
3
 72
15
 73
11
 74
9
 42
0.0000001
 43
0.0000001
 44
0.0000000001
 12
0.0
 22
0.5612057944
 32
0.0
 13
-0.5290872698
 23
0.1871325856
 33
0.0
 40
0.0
 40
0.0
 40
0.0
 40
0.0
 40
0.1648177359
 40
0.3179694356
 40
0.4587635307
 40
0.5870302228
 40
0.703303523
 40
0.8090187641
 40
0.9067041261
 40
1.0
 40
1.0
 40
1.0
 40
1.0
 10
-12.072147857
 20
33.6736124074
 30
0.0
 10
-12.072147857
 20
33.7044446302
 30
0.0
 10
-12.0742645277
 20
33.7639601611
 30
0.0
 10
-12.0845155333
 20
33.8492797403
 30
0.0
 10
-12.1016150799
 20
33.9265436414
 30
0.0
 10
-12.1253908324
 20
33.9948042289
 30
0.0
 10
-12.1556315271
 20
34.0532308211
 30
0.0
 10
-12.1921352829
 20
34.1010652951
 30
0.0
 10
-12.234599392
 20
34.1375039401
 30
0.0
 10
-12.2668872673
 20
34.1537892159
 30
0.0
 10
-12.2833411537
 20
34.1596087819
 30
0.0
 11
-12.072147857
 21
33.6736124074
 31
0.0
 11
-12.0756824516
 21
33.7660415171
 31
0.0
 11
-12.086240343
 21
33.8513402177
 31
0.0
 11
-12.1036844745
 21
33.9284050442
 31
0.0
 11
-12.1277884156
 21
33.9962334884
 31
0.0
 11
-12.1582393083
 21
34.0539459631
 31
0.0
 11
-12.1946418947
 21
34.100793204
 31
0.0
 11
-12.2365237288
 21
34.1361671893
 31
0.0
 11
-12.2833411537
 21
34.1596087819
 31
0.0
  0
SPLINE
  5
415
100
AcDbEntity
  8
0
100
AcDbSpline
 62
7
  6
CONTINUOUS
 70
0
 71
3
 72
13
 73
9
 74
7
 42
0.0000001
 43
0.0000001
 44
0.0000000001
 12
0.3162963709
 22
0.3700193736
 32
0.0
 13
-0.228861893
 23
0.4296277051
 33
0.0
 40
0.0
 40
0.0
 40
0.0
 40
0.0
 40
0.1067033661
 40
0.2171471748
 40
0.3328191553
 40
0.4546004252
 40
0.716532559
 40
1.0
 40
1.0
 40
1.0
 40
1.0
 10
-9.3910416879
 20
29.7954355186
 30
0.0
 10
-9.3797917254
 20
29.8085962895
 30
0.0
 10
-9.3596238654
 20
29.837827693
 30
0.0
 10
-9.3380069924
 20
29.8876384538
 30
0.0
 10
-9.3249952522
 20
29.9428541214
 30
0.0
 10
-9.3192747075
 20
30.0239783865
 30
0.0
 10
-9.3356693468
 20
30.1323681241
 30
0.0
 10
-9.3694167228
 20
30.2150386481
 30
0.0
 10
-9.3910416879
 20
30.2556338034
 30
0.0
 11
-9.3910416879
 21
29.7954355186
 31
0.0
 11
-9.361435481
 21
29.8381131525
 31
0.0
 11
-9.3398327365
 21
29.8873441661
 31
0.0
 11
-9.326685748
 21
29.9420949908
 31
0.0
 11
-9.3222726631
 21
30.0012115572
 31
0.0
 11
-9.3398327365
 21
30.1275006888
 31
0.0
 11
-9.3910416879
 21
30.2556338034
 31
0.0
  0
SPLINE
  5
416
100
AcDbEntity
  8
0
100
AcDbSpline
 62
7
  6
CONTINUOUS
 70
0
 71
3
 72
11
 73
7
 74
5
 42
0.0000001
 43
0.0000001
 44
0.0000000001
 12
0.0000031874
 22
-0.1679272902
 32
0.0
 13
-0.1265909387
 23
-0.1103372513
 33
0.0
 40
0.0
 40
0.0
 40
0.0
 40
0.0
 40
0.2275505249
 40
0.4651135994
 40
0.7208158825
 40
1.0
 40
1.0
 40
1.0
 40
1.0
 10
-2.9825328789
 20
29.9451807163
 30
0.0
 10
-2.9825326372
 20
29.932443402
 30
0.0
 10
-2.9859626783
 20
29.9062972165
 30
0.0
 10
-3.0010480119
 20
29.8684939414
 30
0.0
 10
-3.0255340382
 20
29.8325114406
 30
0.0
 10
-3.0467278878
 20
29.8111355627
 30
0.0
 10
-3.0585086143
 20
29.8008674267
 30
0.0
 11
-2.9825328789
 21
29.9451807163
 31
0.0
 11
-2.9873976972
 21
29.9072797119
 31
0.0
 11
-3.0019007464
 21
29.870116036
 31
0.0
 11
-3.0257582867
 21
29.8344143677
 31
0.0
 11
-3.0585086143
 21
29.8008674267
 31
0.0
  0
SPLINE
  5
417
100
AcDbEntity
  8
0
100
AcDbSpline
 62
7
  6
CONTINUOUS
 70
0
 71
3
 72
11
 73
7
 74
5
 42
0.0000001
 43
0.0000001
 44
0.0000000001
 12
0.1816644876
 22
0.1292713124
 32
0.0
 13
0.2102280731
 23
-0.0742779613
 33
0.0
 40
0.0
 40
0.0
 40
0.0
 40
0.0
 40
0.2281032016
 40
0.4679479572
 40
0.7251230971
 40
1.0
 40
1.0
 40
1.0
 40
1.0
 10
-10.1385459542
 20
31.0012331699
 30
0.0
 10
-10.1247332038
 20
31.0110622366
 30
0.0
 10
-10.092690653
 20
31.0263771637
 30
0.0
 10
-10.0387098349
 20
31.0339906762
 30
0.0
 10
-9.9812092377
 20
31.0285057778
 30
0.0
 10
-9.9429603627
 20
31.017782092
 30
0.0
 10
-9.9236980821
 20
31.0109763266
 30
0.0
 11
-10.1385459542
 21
31.0012331699
 31
0.0
 11
-10.0928309526
 21
31.0235213342
 31
0.0
 11
-10.0399943083
 21
31.0317710551
 31
0.0
 11
-9.9828514961
 21
31.0270093754
 31
0.0
 11
-9.9236980821
 21
31.0109763266
 31
0.0
  0
SPLINE
  5
418
100
AcDbEntity
  8
0
100
AcDbSpline
 62
7
  6
CONTINUOUS
 70
0
 71
3
 72
11
 73
7
 74
5
 42
0.0000001
 43
0.0000001
 44
0.0000000001
 12
0.1817110357
 22
0.1260887855
 32
0.0
 13
0.2085425333
 23
-0.0736701713
 33
0.0
 40
0.0
 40
0.0
 40
0.0
 40
0.0
 40
0.2281238393
 40
0.4681047552
 40
0.7252931756
 40
1.0
 40
1.0
 40
1.0
 40
1.0
 10
-16.7774734799
 20
33.3509164036
 30
0.0
 10
-16.7636559402
 20
33.3605043562
 30
0.0
 10
-16.7317243354
 20
33.3753705178
 30
0.0
 10
-16.6781415282
 20
33.3826189191
 30
0.0
 10
-16.621127316
 20
33.3770394944
 30
0.0
 10
-16.583205522
 20
33.3663874225
 30
0.0
 10
-16.564109503
 20
33.3596415229
 30
0.0
 11
-16.7774734799
 21
33.3509164036
 31
0.0
 11
-16.731903614
 21
33.3725743461
 31
0.0
 11
-16.6794142794
 21
33.3804519815
 31
0.0
 11
-16.6227407625
 21
33.3755745496
 31
0.0
 11
-16.564109503
 21
33.3596415229
 31
0.0
  0
SPLINE
  5
419
100
AcDbEntity
  8
0
100
AcDbSpline
 62
7
  6
CONTINUOUS
 70
0
 71
3
 72
16
 73
12
 74
10
 42
0.0000001
 43
0.0000001
 44
0.0000000001
 12
-0.0014064349
 22
-0.0950759525
 32
0.0
 13
-0.0774734676
 23
-0.0551296347
 33
0.0
 40
0.0
 40
0.0
 40
0.0
 40
0.0
 40
0.0088708106
 40
0.0235312201
 40
0.0725810675
 40
0.1499452297
 40
0.2573147142
 40
0.3957863322
 40
0.5659844649
 40
0.7678033638
 40
1.0
 40
1.0
 40
1.0
 40
1.0
 10
-15.9352095035
 20
33.1368176402
 30
0.0
 10
-15.9352136623
 20
33.1365365066
 30
0.0
 10
-15.9355334224
 20
33.1358248428
 30
0.0
 10
-15.9368629802
 20
33.1339688347
 30
0.0
 10
-15.9400327499
 20
33.1307628612
 30
0.0
 10
-15.9455303004
 20
33.1258177628
 30
0.0
 10
-15.9534263059
 20
33.1192761057
 30
0.0
 10
-15.9637772995
 20
33.1111102838
 30
0.0
 10
-15.9766628024
 20
33.1013213894
 30
0.0
 10
-15.9920751962
 20
33.0899540893
 30
0.0
 10
-16.0032435703
 20
33.081921891
 30
0.0
 10
-16.0092399298
 20
33.0776549191
 30
0.0
 11
-15.9352095035
 21
33.1368176402
 31
0.0
 11
-15.9354705649
 21
33.1360155632
 31
0.0
 11
-15.9362470279
 21
33.1348578263
 31
0.0
 11
-15.9394164841
 21
33.1314362513
 31
0.0
 11
-15.9448543454
 21
33.1264820145
 31
0.0
 11
-15.9526875512
 21
33.1199343292
 31
0.0
 11
-15.9630104145
 21
33.1117610743
 31
0.0
 11
-15.9758854117
 21
33.1019559344
 31
0.0
 11
-15.9913213815
 21
33.0905543772
 31
0.0
 11
-16.0092399298
 21
33.0776549191
 31
0.0
  0
SPLINE
  5
41A
100
AcDbEntity
  8
0
100
AcDbSpline
 62
7
  6
CONTINUOUS
 70
0
 71
3
 72
12
 73
8
 74
6
 42
0.0000001
 43
0.0000001
 44
0.0000000001
 12
0.0
 22
0.287066235
 32
0.0
 13
0.2189830309
 23
0.1856164201
 33
0.0
 40
0.0
 40
0.0
 40
0.0
 40
0.0
 40
0.2485244097
 40
0.5188158414
 40
0.7788936853
 40
0.8958116477
 40
1.0
 40
1.0
 40
1.0
 40
1.0
 10
-19.2994710787
 20
30.1772977502
 30
0.0
 10
-19.2994710787
 20
30.201078739
 30
0.0
 10
-19.2929455249
 20
30.2507547577
 30
0.0
 10
-19.2701976111
 20
30.3220203206
 30
0.0
 10
-19.2413842728
 20
30.3773575617
 30
0.0
 10
-19.2136756224
 20
30.4142372217
 30
0.0
 10
-19.1987821448
 20
30.4294057384
 30
0.0
 10
-19.1911769844
 20
30.4358520947
 30
0.0
 11
-19.2994710787
 21
30.1772977502
 31
0.0
 11
-19.2912398069
 21
30.24816428
 31
0.0
 11
-19.267790589
 21
30.3221276616
 31
0.0
 11
-19.2326665848
 21
30.3880090348
 31
0.0
 11
-19.2123382858
 21
30.4147157495
 31
0.0
 11
-19.1911769844
 21
30.4358520947
 31
0.0
  0
SPLINE
  5
41B
100
AcDbEntity
  8
0
100
AcDbSpline
 62
7
  6
CONTINUOUS
 70
0
 71
3
 72
16
 73
12
 74
10
 42
0.0000001
 43
0.0000001
 44
0.0000000001
 12
-0.0014029302
 22
-0.0932987989
 32
0.0
 13
-0.0759809676
 23
-0.0541620406
 33
0.0
 40
0.0
 40
0.0
 40
0.0
 40
0.0
 40
0.0089304453
 40
0.0236403336
 40
0.0727578176
 40
0.1501471623
 40
0.2574925784
 40
0.3958996493
 40
0.5660130674
 40
0.7677731045
 40
1.0
 40
1.0
 40
1.0
 40
1.0
 10
-9.2948214647
 20
30.7881605336
 30
0.0
 10
-9.2948256409
 20
30.7878828003
 30
0.0
 10
-9.2951384616
 20
30.7871805791
 30
0.0
 10
-9.2964424435
 20
30.7853513548
 30
0.0
 10
-9.2995502963
 20
30.7821968339
 30
0.0
 10
-9.3049406514
 20
30.7773356284
 30
0.0
 10
-9.3126806279
 20
30.7709092417
 30
0.0
 10
-9.3228265584
 20
30.762889929
 30
0.0
 10
-9.3354578924
 20
30.7532771157
 30
0.0
 10
-9.3505703083
 20
30.7421119927
 30
0.0
 10
-9.3615228312
 20
30.7342215205
 30
0.0
 10
-9.3674044393
 20
30.730028893
 30
0.0
 11
-9.2948214647
 21
30.7881605336
 31
0.0
 11
-9.2950778063
 21
30.7873676478
 31
0.0
 11
-9.2958396329
 21
30.7862259084
 31
0.0
 11
-9.2989479804
 21
30.7828579465
 31
0.0
 11
-9.3042793989
 21
30.7779875285
 31
0.0
 11
-9.3119574902
 21
30.7715552821
 31
0.0
 11
-9.3220751558
 21
30.7635289736
 31
0.0
 11
-9.3346949637
 21
30.7539009919
 31
0.0
 11
-9.3498288279
 21
30.7427033096
 31
0.0
 11
-9.3674044393
 21
30.730028893
 31
0.0
  0
SPLINE
  5
41C
100
AcDbEntity
  8
0
100
AcDbSpline
 62
253
  6
CONTINUOUS
 70
0
 71
3
 72
12
 73
8
 74
6
 42
0.0000001
 43
0.0000001
 44
0.0000000001
 12
0.0
 22
0.2870662345
 32
0.0
 13
0.2189830306
 23
0.1856164199
 33
0.0
 40
0.0
 40
0.0
 40
0.0
 40
0.0
 40
0.2485245263
 40
0.5188160734
 40
0.7788939709
 40
0.895811959
 40
1.0
 40
1.0
 40
1.0
 40
1.0
 10
-17.3705287724
 20
29.4950448897
 30
0.0
 10
-17.3705287724
 20
29.5188258897
 30
0.0
 10
-17.3640032129
 20
29.5685019307
 30
0.0
 10
-17.3412552817
 20
29.6397675163
 30
0.0
 10
-17.3124419291
 20
29.6951047723
 30
0.0
 10
-17.284733275
 20
29.7319844018
 30
0.0
 10
-17.2698398158
 20
29.7471528972
 30
0.0
 10
-17.2622346781
 20
29.7535992343
 30
0.0
 11
-17.3705287724
 21
29.4950448897
 31
0.0
 11
-17.3622974933
 21
29.5659114523
 31
0.0
 11
-17.338848257
 21
29.6398748627
 31
0.0
 11
-17.3037242333
 21
29.7057562429
 31
0.0
 11
-17.2833959195
 21
29.7324629554
 31
0.0
 11
-17.2622346781
 21
29.7535992343
 31
0.0
  0
SPLINE
  5
41D
100
AcDbEntity
  8
0
100
AcDbSpline
 62
253
  6
CONTINUOUS
 70
0
 71
3
 72
12
 73
8
 74
6
 42
0.0000001
 43
0.0000001
 44
0.0000000001
 12
0.0
 22
0.2870662352
 32
0.0
 13
0.2189830311
 23
0.1856164203
 33
0.0
 40
0.0
 40
0.0
 40
0.0
 40
0.0
 40
0.2485241033
 40
0.5188156102
 40
0.7788935774
 40
0.8958115983
 40
1.0
 40
1.0
 40
1.0
 40
1.0
 10
-15.3577194093
 20
28.7831288614
 30
0.0
 10
-15.3577194093
 20
28.806909821
 30
0.0
 10
-15.3511938672
 20
28.8565858177
 30
0.0
 10
-15.3284459667
 20
28.9278513747
 30
0.0
 10
-15.2996326237
 20
28.9831886414
 30
0.0
 10
-15.2719239635
 20
29.0200683219
 30
0.0
 10
-15.2570304791
 20
29.0352368466
 30
0.0
 10
-15.249425315
 20
29.041683206
 30
0.0
 11
-15.3577194093
 21
28.7831288614
 31
0.0
 11
-15.3494881572
 21
28.853995305
 31
0.0
 11
-15.3260389454
 21
28.9279587113
 31
0.0
 11
-15.2909149327
 21
28.9938401202
 31
0.0
 11
-15.2705866259
 21
29.02054685
 31
0.0
 11
-15.249425315
 21
29.041683206
 31
0.0
  0
SPLINE
  5
41E
100
AcDbEntity
  8
0
100
AcDbSpline
 62
253
  6
CONTINUOUS
 70
0
 71
3
 72
11
 73
7
 74
5
 42
0.0000001
 43
0.0000001
 44
0.0000000001
 12
0.3513532511
 22
-0.1227061288
 32
0.0
 13
-0.0013890167
 23
-0.3721612174
 33
0.0
 40
0.0
 40
0.0
 40
0.0
 40
0.0
 40
0.2466235215
 40
0.5079614633
 40
0.7648727889
 40
1.0
 40
1.0
 40
1.0
 40
1.0
 10
-7.3833575138
 20
27.360228565
 30
0.0
 10
-7.3544735218
 20
27.3501411591
 30
0.0
 10
-7.2985651264
 20
27.3184790305
 30
0.0
 10
-7.2316074605
 20
27.2496996975
 30
0.0
 10
-7.1859919873
 20
27.1668307546
 30
0.0
 10
-7.1735845548
 20
27.1055762163
 30
0.0
 10
-7.1736934201
 20
27.0764078066
 30
0.0
 11
-7.3833575138
 21
27.360228565
 31
0.0
 11
-7.3028815949
 21
27.3160924886
 31
0.0
 11
-7.2347772082
 21
27.2466561721
 31
0.0
 11
-7.1894124899
 21
27.1624902243
 31
0.0
 11
-7.1736934201
 21
27.0764078066
 31
0.0
  0
SPLINE
  5
41F
100
AcDbEntity
  8
0
100
AcDbSpline
 62
7
  6
CONTINUOUS
 70
0
 71
3
 72
11
 73
7
 74
5
 42
0.0000001
 43
0.0000001
 44
0.0000000001
 12
0.3505818234
 22
-0.1239982404
 32
0.0
 13
-0.0
 23
-0.3718644626
 33
0.0
 40
0.0
 40
0.0
 40
0.0
 40
0.0
 40
0.2465164487
 40
0.5080432526
 40
0.7651022993
 40
1.0
 40
1.0
 40
1.0
 40
1.0
 10
-7.7889624025
 20
27.0193543772
 30
0.0
 10
-7.7601543404
 20
27.0091651752
 30
0.0
 10
-7.7044018261
 20
26.9773405166
 30
0.0
 10
-7.6375713564
 20
26.9085324865
 30
0.0
 10
-7.5919003904
 20
26.8257899321
 30
0.0
 10
-7.5792983087
 20
26.7646503212
 30
0.0
 10
-7.5792983087
 20
26.7355336188
 30
0.0
 11
-7.7889624025
 21
27.0193543772
 31
0.0
 11
-7.7087274259
 21
26.9750162784
 31
0.0
 11
-7.6407072254
 21
26.9055086829
 31
0.0
 11
-7.59525788
 21
26.8214133796
 31
0.0
 11
-7.5792983087
 21
26.7355336188
 31
0.0
  0
SPLINE
  5
420
100
AcDbEntity
  8
0
100
AcDbSpline
 62
253
  6
CONTINUOUS
 70
0
 71
3
 72
11
 73
7
 74
5
 42
0.0000001
 43
0.0000001
 44
0.0000000001
 12
0.3497930873
 22
-0.1253128661
 32
0.0
 13
0.0014208182
 23
-0.3715595506
 33
0.0
 40
0.0
 40
0.0
 40
0.0
 40
0.0
 40
0.2464090259
 40
0.5081241653
 40
0.7653310092
 40
1.0
 40
1.0
 40
1.0
 40
1.0
 10
-9.0261777646
 20
25.983851453
 30
0.0
 10
-8.99744704
 20
25.9735587126
 30
0.0
 10
-8.9418534359
 20
25.9415694023
 30
0.0
 10
-8.8751520785
 20
25.8727323779
 30
0.0
 10
-8.8294248447
 20
25.7901177729
 30
0.0
 10
-8.8166248115
 20
25.7290951962
 30
0.0
 10
-8.8165136708
 20
25.7000306946
 30
0.0
 11
-9.0261777646
 21
25.983851453
 31
0.0
 11
-8.9461874974
 21
25.9393080748
 31
0.0
 11
-8.8782536497
 21
25.8697287323
 31
0.0
 11
-8.8327183928
 21
25.7857058102
 31
0.0
 11
-8.8165136708
 21
25.7000306946
 31
0.0
  0
SPLINE
  5
421
100
AcDbEntity
  8
0
100
AcDbSpline
 62
253
  6
CONTINUOUS
 70
0
 71
3
 72
11
 73
7
 74
5
 42
0.0000001
 43
0.0000001
 44
0.0000000001
 12
0.3513532511
 22
-0.1227061288
 32
0.0
 13
-0.0013890167
 23
-0.3721612174
 33
0.0
 40
0.0
 40
0.0
 40
0.0
 40
0.0
 40
0.2466235215
 40
0.5079614633
 40
0.7648727889
 40
1.0
 40
1.0
 40
1.0
 40
1.0
 10
-21.9762253961
 20
32.5216197703
 30
0.0
 10
-21.947341404
 20
32.5115323644
 30
0.0
 10
-21.8914330086
 20
32.4798702357
 30
0.0
 10
-21.8244753427
 20
32.4110909027
 30
0.0
 10
-21.7788598695
 20
32.3282219599
 30
0.0
 10
-21.7664524371
 20
32.2669674216
 30
0.0
 10
-21.7665613023
 20
32.2377990119
 30
0.0
 11
-21.9762253961
 21
32.5216197703
 31
0.0
 11
-21.8957494771
 21
32.4774836938
 31
0.0
 11
-21.8276450904
 21
32.4080473774
 31
0.0
 11
-21.7822803722
 21
32.3238814295
 31
0.0
 11
-21.7665613023
 21
32.2377990119
 31
0.0
  0
SPLINE
  5
422
100
AcDbEntity
  8
0
100
AcDbSpline
 62
7
  6
CONTINUOUS
 70
0
 71
3
 72
11
 73
7
 74
5
 42
0.0000001
 43
0.0000001
 44
0.0000000001
 12
0.3505818234
 22
-0.1239982404
 32
0.0
 13
-0.0
 23
-0.3718644626
 33
0.0
 40
0.0
 40
0.0
 40
0.0
 40
0.0
 40
0.2465164487
 40
0.5080432526
 40
0.7651022993
 40
1.0
 40
1.0
 40
1.0
 40
1.0
 10
-22.3818302847
 20
32.1807455824
 30
0.0
 10
-22.3530222227
 20
32.1705563805
 30
0.0
 10
-22.2972697084
 20
32.1387317219
 30
0.0
 10
-22.2304392386
 20
32.0699236917
 30
0.0
 10
-22.1847682727
 20
31.9871811373
 30
0.0
 10
-22.172166191
 20
31.9260415265
 30
0.0
 10
-22.172166191
 20
31.896924824
 30
0.0
 11
-22.3818302847
 21
32.1807455824
 31
0.0
 11
-22.3015953082
 21
32.1364074836
 31
0.0
 11
-22.2335751077
 21
32.0668998882
 31
0.0
 11
-22.1881257623
 21
31.9828045849
 31
0.0
 11
-22.172166191
 21
31.896924824
 31
0.0
  0
SPLINE
  5
423
100
AcDbEntity
  8
0
100
AcDbSpline
 62
253
  6
CONTINUOUS
 70
0
 71
3
 72
11
 73
7
 74
5
 42
0.0000001
 43
0.0000001
 44
0.0000000001
 12
0.3497930871
 22
-0.125312866
 32
0.0
 13
0.0014208182
 23
-0.3715595504
 33
0.0
 40
0.0
 40
0.0
 40
0.0
 40
0.0
 40
0.2464091935
 40
0.5081242877
 40
0.7653310673
 40
1.0
 40
1.0
 40
1.0
 40
1.0
 10
-23.6190456469
 20
31.1452426583
 30
0.0
 10
-23.5903149027
 20
31.1349499108
 30
0.0
 10
-23.5347212888
 20
31.1029605837
 30
0.0
 10
-23.4680199353
 20
31.0341235471
 30
0.0
 10
-23.4222927201
 20
30.9515089557
 30
0.0
 10
-23.4094926937
 20
30.8904863942
 30
0.0
 10
-23.4093815531
 20
30.8614218999
 30
0.0
 11
-23.6190456469
 21
31.1452426583
 31
0.0
 11
-23.5390553305
 21
31.1006992405
 31
0.0
 11
-23.4711215044
 21
31.0311199004
 31
0.0
 11
-23.4255862671
 21
30.9470969949
 31
0.0
 11
-23.4093815531
 21
30.8614218999
 31
0.0
  0
SPLINE
  5
424
100
AcDbEntity
  8
0
100
AcDbSpline
 62
253
  6
CONTINUOUS
 70
0
 71
3
 72
12
 73
8
 74
6
 42
0.0000001
 43
0.0000001
 44
0.0000000001
 12
-0.1288805443
 22
0.0455841109
 32
0.0
 13
-0.0000023917
 23
0.1367044471
 33
0.0
 40
0.0
 40
0.0
 40
0.0
 40
0.0
 40
0.3053529265
 40
0.5708748867
 40
0.7975418925
 40
0.9005241536
 40
1.0
 40
1.0
 40
1.0
 40
1.0
 10
-15.3577194093
 20
28.7831288614
 30
0.0
 10
-15.3708374265
 20
28.7877686086
 30
0.0
 10
-15.3947635763
 20
28.7984301629
 30
0.0
 10
-15.4243981926
 20
28.8200113077
 30
0.0
 10
-15.4411655257
 20
28.8421200583
 30
0.0
 10
-15.4477143542
 20
28.8606926743
 30
0.0
 10
-15.4487915172
 20
28.869950477
 30
0.0
 10
-15.4487915965
 20
28.8744834072
 30
0.0
 11
-15.3577194093
 21
28.7831288614
 31
0.0
 11
-15.3956564921
 21
28.8005433495
 31
0.0
 11
-15.4245548954
 21
28.8225076266
 31
0.0
 11
-15.4426376838
 21
28.847670476
 31
0.0
 11
-15.4472471549
 21
28.8609726039
 31
0.0
 11
-15.4487915965
 21
28.8744834072
 31
0.0
  0
SPLINE
  5
425
100
AcDbEntity
  8
0
100
AcDbSpline
 62
253
  6
CONTINUOUS
 70
0
 71
3
 72
11
 73
7
 74
5
 42
0.0000001
 43
0.0000001
 44
0.0000000001
 12
-0.127519008
 22
0.0451025454
 32
0.0
 13
-0.1031788515
 23
-0.0874612006
 33
0.0
 40
0.0
 40
0.0
 40
0.0
 40
0.0
 40
0.2773975106
 40
0.533779314
 40
0.7721641755
 40
1.0
 40
1.0
 40
1.0
 40
1.0
 10
-15.249425315
 20
29.041683206
 30
0.0
 10
-15.2612164668
 20
29.0458536506
 30
0.0
 10
-15.284742201
 20
29.0518002344
 30
0.0
 10
-15.3198845767
 20
29.0526220876
 30
0.0
 10
-15.351939491
 20
29.0447734396
 30
0.0
 10
-15.3702744386
 20
29.033692481
 30
0.0
 10
-15.3781103848
 20
29.0270502161
 30
0.0
 11
-15.249425315
 21
29.041683206
 31
0.0
 11
-15.2858756942
 21
29.0505817832
 31
0.0
 11
-15.3205507088
 21
29.0510568296
 31
0.0
 11
-15.3517939062
 21
29.0430857574
 31
0.0
 11
-15.3781103848
 21
29.0270502161
 31
0.0
  0
SPLINE
  5
426
100
AcDbEntity
  8
0
100
AcDbSpline
 62
253
  6
CONTINUOUS
 70
0
 71
3
 72
13
 73
9
 74
7
 42
0.0000001
 43
0.0000001
 44
0.0000000001
 12
0.0
 22
-0.1401842663
 32
0.0
 13
0.1321544742
 23
-0.0467634845
 33
0.0
 40
0.0
 40
0.0
 40
0.0
 40
0.0
 40
0.3179226499
 40
0.5867110372
 40
0.703074386
 40
0.8088732692
 40
0.9066338773
 40
1.0
 40
1.0
 40
1.0
 40
1.0
 10
-23.7544132647
 20
30.4928144289
 30
0.0
 10
-23.7544132647
 20
30.4779585111
 30
0.0
 10
-23.7525762518
 20
30.4504888305
 30
0.0
 10
-23.7441241963
 20
30.4183779641
 30
0.0
 10
-23.733547794
 20
30.397915991
 30
0.0
 10
-23.7244219142
 20
30.3859578502
 30
0.0
 10
-23.7138084753
 20
30.3768470023
 30
0.0
 10
-23.7057379084
 20
30.3727741933
 30
0.0
 10
-23.7016249914
 20
30.3713188182
 30
0.0
 11
-23.7544132647
 21
30.4928144289
 31
0.0
 11
-23.7508908071
 21
30.4483860941
 31
0.0
 11
-23.7405058235
 21
30.4121655585
 31
0.0
 11
-23.7328946316
 21
30.3977377646
 31
0.0
 11
-23.7237956492
 21
30.3860255005
 31
0.0
 11
-23.7133272786
 21
30.3771809251
 31
0.0
 11
-23.7016249914
 21
30.3713188182
 31
0.0
  0
SPLINE
  5
427
100
AcDbEntity
  8
0
100
AcDbSpline
 62
253
  6
CONTINUOUS
 70
0
 71
3
 72
13
 73
9
 74
7
 42
0.0000001
 43
0.0000001
 44
0.0000000001
 12
0.0
 22
-0.1401936786
 32
0.0
 13
0.132171907
 23
-0.0467424275
 33
0.0
 40
0.0
 40
0.0
 40
0.0
 40
0.0
 40
0.3179280347
 40
0.5867159148
 40
0.703077347
 40
0.8088740033
 40
0.9066331559
 40
1.0
 40
1.0
 40
1.0
 40
1.0
 10
-25.7452589393
 20
31.1969620604
 30
0.0
 10
-25.7452589393
 20
31.1821048935
 30
0.0
 10
-25.7434216467
 20
31.1546331325
 30
0.0
 10
-25.734968096
 20
31.1225201036
 30
0.0
 10
-25.7243897821
 20
31.1020575865
 30
0.0
 10
-25.715262296
 20
31.090099689
 30
0.0
 10
-25.7046470049
 20
31.0809897093
 30
0.0
 10
-25.6965752034
 20
31.0769180136
 30
0.0
 10
-25.6924617122
 20
31.0754632827
 30
0.0
 11
-25.7452589393
 21
31.1969620604
 31
0.0
 11
-25.7417358422
 21
31.1525300172
 31
0.0
 11
-25.731349006
 21
31.116307455
 31
0.0
 11
-25.7237364891
 21
31.1018794256
 31
0.0
 11
-25.7146359591
 21
31.0901674982
 31
0.0
 11
-25.7041658641
 21
31.0813238544
 31
0.0
 11
-25.6924617122
 21
31.0754632827
 31
0.0
  0
SPLINE
  5
428
100
AcDbEntity
  8
0
100
AcDbSpline
 62
7
  6
CONTINUOUS
 70
0
 71
3
 72
11
 73
7
 74
5
 42
0.0000001
 43
0.0000001
 44
0.0000000001
 12
-0.1267991397
 22
0.0448479333
 32
0.0
 13
-0.1035088095
 23
-0.0858794813
 33
0.0
 40
0.0
 40
0.0
 40
0.0
 40
0.0
 40
0.2768016412
 40
0.5330544852
 40
0.7717166303
 40
1.0
 40
1.0
 40
1.0
 40
1.0
 10
-15.0853998918
 20
29.1807159508
 30
0.0
 10
-15.0970992952
 20
29.1848539447
 30
0.0
 10
-15.120457126
 20
29.1907647587
 30
0.0
 10
-15.1553739066
 20
29.1916396183
 30
0.0
 10
-15.1872982409
 20
29.183969982
 30
0.0
 10
-15.2056400187
 20
29.1730925133
 30
0.0
 10
-15.2135164654
 20
29.1665575608
 30
0.0
 11
-15.0853998918
 21
29.1807159508
 31
0.0
 11
-15.1215626267
 21
29.1895617346
 31
0.0
 11
-15.1560235498
 21
29.1901020491
 31
0.0
 11
-15.1871631978
 21
29.1823119705
 31
0.0
 11
-15.2135164654
 21
29.1665575608
 31
0.0
  0
SPLINE
  5
429
100
AcDbEntity
  8
0
100
AcDbSpline
 62
253
  6
CONTINUOUS
 70
0
 71
3
 72
12
 73
8
 74
6
 42
0.0000001
 43
0.0000001
 44
0.0000000001
 12
-0.0841545537
 22
-0.2921522541
 32
0.0
 13
-0.3036039006
 23
0.0161121094
 33
0.0
 40
0.0
 40
0.0
 40
0.0
 40
0.0
 40
0.2636184136
 40
0.5178250927
 40
0.761759726
 40
0.881337502
 40
1.0
 40
1.0
 40
1.0
 40
1.0
 10
-23.4093815531
 20
30.5321866013
 30
0.0
 10
-23.4167764497
 20
30.5065143633
 30
0.0
 10
-23.4387464258
 20
30.4578381231
 30
0.0
 10
-23.4911838885
 20
30.3994803098
 30
0.0
 10
-23.5473514264
 20
30.3687161376
 30
0.0
 10
-23.5951974777
 20
30.3577133124
 30
0.0
 10
-23.6194920993
 20
30.3567215209
 30
0.0
 10
-23.6315008984
 20
30.357358822
 30
0.0
 11
-23.4093815531
 21
30.5321866013
 31
0.0
 11
-23.4426900749
 21
30.4592875132
 31
0.0
 11
-23.4947566034
 21
30.4021708131
 31
0.0
 11
-23.5600178894
 21
30.3669398287
 31
0.0
 11
-23.5954530895
 21
30.3588121434
 31
0.0
 11
-23.6315008984
 21
30.357358822
 31
0.0
  0
SPLINE
  5
42A
100
AcDbEntity
  8
0
100
AcDbSpline
 62
7
  6
CONTINUOUS
 70
0
 71
3
 72
11
 73
7
 74
5
 42
0.0000001
 43
0.0000001
 44
0.0000000001
 12
0.2804723632
 22
-0.0992010344
 32
0.0
 13
0.0
 23
-0.2974988937
 33
0.0
 40
0.0
 40
0.0
 40
0.0
 40
0.0
 40
0.2465170553
 40
0.5080437213
 40
0.7651021789
 40
1.0
 40
1.0
 40
1.0
 40
1.0
 10
-17.0982092549
 20
29.8926319791
 30
0.0
 10
-17.0751621812
 20
29.8844803968
 30
0.0
 10
-17.0305591332
 20
29.8590197015
 30
0.0
 10
-16.9770941449
 20
29.8039712837
 30
0.0
 10
-16.9405568802
 20
29.737775497
 30
0.0
 10
-16.9304751413
 20
29.6888626385
 30
0.0
 10
-16.9304751413
 20
29.6655686912
 30
0.0
 11
-17.0982092549
 21
29.8926319791
 31
0.0
 11
-17.0340197229
 21
29.8571602005
 31
0.0
 11
-16.9796028217
 21
29.8015522267
 31
0.0
 11
-16.9432429475
 21
29.7342742583
 31
0.0
 11
-16.9304751413
 21
29.6655686912
 31
0.0
  0
SPLINE
  5
42B
100
AcDbEntity
  8
0
100
AcDbSpline
 62
253
  6
CONTINUOUS
 70
0
 71
3
 72
11
 73
7
 74
5
 42
0.0000001
 43
0.0000001
 44
0.0000000001
 12
0.0253905942
 22
-0.0467663313
 32
0.0
 13
-0.0264410968
 23
-0.0461805199
 33
0.0
 40
0.0
 40
0.0
 40
0.0
 40
0.0
 40
0.3090036599
 40
0.5720626037
 40
0.7971863254
 40
1.0
 40
1.0
 40
1.0
 40
1.0
 10
-21.7665613023
 20
31.9012448493
 30
0.0
 10
-21.7639460401
 20
31.8964278601
 30
0.0
 10
-21.759627025
 20
31.8871973888
 30
0.0
 10
-21.7559563527
 20
31.8734390167
 30
0.0
 10
-21.7557827098
 20
31.8610170378
 30
0.0
 10
-21.7582756772
 20
31.8536387746
 30
0.0
 10
-21.7600632158
 20
31.8505167609
 30
0.0
 11
-21.7665613023
 21
31.9012448493
 31
0.0
 11
-21.7597717593
 21
31.8862685702
 31
0.0
 11
-21.7563987516
 21
31.8726824941
 31
0.0
 11
-21.756496784
 21
31.8607030722
 31
0.0
 11
-21.7600632158
 21
31.8505167609
 31
0.0
  0
SPLINE
  5
42C
100
AcDbEntity
  8
0
100
AcDbSpline
 62
253
  6
CONTINUOUS
 70
0
 71
3
 72
11
 73
7
 74
5
 42
0.0000001
 43
0.0000001
 44
0.0000000001
 12
0.2803055539
 22
-0.0991420352
 32
0.0
 13
0.0011268874
 23
-0.2973198224
 33
0.0
 40
0.0
 40
0.0
 40
0.0
 40
0.0
 40
0.2467369871
 40
0.5084625193
 40
0.7654897131
 40
1.0
 40
1.0
 40
1.0
 40
1.0
 10
-17.2622346781
 20
29.7535992343
 30
0.0
 10
-17.2391807622
 20
29.7454452319
 30
0.0
 10
-17.1945553273
 20
29.7200205238
 30
0.0
 10
-17.1409687229
 20
29.6651123355
 30
0.0
 10
-17.1042301363
 20
29.5991136898
 30
0.0
 10
-17.0939549407
 20
29.5503146187
 30
0.0
 10
-17.0938668518
 20
29.5270730998
 30
0.0
 11
-17.2622346781
 21
29.7535992343
 31
0.0
 11
-17.1979975279
 21
29.7181686587
 31
0.0
 11
-17.143443263
 21
29.6626774126
 31
0.0
 11
-17.1068774598
 21
29.5955735213
 31
0.0
 11
-17.0938668518
 21
29.5270730998
 31
0.0
  0
SPLINE
  5
42D
100
AcDbEntity
  8
0
100
AcDbSpline
 62
253
  6
CONTINUOUS
 70
0
 71
3
 72
13
 73
9
 74
7
 42
0.0000001
 43
0.0000001
 44
0.0000000001
 12
0.0
 22
-0.1401885038
 32
0.0
 13
0.1321623452
 23
-0.046753942
 33
0.0
 40
0.0
 40
0.0
 40
0.0
 40
0.0
 40
0.3179248536
 40
0.5867131134
 40
0.7030756355
 40
0.8088735456
 40
0.9066335175
 40
1.0
 40
1.0
 40
1.0
 40
1.0
 10
-9.1615453825
 20
25.3314232237
 30
0.0
 10
-9.1615453825
 20
25.3165667539
 30
0.0
 10
-9.1597082446
 20
25.2890961425
 30
0.0
 10
-9.1512555217
 20
25.2569843052
 30
0.0
 10
-9.1406782589
 20
25.2365220782
 30
0.0
 10
-9.1315516538
 20
25.2245640435
 30
0.0
 10
-9.1209373801
 20
25.2154535821
 30
0.0
 10
-9.1128662556
 20
25.2113812708
 30
0.0
 10
-9.1087530778
 20
25.2099261871
 30
0.0
 11
-9.1615453825
 21
25.3314232237
 31
0.0
 11
-9.1580226418
 21
25.28699325
 31
0.0
 11
-9.1476368257
 21
25.2507717868
 31
0.0
 11
-9.1400250371
 21
25.2363438812
 31
0.0
 11
-9.1309253564
 21
25.2246317647
 31
0.0
 11
-9.1204562089
 21
25.2157876052
 31
0.0
 11
-9.1087530778
 21
25.2099261871
 31
0.0
  0
SPLINE
  5
42E
100
AcDbEntity
  8
0
100
AcDbSpline
 62
253
  6
CONTINUOUS
 70
0
 71
3
 72
12
 73
8
 74
6
 42
0.0000001
 43
0.0000001
 44
0.0000000001
 12
0.271936185
 22
-0.0961818503
 32
0.0
 13
0.2210080022
 23
0.1853529067
 33
0.0
 40
0.0
 40
0.0
 40
0.0
 40
0.0
 40
0.2571445862
 40
0.5276697293
 40
0.7829552362
 40
0.8973130377
 40
1.0
 40
1.0
 40
1.0
 40
1.0
 10
-17.3705287724
 20
29.4950448897
 30
0.0
 10
-17.3472197998
 20
29.4868006757
 30
0.0
 10
-17.2969517512
 20
29.4765062785
 30
0.0
 10
-17.2212501164
 20
29.4770291573
 30
0.0
 10
-17.1604671498
 20
29.4903938292
 30
0.0
 10
-17.1189243987
 20
29.5090775685
 30
0.0
 10
-17.1014317319
 20
29.5207286575
 30
0.0
 10
-17.0938668518
 20
29.5270730998
 30
0.0
 11
-17.3705287724
 21
29.4950448897
 31
0.0
 11
-17.2980481424
 21
29.4792957412
 31
0.0
 11
-17.2200186325
 21
29.4798520789
 31
0.0
 11
-17.1483196694
 21
29.4966293124
 31
0.0
 11
-17.1183412626
 21
29.5103902506
 31
0.0
 11
-17.0938668518
 21
29.5270730998
 31
0.0
  0
SPLINE
  5
42F
100
AcDbEntity
  8
0
100
AcDbSpline
 62
253
  6
CONTINUOUS
 70
0
 71
3
 72
13
 73
9
 74
7
 42
0.0000001
 43
0.0000001
 44
0.0000000001
 12
0.0
 22
-0.1401939272
 32
0.0
 13
0.1321723323
 23
-0.0467419704
 33
0.0
 40
0.0
 40
0.0
 40
0.0
 40
0.0
 40
0.3179281836
 40
0.5867160553
 40
0.7030774407
 40
0.8088740376
 40
0.9066331597
 40
1.0
 40
1.0
 40
1.0
 40
1.0
 10
-11.1523910571
 20
26.0355708552
 30
0.0
 10
-11.1523910571
 20
26.020713655
 30
0.0
 10
-11.1505537568
 20
25.9932418386
 30
0.0
 10
-11.1421001668
 20
25.9611287516
 30
0.0
 10
-11.1315218011
 20
25.9406662204
 30
0.0
 10
-11.1223942732
 20
25.9287083283
 30
0.0
 10
-11.1117789324
 20
25.9195983726
 30
0.0
 10
-11.1037070981
 20
25.9155267102
 30
0.0
 10
-11.0995935937
 20
25.9140719935
 30
0.0
 11
-11.1523910571
 21
26.0355708552
 31
0.0
 11
-11.1488679429
 21
25.9911387132
 31
0.0
 11
-11.1384810574
 21
25.9549160968
 31
0.0
 11
-11.1308685049
 21
25.9404880609
 31
0.0
 11
-11.1217679343
 21
25.9287761422
 31
0.0
 11
-11.1112977919
 21
25.9199325236
 31
0.0
 11
-11.0995935937
 21
25.9140719935
 31
0.0
  0
SPLINE
  5
430
100
AcDbEntity
  8
0
100
AcDbSpline
 62
7
  6
CONTINUOUS
 70
0
 71
3
 72
11
 73
7
 74
5
 42
0.0000001
 43
0.0000001
 44
0.0000000001
 12
-0.1770137616
 22
-0.3025613616
 32
0.0
 13
-0.3500494753
 23
0.0185098404
 33
0.0
 40
0.0
 40
0.0
 40
0.0
 40
0.0
 40
0.2457858112
 40
0.4990557589
 40
0.7535270728
 40
1.0
 40
1.0
 40
1.0
 40
1.0
 10
-8.2669953932
 20
25.3416356941
 30
0.0
 10
-8.2814978835
 20
25.3168472642
 30
0.0
 10
-8.3174175714
 20
25.2700748407
 30
0.0
 10
-8.3865338585
 20
25.2142187545
 30
0.0
 10
-8.4674668261
 20
25.1769768376
 30
0.0
 10
-8.5267458992
 20
25.1688103048
 30
0.0
 10
-8.5555051388
 20
25.1703310297
 30
0.0
 11
-8.2669953932
 21
25.3416356941
 31
0.0
 11
-8.3192694402
 21
25.2731483204
 31
0.0
 11
-8.3883924716
 21
25.2174343224
 31
0.0
 11
-8.4697505439
 21
25.1808575513
 31
0.0
 11
-8.5555051388
 21
25.1703310297
 31
0.0
  0
SPLINE
  5
431
100
AcDbEntity
  8
0
100
AcDbSpline
 62
253
  6
CONTINUOUS
 70
0
 71
3
 72
12
 73
8
 74
6
 42
0.0000001
 43
0.0000001
 44
0.0000000001
 12
-0.0841545597
 22
-0.2921522751
 32
0.0
 13
-0.3036039205
 23
0.0161121461
 33
0.0
 40
0.0
 40
0.0
 40
0.0
 40
0.0
 40
0.2636183038
 40
0.5178250151
 40
0.7617596885
 40
0.8813374845
 40
1.0
 40
1.0
 40
1.0
 40
1.0
 10
-8.8165136708
 20
25.370795396
 30
0.0
 10
-8.8239085649
 20
25.345123167
 30
0.0
 10
-8.8458785366
 20
25.2964469302
 30
0.0
 10
-8.8983159955
 20
25.2380891105
 30
0.0
 10
-8.9544835458
 20
25.2073249297
 30
0.0
 10
-9.0023296091
 20
25.1963221052
 30
0.0
 10
-9.0266242364
 20
25.1953303153
 30
0.0
 10
-9.0386330381
 20
25.1959676179
 30
0.0
 11
-8.8165136708
 21
25.370795396
 31
0.0
 11
-8.8498221774
 21
25.2978963314
 31
0.0
 11
-8.9018887112
 21
25.2407796154
 31
0.0
 11
-8.9671500121
 21
25.2055486216
 31
0.0
 11
-9.0025852211
 21
25.1974209365
 31
0.0
 11
-9.0386330381
 21
25.1959676179
 31
0.0
  0
SPLINE
  5
432
100
AcDbEntity
  8
0
100
AcDbSpline
 62
253
  6
CONTINUOUS
 70
0
 71
3
 72
11
 73
7
 74
5
 42
0.0000001
 43
0.0000001
 44
0.0000000001
 12
0.0253905942
 22
-0.0467663313
 32
0.0
 13
-0.0264410968
 23
-0.0461805199
 33
0.0
 40
0.0
 40
0.0
 40
0.0
 40
0.0
 40
0.3090036599
 40
0.5720626037
 40
0.7971863254
 40
1.0
 40
1.0
 40
1.0
 40
1.0
 10
-7.1736934201
 20
26.7398536441
 30
0.0
 10
-7.1710781579
 20
26.7350366549
 30
0.0
 10
-7.1667591428
 20
26.7258061836
 30
0.0
 10
-7.1630884704
 20
26.7120478115
 30
0.0
 10
-7.1629148276
 20
26.6996258326
 30
0.0
 10
-7.1654077949
 20
26.6922475693
 30
0.0
 10
-7.1671953336
 20
26.6891255557
 30
0.0
 11
-7.1736934201
 21
26.7398536441
 31
0.0
 11
-7.1669038771
 21
26.724877365
 31
0.0
 11
-7.1635308694
 21
26.7112912889
 31
0.0
 11
-7.1636289018
 21
26.6993118669
 31
0.0
 11
-7.1671953336
 21
26.6891255557
 31
0.0
  0
SPLINE
  5
433
100
AcDbEntity
  8
0
100
AcDbSpline
 62
7
  6
CONTINUOUS
 70
0
 71
3
 72
11
 73
7
 74
5
 42
0.0000001
 43
0.0000001
 44
0.0000000001
 12
0.3500467227
 22
-0.0185348165
 32
0.0
 13
0.17701304
 23
0.3025601282
 33
0.0
 40
0.0
 40
0.0
 40
0.0
 40
0.0
 40
0.2464742921
 40
0.5009448857
 40
0.7542142843
 40
1.0
 40
1.0
 40
1.0
 40
1.0
 10
-23.1483714765
 20
30.3317213001
 30
0.0
 10
-23.1196123038
 20
30.3301985149
 30
0.0
 10
-23.0603334352
 20
30.3383699761
 30
0.0
 10
-22.9794009393
 20
30.3756101067
 30
0.0
 10
-22.9102851672
 20
30.431466506
 30
0.0
 10
-22.874365701
 20
30.4782385801
 30
0.0
 10
-22.8598632755
 20
30.5030268993
 30
0.0
 11
-23.1483714765
 21
30.3317213001
 31
0.0
 11
-23.0626169244
 21
30.342249206
 31
0.0
 11
-22.9812595498
 21
30.3788260263
 31
0.0
 11
-22.9121370524
 21
30.4345398035
 31
0.0
 11
-22.8598632755
 21
30.5030268993
 31
0.0
  0
SPLINE
  5
434
100
AcDbEntity
  8
0
100
AcDbSpline
 62
253
  6
CONTINUOUS
 70
0
 71
3
 72
11
 73
7
 74
5
 42
0.0000001
 43
0.0000001
 44
0.0000000001
 12
0.1293421882
 22
0.1110464219
 32
0.0
 13
0.160942988
 23
-0.0561966554
 33
0.0
 40
0.0
 40
0.0
 40
0.0
 40
0.0
 40
0.2279541275
 40
0.4664095138
 40
0.7227676247
 40
1.0
 40
1.0
 40
1.0
 40
1.0
 10
-25.7719440903
 20
31.8300784138
 30
0.0
 10
-25.7621160617
 20
31.8385162438
 30
0.0
 10
-25.7390834164
 20
31.8526292882
 30
0.0
 10
-25.698729512
 20
31.862753118
 30
0.0
 10
-25.6544385523
 20
31.8619443166
 30
0.0
 10
-25.6247641904
 20
31.8545834672
 30
0.0
 10
-25.6098913215
 20
31.8493902898
 30
0.0
 11
-25.7719440903
 21
31.8300784138
 31
0.0
 11
-25.7388834441
 21
31.8505008957
 31
0.0
 11
-25.6995525775
 21
31.8607723658
 31
0.0
 11
-25.6558523119
 21
31.8603961639
 31
0.0
 11
-25.6098913215
 21
31.8493902898
 31
0.0
  0
SPLINE
  5
435
100
AcDbEntity
  8
0
100
AcDbSpline
 62
253
  6
CONTINUOUS
 70
0
 71
3
 72
11
 73
7
 74
5
 42
0.0000001
 43
0.0000001
 44
0.0000000001
 12
0.1293387549
 22
0.1033225855
 32
0.0
 13
0.1558463096
 23
-0.0558211248
 33
0.0
 40
0.0
 40
0.0
 40
0.0
 40
0.0
 40
0.2286070412
 40
0.4674924012
 40
0.7236441591
 40
1.0
 40
1.0
 40
1.0
 40
1.0
 10
-24.1397443129
 20
33.2149668251
 30
0.0
 10
-24.1298883962
 20
33.2228402486
 30
0.0
 10
-24.1070874543
 20
33.2358709198
 30
0.0
 10
-24.0676843899
 20
33.2448810672
 30
0.0
 10
-24.0247451042
 20
33.243490946
 30
0.0
 10
-23.9960651446
 20
33.2360868242
 30
0.0
 10
-23.9817087986
 20
33.2309446596
 30
0.0
 11
-24.1397443129
 21
33.2149668251
 31
0.0
 11
-24.1069540086
 21
33.2338603417
 31
0.0
 11
-24.0684846467
 21
33.2430230249
 31
0.0
 11
-24.026092322
 21
33.2420361694
 31
0.0
 11
-23.9817087986
 21
33.2309446596
 31
0.0
  0
SPLINE
  5
436
100
AcDbEntity
  8
0
100
AcDbSpline
 62
7
  6
CONTINUOUS
 70
0
 71
3
 72
11
 73
7
 74
5
 42
0.0000001
 43
0.0000001
 44
0.0000000001
 12
0.1294607914
 22
0.0899805379
 32
0.0
 13
0.1486365189
 23
-0.0525716554
 33
0.0
 40
0.0
 40
0.0
 40
0.0
 40
0.0
 40
0.2283192359
 40
0.4679255841
 40
0.7244288398
 40
1.0
 40
1.0
 40
1.0
 40
1.0
 10
-24.546388098
 20
32.8813549318
 30
0.0
 10
-24.5365353017
 20
32.8882030277
 30
0.0
 10
-24.5141685837
 20
32.8993188337
 30
0.0
 10
-24.4763877294
 20
32.9065490982
 30
0.0
 10
-24.4355570678
 20
32.9045651101
 30
0.0
 10
-24.4083000569
 20
32.8974931981
 30
0.0
 10
-24.3946467443
 20
32.8926641207
 30
0.0
 11
-24.546388098
 21
32.8813549318
 31
0.0
 11
-24.5142231685
 21
32.8975161022
 31
0.0
 11
-24.477181145
 21
32.9049279454
 31
0.0
 11
-24.4367741527
 21
32.9032885205
 31
0.0
 11
-24.3946467443
 21
32.8926641207
 31
0.0
  0
SPLINE
  5
437
100
AcDbEntity
  8
0
100
AcDbSpline
 62
253
  6
CONTINUOUS
 70
0
 71
3
 72
11
 73
7
 74
5
 42
0.0000001
 43
0.0000001
 44
0.0000000001
 12
0.1293421882
 22
0.1110464219
 32
0.0
 13
0.160942988
 23
-0.0561966554
 33
0.0
 40
0.0
 40
0.0
 40
0.0
 40
0.0
 40
0.2279541275
 40
0.4664095138
 40
0.7227676247
 40
1.0
 40
1.0
 40
1.0
 40
1.0
 10
-11.179076208
 20
26.6686872085
 30
0.0
 10
-11.1692481795
 20
26.6771250386
 30
0.0
 10
-11.1462155341
 20
26.6912380829
 30
0.0
 10
-11.1058616298
 20
26.7013619128
 30
0.0
 10
-11.0615706701
 20
26.7005531113
 30
0.0
 10
-11.0318963082
 20
26.6931922619
 30
0.0
 10
-11.0170234392
 20
26.6879990845
 30
0.0
 11
-11.179076208
 21
26.6686872085
 31
0.0
 11
-11.1460155619
 21
26.6891096905
 31
0.0
 11
-11.1066846952
 21
26.6993811605
 31
0.0
 11
-11.0629844296
 21
26.6990049586
 31
0.0
 11
-11.0170234392
 21
26.6879990845
 31
0.0
  0
SPLINE
  5
438
100
AcDbEntity
  8
0
100
AcDbSpline
 62
253
  6
CONTINUOUS
 70
0
 71
3
 72
11
 73
7
 74
5
 42
0.0000001
 43
0.0000001
 44
0.0000000001
 12
0.12940573
 22
0.1010495969
 32
0.0
 13
0.1545694533
 23
-0.0553637796
 33
0.0
 40
0.0
 40
0.0
 40
0.0
 40
0.0
 40
0.2285922585
 40
0.4675987071
 40
0.7237920181
 40
1.0
 40
1.0
 40
1.0
 40
1.0
 10
-9.5458016445
 20
28.0544245102
 30
0.0
 10
-9.5359412618
 20
28.0621242288
 30
0.0
 10
-9.513206879
 20
28.0748271483
 30
0.0
 10
-9.4740763625
 20
28.0835231458
 30
0.0
 10
-9.4315012569
 20
28.0820138454
 30
0.0
 10
-9.4030720219
 20
28.0746507603
 30
0.0
 10
-9.3888409163
 20
28.0695534544
 30
0.0
 11
-9.5458016445
 21
28.0544245102
 31
0.0
 11
-9.513104866
 21
28.0728510126
 31
0.0
 11
-9.4748753909
 21
28.0817050148
 31
0.0
 11
-9.4328269766
 21
28.0805892395
 31
0.0
 11
-9.3888409163
 21
28.0695534544
 31
0.0
  0
SPLINE
  5
439
100
AcDbEntity
  8
0
100
AcDbSpline
 62
7
  6
CONTINUOUS
 70
0
 71
3
 72
11
 73
7
 74
5
 42
0.0000001
 43
0.0000001
 44
0.0000000001
 12
0.1294607914
 22
0.0899805379
 32
0.0
 13
0.1486365189
 23
-0.0525716554
 33
0.0
 40
0.0
 40
0.0
 40
0.0
 40
0.0
 40
0.2283192359
 40
0.4679255841
 40
0.7244288398
 40
1.0
 40
1.0
 40
1.0
 40
1.0
 10
-9.9535202157
 20
27.7199637266
 30
0.0
 10
-9.9436674194
 20
27.7268118225
 30
0.0
 10
-9.9213007015
 20
27.7379276285
 30
0.0
 10
-9.8835198471
 20
27.745157893
 30
0.0
 10
-9.8426891855
 20
27.7431739048
 30
0.0
 10
-9.8154321747
 20
27.7361019928
 30
0.0
 10
-9.801778862
 20
27.7312729155
 30
0.0
 11
-9.9535202157
 21
27.7199637266
 31
0.0
 11
-9.9213552863
 21
27.736124897
 31
0.0
 11
-9.8843132628
 21
27.7435367401
 31
0.0
 11
-9.8439062704
 21
27.7418973153
 31
0.0
 11
-9.801778862
 21
27.7312729155
 31
0.0
  0
SPLINE
  5
43A
100
AcDbEntity
  8
0
100
AcDbSpline
 62
7
  6
CONTINUOUS
 70
0
 71
3
 72
12
 73
8
 74
6
 42
0.0000001
 43
0.0000001
 44
0.0000000001
 12
-0.3398134999
 22
0.12018845
 32
0.0
 13
-0.2773926715
 23
-0.2301559993
 33
0.0
 40
0.0
 40
0.0
 40
0.0
 40
0.0
 40
0.1037474059
 40
0.2100549049
 40
0.4386084785
 40
0.6998286003
 40
1.0
 40
1.0
 40
1.0
 40
1.0
 10
-12.2833411537
 20
34.1596087819
 30
0.0
 10
-12.2950927435
 20
34.1637651952
 30
0.0
 10
-12.3197030836
 20
34.1700385336
 30
0.0
 10
-12.3724892309
 20
34.173945152
 30
0.0
 10
-12.4441263554
 20
34.1610712283
 30
0.0
 10
-12.5308393751
 20
34.1208201119
 30
0.0
 10
-12.585863213
 20
34.0811821841
 30
0.0
 10
-12.6136183284
 20
34.0581534346
 30
0.0
 11
-12.2833411537
 21
34.1596087819
 31
0.0
 11
-12.3195664799
 21
34.1688881372
 31
0.0
 11
-12.3577713196
 21
34.1718268251
 31
0.0
 11
-12.4390902933
 21
34.158645711
 31
0.0
 11
-12.5251345401
 21
34.120416159
 31
0.0
 11
-12.6136183284
 21
34.0581534346
 31
0.0
  0
SPLINE
  5
43B
100
AcDbEntity
  8
0
100
AcDbSpline
 62
7
  6
CONTINUOUS
 70
0
 71
3
 72
11
 73
7
 74
5
 42
0.0000001
 43
0.0000001
 44
0.0000000001
 12
0.1905344216
 22
0.3260137087
 32
0.0
 13
-0.1442892346
 23
0.3489540384
 33
0.0
 40
0.0
 40
0.0
 40
0.0
 40
0.0
 40
0.2224458446
 40
0.4624690827
 40
0.7222564573
 40
1.0
 40
1.0
 40
1.0
 40
1.0
 10
-12.359720546
 20
27.3210090004
 30
0.0
 10
-12.3455926826
 20
27.3451824654
 30
0.0
 10
-12.3240527338
 20
27.4002762117
 30
0.0
 10
-12.314264609
 20
27.4915054998
 30
0.0
 10
-12.3256815088
 20
27.5893982017
 30
0.0
 10
-12.3463620783
 20
27.6542704487
 30
0.0
 10
-12.359720546
 20
27.6865770257
 30
0.0
 11
-12.359720546
 21
27.3210090004
 31
0.0
 11
-12.3284048223
 21
27.3989506571
 31
0.0
 11
-12.3177870176
 21
27.4889614291
 31
0.0
 11
-12.3284048223
 21
27.5864830817
 31
0.0
 11
-12.359720546
 21
27.6865770257
 31
0.0
  0
SPLINE
  5
43C
100
AcDbEntity
  8
0
100
AcDbSpline
 62
7
  6
CONTINUOUS
 70
0
 71
3
 72
13
 73
9
 74
7
 42
0.0000001
 43
0.0000001
 44
0.0000000001
 12
0.7016806662
 22
-0.2481793468
 32
0.0
 13
0.0
 23
-0.7442773311
 33
0.0
 40
0.0
 40
0.0
 40
0.0
 40
0.0
 40
0.1205801789
 40
0.2469823667
 40
0.5081534796
 40
0.6386005712
 40
0.7654694587
 40
1.0
 40
1.0
 40
1.0
 40
1.0
 10
-7.1599837664
 20
25.0356810168
 30
0.0
 10
-7.1317808396
 20
25.0257058468
 30
0.0
 10
-7.0757828643
 20
24.9999852218
 30
0.0
 10
-6.9703966917
 20
24.9301843335
 30
0.0
 10
-6.8794693293
 20
24.8365625916
 30
0.0
 10
-6.8102241726
 20
24.7277218891
 30
0.0
 10
-6.7598661748
 20
24.6163671204
 30
0.0
 10
-6.7413596932
 20
24.5262747673
 30
0.0
 10
-6.7413596932
 20
24.4680895122
 30
0.0
 11
-7.1599837664
 21
25.0356810168
 31
0.0
 11
-7.0782412989
 21
24.9986357626
 31
0.0
 11
-6.9996599688
 21
24.9469086142
 31
0.0
 11
-6.8638347666
 21
24.8078526816
 31
0.0
 11
-6.8118073678
 21
24.7258808119
 31
0.0
 11
-6.7731684907
 21
24.6397225965
 31
0.0
 11
-6.7413596932
 21
24.4680895122
 31
0.0
  0
SPLINE
  5
43D
100
AcDbEntity
  8
0
100
AcDbSpline
 62
253
  6
CONTINUOUS
 70
0
 71
3
 72
11
 73
7
 74
5
 42
0.0000001
 43
0.0000001
 44
0.0000000001
 12
-0.0848874758
 22
0.0300217387
 32
0.0
 13
-0.0692938437
 23
-0.0574939264
 33
0.0
 40
0.0
 40
0.0
 40
0.0
 40
0.0
 40
0.2094265291
 40
0.4381646635
 40
0.6995855617
 40
1.0
 40
1.0
 40
1.0
 40
1.0
 10
-21.8936551016
 20
32.5469830192
 30
0.0
 10
-21.8995809981
 20
32.5490788021
 30
0.0
 10
-21.9128944402
 20
32.5511453307
 30
0.0
 10
-21.9338370667
 20
32.5473420412
 30
0.0
 10
-21.9555355885
 20
32.5372893008
 30
0.0
 10
-21.969286439
 20
32.5273771055
 30
0.0
 10
-21.9762253961
 20
32.5216197703
 30
0.0
 11
-21.8936551016
 21
32.5469830192
 31
0.0
 11
-21.9122627413
 21
32.5500379725
 31
0.0
 11
-21.932592978
 21
32.5467427085
 31
0.0
 11
-21.9541038785
 21
32.5371858476
 31
0.0
 11
-21.9762253961
 21
32.5216197703
 31
0.0
  0
SPLINE
  5
43E
100
AcDbEntity
  8
0
100
AcDbSpline
 62
253
  6
CONTINUOUS
 70
0
 71
3
 72
11
 73
7
 74
5
 42
0.0000001
 43
0.0000001
 44
0.0000000001
 12
-0.0848874758
 22
0.0300217387
 32
0.0
 13
-0.0692938437
 23
-0.0574939264
 33
0.0
 40
0.0
 40
0.0
 40
0.0
 40
0.0
 40
0.2094265291
 40
0.4381646635
 40
0.6995855617
 40
1.0
 40
1.0
 40
1.0
 40
1.0
 10
-23.8991385041
 20
33.2563079086
 30
0.0
 10
-23.9050644006
 20
33.2584036914
 30
0.0
 10
-23.9183778428
 20
33.26047022
 30
0.0
 10
-23.9393204692
 20
33.2566669306
 30
0.0
 10
-23.9610189911
 20
33.2466141902
 30
0.0
 10
-23.9747698415
 20
33.2367019948
 30
0.0
 10
-23.9817087986
 20
33.2309446596
 30
0.0
 11
-23.8991385041
 21
33.2563079086
 31
0.0
 11
-23.9177461438
 21
33.2593628619
 31
0.0
 11
-23.9380763805
 21
33.2560675979
 31
0.0
 11
-23.9595872811
 21
33.2465107369
 31
0.0
 11
-23.9817087986
 21
33.2309446596
 31
0.0
  0
SPLINE
  5
43F
100
AcDbEntity
  8
0
100
AcDbSpline
 62
253
  6
CONTINUOUS
 70
0
 71
3
 72
11
 73
7
 74
5
 42
0.0000001
 43
0.0000001
 44
0.0000000001
 12
-0.0848874758
 22
0.0300217387
 32
0.0
 13
-0.0692938437
 23
-0.0574939264
 33
0.0
 40
0.0
 40
0.0
 40
0.0
 40
0.0
 40
0.2094265291
 40
0.4381646635
 40
0.6995855617
 40
1.0
 40
1.0
 40
1.0
 40
1.0
 10
-7.3007872194
 20
27.385591814
 30
0.0
 10
-7.3067131158
 20
27.3876875968
 30
0.0
 10
-7.320026558
 20
27.3897541254
 30
0.0
 10
-7.3409691844
 20
27.385950836
 30
0.0
 10
-7.3626677063
 20
27.3758980956
 30
0.0
 10
-7.3764185568
 20
27.3659859002
 30
0.0
 10
-7.3833575138
 20
27.360228565
 30
0.0
 11
-7.3007872194
 21
27.385591814
 31
0.0
 11
-7.319394859
 21
27.3886467673
 31
0.0
 11
-7.3397250957
 21
27.3853515033
 31
0.0
 11
-7.3612359963
 21
27.3757946423
 31
0.0
 11
-7.3833575138
 21
27.360228565
 31
0.0
  0
SPLINE
  5
440
100
AcDbEntity
  8
0
100
AcDbSpline
 62
253
  6
CONTINUOUS
 70
0
 71
3
 72
11
 73
7
 74
5
 42
0.0000001
 43
0.0000001
 44
0.0000000001
 12
-0.0848874795
 22
0.0300217092
 32
0.0
 13
-0.0692938388
 23
-0.0574939224
 33
0.0
 40
0.0
 40
0.0
 40
0.0
 40
0.0
 40
0.2094266507
 40
0.4381649014
 40
0.6995859862
 40
1.0
 40
1.0
 40
1.0
 40
1.0
 10
-9.3062706273
 20
28.0949167057
 30
0.0
 10
-9.3121965275
 20
28.0970124877
 30
0.0
 10
-9.3255099762
 20
28.0990790144
 30
0.0
 10
-9.3464526133
 20
28.0952757179
 30
0.0
 10
-9.3681511263
 20
28.0852229712
 30
0.0
 10
-9.3819019696
 20
28.075310781
 30
0.0
 10
-9.3888409163
 20
28.0695534544
 30
0.0
 11
-9.3062706273
 21
28.0949167057
 31
0.0
 11
-9.3248782773
 21
28.0979716558
 31
0.0
 11
-9.345208522
 21
28.0946763852
 31
0.0
 11
-9.3667194332
 21
28.0851195109
 31
0.0
 11
-9.3888409163
 21
28.0695534544
 31
0.0
  0
SPLINE
  5
441
100
AcDbEntity
  8
0
100
AcDbSpline
 62
7
  6
CONTINUOUS
 70
0
 71
3
 72
13
 73
9
 74
7
 42
0.0000001
 43
0.0000001
 44
0.0000000001
 12
0.0
 22
0.7451057347
 32
0.0
 13
-0.7024616584
 23
0.2484555781
 33
0.0
 40
0.0
 40
0.0
 40
0.0
 40
0.0
 40
0.2346088404
 40
0.3615330761
 40
0.4920229596
 40
0.6236420176
 40
0.753844025
 40
1.0
 40
1.0
 40
1.0
 40
1.0
 10
-6.7402617924
 20
24.467907317
 30
0.0
 10
-6.7402617924
 20
24.5261767811
 30
0.0
 10
-6.7588726228
 20
24.6164097174
 30
0.0
 10
-6.8094177244
 20
24.7278470571
 30
0.0
 10
-6.8615776491
 20
24.809612361
 30
0.0
 10
-6.9250060252
 20
24.884020167
 30
0.0
 10
-7.0193705972
 20
24.9680573989
 30
0.0
 10
-7.1023453882
 20
25.0152947418
 30
0.0
 10
-7.1599837664
 20
25.0356810168
 30
0.0
 11
-6.7402617924
 21
24.467907317
 31
0.0
 11
-6.7722187216
 21
24.6397698456
 31
0.0
 11
-6.8110131958
 21
24.7260185986
 31
0.0
 11
-6.8632194554
 21
24.8080426092
 31
0.0
 11
-6.9268288389
 21
24.8826857186
 31
0.0
 11
-6.9993934797
 21
24.947076246
 31
0.0
 11
-7.1599837664
 21
25.0356810168
 31
0.0
  0
SPLINE
  5
442
100
AcDbEntity
  8
0
100
AcDbSpline
 62
253
  6
CONTINUOUS
 70
0
 71
3
 72
11
 73
7
 74
5
 42
0.0000001
 43
0.0000001
 44
0.0000000001
 12
0.0000006656
 22
-0.0860043957
 32
0.0
 13
-0.0655479459
 23
-0.055679645
 33
0.0
 40
0.0
 40
0.0
 40
0.0
 40
0.0
 40
0.2268182149
 40
0.4640143068
 40
0.7199518219
 40
1.0
 40
1.0
 40
1.0
 40
1.0
 10
-21.7270175379
 20
31.9747371687
 30
0.0
 10
-21.7270174876
 20
31.9682347142
 30
0.0
 10
-21.7288094516
 20
31.9548735599
 30
0.0
 10
-21.736676842
 20
31.9355899206
 30
0.0
 10
-21.7494295483
 20
31.9172776302
 30
0.0
 10
-21.7604424414
 20
31.9064425104
 30
0.0
 10
-21.7665613023
 20
31.9012448493
 30
0.0
 11
-21.7270175379
 21
31.9747371687
 31
0.0
 11
-21.7295527765
 21
31.9553952506
 31
0.0
 11
-21.737107087
 21
31.9364456178
 31
0.0
 11
-21.7495272213
 21
31.9182726307
 31
0.0
 11
-21.7665613023
 21
31.9012448493
 31
0.0
  0
SPLINE
  5
443
100
AcDbEntity
  8
0
100
AcDbSpline
 62
253
  6
CONTINUOUS
 70
0
 71
3
 72
11
 73
7
 74
5
 42
0.0000001
 43
0.0000001
 44
0.0000000001
 12
0.0000006294
 22
-0.086004396
 32
0.0
 13
-0.0655479461
 23
-0.0556796452
 33
0.0
 40
0.0
 40
0.0
 40
0.0
 40
0.0
 40
0.2268181367
 40
0.4640141428
 40
0.7199516412
 40
1.0
 40
1.0
 40
1.0
 40
1.0
 10
-21.7270175377
 20
32.3112913315
 30
0.0
 10
-21.7270174902
 20
32.3047888793
 30
0.0
 10
-21.7288094496
 20
32.29142773
 30
0.0
 10
-21.7366768354
 20
32.2721440936
 30
0.0
 10
-21.7494295425
 20
32.2538318011
 30
0.0
 10
-21.7604424374
 20
32.2429966763
 30
0.0
 10
-21.7665613023
 20
32.2377990119
 30
0.0
 11
-21.7270175377
 21
32.3112913315
 31
0.0
 11
-21.7295527749
 21
32.29194942
 31
0.0
 11
-21.7371070797
 21
32.2729997928
 31
0.0
 11
-21.7495272117
 21
32.2548268058
 31
0.0
 11
-21.7665613023
 21
32.2377990119
 31
0.0
  0
SPLINE
  5
444
100
AcDbEntity
  8
0
100
AcDbSpline
 62
253
  6
CONTINUOUS
 70
0
 71
3
 72
12
 73
8
 74
6
 42
0.0000001
 43
0.0000001
 44
0.0000000001
 12
-0.1611006753
 22
0.0569801368
 32
0.0
 13
-0.0000013224
 23
0.1708805535
 33
0.0
 40
0.0
 40
0.0
 40
0.0
 40
0.0
 40
0.3053528247
 40
0.5708749167
 40
0.7975418989
 40
0.900524156
 40
1.0
 40
1.0
 40
1.0
 40
1.0
 10
-11.1523910571
 20
26.0355708552
 30
0.0
 10
-11.1687885725
 20
26.0413705371
 30
0.0
 10
-11.1986962622
 20
26.0546974801
 30
0.0
 10
-11.2357395285
 20
26.0816739026
 30
0.0
 10
-11.2566987136
 20
26.1093098566
 30
0.0
 10
-11.2648846886
 20
26.1325256257
 30
0.0
 10
-11.2662312535
 20
26.144097875
 30
0.0
 10
-11.2662312974
 20
26.1497640374
 30
0.0
 11
-11.1523910571
 21
26.0355708552
 31
0.0
 11
-11.1998123944
 21
26.057338955
 31
0.0
 11
-11.2359354172
 21
26.0847943116
 31
0.0
 11
-11.2585388881
 21
26.1162478773
 31
0.0
 11
-11.2643007251
 21
26.1328755366
 31
0.0
 11
-11.2662312974
 21
26.1497640374
 31
0.0
  0
SPLINE
  5
445
100
AcDbEntity
  8
0
100
AcDbSpline
 62
253
  6
CONTINUOUS
 70
0
 71
3
 72
12
 73
8
 74
6
 42
0.0000001
 43
0.0000001
 44
0.0000000001
 12
-0.1610899557
 22
0.0569763454
 32
0.0
 13
-0.0000279344
 23
0.1708691809
 33
0.0
 40
0.0
 40
0.0
 40
0.0
 40
0.0
 40
0.3053488971
 40
0.5708714279
 40
0.7975416489
 40
0.9005248381
 40
1.0
 40
1.0
 40
1.0
 40
1.0
 10
-11.1523910571
 20
26.3648061538
 30
0.0
 10
-11.1687872705
 20
26.3706053752
 30
0.0
 10
-11.1986928341
 20
26.3839311511
 30
0.0
 10
-11.2357342778
 20
26.4109047044
 30
0.0
 10
-11.2566940031
 20
26.4385373952
 30
0.0
 10
-11.2648822059
 20
26.4617507975
 30
0.0
 10
-11.2662303701
 20
26.4733220688
 30
0.0
 10
-11.2662312964
 20
26.4789878153
 30
0.0
 11
-11.1523910571
 21
26.3648061538
 31
0.0
 11
-11.1998088061
 21
26.3865721395
 31
0.0
 11
-11.2359303711
 21
26.4140245488
 31
0.0
 11
-11.2585349833
 21
26.4454748019
 31
0.0
 11
-11.2642984294
 21
26.4621008327
 31
0.0
 11
-11.2662312964
 21
26.4789878153
 31
0.0
  0
SPLINE
  5
446
100
AcDbEntity
  8
0
100
AcDbSpline
 62
253
  6
CONTINUOUS
 70
0
 71
3
 72
13
 73
9
 74
7
 42
0.0000001
 43
0.0000001
 44
0.0000000001
 12
0.339107844
 22
-0.1199399774
 32
0.0
 13
0.2770384953
 23
0.2294109854
 33
0.0
 40
0.0
 40
0.0
 40
0.0
 40
0.0
 40
0.2567678582
 40
0.5269545697
 40
0.6583454567
 40
0.7826384147
 40
0.8971108139
 40
1.0
 40
1.0
 40
1.0
 40
1.0
 10
-9.1615453825
 20
25.6606585223
 30
0.0
 10
-9.1325213842
 20
25.6503929453
 30
0.0
 10
-9.0699661469
 20
25.6375475461
 30
0.0
 10
-8.9904612832
 20
25.6379884505
 30
0.0
 10
-8.9281687977
 20
25.6484779407
 30
0.0
 10
-8.8854594008
 20
25.6609884735
 30
0.0
 10
-8.8479296065
 20
25.6777273555
 30
0.0
 10
-8.8260150926
 20
25.6921627248
 30
0.0
 10
-8.8165136708
 20
25.7000306946
 30
0.0
 11
-9.1615453825
 21
25.6606585223
 31
0.0
 11
-9.0713021522
 21
25.6410083231
 31
0.0
 11
-8.9741193455
 21
25.6415857118
 31
0.0
 11
-8.9275355498
 21
25.6495547356
 31
0.0
 11
-8.8846844055
 21
25.662303584
 31
0.0
 11
-8.8472014066
 21
25.6793449372
 31
0.0
 11
-8.8165136708
 21
25.7000306946
 31
0.0
  0
SPLINE
  5
447
100
AcDbEntity
  8
0
100
AcDbSpline
 62
253
  6
CONTINUOUS
 70
0
 71
3
 72
11
 73
7
 74
5
 42
0.0000001
 43
0.0000001
 44
0.0000000001
 12
0.0000006656
 22
-0.0860043957
 32
0.0
 13
-0.0655479459
 23
-0.055679645
 33
0.0
 40
0.0
 40
0.0
 40
0.0
 40
0.0
 40
0.2268182149
 40
0.4640143068
 40
0.7199518219
 40
1.0
 40
1.0
 40
1.0
 40
1.0
 10
-7.1341496556
 20
26.8133459634
 30
0.0
 10
-7.1341496053
 20
26.8068435089
 30
0.0
 10
-7.1359415694
 20
26.7934823547
 30
0.0
 10
-7.1438089597
 20
26.7741987153
 30
0.0
 10
-7.1565616661
 20
26.7558864249
 30
0.0
 10
-7.1675745591
 20
26.7450513051
 30
0.0
 10
-7.1736934201
 20
26.7398536441
 30
0.0
 11
-7.1341496556
 21
26.8133459634
 31
0.0
 11
-7.1366848943
 21
26.7940040453
 31
0.0
 11
-7.1442392047
 21
26.7750544126
 31
0.0
 11
-7.156659339
 21
26.7568814255
 31
0.0
 11
-7.1736934201
 21
26.7398536441
 31
0.0
  0
SPLINE
  5
448
100
AcDbEntity
  8
0
100
AcDbSpline
 62
253
  6
CONTINUOUS
 70
0
 71
3
 72
13
 73
9
 74
7
 42
0.0000001
 43
0.0000001
 44
0.0000000001
 12
0.3391078437
 22
-0.1199399773
 32
0.0
 13
0.277038495
 23
0.2294109851
 33
0.0
 40
0.0
 40
0.0
 40
0.0
 40
0.0
 40
0.2567680275
 40
0.5269546908
 40
0.6583455447
 40
0.7826384694
 40
0.8971108397
 40
1.0
 40
1.0
 40
1.0
 40
1.0
 10
-9.1615453825
 20
25.3314232237
 30
0.0
 10
-9.1325213651
 20
25.3211576399
 30
0.0
 10
-9.0699661113
 20
25.3083122448
 30
0.0
 10
-8.9904612375
 20
25.3087531552
 30
0.0
 10
-8.9281687668
 20
25.3192426502
 30
0.0
 10
-8.8854593815
 20
25.3317531816
 30
0.0
 10
-8.8479295983
 20
25.3484920622
 30
0.0
 10
-8.8260150902
 20
25.3629274282
 30
0.0
 10
-8.8165136708
 20
25.370795396
 30
0.0
 11
-9.1615453825
 21
25.3314232237
 31
0.0
 11
-9.0713020912
 21
25.3117730192
 31
0.0
 11
-8.974119302
 21
25.312350418
 31
0.0
 11
-8.9275355188
 21
25.3203194444
 31
0.0
 11
-8.8846843868
 21
25.333068292
 31
0.0
 11
-8.8472013984
 21
25.3501096432
 31
0.0
 11
-8.8165136708
 21
25.370795396
 31
0.0
  0
SPLINE
  5
449
100
AcDbEntity
  8
0
100
AcDbSpline
 62
253
  6
CONTINUOUS
 70
0
 71
3
 72
11
 73
7
 74
5
 42
0.0000001
 43
0.0000001
 44
0.0000000001
 12
0.0000006294
 22
-0.086004396
 32
0.0
 13
-0.0655479461
 23
-0.0556796452
 33
0.0
 40
0.0
 40
0.0
 40
0.0
 40
0.0
 40
0.2268181367
 40
0.4640141428
 40
0.7199516412
 40
1.0
 40
1.0
 40
1.0
 40
1.0
 10
-7.1341496555
 20
27.1499001263
 30
0.0
 10
-7.1341496079
 20
27.143397674
 30
0.0
 10
-7.1359415674
 20
27.1300365247
 30
0.0
 10
-7.1438089531
 20
27.1107528883
 30
0.0
 10
-7.1565616602
 20
27.0924405959
 30
0.0
 10
-7.1675745552
 20
27.0816054711
 30
0.0
 10
-7.1736934201
 20
27.0764078066
 30
0.0
 11
-7.1341496555
 21
27.1499001263
 31
0.0
 11
-7.1366848927
 21
27.1305582147
 31
0.0
 11
-7.1442391974
 21
27.1116085876
 31
0.0
 11
-7.1566593295
 21
27.0934356006
 31
0.0
 11
-7.1736934201
 21
27.0764078066
 31
0.0
  0
SPLINE
  5
44A
100
AcDbEntity
  8
0
100
AcDbSpline
 62
253
  6
CONTINUOUS
 70
0
 71
3
 72
13
 73
9
 74
7
 42
0.0000001
 43
0.0000001
 44
0.0000000001
 12
0.3391078433
 22
-0.1199399771
 32
0.0
 13
0.2770384947
 23
0.2294109849
 33
0.0
 40
0.0
 40
0.0
 40
0.0
 40
0.0
 40
0.2567680909
 40
0.5269548165
 40
0.6583456912
 40
0.7826386281
 40
0.8971110165
 40
1.0
 40
1.0
 40
1.0
 40
1.0
 10
-23.7544132647
 20
30.8220497276
 30
0.0
 10
-23.7253892402
 20
30.8117841412
 30
0.0
 10
-23.6628339709
 20
30.7989387458
 30
0.0
 10
-23.5833290789
 20
30.7993796605
 30
0.0
 10
-23.5210365987
 20
30.8098691667
 30
0.0
 10
-23.478327208
 20
30.8223797022
 30
0.0
 10
-23.440797447
 20
30.8391185896
 30
0.0
 10
-23.4188829561
 20
30.8535539455
 30
0.0
 10
-23.4093815531
 20
30.8614218999
 30
0.0
 11
-23.7544132647
 21
30.8220497276
 31
0.0
 11
-23.6641699507
 21
30.802399521
 31
0.0
 11
-23.5669871392
 21
30.8029769271
 31
0.0
 11
-23.5204033496
 21
30.8109459606
 31
0.0
 11
-23.4775522151
 21
30.8236948147
 31
0.0
 11
-23.4400692258
 21
30.8407361794
 31
0.0
 11
-23.4093815531
 21
30.8614218999
 31
0.0
  0
SPLINE
  5
44B
100
AcDbEntity
  8
0
100
AcDbSpline
 62
253
  6
CONTINUOUS
 70
0
 71
3
 72
13
 73
9
 74
7
 42
0.0000001
 43
0.0000001
 44
0.0000000001
 12
0.3391078435
 22
-0.1199399772
 32
0.0
 13
0.2770384948
 23
0.229410985
 33
0.0
 40
0.0
 40
0.0
 40
0.0
 40
0.0
 40
0.2567680607
 40
0.5269547613
 40
0.6583456288
 40
0.7826385605
 40
0.8971109351
 40
1.0
 40
1.0
 40
1.0
 40
1.0
 10
-23.7544132647
 20
30.4928144289
 30
0.0
 10
-23.7253892436
 20
30.4825488438
 30
0.0
 10
-23.6628339811
 20
30.4697034484
 30
0.0
 10
-23.5833290969
 20
30.4701443612
 30
0.0
 10
-23.5210366203
 20
30.4806338626
 30
0.0
 10
-23.4783272325
 20
30.4931443963
 30
0.0
 10
-23.4407974618
 20
30.5098832805
 30
0.0
 10
-23.4188829637
 20
30.5243186407
 30
0.0
 10
-23.4093815531
 20
30.5321866013
 30
0.0
 11
-23.7544132647
 21
30.4928144289
 31
0.0
 11
-23.6641699615
 21
30.4731642234
 31
0.0
 11
-23.5669871589
 21
30.4737416262
 31
0.0
 11
-23.5204033715
 21
30.4817106567
 31
0.0
 11
-23.477552238
 21
30.494459508
 31
0.0
 11
-23.440069251
 21
30.5115008658
 31
0.0
 11
-23.4093815531
 21
30.5321866013
 31
0.0
  0
SPLINE
  5
44C
100
AcDbEntity
  8
0
100
AcDbSpline
 62
253
  6
CONTINUOUS
 70
0
 71
3
 72
12
 73
8
 74
6
 42
0.0000001
 43
0.0000001
 44
0.0000000001
 12
-0.1610941251
 22
0.0569778201
 32
0.0
 13
-0.0000175283
 23
0.1708736048
 33
0.0
 40
0.0
 40
0.0
 40
0.0
 40
0.0
 40
0.3053503703
 40
0.5708727567
 40
0.7975417324
 40
0.9005245657
 40
1.0
 40
1.0
 40
1.0
 40
1.0
 10
-25.7452589393
 20
31.1969620604
 30
0.0
 10
-25.7616556563
 20
31.2027614599
 30
0.0
 10
-25.7915620453
 20
31.2160876889
 30
0.0
 10
-25.8286041983
 20
31.2430623558
 30
0.0
 10
-25.8495637167
 20
31.2706963178
 30
0.0
 10
-25.8577510521
 20
31.2939106421
 30
0.0
 10
-25.8590985981
 20
31.3054822945
 30
0.0
 10
-25.8590991793
 20
31.3111482032
 30
0.0
 11
-25.7452589393
 21
31.1969620604
 31
0.0
 11
-25.7926780759
 21
31.2187288638
 31
0.0
 11
-25.8288002127
 21
31.2461824206
 31
0.0
 11
-25.8514043831
 21
31.2776339637
 31
0.0
 11
-25.857167204
 21
31.2942606289
 31
0.0
 11
-25.8590991793
 21
31.3111482032
 31
0.0
  0
SPLINE
  5
44D
100
AcDbEntity
  8
0
100
AcDbSpline
 62
253
  6
CONTINUOUS
 70
0
 71
3
 72
12
 73
8
 74
6
 42
0.0000001
 43
0.0000001
 44
0.0000000001
 12
-0.1610899557
 22
0.0569763454
 32
0.0
 13
-0.0000279344
 23
0.1708691809
 33
0.0
 40
0.0
 40
0.0
 40
0.0
 40
0.0
 40
0.3053488971
 40
0.5708714279
 40
0.7975416489
 40
0.9005248381
 40
1.0
 40
1.0
 40
1.0
 40
1.0
 10
-25.7452589393
 20
31.5261973591
 30
0.0
 10
-25.7616551528
 20
31.5319965805
 30
0.0
 10
-25.7915607163
 20
31.5453223564
 30
0.0
 10
-25.82860216
 20
31.5722959096
 30
0.0
 10
-25.8495618853
 20
31.5999286005
 30
0.0
 10
-25.8577500882
 20
31.6231420027
 30
0.0
 10
-25.8590982523
 20
31.6347132741
 30
0.0
 10
-25.8590991786
 20
31.6403790205
 30
0.0
 11
-25.7452589393
 21
31.5261973591
 31
0.0
 11
-25.7926766883
 21
31.5479633448
 31
0.0
 11
-25.8287982534
 21
31.575415754
 31
0.0
 11
-25.8514028656
 21
31.6068660071
 31
0.0
 11
-25.8571663117
 21
31.6234920379
 31
0.0
 11
-25.8590991786
 21
31.6403790205
 31
0.0
  0
SPLINE
  5
44E
100
AcDbEntity
  8
0
100
AcDbSpline
 62
7
  6
CONTINUOUS
 70
0
 71
3
 72
9
 73
5
 74
3
 42
0.0000001
 43
0.0000001
 44
0.0000000001
 12
0.0202252696
 22
0.0167811468
 32
0.0
 13
0.0214126095
 23
0.0152370789
 33
0.0
 40
0.0
 40
0.0
 40
0.0
 40
0.0
 40
0.2556788454
 40
1.0
 40
1.0
 40
1.0
 40
1.0
 10
-16.0300525868
 20
33.0616135111
 30
0.0
 10
-16.0283288623
 20
33.0630437058
 30
0.0
 10
-16.0215388546
 20
33.068578844
 30
0.0
 10
-16.0145525492
 20
33.0738744924
 30
0.0
 10
-16.0092399298
 20
33.0776549191
 30
0.0
 11
-16.0300525868
 21
33.0616135111
 31
0.0
 11
-16.0248439073
 21
33.0658584854
 31
0.0
 11
-16.0092399298
 21
33.0776549191
 31
0.0
  0
SPLINE
  5
44F
100
AcDbEntity
  8
0
100
AcDbSpline
 62
253
  6
CONTINUOUS
 70
0
 71
3
 72
13
 73
9
 74
7
 42
0.0000001
 43
0.0000001
 44
0.0000000001
 12
0.0
 22
0.3589592699
 32
0.0
 13
0.2738252686
 23
0.2321023044
 33
0.0
 40
0.0
 40
0.0
 40
0.0
 40
0.0
 40
0.1198249703
 40
0.2487897153
 40
0.5189854055
 40
0.7789714406
 40
0.895849029
 40
1.0
 40
1.0
 40
1.0
 40
1.0
 10
-11.1523910571
 20
26.3648061538
 30
0.0
 10
-11.1523910571
 20
26.3791435818
 30
0.0
 10
-11.1504389262
 20
26.4089284703
 30
0.0
 10
-11.1399215914
 20
26.4702128786
 30
0.0
 10
-11.1157817242
 20
26.5457375699
 30
0.0
 10
-11.0797847546
 20
26.6148781138
 30
0.0
 10
-11.045146284
 20
26.6609809711
 30
0.0
 10
-11.0265298284
 20
26.6799411911
 30
0.0
 10
-11.0170234392
 20
26.6879990845
 30
0.0
 11
-11.1523910571
 21
26.3648061538
 31
0.0
 11
-11.1497939414
 21
26.4077399581
 31
0.0
 11
-11.1421020813
 21
26.4533895532
 31
0.0
 11
-11.1127903273
 21
26.5458435161
 31
0.0
 11
-11.0688856131
 21
26.6281953176
 31
0.0
 11
-11.0434748801
 21
26.6615788078
 31
0.0
 11
-11.0170234392
 21
26.6879990845
 31
0.0
  0
SPLINE
  5
450
100
AcDbEntity
  8
0
100
AcDbSpline
 62
253
  6
CONTINUOUS
 70
0
 71
3
 72
13
 73
9
 74
7
 42
0.0000001
 43
0.0000001
 44
0.0000000001
 12
0.0
 22
0.3589592701
 32
0.0
 13
0.2738252688
 23
0.2321023045
 33
0.0
 40
0.0
 40
0.0
 40
0.0
 40
0.0
 40
0.1198249393
 40
0.2487896525
 40
0.5189852781
 40
0.7789712783
 40
0.8958488491
 40
1.0
 40
1.0
 40
1.0
 40
1.0
 10
-9.1615453825
 20
25.6606585223
 30
0.0
 10
-9.1615453825
 20
25.6749959466
 30
0.0
 10
-9.1595932525
 20
25.7047808276
 30
0.0
 10
-9.149075923
 20
25.7660652212
 30
0.0
 10
-9.1249360658
 20
25.8415898996
 30
0.0
 10
-9.0889391058
 20
25.9107304315
 30
0.0
 10
-9.054300639
 20
25.9568333106
 30
0.0
 10
-9.0356841702
 20
25.9757935456
 30
0.0
 10
-9.0261777646
 20
25.983851453
 30
0.0
 11
-9.1615453825
 21
25.6606585223
 31
0.0
 11
-9.158948268
 21
25.7035923156
 31
0.0
 11
-9.1512564117
 21
25.7492418998
 31
0.0
 11
-9.1219446704
 21
25.8416958424
 31
0.0
 11
-9.0780399703
 21
25.9240476373
 31
0.0
 11
-9.0526292489
 21
25.9574311284
 31
0.0
 11
-9.0261777646
 21
25.983851453
 31
0.0
  0
SPLINE
  5
451
100
AcDbEntity
  8
0
100
AcDbSpline
 62
253
  6
CONTINUOUS
 70
0
 71
3
 72
13
 73
9
 74
7
 42
0.0000001
 43
0.0000001
 44
0.0000000001
 12
0.0
 22
0.3589592699
 32
0.0
 13
0.2738252686
 23
0.2321023044
 33
0.0
 40
0.0
 40
0.0
 40
0.0
 40
0.0
 40
0.1198249703
 40
0.2487897153
 40
0.5189854055
 40
0.7789714406
 40
0.895849029
 40
1.0
 40
1.0
 40
1.0
 40
1.0
 10
-25.7452589393
 20
31.5261973591
 30
0.0
 10
-25.7452589393
 20
31.540534787
 30
0.0
 10
-25.7433068085
 20
31.5703196755
 30
0.0
 10
-25.7327894737
 20
31.6316040838
 30
0.0
 10
-25.7086496064
 20
31.7071287752
 30
0.0
 10
-25.6726526368
 20
31.7762693191
 30
0.0
 10
-25.6380141663
 20
31.8223721763
 30
0.0
 10
-25.6193977107
 20
31.8413323963
 30
0.0
 10
-25.6098913215
 20
31.8493902898
 30
0.0
 11
-25.7452589393
 21
31.5261973591
 31
0.0
 11
-25.7426618237
 21
31.5691311634
 31
0.0
 11
-25.7349699635
 21
31.6147807585
 31
0.0
 11
-25.7056582095
 21
31.7072347213
 31
0.0
 11
-25.6617534953
 21
31.7895865228
 31
0.0
 11
-25.6363427623
 21
31.822970013
 31
0.0
 11
-25.6098913215
 21
31.8493902898
 31
0.0
  0
SPLINE
  5
452
100
AcDbEntity
  8
0
100
AcDbSpline
 62
253
  6
CONTINUOUS
 70
0
 71
3
 72
13
 73
9
 74
7
 42
0.0000001
 43
0.0000001
 44
0.0000000001
 12
0.0
 22
0.3589592699
 32
0.0
 13
0.2738252686
 23
0.2321023044
 33
0.0
 40
0.0
 40
0.0
 40
0.0
 40
0.0
 40
0.1198249703
 40
0.2487897153
 40
0.5189854055
 40
0.7789714406
 40
0.895849029
 40
1.0
 40
1.0
 40
1.0
 40
1.0
 10
-23.7544132647
 20
30.8220497276
 30
0.0
 10
-23.7544132647
 20
30.8363871555
 30
0.0
 10
-23.7524611339
 20
30.866172044
 30
0.0
 10
-23.7419437991
 20
30.9274564523
 30
0.0
 10
-23.7178039318
 20
31.0029811437
 30
0.0
 10
-23.6818069622
 20
31.0721216876
 30
0.0
 10
-23.6471684916
 20
31.1182245448
 30
0.0
 10
-23.6285520361
 20
31.1371847648
 30
0.0
 10
-23.6190456469
 20
31.1452426583
 30
0.0
 11
-23.7544132647
 21
30.8220497276
 31
0.0
 11
-23.7518161491
 21
30.8649835319
 31
0.0
 11
-23.7441242889
 21
30.910633127
 31
0.0
 11
-23.7148125349
 21
31.0030870898
 31
0.0
 11
-23.6709078207
 21
31.0854388913
 31
0.0
 11
-23.6454970877
 21
31.1188223815
 31
0.0
 11
-23.6190456469
 21
31.1452426583
 31
0.0
  0
SPLINE
  5
453
100
AcDbEntity
  8
RACCORDO
100
AcDbSpline
 62
7
  6
CONTINUOUS
 70
0
 71
3
 72
11
 73
7
 74
5
 42
0.0000001
 43
0.0000001
 44
0.0000000001
 12
-0.0046565888
 22
-0.083089663
 32
0.0
 13
-0.0628303992
 23
-0.0545702928
 33
0.0
 40
0.0
 40
0.0
 40
0.0
 40
0.0
 40
0.2701799306
 40
0.5262531927
 40
0.7684747231
 40
1.0
 40
1.0
 40
1.0
 40
1.0
 10
34.1503303943
 20
15.9892731723
 30
0.0
 10
34.149911022
 20
15.9817901192
 30
0.0
 10
34.1481804409
 20
15.9672380932
 30
0.0
 10
34.142301286
 20
15.9466306194
 30
0.0
 10
34.1329268727
 20
15.928510252
 30
0.0
 10
34.1241486284
 20
15.9185003394
 30
0.0
 10
34.1192996865
 20
15.914288872
 30
0.0
 11
34.1503303943
 21
15.9892731723
 31
0.0
 11
34.1475290034
 21
15.9669639853
 31
0.0
 11
34.1415117521
 21
15.9465207212
 31
0.0
 11
34.1320854741
 21
15.9287028196
 31
0.0
 11
34.1192996865
 21
15.914288872
 31
0.0
  0
SPLINE
  5
454
100
AcDbEntity
  8
RACCORDO
100
AcDbSpline
 62
7
  6
CONTINUOUS
 70
0
 71
3
 72
9
 73
5
 74
3
 42
0.0000001
 43
0.0000001
 44
0.0000000001
 12
0.0012028161
 22
-0.0004156493
 32
0.0
 13
0.0000007004
 23
-0.0012726078
 33
0.0
 40
0.0
 40
0.0
 40
0.0
 40
0.0
 40
0.4976282487
 40
1.0
 40
1.0
 40
1.0
 40
1.0
 10
34.1499235847
 20
-17.2549980054
 30
0.0
 10
34.1501231031
 20
-17.2550669517
 30
0.0
 10
34.1505183934
 20
-17.2553072983
 30
0.0
 10
34.1506212761
 20
-17.2557598499
 30
0.0
 10
34.1506213934
 20
-17.2559729573
 30
0.0
 11
34.1499235847
 21
-17.2549980054
 31
0.0
 11
34.1504441083
 21
-17.2553587074
 31
0.0
 11
34.1506213934
 21
-17.2559729573
 31
0.0
  0
SPLINE
  5
455
100
AcDbEntity
  8
RACCORDO
100
AcDbSpline
 62
7
  6
CONTINUOUS
 70
0
 71
3
 72
11
 73
7
 74
5
 42
0.0000001
 43
0.0000001
 44
0.0000000001
 12
-0.0994997055
 22
0.0352638235
 32
0.0
 13
-0.0820459194
 23
-0.0664243611
 33
0.0
 40
0.0
 40
0.0
 40
0.0
 40
0.0
 40
0.272038494
 40
0.5276759818
 40
0.7679594803
 40
1.0
 40
1.0
 40
1.0
 40
1.0
 10
33.7074419424
 20
-17.0984954676
 30
0.0
 10
33.698419359
 20
-17.0952977618
 30
0.0
 10
33.6804327038
 20
-17.0903149311
 30
0.0
 10
33.6532802331
 20
-17.0881603325
 30
0.0
 10
33.6277129415
 20
-17.0927030751
 30
0.0
 10
33.6128244632
 20
-17.1009278959
 30
0.0
 10
33.6064784706
 20
-17.1060656103
 30
0.0
 11
33.7074419424
 21
-17.0984954676
 31
0.0
 11
33.6796955235
 21
-17.0910909261
 31
0.0
 11
33.6527683194
 21
-17.0893092984
 31
0.0
 11
33.627863494
 21
-17.0941203032
 31
0.0
 11
33.6064784706
 21
-17.1060656103
 31
0.0
  0
SPLINE
  5
456
100
AcDbEntity
  8
0
100
AcDbSpline
 62
7
  6
CONTINUOUS
 70
0
 71
3
 72
9
 73
5
 74
3
 42
0.0000001
 43
0.0000001
 44
0.0000000001
 12
0.0202252696
 22
0.0167811468
 32
0.0
 13
0.0214126095
 23
0.0152370789
 33
0.0
 40
0.0
 40
0.0
 40
0.0
 40
0.0
 40
0.2556788454
 40
1.0
 40
1.0
 40
1.0
 40
1.0
 10
27.5808169464
 20
17.6367662311
 30
0.0
 10
27.5825406709
 20
17.6381964258
 30
0.0
 10
27.5893306786
 20
17.6437315639
 30
0.0
 10
27.5963169839
 20
17.6490272124
 30
0.0
 10
27.6016296034
 20
17.6528076391
 30
0.0
 11
27.5808169464
 21
17.6367662311
 31
0.0
 11
27.5860256259
 21
17.6410112054
 31
0.0
 11
27.6016296034
 21
17.6528076391
 31
0.0
  0
LINE
  5
457
100
AcDbEntity
  8
0
100
AcDbLine
 62
7
  6
CONTINUOUS
 10
21.8046103946
 20
19.7889044464
 11
21.804966054
 21
19.7883921094
  0
SPLINE
  5
458
100
AcDbEntity
  8
0
100
AcDbSpline
 62
7
  6
CONTINUOUS
 70
0
 71
3
 72
12
 73
8
 74
6
 42
0.0000001
 43
0.0000001
 44
0.0000000001
 12
0.2773926715
 22
0.2301559993
 32
0.0
 13
0.3398134999
 23
-0.12018845
 33
0.0
 40
0.0
 40
0.0
 40
0.0
 40
0.0
 40
0.3001713997
 40
0.5613915215
 40
0.7899450951
 40
0.8962525941
 40
1.0
 40
1.0
 40
1.0
 40
1.0
 10
30.1585806368
 20
18.9299378331
 30
0.0
 10
30.1863357523
 20
18.9529665826
 30
0.0
 10
30.2413595901
 20
18.9926045104
 30
0.0
 10
30.3280726098
 20
19.0328556268
 30
0.0
 10
30.3997097343
 20
19.0457295504
 30
0.0
 10
30.4524958816
 20
19.041822932
 30
0.0
 10
30.4771062218
 20
19.0355495936
 30
0.0
 10
30.4888578115
 20
19.0313931803
 30
0.0
 11
30.1585806368
 21
18.9299378331
 31
0.0
 11
30.2470644251
 21
18.9922005575
 31
0.0
 11
30.3331086719
 21
19.0304301094
 31
0.0
 11
30.4144276456
 21
19.0436112235
 31
0.0
 11
30.4526324853
 21
19.0406725356
 31
0.0
 11
30.4888578115
 21
19.0313931803
 31
0.0
  0
LINE
  5
459
100
AcDbEntity
  8
0
100
AcDbLine
 62
7
  6
CONTINUOUS
 10
28.4449994209
 20
17.4402471433
 11
28.4453540929
 21
17.4397350028
  0
SPLINE
  5
45A
100
AcDbEntity
  8
0
100
AcDbSpline
 62
7
  6
CONTINUOUS
 70
0
 71
3
 72
15
 73
11
 74
9
 42
0.0000001
 43
0.0000001
 44
0.0000000001
 12
0.0
 22
0.5612057944
 32
0.0
 13
-0.5290872698
 23
0.1871325856
 33
0.0
 40
0.0
 40
0.0
 40
0.0
 40
0.0
 40
0.1648177359
 40
0.3179694356
 40
0.4587635307
 40
0.5870302228
 40
0.703303523
 40
0.8090187641
 40
0.9067041261
 40
1.0
 40
1.0
 40
1.0
 40
1.0
 10
25.6680277005
 20
20.3251868766
 30
0.0
 10
25.6680277005
 20
20.3560190994
 30
0.0
 10
25.6659110298
 20
20.4155346303
 30
0.0
 10
25.6556600243
 20
20.5008542095
 30
0.0
 10
25.6385604776
 20
20.5781181106
 30
0.0
 10
25.6147847252
 20
20.6463786981
 30
0.0
 10
25.5845440304
 20
20.7048052903
 30
0.0
 10
25.5480402746
 20
20.7526397643
 30
0.0
 10
25.5055761655
 20
20.7890784093
 30
0.0
 10
25.4732882902
 20
20.8053636851
 30
0.0
 10
25.4568344038
 20
20.8111832511
 30
0.0
 11
25.6680277005
 21
20.3251868766
 31
0.0
 11
25.664493106
 21
20.4176159863
 31
0.0
 11
25.6539352145
 21
20.5029146869
 31
0.0
 11
25.636491083
 21
20.5799795134
 31
0.0
 11
25.612387142
 21
20.6478079576
 31
0.0
 11
25.5819362492
 21
20.7055204323
 31
0.0
 11
25.5455336628
 21
20.7523676732
 31
0.0
 11
25.5036518287
 21
20.7877416585
 31
0.0
 11
25.4568344038
 21
20.8111832511
 31
0.0
  0
SPLINE
  5
45B
100
AcDbEntity
  8
0
100
AcDbSpline
 62
7
  6
CONTINUOUS
 70
0
 71
3
 72
13
 73
9
 74
7
 42
0.0000001
 43
0.0000001
 44
0.0000000001
 12
0.3162963709
 22
0.3700193736
 32
0.0
 13
-0.228861893
 23
0.4296277051
 33
0.0
 40
0.0
 40
0.0
 40
0.0
 40
0.0
 40
0.1067033661
 40
0.2171471748
 40
0.3328191553
 40
0.4546004252
 40
0.716532559
 40
1.0
 40
1.0
 40
1.0
 40
1.0
 10
28.3491338696
 20
16.4470099878
 30
0.0
 10
28.3603838321
 20
16.4601707587
 30
0.0
 10
28.3805516921
 20
16.4894021622
 30
0.0
 10
28.4021685651
 20
16.539212923
 30
0.0
 10
28.4151803054
 20
16.5944285906
 30
0.0
 10
28.4209008501
 20
16.6755528557
 30
0.0
 10
28.4045062107
 20
16.7839425933
 30
0.0
 10
28.3707588347
 20
16.8666131173
 30
0.0
 10
28.3491338696
 20
16.9072082726
 30
0.0
 11
28.3491338696
 21
16.4470099878
 31
0.0
 11
28.3787400765
 21
16.4896876217
 31
0.0
 11
28.4003428211
 21
16.5389186353
 31
0.0
 11
28.4134898096
 21
16.59366946
 31
0.0
 11
28.4179028945
 21
16.6527860264
 31
0.0
 11
28.4003428211
 21
16.779075158
 31
0.0
 11
28.3491338696
 21
16.9072082726
 31
0.0
  0
SPLINE
  5
45C
100
AcDbEntity
  8
0
100
AcDbSpline
 62
7
  6
CONTINUOUS
 70
0
 71
3
 72
11
 73
7
 74
5
 42
0.0000001
 43
0.0000001
 44
0.0000000001
 12
0.0000031874
 22
-0.1679272902
 32
0.0
 13
-0.1265909387
 23
-0.1103372513
 33
0.0
 40
0.0
 40
0.0
 40
0.0
 40
0.0
 40
0.2275505249
 40
0.4651135994
 40
0.7208158825
 40
1.0
 40
1.0
 40
1.0
 40
1.0
 10
34.7576426786
 20
16.5967551855
 30
0.0
 10
34.7576429204
 20
16.5840178712
 30
0.0
 10
34.7542128793
 20
16.5578716857
 30
0.0
 10
34.7391275456
 20
16.5200684106
 30
0.0
 10
34.7146415194
 20
16.4840859098
 30
0.0
 10
34.6934476697
 20
16.4627100319
 30
0.0
 10
34.6816669432
 20
16.4524418959
 30
0.0
 11
34.7576426786
 21
16.5967551855
 31
0.0
 11
34.7527778603
 21
16.5588541811
 31
0.0
 11
34.7382748111
 21
16.5216905052
 31
0.0
 11
34.7144172708
 21
16.4859888369
 31
0.0
 11
34.6816669432
 21
16.4524418959
 31
0.0
  0
SPLINE
  5
45D
100
AcDbEntity
  8
0
100
AcDbSpline
 62
7
  6
CONTINUOUS
 70
0
 71
3
 72
13
 73
9
 74
7
 42
0.0000001
 43
0.0000001
 44
0.0000000001
 12
0.3224716839
 22
-0.1140558886
 32
0.0
 13
0.0000064923
 23
-0.3420478514
 33
0.0
 40
0.0
 40
0.0
 40
0.0
 40
0.0
 40
0.3050869545
 40
0.5703858203
 40
0.6883488631
 40
0.7977152201
 40
0.9006094742
 40
1.0
 40
1.0
 40
1.0
 40
1.0
 10
34.5299624126
 20
-18.2312941215
 30
0.0
 10
34.5627563806
 20
-18.2428931094
 30
0.0
 10
34.6225250928
 20
-18.2694768909
 30
0.0
 10
34.6866729334
 20
-18.3163112709
 30
0.0
 10
34.723582778
 20
-18.358956187
 30
0.0
 10
34.7430425529
 20
-18.3914495242
 30
0.0
 10
34.754949502
 20
-18.4251985126
 30
0.0
 10
34.7576424635
 20
-18.4483424493
 30
0.0
 10
34.7576426786
 20
-18.4596745546
 30
0.0
 11
34.5299624126
 21
-18.2312941215
 31
0.0
 11
34.6248021291
 21
-18.2748286582
 31
0.0
 11
34.697048759
 21
-18.3297382441
 31
0.0
 11
34.7232477778
 21
-18.3604246197
 31
0.0
 11
34.7422561924
 21
-18.3926438391
 31
0.0
 11
34.7537804945
 21
-18.4258983348
 31
0.0
 11
34.7576426786
 21
-18.4596745546
 31
0.0
  0
SPLINE
  5
45E
100
AcDbEntity
  8
0
100
AcDbSpline
 62
7
  6
CONTINUOUS
 70
0
 71
3
 72
11
 73
7
 74
5
 42
0.0000001
 43
0.0000001
 44
0.0000000001
 12
0.1816644876
 22
0.1292713124
 32
0.0
 13
0.2102280731
 23
-0.0742779613
 33
0.0
 40
0.0
 40
0.0
 40
0.0
 40
0.0
 40
0.2281032016
 40
0.4679479572
 40
0.7251230971
 40
1.0
 40
1.0
 40
1.0
 40
1.0
 10
27.6016296034
 20
17.6528076391
 30
0.0
 10
27.6154423538
 20
17.6626367058
 30
0.0
 10
27.6474849045
 20
17.6779516329
 30
0.0
 10
27.7014657226
 20
17.6855651455
 30
0.0
 10
27.7589663198
 20
17.680080247
 30
0.0
 10
27.7972151949
 20
17.6693565612
 30
0.0
 10
27.8164774754
 20
17.6625507958
 30
0.0
 11
27.6016296034
 21
17.6528076391
 31
0.0
 11
27.647344605
 21
17.6750958034
 31
0.0
 11
27.7001812492
 21
17.6833455243
 31
0.0
 11
27.7573240614
 21
17.6785838446
 31
0.0
 11
27.8164774754
 21
17.6625507958
 31
0.0
  0
SPLINE
  5
45F
100
AcDbEntity
  8
0
100
AcDbSpline
 62
7
  6
CONTINUOUS
 70
0
 71
3
 72
11
 73
7
 74
5
 42
0.0000001
 43
0.0000001
 44
0.0000000001
 12
0.1817110357
 22
0.1260887855
 32
0.0
 13
0.2085425333
 23
-0.0736701713
 33
0.0
 40
0.0
 40
0.0
 40
0.0
 40
0.0
 40
0.2281238393
 40
0.4681047552
 40
0.7252931756
 40
1.0
 40
1.0
 40
1.0
 40
1.0
 10
20.9627020777
 20
20.0024908728
 30
0.0
 10
20.9765196174
 20
20.0120788254
 30
0.0
 10
21.0084512221
 20
20.026944987
 30
0.0
 10
21.0620340294
 20
20.0341933883
 30
0.0
 10
21.1190482415
 20
20.0286139636
 30
0.0
 10
21.1569700356
 20
20.0179618917
 30
0.0
 10
21.1760660546
 20
20.0112159921
 30
0.0
 11
20.9627020777
 21
20.0024908728
 31
0.0
 11
21.0082719436
 21
20.0241488153
 31
0.0
 11
21.0607612781
 21
20.0320264507
 31
0.0
 11
21.117434795
 21
20.0271490188
 31
0.0
 11
21.1760660546
 21
20.0112159921
 31
0.0
  0
SPLINE
  5
460
100
AcDbEntity
  8
0
100
AcDbSpline
 62
7
  6
CONTINUOUS
 70
0
 71
3
 72
16
 73
12
 74
10
 42
0.0000001
 43
0.0000001
 44
0.0000000001
 12
-0.0014064349
 22
-0.0950759525
 32
0.0
 13
-0.0774734676
 23
-0.0551296347
 33
0.0
 40
0.0
 40
0.0
 40
0.0
 40
0.0
 40
0.0088708106
 40
0.0235312201
 40
0.0725810675
 40
0.1499452297
 40
0.2573147142
 40
0.3957863322
 40
0.5659844649
 40
0.7678033638
 40
1.0
 40
1.0
 40
1.0
 40
1.0
 10
21.804966054
 20
19.7883921094
 30
0.0
 10
21.8049618953
 20
19.7881109758
 30
0.0
 10
21.8046421351
 20
19.787399312
 30
0.0
 10
21.8033125774
 20
19.7855433039
 30
0.0
 10
21.8001428077
 20
19.7823373304
 30
0.0
 10
21.7946452572
 20
19.777392232
 30
0.0
 10
21.7867492517
 20
19.7708505749
 30
0.0
 10
21.7763982581
 20
19.762684753
 30
0.0
 10
21.7635127551
 20
19.7528958586
 30
0.0
 10
21.7481003614
 20
19.7415285585
 30
0.0
 10
21.7369319873
 20
19.7334963602
 30
0.0
 10
21.7309356277
 20
19.7292293883
 30
0.0
 11
21.804966054
 21
19.7883921094
 31
0.0
 11
21.8047049926
 21
19.7875900324
 31
0.0
 11
21.8039285296
 21
19.7864322955
 31
0.0
 11
21.8007590735
 21
19.7830107205
 31
0.0
 11
21.7953212121
 21
19.7780564837
 31
0.0
 11
21.7874880064
 21
19.7715087984
 31
0.0
 11
21.777165143
 21
19.7633355435
 31
0.0
 11
21.7642901459
 21
19.7535304036
 31
0.0
 11
21.7488541761
 21
19.7421288464
 31
0.0
 11
21.7309356277
 21
19.7292293883
 31
0.0
  0
SPLINE
  5
461
100
AcDbEntity
  8
0
100
AcDbSpline
 62
7
  6
CONTINUOUS
 70
0
 71
3
 72
12
 73
8
 74
6
 42
0.0000001
 43
0.0000001
 44
0.0000000001
 12
0.0
 22
0.287066235
 32
0.0
 13
0.2189830309
 23
0.1856164201
 33
0.0
 40
0.0
 40
0.0
 40
0.0
 40
0.0
 40
0.2485244097
 40
0.5188158414
 40
0.7788936853
 40
0.8958116477
 40
1.0
 40
1.0
 40
1.0
 40
1.0
 10
18.4407044789
 20
16.8288722194
 30
0.0
 10
18.4407044789
 20
16.8526532082
 30
0.0
 10
18.4472300326
 20
16.902329227
 30
0.0
 10
18.4699779464
 20
16.9735947898
 30
0.0
 10
18.4987912848
 20
17.0289320309
 30
0.0
 10
18.5264999351
 20
17.0658116909
 30
0.0
 10
18.5413934128
 20
17.0809802076
 30
0.0
 10
18.5489985732
 20
17.0874265639
 30
0.0
 11
18.4407044789
 21
16.8288722194
 31
0.0
 11
18.4489357506
 21
16.8997387492
 31
0.0
 11
18.4723849685
 21
16.9737021308
 31
0.0
 11
18.5075089728
 21
17.039583504
 31
0.0
 11
18.5278372717
 21
17.0662902187
 31
0.0
 11
18.5489985732
 21
17.0874265639
 31
0.0
  0
SPLINE
  5
462
100
AcDbEntity
  8
0
100
AcDbSpline
 62
7
  6
CONTINUOUS
 70
0
 71
3
 72
16
 73
12
 74
10
 42
0.0000001
 43
0.0000001
 44
0.0000000001
 12
-0.0014029302
 22
-0.0932987989
 32
0.0
 13
-0.0759809676
 23
-0.0541620406
 33
0.0
 40
0.0
 40
0.0
 40
0.0
 40
0.0
 40
0.0089304453
 40
0.0236403336
 40
0.0727578176
 40
0.1501471623
 40
0.2574925784
 40
0.3958996493
 40
0.5660130674
 40
0.7677731045
 40
1.0
 40
1.0
 40
1.0
 40
1.0
 10
28.4453540929
 20
17.4397350028
 30
0.0
 10
28.4453499166
 20
17.4394572695
 30
0.0
 10
28.445037096
 20
17.4387550483
 30
0.0
 10
28.4437331141
 20
17.436925824
 30
0.0
 10
28.4406252613
 20
17.4337713031
 30
0.0
 10
28.4352349062
 20
17.4289100976
 30
0.0
 10
28.4274949296
 20
17.4224837109
 30
0.0
 10
28.4173489991
 20
17.4144643982
 30
0.0
 10
28.4047176652
 20
17.4048515849
 30
0.0
 10
28.3896052492
 20
17.3936864619
 30
0.0
 10
28.3786527263
 20
17.3857959897
 30
0.0
 10
28.3727711183
 20
17.3816033622
 30
0.0
 11
28.4453540929
 21
17.4397350028
 31
0.0
 11
28.4450977512
 21
17.438942117
 31
0.0
 11
28.4443359246
 21
17.4378003776
 31
0.0
 11
28.4412275772
 21
17.4344324157
 31
0.0
 11
28.4358961586
 21
17.4295619977
 31
0.0
 11
28.4282180673
 21
17.4231297513
 31
0.0
 11
28.4181004018
 21
17.4151034428
 31
0.0
 11
28.4054805938
 21
17.4054754611
 31
0.0
 11
28.3903467296
 21
17.3942777788
 31
0.0
 11
28.3727711183
 21
17.3816033622
 31
0.0
  0
SPLINE
  5
463
100
AcDbEntity
  8
0
100
AcDbSpline
 62
253
  6
CONTINUOUS
 70
0
 71
3
 72
12
 73
8
 74
6
 42
0.0000001
 43
0.0000001
 44
0.0000000001
 12
0.0
 22
0.2870662345
 32
0.0
 13
0.2189830306
 23
0.1856164199
 33
0.0
 40
0.0
 40
0.0
 40
0.0
 40
0.0
 40
0.2485245263
 40
0.5188160734
 40
0.7788939709
 40
0.895811959
 40
1.0
 40
1.0
 40
1.0
 40
1.0
 10
20.3696467851
 20
16.1466193589
 30
0.0
 10
20.3696467851
 20
16.1704003589
 30
0.0
 10
20.3761723446
 20
16.2200763999
 30
0.0
 10
20.3989202759
 20
16.2913419855
 30
0.0
 10
20.4277336284
 20
16.3466792415
 30
0.0
 10
20.4554422825
 20
16.383558871
 30
0.0
 10
20.4703357418
 20
16.3987273664
 30
0.0
 10
20.4779408794
 20
16.4051737035
 30
0.0
 11
20.3696467851
 21
16.1466193589
 31
0.0
 11
20.3778780642
 21
16.2174859215
 31
0.0
 11
20.4013273006
 21
16.2914493319
 31
0.0
 11
20.4364513242
 21
16.3573307121
 31
0.0
 11
20.456779638
 21
16.3840374246
 31
0.0
 11
20.4779408794
 21
16.4051737035
 31
0.0
  0
SPLINE
  5
464
100
AcDbEntity
  8
0
100
AcDbSpline
 62
253
  6
CONTINUOUS
 70
0
 71
3
 72
12
 73
8
 74
6
 42
0.0000001
 43
0.0000001
 44
0.0000000001
 12
0.0
 22
0.2870662352
 32
0.0
 13
0.2189830311
 23
0.1856164203
 33
0.0
 40
0.0
 40
0.0
 40
0.0
 40
0.0
 40
0.2485241033
 40
0.5188156102
 40
0.7788935774
 40
0.8958115983
 40
1.0
 40
1.0
 40
1.0
 40
1.0
 10
22.3824561482
 20
15.4347033306
 30
0.0
 10
22.3824561482
 20
15.4584842902
 30
0.0
 10
22.3889816903
 20
15.5081602869
 30
0.0
 10
22.4117295908
 20
15.579425844
 30
0.0
 10
22.4405429338
 20
15.6347631106
 30
0.0
 10
22.468251594
 20
15.6716427911
 30
0.0
 10
22.4831450785
 20
15.6868113158
 30
0.0
 10
22.4907502425
 20
15.6932576752
 30
0.0
 11
22.3824561482
 21
15.4347033306
 31
0.0
 11
22.3906874003
 21
15.5055697742
 31
0.0
 11
22.4141366121
 21
15.5795331805
 31
0.0
 11
22.4492606249
 21
15.6454145894
 31
0.0
 11
22.4695889317
 21
15.6721213192
 31
0.0
 11
22.4907502425
 21
15.6932576752
 31
0.0
  0
SPLINE
  5
465
100
AcDbEntity
  8
0
100
AcDbSpline
 62
7
  6
CONTINUOUS
 70
0
 71
3
 72
11
 73
7
 74
5
 42
0.0000001
 43
0.0000001
 44
0.0000000001
 12
0.1957612064
 22
0.1691275125
 32
0.0
 13
0.0
 23
0.2587016919
 33
0.0
 40
0.0
 40
0.0
 40
0.0
 40
0.0
 40
0.2344733864
 40
0.476068214
 40
0.7301461473
 40
1.0
 40
1.0
 40
1.0
 40
1.0
 10
30.9046437148
 20
-25.8467437711
 30
0.0
 10
30.9199439792
 20
-25.8335251375
 30
0.0
 10
30.9477829766
 20
-25.8027030384
 30
0.0
 10
30.9779648239
 20
-25.7468414415
 30
0.0
 10
30.9961516382
 20
-25.6829032854
 30
0.0
 10
30.9999137651
 20
-25.6375880249
 30
0.0
 10
30.9999137651
 20
-25.6143174755
 30
0.0
 11
30.9046437148
 21
-25.8467437711
 31
0.0
 11
30.945387137
 21
-25.8018055157
 31
0.0
 11
30.9753787398
 21
-25.7469705123
 31
0.0
 11
30.9937343692
 21
-25.6838551006
 31
0.0
 11
30.9999137651
 21
-25.6143174755
 31
0.0
  0
SPLINE
  5
466
100
AcDbEntity
  8
0
100
AcDbSpline
 62
253
  6
CONTINUOUS
 70
0
 71
3
 72
11
 73
7
 74
5
 42
0.0000001
 43
0.0000001
 44
0.0000000001
 12
0.3513532511
 22
-0.1227061288
 32
0.0
 13
-0.0013890167
 23
-0.3721612174
 33
0.0
 40
0.0
 40
0.0
 40
0.0
 40
0.0
 40
0.2466235215
 40
0.5079614633
 40
0.7648727889
 40
1.0
 40
1.0
 40
1.0
 40
1.0
 10
30.3568180437
 20
14.0118030342
 30
0.0
 10
30.3857020358
 20
14.0017156284
 30
0.0
 10
30.4416104312
 20
13.9700534997
 30
0.0
 10
30.5085680971
 20
13.9012741667
 30
0.0
 10
30.5541835703
 20
13.8184052238
 30
0.0
 10
30.5665910027
 20
13.7571506855
 30
0.0
 10
30.5664821375
 20
13.7279822758
 30
0.0
 11
30.3568180437
 21
14.0118030342
 31
0.0
 11
30.4372939627
 21
13.9676669578
 31
0.0
 11
30.5053983494
 21
13.8982306413
 31
0.0
 11
30.5507630676
 21
13.8140646935
 31
0.0
 11
30.5664821375
 21
13.7279822758
 31
0.0
  0
SPLINE
  5
467
100
AcDbEntity
  8
0
100
AcDbSpline
 62
7
  6
CONTINUOUS
 70
0
 71
3
 72
11
 73
7
 74
5
 42
0.0000001
 43
0.0000001
 44
0.0000000001
 12
0.3505818234
 22
-0.1239982404
 32
0.0
 13
-0.0
 23
-0.3718644626
 33
0.0
 40
0.0
 40
0.0
 40
0.0
 40
0.0
 40
0.2465164487
 40
0.5080432526
 40
0.7651022993
 40
1.0
 40
1.0
 40
1.0
 40
1.0
 10
29.9512131551
 20
13.6709288464
 30
0.0
 10
29.9800212171
 20
13.6607396444
 30
0.0
 10
30.0357737314
 20
13.6289149858
 30
0.0
 10
30.1026042012
 20
13.5601069557
 30
0.0
 10
30.1482751671
 20
13.4773644013
 30
0.0
 10
30.1608772488
 20
13.4162247904
 30
0.0
 10
30.1608772488
 20
13.387108088
 30
0.0
 11
29.9512131551
 21
13.6709288464
 31
0.0
 11
30.0314481316
 21
13.6265907476
 31
0.0
 11
30.0994683321
 21
13.5570831522
 31
0.0
 11
30.1449176775
 21
13.4729878488
 31
0.0
 11
30.1608772488
 21
13.387108088
 31
0.0
  0
SPLINE
  5
468
100
AcDbEntity
  8
0
100
AcDbSpline
 62
253
  6
CONTINUOUS
 70
0
 71
3
 72
11
 73
7
 74
5
 42
0.0000001
 43
0.0000001
 44
0.0000000001
 12
0.3497930873
 22
-0.1253128661
 32
0.0
 13
0.0014208182
 23
-0.3715595506
 33
0.0
 40
0.0
 40
0.0
 40
0.0
 40
0.0
 40
0.2464090259
 40
0.5081241653
 40
0.7653310092
 40
1.0
 40
1.0
 40
1.0
 40
1.0
 10
28.7139977929
 20
12.6354259222
 30
0.0
 10
28.7427285176
 20
12.6251331818
 30
0.0
 10
28.7983221216
 20
12.5931438715
 30
0.0
 10
28.8650234791
 20
12.5243068471
 30
0.0
 10
28.9107507128
 20
12.4416922421
 30
0.0
 10
28.923550746
 20
12.3806696654
 30
0.0
 10
28.9236618867
 20
12.3516051638
 30
0.0
 11
28.7139977929
 21
12.6354259222
 31
0.0
 11
28.7939880601
 21
12.590882544
 31
0.0
 11
28.8619219078
 21
12.5213032015
 31
0.0
 11
28.9074571648
 21
12.4372802794
 31
0.0
 11
28.9236618867
 21
12.3516051638
 31
0.0
  0
SPLINE
  5
469
100
AcDbEntity
  8
0
100
AcDbSpline
 62
253
  6
CONTINUOUS
 70
0
 71
3
 72
11
 73
7
 74
5
 42
0.0000001
 43
0.0000001
 44
0.0000000001
 12
0.3513532511
 22
-0.1227061288
 32
0.0
 13
-0.0013890167
 23
-0.3721612174
 33
0.0
 40
0.0
 40
0.0
 40
0.0
 40
0.0
 40
0.2466235215
 40
0.5079614633
 40
0.7648727889
 40
1.0
 40
1.0
 40
1.0
 40
1.0
 10
15.7639501615
 20
19.1731942395
 30
0.0
 10
15.7928341535
 20
19.1631068336
 30
0.0
 10
15.8487425489
 20
19.1314447049
 30
0.0
 10
15.9157002148
 20
19.0626653719
 30
0.0
 10
15.961315688
 20
18.9797964291
 30
0.0
 10
15.9737231204
 20
18.9185418908
 30
0.0
 10
15.9736142552
 20
18.8893734811
 30
0.0
 11
15.7639501615
 21
19.1731942395
 31
0.0
 11
15.8444260804
 21
19.129058163
 31
0.0
 11
15.9125304671
 21
19.0596218466
 31
0.0
 11
15.9578951854
 21
18.9754558987
 31
0.0
 11
15.9736142552
 21
18.8893734811
 31
0.0
  0
SPLINE
  5
46A
100
AcDbEntity
  8
0
100
AcDbSpline
 62
7
  6
CONTINUOUS
 70
0
 71
3
 72
11
 73
7
 74
5
 42
0.0000001
 43
0.0000001
 44
0.0000000001
 12
0.3505818234
 22
-0.1239982404
 32
0.0
 13
-0.0
 23
-0.3718644626
 33
0.0
 40
0.0
 40
0.0
 40
0.0
 40
0.0
 40
0.2465164487
 40
0.5080432526
 40
0.7651022993
 40
1.0
 40
1.0
 40
1.0
 40
1.0
 10
15.3583452728
 20
18.8323200516
 30
0.0
 10
15.3871533349
 20
18.8221308497
 30
0.0
 10
15.4429058491
 20
18.7903061911
 30
0.0
 10
15.5097363189
 20
18.7214981609
 30
0.0
 10
15.5554072849
 20
18.6387556065
 30
0.0
 10
15.5680093666
 20
18.5776159957
 30
0.0
 10
15.5680093666
 20
18.5484992933
 30
0.0
 11
15.3583452728
 21
18.8323200516
 31
0.0
 11
15.4385802494
 21
18.7879819528
 31
0.0
 11
15.5066004499
 21
18.7184743574
 31
0.0
 11
15.5520497953
 21
18.6343790541
 31
0.0
 11
15.5680093666
 21
18.5484992933
 31
0.0
  0
SPLINE
  5
46B
100
AcDbEntity
  8
0
100
AcDbSpline
 62
253
  6
CONTINUOUS
 70
0
 71
3
 72
11
 73
7
 74
5
 42
0.0000001
 43
0.0000001
 44
0.0000000001
 12
0.3497930871
 22
-0.125312866
 32
0.0
 13
0.0014208182
 23
-0.3715595504
 33
0.0
 40
0.0
 40
0.0
 40
0.0
 40
0.0
 40
0.2464091935
 40
0.5081242877
 40
0.7653310673
 40
1.0
 40
1.0
 40
1.0
 40
1.0
 10
14.1211299107
 20
17.7968171275
 30
0.0
 10
14.1498606549
 20
17.7865243801
 30
0.0
 10
14.2054542688
 20
17.7545350529
 30
0.0
 10
14.2721556222
 20
17.6856980163
 30
0.0
 10
14.3178828374
 20
17.6030834249
 30
0.0
 10
14.3306828638
 20
17.5420608635
 30
0.0
 10
14.3307940044
 20
17.5129963691
 30
0.0
 11
14.1211299107
 21
17.7968171275
 31
0.0
 11
14.2011202271
 21
17.7522737097
 31
0.0
 11
14.2690540531
 21
17.6826943696
 31
0.0
 11
14.3145892904
 21
17.5986714641
 31
0.0
 11
14.3307940044
 21
17.5129963691
 31
0.0
  0
SPLINE
  5
46C
100
AcDbEntity
  8
0
100
AcDbSpline
 62
253
  6
CONTINUOUS
 70
0
 71
3
 72
12
 73
8
 74
6
 42
0.0000001
 43
0.0000001
 44
0.0000000001
 12
-0.1288805443
 22
0.0455841109
 32
0.0
 13
-0.0000023917
 23
0.1367044471
 33
0.0
 40
0.0
 40
0.0
 40
0.0
 40
0.0
 40
0.3053529265
 40
0.5708748867
 40
0.7975418925
 40
0.9005241536
 40
1.0
 40
1.0
 40
1.0
 40
1.0
 10
22.3824561482
 20
15.4347033306
 30
0.0
 10
22.3693381311
 20
15.4393430778
 30
0.0
 10
22.3454119813
 20
15.4500046321
 30
0.0
 10
22.315777365
 20
15.4715857769
 30
0.0
 10
22.2990100318
 20
15.4936945275
 30
0.0
 10
22.2924612033
 20
15.5122671435
 30
0.0
 10
22.2913840403
 20
15.5215249462
 30
0.0
 10
22.291383961
 20
15.5260578764
 30
0.0
 11
22.3824561482
 21
15.4347033306
 31
0.0
 11
22.3445190654
 21
15.4521178187
 31
0.0
 11
22.3156206621
 21
15.4740820958
 31
0.0
 11
22.2975378738
 21
15.4992449452
 31
0.0
 11
22.2929284026
 21
15.5125470731
 31
0.0
 11
22.291383961
 21
15.5260578764
 31
0.0
  0
SPLINE
  5
46D
100
AcDbEntity
  8
0
100
AcDbSpline
 62
253
  6
CONTINUOUS
 70
0
 71
3
 72
11
 73
7
 74
5
 42
0.0000001
 43
0.0000001
 44
0.0000000001
 12
-0.127519008
 22
0.0451025454
 32
0.0
 13
-0.1031788515
 23
-0.0874612006
 33
0.0
 40
0.0
 40
0.0
 40
0.0
 40
0.0
 40
0.2773975106
 40
0.533779314
 40
0.7721641755
 40
1.0
 40
1.0
 40
1.0
 40
1.0
 10
22.4907502425
 20
15.6932576752
 30
0.0
 10
22.4789590907
 20
15.6974281198
 30
0.0
 10
22.4554333565
 20
15.7033747036
 30
0.0
 10
22.4202909808
 20
15.7041965568
 30
0.0
 10
22.3882360665
 20
15.6963479088
 30
0.0
 10
22.369901119
 20
15.6852669502
 30
0.0
 10
22.3620651727
 20
15.6786246853
 30
0.0
 11
22.4907502425
 21
15.6932576752
 31
0.0
 11
22.4542998633
 21
15.7021562525
 31
0.0
 11
22.4196248487
 21
15.7026312988
 31
0.0
 11
22.3883816513
 21
15.6946602266
 31
0.0
 11
22.3620651727
 21
15.6786246853
 31
0.0
  0
SPLINE
  5
46E
100
AcDbEntity
  8
0
100
AcDbSpline
 62
253
  6
CONTINUOUS
 70
0
 71
3
 72
13
 73
9
 74
7
 42
0.0000001
 43
0.0000001
 44
0.0000000001
 12
0.0
 22
-0.1401842663
 32
0.0
 13
0.1321544742
 23
-0.0467634845
 33
0.0
 40
0.0
 40
0.0
 40
0.0
 40
0.0
 40
0.3179226499
 40
0.5867110372
 40
0.703074386
 40
0.8088732692
 40
0.9066338773
 40
1.0
 40
1.0
 40
1.0
 40
1.0
 10
13.9857622928
 20
17.1443888982
 30
0.0
 10
13.9857622928
 20
17.1295329803
 30
0.0
 10
13.9875993057
 20
17.1020632997
 30
0.0
 10
13.9960513612
 20
17.0699524333
 30
0.0
 10
14.0066277636
 20
17.0494904602
 30
0.0
 10
14.0157536434
 20
17.0375323194
 30
0.0
 10
14.0263670822
 20
17.0284214716
 30
0.0
 10
14.0344376491
 20
17.0243486625
 30
0.0
 10
14.0385505661
 20
17.0228932874
 30
0.0
 11
13.9857622928
 21
17.1443888982
 31
0.0
 11
13.9892847505
 21
17.0999605633
 31
0.0
 11
13.9996697341
 21
17.0637400277
 31
0.0
 11
14.0072809259
 21
17.0493122338
 31
0.0
 11
14.0163799083
 21
17.0375999697
 31
0.0
 11
14.0268482789
 21
17.0287553943
 31
0.0
 11
14.0385505661
 21
17.0228932874
 31
0.0
  0
SPLINE
  5
46F
100
AcDbEntity
  8
0
100
AcDbSpline
 62
253
  6
CONTINUOUS
 70
0
 71
3
 72
13
 73
9
 74
7
 42
0.0000001
 43
0.0000001
 44
0.0000000001
 12
0.0
 22
-0.1401936786
 32
0.0
 13
0.132171907
 23
-0.0467424275
 33
0.0
 40
0.0
 40
0.0
 40
0.0
 40
0.0
 40
0.3179280347
 40
0.5867159148
 40
0.703077347
 40
0.8088740033
 40
0.9066331559
 40
1.0
 40
1.0
 40
1.0
 40
1.0
 10
11.9949166182
 20
17.8485365297
 30
0.0
 10
11.9949166182
 20
17.8336793627
 30
0.0
 10
11.9967539109
 20
17.8062076017
 30
0.0
 10
12.0052074615
 20
17.7740945728
 30
0.0
 10
12.0157857754
 20
17.7536320557
 30
0.0
 10
12.0249132616
 20
17.7416741582
 30
0.0
 10
12.0355285527
 20
17.7325641785
 30
0.0
 10
12.0436003541
 20
17.7284924828
 30
0.0
 10
12.0477138454
 20
17.7270377519
 30
0.0
 11
11.9949166182
 21
17.8485365297
 31
0.0
 11
11.9984397154
 21
17.8041044864
 31
0.0
 11
12.0088265515
 21
17.7678819242
 31
0.0
 11
12.0164390684
 21
17.7534538948
 31
0.0
 11
12.0255395985
 21
17.7417419674
 31
0.0
 11
12.0360096934
 21
17.7328983236
 31
0.0
 11
12.0477138454
 21
17.7270377519
 31
0.0
  0
SPLINE
  5
470
100
AcDbEntity
  8
RACCORDO
100
AcDbSpline
 62
7
  6
CONTINUOUS
 70
0
 71
3
 72
10
 73
6
 74
4
 42
0.0000001
 43
0.0000001
 44
0.0000000001
 12
0.0000048229
 22
-0.0087626752
 32
0.0
 13
-0.0059030646
 23
-0.006475981
 33
0.0
 40
0.0
 40
0.0
 40
0.0
 40
0.0
 40
0.1338972962
 40
0.3389431229
 40
1.0
 40
1.0
 40
1.0
 40
1.0
 10
34.1506213934
 20
-17.2559729573
 30
0.0
 10
34.1506216087
 20
-17.2563640568
 30
0.0
 10
34.1502974167
 20
-17.2573339654
 30
0.0
 10
34.1488000235
 20
-17.2598337371
 30
0.0
 10
34.1471171579
 20
-17.2617553797
 30
0.0
 10
34.1458164041
 20
-17.263182377
 30
0.0
 11
34.1506213934
 21
-17.2559729573
 31
0.0
 11
34.150336857
 21
-17.2571112318
 31
0.0
 11
34.1494612184
 21
-17.2586801705
 31
0.0
 11
34.1458164041
 21
-17.263182377
 31
0.0
  0
SPLINE
  5
471
100
AcDbEntity
  8
RACCORDO
100
AcDbSpline
 62
7
  6
CONTINUOUS
 70
0
 71
3
 72
9
 73
5
 74
3
 42
0.0000001
 43
0.0000001
 44
0.0000000001
 12
-0.0242234555
 22
-0.0265744403
 32
0.0
 13
-0.027515704
 23
-0.0231487085
 33
0.0
 40
0.0
 40
0.0
 40
0.0
 40
0.0
 40
0.4005572905
 40
1.0
 40
1.0
 40
1.0
 40
1.0
 10
34.1458164041
 20
-17.263182377
 30
0.0
 10
34.1425821102
 20
-17.2667305722
 30
0.0
 10
34.1338619433
 20
-17.2749833986
 30
0.0
 10
34.1247977159
 20
-17.282821302
 30
0.0
 10
34.1192996865
 20
-17.2874467435
 30
0.0
 11
34.1458164041
 21
-17.263182377
 31
0.0
 11
34.1355410541
 21
-17.273275459
 31
0.0
 11
34.1192996865
 21
-17.2874467435
 31
0.0
  0
SPLINE
  5
472
100
AcDbEntity
  8
0
100
AcDbSpline
 62
7
  6
CONTINUOUS
 70
0
 71
3
 72
11
 73
7
 74
5
 42
0.0000001
 43
0.0000001
 44
0.0000000001
 12
-0.1267991397
 22
0.0448479333
 32
0.0
 13
-0.1035088095
 23
-0.0858794813
 33
0.0
 40
0.0
 40
0.0
 40
0.0
 40
0.0
 40
0.2768016412
 40
0.5330544852
 40
0.7717166303
 40
1.0
 40
1.0
 40
1.0
 40
1.0
 10
22.6547756657
 20
15.83229042
 30
0.0
 10
22.6430762624
 20
15.8364284139
 30
0.0
 10
22.6197184316
 20
15.8423392279
 30
0.0
 10
22.584801651
 20
15.8432140875
 30
0.0
 10
22.5528773167
 20
15.8355444512
 30
0.0
 10
22.5345355388
 20
15.8246669825
 30
0.0
 10
22.5266590922
 20
15.8181320301
 30
0.0
 11
22.6547756657
 21
15.83229042
 31
0.0
 11
22.6186129309
 21
15.8411362038
 31
0.0
 11
22.5841520077
 21
15.8416765183
 31
0.0
 11
22.5530123597
 21
15.8338864397
 31
0.0
 11
22.5266590922
 21
15.8181320301
 31
0.0
  0
SPLINE
  5
473
100
AcDbEntity
  8
0
100
AcDbSpline
 62
253
  6
CONTINUOUS
 70
0
 71
3
 72
12
 73
8
 74
6
 42
0.0000001
 43
0.0000001
 44
0.0000000001
 12
-0.0841545537
 22
-0.2921522541
 32
0.0
 13
-0.3036039006
 23
0.0161121094
 33
0.0
 40
0.0
 40
0.0
 40
0.0
 40
0.0
 40
0.2636184136
 40
0.5178250927
 40
0.761759726
 40
0.881337502
 40
1.0
 40
1.0
 40
1.0
 40
1.0
 10
14.3307940044
 20
17.1837610705
 30
0.0
 10
14.3233991078
 20
17.1580888325
 30
0.0
 10
14.3014291318
 20
17.1094125923
 30
0.0
 10
14.248991669
 20
17.051054779
 30
0.0
 10
14.1928241312
 20
17.0202906068
 30
0.0
 10
14.1449780799
 20
17.0092877816
 30
0.0
 10
14.1206834582
 20
17.0082959901
 30
0.0
 10
14.1086746591
 20
17.0089332912
 30
0.0
 11
14.3307940044
 21
17.1837610705
 31
0.0
 11
14.2974854826
 21
17.1108619824
 31
0.0
 11
14.2454189542
 21
17.0537452823
 31
0.0
 11
14.1801576681
 21
17.0185142979
 31
0.0
 11
14.1447224681
 21
17.0103866126
 31
0.0
 11
14.1086746591
 21
17.0089332912
 31
0.0
  0
SPLINE
  5
474
100
AcDbEntity
  8
0
100
AcDbSpline
 62
7
  6
CONTINUOUS
 70
0
 71
3
 72
11
 73
7
 74
5
 42
0.0000001
 43
0.0000001
 44
0.0000000001
 12
0.2804723632
 22
-0.0992010344
 32
0.0
 13
0.0
 23
-0.2974988937
 33
0.0
 40
0.0
 40
0.0
 40
0.0
 40
0.0
 40
0.2465170553
 40
0.5080437213
 40
0.7651021789
 40
1.0
 40
1.0
 40
1.0
 40
1.0
 10
20.6419663026
 20
16.5442064483
 30
0.0
 10
20.6650133763
 20
16.536054866
 30
0.0
 10
20.7096164244
 20
16.5105941707
 30
0.0
 10
20.7630814127
 20
16.4555457529
 30
0.0
 10
20.7996186773
 20
16.3893499662
 30
0.0
 10
20.8097004162
 20
16.3404371077
 30
0.0
 10
20.8097004162
 20
16.3171431604
 30
0.0
 11
20.6419663026
 21
16.5442064483
 31
0.0
 11
20.7061558347
 21
16.5087346697
 31
0.0
 11
20.7605727358
 21
16.4531266959
 31
0.0
 11
20.79693261
 21
16.3858487275
 31
0.0
 11
20.8097004162
 21
16.3171431604
 31
0.0
  0
SPLINE
  5
475
100
AcDbEntity
  8
0
100
AcDbSpline
 62
253
  6
CONTINUOUS
 70
0
 71
3
 72
11
 73
7
 74
5
 42
0.0000001
 43
0.0000001
 44
0.0000000001
 12
0.0253905942
 22
-0.0467663313
 32
0.0
 13
-0.0264410968
 23
-0.0461805199
 33
0.0
 40
0.0
 40
0.0
 40
0.0
 40
0.0
 40
0.3090036599
 40
0.5720626037
 40
0.7971863254
 40
1.0
 40
1.0
 40
1.0
 40
1.0
 10
15.9736142552
 20
18.5528193185
 30
0.0
 10
15.9762295174
 20
18.5480023293
 30
0.0
 10
15.9805485325
 20
18.538771858
 30
0.0
 10
15.9842192049
 20
18.5250134859
 30
0.0
 10
15.9843928477
 20
18.512591507
 30
0.0
 10
15.9818998804
 20
18.5052132438
 30
0.0
 10
15.9801123417
 20
18.5020912301
 30
0.0
 11
15.9736142552
 21
18.5528193185
 31
0.0
 11
15.9804037982
 21
18.5378430395
 31
0.0
 11
15.9837768059
 21
18.5242569633
 31
0.0
 11
15.9836787735
 21
18.5122775414
 31
0.0
 11
15.9801123417
 21
18.5020912301
 31
0.0
  0
SPLINE
  5
476
100
AcDbEntity
  8
0
100
AcDbSpline
 62
253
  6
CONTINUOUS
 70
0
 71
3
 72
11
 73
7
 74
5
 42
0.0000001
 43
0.0000001
 44
0.0000000001
 12
0.2803055539
 22
-0.0991420352
 32
0.0
 13
0.0011268874
 23
-0.2973198224
 33
0.0
 40
0.0
 40
0.0
 40
0.0
 40
0.0
 40
0.2467369871
 40
0.5084625193
 40
0.7654897131
 40
1.0
 40
1.0
 40
1.0
 40
1.0
 10
20.4779408794
 20
16.4051737035
 30
0.0
 10
20.5009947954
 20
16.3970197011
 30
0.0
 10
20.5456202302
 20
16.371594993
 30
0.0
 10
20.5992068346
 20
16.3166868047
 30
0.0
 10
20.6359454213
 20
16.250688159
 30
0.0
 10
20.6462206168
 20
16.2018890879
 30
0.0
 10
20.6463087057
 20
16.178647569
 30
0.0
 11
20.4779408794
 21
16.4051737035
 31
0.0
 11
20.5421780297
 21
16.3697431279
 31
0.0
 11
20.5967322946
 21
16.3142518818
 31
0.0
 11
20.6332980978
 21
16.2471479905
 31
0.0
 11
20.6463087057
 21
16.178647569
 31
0.0
  0
SPLINE
  5
477
100
AcDbEntity
  8
0
100
AcDbSpline
 62
253
  6
CONTINUOUS
 70
0
 71
3
 72
13
 73
9
 74
7
 42
0.0000001
 43
0.0000001
 44
0.0000000001
 12
0.0
 22
-0.1401885038
 32
0.0
 13
0.1321623452
 23
-0.046753942
 33
0.0
 40
0.0
 40
0.0
 40
0.0
 40
0.0
 40
0.3179248536
 40
0.5867131134
 40
0.7030756355
 40
0.8088735456
 40
0.9066335175
 40
1.0
 40
1.0
 40
1.0
 40
1.0
 10
28.5786301751
 20
11.9829976929
 30
0.0
 10
28.5786301751
 20
11.9681412231
 30
0.0
 10
28.5804673129
 20
11.9406706117
 30
0.0
 10
28.5889200358
 20
11.9085587744
 30
0.0
 10
28.5994972986
 20
11.8880965474
 30
0.0
 10
28.6086239038
 20
11.8761385127
 30
0.0
 10
28.6192381775
 20
11.8670280513
 30
0.0
 10
28.6273093019
 20
11.86295574
 30
0.0
 10
28.6314224797
 20
11.8615006563
 30
0.0
 11
28.5786301751
 21
11.9829976929
 31
0.0
 11
28.5821529158
 21
11.9385677192
 31
0.0
 11
28.5925387318
 21
11.902346256
 31
0.0
 11
28.6001505204
 21
11.8879183504
 31
0.0
 11
28.6092502012
 21
11.8762062339
 31
0.0
 11
28.6197193486
 21
11.8673620744
 31
0.0
 11
28.6314224797
 21
11.8615006563
 31
0.0
  0
SPLINE
  5
478
100
AcDbEntity
  8
0
100
AcDbSpline
 62
253
  6
CONTINUOUS
 70
0
 71
3
 72
12
 73
8
 74
6
 42
0.0000001
 43
0.0000001
 44
0.0000000001
 12
0.271936185
 22
-0.0961818503
 32
0.0
 13
0.2210080022
 23
0.1853529067
 33
0.0
 40
0.0
 40
0.0
 40
0.0
 40
0.0
 40
0.2571445862
 40
0.5276697293
 40
0.7829552362
 40
0.8973130377
 40
1.0
 40
1.0
 40
1.0
 40
1.0
 10
20.3696467851
 20
16.1466193589
 30
0.0
 10
20.3929557577
 20
16.1383751449
 30
0.0
 10
20.4432238063
 20
16.1280807477
 30
0.0
 10
20.5189254412
 20
16.1286036265
 30
0.0
 10
20.5797084078
 20
16.1419682984
 30
0.0
 10
20.6212511588
 20
16.1606520377
 30
0.0
 10
20.6387438256
 20
16.1723031267
 30
0.0
 10
20.6463087057
 20
16.178647569
 30
0.0
 11
20.3696467851
 21
16.1466193589
 31
0.0
 11
20.4421274152
 21
16.1308702104
 31
0.0
 11
20.5201569251
 21
16.1314265481
 31
0.0
 11
20.5918558881
 21
16.1482037816
 31
0.0
 11
20.621834295
 21
16.1619647198
 31
0.0
 11
20.6463087057
 21
16.178647569
 31
0.0
  0
SPLINE
  5
479
100
AcDbEntity
  8
0
100
AcDbSpline
 62
253
  6
CONTINUOUS
 70
0
 71
3
 72
13
 73
9
 74
7
 42
0.0000001
 43
0.0000001
 44
0.0000000001
 12
0.0
 22
-0.1401939272
 32
0.0
 13
0.1321723323
 23
-0.0467419704
 33
0.0
 40
0.0
 40
0.0
 40
0.0
 40
0.0
 40
0.3179281836
 40
0.5867160553
 40
0.7030774407
 40
0.8088740376
 40
0.9066331597
 40
1.0
 40
1.0
 40
1.0
 40
1.0
 10
26.5877845005
 20
12.6871453244
 30
0.0
 10
26.5877845005
 20
12.6722881242
 30
0.0
 10
26.5896218007
 20
12.6448163078
 30
0.0
 10
26.5980753908
 20
12.6127032208
 30
0.0
 10
26.6086537565
 20
12.5922406896
 30
0.0
 10
26.6177812843
 20
12.5802827975
 30
0.0
 10
26.6283966252
 20
12.5711728418
 30
0.0
 10
26.6364684595
 20
12.5671011794
 30
0.0
 10
26.6405819638
 20
12.5656464627
 30
0.0
 11
26.5877845005
 21
12.6871453244
 31
0.0
 11
26.5913076147
 21
12.6427131824
 31
0.0
 11
26.6016945002
 21
12.606490566
 31
0.0
 11
26.6093070527
 21
12.5920625301
 31
0.0
 11
26.6184076232
 21
12.5803506114
 31
0.0
 11
26.6288777657
 21
12.5715069928
 31
0.0
 11
26.6405819638
 21
12.5656464627
 31
0.0
  0
SPLINE
  5
47A
100
AcDbEntity
  8
0
100
AcDbSpline
 62
7
  6
CONTINUOUS
 70
0
 71
3
 72
11
 73
7
 74
5
 42
0.0000001
 43
0.0000001
 44
0.0000000001
 12
-0.1770137616
 22
-0.3025613616
 32
0.0
 13
-0.3500494753
 23
0.0185098404
 33
0.0
 40
0.0
 40
0.0
 40
0.0
 40
0.0
 40
0.2457858112
 40
0.4990557589
 40
0.7535270728
 40
1.0
 40
1.0
 40
1.0
 40
1.0
 10
29.4731801643
 20
11.9932101633
 30
0.0
 10
29.458677674
 20
11.9684217334
 30
0.0
 10
29.4227579861
 20
11.9216493099
 30
0.0
 10
29.3536416991
 20
11.8657932237
 30
0.0
 10
29.2727087315
 20
11.8285513068
 30
0.0
 10
29.2134296584
 20
11.820384774
 30
0.0
 10
29.1846704188
 20
11.8219054989
 30
0.0
 11
29.4731801643
 21
11.9932101633
 31
0.0
 11
29.4209061173
 21
11.9247227896
 31
0.0
 11
29.3517830859
 21
11.8690087916
 31
0.0
 11
29.2704250137
 21
11.8324320205
 31
0.0
 11
29.1846704188
 21
11.8219054989
 31
0.0
  0
SPLINE
  5
47B
100
AcDbEntity
  8
0
100
AcDbSpline
 62
253
  6
CONTINUOUS
 70
0
 71
3
 72
12
 73
8
 74
6
 42
0.0000001
 43
0.0000001
 44
0.0000000001
 12
-0.0841545597
 22
-0.2921522751
 32
0.0
 13
-0.3036039205
 23
0.0161121461
 33
0.0
 40
0.0
 40
0.0
 40
0.0
 40
0.0
 40
0.2636183038
 40
0.5178250151
 40
0.7617596885
 40
0.8813374845
 40
1.0
 40
1.0
 40
1.0
 40
1.0
 10
28.9236618867
 20
12.0223698652
 30
0.0
 10
28.9162669926
 20
11.9966976362
 30
0.0
 10
28.8942970209
 20
11.9480213994
 30
0.0
 10
28.841859562
 20
11.8896635797
 30
0.0
 10
28.7856920117
 20
11.8588993989
 30
0.0
 10
28.7378459485
 20
11.8478965744
 30
0.0
 10
28.7135513211
 20
11.8469047845
 30
0.0
 10
28.7015425195
 20
11.8475420871
 30
0.0
 11
28.9236618867
 21
12.0223698652
 31
0.0
 11
28.8903533802
 21
11.9494708006
 31
0.0
 11
28.8382868464
 21
11.8923540846
 31
0.0
 11
28.7730255454
 21
11.8571230908
 31
0.0
 11
28.7375903364
 21
11.8489954057
 31
0.0
 11
28.7015425195
 21
11.8475420871
 31
0.0
  0
SPLINE
  5
47C
100
AcDbEntity
  8
0
100
AcDbSpline
 62
253
  6
CONTINUOUS
 70
0
 71
3
 72
11
 73
7
 74
5
 42
0.0000001
 43
0.0000001
 44
0.0000000001
 12
0.0253905942
 22
-0.0467663313
 32
0.0
 13
-0.0264410968
 23
-0.0461805199
 33
0.0
 40
0.0
 40
0.0
 40
0.0
 40
0.0
 40
0.3090036599
 40
0.5720626037
 40
0.7971863254
 40
1.0
 40
1.0
 40
1.0
 40
1.0
 10
30.5664821375
 20
13.3914281133
 30
0.0
 10
30.5690973997
 20
13.3866111241
 30
0.0
 10
30.5734164148
 20
13.3773806528
 30
0.0
 10
30.5770870871
 20
13.3636222807
 30
0.0
 10
30.57726073
 20
13.3512003018
 30
0.0
 10
30.5747677626
 20
13.3438220385
 30
0.0
 10
30.5729802239
 20
13.3407000249
 30
0.0
 11
30.5664821375
 21
13.3914281133
 31
0.0
 11
30.5732716805
 21
13.3764518342
 31
0.0
 11
30.5766446882
 21
13.3628657581
 31
0.0
 11
30.5765466558
 21
13.3508863361
 31
0.0
 11
30.5729802239
 21
13.3407000249
 31
0.0
  0
SPLINE
  5
47D
100
AcDbEntity
  8
0
100
AcDbSpline
 62
253
  6
CONTINUOUS
 70
0
 71
3
 72
11
 73
7
 74
5
 42
0.0000001
 43
0.0000001
 44
0.0000000001
 12
0.0000006294
 22
-0.086004396
 32
0.0
 13
-0.0655479461
 23
-0.0556796452
 33
0.0
 40
0.0
 40
0.0
 40
0.0
 40
0.0
 40
0.2268181367
 40
0.4640141428
 40
0.7199516412
 40
1.0
 40
1.0
 40
1.0
 40
1.0
 10
30.6060259021
 20
-26.8667219893
 30
0.0
 10
30.6060259496
 20
-26.8732244416
 30
0.0
 10
30.6042339902
 20
-26.8865855909
 30
0.0
 10
30.5963666044
 20
-26.9058692273
 30
0.0
 10
30.5836138973
 20
-26.9241815197
 30
0.0
 10
30.5726010024
 20
-26.9350166446
 30
0.0
 10
30.5664821375
 20
-26.940214309
 30
0.0
 11
30.6060259021
 21
-26.8667219893
 31
0.0
 11
30.6034906649
 21
-26.8860639009
 31
0.0
 11
30.5959363601
 21
-26.905013528
 31
0.0
 11
30.5835162281
 21
-26.923186515
 31
0.0
 11
30.5664821375
 21
-26.940214309
 31
0.0
  0
SPLINE
  5
47E
100
AcDbEntity
  8
0
100
AcDbSpline
 62
253
  6
CONTINUOUS
 70
0
 71
3
 72
11
 73
7
 74
5
 42
0.0000001
 43
0.0000001
 44
0.0000000001
 12
0.0000006456
 22
-0.0860043957
 32
0.0
 13
-0.0655479459
 23
-0.0556796451
 33
0.0
 40
0.0
 40
0.0
 40
0.0
 40
0.0
 40
0.2268181362
 40
0.4640141485
 40
0.7199516338
 40
1.0
 40
1.0
 40
1.0
 40
1.0
 10
30.606025902
 20
-26.530167827
 30
0.0
 10
30.6060259508
 20
-26.5366702793
 30
0.0
 10
30.6042339897
 20
-26.5500314288
 30
0.0
 10
30.5963666043
 20
-26.5693150646
 30
0.0
 10
30.5836138974
 20
-26.5876273573
 30
0.0
 10
30.5726010025
 20
-26.5984624819
 30
0.0
 10
30.5664821375
 20
-26.6036601464
 30
0.0
 11
30.606025902
 21
-26.530167827
 31
0.0
 11
30.6034906649
 21
-26.5495097385
 31
0.0
 11
30.5959363597
 21
-26.568459366
 31
0.0
 11
30.5835162285
 21
-26.5866323521
 31
0.0
 11
30.5664821375
 21
-26.6036601464
 31
0.0
  0
SPLINE
  5
47F
100
AcDbEntity
  8
0
100
AcDbSpline
 62
253
  6
CONTINUOUS
 70
0
 71
3
 72
9
 73
5
 74
3
 42
0.0000001
 43
0.0000001
 44
0.0000000001
 12
-0.0147092749
 22
0.0052019164
 32
0.0
 13
-0.0155822542
 23
0.0007848919
 33
0.0
 40
0.0
 40
0.0
 40
0.0
 40
0.0
 40
0.2477339557
 40
1.0
 40
1.0
 40
1.0
 40
1.0
 10
30.4393884344
 20
-26.294475867
 30
0.0
 10
30.4381737721
 20
-26.2940463033
 30
0.0
 10
30.4332076678
 20
-26.2924937725
 30
0.0
 10
30.4280131158
 20
-26.2916905475
 30
0.0
 10
30.4241057822
 20
-26.2914937316
 30
0.0
 11
30.4393884344
 21
-26.294475867
 31
0.0
 11
30.4356992065
 21
-26.2933230606
 31
0.0
 11
30.4241057822
 21
-26.2914937316
 31
0.0
  0
SPLINE
  5
480
100
AcDbEntity
  8
0
100
AcDbSpline
 62
253
  6
CONTINUOUS
 70
0
 71
3
 72
13
 73
9
 74
7
 42
0.0000001
 43
0.0000001
 44
0.0000000001
 12
0.1020310567
 22
0.361268959
 32
0.0
 13
-0.3540108424
 23
0.1249076487
 33
0.0
 40
0.0
 40
0.0
 40
0.0
 40
0.0
 40
0.259263841
 40
0.5156046412
 40
0.6409261709
 40
0.7633472414
 40
0.8828786954
 40
1.0
 40
1.0
 40
1.0
 40
1.0
 10
30.5664821375
 20
-26.6036601464
 30
0.0
 10
30.575299792
 20
-26.5724388204
 30
0.0
 10
30.5819752342
 20
-26.5067768799
 30
0.0
 10
30.5621562445
 20
-26.4272376683
 30
0.0
 10
30.5307286773
 20
-26.3721706178
 30
0.0
 10
30.5005800422
 20
-26.337077725
 30
0.0
 10
30.4648481176
 20
-26.3093423678
 30
0.0
 10
30.4379265195
 20
-26.2963701806
 30
0.0
 10
30.4241057822
 20
-26.2914937316
 30
0.0
 11
30.5664821375
 21
-26.6036601464
 31
0.0
 11
30.5762939841
 21
-26.5068281904
 31
0.0
 11
30.5526946358
 21
-26.4135362983
 31
0.0
 11
30.5292963388
 21
-26.3727217829
 31
0.0
 11
30.4992635839
 21
-26.3379356639
 31
0.0
 11
30.4637480322
 21
-26.3105101667
 31
0.0
 11
30.4241057822
 21
-26.2914937316
 31
0.0
  0
SPLINE
  5
481
100
AcDbEntity
  8
0
100
AcDbSpline
 62
7
  6
CONTINUOUS
 70
0
 71
3
 72
11
 73
7
 74
5
 42
0.0000001
 43
0.0000001
 44
0.0000000001
 12
0.3500467227
 22
-0.0185348165
 32
0.0
 13
0.17701304
 23
0.3025601282
 33
0.0
 40
0.0
 40
0.0
 40
0.0
 40
0.0
 40
0.2464742921
 40
0.5009448857
 40
0.7542142843
 40
1.0
 40
1.0
 40
1.0
 40
1.0
 10
14.591804081
 20
16.9832957693
 30
0.0
 10
14.6205632538
 20
16.9817729841
 30
0.0
 10
14.6798421224
 20
16.9899444453
 30
0.0
 10
14.7607746183
 20
17.0271845759
 30
0.0
 10
14.8298903904
 20
17.0830409752
 30
0.0
 10
14.8658098565
 20
17.1298130493
 30
0.0
 10
14.8803122821
 20
17.1546013685
 30
0.0
 11
14.591804081
 21
16.9832957693
 31
0.0
 11
14.6775586332
 21
16.9938236752
 31
0.0
 11
14.7589160077
 21
17.0304004955
 31
0.0
 11
14.8280385051
 21
17.0861142727
 31
0.0
 11
14.8803122821
 21
17.1546013685
 31
0.0
  0
SPLINE
  5
482
100
AcDbEntity
  8
0
100
AcDbSpline
 62
253
  6
CONTINUOUS
 70
0
 71
3
 72
11
 73
7
 74
5
 42
0.0000001
 43
0.0000001
 44
0.0000000001
 12
0.1293421882
 22
0.1110464219
 32
0.0
 13
0.160942988
 23
-0.0561966554
 33
0.0
 40
0.0
 40
0.0
 40
0.0
 40
0.0
 40
0.2279541275
 40
0.4664095138
 40
0.7227676247
 40
1.0
 40
1.0
 40
1.0
 40
1.0
 10
11.9682314673
 20
18.481652883
 30
0.0
 10
11.9780594958
 20
18.490090713
 30
0.0
 10
12.0010921411
 20
18.5042037574
 30
0.0
 10
12.0414460455
 20
18.5143275872
 30
0.0
 10
12.0857370052
 20
18.5135187858
 30
0.0
 10
12.1154113671
 20
18.5061579364
 30
0.0
 10
12.1302842361
 20
18.500964759
 30
0.0
 11
11.9682314673
 21
18.481652883
 31
0.0
 11
12.0012921134
 21
18.5020753649
 31
0.0
 11
12.0406229801
 21
18.512346835
 31
0.0
 11
12.0843232457
 21
18.5119706331
 31
0.0
 11
12.1302842361
 21
18.500964759
 31
0.0
  0
SPLINE
  5
483
100
AcDbEntity
  8
0
100
AcDbSpline
 62
253
  6
CONTINUOUS
 70
0
 71
3
 72
13
 73
9
 74
7
 42
0.0000001
 43
0.0000001
 44
0.0000000001
 12
0.3391078435
 22
-0.1199399772
 32
0.0
 13
0.2770384948
 23
0.229410985
 33
0.0
 40
0.0
 40
0.0
 40
0.0
 40
0.0
 40
0.2567680607
 40
0.5269547613
 40
0.6583456288
 40
0.7826385605
 40
0.8971109351
 40
1.0
 40
1.0
 40
1.0
 40
1.0
 10
28.5786301751
 20
-28.0120905668
 30
0.0
 10
28.6076541962
 20
-28.0223561519
 30
0.0
 10
28.6702094587
 20
-28.0352015473
 30
0.0
 10
28.7497143429
 20
-28.0347606345
 30
0.0
 10
28.8120068195
 20
-28.0242711331
 30
0.0
 10
28.8547162073
 20
-28.0117605995
 30
0.0
 10
28.892245978
 20
-27.9950217153
 30
0.0
 10
28.9141604761
 20
-27.980586355
 30
0.0
 10
28.9236618867
 20
-27.9727183945
 30
0.0
 11
28.5786301751
 21
-28.0120905668
 31
0.0
 11
28.6688734783
 21
-28.0317407724
 31
0.0
 11
28.7660562808
 21
-28.0311633695
 31
0.0
 11
28.8126400683
 21
-28.023194339
 31
0.0
 11
28.8554912017
 21
-28.0104454877
 31
0.0
 11
28.8929741888
 21
-27.9934041299
 31
0.0
 11
28.9236618867
 21
-27.9727183945
 31
0.0
  0
SPLINE
  5
484
100
AcDbEntity
  8
0
100
AcDbSpline
 62
253
  6
CONTINUOUS
 70
0
 71
3
 72
13
 73
9
 74
7
 42
0.0000001
 43
0.0000001
 44
0.0000000001
 12
0.339107844
 22
-0.1199399774
 32
0.0
 13
0.2770384953
 23
0.2294109854
 33
0.0
 40
0.0
 40
0.0
 40
0.0
 40
0.0
 40
0.2567678582
 40
0.5269545697
 40
0.6583454567
 40
0.7826384147
 40
0.8971108139
 40
1.0
 40
1.0
 40
1.0
 40
1.0
 10
28.5786301751
 20
-28.3413258654
 30
0.0
 10
28.6076541734
 20
-28.3515914424
 30
0.0
 10
28.6702094106
 20
-28.3644368416
 30
0.0
 10
28.7497142744
 20
-28.3639959373
 30
0.0
 10
28.8120067599
 20
-28.353506447
 30
0.0
 10
28.8547161568
 20
-28.3409959142
 30
0.0
 10
28.892245951
 20
-28.3242570323
 30
0.0
 10
28.9141604649
 20
-28.3098216629
 30
0.0
 10
28.9236618867
 20
-28.3019536931
 30
0.0
 11
28.5786301751
 21
-28.3413258654
 31
0.0
 11
28.6688734053
 21
-28.3609760646
 31
0.0
 11
28.766056212
 21
-28.360398676
 31
0.0
 11
28.8126400078
 21
-28.3524296521
 31
0.0
 11
28.8554911521
 21
-28.3396808037
 31
0.0
 11
28.8929741509
 21
-28.3226394505
 31
0.0
 11
28.9236618867
 21
-28.3019536931
 31
0.0
  0
SPLINE
  5
485
100
AcDbEntity
  8
0
100
AcDbSpline
 62
253
  6
CONTINUOUS
 70
0
 71
3
 72
13
 73
9
 74
7
 42
0.0000001
 43
0.0000001
 44
0.0000000001
 12
-0.167139153
 22
0.3034325527
 32
0.0
 13
-0.32598298
 23
0.1172258814
 33
0.0
 40
0.0
 40
0.0
 40
0.0
 40
0.0
 40
0.0895897338
 40
0.1965078948
 40
0.3181046273
 40
0.4506876993
 40
0.7309577389
 40
1.0
 40
1.0
 40
1.0
 40
1.0
 10
28.9236618867
 20
-27.9727183945
 30
0.0
 10
28.9186705693
 20
-27.9636569139
 30
0.0
 10
28.9055963957
 20
-27.9449600922
 30
0.0
 10
28.880830845
 20
-27.9177576129
 30
0.0
 10
28.8498837893
 20
-27.8897264987
 30
0.0
 10
28.8009854463
 20
-27.8519944617
 30
0.0
 10
28.7338344014
 20
-27.8104575438
 30
0.0
 10
28.6759444538
 20
-27.7839293768
 30
0.0
 10
28.6467100545
 20
-27.7734164714
 30
0.0
 11
28.9236618867
 21
-27.9727183945
 31
0.0
 11
28.9062869002
 21
-27.9470021942
 31
0.0
 11
28.8815809662
 21
-27.9194073785
 31
0.0
 11
28.8504885291
 21
-27.8909881438
 31
0.0
 11
28.8142003791
 21
-27.8628335278
 31
0.0
 11
28.7317407161
 21
-27.8115783392
 31
0.0
 11
28.6467100545
 21
-27.7734164714
 31
0.0
  0
SPLINE
  5
486
100
AcDbEntity
  8
0
100
AcDbSpline
 62
7
  6
CONTINUOUS
 70
0
 71
3
 72
13
 73
9
 74
7
 42
0.0000001
 43
0.0000001
 44
0.0000000001
 12
-0.3555303416
 22
0.018873856
 32
0.0
 13
-0.3356545101
 23
0.1187185583
 33
0.0
 40
0.0
 40
0.0
 40
0.0
 40
0.0
 40
0.0805079003
 40
0.179560854
 40
0.4254516287
 40
0.7139691972
 40
0.861090427
 40
1.0
 40
1.0
 40
1.0
 40
1.0
 10
29.4731801643
 20
-27.0334647401
 30
0.0
 10
29.4636391639
 20
-27.0329582419
 30
0.0
 10
29.4424121095
 20
-27.0308781135
 30
0.0
 10
29.3924596141
 20
-27.0234530793
 30
0.0
 10
29.3187989108
 20
-27.0081444124
 30
0.0
 10
29.2405113187
 20
-26.9877046094
 30
0.0
 10
29.1752356888
 20
-26.9679638439
 30
0.0
 10
29.1430804223
 20
-26.9570665719
 30
0.0
 10
29.1275385474
 20
-26.9515695238
 30
0.0
 11
29.4731801643
 21
-27.0334647401
 31
0.0
 11
29.4446335336
 21
-27.0308811496
 31
0.0
 11
29.4097319927
 21
-27.0258247235
 31
0.0
 11
29.3239154802
 21
-27.0085155987
 31
0.0
 11
29.2245095091
 21
-26.9826294
 31
0.0
 11
29.174393036
 21
-26.9673987249
 31
0.0
 11
29.1275385474
 21
-26.9515695238
 31
0.0
  0
SPLINE
  5
487
100
AcDbEntity
  8
0
100
AcDbSpline
 62
253
  6
CONTINUOUS
 70
0
 71
3
 72
11
 73
7
 74
5
 42
0.0000001
 43
0.0000001
 44
0.0000000001
 12
0.1293387549
 22
0.1033225855
 32
0.0
 13
0.1558463096
 23
-0.0558211248
 33
0.0
 40
0.0
 40
0.0
 40
0.0
 40
0.0
 40
0.2286070412
 40
0.4674924012
 40
0.7236441591
 40
1.0
 40
1.0
 40
1.0
 40
1.0
 10
13.6004312447
 20
19.8665412943
 30
0.0
 10
13.6102871614
 20
19.8744147178
 30
0.0
 10
13.6330881033
 20
19.887445389
 30
0.0
 10
13.6724911677
 20
19.8964555364
 30
0.0
 10
13.7154304533
 20
19.8950654153
 30
0.0
 10
13.744110413
 20
19.8876612934
 30
0.0
 10
13.758466759
 20
19.8825191288
 30
0.0
 11
13.6004312447
 21
19.8665412943
 31
0.0
 11
13.633221549
 21
19.8854348109
 31
0.0
 11
13.6716909109
 21
19.8945974941
 31
0.0
 11
13.7140832355
 21
19.8936106386
 31
0.0
 11
13.758466759
 21
19.8825191288
 31
0.0
  0
SPLINE
  5
488
100
AcDbEntity
  8
0
100
AcDbSpline
 62
253
  6
CONTINUOUS
 70
0
 71
3
 72
11
 73
7
 74
5
 42
0.0000001
 43
0.0000001
 44
0.0000000001
 12
0.0
 22
0.2506228671
 32
0.0
 13
0.1255472315
 23
0.2169094608
 33
0.0
 40
0.0
 40
0.0
 40
0.0
 40
0.0
 40
0.2327872057
 40
0.4859603256
 40
0.7463619876
 40
1.0
 40
1.0
 40
1.0
 40
1.0
 10
28.5786301751
 20
-28.0120905668
 30
0.0
 10
28.5786301751
 20
-27.9926433011
 30
0.0
 10
28.5822078637
 20
-27.9520212132
 30
0.0
 10
28.5958142972
 20
-27.8910255697
 30
0.0
 10
28.6171137517
 20
-27.8304247321
 30
0.0
 10
28.6360955377
 20
-27.7917552995
 30
0.0
 10
28.6467100545
 20
-27.7734164714
 30
0.0
 11
28.5786301751
 21
-28.0120905668
 31
0.0
 11
28.5832697081
 21
-27.9539335379
 31
0.0
 11
28.5968721309
 21
-27.8919577355
 31
0.0
 11
28.6185104604
 21
-27.8303867106
 31
0.0
 11
28.6467100545
 21
-27.7734164714
 31
0.0
  0
SPLINE
  5
489
100
AcDbEntity
  8
0
100
AcDbSpline
 62
7
  6
CONTINUOUS
 70
0
 71
3
 72
11
 73
7
 74
5
 42
0.0000001
 43
0.0000001
 44
0.0000000001
 12
0.1294607914
 22
0.0899805379
 32
0.0
 13
0.1486365189
 23
-0.0525716554
 33
0.0
 40
0.0
 40
0.0
 40
0.0
 40
0.0
 40
0.2283192359
 40
0.4679255841
 40
0.7244288398
 40
1.0
 40
1.0
 40
1.0
 40
1.0
 10
13.1937874596
 20
19.5329294011
 30
0.0
 10
13.2036402559
 20
19.5397774969
 30
0.0
 10
13.2260069738
 20
19.5508933029
 30
0.0
 10
13.2637878282
 20
19.5581235674
 30
0.0
 10
13.3046184898
 20
19.5561395793
 30
0.0
 10
13.3318755006
 20
19.5490676673
 30
0.0
 10
13.3455288133
 20
19.5442385899
 30
0.0
 11
13.1937874596
 21
19.5329294011
 31
0.0
 11
13.225952389
 21
19.5490905714
 31
0.0
 11
13.2629944125
 21
19.5565024146
 31
0.0
 11
13.3034014049
 21
19.5548629897
 31
0.0
 11
13.3455288133
 21
19.5442385899
 31
0.0
  0
SPLINE
  5
48A
100
AcDbEntity
  8
0
100
AcDbSpline
 62
253
  6
CONTINUOUS
 70
0
 71
3
 72
11
 73
7
 74
5
 42
0.0000001
 43
0.0000001
 44
0.0000000001
 12
0.1293421882
 22
0.1110464219
 32
0.0
 13
0.160942988
 23
-0.0561966554
 33
0.0
 40
0.0
 40
0.0
 40
0.0
 40
0.0
 40
0.2279541275
 40
0.4664095138
 40
0.7227676247
 40
1.0
 40
1.0
 40
1.0
 40
1.0
 10
26.5610993495
 20
13.3202616777
 30
0.0
 10
26.5709273781
 20
13.3286995078
 30
0.0
 10
26.5939600234
 20
13.3428125521
 30
0.0
 10
26.6343139278
 20
13.352936382
 30
0.0
 10
26.6786048875
 20
13.3521275805
 30
0.0
 10
26.7082792494
 20
13.3447667311
 30
0.0
 10
26.7231521183
 20
13.3395735537
 30
0.0
 11
26.5610993495
 21
13.3202616777
 31
0.0
 11
26.5941599957
 21
13.3406841597
 31
0.0
 11
26.6334908623
 21
13.3509556297
 31
0.0
 11
26.6771911279
 21
13.3505794278
 31
0.0
 11
26.7231521183
 21
13.3395735537
 31
0.0
  0
SPLINE
  5
48B
100
AcDbEntity
  8
0
100
AcDbSpline
 62
253
  6
CONTINUOUS
 70
0
 71
3
 72
11
 73
7
 74
5
 42
0.0000001
 43
0.0000001
 44
0.0000000001
 12
0.12940573
 22
0.1010495969
 32
0.0
 13
0.1545694533
 23
-0.0553637796
 33
0.0
 40
0.0
 40
0.0
 40
0.0
 40
0.0
 40
0.2285922585
 40
0.4675987071
 40
0.7237920181
 40
1.0
 40
1.0
 40
1.0
 40
1.0
 10
28.1943739131
 20
14.7059989794
 30
0.0
 10
28.2042342958
 20
14.713698698
 30
0.0
 10
28.2269686786
 20
14.7264016175
 30
0.0
 10
28.266099195
 20
14.735097615
 30
0.0
 10
28.3086743006
 20
14.7335883146
 30
0.0
 10
28.3371035356
 20
14.7262252295
 30
0.0
 10
28.3513346412
 20
14.7211279236
 30
0.0
 11
28.1943739131
 21
14.7059989794
 31
0.0
 11
28.2270706915
 21
14.7244254818
 31
0.0
 11
28.2653001666
 21
14.733279484
 31
0.0
 11
28.307348581
 21
14.7321637087
 31
0.0
 11
28.3513346412
 21
14.7211279236
 31
0.0
  0
SPLINE
  5
48C
100
AcDbEntity
  8
0
100
AcDbSpline
 62
7
  6
CONTINUOUS
 70
0
 71
3
 72
11
 73
7
 74
5
 42
0.0000001
 43
0.0000001
 44
0.0000000001
 12
0.1294607914
 22
0.0899805379
 32
0.0
 13
0.1486365189
 23
-0.0525716554
 33
0.0
 40
0.0
 40
0.0
 40
0.0
 40
0.0
 40
0.2283192359
 40
0.4679255841
 40
0.7244288398
 40
1.0
 40
1.0
 40
1.0
 40
1.0
 10
27.7866553418
 20
14.3715381958
 30
0.0
 10
27.7965081381
 20
14.3783862917
 30
0.0
 10
27.8188748561
 20
14.3895020977
 30
0.0
 10
27.8566557104
 20
14.3967323622
 30
0.0
 10
27.897486372
 20
14.3947483741
 30
0.0
 10
27.9247433829
 20
14.387676462
 30
0.0
 10
27.9383966955
 20
14.3828473847
 30
0.0
 11
27.7866553418
 21
14.3715381958
 31
0.0
 11
27.8188202713
 21
14.3876993662
 31
0.0
 11
27.8558622948
 21
14.3951112093
 31
0.0
 11
27.8962692871
 21
14.3934717845
 31
0.0
 11
27.9383966955
 21
14.3828473847
 31
0.0
  0
SPLINE
  5
48D
100
AcDbEntity
  8
0
100
AcDbSpline
 62
7
  6
CONTINUOUS
 70
0
 71
3
 72
12
 73
8
 74
6
 42
0.0000001
 43
0.0000001
 44
0.0000000001
 12
-0.3398134999
 22
0.12018845
 32
0.0
 13
-0.2773926715
 23
-0.2301559993
 33
0.0
 40
0.0
 40
0.0
 40
0.0
 40
0.0
 40
0.1037474059
 40
0.2100549049
 40
0.4386084785
 40
0.6998286003
 40
1.0
 40
1.0
 40
1.0
 40
1.0
 10
25.4568344038
 20
20.8111832511
 30
0.0
 10
25.4450828141
 20
20.8153396644
 30
0.0
 10
25.4204724739
 20
20.8216130028
 30
0.0
 10
25.3676863266
 20
20.8255196212
 30
0.0
 10
25.2960492022
 20
20.8126456975
 30
0.0
 10
25.2093361824
 20
20.7723945811
 30
0.0
 10
25.1543123446
 20
20.7327566533
 30
0.0
 10
25.1265572291
 20
20.7097279038
 30
0.0
 11
25.4568344038
 21
20.8111832511
 31
0.0
 11
25.4206090776
 21
20.8204626064
 31
0.0
 11
25.3824042379
 21
20.8234012943
 31
0.0
 11
25.3010852643
 21
20.8102201802
 31
0.0
 11
25.2150410174
 21
20.7719906283
 31
0.0
 11
25.1265572291
 21
20.7097279038
 31
0.0
  0
SPLINE
  5
48E
100
AcDbEntity
  8
0
100
AcDbSpline
 62
7
  6
CONTINUOUS
 70
0
 71
3
 72
11
 73
7
 74
5
 42
0.0000001
 43
0.0000001
 44
0.0000000001
 12
0.1905344216
 22
0.3260137087
 32
0.0
 13
-0.1442892346
 23
0.3489540384
 33
0.0
 40
0.0
 40
0.0
 40
0.0
 40
0.0
 40
0.2224458446
 40
0.4624690827
 40
0.7222564573
 40
1.0
 40
1.0
 40
1.0
 40
1.0
 10
25.3804550115
 20
13.9725834696
 30
0.0
 10
25.394582875
 20
13.9967569346
 30
0.0
 10
25.4161228238
 20
14.0518506809
 30
0.0
 10
25.4259109485
 20
14.143079969
 30
0.0
 10
25.4144940488
 20
14.2409726709
 30
0.0
 10
25.3938134793
 20
14.305844918
 30
0.0
 10
25.3804550115
 20
14.3381514949
 30
0.0
 11
25.3804550115
 21
13.9725834696
 31
0.0
 11
25.4117707352
 21
14.0505251263
 31
0.0
 11
25.4223885399
 21
14.1405358983
 31
0.0
 11
25.4117707352
 21
14.2380575509
 31
0.0
 11
25.3804550115
 21
14.3381514949
 31
0.0
  0
SPLINE
  5
48F
100
AcDbEntity
  8
0
100
AcDbSpline
 62
253
  6
CONTINUOUS
 70
0
 71
3
 72
10
 73
6
 74
4
 42
0.0000001
 43
0.0000001
 44
0.0000000001
 12
0.0004847668
 22
-0.1290606881
 32
0.0
 13
-0.0979195992
 23
-0.0840752538
 33
0.0
 40
0.0
 40
0.0
 40
0.0
 40
0.0
 40
0.5224466962
 40
0.764645486
 40
1.0
 40
1.0
 40
1.0
 40
1.0
 10
30.5664821375
 20
-26.940214309
 30
0.0
 10
30.5665665591
 20
-26.9626900857
 30
0.0
 10
30.5611908387
 20
-26.9963180712
 30
0.0
 10
30.5405320221
 20
-27.0344129938
 30
0.0
 10
30.5265563928
 20
-27.0498109056
 30
0.0
 10
30.5188744529
 20
-27.0564067357
 30
0.0
 11
30.5664821375
 21
-26.940214309
 31
0.0
 11
30.5543557318
 21
-27.0065427288
 31
0.0
 11
30.5393334789
 21
-27.0339549464
 31
0.0
 11
30.5188744529
 21
-27.0564067357
 31
0.0
  0
SPLINE
  5
490
100
AcDbEntity
  8
0
100
AcDbSpline
 62
7
  6
CONTINUOUS
 70
0
 71
3
 72
10
 73
6
 74
4
 42
0.0000001
 43
0.0000001
 44
0.0000000001
 12
0.0
 22
-0.1294181452
 32
0.0
 13
-0.0981933937
 23
-0.0843036995
 33
0.0
 40
0.0
 40
0.0
 40
0.0
 40
0.0
 40
0.522761047
 40
0.7649342256
 40
1.0
 40
1.0
 40
1.0
 40
1.0
 10
30.1608772488
 20
-27.2884215538
 30
0.0
 10
30.1608772488
 20
-27.3109731422
 30
0.0
 10
30.1553938711
 20
-27.3446789266
 30
0.0
 10
30.1346451224
 20
-27.3828576632
 30
0.0
 10
30.1206398086
 20
-27.3982862573
 30
0.0
 10
30.1129458399
 20
-27.4048918954
 30
0.0
 11
30.1608772488
 21
-27.2884215538
 31
0.0
 11
30.1485308149
 21
-27.3549402189
 31
0.0
 11
30.1334410705
 21
-27.3824101248
 31
0.0
 11
30.1129458399
 21
-27.4048918954
 31
0.0
  0
SPLINE
  5
491
100
AcDbEntity
  8
0
100
AcDbSpline
 62
253
  6
CONTINUOUS
 70
0
 71
3
 72
10
 73
6
 74
4
 42
0.0000001
 43
0.0000001
 44
0.0000000001
 12
-0.0005037554
 22
-0.1325718611
 32
0.0
 13
-0.1025511901
 23
-0.084016698
 33
0.0
 40
0.0
 40
0.0
 40
0.0
 40
0.0
 40
0.5231459547
 40
0.7651225118
 40
1.0
 40
1.0
 40
1.0
 40
1.0
 10
28.9236618867
 20
-28.3019536931
 30
0.0
 10
28.9235740408
 20
-28.3250718374
 30
0.0
 10
28.917727265
 20
-28.3596204846
 30
0.0
 10
28.8959082093
 20
-28.3984376459
 30
0.0
 10
28.8812485918
 20
-28.4139456865
 30
0.0
 10
28.8732196032
 20
-28.4205235635
 30
0.0
 11
28.9236618867
 21
-28.3019536931
 31
0.0
 11
28.9105074554
 21
-28.3700497116
 31
0.0
 11
28.8946576269
 21
-28.3979401789
 31
0.0
 11
28.8732196032
 21
-28.4205235635
 31
0.0
  0
SPLINE
  5
492
100
AcDbEntity
  8
RACCORDO
100
AcDbSpline
 62
7
  6
CONTINUOUS
 70
0
 71
3
 72
11
 73
7
 74
5
 42
0.0000001
 43
0.0000001
 44
0.0000000001
 12
-0.0000112515
 22
-0.0683856408
 32
0.0
 13
-0.0519795033
 23
-0.0444379031
 33
0.0
 40
0.0
 40
0.0
 40
0.0
 40
0.0
 40
0.227001347
 40
0.4642850746
 40
0.7201814492
 40
1.0
 40
1.0
 40
1.0
 40
1.0
 10
34.1506211888
 20
-18.156274905
 30
0.0
 10
34.1506203374
 20
-18.1614494492
 30
0.0
 10
34.1492011441
 20
-18.1720789685
 30
0.0
 10
34.1429727363
 20
-18.1874276489
 30
0.0
 10
34.1328734216
 20
-18.2020109643
 30
0.0
 10
34.1241479629
 20
-18.2106489559
 30
0.0
 10
34.1192996865
 20
-18.2147938058
 30
0.0
 11
34.1506211888
 21
-18.156274905
 31
0.0
 11
34.1486119731
 21
-18.1716679628
 31
0.0
 11
34.1426294732
 21
-18.1867516869
 31
0.0
 11
34.1327920796
 21
-18.2012245239
 31
0.0
 11
34.1192996865
 21
-18.2147938058
 31
0.0
  0
SPLINE
  5
493
100
AcDbEntity
  8
0
100
AcDbSpline
 62
7
  6
CONTINUOUS
 70
0
 71
3
 72
11
 73
7
 74
5
 42
0.0000001
 43
0.0000001
 44
0.0000000001
 12
0.0
 22
-0.2408738563
 32
0.0
 13
-0.1701652074
 23
-0.17048172
 33
0.0
 40
0.0
 40
0.0
 40
0.0
 40
0.0
 40
0.2689848574
 40
0.5233167107
 40
0.7655708663
 40
1.0
 40
1.0
 40
1.0
 40
1.0
 10
30.9988158643
 20
-25.6137230316
 30
0.0
 10
30.9988158643
 20
-25.6353201716
 30
0.0
 10
30.9955775572
 20
-25.6774421434
 30
0.0
 10
30.980011449
 20
-25.7372747623
 30
0.0
 10
30.9541551903
 20
-25.7904189895
 30
0.0
 10
30.930147256
 20
-25.8207059485
 30
0.0
 10
30.9168500286
 20
-25.8340279092
 30
0.0
 11
30.9988158643
 21
-25.6137230316
 31
0.0
 11
30.993531271
 21
-25.6782985778
 31
0.0
 11
30.9778070889
 21
-25.7375081192
 31
0.0
 11
30.9520323998
 21
-25.7898598349
 31
0.0
 11
30.9168500286
 21
-25.8340279092
 31
0.0
  0
SPLINE
  5
494
100
AcDbEntity
  8
0
100
AcDbSpline
 62
7
  6
CONTINUOUS
 70
0
 71
3
 72
13
 73
9
 74
7
 42
0.0000001
 43
0.0000001
 44
0.0000000001
 12
0.7016806662
 22
-0.2481793468
 32
0.0
 13
0.0
 23
-0.7442773311
 33
0.0
 40
0.0
 40
0.0
 40
0.0
 40
0.0
 40
0.1205801789
 40
0.2469823667
 40
0.5081534796
 40
0.6386005712
 40
0.7654694587
 40
1.0
 40
1.0
 40
1.0
 40
1.0
 10
30.5801917912
 20
11.687255486
 30
0.0
 10
30.6083947179
 20
11.677280316
 30
0.0
 10
30.6643926932
 20
11.651559691
 30
0.0
 10
30.7697788658
 20
11.5817588027
 30
0.0
 10
30.8607062282
 20
11.4881370608
 30
0.0
 10
30.9299513849
 20
11.3792963583
 30
0.0
 10
30.9803093828
 20
11.2679415896
 30
0.0
 10
30.9988158643
 20
11.1778492365
 30
0.0
 10
30.9988158643
 20
11.1196639814
 30
0.0
 11
30.5801917912
 21
11.687255486
 31
0.0
 11
30.6619342586
 21
11.6502102318
 31
0.0
 11
30.7405155888
 21
11.5984830835
 31
0.0
 11
30.8763407909
 21
11.4594271508
 31
0.0
 11
30.9283681897
 21
11.3774552811
 31
0.0
 11
30.9670070669
 21
11.2912970657
 31
0.0
 11
30.9988158643
 21
11.1196639814
 31
0.0
  0
SPLINE
  5
495
100
AcDbEntity
  8
0
100
AcDbSpline
 62
253
  6
CONTINUOUS
 70
0
 71
3
 72
11
 73
7
 74
5
 42
0.0000001
 43
0.0000001
 44
0.0000000001
 12
-0.0848874758
 22
0.0300217387
 32
0.0
 13
-0.0692938437
 23
-0.0574939264
 33
0.0
 40
0.0
 40
0.0
 40
0.0
 40
0.0
 40
0.2094265291
 40
0.4381646635
 40
0.6995855617
 40
1.0
 40
1.0
 40
1.0
 40
1.0
 10
15.8465204559
 20
19.1985574884
 30
0.0
 10
15.8405945595
 20
19.2006532713
 30
0.0
 10
15.8272811173
 20
19.2027197999
 30
0.0
 10
15.8063384909
 20
19.1989165104
 30
0.0
 10
15.784639969
 20
19.18886377
 30
0.0
 10
15.7708891185
 20
19.1789515747
 30
0.0
 10
15.7639501615
 20
19.1731942395
 30
0.0
 11
15.8465204559
 21
19.1985574884
 31
0.0
 11
15.8279128163
 21
19.2016124417
 31
0.0
 11
15.8075825796
 21
19.1983171777
 31
0.0
 11
15.786071679
 21
19.1887603168
 31
0.0
 11
15.7639501615
 21
19.1731942395
 31
0.0
  0
SPLINE
  5
496
100
AcDbEntity
  8
0
100
AcDbSpline
 62
253
  6
CONTINUOUS
 70
0
 71
3
 72
11
 73
7
 74
5
 42
0.0000001
 43
0.0000001
 44
0.0000000001
 12
-0.0848874758
 22
0.0300217387
 32
0.0
 13
-0.0692938437
 23
-0.0574939264
 33
0.0
 40
0.0
 40
0.0
 40
0.0
 40
0.0
 40
0.2094265291
 40
0.4381646635
 40
0.6995855617
 40
1.0
 40
1.0
 40
1.0
 40
1.0
 10
13.8410370534
 20
19.9078823778
 30
0.0
 10
13.8351111569
 20
19.9099781606
 30
0.0
 10
13.8217977148
 20
19.9120446893
 30
0.0
 10
13.8008550883
 20
19.9082413998
 30
0.0
 10
13.7791565665
 20
19.8981886594
 30
0.0
 10
13.765405716
 20
19.888276464
 30
0.0
 10
13.758466759
 20
19.8825191288
 30
0.0
 11
13.8410370534
 21
19.9078823778
 31
0.0
 11
13.8224294138
 21
19.9109373311
 31
0.0
 11
13.8020991771
 21
19.9076420671
 31
0.0
 11
13.7805882765
 21
19.8980852062
 31
0.0
 11
13.758466759
 21
19.8825191288
 31
0.0
  0
SPLINE
  5
497
100
AcDbEntity
  8
0
100
AcDbSpline
 62
253
  6
CONTINUOUS
 70
0
 71
3
 72
11
 73
7
 74
5
 42
0.0000001
 43
0.0000001
 44
0.0000000001
 12
-0.0848874758
 22
0.0300217387
 32
0.0
 13
-0.0692938437
 23
-0.0574939264
 33
0.0
 40
0.0
 40
0.0
 40
0.0
 40
0.0
 40
0.2094265291
 40
0.4381646635
 40
0.6995855617
 40
1.0
 40
1.0
 40
1.0
 40
1.0
 10
30.4393883382
 20
14.0371662832
 30
0.0
 10
30.4334624417
 20
14.039262066
 30
0.0
 10
30.4201489995
 20
14.0413285947
 30
0.0
 10
30.3992063731
 20
14.0375253052
 30
0.0
 10
30.3775078513
 20
14.0274725648
 30
0.0
 10
30.3637570008
 20
14.0175603694
 30
0.0
 10
30.3568180437
 20
14.0118030342
 30
0.0
 11
30.4393883382
 21
14.0371662832
 31
0.0
 11
30.4207806985
 21
14.0402212365
 31
0.0
 11
30.4004504618
 21
14.0369259725
 31
0.0
 11
30.3789395613
 21
14.0273691115
 31
0.0
 11
30.3568180437
 21
14.0118030342
 31
0.0
  0
SPLINE
  5
498
100
AcDbEntity
  8
0
100
AcDbSpline
 62
253
  6
CONTINUOUS
 70
0
 71
3
 72
11
 73
7
 74
5
 42
0.0000001
 43
0.0000001
 44
0.0000000001
 12
-0.0848874795
 22
0.0300217092
 32
0.0
 13
-0.0692938388
 23
-0.0574939224
 33
0.0
 40
0.0
 40
0.0
 40
0.0
 40
0.0
 40
0.2094266507
 40
0.4381649014
 40
0.6995859862
 40
1.0
 40
1.0
 40
1.0
 40
1.0
 10
28.4339049302
 20
14.7464911749
 30
0.0
 10
28.42797903
 20
14.7485869569
 30
0.0
 10
28.4146655813
 20
14.7506534836
 30
0.0
 10
28.3937229443
 20
14.7468501872
 30
0.0
 10
28.3720244312
 20
14.7367974404
 30
0.0
 10
28.358273588
 20
14.7268852502
 30
0.0
 10
28.3513346412
 20
14.7211279236
 30
0.0
 11
28.4339049302
 21
14.7464911749
 31
0.0
 11
28.4152972803
 21
14.749546125
 31
0.0
 11
28.3949670355
 21
14.7462508544
 31
0.0
 11
28.3734561243
 21
14.7366939801
 31
0.0
 11
28.3513346412
 21
14.7211279236
 31
0.0
  0
SPLINE
  5
499
100
AcDbEntity
  8
0
100
AcDbSpline
 62
7
  6
CONTINUOUS
 70
0
 71
3
 72
13
 73
9
 74
7
 42
0.0000001
 43
0.0000001
 44
0.0000000001
 12
0.0
 22
0.7451057347
 32
0.0
 13
-0.7024616584
 23
0.2484555781
 33
0.0
 40
0.0
 40
0.0
 40
0.0
 40
0.0
 40
0.2346088404
 40
0.3615330761
 40
0.4920229596
 40
0.6236420176
 40
0.753844025
 40
1.0
 40
1.0
 40
1.0
 40
1.0
 10
30.9999137651
 20
11.1194817862
 30
0.0
 10
30.9999137651
 20
11.1777512504
 30
0.0
 10
30.9813029348
 20
11.2679841866
 30
0.0
 10
30.9307578332
 20
11.3794215263
 30
0.0
 10
30.8785979084
 20
11.4611868302
 30
0.0
 10
30.8151695324
 20
11.5355946362
 30
0.0
 10
30.7208049604
 20
11.6196318681
 30
0.0
 10
30.6378301693
 20
11.666869211
 30
0.0
 10
30.5801917912
 20
11.687255486
 30
0.0
 11
30.9999137651
 21
11.1194817862
 31
0.0
 11
30.967956836
 21
11.2913443148
 31
0.0
 11
30.9291623618
 21
11.3775930678
 31
0.0
 11
30.8769561021
 21
11.4596170784
 31
0.0
 11
30.8133467186
 21
11.5342601878
 31
0.0
 11
30.7407820779
 21
11.5986507152
 31
0.0
 11
30.5801917912
 21
11.687255486
 31
0.0
  0
SPLINE
  5
49A
100
AcDbEntity
  8
0
100
AcDbSpline
 62
253
  6
CONTINUOUS
 70
0
 71
3
 72
11
 73
7
 74
5
 42
0.0000001
 43
0.0000001
 44
0.0000000001
 12
0.0000006656
 22
-0.0860043957
 32
0.0
 13
-0.0655479459
 23
-0.055679645
 33
0.0
 40
0.0
 40
0.0
 40
0.0
 40
0.0
 40
0.2268182149
 40
0.4640143068
 40
0.7199518219
 40
1.0
 40
1.0
 40
1.0
 40
1.0
 10
16.0131580196
 20
18.6263116379
 30
0.0
 10
16.01315807
 20
18.6198091834
 30
0.0
 10
16.0113661059
 20
18.6064480291
 30
0.0
 10
16.0034987156
 20
18.5871643898
 30
0.0
 10
15.9907460092
 20
18.5688520994
 30
0.0
 10
15.9797331162
 20
18.5580169796
 30
0.0
 10
15.9736142552
 20
18.5528193185
 30
0.0
 11
16.0131580196
 21
18.6263116379
 31
0.0
 11
16.010622781
 21
18.6069697198
 31
0.0
 11
16.0030684706
 21
18.588020087
 31
0.0
 11
15.9906483363
 21
18.5698470999
 31
0.0
 11
15.9736142552
 21
18.5528193185
 31
0.0
  0
SPLINE
  5
49B
100
AcDbEntity
  8
0
100
AcDbSpline
 62
253
  6
CONTINUOUS
 70
0
 71
3
 72
11
 73
7
 74
5
 42
0.0000001
 43
0.0000001
 44
0.0000000001
 12
0.0000006294
 22
-0.086004396
 32
0.0
 13
-0.0655479461
 23
-0.0556796452
 33
0.0
 40
0.0
 40
0.0
 40
0.0
 40
0.0
 40
0.2268181367
 40
0.4640141428
 40
0.7199516412
 40
1.0
 40
1.0
 40
1.0
 40
1.0
 10
16.0131580198
 20
18.9628658008
 30
0.0
 10
16.0131580674
 20
18.9563633485
 30
0.0
 10
16.0113661079
 20
18.9430021992
 30
0.0
 10
16.0034987222
 20
18.9237185628
 30
0.0
 10
15.990746015
 20
18.9054062703
 30
0.0
 10
15.9797331201
 20
18.8945711455
 30
0.0
 10
15.9736142552
 20
18.8893734811
 30
0.0
 11
16.0131580198
 21
18.9628658008
 31
0.0
 11
16.0106227826
 21
18.9435238892
 31
0.0
 11
16.0030684778
 21
18.924574262
 31
0.0
 11
15.9906483458
 21
18.906401275
 31
0.0
 11
15.9736142552
 21
18.8893734811
 31
0.0
  0
SPLINE
  5
49C
100
AcDbEntity
  8
0
100
AcDbSpline
 62
253
  6
CONTINUOUS
 70
0
 71
3
 72
13
 73
9
 74
7
 42
0.0000001
 43
0.0000001
 44
0.0000000001
 12
0.0
 22
-0.1401936228
 32
0.0
 13
0.1321711739
 23
-0.0467443332
 33
0.0
 40
0.0
 40
0.0
 40
0.0
 40
0.0
 40
0.3179304692
 40
0.586716024
 40
0.7030780481
 40
0.8088737212
 40
0.9066332759
 40
1.0
 40
1.0
 40
1.0
 40
1.0
 10
28.5786301751
 20
-28.3413258654
 30
0.0
 10
28.5786301751
 20
-28.3561831402
 30
0.0
 10
28.5804675068
 20
-28.3836548985
 30
0.0
 10
28.5889210441
 20
-28.4157679301
 30
0.0
 10
28.5994991874
 20
-28.4362303827
 30
0.0
 10
28.6086267294
 20
-28.4481882549
 30
0.0
 10
28.6192422269
 20
-28.4572979471
 30
0.0
 10
28.6273140353
 20
-28.4613695827
 30
0.0
 10
28.6314274985
 20
-28.4628243712
 30
0.0
 11
28.5786301751
 21
-28.3413258654
 31
0.0
 11
28.582153336
 21
-28.3857582281
 31
0.0
 11
28.5925400344
 21
-28.4219804751
 31
0.0
 11
28.6001525414
 21
-28.4364085962
 31
0.0
 11
28.6092530552
 21
-28.4481203542
 31
0.0
 11
28.6197233516
 21
-28.4569638384
 31
0.0
 11
28.6314274985
 21
-28.4628243712
 31
0.0
  0
SPLINE
  5
49D
100
AcDbEntity
  8
0
100
AcDbSpline
 62
253
  6
CONTINUOUS
 70
0
 71
3
 72
12
 73
8
 74
6
 42
0.0000001
 43
0.0000001
 44
0.0000000001
 12
-0.1611006753
 22
0.0569801368
 32
0.0
 13
-0.0000013224
 23
0.1708805535
 33
0.0
 40
0.0
 40
0.0
 40
0.0
 40
0.0
 40
0.3053528247
 40
0.5708749167
 40
0.7975418989
 40
0.900524156
 40
1.0
 40
1.0
 40
1.0
 40
1.0
 10
26.5877845005
 20
12.6871453244
 30
0.0
 10
26.571386985
 20
12.6929450063
 30
0.0
 10
26.5414792954
 20
12.7062719493
 30
0.0
 10
26.504436029
 20
12.7332483718
 30
0.0
 10
26.483476844
 20
12.7608843258
 30
0.0
 10
26.4752908689
 20
12.7841000949
 30
0.0
 10
26.473944304
 20
12.7956723442
 30
0.0
 10
26.4739442601
 20
12.8013385066
 30
0.0
 11
26.5877845005
 21
12.6871453244
 31
0.0
 11
26.5403631632
 21
12.7089134242
 31
0.0
 11
26.5042401403
 21
12.7363687809
 31
0.0
 11
26.4816366694
 21
12.7678223466
 31
0.0
 11
26.4758748324
 21
12.7844500058
 31
0.0
 11
26.4739442601
 21
12.8013385066
 31
0.0
  0
SPLINE
  5
49E
100
AcDbEntity
  8
0
100
AcDbSpline
 62
253
  6
CONTINUOUS
 70
0
 71
3
 72
12
 73
8
 74
6
 42
0.0000001
 43
0.0000001
 44
0.0000000001
 12
-0.1610899557
 22
0.0569763454
 32
0.0
 13
-0.0000279344
 23
0.1708691809
 33
0.0
 40
0.0
 40
0.0
 40
0.0
 40
0.0
 40
0.3053488971
 40
0.5708714279
 40
0.7975416489
 40
0.9005248381
 40
1.0
 40
1.0
 40
1.0
 40
1.0
 10
26.5877845005
 20
13.016380623
 30
0.0
 10
26.571388287
 20
13.0221798444
 30
0.0
 10
26.5414827235
 20
13.0355056204
 30
0.0
 10
26.5044412798
 20
13.0624791736
 30
0.0
 10
26.4834815545
 20
13.0901118644
 30
0.0
 10
26.4752933516
 20
13.1133252667
 30
0.0
 10
26.4739451875
 20
13.124896538
 30
0.0
 10
26.4739442612
 20
13.1305622845
 30
0.0
 11
26.5877845005
 21
13.016380623
 31
0.0
 11
26.5403667514
 21
13.0381466088
 31
0.0
 11
26.5042451864
 21
13.065599018
 31
0.0
 11
26.4816405742
 21
13.0970492711
 31
0.0
 11
26.4758771281
 21
13.1136753019
 31
0.0
 11
26.4739442612
 21
13.1305622845
 31
0.0
  0
SPLINE
  5
49F
100
AcDbEntity
  8
0
100
AcDbSpline
 62
253
  6
CONTINUOUS
 70
0
 71
3
 72
13
 73
9
 74
7
 42
0.0000001
 43
0.0000001
 44
0.0000000001
 12
0.339107844
 22
-0.1199399774
 32
0.0
 13
0.2770384953
 23
0.2294109854
 33
0.0
 40
0.0
 40
0.0
 40
0.0
 40
0.0
 40
0.2567678582
 40
0.5269545697
 40
0.6583454567
 40
0.7826384147
 40
0.8971108139
 40
1.0
 40
1.0
 40
1.0
 40
1.0
 10
28.5786301751
 20
12.3122329915
 30
0.0
 10
28.6076541734
 20
12.3019674145
 30
0.0
 10
28.6702094106
 20
12.2891220153
 30
0.0
 10
28.7497142744
 20
12.2895629197
 30
0.0
 10
28.8120067599
 20
12.3000524099
 30
0.0
 10
28.8547161568
 20
12.3125629427
 30
0.0
 10
28.892245951
 20
12.3293018247
 30
0.0
 10
28.9141604649
 20
12.343737194
 30
0.0
 10
28.9236618867
 20
12.3516051638
 30
0.0
 11
28.5786301751
 21
12.3122329915
 31
0.0
 11
28.6688734053
 21
12.2925827923
 31
0.0
 11
28.766056212
 21
12.293160181
 31
0.0
 11
28.8126400078
 21
12.3011292048
 31
0.0
 11
28.8554911521
 21
12.3138780532
 31
0.0
 11
28.8929741509
 21
12.3309194064
 31
0.0
 11
28.9236618867
 21
12.3516051638
 31
0.0
  0
SPLINE
  5
4A0
100
AcDbEntity
  8
0
100
AcDbSpline
 62
253
  6
CONTINUOUS
 70
0
 71
3
 72
11
 73
7
 74
5
 42
0.0000001
 43
0.0000001
 44
0.0000000001
 12
0.0000006656
 22
-0.0860043957
 32
0.0
 13
-0.0655479459
 23
-0.055679645
 33
0.0
 40
0.0
 40
0.0
 40
0.0
 40
0.0
 40
0.2268182149
 40
0.4640143068
 40
0.7199518219
 40
1.0
 40
1.0
 40
1.0
 40
1.0
 10
30.6060259019
 20
13.4649204326
 30
0.0
 10
30.6060259522
 20
13.4584179781
 30
0.0
 10
30.6042339882
 20
13.4450568239
 30
0.0
 10
30.5963665978
 20
13.4257731845
 30
0.0
 10
30.5836138915
 20
13.4074608941
 30
0.0
 10
30.5726009984
 20
13.3966257743
 30
0.0
 10
30.5664821375
 20
13.3914281133
 30
0.0
 11
30.6060259019
 21
13.4649204326
 31
0.0
 11
30.6034906633
 21
13.4455785145
 31
0.0
 11
30.5959363528
 21
13.4266288818
 31
0.0
 11
30.5835162185
 21
13.4084558947
 31
0.0
 11
30.5664821375
 21
13.3914281133
 31
0.0
  0
SPLINE
  5
4A1
100
AcDbEntity
  8
0
100
AcDbSpline
 62
253
  6
CONTINUOUS
 70
0
 71
3
 72
13
 73
9
 74
7
 42
0.0000001
 43
0.0000001
 44
0.0000000001
 12
0.3391078437
 22
-0.1199399773
 32
0.0
 13
0.277038495
 23
0.2294109851
 33
0.0
 40
0.0
 40
0.0
 40
0.0
 40
0.0
 40
0.2567680275
 40
0.5269546908
 40
0.6583455447
 40
0.7826384694
 40
0.8971108397
 40
1.0
 40
1.0
 40
1.0
 40
1.0
 10
28.5786301751
 20
11.9829976929
 30
0.0
 10
28.6076541925
 20
11.9727321091
 30
0.0
 10
28.6702094462
 20
11.959886714
 30
0.0
 10
28.7497143201
 20
11.9603276244
 30
0.0
 10
28.8120067908
 20
11.9708171194
 30
0.0
 10
28.854716176
 20
11.9833276508
 30
0.0
 10
28.8922459593
 20
12.0000665314
 30
0.0
 10
28.9141604673
 20
12.0145018974
 30
0.0
 10
28.9236618867
 20
12.0223698652
 30
0.0
 11
28.5786301751
 21
11.9829976929
 31
0.0
 11
28.6688734664
 21
11.9633474884
 31
0.0
 11
28.7660562556
 21
11.9639248872
 31
0.0
 11
28.8126400387
 21
11.9718939136
 31
0.0
 11
28.8554911708
 21
11.9846427612
 31
0.0
 11
28.8929741591
 21
12.0016841124
 31
0.0
 11
28.9236618867
 21
12.0223698652
 31
0.0
  0
SPLINE
  5
4A2
100
AcDbEntity
  8
0
100
AcDbSpline
 62
253
  6
CONTINUOUS
 70
0
 71
3
 72
11
 73
7
 74
5
 42
0.0000001
 43
0.0000001
 44
0.0000000001
 12
0.0000006294
 22
-0.086004396
 32
0.0
 13
-0.0655479461
 23
-0.0556796452
 33
0.0
 40
0.0
 40
0.0
 40
0.0
 40
0.0
 40
0.2268181367
 40
0.4640141428
 40
0.7199516412
 40
1.0
 40
1.0
 40
1.0
 40
1.0
 10
30.6060259021
 20
13.8014745955
 30
0.0
 10
30.6060259496
 20
13.7949721432
 30
0.0
 10
30.6042339902
 20
13.7816109939
 30
0.0
 10
30.5963666044
 20
13.7623273575
 30
0.0
 10
30.5836138973
 20
13.7440150651
 30
0.0
 10
30.5726010024
 20
13.7331799403
 30
0.0
 10
30.5664821375
 20
13.7279822758
 30
0.0
 11
30.6060259021
 21
13.8014745955
 31
0.0
 11
30.6034906649
 21
13.7821326839
 31
0.0
 11
30.5959363601
 21
13.7631830568
 31
0.0
 11
30.5835162281
 21
13.7450100698
 31
0.0
 11
30.5664821375
 21
13.7279822758
 31
0.0
  0
SPLINE
  5
4A3
100
AcDbEntity
  8
0
100
AcDbSpline
 62
253
  6
CONTINUOUS
 70
0
 71
3
 72
13
 73
9
 74
7
 42
0.0000001
 43
0.0000001
 44
0.0000000001
 12
0.3391078433
 22
-0.1199399771
 32
0.0
 13
0.2770384947
 23
0.2294109849
 33
0.0
 40
0.0
 40
0.0
 40
0.0
 40
0.0
 40
0.2567680909
 40
0.5269548165
 40
0.6583456912
 40
0.7826386281
 40
0.8971110165
 40
1.0
 40
1.0
 40
1.0
 40
1.0
 10
13.9857622928
 20
17.4736241968
 30
0.0
 10
14.0147863173
 20
17.4633586105
 30
0.0
 10
14.0773415867
 20
17.450513215
 30
0.0
 10
14.1568464786
 20
17.4509541297
 30
0.0
 10
14.2191389588
 20
17.4614436359
 30
0.0
 10
14.2618483495
 20
17.4739541714
 30
0.0
 10
14.2993781106
 20
17.4906930588
 30
0.0
 10
14.3212926014
 20
17.5051284147
 30
0.0
 10
14.3307940044
 20
17.5129963691
 30
0.0
 11
13.9857622928
 21
17.4736241968
 31
0.0
 11
14.0760056069
 21
17.4539739902
 31
0.0
 11
14.1731884184
 21
17.4545513963
 31
0.0
 11
14.2197722079
 21
17.4625204298
 31
0.0
 11
14.2626233425
 21
17.4752692839
 31
0.0
 11
14.3001063318
 21
17.4923106486
 31
0.0
 11
14.3307940044
 21
17.5129963691
 31
0.0
  0
SPLINE
  5
4A4
100
AcDbEntity
  8
0
100
AcDbSpline
 62
253
  6
CONTINUOUS
 70
0
 71
3
 72
13
 73
9
 74
7
 42
0.0000001
 43
0.0000001
 44
0.0000000001
 12
0.3391078435
 22
-0.1199399772
 32
0.0
 13
0.2770384948
 23
0.229410985
 33
0.0
 40
0.0
 40
0.0
 40
0.0
 40
0.0
 40
0.2567680607
 40
0.5269547613
 40
0.6583456288
 40
0.7826385605
 40
0.8971109351
 40
1.0
 40
1.0
 40
1.0
 40
1.0
 10
13.9857622928
 20
17.1443888982
 30
0.0
 10
14.014786314
 20
17.134123313
 30
0.0
 10
14.0773415764
 20
17.1212779176
 30
0.0
 10
14.1568464607
 20
17.1217188304
 30
0.0
 10
14.2191389372
 20
17.1322083318
 30
0.0
 10
14.2618483251
 20
17.1447188655
 30
0.0
 10
14.2993780957
 20
17.1614577497
 30
0.0
 10
14.3212925939
 20
17.1758931099
 30
0.0
 10
14.3307940044
 20
17.1837610705
 30
0.0
 11
13.9857622928
 21
17.1443888982
 31
0.0
 11
14.0760055961
 21
17.1247386926
 31
0.0
 11
14.1731883986
 21
17.1253160954
 31
0.0
 11
14.219772186
 21
17.1332851259
 31
0.0
 11
14.2626233195
 21
17.1460339772
 31
0.0
 11
14.3001063065
 21
17.163075335
 31
0.0
 11
14.3307940044
 21
17.1837610705
 31
0.0
  0
SPLINE
  5
4A5
100
AcDbEntity
  8
0
100
AcDbSpline
 62
253
  6
CONTINUOUS
 70
0
 71
3
 72
12
 73
8
 74
6
 42
0.0000001
 43
0.0000001
 44
0.0000000001
 12
-0.1610941251
 22
0.0569778201
 32
0.0
 13
-0.0000175283
 23
0.1708736048
 33
0.0
 40
0.0
 40
0.0
 40
0.0
 40
0.0
 40
0.3053503703
 40
0.5708727567
 40
0.7975417324
 40
0.9005245657
 40
1.0
 40
1.0
 40
1.0
 40
1.0
 10
11.9949166182
 20
17.8485365297
 30
0.0
 10
11.9785199013
 20
17.8543359291
 30
0.0
 10
11.9486135123
 20
17.8676621581
 30
0.0
 10
11.9115713592
 20
17.894636825
 30
0.0
 10
11.8906118408
 20
17.922270787
 30
0.0
 10
11.8824245055
 20
17.9454851113
 30
0.0
 10
11.8810769594
 20
17.9570567637
 30
0.0
 10
11.8810763782
 20
17.9627226724
 30
0.0
 11
11.9949166182
 21
17.8485365297
 31
0.0
 11
11.9474974816
 21
17.870303333
 31
0.0
 11
11.9113753449
 21
17.8977568898
 31
0.0
 11
11.8887711744
 21
17.9292084329
 31
0.0
 11
11.8830083536
 21
17.9458350981
 31
0.0
 11
11.8810763782
 21
17.9627226724
 31
0.0
  0
SPLINE
  5
4A6
100
AcDbEntity
  8
0
100
AcDbSpline
 62
253
  6
CONTINUOUS
 70
0
 71
3
 72
12
 73
8
 74
6
 42
0.0000001
 43
0.0000001
 44
0.0000000001
 12
-0.1610899557
 22
0.0569763454
 32
0.0
 13
-0.0000279344
 23
0.1708691809
 33
0.0
 40
0.0
 40
0.0
 40
0.0
 40
0.0
 40
0.3053488971
 40
0.5708714279
 40
0.7975416489
 40
0.9005248381
 40
1.0
 40
1.0
 40
1.0
 40
1.0
 10
11.9949166182
 20
18.1777718283
 30
0.0
 10
11.9785204048
 20
18.1835710497
 30
0.0
 10
11.9486148412
 20
18.1968968256
 30
0.0
 10
11.9115733975
 20
18.2238703788
 30
0.0
 10
11.8906136722
 20
18.2515030697
 30
0.0
 10
11.8824254694
 20
18.2747164719
 30
0.0
 10
11.8810773052
 20
18.2862877433
 30
0.0
 10
11.8810763789
 20
18.2919534898
 30
0.0
 11
11.9949166182
 21
18.1777718283
 31
0.0
 11
11.9474988692
 21
18.199537814
 31
0.0
 11
11.9113773042
 21
18.2269902232
 31
0.0
 11
11.8887726919
 21
18.2584404763
 31
0.0
 11
11.8830092459
 21
18.2750665071
 31
0.0
 11
11.8810763789
 21
18.2919534898
 31
0.0
  0
SPLINE
  5
4A7
100
AcDbEntity
  8
0
100
AcDbSpline
 62
7
  6
CONTINUOUS
 70
0
 71
3
 72
11
 73
7
 74
5
 42
0.0000001
 43
0.0000001
 44
0.0000000001
 12
0.0000031874
 22
-0.1679272902
 32
0.0
 13
-0.1265909387
 23
-0.1103372513
 33
0.0
 40
0.0
 40
0.0
 40
0.0
 40
0.0
 40
0.2275505249
 40
0.4651135994
 40
0.7208158825
 40
1.0
 40
1.0
 40
1.0
 40
1.0
 10
34.7576426786
 20
-18.4596745546
 30
0.0
 10
34.7576429204
 20
-18.4724118689
 30
0.0
 10
34.7542128793
 20
-18.4985580544
 30
0.0
 10
34.7391275456
 20
-18.5363613295
 30
0.0
 10
34.7146415194
 20
-18.5723438303
 30
0.0
 10
34.6934476697
 20
-18.5937197082
 30
0.0
 10
34.6816669432
 20
-18.6039878442
 30
0.0
 11
34.7576426786
 21
-18.4596745546
 31
0.0
 11
34.7527778603
 21
-18.497575559
 31
0.0
 11
34.7382748111
 21
-18.534739235
 31
0.0
 11
34.7144172708
 21
-18.5704409032
 31
0.0
 11
34.6816669432
 21
-18.6039878442
 31
0.0
  0
SPLINE
  5
4A8
100
AcDbEntity
  8
0
100
AcDbSpline
 62
7
  6
CONTINUOUS
 70
0
 71
3
 72
9
 73
5
 74
3
 42
0.0000001
 43
0.0000001
 44
0.0000000001
 12
0.0202252696
 22
0.0167811468
 32
0.0
 13
0.0214126095
 23
0.0152370789
 33
0.0
 40
0.0
 40
0.0
 40
0.0
 40
0.0
 40
0.2556788454
 40
1.0
 40
1.0
 40
1.0
 40
1.0
 10
21.7101229708
 20
19.7131879803
 30
0.0
 10
21.7118466953
 20
19.714618175
 30
0.0
 10
21.718636703
 20
19.7201533132
 30
0.0
 10
21.7256230083
 20
19.7254489616
 30
0.0
 10
21.7309356277
 20
19.7292293883
 30
0.0
 11
21.7101229708
 21
19.7131879803
 31
0.0
 11
21.7153316502
 21
19.7174329547
 31
0.0
 11
21.7309356277
 21
19.7292293883
 31
0.0
  0
SPLINE
  5
4A9
100
AcDbEntity
  8
0
100
AcDbSpline
 62
253
  6
CONTINUOUS
 70
0
 71
3
 72
13
 73
9
 74
7
 42
0.0000001
 43
0.0000001
 44
0.0000000001
 12
0.0
 22
0.3589592699
 32
0.0
 13
0.2738252686
 23
0.2321023044
 33
0.0
 40
0.0
 40
0.0
 40
0.0
 40
0.0
 40
0.1198249703
 40
0.2487897153
 40
0.5189854055
 40
0.7789714406
 40
0.895849029
 40
1.0
 40
1.0
 40
1.0
 40
1.0
 10
26.5877845005
 20
13.016380623
 30
0.0
 10
26.5877845005
 20
13.030718051
 30
0.0
 10
26.5897366313
 20
13.0605029395
 30
0.0
 10
26.6002539661
 20
13.1217873478
 30
0.0
 10
26.6243938334
 20
13.1973120391
 30
0.0
 10
26.660390803
 20
13.266452583
 30
0.0
 10
26.6950292735
 20
13.3125554403
 30
0.0
 10
26.7136457291
 20
13.3315156603
 30
0.0
 10
26.7231521183
 20
13.3395735537
 30
0.0
 11
26.5877845005
 21
13.016380623
 31
0.0
 11
26.5903816161
 21
13.0593144273
 31
0.0
 11
26.5980734763
 21
13.1049640225
 31
0.0
 11
26.6273852303
 21
13.1974179853
 31
0.0
 11
26.6712899445
 21
13.2797697868
 31
0.0
 11
26.6967006775
 21
13.313153277
 31
0.0
 11
26.7231521183
 21
13.3395735537
 31
0.0
  0
SPLINE
  5
4AA
100
AcDbEntity
  8
0
100
AcDbSpline
 62
253
  6
CONTINUOUS
 70
0
 71
3
 72
13
 73
9
 74
7
 42
0.0000001
 43
0.0000001
 44
0.0000000001
 12
0.0
 22
0.3589592701
 32
0.0
 13
0.2738252688
 23
0.2321023045
 33
0.0
 40
0.0
 40
0.0
 40
0.0
 40
0.0
 40
0.1198249393
 40
0.2487896525
 40
0.5189852781
 40
0.7789712783
 40
0.8958488491
 40
1.0
 40
1.0
 40
1.0
 40
1.0
 10
28.5786301751
 20
12.3122329915
 30
0.0
 10
28.5786301751
 20
12.3265704158
 30
0.0
 10
28.5805823051
 20
12.3563552968
 30
0.0
 10
28.5910996345
 20
12.4176396904
 30
0.0
 10
28.6152394917
 20
12.4931643688
 30
0.0
 10
28.6512364517
 20
12.5623049008
 30
0.0
 10
28.6858749185
 20
12.6084077798
 30
0.0
 10
28.7044913873
 20
12.6273680148
 30
0.0
 10
28.7139977929
 20
12.6354259222
 30
0.0
 11
28.5786301751
 21
12.3122329915
 31
0.0
 11
28.5812272895
 21
12.3551667848
 31
0.0
 11
28.5889191459
 21
12.400816369
 31
0.0
 11
28.6182308871
 21
12.4932703116
 31
0.0
 11
28.6621355873
 21
12.5756221065
 31
0.0
 11
28.6875463087
 21
12.6090055976
 31
0.0
 11
28.7139977929
 21
12.6354259222
 31
0.0
  0
SPLINE
  5
4AB
100
AcDbEntity
  8
0
100
AcDbSpline
 62
253
  6
CONTINUOUS
 70
0
 71
3
 72
13
 73
9
 74
7
 42
0.0000001
 43
0.0000001
 44
0.0000000001
 12
0.0
 22
0.3589592699
 32
0.0
 13
0.2738252686
 23
0.2321023044
 33
0.0
 40
0.0
 40
0.0
 40
0.0
 40
0.0
 40
0.1198249703
 40
0.2487897153
 40
0.5189854055
 40
0.7789714406
 40
0.895849029
 40
1.0
 40
1.0
 40
1.0
 40
1.0
 10
11.9949166182
 20
18.1777718283
 30
0.0
 10
11.9949166182
 20
18.1921092562
 30
0.0
 10
11.996868749
 20
18.2218941447
 30
0.0
 10
12.0073860838
 20
18.283178553
 30
0.0
 10
12.0315259511
 20
18.3587032444
 30
0.0
 10
12.0675229207
 20
18.4278437883
 30
0.0
 10
12.1021613913
 20
18.4739466456
 30
0.0
 10
12.1207778469
 20
18.4929068655
 30
0.0
 10
12.1302842361
 20
18.500964759
 30
0.0
 11
11.9949166182
 21
18.1777718283
 31
0.0
 11
11.9975137339
 21
18.2207056326
 31
0.0
 11
12.005205594
 21
18.2663552277
 31
0.0
 11
12.034517348
 21
18.3588091905
 31
0.0
 11
12.0784220622
 21
18.441160992
 31
0.0
 11
12.1038327952
 21
18.4745444822
 31
0.0
 11
12.1302842361
 21
18.500964759
 31
0.0
  0
SPLINE
  5
4AC
100
AcDbEntity
  8
0
100
AcDbSpline
 62
253
  6
CONTINUOUS
 70
0
 71
3
 72
13
 73
9
 74
7
 42
0.0000001
 43
0.0000001
 44
0.0000000001
 12
0.0
 22
0.3589592699
 32
0.0
 13
0.2738252686
 23
0.2321023044
 33
0.0
 40
0.0
 40
0.0
 40
0.0
 40
0.0
 40
0.1198249703
 40
0.2487897153
 40
0.5189854055
 40
0.7789714406
 40
0.895849029
 40
1.0
 40
1.0
 40
1.0
 40
1.0
 10
13.9857622928
 20
17.4736241968
 30
0.0
 10
13.9857622928
 20
17.4879616247
 30
0.0
 10
13.9877144237
 20
17.5177465132
 30
0.0
 10
13.9982317585
 20
17.5790309215
 30
0.0
 10
14.0223716258
 20
17.6545556129
 30
0.0
 10
14.0583685954
 20
17.7236961568
 30
0.0
 10
14.0930070659
 20
17.7697990141
 30
0.0
 10
14.1116235215
 20
17.788759234
 30
0.0
 10
14.1211299107
 20
17.7968171275
 30
0.0
 11
13.9857622928
 21
17.4736241968
 31
0.0
 11
13.9883594085
 21
17.5165580011
 31
0.0
 11
13.9960512687
 21
17.5622075962
 31
0.0
 11
14.0253630227
 21
17.654661559
 31
0.0
 11
14.0692677368
 21
17.7370133605
 31
0.0
 11
14.0946784699
 21
17.7703968507
 31
0.0
 11
14.1211299107
 21
17.7968171275
 31
0.0
  0
SPLINE
  5
4AD
100
AcDbEntity
  8
DRAFT
100
AcDbSpline
 62
7
  6
CONTINUOUS
 70
0
 71
3
 72
18
 73
14
 74
12
 42
0.0000001
 43
0.0000001
 44
0.0000000001
 12
7.674767149
 22
-2.7040788745
 32
0.0
 13
-6.6028443653
 23
-4.7556849811
 33
0.0
 40
0.0
 40
0.0
 40
0.0
 40
0.0
 40
0.1319484441
 40
0.2717250745
 40
0.4136916885
 40
0.5516893599
 40
0.6803784681
 40
0.7402658896
 40
0.7969234007
 40
0.8505584532
 40
0.9016928552
 40
0.9511533225
 40
1.0
 40
1.0
 40
1.0
 40
1.0
 10
-1.114964823
 20
-8.8207608013
 30
0.0
 10
-0.7774069617
 20
-8.9396938014
 30
0.0
 10
-0.1127452406
 20
-9.2761380855
 30
0.0
 10
0.7639645963
 20
-9.987789469
 30
0.0
 10
1.4950108754
 20
-10.8705270721
 30
0.0
 10
2.0225089472
 20
-11.8538463549
 30
0.0
 10
2.2638314712
 20
-12.7162276104
 30
0.0
 10
2.3110698304
 20
-13.3817295909
 30
0.0
 10
2.2753543286
 20
-13.8438640611
 30
0.0
 10
2.1695231256
 20
-14.2710273743
 30
0.0
 10
1.9949340724
 20
-14.6541019466
 30
0.0
 10
1.7548080618
 20
-14.9841201982
 30
0.0
 10
1.5542680538
 20
-15.1634354877
 30
0.0
 10
1.4467590506
 20
-15.2408686246
 30
0.0
 11
-1.114964823
 21
-8.8207608013
 31
0.0
 11
-0.1528358621
 21
-9.2973331221
 31
0.0
 11
0.7331406039
 21
-10.010567989
 31
0.0
 11
1.4694675946
 21
-10.9007004491
 31
0.0
 11
1.9951172313
 21
-11.8929862437
 31
0.0
 11
2.266693963
 21
-12.9043270214
 31
0.0
 11
2.2993057992
 21
-13.3905507659
 31
0.0
 11
2.2617470298
 21
-13.8500520711
 31
0.0
 11
2.1548027057
 21
-14.2731859057
 31
0.0
 11
1.9806974123
 21
-14.6511000881
 31
0.0
 11
1.7430440026
 21
-14.9759121841
 31
0.0
 11
1.4467590506
 21
-15.2408686246
 31
0.0
  0
SPLINE
  5
4AE
100
AcDbEntity
  8
DRAFT
100
AcDbSpline
 62
7
  6
CONTINUOUS
 70
0
 71
3
 72
13
 73
9
 74
7
 42
0.0000001
 43
0.0000001
 44
0.0000000001
 12
2.02065324
 22
1.9655417811
 32
0.0
 13
2.6564614623
 23
-0.9431895403
 33
0.0
 40
0.0
 40
0.0
 40
0.0
 40
0.0
 40
0.1128917438
 40
0.2269362531
 40
0.3436558754
 40
0.4643398369
 40
0.7206033976
 40
1.0
 40
1.0
 40
1.0
 40
1.0
 10
-7.1228721227
 20
-8.0003673516
 30
0.0
 10
-7.0468337667
 20
-7.9264028718
 30
0.0
 10
-6.8811427686
 20
-7.7902953715
 30
0.0
 10
-6.5997304966
 20
-7.6291052567
 30
0.0
 10
-6.2892024934
 20
-7.5126877525
 30
0.0
 10
-5.8336573104
 20
-7.4172698193
 30
0.0
 10
-5.2093650147
 20
-7.4229036285
 30
0.0
 10
-4.7169595826
 20
-7.5464244658
 30
0.0
 10
-4.4695574803
 20
-7.6342657835
 30
0.0
 11
-7.1228721227
 21
-8.0003673516
 31
0.0
 11
-6.8769999225
 21
-7.7983276432
 31
0.0
 11
-6.5982751319
 21
-7.6381262565
 31
0.0
 11
-6.2904551297
 21
-7.5219182164
 31
0.0
 11
-5.9576703135
 21
-7.4512750025
 31
0.0
 11
-5.2352812814
 21
-7.4499233401
 31
0.0
 11
-4.4695574803
 21
-7.6342657835
 31
0.0
  0
SPLINE
  5
4AF
100
AcDbEntity
  8
DRAFT
100
AcDbSpline
 62
7
  6
CONTINUOUS
 70
0
 71
3
 72
13
 73
9
 74
7
 42
0.0000001
 43
0.0000001
 44
0.0000000001
 12
-5.2839938371
 22
2.1917692766
 32
0.0
 13
-0.1086685625
 23
5.7194960072
 33
0.0
 40
0.0
 40
0.0
 40
0.0
 40
0.0
 40
0.2499159975
 40
0.3808952474
 40
0.5125731983
 40
0.6424783789
 40
0.7683122208
 40
1.0
 40
1.0
 40
1.0
 40
1.0
 10
-4.5505040947
 20
-14.1592403501
 30
0.0
 10
-4.9906889583
 20
-13.9766542817
 30
0.0
 10
-5.6196381669
 20
-13.5882772667
 30
0.0
 10
-6.3384418823
 20
-12.9239912269
 30
0.0
 10
-6.8201516716
 20
-12.3480966702
 30
0.0
 10
-7.2178997274
 20
-11.7225793344
 30
0.0
 10
-7.6064681576
 20
-10.8770919857
 30
0.0
 10
-7.7568738741
 20
-10.1951058739
 30
0.0
 10
-7.7652662668
 20
-9.7533934313
 30
0.0
 11
-4.5505040947
 21
-14.1592403501
 31
0.0
 11
-5.7752180541
 21
-13.4216908966
 31
0.0
 11
-6.326015375
 21
-12.9137257487
 31
0.0
 11
-6.8090418503
 21
-12.3357142813
 31
0.0
 11
-7.206936797
 21
-11.7080868097
 31
0.0
 11
-7.5054087972
 21
-11.0530460477
 31
0.0
 11
-7.7652662668
 21
-9.7533934313
 31
0.0
  0
LINE
  5
4B0
100
AcDbEntity
  8
DRAFT
100
AcDbLine
 62
7
  6
CONTINUOUS
 10
-7.7652662668
 20
-9.7533934313
 11
-7.7653884441
 21
-9.7465883728
  0
SPLINE
  5
4B1
100
AcDbEntity
  8
DRAFT
100
AcDbSpline
 62
7
  6
CONTINUOUS
 70
0
 71
3
 72
11
 73
7
 74
5
 42
0.0000001
 43
0.0000001
 44
0.0000000001
 12
-0.0312353205
 22
1.8474334687
 32
0.0
 13
1.2808069738
 23
1.3317355452
 33
0.0
 40
0.0
 40
0.0
 40
0.0
 40
0.0
 40
0.2695367433
 40
0.5239188493
 40
0.7659155097
 40
1.0
 40
1.0
 40
1.0
 40
1.0
 10
-7.7653884441
 20
-9.7465883728
 30
0.0
 10
-7.7681947996
 20
-9.5806046393
 30
0.0
 10
-7.7489965082
 20
-9.2567551268
 30
0.0
 10
-7.6378596374
 20
-8.7955089439
 30
0.0
 10
-7.447146489
 20
-8.3846082526
 30
0.0
 10
-7.2675170446
 20
-8.1492407097
 30
0.0
 10
-7.1675780288
 20
-8.045327831
 30
0.0
 11
-7.7653884441
 21
-9.7465883728
 31
0.0
 11
-7.7334014517
 21
-9.2495942973
 31
0.0
 11
-7.6209425258
 21
-8.7932250369
 31
0.0
 11
-7.4307842036
 21
-8.3885387703
 31
0.0
 11
-7.1675780288
 21
-8.045327831
 31
0.0
  0
LINE
  5
4B2
100
AcDbEntity
  8
DRAFT
100
AcDbLine
 62
7
  6
CONTINUOUS
 10
-0.9896244612
 20
-15.4251190502
 11
-2.1086460209
 21
-15.0302428085
  0
LINE
  5
4B3
100
AcDbEntity
  8
DRAFT
100
AcDbLine
 62
7
  6
CONTINUOUS
 10
-2.1086460209
 20
-15.0302428085
 11
-2.4808996121
 21
-14.898680848
  0
LINE
  5
4B4
100
AcDbEntity
  8
DRAFT
100
AcDbLine
 62
7
  6
CONTINUOUS
 10
-2.4808996121
 20
-14.898680848
 11
-2.853790826
 21
-14.7667920805
  0
LINE
  5
4B5
100
AcDbEntity
  8
DRAFT
100
AcDbLine
 62
7
  6
CONTINUOUS
 10
-2.853790826
 20
-14.7667920805
 11
-4.3444130548
 21
-14.2385547311
  0
SPLINE
  5
4B6
100
AcDbEntity
  8
RACCORDO
100
AcDbSpline
 62
253
  6
CONTINUOUS
 70
0
 71
3
 72
10
 73
6
 74
4
 42
0.0000001
 43
0.0000001
 44
0.0000000001
 12
0.2215337806
 22
0.1668294019
 32
0.0
 13
0.0048343398
 23
0.2772830583
 33
0.0
 40
0.0
 40
0.0
 40
0.0
 40
0.0
 40
0.2339718405
 40
0.4755363699
 40
1.0
 40
1.0
 40
1.0
 40
1.0
 10
26.1897787121
 20
-29.1763890381
 30
0.0
 10
26.2070562676
 20
-29.1633779107
 30
0.0
 10
26.238811748
 20
-29.1321168292
 30
0.0
 10
26.2866271939
 20
-29.0521124592
 30
0.0
 10
26.3000649355
 20
-28.9798322923
 30
0.0
 10
26.3009100806
 20
-28.9313573325
 30
0.0
 11
26.1897787121
 21
-29.1763890381
 31
0.0
 11
26.236121762
 21
-29.1309737107
 31
0.0
 11
26.2707941265
 21
-29.0736522842
 31
0.0
 11
26.3009100806
 21
-28.9313573325
 31
0.0
  0
SPLINE
  5
4B7
100
AcDbEntity
  8
RACCORDO
100
AcDbSpline
 62
253
  6
CONTINUOUS
 70
0
 71
3
 72
12
 73
8
 74
6
 42
0.0000001
 43
0.0000001
 44
0.0000000001
 12
-0.6025933172
 22
0.2033788723
 32
0.0
 13
-0.0178009872
 23
0.6357395666
 33
0.0
 40
0.0
 40
0.0
 40
0.0
 40
0.0
 40
0.0955455545
 40
0.1948741724
 40
0.4171277321
 40
0.6844584349
 40
1.0
 40
1.0
 40
1.0
 40
1.0
 10
25.4986520254
 20
-29.3133292397
 30
0.0
 10
25.4794603212
 20
-29.306851924
 30
0.0
 10
25.4417734364
 20
-29.2888330915
 30
0.0
 10
25.3724383805
 20
-29.2328489423
 30
0.0
 10
25.3031831898
 20
-29.1254925735
 30
0.0
 10
25.2541042048
 20
-28.9606966705
 30
0.0
 10
25.2421472258
 20
-28.8370086561
 30
0.0
 10
25.2402749087
 20
-28.7701412368
 30
0.0
 11
25.4986520254
 21
-29.3133292397
 31
0.0
 11
25.4437778661
 21
-29.2872271171
 31
0.0
 11
25.3943627122
 21
-29.2478719491
 31
0.0
 11
25.3141989065
 21
-29.1314511531
 31
0.0
 11
25.2620019027
 21
-28.9696424992
 31
0.0
 11
25.2402749087
 21
-28.7701412368
 31
0.0
  0
SPLINE
  5
4B8
100
AcDbEntity
  8
DRAFT
100
AcDbSpline
 62
7
  6
CONTINUOUS
 70
0
 71
3
 72
11
 73
7
 74
5
 42
0.0000001
 43
0.0000001
 44
0.0000000001
 12
-1.8575952343
 22
-1.132791088
 32
0.0
 13
-2.0878740319
 23
0.6120929098
 33
0.0
 40
0.0
 40
0.0
 40
0.0
 40
0.0
 40
0.2284676598
 40
0.468797483
 40
0.7253760444
 40
1.0
 40
1.0
 40
1.0
 40
1.0
 10
1.3249523296
 20
-15.3216863384
 30
0.0
 10
1.1834855176
 20
-15.4079550481
 30
0.0
 10
0.8689723337
 20
-15.5475770648
 30
0.0
 10
0.347369089
 20
-15.6427505386
 30
0.0
 10
-0.2154291118
 20
-15.6272723903
 30
0.0
 10
-0.5944126803
 20
-15.5470426263
 30
0.0
 10
-0.7855394221
 20
-15.4910108343
 30
0.0
 11
1.3249523296
 21
-15.3216863384
 31
0.0
 11
0.8715653615
 21
-15.5254916366
 31
0.0
 11
0.3578472466
 21
-15.6230359757
 31
0.0
 11
-0.200281607
 21
-15.6114028116
 31
0.0
 11
-0.7855394221
 21
-15.4910108343
 31
0.0
  0
SPLINE
  5
4B9
100
AcDbEntity
  8
RACCORDO
100
AcDbSpline
 62
253
  6
CONTINUOUS
 70
0
 71
3
 72
15
 73
11
 74
9
 42
0.0000001
 43
0.0000001
 44
0.0000000001
 12
-0.4972530465
 22
-0.3746874531
 32
0.0
 13
-0.0181620176
 23
0.6223515251
 33
0.0
 40
0.0
 40
0.0
 40
0.0
 40
0.0
 40
0.13922851
 40
0.2589004626
 40
0.364063473
 40
0.464329099
 40
0.5713245093
 40
0.6940185723
 40
0.8367388917
 40
1.0
 40
1.0
 40
1.0
 40
1.0
 10
26.3009100806
 20
-28.9313573325
 30
0.0
 10
26.2778328137
 20
-28.9487463911
 30
0.0
 10
26.2321355948
 20
-28.9777773872
 30
0.0
 10
26.1598803416
 20
-29.0027848012
 30
0.0
 10
26.0908748882
 20
-29.0036512082
 30
0.0
 10
26.0292743897
 20
-28.9781488697
 30
0.0
 10
25.9799790033
 20
-28.9285626029
 30
0.0
 10
25.9440997123
 20
-28.8591498946
 30
0.0
 10
25.9214301196
 20
-28.7725886987
 30
0.0
 10
25.9156716611
 20
-28.7090854526
 30
0.0
 10
25.9146832773
 20
-28.6752168527
 30
0.0
 11
26.3009100806
 21
-28.9313573325
 31
0.0
 11
26.2270392714
 21
-28.9767176678
 31
0.0
 11
26.1561223869
 21
-28.9995758244
 31
0.0
 11
26.0906477063
 21
-28.9991263771
 31
0.0
 11
26.0329183444
 21
-28.9753681158
 31
0.0
 11
25.984968801
 21
-28.9291222506
 31
0.0
 11
25.9484941273
 21
-28.8620011969
 31
0.0
 11
25.9247839551
 21
-28.7763628214
 31
0.0
 11
25.9146832773
 21
-28.6752168527
 31
0.0
  0
SPLINE
  5
4BA
100
AcDbEntity
  8
RACCORDO
100
AcDbSpline
 62
253
  6
CONTINUOUS
 70
0
 71
3
 72
11
 73
7
 74
5
 42
0.0000001
 43
0.0000001
 44
0.0000000001
 12
0.0271107409
 22
0.9719623452
 32
0.0
 13
0.7476849046
 23
0.6216213286
 33
0.0
 40
0.0
 40
0.0
 40
0.0
 40
0.0
 40
0.2496427895
 40
0.5182648047
 40
0.7771157925
 40
1.0
 40
1.0
 40
1.0
 40
1.0
 10
25.9146832763
 20
6.2287314232
 30
0.0
 10
25.9169392766
 20
6.3096125536
 30
0.0
 10
25.9426965906
 20
6.4770511907
 30
0.0
 10
26.0248807872
 20
6.7163786943
 30
0.0
 10
26.142653993
 20
6.9303885545
 30
0.0
 10
26.2453610262
 20
7.0508232113
 30
0.0
 10
26.3009100786
 20
7.0970064037
 30
0.0
 11
25.9146832763
 21
6.2287314232
 31
0.0
 11
25.9484941252
 21
6.4691029016
 31
0.0
 11
26.0329183423
 21
6.716274558
 31
0.0
 11
26.1561223849
 21
6.935749515
 31
0.0
 11
26.3009100786
 21
7.0970064037
 31
0.0
  0
SPLINE
  5
4BB
100
AcDbEntity
  8
RACCORDO
100
AcDbSpline
 62
253
  6
CONTINUOUS
 70
0
 71
3
 72
12
 73
8
 74
6
 42
0.0000001
 43
0.0000001
 44
0.0000000001
 12
-1.2413424899
 22
-1.1047080107
 32
0.0
 13
-0.044447005
 23
-1.6611247484
 33
0.0
 40
0.0
 40
0.0
 40
0.0
 40
0.0
 40
0.1045774761
 40
0.2212794855
 40
0.4799040621
 40
0.7493537937
 40
1.0
 40
1.0
 40
1.0
 40
1.0
 10
-29.2683341948
 20
27.1706354213
 30
0.0
 10
-29.3116063496
 20
27.1321262294
 30
0.0
 10
-29.3962971406
 20
27.0428213056
 30
0.0
 10
-29.554130984
 20
26.8283761501
 30
0.0
 10
-29.719545511
 20
26.5091886673
 30
0.0
 10
-29.8533680588
 20
26.0975623051
 30
0.0
 10
-29.8954464785
 20
25.8102627587
 30
0.0
 10
-29.8991599696
 20
25.6714778866
 30
0.0
 11
-29.2683341948
 21
27.1706354213
 31
0.0
 11
-29.3889954235
 21
27.0455762231
 31
0.0
 11
-29.5048296019
 21
26.8900457486
 31
0.0
 11
-29.7060406023
 21
26.5102971039
 31
0.0
 11
-29.8439040178
 21
26.0842999506
 31
0.0
 11
-29.8991599696
 21
25.6714778866
 31
0.0
  0
SPLINE
  5
4BC
100
AcDbEntity
  8
RACCORDO
100
AcDbSpline
 62
253
  6
CONTINUOUS
 70
0
 71
3
 72
12
 73
8
 74
6
 42
0.0000001
 43
0.0000001
 44
0.0000000001
 12
0.0444758539
 22
1.6630256063
 32
0.0
 13
1.2560868798
 23
1.0908153001
 33
0.0
 40
0.0
 40
0.0
 40
0.0
 40
0.0
 40
0.2502570302
 40
0.5193636829
 40
0.7780235789
 40
0.8949771892
 40
1.0
 40
1.0
 40
1.0
 40
1.0
 10
25.2402749095
 20
6.169060913
 30
0.0
 10
25.2439850412
 20
6.3077888628
 30
0.0
 10
25.2866835876
 20
6.5950060738
 30
0.0
 10
25.4228145328
 20
7.0060543684
 30
0.0
 10
25.5911278155
 20
7.3242331825
 30
0.0
 10
25.7516384679
 20
7.5375870877
 30
0.0
 10
25.8377458988
 20
7.6262761774
 30
0.0
 10
25.8817184904
 20
7.664463007
 30
0.0
 11
25.2402749095
 21
6.169060913
 31
0.0
 11
25.2963192029
 21
6.5816041463
 31
0.0
 11
25.436455924
 21
7.006797248
 31
0.0
 11
25.6411056035
 21
7.385329657
 31
0.0
 11
25.7589476959
 21
7.5401499469
 31
0.0
 11
25.8817184904
 21
7.664463007
 31
0.0
  0
SPLINE
  5
4BD
100
AcDbEntity
  8
RACCORDO
100
AcDbSpline
 62
253
  6
CONTINUOUS
 70
0
 71
3
 72
12
 73
8
 74
6
 42
0.0000001
 43
0.0000001
 44
0.0000000001
 12
0.0175045036
 22
-0.6248476875
 32
0.0
 13
0.5860012823
 23
-0.2175857013
 33
0.0
 40
0.0
 40
0.0
 40
0.0
 40
0.0
 40
0.316205723
 40
0.5843009149
 40
0.8067525694
 40
0.9055688496
 40
1.0
 40
1.0
 40
1.0
 40
1.0
 10
-29.8991599744
 20
-9.2677242665
 30
0.0
 10
-29.8973149663
 20
-9.3335844048
 30
0.0
 10
-29.8857966846
 20
-9.4554372489
 30
0.0
 10
-29.8388914129
 20
-9.6180473923
 30
0.0
 10
-29.7728968136
 20
-9.7247884738
 30
0.0
 10
-29.7065350479
 20
-9.7814487792
 30
0.0
 10
-29.6703609262
 20
-9.8001224177
 30
0.0
 10
-29.6519153345
 20
-9.8069713737
 30
0.0
 11
-29.8991599744
 21
-9.2677242665
 31
0.0
 11
-29.8782724689
 21
-9.464275453
 31
0.0
 11
-29.8283497014
 21
-9.6242512075
 31
0.0
 11
-29.7517111224
 21
-9.7402781287
 31
0.0
 11
-29.7044428399
 21
-9.7800419538
 31
0.0
 11
-29.6519153345
 21
-9.8069713737
 31
0.0
  0
SPLINE
  5
4BE
100
AcDbEntity
  8
RACCORDO
100
AcDbSpline
 62
253
  6
CONTINUOUS
 70
0
 71
3
 72
11
 73
7
 74
5
 42
0.0000001
 43
0.0000001
 44
0.0000000001
 12
-0.3126232863
 22
0.1168761035
 32
0.0
 13
-0.0089769109
 23
0.3336356663
 33
0.0
 40
0.0
 40
0.0
 40
0.0
 40
0.0
 40
0.2988798429
 40
0.5622580192
 40
0.7917654257
 40
1.0
 40
1.0
 40
1.0
 40
1.0
 10
-29.8991550031
 20
-9.2677200025
 30
0.0
 10
-29.9303006026
 20
-9.256076032
 30
0.0
 10
-29.9872978463
 20
-9.229252119
 30
0.0
 10
-30.0578056723
 20
-9.175001742
 30
0.0
 10
-30.1044641
 20
-9.1107738264
 30
0.0
 10
-30.1166868555
 20
-9.0619789432
 30
0.0
 10
-30.1173099566
 20
-9.0388207829
 30
0.0
 11
-29.8991550031
 21
-9.2677200025
 31
0.0
 11
-29.9889392728
 21
-9.2242520982
 31
0.0
 11
-30.0576548691
 21
-9.1694314149
 31
0.0
 11
-30.101231878
 21
-9.1064350801
 31
0.0
 11
-30.1173099566
 21
-9.0388207829
 31
0.0
  0
SPLINE
  5
4BF
100
AcDbEntity
  8
RACCORDO
100
AcDbSpline
 62
253
  6
CONTINUOUS
 70
0
 71
3
 72
11
 73
7
 74
5
 42
0.0000001
 43
0.0000001
 44
0.0000000001
 12
-0.3072723455
 22
0.1135843654
 32
0.0
 13
0.0077233595
 23
0.3275027512
 33
0.0
 40
0.0
 40
0.0
 40
0.0
 40
0.0
 40
0.3107639547
 40
0.5784588074
 40
0.803352448
 40
1.0
 40
1.0
 40
1.0
 40
1.0
 10
-29.8991599664
 20
25.6714779057
 30
0.0
 10
-29.9309896895
 20
25.6832438812
 30
0.0
 10
-29.9887889985
 20
25.7096736951
 30
0.0
 10
-30.0601563287
 20
25.7620312884
 30
0.0
 10
-30.1067937715
 20
25.8229484504
 30
0.0
 10
-30.1178429101
 20
25.8696261152
 30
0.0
 10
-30.1173366502
 20
25.8910936533
 30
0.0
 11
-29.8991599664
 21
25.6714779057
 31
0.0
 11
-29.9912421903
 21
25.714894367
 31
0.0
 11
-30.0608786827
 21
25.7681973012
 31
0.0
 11
-30.1037313263
 21
25.8281262126
 31
0.0
 11
-30.1173366502
 21
25.8910936533
 31
0.0
  0
SPLINE
  5
4C0
100
AcDbEntity
  8
RACCORDO
100
AcDbSpline
 62
253
  6
CONTINUOUS
 70
0
 71
3
 72
11
 73
7
 74
5
 42
0.0000001
 43
0.0000001
 44
0.0000000001
 12
-0.3338239343
 22
0.1111950414
 32
0.0
 13
-0.2584280124
 23
-0.2387838326
 33
0.0
 40
0.0
 40
0.0
 40
0.0
 40
0.0
 40
0.2783052617
 40
0.5353557555
 40
0.7732583376
 40
1.0
 40
1.0
 40
1.0
 40
1.0
 10
-29.2683341948
 20
27.1706354213
 30
0.0
 10
-29.2993025139
 20
27.1809508097
 30
0.0
 10
-29.3609920738
 20
27.1952290141
 30
0.0
 10
-29.4525943389
 20
27.1953186392
 30
0.0
 10
-29.535314067
 20
27.1725192127
 30
0.0
 10
-29.5817756575
 20
27.1419722009
 30
0.0
 10
-29.6013077899
 20
27.1239247865
 30
0.0
 11
-29.2683341948
 21
27.1706354213
 31
0.0
 11
-29.3639088389
 21
27.191954043
 31
0.0
 11
-29.4543494918
 21
27.1910880005
 31
0.0
 11
-29.5348118893
 21
27.168006704
 31
0.0
 11
-29.6013077899
 21
27.1239247865
 31
0.0
  0
SPLINE
  5
4C1
100
AcDbEntity
  8
RACCORDO
100
AcDbSpline
 62
253
  6
CONTINUOUS
 70
0
 71
3
 72
11
 73
7
 74
5
 42
0.0000001
 43
0.0000001
 44
0.0000000001
 12
0.6926258266
 22
-0.2597365763
 32
0.0
 13
0.0132612277
 23
-0.7396064931
 33
0.0
 40
0.0
 40
0.0
 40
0.0
 40
0.0
 40
0.24640134
 40
0.4432556157
 40
0.6405699215
 40
1.0
 40
1.0
 40
1.0
 40
1.0
 10
25.8817184904
 20
7.664463007
 30
0.0
 10
25.9386064676
 20
7.6431298602
 30
0.0
 10
26.0344460339
 20
7.5864200477
 30
0.0
 10
26.1483791829
 20
7.4756277427
 30
0.0
 10
26.2544178165
 20
7.3226170552
 30
0.0
 10
26.2993212506
 20
7.185618677
 30
0.0
 10
26.3009100786
 20
7.0970064037
 30
0.0
 11
25.8817184904
 21
7.664463007
 31
0.0
 11
26.0399053782
 21
7.5739145973
 31
0.0
 11
26.1446448176
 21
7.4727499715
 31
0.0
 11
26.227406855
 21
7.3525239379
 31
0.0
 11
26.3009100786
 21
7.0970064037
 31
0.0
  0
SPLINE
  5
4C2
100
AcDbEntity
  8
RACCORDO
100
AcDbSpline
 62
253
  6
CONTINUOUS
 70
0
 71
3
 72
11
 73
7
 74
5
 42
0.0000001
 43
0.0000001
 44
0.0000000001
 12
0.6602516661
 22
-0.2232983726
 32
0.0
 13
0.5629322794
 23
0.4109764892
 33
0.0
 40
0.0
 40
0.0
 40
0.0
 40
0.0
 40
0.2594248342
 40
0.530528119
 40
0.7852100724
 40
1.0
 40
1.0
 40
1.0
 40
1.0
 10
25.24027954
 20
6.1690647021
 30
0.0
 10
25.2973747663
 20
6.1497549876
 30
0.0
 10
25.4191956348
 20
6.124730495
 30
0.0
 10
25.6026759929
 20
6.1226206806
 30
0.0
 10
25.7728604839
 20
6.1537931
 30
0.0
 10
25.874379215
 20
6.1993068864
 30
0.0
 10
25.9146832762
 20
6.2287314232
 30
0.0
 11
25.24027954
 21
6.1690647021
 31
0.0
 11
25.4170275903
 21
6.1309242226
 31
0.0
 11
25.6059722064
 21
6.128836015
 31
0.0
 11
25.7801541992
 21
6.1630510315
 31
0.0
 11
25.9146832762
 21
6.2287314232
 31
0.0
  0
SPLINE
  5
4C3
100
AcDbEntity
  8
RACCORDO
100
AcDbSpline
 62
253
  6
CONTINUOUS
 70
0
 71
3
 72
11
 73
7
 74
5
 42
0.0000001
 43
0.0000001
 44
0.0000000001
 12
0.6687824341
 22
-0.2234545181
 32
0.0
 13
0.5359840555
 23
0.4581735022
 33
0.0
 40
0.0
 40
0.0
 40
0.0
 40
0.0
 40
0.2555252828
 40
0.5236072513
 40
0.7789006675
 40
1.0
 40
1.0
 40
1.0
 40
1.0
 10
25.2402749156
 20
-28.770141247
 30
0.0
 10
25.2972385225
 20
-28.7891740067
 30
0.0
 10
25.4195956168
 20
-28.8119993122
 30
0.0
 10
25.6038814689
 20
-28.8063823796
 30
0.0
 10
25.7749492484
 20
-28.763935699
 30
0.0
 10
25.8751813717
 20
-28.7089841379
 30
0.0
 10
25.9146832773
 20
-28.6752168527
 30
0.0
 11
25.2402749156
 21
-28.770141247
 31
0.0
 11
25.4170250186
 21
-28.8051167685
 31
0.0
 11
25.6059715094
 21
-28.7994512241
 31
0.0
 11
25.7801544206
 21
-28.754005542
 31
0.0
 11
25.9146832773
 21
-28.6752168527
 31
0.0
  0
ELLIPSE
  5
4C4
100
AcDbEntity
  8
0
100
AcDbEllipse
 62
7
  6
CONTINUOUS
 10
-16.174378679
 20
35.4266328478
 30
0.0
 11
0.4995701986
 21
0.3532030743
 31
0.0
 40
0.0586835128
 41
1.6081665926
 42
2.5067144314
  0
ELLIPSE
  5
4C5
100
AcDbEntity
  8
0
100
AcDbEllipse
 62
7
  6
CONTINUOUS
 10
-16.8015380737
 20
32.9132650882
 30
0.0
 11
0.1686211811
 21
0.4707123158
 31
0.0
 40
0.4608589311
 41
0.5730485941
 42
0.6549275203
  0
ELLIPSE
  5
4C6
100
AcDbEntity
  8
0
100
AcDbEllipse
 62
7
  6
CONTINUOUS
 10
-16.5535702199
 20
30.1767885131
 30
0.0
 11
-0.1285162772
 21
0.1532453117
 31
0.0
 40
0.7033703941
 41
-2.4436881412
 42
-0.8728918144
  0
ELLIPSE
  5
4C7
100
AcDbEntity
  8
0
100
AcDbEllipse
 62
7
  6
CONTINUOUS
 10
-6.6222929761
 20
25.0706896661
 30
0.0
 11
0.3213145577
 21
-0.38309154
 31
0.0
 40
0.7034008937
 41
0.6978613523
 42
2.2686069105
  0
ELLIPSE
  5
4C8
100
AcDbEntity
  8
0
100
AcDbEllipse
 62
7
  6
CONTINUOUS
 10
-14.5407608568
 20
29.4648724848
 30
0.0
 11
-0.1285162772
 21
0.1532453117
 31
0.0
 40
0.7033703941
 41
-0.8728918144
 42
-0.0036880894
  0
ELLIPSE
  5
4C9
100
AcDbEntity
  8
0
100
AcDbEllipse
 62
7
  6
CONTINUOUS
 10
-16.3940869525
 20
31.8731267036
 30
0.0
 11
0.4588765182
 21
-0.001722817
 31
0.0
 40
0.5405415648
 41
-0.5739292337
 42
0.0020120957
  0
ELLIPSE
  5
4CA
100
AcDbEntity
  8
0
100
AcDbEllipse
 62
7
  6
CONTINUOUS
 10
-9.7536989315
 20
29.5244697701
 30
0.0
 11
0.4588765182
 21
-0.001722817
 31
0.0
 40
0.5405415648
 41
-0.5681114695
 42
0.0020294354
  0
ELLIPSE
  5
4CB
100
AcDbEntity
  8
0
100
AcDbEllipse
 62
7
  6
CONTINUOUS
 10
29.3898517971
 20
62.9679305616
 30
0.0
 11
46.3879522597
 21
39.4060756966
 31
0.0
 40
0.0052507352
 41
2.5562956238
 42
2.6861054272
  0
ELLIPSE
  5
4CC
100
AcDbEntity
  8
0
100
AcDbEllipse
 62
7
  6
CONTINUOUS
 10
-15.2487916023
 20
27.6886253649
 30
0.0
 11
0.1999558952
 21
0.0072289368
 31
0.0
 40
0.5809981886
 41
3.1206415434
 42
4.1154287874
  0
ELLIPSE
  5
4CD
100
AcDbEntity
  8
0
100
AcDbEllipse
 62
7
  6
CONTINUOUS
 10
-25.8178502717
 20
30.1748812218
 30
0.0
 11
-0.3209281399
 21
0.384134135
 31
0.0
 40
0.7028832609
 41
-0.8704529953
 42
0.6994299421
  0
ELLIPSE
  5
4CE
100
AcDbEntity
  8
0
100
AcDbEllipse
 62
7
  6
CONTINUOUS
 10
-17.2616009654
 20
28.4005413932
 30
0.0
 11
0.1999558952
 21
0.0072289368
 31
0.0
 40
0.5809981886
 41
-2.1677565198
 42
-0.596960193
  0
ELLIPSE
  5
4CF
100
AcDbEntity
  8
0
100
AcDbEllipse
 62
7
  6
CONTINUOUS
 10
-3.1280571405
 20
29.860744997
 30
0.0
 11
-0.815371963
 21
1.1532615742
 31
0.0
 40
0.5020001144
 41
5.2126513165
 42
6.3188338195
  0
ELLIPSE
  5
4D0
100
AcDbEntity
  8
0
100
AcDbEllipse
 62
7
  6
CONTINUOUS
 10
-8.4758673461
 20
24.6343988967
 30
0.0
 11
0.2499448689
 21
0.009036171
 31
0.0
 40
0.5809981886
 41
-2.1677565198
 42
-0.6027779572
  0
ELLIPSE
  5
4D1
100
AcDbEntity
  8
0
100
AcDbEllipse
 62
7
  6
CONTINUOUS
 10
-7.9996759801
 20
23.872722604
 30
0.0
 11
-0.3208060543
 21
0.3836493099
 31
0.0
 40
0.7041495784
 41
-2.4417106665
 42
-0.8718277292
  0
ELLIPSE
  5
4D2
100
AcDbEntity
  8
0
100
AcDbEllipse
 62
7
  6
CONTINUOUS
 10
-3.4825326624
 20
30.9376192463
 30
0.0
 11
-0.4076859815
 21
0.5766307871
 31
0.0
 40
0.5020001144
 41
-3.0826730846
 42
-2.1841252458
  0
ELLIPSE
  5
4D3
100
AcDbEntity
  8
0
100
AcDbEllipse
 62
7
  6
CONTINUOUS
 10
-10.476471506
 20
25.3419980335
 30
0.0
 11
0.2499448689
 21
0.009036171
 31
0.0
 40
0.5809981886
 41
3.1205901087
 42
4.1154287874
  0
ELLIPSE
  5
4D4
100
AcDbEntity
  8
0
100
AcDbEllipse
 62
7
  6
CONTINUOUS
 10
-25.0693393882
 20
30.5033892387
 30
0.0
 11
0.2499448689
 21
0.009036171
 31
0.0
 40
0.5809981886
 41
3.1205901087
 42
4.1154287874
  0
ELLIPSE
  5
4D5
100
AcDbEntity
  8
0
100
AcDbEllipse
 62
7
  6
CONTINUOUS
 10
-23.0687352283
 20
29.795790102
 30
0.0
 11
0.2499448689
 21
0.009036171
 31
0.0
 40
0.5809981886
 41
-2.1677565198
 42
-0.6027779572
  0
ELLIPSE
  5
4D6
100
AcDbEntity
  8
0
100
AcDbEllipse
 62
7
  6
CONTINUOUS
 10
-9.3910416879
 20
30.2922264287
 30
0.0
 11
0.1648461888
 21
0.4720475516
 31
0.0
 40
0.4526749354
 41
0.5693904873
 42
0.6512694135
  0
ELLIPSE
  5
4D7
100
AcDbEntity
  8
0
100
AcDbEllipse
 62
7
  6
CONTINUOUS
 10
29.3898517971
 20
62.9679305616
 30
0.0
 11
46.3879522597
 21
39.4060756966
 31
0.0
 40
0.0052507352
 41
-2.6950262564
 42
-2.565216453
  0
ELLIPSE
  5
4D8
100
AcDbEntity
  8
0
100
AcDbEllipse
 62
7
  6
CONTINUOUS
 10
-17.0734932359
 20
34.7931442894
 30
0.0
 11
0.9991403971
 21
0.7064061486
 31
0.0
 40
0.0586835128
 41
-0.6116071655
 42
0.4945753375
  0
ELLIPSE
  5
4D9
100
AcDbEntity
  8
0
100
AcDbEllipse
 62
7
  6
CONTINUOUS
 10
21.5657968786
 20
22.078207317
 30
0.0
 11
0.4995701986
 21
0.3532030743
 31
0.0
 40
0.0586835128
 41
1.6081665926
 42
2.5067144314
  0
ELLIPSE
  5
4DA
100
AcDbEntity
  8
0
100
AcDbEllipse
 62
7
  6
CONTINUOUS
 10
20.9386374839
 20
19.5648395574
 30
0.0
 11
0.1686211811
 21
0.4707123158
 31
0.0
 40
0.4608589311
 41
0.5730485941
 42
0.6549275203
  0
ELLIPSE
  5
4DB
100
AcDbEntity
  8
0
100
AcDbEllipse
 62
7
  6
CONTINUOUS
 10
21.1866053377
 20
16.8283629823
 30
0.0
 11
-0.1285162772
 21
0.1532453117
 31
0.0
 40
0.7033703941
 41
-2.4436881412
 42
-0.8728918144
  0
ELLIPSE
  5
4DC
100
AcDbEntity
  8
0
100
AcDbEllipse
 62
7
  6
CONTINUOUS
 10
31.1178825814
 20
11.7222641353
 30
0.0
 11
0.3213145577
 21
-0.38309154
 31
0.0
 40
0.7034008937
 41
0.6978613523
 42
2.2686069105
  0
ELLIPSE
  5
4DD
100
AcDbEntity
  8
0
100
AcDbEllipse
 62
7
  6
CONTINUOUS
 10
31.1178825814
 20
-25.0017340623
 30
0.0
 11
-0.321321188
 21
0.3831186041
 31
0.0
 40
0.7033305678
 41
-3.13128625
 42
-2.4437559069
  0
ELLIPSE
  5
4DE
100
AcDbEntity
  8
0
100
AcDbEllipse
 62
7
  6
CONTINUOUS
 10
23.1994147007
 20
16.116446954
 30
0.0
 11
-0.1285162772
 21
0.1532453117
 31
0.0
 40
0.7033703941
 41
-0.8728918144
 42
-0.0036880894
  0
ELLIPSE
  5
4DF
100
AcDbEntity
  8
0
100
AcDbEllipse
 62
7
  6
CONTINUOUS
 10
34.2576428951
 20
-19.4521249471
 30
0.0
 11
0.4995701986
 21
0.3532030743
 31
0.0
 40
0.0586835128
 41
-0.5999716371
 42
-0.0415735663
  0
ELLIPSE
  5
4E0
100
AcDbEntity
  8
0
100
AcDbEllipse
 62
7
  6
CONTINUOUS
 10
21.3460886051
 20
18.5247011728
 30
0.0
 11
0.4588765182
 21
-0.001722817
 31
0.0
 40
0.5405415648
 41
-0.5739292337
 42
0.0020120957
  0
ELLIPSE
  5
4E1
100
AcDbEntity
  8
0
100
AcDbEllipse
 62
7
  6
CONTINUOUS
 10
27.986476626
 20
16.1760442393
 30
0.0
 11
0.4588765182
 21
-0.001722817
 31
0.0
 40
0.5405415648
 41
-0.5681114695
 42
0.0020294354
  0
ELLIPSE
  5
4E2
100
AcDbEntity
  8
0
100
AcDbEllipse
 62
7
  6
CONTINUOUS
 10
67.1300273547
 20
49.6195050308
 30
0.0
 11
46.3879522597
 21
39.4060756966
 31
0.0
 40
0.0052507352
 41
2.5562956238
 42
2.6861054272
  0
ELLIPSE
  5
4E3
100
AcDbEntity
  8
0
100
AcDbEllipse
 62
7
  6
CONTINUOUS
 10
22.4913839552
 20
14.3401998341
 30
0.0
 11
0.1999558952
 21
0.0072289368
 31
0.0
 40
0.5809981886
 41
3.1206415434
 42
4.1154287874
  0
ELLIPSE
  5
4E4
100
AcDbEntity
  8
0
100
AcDbEllipse
 62
7
  6
CONTINUOUS
 10
11.9223252859
 20
16.826455691
 30
0.0
 11
-0.3209281399
 21
0.384134135
 31
0.0
 40
0.7028832609
 41
-0.8704529953
 42
0.6994299421
  0
ELLIPSE
  5
4E5
100
AcDbEntity
  8
0
100
AcDbEllipse
 62
7
  6
CONTINUOUS
 10
20.4785745921
 20
15.0521158624
 30
0.0
 11
0.1999558952
 21
0.0072289368
 31
0.0
 40
0.5809981886
 41
-2.1677565198
 42
-0.596960193
  0
ELLIPSE
  5
4E6
100
AcDbEntity
  8
0
100
AcDbEllipse
 62
7
  6
CONTINUOUS
 10
34.612118417
 20
16.5123194662
 30
0.0
 11
-0.815371963
 21
1.1532615742
 31
0.0
 40
0.5020001144
 41
5.2126513165
 42
6.3188338195
  0
ELLIPSE
  5
4E7
100
AcDbEntity
  8
0
100
AcDbEllipse
 62
7
  6
CONTINUOUS
 10
29.2643082115
 20
11.2859733659
 30
0.0
 11
0.2499448689
 21
0.009036171
 31
0.0
 40
0.5809981886
 41
-2.1677565198
 42
-0.6027779572
  0
ELLIPSE
  5
4E8
100
AcDbEntity
  8
0
100
AcDbEllipse
 62
7
  6
CONTINUOUS
 10
29.7404995775
 20
-26.0764642705
 30
0.0
 11
-0.3209281399
 21
0.384134135
 31
0.0
 40
0.7028832609
 41
2.2711396583
 42
3.8410225957
  0
ELLIPSE
  5
4E9
100
AcDbEntity
  8
0
100
AcDbEllipse
 62
7
  6
CONTINUOUS
 10
29.7404995775
 20
10.5242970733
 30
0.0
 11
-0.3208060543
 21
0.3836493099
 31
0.0
 40
0.7041495784
 41
-2.4417106665
 42
-0.8718277292
  0
ELLIPSE
  5
4EA
100
AcDbEntity
  8
0
100
AcDbEllipse
 62
7
  6
CONTINUOUS
 10
34.2576428951
 20
17.5891937155
 30
0.0
 11
-0.4076859815
 21
0.5766307871
 31
0.0
 40
0.5020001144
 41
-3.0826730846
 42
-2.1841252458
  0
ELLIPSE
  5
4EB
100
AcDbEntity
  8
0
100
AcDbEllipse
 62
7
  6
CONTINUOUS
 10
27.2637040516
 20
11.9935725027
 30
0.0
 11
0.2499448689
 21
0.009036171
 31
0.0
 40
0.5809981886
 41
3.1205901087
 42
4.1154287874
  0
ELLIPSE
  5
4EC
100
AcDbEntity
  8
0
100
AcDbEllipse
 62
7
  6
CONTINUOUS
 10
12.6708361693
 20
17.1549637079
 30
0.0
 11
0.2499448689
 21
0.009036171
 31
0.0
 40
0.5809981886
 41
3.1205901087
 42
4.1154287874
  0
ELLIPSE
  5
4ED
100
AcDbEntity
  8
0
100
AcDbEllipse
 62
7
  6
CONTINUOUS
 10
14.6714403292
 20
16.4473645712
 30
0.0
 11
0.2499448689
 21
0.009036171
 31
0.0
 40
0.5809981886
 41
-2.1677565198
 42
-0.6027779572
  0
ELLIPSE
  5
4EE
100
AcDbEntity
  8
0
100
AcDbEllipse
 62
7
  6
CONTINUOUS
 10
28.3491338696
 20
16.9438008979
 30
0.0
 11
0.1648461888
 21
0.4720475516
 31
0.0
 40
0.4526749354
 41
0.5693904873
 42
0.6512694135
  0
ELLIPSE
  5
4EF
100
AcDbEntity
  8
0
100
AcDbEllipse
 62
7
  6
CONTINUOUS
 10
67.1300273547
 20
49.6195050308
 30
0.0
 11
46.3879522597
 21
39.4060756966
 31
0.0
 40
0.0052507352
 41
-2.6950262564
 42
-2.565216453
  0
ELLIPSE
  5
4F0
100
AcDbEntity
  8
0
100
AcDbEllipse
 62
7
  6
CONTINUOUS
 10
20.6666823217
 20
21.4447187586
 30
0.0
 11
0.9991403971
 21
0.7064061486
 31
0.0
 40
0.0586835128
 41
-0.6116071655
 42
0.4945753375
  0
ELLIPSE
  5
4F1
100
AcDbEntity
  8
RACCORDO
100
AcDbEllipse
 62
7
  6
CONTINUOUS
 10
28.4935676766
 20
-26.8139493252
 30
0.0
 11
-0.321452335
 21
0.3834170467
 31
0.0
 40
0.7028938603
 41
-3.1783429643
 42
-2.4438792352
  0
ELLIPSE
  5
4F2
100
AcDbEntity
  8
RACCORDO
100
AcDbEllipse
 62
7
  6
CONTINUOUS
 10
28.4935676766
 20
9.4163317201
 30
0.0
 11
-0.3213627822
 21
0.3830516742
 31
0.0
 40
0.7038430734
 41
-2.4435470104
 42
-0.8734359163
  0
ELLIPSE
  5
4F3
100
AcDbEntity
  8
RACCORDO
100
AcDbEllipse
 62
7
  6
CONTINUOUS
 10
-26.8584023179
 20
28.9939208155
 30
0.0
 11
-0.321452335
 21
0.3834170467
 31
0.0
 40
0.7028938603
 41
-0.8723976758
 42
0.036421645
  0
ENDSEC
  0
SECTION
  2
OBJECTS
  0
DICTIONARY
  5
C
100
AcDbDictionary
280
0
281
1
  3
ACAD_GROUP
350
D
  3
ACAD_MLINESTYLE
350
17
  3
ACAD_LAYOUT
350
1A
  3
ACAD_PLOTSETTINGS
350
19
  3
ACAD_PLOTSTYLENAME
350
E
  0
DICTIONARY
  5
D
102
{ACAD_REACTORS
330
C
102
}
100
AcDbDictionary
280
0
281
1
  0
ACDBDICTIONARYWDFLT
  5
E
102
{ACAD_REACTORS
330
C
102
}
100
AcDbDictionary
281
1
  3
Normal
350
F
100
AcDbDictionaryWithDefault
340
F
  0
DICTIONARY
  5
17
102
{ACAD_REACTORS
330
C
102
}
100
AcDbDictionary
280
0
281
1
  3
Standard
350
18
  0
DICTIONARY
  5
19
102
{ACAD_REACTORS
330
C
102
}
100
AcDbDictionary
281
1
  0
DICTIONARY
  5
1A
102
{ACAD_REACTORS
330
C
102
}
100
AcDbDictionary
281
1
  3
Model
350
4F4
  3
Layout1
350
4F5
  0
ACDBPLACEHOLDER
  5
F
102
{ACAD_REACTORS
330
E
102
}
  0
MLINESTYLE
  5
18
102
{ACAD_REACTORS
330
17
102
}
100
AcDbMlineStyle
  2
STANDARD
 70
0
  3

 62
256
 51
90.0
 52
90.0
 71
2
 49
0.5
 62
256
  6
BYLAYER
 49
-0.5
 62
256
  6
BYLAYER
  0
LAYOUT
  5
4F4
102
{ACAD_REACTORS
330
1A
102
}
100
AcDbPlotSettings
  1

  2
none_device
  4
ISO_A4_(297.00_x_210.00_MM)
  6

 40
0.0
 41
0.0
 42
0.0
 43
0.0
 44
297.0
 45
210.0
 46
0.0
 47
0.0
 48
0.0
 49
0.0
140
0.0
141
0.0
142
1.0
143
1.0
 70
1024
 72
1
 73
0
 74
0
  7

 75
0
147
1.0
148
0.0
149
0.0
100
AcDbLayout
  1
Model
 70
0
 71
0
 10
0.0
 20
0.0
 11
297.0
 21
210.0
 12
0.0
 22
0.0
 32
0.0
 14
0.0
 24
0.0
 34
0.0
 15
0.0
 25
0.0
 35
0.0
146
0.0
 13
0.0
 23
0.0
 33
0.0
 16
1.0
 26
0.0
 36
0.0
 17
0.0
 27
1.0
 37
0.0
 76
0
330
219
345
0
346
0
  0
LAYOUT
  5
4F5
102
{ACAD_REACTORS
330
1A
102
}
100
AcDbPlotSettings
  1

  2
none_device
  4
ISO_A4_(297.00_x_210.00_MM)
  6

 40
0.0
 41
0.0
 42
0.0
 43
0.0
 44
297.0
 45
210.0
 46
0.0
 47
0.0
 48
0.0
 49
0.0
140
0.0
141
0.0
142
1.0
143
1.0
 70
0
 72
1
 73
0
 74
0
  7

 75
0
147
1.0
148
0.0
149
0.0
100
AcDbLayout
  1
Layout1
 70
0
 71
1
 10
0.0
 20
0.0
 11
297.0
 21
210.0
 12
0.0
 22
0.0
 32
0.0
 14
0.0
 24
0.0
 34
0.0
 15
0.0
 25
0.0
 35
0.0
146
0.0
 13
0.0
 23
0.0
 33
0.0
 16
1.0
 26
0.0
 36
0.0
 17
0.0
 27
1.0
 37
0.0
 76
0
330
21A
345
0
346
0
  0
ENDSEC
  0
EOF
