  0
SECTION
  2
HEADER
  9
$ACADVER
  1
AC1024
  9
$DWGCODEPAGE
  3
ANSI_1252
  9
$EXTMAX
 10
297.0
 20
210.0
 30
0.0
  9
$EXTMIN
 10
0.0
 20
0.0
 30
0.0
  9
$LIMMIN
 10
0.0
 20
0.0
  9
$LIMMAX
 10
297.0
 20
210.0
  9
$VIEWCTR
 10
148.5
 20
105.0
  9
$VIEWSIZE
 40
210.0
  9
$CLAYER
  8
0
  9
$LTSCALE
 40
16.335
  9
$CELTYPE
  6
BYLAYER
  9
$DIMSCALE
 40
1.0
  9
$DIMASZ
 40
3.0
  9
$DIMEXO
 40
0.5
  9
$DIMDLI
 40
11.286
  9
$DIMEXE
 40
1.5
  9
$DIMCEN
 40
2.673
  9
$DIMLFAC
 40
1.0
  9
$DIMBLK
  1
_FILLED
  9
$DIMALT
 70
0
  9
$DIMALTF
 40
0.0393700787
  9
$DIMTXT
 40
3.0
  9
$DIMTOL
 70
1
  9
$DIMLIM
 70
0
  9
$DIMTFAC
 40
1.0
  9
$DIMTP
 40
0.01
  9
$DIMTM
 40
0.01
  9
$DIMGAP
 40
0.625
  9
$DIMDSEP
 70
44
  9
$AUNITS
 70
0
  9
$PDMODE
 70
3
  9
$PDSIZE
 40
3.0
  9
$HANDSEED
  5
5DF
  9
$TILEMODE
 70
1
  9
$MEASUREMENT
 70
1
  9
$INSUNITS
 70
4
  0
ENDSEC
  0
SECTION
  2
CLASSES
  0
CLASS
  1
ACDBDICTIONARYWDFLT
  2
AcDbDictionaryWithDefault
  3
AutoCAD 2000
 90
0
 91
1
280
0
281
0
  0
CLASS
  1
ACDBPLACEHOLDER
  2
AcDbPlaceHolder
  3
AutoCAD 2000
 90
0
 91
1
280
0
281
0
  0
CLASS
  1
LAYOUT
  2
AcDbLayout
  3
AutoCAD 2000
 90
0
 91
0
280
0
281
0
  0
ENDSEC
  0
SECTION
  2
TABLES
  0
TABLE
  2
VPORT
  5
8
100
AcDbSymbolTable
 70
2
  0
VPORT
  5
1F4
100
AcDbSymbolTableRecord
100
AcDbViewportTableRecord
  2
*ACTIVE
 70
0
 10
0.0
 20
0.0
 11
1.0
 21
1.0
 12
148.5
 22
105.0
 13
0.0
 23
0.0
 14
1.0
 24
1.0
 15
0.0
 25
0.0
 16
0.0
 26
0.0
 36
1.0
 17
0.0
 27
0.0
 37
0.0
 40
210.0
 41
1.4142857143
 42
50.0
 43
0.0
 44
0.0
 50
0.0
 51
0.0
 71
0
 72
100
 73
1
 74
1
 75
0
 76
0
 77
0
 78
0
  0
ENDTAB
  0
TABLE
  2
LTYPE
  5
5
100
AcDbSymbolTable
 70
6
  0
LTYPE
  5
14
100
AcDbSymbolTableRecord
100
AcDbLinetypeTableRecord
  2
BYBLOCK
 70
0
  3

 72
65
 73
0
 40
0.0
  0
LTYPE
  5
15
100
AcDbSymbolTableRecord
100
AcDbLinetypeTableRecord
  2
BYLAYER
 70
0
  3

 72
65
 73
0
 40
0.0
  0
LTYPE
  5
16
100
AcDbSymbolTableRecord
100
AcDbLinetypeTableRecord
  2
CONTINUOUS
 70
64
  3
Solid line
 72
65
 73
0
 40
0.0
  0
LTYPE
  5
1F5
100
AcDbSymbolTableRecord
100
AcDbLinetypeTableRecord
  2
CENTER
 70
64
  3
____ _ ____ _ ____ _ ____ _ ____ _ ____ _ ____
 72
65
 73
4
 40
0.6
 49
0.375
 74
0
 49
-0.075
 74
0
 49
0.075
 74
0
 49
-0.075
 74
0
  0
LTYPE
  5
1F6
100
AcDbSymbolTableRecord
100
AcDbLinetypeTableRecord
  2
HIDDEN
 70
64
  3
- - - - - - - - - - - - - - - - - - - -
 72
65
 73
2
 40
0.2
 49
0.1
 74
0
 49
-0.1
 74
0
  0
LTYPE
  5
1F7
100
AcDbSymbolTableRecord
100
AcDbLinetypeTableRecord
  2
PHANTOM
 70
64
  3
_____ _ _ _____ _ _ _____ _ _ _____
 72
65
 73
6
 40
0.8
 49
0.45
 74
0
 49
-0.05
 74
0
 49
0.1
 74
0
 49
-0.05
 74
0
 49
0.1
 74
0
 49
-0.05
 74
0
  0
LTYPE
  5
1F8
100
AcDbSymbolTableRecord
100
AcDbLinetypeTableRecord
  2
DOT
 70
64
  3
. . . . . . . . . . . . . . . . . . . .
 72
65
 73
2
 40
0.2
 49
0.1
 74
0
 49
-0.1
 74
0
  0
LTYPE
  5
1F9
100
AcDbSymbolTableRecord
100
AcDbLinetypeTableRecord
  2
DASHED
 70
64
  3
- - - - - - - - - - - - - - - - - - - -
 72
65
 73
2
 40
0.2
 49
0.1
 74
0
 49
-0.1
 74
0
  0
ENDTAB
  0
TABLE
  2
LAYER
  5
2
100
AcDbSymbolTable
 70
36
  0
LAYER
  5
10
100
AcDbSymbolTableRecord
100
AcDbLayerTableRecord
  2
0
 70
0
 62
7
  6
CONTINUOUS
370
-3
390
F
  0
LAYER
  5
1FA
100
AcDbSymbolTableRecord
100
AcDbLayerTableRecord
  2
DEFAULT_1
 70
0
 62
7
  6
CENTER
370
-3
390
F
  0
LAYER
  5
1FB
100
AcDbSymbolTableRecord
100
AcDbLayerTableRecord
  2
DEFAULT_2
 70
0
 62
7
  6
HIDDEN
370
-3
390
F
  0
LAYER
  5
1FC
100
AcDbSymbolTableRecord
100
AcDbLayerTableRecord
  2
DEFAULT_3
 70
0
 62
7
  6
PHANTOM
370
-3
390
F
  0
LAYER
  5
1FD
100
AcDbSymbolTableRecord
100
AcDbLayerTableRecord
  2
ASSI
 70
0
 62
7
  6
CONTINUOUS
370
-3
390
F
  0
LAYER
  5
1FE
100
AcDbSymbolTableRecord
100
AcDbLayerTableRecord
  2
COLORE_TOP
 70
0
 62
7
  6
CONTINUOUS
370
-3
390
F
  0
LAYER
  5
1FF
100
AcDbSymbolTableRecord
100
AcDbLayerTableRecord
  2
COORDINATE
 70
0
 62
7
  6
CONTINUOUS
370
-3
390
F
  0
LAYER
  5
200
100
AcDbSymbolTableRecord
100
AcDbLayerTableRecord
  2
COORD_ORIGINE
 70
0
 62
7
  6
CONTINUOUS
370
-3
390
F
  0
LAYER
  5
201
100
AcDbSymbolTableRecord
100
AcDbLayerTableRecord
  2
COPY_PUBLISH
 70
0
 62
7
  6
CONTINUOUS
370
-3
390
F
  0
LAYER
  5
202
100
AcDbSymbolTableRecord
100
AcDbLayerTableRecord
  2
COSMETIC
 70
0
 62
7
  6
CONTINUOUS
370
-3
390
F
  0
LAYER
  5
203
100
AcDbSymbolTableRecord
100
AcDbLayerTableRecord
  2
COSMETICHE
 70
0
 62
7
  6
CONTINUOUS
370
-3
390
F
  0
LAYER
  5
204
100
AcDbSymbolTableRecord
100
AcDbLayerTableRecord
  2
COSMETICI
 70
0
 62
7
  6
CONTINUOUS
370
-3
390
F
  0
LAYER
  5
205
100
AcDbSymbolTableRecord
100
AcDbLayerTableRecord
  2
CURVE
 70
0
 62
7
  6
CONTINUOUS
370
-3
390
F
  0
LAYER
  5
206
100
AcDbSymbolTableRecord
100
AcDbLayerTableRecord
  2
DRAFT
 70
0
 62
7
  6
CONTINUOUS
370
-3
390
F
  0
LAYER
  5
207
100
AcDbSymbolTableRecord
100
AcDbLayerTableRecord
  2
IMPORTED
 70
0
 62
7
  6
CONTINUOUS
370
-3
390
F
  0
LAYER
  5
208
100
AcDbSymbolTableRecord
100
AcDbLayerTableRecord
  2
IMPORT_IGES
 70
0
 62
7
  6
CONTINUOUS
370
-3
390
F
  0
LAYER
  5
209
100
AcDbSymbolTableRecord
100
AcDbLayerTableRecord
  2
INCISIONI_LASER
 70
0
 62
7
  6
CONTINUOUS
370
-3
390
F
  0
LAYER
  5
20A
100
AcDbSymbolTableRecord
100
AcDbLayerTableRecord
  2
INTFCLR_1
 70
0
 62
7
  6
CONTINUOUS
370
-3
390
F
  0
LAYER
  5
20B
100
AcDbSymbolTableRecord
100
AcDbLayerTableRecord
  2
INTF_1
 70
0
 62
7
  6
CONTINUOUS
370
-3
390
F
  0
LAYER
  5
20C
100
AcDbSymbolTableRecord
100
AcDbLayerTableRecord
  2
INTF_11
 70
0
 62
7
  6
CONTINUOUS
370
-3
390
F
  0
LAYER
  5
20D
100
AcDbSymbolTableRecord
100
AcDbLayerTableRecord
  2
INTF_15
 70
0
 62
7
  6
CONTINUOUS
370
-3
390
F
  0
LAYER
  5
20E
100
AcDbSymbolTableRecord
100
AcDbLayerTableRecord
  2
INTF_16
 70
0
 62
7
  6
CONTINUOUS
370
-3
390
F
  0
LAYER
  5
20F
100
AcDbSymbolTableRecord
100
AcDbLayerTableRecord
  2
INTF_2
 70
0
 62
7
  6
CONTINUOUS
370
-3
390
F
  0
LAYER
  5
210
100
AcDbSymbolTableRecord
100
AcDbLayerTableRecord
  2
NOTE
 70
0
 62
7
  6
CONTINUOUS
370
-3
390
F
  0
LAYER
  5
211
100
AcDbSymbolTableRecord
100
AcDbLayerTableRecord
  2
PIANI
 70
0
 62
7
  6
CONTINUOUS
370
-3
390
F
  0
LAYER
  5
212
100
AcDbSymbolTableRecord
100
AcDbLayerTableRecord
  2
PIANI_ORIGINE
 70
0
 62
7
  6
CONTINUOUS
370
-3
390
F
  0
LAYER
  5
213
100
AcDbSymbolTableRecord
100
AcDbLayerTableRecord
  2
PIANI_SFORMO
 70
0
 62
7
  6
CONTINUOUS
370
-3
390
F
  0
LAYER
  5
214
100
AcDbSymbolTableRecord
100
AcDbLayerTableRecord
  2
PUNTI
 70
0
 62
7
  6
CONTINUOUS
370
-3
390
F
  0
LAYER
  5
215
100
AcDbSymbolTableRecord
100
AcDbLayerTableRecord
  2
RACCORDO
 70
0
 62
7
  6
CONTINUOUS
370
-3
390
F
  0
LAYER
  5
216
100
AcDbSymbolTableRecord
100
AcDbLayerTableRecord
  2
RGB__255__255__255__
 70
0
 62
7
  6
CONTINUOUS
370
-3
390
F
  0
LAYER
  5
217
100
AcDbSymbolTableRecord
100
AcDbLayerTableRecord
  2
RINTRACCIABILITA
 70
0
 62
7
  6
CONTINUOUS
370
-3
390
F
  0
LAYER
  5
218
100
AcDbSymbolTableRecord
100
AcDbLayerTableRecord
  2
SIMBOLI
 70
0
 62
7
  6
CONTINUOUS
370
-3
390
F
  0
LAYER
  5
219
100
AcDbSymbolTableRecord
100
AcDbLayerTableRecord
  2
SMUSSO
 70
0
 62
7
  6
CONTINUOUS
370
-3
390
F
  0
LAYER
  5
21A
100
AcDbSymbolTableRecord
100
AcDbLayerTableRecord
  2
SNAPLINE
 70
0
 62
7
  6
CONTINUOUS
370
-3
390
F
  0
LAYER
  5
21B
100
AcDbSymbolTableRecord
100
AcDbLayerTableRecord
  2
SUPERFICI
 70
0
 62
7
  6
CONTINUOUS
370
-3
390
F
  0
LAYER
  5
21C
100
AcDbSymbolTableRecord
100
AcDbLayerTableRecord
  2
SUPERFICI_SKEL
 70
0
 62
7
  6
CONTINUOUS
370
-3
390
F
  0
LAYER
  5
21D
100
AcDbSymbolTableRecord
100
AcDbLayerTableRecord
  2
TRASH
 70
0
 62
7
  6
CONTINUOUS
370
-3
390
F
  0
LAYER
  5
21E
100
AcDbSymbolTableRecord
100
AcDbLayerTableRecord
  2
XSEC_DATUMS
 70
0
 62
7
  6
CONTINUOUS
370
-3
390
F
  0
ENDTAB
  0
TABLE
  2
STYLE
  5
3
100
AcDbSymbolTable
 70
1
  0
STYLE
  5
11
100
AcDbSymbolTableRecord
100
AcDbTextStyleTableRecord
  2
STANDARD
 70
0
 40
0.0
 41
0.8
 50
0.0
 71
0
 42
0.2
  3
txt
  4

  0
STYLE
  5
21F
100
AcDbSymbolTableRecord
100
AcDbTextStyleTableRecord
  2
TEXTSTYLE_1
 70
0
 40
0.0
 41
0.8
 50
0.0
 71
0
 42
0.2
  3
gdt
  4

  0
ENDTAB
  0
TABLE
  2
VIEW
  5
6
100
AcDbSymbolTable
 70
0
  0
ENDTAB
  0
TABLE
  2
UCS
  5
7
100
AcDbSymbolTable
 70
0
  0
ENDTAB
  0
TABLE
  2
APPID
  5
9
100
AcDbSymbolTable
 70
1
  0
APPID
  5
220
100
AcDbSymbolTableRecord
100
AcDbRegAppTableRecord
  2
ACAD
 70
0
  0
ENDTAB
  0
TABLE
  2
BLOCK_RECORD
  5
1
100
AcDbSymbolTable
 70
0
  0
BLOCK_RECORD
  5
221
100
AcDbSymbolTableRecord
100
AcDbBlockTableRecord
  2
*Model_Space
  0
BLOCK_RECORD
  5
222
100
AcDbSymbolTableRecord
100
AcDbBlockTableRecord
  2
*Paper_Space
  0
BLOCK_RECORD
  5
223
100
AcDbSymbolTableRecord
100
AcDbBlockTableRecord
  2
_FILLED
  0
ENDTAB
  0
TABLE
  2
DIMSTYLE
  5
A
100
AcDbSymbolTable
 70
1
100
AcDbDimStyleTable
 71
0
  0
DIMSTYLE
105
224
100
AcDbSymbolTableRecord
100
AcDbDimStyleTableRecord
  2
STANDARD
 70
0
  3

  4

 40
1.0
 41
3.0
 42
0.5
 43
0.38
 44
1.5
 45
0.0
 46
0.0
 47
0.01
 48
0.01
140
3.0
141
0.09
142
0.0
143
25.4
144
1.0
145
0.0
146
1.0
147
0.625
 71
1.0
 72
0.0
 73
0
 74
0
 75
0
 76
0
 77
1
 78
8
 79
2
170
0
171
1
172
0
173
0
174
0
175
0
176
0
177
0
178
0
270
2
179
2
271
2
272
2
273
2
274
2
275
0
280
0
281
0
282
0
283
1
284
8
285
0
286
0
287
3
288
0
340
11
278
44
341
223
342
223
343
223
344
223
  0
ENDTAB
  0
ENDSEC
  0
SECTION
  2
BLOCKS
  0
BLOCK
  5
20
100
AcDbEntity
  8
0
100
AcDbBlockBegin
  2
*Model_Space
 70
0
 10
0.0
 20
0.0
 30
0.0
  3
*Model_Space
  1

  0
ENDBLK
  5
21
100
AcDbEntity
  8
0
100
AcDbBlockEnd
  0
BLOCK
  5
1C
100
AcDbEntity
  8
0
100
AcDbBlockBegin
  2
*Paper_Space
 70
0
 10
0.0
 20
0.0
 30
0.0
  3
*Paper_Space
  1

  0
ENDBLK
  5
1D
100
AcDbEntity
  8
0
100
AcDbBlockEnd
  0
BLOCK
  5
225
100
AcDbEntity
  8
0
100
AcDbBlockBegin
  2
_FILLED
 70
64
 10
0.0
 20
0.0
  3
_FILLED
  1

  0
SOLID
  5
226
100
AcDbEntity
  8
0
  6
BYBLOCK
 62
0
100
AcDbTrace
 10
0.0
 20
0.0
 11
-1.0
 21
0.3166666667
 12
-1.0
 22
-0.3166666667
 13
-1.0
 23
-0.3166666667
  0
ENDBLK
  5
227
100
AcDbEntity
  8
0
  6
BYBLOCK
 62
0
100
AcDbBlockEnd
  0
ENDSEC
  0
SECTION
  2
ENTITIES
  0
LWPOLYLINE
  5
228
100
AcDbEntity
  8
ASSI
100
AcDbPolyline
 62
7
  6
CONTINUOUS
 90
12
 70
0
 10
-9.6483214668
 20
46.1479700742
 10
-9.6597267903
 20
46.1414174472
 10
-9.6819987178
 20
46.1260734041
 10
-9.7028736719
 20
46.108084569
 10
-9.7220431991
 20
46.0876492513
 10
-9.7388002388
 20
46.0656359902
 10
-9.7534496326
 20
46.0417708724
 10
-9.7659162021
 20
46.0159705665
 10
-9.775550884
 20
45.9895310543
 10
-9.782358613
 20
45.9627801608
 10
-9.786456871
 20
45.9349719604
 10
-9.7875852509
 20
45.9109051544
  0
LINE
  5
229
100
AcDbEntity
  8
ASSI
100
AcDbLine
 62
7
  6
CONTINUOUS
 10
-8.0812177135
 20
46.9934587177
 11
-9.6484182038
 21
46.1479180989
  0
LINE
  5
22A
100
AcDbEntity
  8
ASSI
100
AcDbLine
 62
250
  6
CONTINUOUS
 10
-7.9896708367
 20
46.988874764
 11
-9.5559235816
 21
46.1438454756
  0
LINE
  5
22B
100
AcDbEntity
  8
ASSI
100
AcDbLine
 62
7
  6
CONTINUOUS
 10
-8.0770098767
 20
46.9955645954
 11
-8.0811753802
 21
46.9934815575
  0
LINE
  5
22C
100
AcDbEntity
  8
ASSI
100
AcDbLine
 62
250
  6
CONTINUOUS
 10
-7.9896708367
 20
46.988874764
 11
-7.446944774
 21
47.239523645
  0
LINE
  5
22D
100
AcDbEntity
  8
ASSI
100
AcDbLine
 62
7
  6
CONTINUOUS
 10
-8.0769520369
 20
46.9955913854
 11
-7.5330493951
 21
47.2467832189
  0
LINE
  5
22E
100
AcDbEntity
  8
ASSI
100
AcDbLine
 62
7
  6
CONTINUOUS
 10
-7.5099036036
 20
47.2560083307
 11
-7.5330493074
 21
47.2467830277
  0
LWPOLYLINE
  5
22F
100
AcDbEntity
  8
ASSI
100
AcDbPolyline
 62
7
  6
CONTINUOUS
 90
19
 70
0
 10
-13.3029253747
 20
42.3225334894
 10
-13.3148820735
 20
42.3153449654
 10
-13.3870806957
 20
42.2674880914
 10
-13.456167744
 20
42.2140792567
 10
-13.5221479783
 20
42.1554005956
 10
-13.5849151191
 20
42.0917869658
 10
-13.6441479861
 20
42.0237527381
 10
-13.6997667635
 20
41.9515845915
 10
-13.7516253148
 20
41.8755573578
 10
-13.79928445
 20
41.7963870615
 10
-13.842618591
 20
41.7143890334
 10
-13.8814489422
 20
41.6298492953
 10
-13.9153934152
 20
41.5435993463
 10
-13.9443074609
 20
41.4559647901
 10
-13.9680181379
 20
41.3672212053
 10
-13.9862585961
 20
41.2780810153
 10
-13.9988450643
 20
41.18890794
 10
-14.0056230626
 20
41.0998584783
 10
-14.0060768778
 20
41.0879878338
  0
LINE
  5
230
100
AcDbEntity
  8
ASSI
100
AcDbLine
 62
7
  6
CONTINUOUS
 10
-13.3030793486
 20
42.3224556096
 11
-9.0727222635
 21
44.8302205599
  0
LINE
  5
231
100
AcDbEntity
  8
ASSI
100
AcDbLine
 62
250
  6
CONTINUOUS
 10
-13.0666149923
 20
42.3155168808
 11
-9.0727222635
 21
44.6831052425
  0
LWPOLYLINE
  5
232
100
AcDbEntity
  8
ASSI
100
AcDbPolyline
 62
7
  6
CONTINUOUS
 90
12
 70
0
 10
-3.931829751
 20
44.2553023566
 10
-3.9399893123
 20
44.2506721798
 10
-3.959174848
 20
44.2378159503
 10
-3.9769624527
 20
44.2229593518
 10
-3.9931129085
 20
44.2062900384
 10
-4.0075631657
 20
44.1878350353
 10
-4.0201055863
 20
44.1677846835
 10
-4.0305426707
 20
44.1463990867
 10
-4.0388098797
 20
44.123730492
 10
-4.0447811194
 20
44.0999101637
 10
-4.0483161723
 20
44.0752483056
 10
-4.0493497911
 20
44.0525558061
  0
LINE
  5
233
100
AcDbEntity
  8
ASSI
100
AcDbLine
 62
7
  6
CONTINUOUS
 10
-7.7068065851
 20
43.9000494161
 11
-8.2495326478
 21
43.6037593059
  0
LINE
  5
234
100
AcDbEntity
  8
ASSI
100
AcDbLine
 62
7
  6
CONTINUOUS
 10
-5.7269075978
 20
44.0388397965
 11
-6.6293583484
 21
43.5461654056
  0
LINE
  5
235
100
AcDbEntity
  8
ASSI
100
AcDbLine
 62
7
  6
CONTINUOUS
 10
-3.7200314656
 20
44.3695724738
 11
-3.931843838
 21
44.2552948396
  0
LINE
  5
236
100
AcDbEntity
  8
ASSI
100
AcDbLine
 62
250
  6
CONTINUOUS
 10
-3.6056141781
 20
44.3638337328
 11
-3.8164684955
 21
44.2500729912
  0
LINE
  5
237
100
AcDbEntity
  8
ASSI
100
AcDbLine
 62
250
  6
CONTINUOUS
 10
-7.4902075415
 20
45.1109895333
 11
-5.8683074148
 21
45.928193053
  0
LINE
  5
238
100
AcDbEntity
  8
ASSI
100
AcDbLine
 62
250
  6
CONTINUOUS
 10
-7.3488077244
 20
44.867110924
 11
-5.7269075978
 21
45.6843144437
  0
LINE
  5
239
100
AcDbEntity
  8
ASSI
100
AcDbLine
 62
7
  6
CONTINUOUS
 10
-3.7200377582
 20
44.3695690979
 11
-3.7148235548
 21
44.3721796791
  0
LINE
  5
23A
100
AcDbEntity
  8
ASSI
100
AcDbLine
 62
250
  6
CONTINUOUS
 10
-5.8683074148
 20
45.928193053
 11
-5.3442029483
 21
46.1881527322
  0
LINE
  5
23B
100
AcDbEntity
  8
ASSI
100
AcDbLine
 62
250
  6
CONTINUOUS
 10
-5.7269075978
 20
45.6843144437
 11
-5.2028031312
 21
45.9442741229
  0
LINE
  5
23C
100
AcDbEntity
  8
ASSI
100
AcDbLine
 62
7
  6
CONTINUOUS
 10
1.9884162712
 20
47.8051475241
 11
-5.0587718826
 21
44.3967621905
  0
LINE
  5
23D
100
AcDbEntity
  8
ASSI
100
AcDbLine
 62
250
  6
CONTINUOUS
 10
0.6233209887
 20
46.1427051192
 11
-2.6917592418
 21
44.5575169697
  0
LINE
  5
23E
100
AcDbEntity
  8
ASSI
100
AcDbLine
 62
250
  6
CONTINUOUS
 10
0.7969519283
 20
45.8419985703
 11
-2.2994648713
 21
44.3613697844
  0
LINE
  5
23F
100
AcDbEntity
  8
ASSI
100
AcDbLine
 62
7
  6
CONTINUOUS
 10
-3.7147652836
 20
44.3722066002
 11
0.3359519333
 21
46.2429620471
  0
LINE
  5
240
100
AcDbEntity
  8
ASSI
100
AcDbLine
 62
250
  6
CONTINUOUS
 10
-3.6056141781
 20
44.3638337328
 11
0.4438568378
 21
46.2340136428
  0
LINE
  5
241
100
AcDbEntity
  8
ASSI
100
AcDbLine
 62
7
  6
CONTINUOUS
 10
0.3689621542
 20
46.2564117396
 11
0.3358438582
 21
46.2429016657
  0
LWPOLYLINE
  5
242
100
AcDbEntity
  8
ASSI
100
AcDbPolyline
 62
7
  6
CONTINUOUS
 90
12
 70
0
 10
-0.2195191497
 20
42.399147056
 10
-0.227678711
 20
42.3945168791
 10
-0.2468642468
 20
42.3816606496
 10
-0.2646518515
 20
42.3668040512
 10
-0.2808023072
 20
42.3501347378
 10
-0.2952525644
 20
42.3316797347
 10
-0.3077949851
 20
42.3116293829
 10
-0.3182320694
 20
42.290243786
 10
-0.3264992785
 20
42.2675751914
 10
-0.3324705182
 20
42.2437548631
 10
-0.3360055711
 20
42.2190930049
 10
-0.3370391899
 20
42.1964005055
  0
LINE
  5
243
100
AcDbEntity
  8
ASSI
100
AcDbLine
 62
7
  6
CONTINUOUS
 10
-1.2014241982
 20
41.7760980967
 11
-1.4197702355
 21
41.656896577
  0
LINE
  5
244
100
AcDbEntity
  8
ASSI
100
AcDbLine
 62
7
  6
CONTINUOUS
 10
-0.0077208644
 20
42.5134171732
 11
-0.2195332368
 21
42.3991395389
  0
LINE
  5
245
100
AcDbEntity
  8
ASSI
100
AcDbLine
 62
250
  6
CONTINUOUS
 10
0.1066964231
 20
42.5076784322
 11
-0.1041578942
 21
42.3939176906
  0
LINE
  5
246
100
AcDbEntity
  8
ASSI
100
AcDbLine
 62
7
  6
CONTINUOUS
 10
-0.5193639678
 20
42.1277612561
 11
-1.2014241982
 21
41.7760980967
  0
LINE
  5
247
100
AcDbEntity
  8
ASSI
100
AcDbLine
 62
250
  6
CONTINUOUS
 10
-1.5965200069
 20
43.140098747
 11
-1.3781739695
 21
43.2501136285
  0
LINE
  5
248
100
AcDbEntity
  8
ASSI
100
AcDbLine
 62
250
  6
CONTINUOUS
 10
-1.4197702355
 20
42.8352504853
 11
-1.2014241982
 21
42.9452653668
  0
LINE
  5
249
100
AcDbEntity
  8
ASSI
100
AcDbLine
 62
7
  6
CONTINUOUS
 10
-0.007727157
 20
42.5134137973
 11
-0.0025129536
 21
42.5160243785
  0
LINE
  5
24A
100
AcDbEntity
  8
ASSI
100
AcDbLine
 62
7
  6
CONTINUOUS
 10
3.9332746601
 20
45.3393283362
 11
2.8520312905
 21
44.7987066514
  0
LINE
  5
24B
100
AcDbEntity
  8
ASSI
100
AcDbLine
 62
250
  6
CONTINUOUS
 10
-1.3781739695
 20
43.2501136285
 11
-0.724955205
 21
43.5741149513
  0
LINE
  5
24C
100
AcDbEntity
  8
ASSI
100
AcDbLine
 62
250
  6
CONTINUOUS
 10
-1.2014241982
 20
42.9452653668
 11
-0.5436557867
 21
43.271523348
  0
LINE
  5
24D
100
AcDbEntity
  8
ASSI
100
AcDbLine
 62
7
  6
CONTINUOUS
 10
5.9508820067
 20
43.4308224851
 11
2.6879613349
 21
41.8676566814
  0
LINE
  5
24E
100
AcDbEntity
  8
ASSI
100
AcDbLine
 62
250
  6
CONTINUOUS
 10
6.0619794135
 20
43.4233759068
 11
2.7499282921
 21
41.8366732027
  0
LINE
  5
24F
100
AcDbEntity
  8
ASSI
100
AcDbLine
 62
250
  6
CONTINUOUS
 10
4.8070078646
 20
46.3958517274
 11
2.5363411713
 21
45.3097375252
  0
LINE
  5
250
100
AcDbEntity
  8
ASSI
100
AcDbLine
 62
250
  6
CONTINUOUS
 10
4.9806724572
 20
46.0932394332
 11
2.8551539769
 21
45.0765530938
  0
LINE
  5
251
100
AcDbEntity
  8
ASSI
100
AcDbLine
 62
7
  6
CONTINUOUS
 10
1.9100879469
 20
45.1749342738
 11
0.8093959696
 21
44.6486110004
  0
LINE
  5
252
100
AcDbEntity
  8
RACCORDO
100
AcDbLine
 62
7
  6
CONTINUOUS
 10
2.0332986006
 20
44.1843844542
 11
1.8951837984
 21
44.1191473689
  0
LINE
  5
253
100
AcDbEntity
  8
RACCORDO
100
AcDbLine
 62
250
  6
CONTINUOUS
 10
2.116832607
 20
44.1758853675
 11
1.980556318
 21
44.1115166847
  0
LINE
  5
254
100
AcDbEntity
  8
ASSI
100
AcDbLine
 62
7
  6
CONTINUOUS
 10
0.674998537
 20
42.8289216463
 11
-0.0024546824
 21
42.5160512996
  0
LINE
  5
255
100
AcDbEntity
  8
ASSI
100
AcDbLine
 62
250
  6
CONTINUOUS
 10
0.7831242553
 20
42.8200752211
 11
0.1066964231
 21
42.5076784322
  0
LINE
  5
256
100
AcDbEntity
  8
RACCORDO
100
AcDbLine
 62
7
  6
CONTINUOUS
 10
2.1784317953
 20
42.3162707668
 11
1.9744232674
 21
42.2244257151
  0
LINE
  5
257
100
AcDbEntity
  8
ASSI
100
AcDbLine
 62
7
  6
CONTINUOUS
 10
5.9854609306
 20
43.4453664823
 11
5.9508127153
 21
43.4307777413
  0
LINE
  5
258
100
AcDbEntity
  8
RACCORDO
100
AcDbLine
 62
250
  6
CONTINUOUS
 10
1.075894552
 20
42.6736900728
 11
2.0056246653
 21
43.4025086825
  0
LWPOLYLINE
  5
259
100
AcDbEntity
  8
ASSI
100
AcDbPolyline
 62
7
  6
CONTINUOUS
 90
12
 70
0
 10
2.9381792383
 20
39.8547197216
 10
2.9267739148
 20
39.8481670946
 10
2.9045019873
 20
39.8328230516
 10
2.8836270333
 20
39.8148342164
 10
2.864457506
 20
39.7943988988
 10
2.8477004664
 20
39.7723856376
 10
2.8330510725
 20
39.7485205198
 10
2.820584503
 20
39.7227202139
 10
2.8109498211
 20
39.6962807018
 10
2.8041420921
 20
39.6695298083
 10
2.8000438342
 20
39.6417216078
 10
2.7989154542
 20
39.6176548018
  0
LINE
  5
25A
100
AcDbEntity
  8
ASSI
100
AcDbLine
 62
7
  6
CONTINUOUS
 10
2.5108864031
 20
39.9199427961
 11
2.2925403657
 21
39.8007412764
  0
LINE
  5
25B
100
AcDbEntity
  8
ASSI
100
AcDbLine
 62
7
  6
CONTINUOUS
 10
4.5052829916
 20
40.7002083651
 11
2.9380825013
 21
39.8546677464
  0
LINE
  5
25C
100
AcDbEntity
  8
ASSI
100
AcDbLine
 62
250
  6
CONTINUOUS
 10
4.5968298684
 20
40.6956244114
 11
3.0305771236
 21
39.8505951231
  0
LINE
  5
25D
100
AcDbEntity
  8
ASSI
100
AcDbLine
 62
250
  6
CONTINUOUS
 10
2.1157905943
 20
41.2839434463
 11
2.3341366317
 21
41.3939583279
  0
LINE
  5
25E
100
AcDbEntity
  8
ASSI
100
AcDbLine
 62
250
  6
CONTINUOUS
 10
2.2925403657
 20
40.9790951847
 11
2.5108864031
 21
41.0891100662
  0
LINE
  5
25F
100
AcDbEntity
  8
ASSI
100
AcDbLine
 62
7
  6
CONTINUOUS
 10
4.5053264259
 20
40.7002317554
 11
4.5094928625
 21
40.7023152599
  0
LINE
  5
260
100
AcDbEntity
  8
ASSI
100
AcDbLine
 62
250
  6
CONTINUOUS
 10
2.3341366317
 20
41.3939583279
 11
6.2446653358
 21
43.3336093939
  0
LINE
  5
261
100
AcDbEntity
  8
ASSI
100
AcDbLine
 62
250
  6
CONTINUOUS
 10
2.5108864031
 20
41.0891100662
 11
6.4214860808
 21
43.0287963357
  0
LINE
  5
262
100
AcDbEntity
  8
ASSI
100
AcDbLine
 62
7
  6
CONTINUOUS
 10
2.5108864031
 20
39.9199427961
 11
6.4092483435
 21
41.8535590577
  0
LINE
  5
263
100
AcDbEntity
  8
DRAFT
100
AcDbLine
 62
7
  6
CONTINUOUS
 10
17.8552111327
 20
45.2208608034
 11
13.8430551542
 21
43.2659879958
  0
LINE
  5
264
100
AcDbEntity
  8
ASSI
100
AcDbLine
 62
7
  6
CONTINUOUS
 10
6.5232066349
 20
42.4563055807
 11
6.9440851786
 21
42.657935658
  0
LINE
  5
265
100
AcDbEntity
  8
ASSI
100
AcDbLine
 62
7
  6
CONTINUOUS
 10
7.2244903823
 20
43.0177298383
 11
9.3914751638
 21
44.0555427435
  0
LINE
  5
266
100
AcDbEntity
  8
ASSI
100
AcDbLine
 62
250
  6
CONTINUOUS
 10
7.2332617405
 20
42.9612772406
 11
9.502545205
 21
44.0480830572
  0
LINE
  5
267
100
AcDbEntity
  8
RACCORDO
100
AcDbLine
 62
7
  6
CONTINUOUS
 10
16.858881543
 20
46.3002276311
 11
13.4284776425
 21
44.6628908182
  0
LINE
  5
268
100
AcDbEntity
  8
ASSI
100
AcDbLine
 62
7
  6
CONTINUOUS
 10
12.3211367984
 20
42.6387872605
 11
6.9563855262
 21
40.0978084374
  0
LINE
  5
269
100
AcDbEntity
  8
RACCORDO
100
AcDbLine
 62
7
  6
CONTINUOUS
 10
15.4992652267
 20
46.8180213837
 11
9.6733289492
 21
44.1274109458
  0
LINE
  5
26A
100
AcDbEntity
  8
RACCORDO
100
AcDbLine
 62
250
  6
CONTINUOUS
 10
15.8877227093
 20
46.785807048
 11
9.9706592543
 21
44.0531110597
  0
LINE
  5
26B
100
AcDbEntity
  8
ASSI
100
AcDbLine
 62
250
  6
CONTINUOUS
 10
5.1395559311
 20
40.9462732925
 11
4.5968298684
 21
40.6956244114
  0
LINE
  5
26C
100
AcDbEntity
  8
ASSI
100
AcDbLine
 62
7
  6
CONTINUOUS
 10
5.0534748828
 20
40.9535436555
 11
4.5095486682
 21
40.7023410328
  0
LWPOLYLINE
  5
26D
100
AcDbEntity
  8
ASSI
100
AcDbPolyline
 62
7
  6
CONTINUOUS
 90
6
 70
0
 10
-5.1743777105
 20
45.4759421562
 10
-5.1649212816
 20
45.4883462169
 10
-5.1513099181
 20
45.5091928406
 10
-5.1394550368
 20
45.5314548374
 10
-5.1295084162
 20
45.5550146723
 10
-5.1218503561
 20
45.5789940445
  0
LINE
  5
26E
100
AcDbEntity
  8
ASSI
100
AcDbLine
 62
250
  6
CONTINUOUS
 10
-5.1860402919
 20
45.5322150669
 11
-5.7269075978
 21
44.8629275808
  0
LINE
  5
26F
100
AcDbEntity
  8
ASSI
100
AcDbLine
 62
7
  6
CONTINUOUS
 10
-5.1743528487
 20
45.4759728434
 11
-5.7269075978
 21
44.7922229199
  0
LINE
  5
270
100
AcDbEntity
  8
RACCORDO
100
AcDbLine
 62
7
  6
CONTINUOUS
 10
3.3733676088
 20
42.6700767854
 11
2.5675111388
 21
41.923919079
  0
LINE
  5
271
100
AcDbEntity
  8
RACCORDO
100
AcDbLine
 62
7
  6
CONTINUOUS
 10
1.8804525999
 20
44.1094709377
 11
0.1293661945
 21
42.5769305489
  0
LINE
  5
272
100
AcDbEntity
  8
RACCORDO
100
AcDbLine
 62
7
  6
CONTINUOUS
 10
-0.3370397055
 20
42.1687348841
 11
-0.3721699236
 21
42.1379891266
  0
LINE
  5
273
100
AcDbEntity
  8
RACCORDO
100
AcDbLine
 62
250
  6
CONTINUOUS
 10
1.9798974436
 20
44.1118461219
 11
0.3341711239
 21
42.6715162523
  0
LINE
  5
274
100
AcDbEntity
  8
RACCORDO
100
AcDbLine
 62
250
  6
CONTINUOUS
 10
1.353784215
 20
42.5347452413
 11
2.1784317953
 21
43.1811892947
  0
LINE
  5
275
100
AcDbEntity
  8
ASSI
100
AcDbLine
 62
7
  6
CONTINUOUS
 10
4.87969412
 20
37.6067990635
 11
4.3369680573
 21
37.3105089533
  0
LINE
  5
276
100
AcDbEntity
  8
ASSI
100
AcDbLine
 62
250
  6
CONTINUOUS
 10
5.896510268
 20
37.2280077375
 11
1.6593608206
 21
34.9525290053
  0
LINE
  5
277
100
AcDbEntity
  8
ASSI
100
AcDbLine
 62
250
  6
CONTINUOUS
 10
7.213146498
 20
37.1357998432
 11
2.0220416503
 21
34.34801791
  0
LINE
  5
278
100
AcDbEntity
  8
ASSI
100
AcDbLine
 62
7
  6
CONTINUOUS
 10
13.5350624085
 20
41.669674954
 11
7.1481735666
 21
38.2932894659
  0
LINE
  5
279
100
AcDbEntity
  8
0
100
AcDbLine
 62
7
  6
CONTINUOUS
 10
13.5122242941
 20
42.3154101977
 11
14.1629979489
 21
42.6585760138
  0
LINE
  5
27A
100
AcDbEntity
  8
RACCORDO
100
AcDbLine
 62
250
  6
CONTINUOUS
 10
14.1628701668
 20
42.6585086269
 11
14.1629979489
 21
42.6585760138
  0
LINE
  5
27B
100
AcDbEntity
  8
ASSI
100
AcDbLine
 62
7
  6
CONTINUOUS
 10
13.5123951184
 20
42.0683700693
 11
6.9751193551
 21
38.6419286512
  0
LINE
  5
27C
100
AcDbEntity
  8
0
100
AcDbLine
 62
7
  6
CONTINUOUS
 10
17.8552111327
 20
45.6287120707
 11
13.8430551542
 21
43.587312278
  0
LINE
  5
27D
100
AcDbEntity
  8
ASSI
100
AcDbLine
 62
250
  6
CONTINUOUS
 10
5.0962931636
 20
38.8177391807
 11
6.7181932903
 21
39.6349427005
  0
LINE
  5
27E
100
AcDbEntity
  8
ASSI
100
AcDbLine
 62
250
  6
CONTINUOUS
 10
5.2376929807
 20
38.5738605714
 11
6.8595931074
 21
39.3910640911
  0
LINE
  5
27F
100
AcDbEntity
  8
0
100
AcDbLine
 62
7
  6
CONTINUOUS
 10
14.2912853776
 20
42.4354842824
 11
14.7862601245
 21
42.6829716558
  0
LINE
  5
280
100
AcDbEntity
  8
RACCORDO
100
AcDbLine
 62
7
  6
CONTINUOUS
 10
17.254438037
 20
42.8634715081
 11
15.942973726
 21
42.2077393526
  0
LINE
  5
281
100
AcDbEntity
  8
RACCORDO
100
AcDbLine
 62
7
  6
CONTINUOUS
 10
18.1029687447
 20
42.4392087246
 11
17.2240760935
 21
41.999762399
  0
LINE
  5
282
100
AcDbEntity
  8
0
100
AcDbLine
 62
7
  6
CONTINUOUS
 10
-6.760989604
 20
29.3396622829
 11
-6.2292734361
 21
29.6055203668
  0
LINE
  5
283
100
AcDbEntity
  8
ASSI
100
AcDbLine
 62
250
  6
CONTINUOUS
 10
7.2422977568
 20
39.8949023796
 11
6.7181932903
 21
39.6349427005
  0
LINE
  5
284
100
AcDbEntity
  8
ASSI
100
AcDbLine
 62
250
  6
CONTINUOUS
 10
7.3836975739
 20
39.6510237703
 11
6.8595931074
 21
39.3910640911
  0
LINE
  5
285
100
AcDbEntity
  8
ASSI
100
AcDbLine
 62
250
  6
CONTINUOUS
 10
7.5544111417
 20
38.0901706784
 11
6.8595957691
 21
37.7455906733
  0
LINE
  5
286
100
AcDbEntity
  8
ASSI
100
AcDbLine
 62
250
  6
CONTINUOUS
 10
7.9079106844
 20
37.4804741551
 11
7.213146498
 21
37.1358659967
  0
LINE
  5
287
100
AcDbEntity
  8
DRAFT
100
AcDbLine
 62
7
  6
CONTINUOUS
 10
14.020957574
 20
41.1566839125
 11
7.6217719334
 21
38.0482853269
  0
LINE
  5
288
100
AcDbEntity
  8
RACCORDO
100
AcDbLine
 62
7
  6
CONTINUOUS
 10
22.3662165581
 20
43.5465601236
 11
14.7736516579
 21
39.8584786515
  0
LINE
  5
289
100
AcDbEntity
  8
RACCORDO
100
AcDbLine
 62
7
  6
CONTINUOUS
 10
21.5605446221
 20
43.9493960916
 11
18.1393985523
 21
42.3074303633
  0
LINE
  5
28A
100
AcDbEntity
  8
RACCORDO
100
AcDbLine
 62
250
  6
CONTINUOUS
 10
3.4701679799
 20
42.6702370253
 11
2.6330352258
 21
41.8951197359
  0
LINE
  5
28B
100
AcDbEntity
  8
RACCORDO
100
AcDbLine
 62
7
  6
CONTINUOUS
 10
-6.2462691443
 20
28.9306362409
 11
-6.2470902377
 21
28.9301558125
  0
LINE
  5
28C
100
AcDbEntity
  8
RACCORDO
100
AcDbLine
 62
250
  6
CONTINUOUS
 10
23.124723253
 20
41.6512276157
 11
8.6627153994
 21
34.1633038504
  0
LINE
  5
28D
100
AcDbEntity
  8
ASSI
100
AcDbLine
 62
7
  6
CONTINUOUS
 10
8.6026748708
 20
34.9629193781
 11
7.9079106844
 21
34.6094561617
  0
LINE
  5
28E
100
AcDbEntity
  8
RACCORDO
100
AcDbLine
 62
250
  6
CONTINUOUS
 10
22.7857597691
 20
42.8229551221
 11
8.248501837
 21
35.5951555029
  0
LINE
  5
28F
100
AcDbEntity
  8
ASSI
100
AcDbLine
 62
7
  6
CONTINUOUS
 10
7.9079106844
 20
35.6763116182
 11
8.1272728434
 21
35.7828665868
  0
LWPOLYLINE
  5
290
100
AcDbEntity
  8
RACCORDO
100
AcDbPolyline
 62
7
  6
CONTINUOUS
 90
51
 70
0
 10
-19.2522320787
 20
-31.1661813089
 10
-19.2442935466
 20
-31.6425871052
 10
-19.2162262322
 20
-32.1903912305
 10
-19.1681195435
 20
-32.7440897349
 10
-19.1002234398
 20
-33.3024824502
 10
-19.0128015277
 20
-33.8645230273
 10
-18.9061175186
 20
-34.4293563993
 10
-18.780502694
 20
-34.9958881156
 10
-18.6362888818
 20
-35.5630077951
 10
-18.4737585857
 20
-36.1298457793
 10
-18.2933123942
 20
-36.6952696259
 10
-18.0953650955
 20
-37.2581836747
 10
-17.880246141
 20
-37.8177585436
 10
-17.6483986678
 20
-38.3728822307
 10
-17.4003005971
 20
-38.9224232278
 10
-17.1363634446
 20
-39.4655285307
 10
-16.8571103061
 20
-40.0011367333
 10
-16.5630590668
 20
-40.5281884421
 10
-16.2546474565
 20
-41.0458177161
 10
-15.9324730551
 20
-41.5529537327
 10
-15.5971423118
 20
-42.0485830468
 10
-15.2491207944
 20
-42.5318896744
 10
-14.8889227953
 20
-43.0019640532
 10
-14.5173207249
 20
-43.4576418621
 10
-14.1351490744
 20
-43.897796258
 10
-13.7429019085
 20
-44.3217162283
 10
-13.3414797669
 20
-44.7282514867
 10
-12.9324140254
 20
-45.11576441
 10
-12.5165237534
 20
-45.4834948087
 10
-12.0946145292
 20
-45.8307263288
 10
-11.6682831991
 20
-46.1561801836
 10
-11.2386140045
 20
-46.4591333481
 10
-10.8062305517
 20
-46.7392638976
 10
-10.3719322371
 20
-46.9961188659
 10
-9.9359968299
 20
-47.2291350609
 10
-9.4978132384
 20
-47.4372146313
 10
-9.0612001323
 20
-47.6199270653
 10
-8.6264395816
 20
-47.7779347915
 10
-8.193889794
 20
-47.9112236954
 10
-7.7643859061
 20
-48.0195822967
 10
-7.3387765978
 20
-48.1028649469
 10
-6.9177232012
 20
-48.1610018394
 10
-6.5018838618
 20
-48.1939347255
 10
-6.0919532071
 20
-48.2016190516
 10
-5.6887758012
 20
-48.1840555429
 10
-5.2933167017
 20
-48.1413305416
 10
-4.9063776826
 20
-48.0735889864
 10
-4.5288305559
 20
-47.9810507103
 10
-4.1617385218
 20
-47.8640888082
 10
-3.8059742005
 20
-47.7231501145
 10
-3.7634748096
 20
-47.704378666
  0
LWPOLYLINE
  5
291
100
AcDbEntity
  8
RACCORDO
100
AcDbPolyline
 62
7
  6
CONTINUOUS
 90
7
 70
0
 10
-19.2525401936
 20
-19.6319887621
 10
-19.2525759675
 20
-21.5749573746
 10
-19.2525752533
 20
-23.5143403296
 10
-19.2525382297
 20
-25.4501376934
 10
-19.2524657062
 20
-27.3823497568
 10
-19.2523607246
 20
-29.3109779509
 10
-19.2522321207
 20
-31.1661939655
  0
LWPOLYLINE
  5
292
100
AcDbEntity
  8
RACCORDO
100
AcDbPolyline
 62
7
  6
CONTINUOUS
 90
3
 70
0
 10
-19.2522321201
 20
-13.8456412742
 10
-19.2523628599
 20
-15.7352972014
 10
-19.2525401936
 20
-19.6319887621
  0
LWPOLYLINE
  5
293
100
AcDbEntity
  8
ASSI
100
AcDbPolyline
 62
7
  6
CONTINUOUS
 90
6
 70
0
 10
7.4121229732
 20
39.1826970137
 10
7.4200673427
 20
39.193010595
 10
7.4340456182
 20
39.2140250862
 10
7.4462215063
 20
39.2364892116
 10
7.4564382361
 20
39.2602941584
 10
7.4643129406
 20
39.2845252108
  0
LINE
  5
294
100
AcDbEntity
  8
ASSI
100
AcDbLine
 62
250
  6
CONTINUOUS
 10
6.8595931074
 20
38.5696772283
 11
7.4004604132
 21
39.2389647144
  0
LINE
  5
295
100
AcDbEntity
  8
ASSI
100
AcDbLine
 62
7
  6
CONTINUOUS
 10
6.8595931113
 20
38.4989725722
 11
7.4121478252
 21
39.1827224522
  0
LWPOLYLINE
  5
296
100
AcDbEntity
  8
ASSI
100
AcDbPolyline
 62
7
  6
CONTINUOUS
 90
13
 70
0
 10
-14.0060797542
 20
41.0881343417
 10
-14.0991650501
 20
38.0803252937
 10
-14.177141585
 20
35.015679009
 10
-14.2377998103
 20
31.9595104997
 10
-14.2811278289
 20
28.9120009265
 10
-14.3071203822
 20
25.8733079408
 10
-14.3157738138
 20
22.8435799464
 10
-14.307085539
 20
19.8229714475
 10
-14.2810578243
 20
16.8116344905
 10
-14.2376940542
 20
13.8097139168
 10
-14.176999157
 20
10.8173619293
 10
-14.098984691
 20
7.8347471614
 10
-14.0060585722
 20
4.9305275522
  0
LWPOLYLINE
  5
297
100
AcDbEntity
  8
ASSI
100
AcDbPolyline
 62
7
  6
CONTINUOUS
 90
3
 70
0
 10
-5.1218503561
 20
45.5789940445
 10
-5.1164816101
 20
45.6031577713
 10
-5.1133348321
 20
45.627999238
  0
LINE
  5
298
100
AcDbEntity
  8
DRAFT
100
AcDbLine
 62
7
  6
CONTINUOUS
 10
23.3773174327
 20
35.6822661754
 11
24.4480405266
 21
36.3748008326
  0
LWPOLYLINE
  5
299
100
AcDbEntity
  8
ASSI
100
AcDbPolyline
 62
7
  6
CONTINUOUS
 90
14
 70
0
 10
-14.0060481748
 20
4.9304615367
 10
-14.0051667997
 20
4.9101851858
 10
-13.99729239
 20
4.8223151341
 10
-13.9830331581
 20
4.7377596888
 10
-13.9624974426
 20
4.6567442109
 10
-13.935828983
 20
4.5795202918
 10
-13.9032491412
 20
4.5065480833
 10
-13.8650139634
 20
4.4382053733
 10
-13.8214025882
 20
4.3747772216
 10
-13.7728681061
 20
4.3167327787
 10
-13.7198905575
 20
4.2644363171
 10
-13.6629975438
 20
4.2181522516
 10
-13.6029230101
 20
4.1781788182
 10
-13.5876837955
 20
4.1693000524
  0
LINE
  5
29A
100
AcDbEntity
  8
0
100
AcDbLine
 62
7
  6
CONTINUOUS
 10
-8.2375427687
 20
-7.0341526326
 11
-8.9433925283
 21
2.4940412327
  0
LINE
  5
29B
100
AcDbEntity
  8
0
100
AcDbLine
 62
7
  6
CONTINUOUS
 10
-6.6033806616
 20
-6.0825316854
 11
-7.2480381011
 21
2.6196332947
  0
LWPOLYLINE
  5
29C
100
AcDbEntity
  8
ASSI
100
AcDbPolyline
 62
7
  6
CONTINUOUS
 90
9
 70
0
 10
-9.7875853639
 20
45.5936358417
 10
-9.7875522275
 20
45.5895664289
 10
-9.7857154231
 20
45.5631051497
 10
-9.7810638134
 20
45.5371723037
 10
-9.7736516413
 20
45.5121439996
 10
-9.7636491429
 20
45.488463691
 10
-9.7511818173
 20
45.4662858243
 10
-9.7363565314
 20
45.4457529183
 10
-9.7194358655
 20
45.4271902196
  0
LINE
  5
29D
100
AcDbEntity
  8
ASSI
100
AcDbLine
 62
7
  6
CONTINUOUS
 10
-9.7875853839
 20
45.9109349182
 11
-9.7875853839
 21
45.5936661178
  0
LINE
  5
29E
100
AcDbEntity
  8
ASSI
100
AcDbLine
 62
250
  6
CONTINUOUS
 10
-9.7290067401
 20
45.84022424
 11
-9.7290067401
 21
45.5229540349
  0
LINE
  5
29F
100
AcDbEntity
  8
ASSI
100
AcDbLine
 62
7
  6
CONTINUOUS
 10
-9.0727222635
 20
44.6381342476
 11
-9.0727222635
 21
45.0920813995
  0
LINE
  5
2A0
100
AcDbEntity
  8
ASSI
100
AcDbLine
 62
250
  6
CONTINUOUS
 10
-8.9994989588
 20
44.5463956029
 11
-8.9994989588
 21
45.0554697471
  0
LINE
  5
2A1
100
AcDbEntity
  8
ASSI
100
AcDbLine
 62
7
  6
CONTINUOUS
 10
-8.8667615265
 20
44.9930246143
 11
-8.8667615265
 21
43.7827305303
  0
LINE
  5
2A2
100
AcDbEntity
  8
ASSI
100
AcDbLine
 62
250
  6
CONTINUOUS
 10
-8.7935382218
 20
45.0552211805
 11
-8.7935382218
 21
43.6909219851
  0
LINE
  5
2A3
100
AcDbEntity
  8
ASSI
100
AcDbLine
 62
250
  6
CONTINUOUS
 10
-8.5999739357
 20
44.9584390375
 11
-8.5999739357
 21
43.594139842
  0
LINE
  5
2A4
100
AcDbEntity
  8
ASSI
100
AcDbLine
 62
250
  6
CONTINUOUS
 10
-8.2495326478
 20
44.6804865916
 11
-8.2495326478
 21
43.6037593059
  0
LINE
  5
2A5
100
AcDbEntity
  8
ASSI
100
AcDbLine
 62
7
  6
CONTINUOUS
 10
-7.7068065851
 20
43.9000494161
 11
-7.7068065851
 21
44.4091235603
  0
LINE
  5
2A6
100
AcDbEntity
  8
ASSI
100
AcDbLine
 62
250
  6
CONTINUOUS
 10
-7.6645054174
 20
44.4907029688
 11
-7.6645054174
 21
44.8079735787
  0
LINE
  5
2A7
100
AcDbEntity
  8
ASSI
100
AcDbLine
 62
250
  6
CONTINUOUS
 10
-7.3841523871
 20
44.4894814764
 11
-7.3841523871
 21
44.8067502768
  0
LINE
  5
2A8
100
AcDbEntity
  8
ASSI
100
AcDbLine
 62
250
  6
CONTINUOUS
 10
-6.9797996363
 20
43.5365459417
 11
-6.9797996363
 21
44.21671723
  0
LINE
  5
2A9
100
AcDbEntity
  8
RACCORDO
100
AcDbLine
 62
7
  6
CONTINUOUS
 10
-6.1856842565
 20
29.2021256161
 11
-6.1854420052
 21
29.2096822121
  0
LINE
  5
2AA
100
AcDbEntity
  8
ASSI
100
AcDbLine
 62
7
  6
CONTINUOUS
 10
-5.1133348321
 20
45.627999238
 11
-5.1125392222
 21
45.6481911808
  0
LWPOLYLINE
  5
2AB
100
AcDbEntity
  8
RACCORDO
100
AcDbPolyline
 62
7
  6
CONTINUOUS
 90
10
 70
0
 10
-6.1856842565
 20
29.2021256161
 10
-6.1883632342
 20
29.156629416
 10
-6.1932909324
 20
29.111743698
 10
-6.2001541876
 20
29.0704562438
 10
-6.2086151606
 20
29.0333713743
 10
-6.2180911108
 20
29.0013803493
 10
-6.2279634476
 20
28.9747966816
 10
-6.2376042671
 20
28.9536675522
 10
-6.2461283634
 20
28.9382664488
 10
-6.2525584525
 20
28.9285830108
  0
LWPOLYLINE
  5
2AC
100
AcDbEntity
  8
ASSI
100
AcDbPolyline
 62
7
  6
CONTINUOUS
 90
13
 70
0
 10
-5.1125392276
 20
45.9881562852
 10
-5.1126123882
 20
45.9942091984
 10
-5.1145042637
 20
46.0194335429
 10
-5.1189612391
 20
46.0441903484
 10
-5.1259296635
 20
46.0681049252
 10
-5.1352446889
 20
46.0907699651
 10
-5.1468028891
 20
46.1120816779
 10
-5.160535505
 20
46.1319558065
 10
-5.1762419616
 20
46.1501142717
 10
-5.1936936328
 20
46.1663441178
 10
-5.212787556
 20
46.1805729927
 10
-5.2332511486
 20
46.1926039158
 10
-5.2359059045
 20
46.1939532947
  0
LINE
  5
2AD
100
AcDbEntity
  8
ASSI
100
AcDbLine
 62
250
  6
CONTINUOUS
 10
-6.6293583484
 20
44.3043658517
 11
-6.6293583484
 21
43.5461654056
  0
LINE
  5
2AE
100
AcDbEntity
  8
ASSI
100
AcDbLine
 62
7
  6
CONTINUOUS
 10
-5.7269075978
 20
44.0388397965
 11
-5.7269075978
 21
45.6843144437
  0
LINE
  5
2AF
100
AcDbEntity
  8
ASSI
100
AcDbLine
 62
250
  6
CONTINUOUS
 10
-5.1686711872
 20
45.918651779
 11
-5.1686711872
 21
45.5787081841
  0
LINE
  5
2B0
100
AcDbEntity
  8
ASSI
100
AcDbLine
 62
7
  6
CONTINUOUS
 10
-5.1125391623
 20
45.9881562853
 11
-5.1125391473
 21
45.6481740213
  0
LINE
  5
2B1
100
AcDbEntity
  8
ASSI
100
AcDbLine
 62
7
  6
CONTINUOUS
 10
-4.0493503067
 20
44.0525086639
 11
-4.0493503067
 21
42.8679041581
  0
LINE
  5
2B2
100
AcDbEntity
  8
ASSI
100
AcDbLine
 62
250
  6
CONTINUOUS
 10
-3.990771663
 20
43.9817979858
 11
-3.990771663
 21
42.7945252045
  0
LWPOLYLINE
  5
2B3
100
AcDbEntity
  8
RACCORDO
100
AcDbPolyline
 62
7
  6
CONTINUOUS
 90
9
 70
0
 10
3.4372290247
 20
42.7669585188
 10
3.4356460306
 20
42.7591414412
 10
3.4322236703
 20
42.748869834
 10
3.4264599317
 20
42.7363134849
 10
3.4181411762
 20
42.7220720654
 10
3.407462562
 20
42.7070128119
 10
3.3946480077
 20
42.6916434387
 10
3.3798047239
 20
42.6761929356
 10
3.3733677869
 20
42.6700765923
  0
LWPOLYLINE
  5
2B4
100
AcDbEntity
  8
RACCORDO
100
AcDbPolyline
 62
7
  6
CONTINUOUS
 90
9
 70
0
 10
-8.486217433
 20
-3.677318719
 10
-8.4934221708
 20
-3.676754645
 10
-8.9025163937
 20
-3.6694249292
 10
-9.3047256822
 20
-3.6872391271
 10
-9.6992482748
 20
-3.730104127
 10
-10.0852873487
 20
-3.7978767835
 10
-10.4619768945
 20
-3.890339395
 10
-10.82840261
 20
-4.0071736033
 10
-11.1837229841
 20
-4.1479817668
  0
LINE
  5
2B5
100
AcDbEntity
  8
ASSI
100
AcDbLine
 62
7
  6
CONTINUOUS
 10
-0.5193639678
 20
42.1277612561
 11
-0.5436557867
 21
43.271523348
  0
LINE
  5
2B6
100
AcDbEntity
  8
ASSI
100
AcDbLine
 62
250
  6
CONTINUOUS
 10
-1.7001232659
 20
41.6492010059
 11
-1.7001232659
 21
42.8364737872
  0
LINE
  5
2B7
100
AcDbEntity
  8
ASSI
100
AcDbLine
 62
250
  6
CONTINUOUS
 10
-1.4197702355
 20
41.656896577
 11
-1.4197702355
 21
42.8352504853
  0
LINE
  5
2B8
100
AcDbEntity
  8
ASSI
100
AcDbLine
 62
7
  6
CONTINUOUS
 10
-1.2014241982
 20
42.9452653668
 11
-1.2014241982
 21
41.7760980967
  0
LINE
  5
2B9
100
AcDbEntity
  8
ASSI
100
AcDbLine
 62
7
  6
CONTINUOUS
 10
-0.3370397055
 20
42.1963533633
 11
-0.3370397055
 21
41.0117488575
  0
LINE
  5
2BA
100
AcDbEntity
  8
ASSI
100
AcDbLine
 62
250
  6
CONTINUOUS
 10
-0.2784610617
 20
42.1256426852
 11
-0.2784610617
 21
40.9383699038
  0
LINE
  5
2BB
100
AcDbEntity
  8
RACCORDO
100
AcDbLine
 62
7
  6
CONTINUOUS
 10
3.4375716108
 20
42.7718288715
 11
3.4372290247
 21
42.7669585188
  0
LWPOLYLINE
  5
2BC
100
AcDbEntity
  8
ASSI
100
AcDbPolyline
 62
7
  6
CONTINUOUS
 90
3
 70
0
 10
7.4643129406
 20
39.2845252108
 10
7.4698464275
 20
39.3089272274
 10
7.4731061882
 20
39.3340183875
  0
LWPOLYLINE
  5
2BD
100
AcDbEntity
  8
RACCORDO
100
AcDbPolyline
 62
7
  6
CONTINUOUS
 90
21
 70
0
 10
-15.7427954302
 20
-6.4250584191
 10
-15.7965572716
 20
-6.4553174919
 10
-16.1270191979
 20
-6.6593435909
 10
-16.4458532768
 20
-6.8882794186
 10
-16.7518108953
 20
-7.1417809775
 10
-17.0433433092
 20
-7.4189715817
 10
-17.3196174959
 20
-7.7193478853
 10
-17.5799412236
 20
-8.0424793134
 10
-17.8232618021
 20
-8.3872936708
 10
-18.0489834751
 20
-8.7531090171
 10
-18.2566450829
 20
-9.1393187641
 10
-18.4455917483
 20
-9.5448273543
 10
-18.6154240181
 20
-9.9688350856
 10
-18.7658077235
 20
-10.4106154062
 10
-18.896363697
 20
-10.8690347352
 10
-19.0068620863
 20
-11.343255597
 10
-19.0970849964
 20
-11.8324380242
 10
-19.1668006908
 20
-12.335302295
 10
-19.215899129
 20
-12.8507601874
 10
-19.2443394919
 20
-13.3779916086
 10
-19.2522320891
 20
-13.8456602457
  0
LINE
  5
2BE
100
AcDbEntity
  8
DRAFT
100
AcDbLine
 62
7
  6
CONTINUOUS
 10
-13.7298599558
 20
-5.3048924326
 11
-15.7463079714
 21
-6.4270109088
  0
LINE
  5
2BF
100
AcDbEntity
  8
RACCORDO
100
AcDbLine
 62
7
  6
CONTINUOUS
 10
-15.7427919155
 20
-6.4250561127
 11
-15.7423829838
 21
-6.4248290001
  0
LINE
  5
2C0
100
AcDbEntity
  8
DRAFT
100
AcDbLine
 62
7
  6
CONTINUOUS
 10
-13.3298380066
 20
-5.104881458
 11
-11.2226699492
 21
-4.1651705228
  0
LINE
  5
2C1
100
AcDbEntity
  8
RACCORDO
100
AcDbLine
 62
7
  6
CONTINUOUS
 10
-11.1837229841
 20
-4.1479817668
 11
-11.2260167994
 21
-4.1666647509
  0
LINE
  5
2C2
100
AcDbEntity
  8
ASSI
100
AcDbLine
 62
250
  6
CONTINUOUS
 10
7.4004604132
 20
-1.985639425
 11
6.8595931074
 21
-1.8764364298
  0
LINE
  5
2C3
100
AcDbEntity
  8
ASSI
100
AcDbLine
 62
250
  6
CONTINUOUS
 10
7.3272913268
 20
-1.7308158655
 11
6.8595931074
 21
-1.6363859641
  0
LWPOLYLINE
  5
2C4
100
AcDbEntity
  8
ASSI
100
AcDbPolyline
 62
7
  6
CONTINUOUS
 90
12
 70
0
 10
1.1909061987
 20
-3.220164177
 10
1.2010978174
 20
-3.22458392
 10
1.2668364132
 20
-3.2491076634
 10
1.3357298022
 20
-3.2679508602
 10
1.4072571843
 20
-3.2807162458
 10
1.4807458888
 20
-3.2870802015
 10
1.5557589141
 20
-3.2868475959
 10
1.6317838349
 20
-3.2798985135
 10
1.7081423906
 20
-3.266209622
 10
1.7844088863
 20
-3.2458007277
 10
1.8602808297
 20
-3.218725301
 10
1.8680874735
 20
-3.2155493358
  0
LWPOLYLINE
  5
2C5
100
AcDbEntity
  8
ASSI
100
AcDbPolyline
 62
7
  6
CONTINUOUS
 90
11
 70
0
 10
4.9869400999
 20
-3.5546221974
 10
5.0006965767
 20
-3.5609385689
 10
5.0216346855
 20
-3.5684696427
 10
5.0433715433
 20
-3.5738769553
 10
5.065688743
 20
-3.5770678628
 10
5.0884417193
 20
-3.5779798112
 10
5.1114077675
 20
-3.5765524114
 10
5.1342589743
 20
-3.5727707653
 10
5.1567484581
 20
-3.5666661964
 10
5.1786735185
 20
-3.558285333
 10
5.1823911925
 20
-3.5566112516
  0
LWPOLYLINE
  5
2C6
100
AcDbEntity
  8
ASSI
100
AcDbPolyline
 62
7
  6
CONTINUOUS
 90
6
 70
0
 10
-7.1056789804
 20
0.697942054
 10
-5.613563407
 20
-0.048145993
 10
-3.9272317872
 20
-0.8677786633
 10
-2.2166411388
 20
-1.6759975946
 10
-0.4821961259
 20
-2.472630894
 10
1.1917482036
 20
-3.2205364933
  0
LINE
  5
2C7
100
AcDbEntity
  8
ASSI
100
AcDbLine
 62
7
  6
CONTINUOUS
 10
3.2063056281
 20
-2.6643054861
 11
4.9871968094
 21
-3.5547510767
  0
LINE
  5
2C8
100
AcDbEntity
  8
ASSI
100
AcDbLine
 62
250
  6
CONTINUOUS
 10
3.3189582991
 20
-2.6179000197
 11
4.9219952877
 21
-3.419418514
  0
LINE
  5
2C9
100
AcDbEntity
  8
ASSI
100
AcDbLine
 62
250
  6
CONTINUOUS
 10
3.6668659299
 20
-2.4745850347
 11
3.7929624833
 21
-2.5376333114
  0
LINE
  5
2CA
100
AcDbEntity
  8
ASSI
100
AcDbLine
 62
250
  6
CONTINUOUS
 10
3.9865267694
 20
-2.6344154545
 11
4.9219952877
 21
-3.1021670642
  0
LINE
  5
2CB
100
AcDbEntity
  8
ASSI
100
AcDbLine
 62
250
  6
CONTINUOUS
 10
5.0106395313
 20
-2.8706718568
 11
4.228008226
 21
-2.4792678351
  0
LWPOLYLINE
  5
2CC
100
AcDbEntity
  8
ASSI
100
AcDbPolyline
 62
7
  6
CONTINUOUS
 90
5
 70
0
 10
-13.5880974502
 20
4.1695305558
 10
-12.1086471662
 20
3.3409693261
 10
-10.5231468561
 20
2.4774737055
 10
-8.9118910181
 20
1.6246622302
 10
-8.8776852882
 20
1.6070659047
  0
LINE
  5
2CD
100
AcDbEntity
  8
ASSI
100
AcDbLine
 62
7
  6
CONTINUOUS
 10
-13.5877470512
 20
4.1693318259
 11
-13.5881010113
 21
4.1695325776
  0
LWPOLYLINE
  5
2CE
100
AcDbEntity
  8
ASSI
100
AcDbPolyline
 62
7
  6
CONTINUOUS
 90
12
 70
0
 10
0.9077328125
 20
45.9728047709
 10
0.9066801101
 20
45.9932091666
 10
0.9017467408
 20
46.0263994417
 10
0.8927803187
 20
46.0591779829
 10
0.8797802595
 20
46.0910802231
 10
0.8628850146
 20
46.1215123689
 10
0.8421526916
 20
46.1501949319
 10
0.8176052969
 20
46.1768873867
 10
0.7896435842
 20
46.2010125099
 10
0.7587788787
 20
46.2221444768
 10
0.7247947314
 20
46.2404420054
 10
0.6880726364
 20
46.2556454794
  0
LWPOLYLINE
  5
2CF
100
AcDbEntity
  8
RACCORDO
100
AcDbPolyline
 62
7
  6
CONTINUOUS
 90
39
 70
0
 10
4.2628829877
 20
-20.7048007023
 10
4.255118575
 20
-20.2336968924
 10
4.2272243765
 20
-19.685619239
 10
4.1792922988
 20
-19.1318944805
 10
4.111603035
 20
-18.5737648345
 10
4.0244485359
 20
-18.0122447981
 10
3.9180979986
 20
-17.4481018479
 10
3.7928968957
 20
-16.8824263226
 10
3.6491990631
 20
-16.3163232719
 10
3.4872660628
 20
-15.7505677856
 10
3.3075012199
 20
-15.1862737722
 10
3.1103318438
 20
-14.6245333798
 10
2.8960540909
 20
-14.0660861741
 10
2.6650899436
 20
-13.512024449
 10
2.4179319438
 20
-12.9634680179
 10
2.1549347688
 20
-12.4211949694
 10
1.8766046951
 20
-11.8862540047
 10
1.5834563855
 20
-11.3597062669
 10
1.2758509514
 20
-10.8423309305
 10
0.9543732517
 20
-10.3352013393
 10
0.6196144938
 20
-9.8393503592
 10
0.2719627804
 20
-9.355520737
 10
-0.0880992457
 20
-8.8846262235
 10
-0.4598070269
 20
-8.4278778714
 10
-0.8423377854
 20
-7.9864328163
 10
-1.2352369704
 20
-7.561004939
 10
-1.6375868055
 20
-7.1528103681
 10
-2.0477924544
 20
-6.7635916531
 10
-2.4650318102
 20
-6.3941402608
 10
-2.8884968507
 20
-6.0452025265
 10
-3.3165022535
 20
-5.7181511051
 10
-3.7479721582
 20
-5.4137155034
 10
-4.1822578204
 20
-5.1322491337
 10
-4.6184082025
 20
-4.8743025732
 10
-5.0562011296
 20
-4.6404048227
 10
-5.4961747123
 20
-4.4316969497
 10
-5.9341646975
 20
-4.2487031417
 10
-6.369765944
 20
-4.0907451778
 10
-6.7598099273
 20
-3.9709089932
  0
LINE
  5
2D0
100
AcDbEntity
  8
ASSI
100
AcDbLine
 62
7
  6
CONTINUOUS
 10
0.9254252638
 20
44.785779768
 11
0.907734726
 21
45.9727781055
  0
LINE
  5
2D1
100
AcDbEntity
  8
ASSI
100
AcDbLine
 62
250
  6
CONTINUOUS
 10
0.8093959696
 20
44.6486110004
 11
0.7969519283
 21
45.8419985703
  0
LWPOLYLINE
  5
2D2
100
AcDbEntity
  8
ASSI
100
AcDbPolyline
 62
7
  6
CONTINUOUS
 90
9
 70
0
 10
2.7989153412
 20
39.3003854892
 10
2.7989484776
 20
39.2963160763
 10
2.800785282
 20
39.2698547971
 10
2.8054368917
 20
39.2439219511
 10
2.8128490638
 20
39.2188936471
 10
2.8228515622
 20
39.1952133385
 10
2.8353188878
 20
39.1730354718
 10
2.8501441737
 20
39.1525025657
 10
2.8670648397
 20
39.133939867
  0
LINE
  5
2D3
100
AcDbEntity
  8
RACCORDO
100
AcDbLine
 62
7
  6
CONTINUOUS
 10
3.4375765394
 20
42.7718859987
 11
3.4375765749
 21
42.7717870225
  0
LINE
  5
2D4
100
AcDbEntity
  8
ASSI
100
AcDbLine
 62
250
  6
CONTINUOUS
 10
1.9100879469
 20
45.1749342738
 11
1.9100879469
 21
44.1261871879
  0
LINE
  5
2D5
100
AcDbEntity
  8
ASSI
100
AcDbLine
 62
250
  6
CONTINUOUS
 10
2.0121873354
 20
39.7930457053
 11
2.0121873354
 21
40.9803184866
  0
LINE
  5
2D6
100
AcDbEntity
  8
DRAFT
100
AcDbLine
 62
7
  6
CONTINUOUS
 10
2.0512669953
 20
-39.368714655
 11
2.0512669953
 21
-22.0482065793
  0
LINE
  5
2D7
100
AcDbEntity
  8
RACCORDO
100
AcDbLine
 62
250
  6
CONTINUOUS
 10
2.1784317953
 20
43.1811892947
 11
2.1784317953
 21
42.3162707668
  0
LINE
  5
2D8
100
AcDbEntity
  8
ASSI
100
AcDbLine
 62
250
  6
CONTINUOUS
 10
2.2925403657
 20
39.8007412764
 11
2.2925403657
 21
40.9790951847
  0
LINE
  5
2D9
100
AcDbEntity
  8
ASSI
100
AcDbLine
 62
7
  6
CONTINUOUS
 10
2.5108864031
 20
39.9199427961
 11
2.5108864031
 21
41.0891100662
  0
LINE
  5
2DA
100
AcDbEntity
  8
RACCORDO
100
AcDbLine
 62
250
  6
CONTINUOUS
 10
2.5913030115
 20
43.29344972
 11
2.5913030115
 21
42.3108650602
  0
LINE
  5
2DB
100
AcDbEntity
  8
ASSI
100
AcDbLine
 62
7
  6
CONTINUOUS
 10
2.7989153213
 20
39.6176845656
 11
2.7989153213
 21
39.3004157652
  0
LINE
  5
2DC
100
AcDbEntity
  8
ASSI
100
AcDbLine
 62
250
  6
CONTINUOUS
 10
2.857493965
 20
39.5469738875
 11
2.857493965
 21
39.2297036823
  0
LINE
  5
2DD
100
AcDbEntity
  8
ASSI
100
AcDbLine
 62
250
  6
CONTINUOUS
 10
3.3238168936
 20
44.6663023084
 11
3.3238168936
 21
44.0921204525
  0
LINE
  5
2DE
100
AcDbEntity
  8
RACCORDO
100
AcDbLine
 62
250
  6
CONTINUOUS
 10
3.3497086102
 20
42.9142469206
 11
3.3497086102
 21
42.6481707353
  0
LINE
  5
2DF
100
AcDbEntity
  8
ASSI
100
AcDbLine
 62
7
  6
CONTINUOUS
 10
3.5137784417
 20
38.7988310469
 11
3.5137784417
 21
38.3449537956
  0
LINE
  5
2E0
100
AcDbEntity
  8
ASSI
100
AcDbLine
 62
250
  6
CONTINUOUS
 10
3.5870017464
 20
38.7622193945
 11
3.5870017464
 21
38.2531452504
  0
LINE
  5
2E1
100
AcDbEntity
  8
ASSI
100
AcDbLine
 62
7
  6
CONTINUOUS
 10
3.7197391786
 20
38.6997742618
 11
3.7197391786
 21
37.4894801777
  0
LINE
  5
2E2
100
AcDbEntity
  8
ASSI
100
AcDbLine
 62
250
  6
CONTINUOUS
 10
3.7929624833
 20
38.7619708279
 11
3.7929624833
 21
37.3976716325
  0
LINE
  5
2E3
100
AcDbEntity
  8
ASSI
100
AcDbLine
 62
250
  6
CONTINUOUS
 10
3.7929624833
 20
-2.4226415759
 11
3.7929624833
 21
-2.5376333114
  0
LINE
  5
2E4
100
AcDbEntity
  8
ASSI
100
AcDbLine
 62
250
  6
CONTINUOUS
 10
3.9865267694
 20
38.6651886849
 11
3.9865267694
 21
37.3008894894
  0
LINE
  5
2E5
100
AcDbEntity
  8
ASSI
100
AcDbLine
 62
250
  6
CONTINUOUS
 10
3.9865267694
 20
-2.3429058636
 11
3.9865267694
 21
-2.6344154545
  0
LINE
  5
2E6
100
AcDbEntity
  8
ASSI
100
AcDbLine
 62
7
  6
CONTINUOUS
 10
8.6643925458
 20
3.8369642724
 11
7.213146498
 21
2.1483737339
  0
LINE
  5
2E7
100
AcDbEntity
  8
ASSI
100
AcDbLine
 62
7
  6
CONTINUOUS
 10
8.6026748708
 20
2.8156667816
 11
8.1272728434
 21
2.4711216004
  0
LINE
  5
2E8
100
AcDbEntity
  8
DRAFT
100
AcDbLine
 62
7
  6
CONTINUOUS
 10
8.248501837
 20
2.5376036906
 11
7.9079106844
 21
2.2907619994
  0
LINE
  5
2E9
100
AcDbEntity
  8
DRAFT
100
AcDbLine
 62
7
  6
CONTINUOUS
 10
14.7736516579
 20
5.8912663448
 11
14.020957574
 21
5.3457551678
  0
LINE
  5
2EA
100
AcDbEntity
  8
ASSI
100
AcDbLine
 62
250
  6
CONTINUOUS
 10
7.213146498
 20
-0.7961785889
 11
7.9079106844
 21
-0.4213373713
  0
LINE
  5
2EB
100
AcDbEntity
  8
ASSI
100
AcDbLine
 62
7
  6
CONTINUOUS
 10
7.9079106844
 20
2.3551192773
 11
8.1272728434
 21
2.4711216004
  0
LINE
  5
2EC
100
AcDbEntity
  8
RACCORDO
100
AcDbLine
 62
7
  6
CONTINUOUS
 10
22.3662165581
 20
9.9063397331
 11
14.7736516579
 21
5.8912663448
  0
LINE
  5
2ED
100
AcDbEntity
  8
DRAFT
100
AcDbLine
 62
7
  6
CONTINUOUS
 10
14.020957574
 20
5.3457551678
 11
7.9079106844
 21
2.113075275
  0
LINE
  5
2EE
100
AcDbEntity
  8
RACCORDO
100
AcDbLine
 62
250
  6
CONTINUOUS
 10
22.7857597691
 20
10.2104015236
 11
8.248501837
 21
2.5376036906
  0
LINE
  5
2EF
100
AcDbEntity
  8
ASSI
100
AcDbLine
 62
7
  6
CONTINUOUS
 10
8.6026748708
 20
2.8156667816
 11
7.9079106844
 21
2.449680622
  0
LINE
  5
2F0
100
AcDbEntity
  8
RACCORDO
100
AcDbLine
 62
250
  6
CONTINUOUS
 10
23.124723253
 20
11.0431655461
 11
8.6627153994
 21
3.5552417808
  0
LINE
  5
2F1
100
AcDbEntity
  8
ASSI
100
AcDbLine
 62
7
  6
CONTINUOUS
 10
12.3211367984
 20
4.1739404629
 11
7.9079106844
 21
1.8959132575
  0
LINE
  5
2F2
100
AcDbEntity
  8
ASSI
100
AcDbLine
 62
7
  6
CONTINUOUS
 10
13.5123951184
 20
4.8964915104
 11
7.9079106844
 21
2.0304070556
  0
LINE
  5
2F3
100
AcDbEntity
  8
ASSI
100
AcDbLine
 62
7
  6
CONTINUOUS
 10
7.0696327378
 20
-1.0728696604
 11
7.0873820742
 21
-1.0644464497
  0
LINE
  5
2F4
100
AcDbEntity
  8
ASSI
100
AcDbLine
 62
250
  6
CONTINUOUS
 10
2.0220416334
 20
-2.9345050717
 11
7.213146498
 21
-0.7961124353
  0
LINE
  5
2F5
100
AcDbEntity
  8
ASSI
100
AcDbLine
 62
7
  6
CONTINUOUS
 10
7.0695826062
 20
-1.0728903139
 11
1.8680922449
 21
-3.2155609396
  0
LINE
  5
2F6
100
AcDbEntity
  8
ASSI
100
AcDbLine
 62
7
  6
CONTINUOUS
 10
5.6067010688
 20
-2.112395823
 11
5.1276150285
 21
-1.8728528028
  0
LINE
  5
2F7
100
AcDbEntity
  8
ASSI
100
AcDbLine
 62
250
  6
CONTINUOUS
 10
6.8595931074
 20
-1.4969647016
 11
7.3272913268
 21
-1.7308158655
  0
LINE
  5
2F8
100
AcDbEntity
  8
ASSI
100
AcDbLine
 62
7
  6
CONTINUOUS
 10
6.8595931074
 20
-1.4933430874
 11
7.3506427822
 21
-1.7388679248
  0
LWPOLYLINE
  5
2F9
100
AcDbEntity
  8
ASSI
100
AcDbPolyline
 62
7
  6
CONTINUOUS
 90
3
 70
0
 10
7.4739576391
 20
-1.9447064865
 10
7.4724921686
 20
-1.9175544282
 10
7.4682601509
 20
-1.8917818782
  0
LWPOLYLINE
  5
2FA
100
AcDbEntity
  8
ASSI
100
AcDbPolyline
 62
7
  6
CONTINUOUS
 90
13
 70
0
 10
5.5842169814
 20
45.7878658269
 10
5.5809709535
 20
45.8561333512
 10
5.5719331029
 20
45.9304899956
 10
5.5573365962
 20
46.001261925
 10
5.5373734816
 20
46.068156598
 10
5.5121970421
 20
46.1309901852
 10
5.4819078588
 20
46.1895955911
 10
5.4466941758
 20
46.2436718765
 10
5.4068030513
 20
46.2928563961
 10
5.3625273854
 20
46.3367739087
 10
5.3142391262
 20
46.3750923636
 10
5.2624415395
 20
46.4074798824
 10
5.2442022466
 20
46.4170530117
  0
LINE
  5
2FB
100
AcDbEntity
  8
ASSI
100
AcDbLine
 62
250
  6
CONTINUOUS
 10
5.5149671388
 20
45.4195683284
 11
5.5110025431
 21
45.699728812
  0
LINE
  5
2FC
100
AcDbEntity
  8
ASSI
100
AcDbLine
 62
7
  6
CONTINUOUS
 10
5.5889656842
 20
45.453053221
 11
5.5842277436
 21
45.7878625788
  0
LWPOLYLINE
  5
2FD
100
AcDbEntity
  8
RACCORDO
100
AcDbPolyline
 62
7
  6
CONTINUOUS
 90
7
 70
0
 10
4.2631909189
 20
-32.2454358623
 10
4.2632268161
 20
-30.3025418417
 10
4.2632262057
 20
-28.363158831
 10
4.2631893064
 20
-26.4272867426
 10
4.2631169036
 20
-24.4949253004
 10
4.2630120042
 20
-22.5660730926
 10
4.2628830186
 20
-20.7047866137
  0
LINE
  5
2FE
100
AcDbEntity
  8
ASSI
100
AcDbLine
 62
250
  6
CONTINUOUS
 10
4.3369680573
 20
38.3872362391
 11
4.3369680573
 21
37.3105089533
  0
LINE
  5
2FF
100
AcDbEntity
  8
ASSI
100
AcDbLine
 62
250
  6
CONTINUOUS
 10
4.3369680573
 20
-2.1985471791
 11
4.3369680573
 21
-2.3881261327
  0
LINE
  5
300
100
AcDbEntity
  8
ASSI
100
AcDbLine
 62
7
  6
CONTINUOUS
 10
4.87969412
 20
37.6067990635
 11
4.87969412
 21
38.1158732077
  0
LINE
  5
301
100
AcDbEntity
  8
ASSI
100
AcDbLine
 62
250
  6
CONTINUOUS
 10
4.9219952877
 20
-3.1021670642
 11
4.9219952877
 21
-3.419418514
  0
LINE
  5
302
100
AcDbEntity
  8
ASSI
100
AcDbLine
 62
250
  6
CONTINUOUS
 10
4.9219952877
 20
38.1974526162
 11
4.9219952877
 21
38.5147232261
  0
LINE
  5
303
100
AcDbEntity
  8
ASSI
100
AcDbLine
 62
250
  6
CONTINUOUS
 10
5.2023483181
 20
-3.1033730155
 11
5.2023483181
 21
-3.4206418159
  0
LINE
  5
304
100
AcDbEntity
  8
ASSI
100
AcDbLine
 62
250
  6
CONTINUOUS
 10
5.2023483181
 20
38.1962311238
 11
5.2023483181
 21
38.5134999242
  0
LINE
  5
305
100
AcDbEntity
  8
ASSI
100
AcDbLine
 62
250
  6
CONTINUOUS
 10
5.6067010688
 20
37.9234668775
 11
5.6067010688
 21
37.2432955892
  0
LINE
  5
306
100
AcDbEntity
  8
ASSI
100
AcDbLine
 62
250
  6
CONTINUOUS
 10
5.6067010688
 20
-1.6755009698
 11
5.6067010688
 21
-2.112395823
  0
LINE
  5
307
100
AcDbEntity
  8
ASSI
100
AcDbLine
 62
250
  6
CONTINUOUS
 10
5.9571423567
 20
38.0111154992
 11
5.9571423567
 21
37.2528206232
  0
LINE
  5
308
100
AcDbEntity
  8
ASSI
100
AcDbLine
 62
250
  6
CONTINUOUS
 10
5.9571423567
 20
-1.5311422852
 11
5.9571423567
 21
-2.1893612605
  0
LINE
  5
309
100
AcDbEntity
  8
ASSI
100
AcDbLine
 62
7
  6
CONTINUOUS
 10
6.8595931074
 20
-2.6978232927
 11
6.8595931074
 21
-1.1593921299
  0
LINE
  5
30A
100
AcDbEntity
  8
ASSI
100
AcDbLine
 62
7
  6
CONTINUOUS
 10
6.859593153
 20
37.7455893602
 11
6.8595931074
 21
39.3910640911
  0
LINE
  5
30B
100
AcDbEntity
  8
ASSI
100
AcDbLine
 62
7
  6
CONTINUOUS
 10
7.213146498
 20
37.1358659967
 11
7.213146498
 21
34.1913136739
  0
LINE
  5
30C
100
AcDbEntity
  8
ASSI
100
AcDbLine
 62
7
  6
CONTINUOUS
 10
7.213146498
 20
-0.7961785889
 11
7.213146498
 21
2.1483737339
  0
LINE
  5
30D
100
AcDbEntity
  8
ASSI
100
AcDbLine
 62
250
  6
CONTINUOUS
 10
7.4178295179
 20
-2.3540899027
 11
7.4178295179
 21
-2.0141463078
  0
LINE
  5
30E
100
AcDbEntity
  8
ASSI
100
AcDbLine
 62
250
  6
CONTINUOUS
 10
7.4178295179
 20
39.2854578316
 11
7.4178295179
 21
39.6254014264
  0
LINE
  5
30F
100
AcDbEntity
  8
ASSI
100
AcDbLine
 62
7
  6
CONTINUOUS
 10
7.4739615578
 20
-2.2846240656
 11
7.4739615578
 21
-1.9446805152
  0
LINE
  5
310
100
AcDbEntity
  8
ASSI
100
AcDbLine
 62
7
  6
CONTINUOUS
 10
7.4739615578
 20
39.3549236686
 11
7.4739615578
 21
39.6948672634
  0
LWPOLYLINE
  5
311
100
AcDbEntity
  8
RACCORDO
100
AcDbPolyline
 62
7
  6
CONTINUOUS
 90
3
 70
0
 10
4.2628830193
 20
-38.0253393043
 10
4.2630133786
 20
-36.1417542501
 10
4.2631909189
 20
-32.2454358623
  0
LINE
  5
312
100
AcDbEntity
  8
ASSI
100
AcDbLine
 62
7
  6
CONTINUOUS
 10
6.5203264262
 20
41.9863292531
 11
6.5275007986
 21
43.1570031753
  0
LINE
  5
313
100
AcDbEntity
  8
ASSI
100
AcDbLine
 62
7
  6
CONTINUOUS
 10
7.4731061882
 20
39.3340183875
 11
7.4739619945
 21
39.3549363076
  0
LINE
  5
314
100
AcDbEntity
  8
ASSI
100
AcDbLine
 62
250
  6
CONTINUOUS
 10
6.9227906404
 20
42.866815435
 11
6.9132264803
 21
42.6431521965
  0
LINE
  5
315
100
AcDbEntity
  8
ASSI
100
AcDbLine
 62
7
  6
CONTINUOUS
 10
7.4728376895
 20
-2.3086148336
 11
7.4739610724
 21
-2.284597595
  0
LINE
  5
316
100
AcDbEntity
  8
ASSI
100
AcDbLine
 62
7
  6
CONTINUOUS
 10
4.3369680573
 20
-2.3881261327
 11
4.5844969022
 21
-2.0965816298
  0
LINE
  5
317
100
AcDbEntity
  8
ASSI
100
AcDbLine
 62
250
  6
CONTINUOUS
 10
5.6434824097
 20
-2.1252966562
 11
5.0106395313
 21
-2.8706718568
  0
LINE
  5
318
100
AcDbEntity
  8
ASSI
100
AcDbLine
 62
250
  6
CONTINUOUS
 10
5.9571423567
 20
-2.1893612605
 11
5.2203345525
 21
-3.0571884632
  0
LWPOLYLINE
  5
319
100
AcDbEntity
  8
ASSI
100
AcDbPolyline
 62
7
  6
CONTINUOUS
 90
9
 70
0
 10
7.3682613734
 20
-2.4998501345
 10
7.3891806866
 20
-2.4818400632
 10
7.408399119
 20
-2.4613624667
 10
7.4251875719
 20
-2.439308906
 10
7.4398514646
 20
-2.4154130697
 10
7.4523234533
 20
-2.3895859109
 10
7.4619534579
 20
-2.3631340839
 10
7.4687501156
 20
-2.3363929308
 10
7.4728376895
 20
-2.3086148336
  0
LINE
  5
31A
100
AcDbEntity
  8
RACCORDO
100
AcDbLine
 62
250
  6
CONTINUOUS
 10
22.7857597691
 20
10.2104015236
 11
22.3662165581
 21
9.9063397331
  0
LINE
  5
31B
100
AcDbEntity
  8
RACCORDO
100
AcDbLine
 62
7
  6
CONTINUOUS
 10
22.8528706037
 20
10.2521274431
 11
22.4364897642
 21
9.9503575651
  0
LWPOLYLINE
  5
31C
100
AcDbEntity
  8
ASSI
100
AcDbPolyline
 62
7
  6
CONTINUOUS
 90
3
 70
0
 10
7.3347018728
 20
-2.5216569487
 10
7.3459662171
 20
-2.5151901126
 10
7.3682613734
 20
-2.4998501345
  0
LINE
  5
31D
100
AcDbEntity
  8
ASSI
100
AcDbLine
 62
7
  6
CONTINUOUS
 10
7.0874065156
 20
-1.0644330466
 11
7.7832337845
 21
-0.6890182716
  0
LINE
  5
31E
100
AcDbEntity
  8
ASSI
100
AcDbLine
 62
250
  6
CONTINUOUS
 10
6.8595931074
 20
-2.6978232927
 11
7.3836975739
 21
-2.4150569092
  0
LINE
  5
31F
100
AcDbEntity
  8
ASSI
100
AcDbLine
 62
7
  6
CONTINUOUS
 10
6.8097401671
 20
-2.8048860387
 11
7.3347943778
 21
-2.5216072464
  0
LINE
  5
320
100
AcDbEntity
  8
ASSI
100
AcDbLine
 62
7
  6
CONTINUOUS
 10
6.8055302962
 20
-2.8069929334
 11
6.8096967328
 21
-2.804909429
  0
LINE
  5
321
100
AcDbEntity
  8
ASSI
100
AcDbLine
 62
250
  6
CONTINUOUS
 10
5.2376929807
 20
-3.4468705191
 11
6.8595931074
 21
-2.6978232927
  0
LINE
  5
322
100
AcDbEntity
  8
ASSI
100
AcDbLine
 62
7
  6
CONTINUOUS
 10
6.8054744905
 20
-2.8070187064
 11
5.1823914396
 21
-3.5566117904
  0
LWPOLYLINE
  5
323
100
AcDbEntity
  8
ASSI
100
AcDbPolyline
 62
7
  6
CONTINUOUS
 90
5
 70
0
 10
7.4249246651
 20
-1.7995330439
 10
7.4082340861
 20
-1.7806247311
 10
7.3896819132
 20
-1.7638979764
 10
7.3694927223
 20
-1.7494931208
 10
7.3504327127
 20
-1.7387654241
  0
LWPOLYLINE
  5
324
100
AcDbEntity
  8
ASSI
100
AcDbPolyline
 62
7
  6
CONTINUOUS
 90
5
 70
0
 10
7.4682601509
 20
-1.8917818782
 10
7.4612830401
 20
-1.8667557402
 10
7.451669076
 20
-1.8429076746
 10
7.4394941507
 20
-1.82040616
 10
7.4249246651
 20
-1.7995330439
  0
LWPOLYLINE
  5
325
100
AcDbEntity
  8
ASSI
100
AcDbPolyline
 62
7
  6
CONTINUOUS
 90
12
 70
0
 10
6.5274962411
 20
43.1568694501
 10
6.5256871542
 20
43.1905503882
 10
6.5199496715
 20
43.2234123094
 10
6.5102306794
 20
43.2558072664
 10
6.4965211566
 20
43.2872864727
 10
6.4789617373
 20
43.3172557991
 10
6.4576620765
 20
43.3453893298
 10
6.4326665769
 20
43.3714559411
 10
6.404359059
 20
43.3949304442
 10
6.3732457862
 20
43.4154195053
 10
6.3390917012
 20
43.4331013038
 10
6.3022525602
 20
43.4477211136
  0
LWPOLYLINE
  5
326
100
AcDbEntity
  8
ASSI
100
AcDbPolyline
 62
7
  6
CONTINUOUS
 90
12
 70
0
 10
7.4739614651
 20
39.6948635758
 10
7.4727556823
 20
39.7194544587
 10
7.4690245511
 20
39.744174675
 10
7.4628121243
 20
39.7681282907
 10
7.4542663701
 20
39.7909119294
 10
7.4434779204
 20
39.8124419069
 10
7.4305124895
 20
39.8326203148
 10
7.4155612205
 20
39.8511701572
 10
7.3988357925
 20
39.8678809918
 10
7.3804376114
 20
39.8826755887
 10
7.3606297494
 20
39.8953573102
 10
7.3506267938
 20
39.9006877844
  0
LINE
  5
327
100
AcDbEntity
  8
ASSI
100
AcDbLine
 62
7
  6
CONTINUOUS
 10
7.9079106844
 20
-0.4213373713
 11
7.9079106844
 21
2.449680622
  0
LINE
  5
328
100
AcDbEntity
  8
ASSI
100
AcDbLine
 62
7
  6
CONTINUOUS
 10
7.9079106844
 20
34.6094561617
 11
7.9079106844
 21
37.4804741551
  0
LINE
  5
329
100
AcDbEntity
  8
ASSI
100
AcDbLine
 62
7
  6
CONTINUOUS
 10
8.6026748708
 20
2.8156667816
 11
8.6026748708
 21
3.7651529609
  0
LINE
  5
32A
100
AcDbEntity
  8
ASSI
100
AcDbLine
 62
7
  6
CONTINUOUS
 10
8.6026748708
 20
33.9107630499
 11
8.6026748708
 21
34.9629193781
  0
LINE
  5
32B
100
AcDbEntity
  8
DRAFT
100
AcDbLine
 62
7
  6
CONTINUOUS
 10
8.6627153994
 20
3.5552417808
 11
8.6627153994
 21
34.1633038504
  0
LINE
  5
32C
100
AcDbEntity
  8
ASSI
100
AcDbLine
 62
7
  6
CONTINUOUS
 10
8.6643925458
 20
33.8799042124
 11
8.6643925458
 21
3.8369642724
  0
LINE
  5
32D
100
AcDbEntity
  8
0
100
AcDbLine
 62
7
  6
CONTINUOUS
 10
-15.3419309444
 20
-18.1702538238
 11
-15.4132826431
 21
-18.2059296731
  0
LINE
  5
32E
100
AcDbEntity
  8
0
100
AcDbLine
 62
7
  6
CONTINUOUS
 10
-15.5862768017
 20
-19.0881388754
 11
-15.6577163184
 21
-19.1238586337
  0
LINE
  5
32F
100
AcDbEntity
  8
0
100
AcDbLine
 62
7
  6
CONTINUOUS
 10
-12.6393637226
 20
-18.6016025454
 11
-12.7101372419
 21
-18.6369893051
  0
LINE
  5
330
100
AcDbEntity
  8
ASSI
100
AcDbLine
 62
7
  6
CONTINUOUS
 10
13.5350624085
 20
41.669674954
 11
13.5350624085
 21
41.8606970177
  0
LINE
  5
331
100
AcDbEntity
  8
0
100
AcDbLine
 62
250
  6
CONTINUOUS
 10
13.8430551542
 20
43.587312278
 11
13.8430551542
 21
43.2659879958
  0
LINE
  5
332
100
AcDbEntity
  8
DRAFT
100
AcDbLine
 62
7
  6
CONTINUOUS
 10
14.5257653521
 20
43.165617297
 11
14.5257653521
 21
43.5986299989
  0
LINE
  5
333
100
AcDbEntity
  8
0
100
AcDbLine
 62
7
  6
CONTINUOUS
 10
-14.1323383309
 20
-20.0095324205
 11
-14.2033478056
 21
-20.0450371579
  0
LINE
  5
334
100
AcDbEntity
  8
0
100
AcDbLine
 62
7
  6
CONTINUOUS
 10
-11.924872452
 20
-19.7025918794
 11
-11.9955962244
 21
-19.7379537657
  0
LINE
  5
335
100
AcDbEntity
  8
0
100
AcDbLine
 62
7
  6
CONTINUOUS
 10
-11.1905101964
 20
-19.3638329983
 11
-11.2612213885
 21
-19.3991885943
  0
LINE
  5
336
100
AcDbEntity
  8
0
100
AcDbLine
 62
7
  6
CONTINUOUS
 10
-13.2949118656
 20
-20.4989451132
 11
-13.3657659025
 21
-20.5343721317
  0
LINE
  5
337
100
AcDbEntity
  8
0
100
AcDbLine
 62
7
  6
CONTINUOUS
 10
-11.9686076002
 20
-21.2204721069
 11
-12.0393333414
 21
-21.2558349775
  0
LINE
  5
338
100
AcDbEntity
  8
0
100
AcDbLine
 62
7
  6
CONTINUOUS
 10
-9.1704344262
 20
-20.0471333993
 11
-9.2412928604
 21
-20.0825626164
  0
LINE
  5
339
100
AcDbEntity
  8
0
100
AcDbLine
 62
7
  6
CONTINUOUS
 10
-11.0685330532
 20
-21.6764189323
 11
-11.1392457724
 21
-21.7117752919
  0
LINE
  5
33A
100
AcDbEntity
  8
0
100
AcDbLine
 62
7
  6
CONTINUOUS
 10
-10.3862562125
 20
-22.0054791476
 11
-10.4569955299
 21
-22.0408488063
  0
LINE
  5
33B
100
AcDbEntity
  8
0
100
AcDbLine
 62
7
  6
CONTINUOUS
 10
-9.6095062383
 20
-21.6724526476
 11
-9.6803112978
 21
-21.7078551774
  0
LINE
  5
33C
100
AcDbEntity
  8
0
100
AcDbLine
 62
7
  6
CONTINUOUS
 10
-7.0817946197
 20
-20.5472409379
 11
-7.1530552625
 21
-20.5828712593
  0
LINE
  5
33D
100
AcDbEntity
  8
0
100
AcDbLine
 62
7
  6
CONTINUOUS
 10
-8.8807509475
 20
-21.4589717321
 11
-8.9516499696
 21
-21.4944212431
  0
LINE
  5
33E
100
AcDbEntity
  8
0
100
AcDbLine
 62
7
  6
CONTINUOUS
 10
15.4932290646
 20
42.3294871858
 11
15.4932290646
 21
41.8636124193
  0
LINE
  5
33F
100
AcDbEntity
  8
RACCORDO
100
AcDbLine
 62
250
  6
CONTINUOUS
 10
15.9105622455
 20
43.0586024095
 11
15.9105622455
 21
43.5173339757
  0
LINE
  5
340
100
AcDbEntity
  8
0
100
AcDbLine
 62
7
  6
CONTINUOUS
 10
15.942973726
 20
42.2077393526
 11
15.942973726
 21
41.8545537988
  0
LINE
  5
341
100
AcDbEntity
  8
RACCORDO
100
AcDbLine
 62
250
  6
CONTINUOUS
 10
16.0515751669
 20
43.0595326877
 11
16.0515751669
 21
43.5283298728
  0
LINE
  5
342
100
AcDbEntity
  8
0
100
AcDbLine
 62
7
  6
CONTINUOUS
 10
17.8552111327
 20
45.6287120707
 11
17.8552111327
 21
45.2208608034
  0
LINE
  5
343
100
AcDbEntity
  8
0
100
AcDbLine
 62
250
  6
CONTINUOUS
 10
-6.5581719225
 20
-20.7274947563
 11
-6.6295681905
 21
-20.7631928903
  0
LINE
  5
344
100
AcDbEntity
  8
0
100
AcDbLine
 62
7
  6
CONTINUOUS
 10
-8.7539608854
 20
-22.0486130052
 11
-8.824879322
 21
-22.0840722235
  0
LINE
  5
345
100
AcDbEntity
  8
0
100
AcDbLine
 62
250
  6
CONTINUOUS
 10
-6.1793979698
 20
-21.3047267688
 11
-6.250894897
 21
-21.3404752323
  0
LINE
  5
346
100
AcDbEntity
  8
SUPERFICI
100
AcDbLine
 62
7
  6
CONTINUOUS
 10
-6.406587515
 20
-21.7001272163
 11
-6.3351353841
 21
-21.6644011509
  0
LINE
  5
347
100
AcDbEntity
  8
0
100
AcDbLine
 62
7
  6
CONTINUOUS
 10
-8.5889663145
 20
-22.8105167711
 11
-8.6599113367
 21
-22.8459892822
  0
LINE
  5
348
100
AcDbEntity
  8
0
100
AcDbLine
 62
7
  6
CONTINUOUS
 10
-7.0626239669
 20
-22.0753445735
 11
-7.1338838683
 21
-22.1109745242
  0
LINE
  5
349
100
AcDbEntity
  8
0
100
AcDbLine
 62
250
  6
CONTINUOUS
 10
-6.7049615233
 20
-22.21303511
 11
-6.7763125844
 21
-22.2487106406
  0
LINE
  5
34A
100
AcDbEntity
  8
0
100
AcDbLine
 62
7
  6
CONTINUOUS
 10
-6.0029133616
 20
-22.1934574064
 11
-6.0744619301
 21
-22.2292316906
  0
LINE
  5
34B
100
AcDbEntity
  8
0
100
AcDbLine
 62
7
  6
CONTINUOUS
 10
-7.7187159213
 20
-23.1709268792
 11
-7.7898254577
 21
-23.2064816474
  0
LINE
  5
34C
100
AcDbEntity
  8
0
100
AcDbLine
 62
250
  6
CONTINUOUS
 10
-6.3295494061
 20
-22.6595882066
 11
-6.4010029961
 21
-22.6953150016
  0
LINE
  5
34D
100
AcDbEntity
  8
0
100
AcDbLine
 62
7
  6
CONTINUOUS
 10
-6.0328807636
 20
-23.8199772884
 11
-6.1044202134
 21
-23.8557470133
  0
LINE
  5
34E
100
AcDbEntity
  8
RACCORDO
100
AcDbLine
 62
250
  6
CONTINUOUS
 10
2.0512669953
 20
-22.0482065793
 11
4.0479659811
 21
-20.9776126994
  0
LINE
  5
34F
100
AcDbEntity
  8
RACCORDO
100
AcDbLine
 62
250
  6
CONTINUOUS
 10
2.0512669953
 20
-22.0482065793
 11
-0.0899305204
 21
-23.0465605081
  0
LINE
  5
350
100
AcDbEntity
  8
RACCORDO
100
AcDbLine
 62
7
  6
CONTINUOUS
 10
23.3773170689
 20
35.7199277866
 11
23.3773173945
 21
35.7194687189
  0
LINE
  5
351
100
AcDbEntity
  8
RACCORDO
100
AcDbLine
 62
250
  6
CONTINUOUS
 10
23.124723253
 20
41.6512276157
 11
23.124723253
 21
37.6763353111
  0
LINE
  5
352
100
AcDbEntity
  8
RACCORDO
100
AcDbLine
 62
250
  6
CONTINUOUS
 10
23.124723253
 20
35.9758726223
 11
23.124723253
 21
11.0431655461
  0
LINE
  5
353
100
AcDbEntity
  8
RACCORDO
100
AcDbLine
 62
7
  6
CONTINUOUS
 10
23.3773174327
 20
41.9638238824
 11
23.3773174327
 21
38.5581384358
  0
LINE
  5
354
100
AcDbEntity
  8
RACCORDO
100
AcDbLine
 62
7
  6
CONTINUOUS
 10
23.3773174327
 20
35.7191777663
 11
23.3773174327
 21
11.3557618128
  0
LINE
  5
355
100
AcDbEntity
  8
RACCORDO
100
AcDbLine
 62
7
  6
CONTINUOUS
 10
23.3773172825
 20
38.557119933
 11
23.3773171947
 21
38.5568723529
  0
LWPOLYLINE
  5
356
100
AcDbEntity
  8
RACCORDO
100
AcDbPolyline
 62
7
  6
CONTINUOUS
 90
26
 70
0
 10
-7.0477378721
 20
30.8184402446
 10
-7.0134966496
 20
30.8000719374
 10
-6.9744202892
 20
30.7762698601
 10
-6.9312537537
 20
30.7467088721
 10
-6.884663553
 20
30.7111284905
 10
-6.8356522531
 20
30.6696614605
 10
-6.784802755
 20
30.6222418481
 10
-6.7327226616
 20
30.568897538
 10
-6.680414016
 20
30.5101948451
 10
-6.6285066437
 20
30.4464790137
 10
-6.57749333
 20
30.3780200781
 10
-6.5280516233
 20
30.3054415447
 10
-6.4806561125
 20
30.2292226145
 10
-6.4357398174
 20
30.149872907
 10
-6.3937932261
 20
30.0681401368
 10
-6.3551452851
 20
29.9846295909
 10
-6.3200807379
 20
29.8999677073
 10
-6.2888987448
 20
29.8149883146
 10
-6.2617445948
 20
29.730327389
 10
-6.2387313562
 20
29.6466810196
 10
-6.2199636468
 20
29.5650043761
 10
-6.2053752665
 20
29.4859095389
 10
-6.1948504004
 20
29.4100263994
 10
-6.1882327242
 20
29.3383211192
 10
-6.1852225487
 20
29.2714378156
 10
-6.1854420052
 20
29.2096822121
  0
LINE
  5
357
100
AcDbEntity
  8
ASSI
100
AcDbLine
 62
7
  6
CONTINUOUS
 10
8.1272728434
 20
35.7828665868
 11
8.6026748708
 21
34.9629193781
  0
LINE
  5
358
100
AcDbEntity
  8
DRAFT
100
AcDbLine
 62
7
  6
CONTINUOUS
 10
7.9079106844
 20
36.1825883467
 11
8.248501837
 21
35.5951555029
  0
LWPOLYLINE
  5
359
100
AcDbEntity
  8
ASSI
100
AcDbPolyline
 62
7
  6
CONTINUOUS
 90
4
 70
0
 10
-9.7194358655
 20
45.4271902196
 10
-9.7006865326
 20
45.4108131947
 10
-9.6802252433
 20
45.3966862948
 10
-9.6640579734
 20
45.387750408
  0
LINE
  5
35A
100
AcDbEntity
  8
0
100
AcDbLine
 62
250
  6
CONTINUOUS
 10
13.4284776425
 20
44.6628908182
 11
13.8430551542
 21
43.587312278
  0
LINE
  5
35B
100
AcDbEntity
  8
0
100
AcDbLine
 62
7
  6
CONTINUOUS
 10
14.9877594824
 20
42.08724723
 11
14.7862601245
 21
42.6829716558
  0
LWPOLYLINE
  5
35C
100
AcDbEntity
  8
ASSI
100
AcDbPolyline
 62
7
  6
CONTINUOUS
 90
4
 70
0
 10
2.8670648397
 20
39.133939867
 10
2.8858141726
 20
39.1175628421
 10
2.9062754618
 20
39.1034359423
 10
2.9224427317
 20
39.0945000555
  0
LINE
  5
35D
100
AcDbEntity
  8
DRAFT
100
AcDbLine
 62
7
  6
CONTINUOUS
 10
14.7736516579
 20
39.8584786515
 11
14.020957574
 21
41.1566839125
  0
LINE
  5
35E
100
AcDbEntity
  8
RACCORDO
100
AcDbLine
 62
7
  6
CONTINUOUS
 10
17.846095674
 20
45.6526058718
 11
17.8552111327
 21
45.6287120707
  0
LINE
  5
35F
100
AcDbEntity
  8
RACCORDO
100
AcDbLine
 62
250
  6
CONTINUOUS
 10
2.0512669953
 20
-39.368714655
 11
4.0479659811
 21
-38.2981116625
  0
LINE
  5
360
100
AcDbEntity
  8
RACCORDO
100
AcDbLine
 62
250
  6
CONTINUOUS
 10
2.0512669953
 20
-39.368714655
 11
-0.0899305204
 21
-40.3670590911
  0
LINE
  5
361
100
AcDbEntity
  8
ASSI
100
AcDbLine
 62
7
  6
CONTINUOUS
 10
7.213146498
 20
34.1913136739
 11
8.6026748708
 21
33.9107630499
  0
LINE
  5
362
100
AcDbEntity
  8
ASSI
100
AcDbLine
 62
7
  6
CONTINUOUS
 10
7.213146498
 20
34.1913136739
 11
8.6643925458
 21
33.8799042124
  0
LWPOLYLINE
  5
363
100
AcDbEntity
  8
ASSI
100
AcDbPolyline
 62
7
  6
CONTINUOUS
 90
4
 70
0
 10
4.987153276
 20
38.0621437015
 10
4.9933034121
 20
38.0591857855
 10
5.0164122165
 20
38.0500589577
 10
5.0398133185
 20
38.0437218191
  0
LWPOLYLINE
  5
364
100
AcDbEntity
  8
ASSI
100
AcDbPolyline
 62
7
  6
CONTINUOUS
 90
4
 70
0
 10
-7.5993474291
 20
44.3553940541
 10
-7.593197293
 20
44.352436138
 10
-7.5700884887
 20
44.3433093103
 10
-7.5466873866
 20
44.3369721716
  0
LINE
  5
365
100
AcDbEntity
  8
ASSI
100
AcDbLine
 62
7
  6
CONTINUOUS
 10
8.6643925458
 20
33.8799042124
 11
8.6026748708
 21
33.9107630499
  0
LINE
  5
366
100
AcDbEntity
  8
ASSI
100
AcDbLine
 62
7
  6
CONTINUOUS
 10
-8.7935382218
 20
43.6909219851
 11
-8.5999739357
 21
43.594139842
  0
LINE
  5
367
100
AcDbEntity
  8
ASSI
100
AcDbLine
 62
7
  6
CONTINUOUS
 10
3.7929624833
 20
37.3976716325
 11
3.9865267694
 21
37.3008894894
  0
LINE
  5
368
100
AcDbEntity
  8
ASSI
100
AcDbLine
 62
7
  6
CONTINUOUS
 10
7.9079106844
 20
35.8925476663
 11
8.1272728434
 21
35.7828665868
  0
LINE
  5
369
100
AcDbEntity
  8
ASSI
100
AcDbLine
 62
7
  6
CONTINUOUS
 10
5.6067010688
 20
37.2432955892
 11
4.87969412
 21
37.6067990635
  0
LINE
  5
36A
100
AcDbEntity
  8
ASSI
100
AcDbLine
 62
7
  6
CONTINUOUS
 10
3.7197391786
 20
38.1867765342
 11
3.5870017464
 21
38.2531452504
  0
LINE
  5
36B
100
AcDbEntity
  8
ASSI
100
AcDbLine
 62
7
  6
CONTINUOUS
 10
-6.9797996363
 20
43.5365459417
 11
-7.7068065851
 21
43.9000494161
  0
LINE
  5
36C
100
AcDbEntity
  8
ASSI
100
AcDbLine
 62
7
  6
CONTINUOUS
 10
-8.8667615265
 20
44.4800268868
 11
-8.9994989588
 21
44.5463956029
  0
LINE
  5
36D
100
AcDbEntity
  8
ASSI
100
AcDbLine
 62
7
  6
CONTINUOUS
 10
-9.6642602343
 20
45.3878503849
 11
-8.8683309598
 21
44.9898857476
  0
LINE
  5
36E
100
AcDbEntity
  8
ASSI
100
AcDbLine
 62
7
  6
CONTINUOUS
 10
-8.4004573732
 20
44.7559489543
 11
-7.5991773187
 21
44.3553090482
  0
LINE
  5
36F
100
AcDbEntity
  8
ASSI
100
AcDbLine
 62
7
  6
CONTINUOUS
 10
2.9222404708
 20
39.0946000323
 11
3.7181697453
 21
38.6966353951
  0
LINE
  5
370
100
AcDbEntity
  8
ASSI
100
AcDbLine
 62
7
  6
CONTINUOUS
 10
4.1860433319
 20
38.4626986018
 11
4.9873233864
 21
38.0620586956
  0
LINE
  5
371
100
AcDbEntity
  8
ASSI
100
AcDbLine
 62
250
  6
CONTINUOUS
 10
-8.5999739357
 20
44.9584390375
 11
-7.6645054174
 21
44.4907029688
  0
LINE
  5
372
100
AcDbEntity
  8
ASSI
100
AcDbLine
 62
250
  6
CONTINUOUS
 10
3.9865267694
 20
38.6651886849
 11
4.9219952877
 21
38.1974526162
  0
LINE
  5
373
100
AcDbEntity
  8
ASSI
100
AcDbLine
 62
250
  6
CONTINUOUS
 10
2.857493965
 20
39.2297036823
 11
3.7929624833
 21
38.7619708279
  0
LINE
  5
374
100
AcDbEntity
  8
ASSI
100
AcDbLine
 62
250
  6
CONTINUOUS
 10
-9.7290067401
 20
45.5229540349
 11
-8.7935382218
 21
45.0552211805
  0
LINE
  5
375
100
AcDbEntity
  8
ASSI
100
AcDbLine
 62
7
  6
CONTINUOUS
 10
-3.990771663
 20
42.7945252045
 11
-1.7001232659
 21
41.6492010059
  0
LINE
  5
376
100
AcDbEntity
  8
ASSI
100
AcDbLine
 62
7
  6
CONTINUOUS
 10
-0.2784610617
 20
40.9383699038
 11
2.0121873354
 21
39.7930457053
  0
LINE
  5
377
100
AcDbEntity
  8
ASSI
100
AcDbLine
 62
250
  6
CONTINUOUS
 10
-9.7290067401
 20
45.84022424
 11
-7.6645054174
 21
44.8079735787
  0
LINE
  5
378
100
AcDbEntity
  8
ASSI
100
AcDbLine
 62
250
  6
CONTINUOUS
 10
2.857493965
 20
39.5469738875
 11
4.9219952877
 21
38.5147232261
  0
LINE
  5
379
100
AcDbEntity
  8
ASSI
100
AcDbLine
 62
7
  6
CONTINUOUS
 10
2.8379075899
 20
39.7564322027
 11
2.5108864031
 21
39.9199427961
  0
LINE
  5
37A
100
AcDbEntity
  8
ASSI
100
AcDbLine
 62
7
  6
CONTINUOUS
 10
-0.3370397055
 20
41.3439058504
 11
-1.2014241982
 21
41.7760980967
  0
LINE
  5
37B
100
AcDbEntity
  8
ASSI
100
AcDbLine
 62
7
  6
CONTINUOUS
 10
-4.0493503067
 20
43.200061151
 11
-5.7269075978
 21
44.0388397965
  0
LINE
  5
37C
100
AcDbEntity
  8
ASSI
100
AcDbLine
 62
250
  6
CONTINUOUS
 10
3.0305771236
 20
39.8505951231
 11
5.0962931636
 21
38.8177391807
  0
LINE
  5
37D
100
AcDbEntity
  8
ASSI
100
AcDbLine
 62
250
  6
CONTINUOUS
 10
-9.5559235816
 20
46.1438454756
 11
-7.4902075415
 21
45.1109895333
  0
LWPOLYLINE
  5
37E
100
AcDbEntity
  8
RACCORDO
100
AcDbPolyline
 62
7
  6
CONTINUOUS
 90
20
 70
0
 10
0.8069325938
 20
-45.4158191849
 10
1.1372470574
 20
-45.2119183927
 10
1.4559260681
 20
-44.9831463063
 10
1.7617303835
 20
-44.7298476694
 10
2.0531193161
 20
-44.4528984469
 10
2.3292682303
 20
-44.1527927385
 10
2.5894820616
 20
-43.8299762408
 10
2.8327130118
 20
-43.485498559
 10
3.0583840367
 20
-43.1200400731
 10
3.2660198198
 20
-42.7342081117
 10
3.4549690035
 20
-42.3290941823
 10
3.6248384326
 20
-41.9054815104
 10
3.7752923183
 20
-41.4641011307
 10
3.905946752
 20
-41.006072484
 10
4.0165751035
 20
-40.5322202148
 10
4.1069540994
 20
-40.0433896256
 10
4.1768480332
 20
-39.5408386261
 10
4.2261452106
 20
-39.0256485171
 10
4.254797152
 20
-38.498643363
 10
4.2628829773
 20
-38.0253219035
  0
LINE
  5
37F
100
AcDbEntity
  8
RACCORDO
100
AcDbLine
 62
7
  6
CONTINUOUS
 10
0.7532667294
 20
-45.4460211263
 11
0.8069325938
 21
-45.4158191849
  0
LINE
  5
380
100
AcDbEntity
  8
DRAFT
100
AcDbLine
 62
7
  6
CONTINUOUS
 10
-1.2594891456
 20
-46.5660872557
 11
0.7569588007
 21
-45.4439688181
  0
LINE
  5
381
100
AcDbEntity
  8
RACCORDO
100
AcDbLine
 62
7
  6
CONTINUOUS
 10
0.7530190616
 20
-45.4461589186
 11
0.7532776085
 21
-45.4460153337
  0
LWPOLYLINE
  5
382
100
AcDbEntity
  8
ASSI
100
AcDbPolyline
 62
7
  6
CONTINUOUS
 90
4
 70
0
 10
9.5630303649
 20
44.1144211008
 10
9.5041430176
 20
44.0994279451
 10
9.4450858986
 20
44.0789113124
 10
9.3915173446
 20
44.0555458746
  0
LINE
  5
383
100
AcDbEntity
  8
ASSI
100
AcDbLine
 62
250
  6
CONTINUOUS
 10
5.9571423567
 20
38.0111154992
 11
5.2203345525
 21
38.1674156762
  0
LINE
  5
384
100
AcDbEntity
  8
ASSI
100
AcDbLine
 62
7
  6
CONTINUOUS
 10
5.0398132922
 20
38.0437216905
 11
5.680716234
 21
37.9077659262
  0
LWPOLYLINE
  5
385
100
AcDbEntity
  8
ASSI
100
AcDbPolyline
 62
7
  6
CONTINUOUS
 90
10
 70
0
 10
5.2369975776
 20
40.9570815765
 10
5.215955126
 20
40.9648574027
 10
5.1940787297
 20
40.9704814943
 10
5.1715952733
 20
40.9738562881
 10
5.1486624713
 20
40.9749138763
 10
5.1255242254
 20
40.9735967323
 10
5.1024997946
 20
40.9698909797
 10
5.0798079328
 20
40.9638191797
 10
5.0576509277
 20
40.9554184403
 10
5.0534749466
 20
40.9535435161
  0
LINE
  5
386
100
AcDbEntity
  8
ASSI
100
AcDbLine
 62
7
  6
CONTINUOUS
 10
-7.3375715797
 20
47.2447856091
 11
-7.351839182
 21
47.2513173138
  0
LINE
  5
387
100
AcDbEntity
  8
ASSI
100
AcDbLine
 62
7
  6
CONTINUOUS
 10
5.2489110156
 20
40.9515449421
 11
5.2369975776
 21
40.9570815765
  0
LINE
  5
388
100
AcDbEntity
  8
ASSI
100
AcDbLine
 62
7
  6
CONTINUOUS
 10
-5.7269075978
 20
44.7308300481
 11
-5.0587718826
 21
44.3967621905
  0
LINE
  5
389
100
AcDbEntity
  8
ASSI
100
AcDbLine
 62
7
  6
CONTINUOUS
 10
6.8595931147
 20
38.4375796919
 11
7.5544111417
 21
38.0901706784
  0
LINE
  5
38A
100
AcDbEntity
  8
ASSI
100
AcDbLine
 62
7
  6
CONTINUOUS
 10
-0.5193639678
 20
42.1277612561
 11
-0.3370397055
 21
42.036599125
  0
LINE
  5
38B
100
AcDbEntity
  8
ASSI
100
AcDbLine
 62
7
  6
CONTINUOUS
 10
-0.5211633934
 20
42.2124858615
 11
-0.3370397055
 21
42.1204240175
  0
LINE
  5
38C
100
AcDbEntity
  8
ASSI
100
AcDbLine
 62
250
  6
CONTINUOUS
 10
1.9768373811
 20
41.0412881389
 11
-0.2431111075
 21
42.1512623832
  0
LINE
  5
38D
100
AcDbEntity
  8
ASSI
100
AcDbLine
 62
250
  6
CONTINUOUS
 10
-1.7354732201
 20
42.8974434395
 11
-3.9554217087
 21
44.0074176838
  0
LINE
  5
38E
100
AcDbEntity
  8
ASSI
100
AcDbLine
 62
250
  6
CONTINUOUS
 10
2.1157905943
 20
41.2839434463
 11
-0.1041578942
 21
42.3939176906
  0
LINE
  5
38F
100
AcDbEntity
  8
ASSI
100
AcDbLine
 62
250
  6
CONTINUOUS
 10
-1.5965200069
 20
43.140098747
 11
-3.8164684955
 21
44.2500729912
  0
LINE
  5
390
100
AcDbEntity
  8
ASSI
100
AcDbLine
 62
7
  6
CONTINUOUS
 10
2.3341366317
 20
41.3939583279
 11
0.1066964231
 21
42.5076784322
  0
LINE
  5
391
100
AcDbEntity
  8
ASSI
100
AcDbLine
 62
7
  6
CONTINUOUS
 10
-1.3781739695
 20
43.2501136285
 11
-3.6056141781
 21
44.3638337328
  0
LINE
  5
392
100
AcDbEntity
  8
ASSI
100
AcDbLine
 62
7
  6
CONTINUOUS
 10
6.7181932903
 20
39.6349427005
 11
4.5968298684
 21
40.6956244114
  0
LINE
  5
393
100
AcDbEntity
  8
ASSI
100
AcDbLine
 62
7
  6
CONTINUOUS
 10
-5.8683074148
 20
45.928193053
 11
-7.9896708367
 21
46.988874764
  0
LINE
  5
394
100
AcDbEntity
  8
ASSI
100
AcDbLine
 62
7
  6
CONTINUOUS
 10
2.7499282921
 20
41.8366732027
 11
0.7831242553
 21
42.8200752211
  0
LINE
  5
395
100
AcDbEntity
  8
ASSI
100
AcDbLine
 62
7
  6
CONTINUOUS
 10
-0.724955205
 20
43.5741149513
 11
-2.6917592418
 21
44.5575169697
  0
LINE
  5
396
100
AcDbEntity
  8
ASSI
100
AcDbLine
 62
250
  6
CONTINUOUS
 10
-7.446944774
 20
47.239523645
 11
-5.3442029483
 21
46.1881527322
  0
LINE
  5
397
100
AcDbEntity
  8
ASSI
100
AcDbLine
 62
250
  6
CONTINUOUS
 10
5.1395559311
 20
40.9462732925
 11
7.2422977568
 21
39.8949023796
  0
LINE
  5
398
100
AcDbEntity
  8
ASSI
100
AcDbLine
 62
7
  6
CONTINUOUS
 10
-7.3378471079
 20
47.2449247545
 11
-5.2358635503
 21
46.1939329757
  0
LINE
  5
399
100
AcDbEntity
  8
ASSI
100
AcDbLine
 62
7
  6
CONTINUOUS
 10
5.2486523316
 20
40.9516750347
 11
7.3506378429
 21
39.9006822791
  0
LINE
  5
39A
100
AcDbEntity
  8
RACCORDO
100
AcDbLine
 62
7
  6
CONTINUOUS
 10
2.8472197771
 20
42.1829066774
 11
2.5913030115
 21
42.3108650602
  0
LINE
  5
39B
100
AcDbEntity
  8
RACCORDO
100
AcDbLine
 62
250
  6
CONTINUOUS
 10
2.5913030115
 20
43.29344972
 11
3.3497086102
 21
42.9142469206
  0
LINE
  5
39C
100
AcDbEntity
  8
RACCORDO
100
AcDbLine
 62
250
  6
CONTINUOUS
 10
2.6937433591
 20
43.5111653034
 11
3.4521489577
 21
43.1319625041
  0
LINE
  5
39D
100
AcDbEntity
  8
RACCORDO
100
AcDbLine
 62
7
  6
CONTINUOUS
 10
1.980556318
 20
44.1115166847
 11
4.618526507
 21
42.7925315902
  0
LINE
  5
39E
100
AcDbEntity
  8
RACCORDO
100
AcDbLine
 62
250
  6
CONTINUOUS
 10
5.2344785477
 20
43.0876154318
 11
2.95029873
 21
44.2297053407
  0
LINE
  5
39F
100
AcDbEntity
  8
RACCORDO
100
AcDbLine
 62
7
  6
CONTINUOUS
 10
6.5600988073
 20
42.4739794957
 11
6.5234273169
 21
42.4923152409
  0
LINE
  5
3A0
100
AcDbEntity
  8
RACCORDO
100
AcDbLine
 62
7
  6
CONTINUOUS
 10
5.2847039844
 20
43.1116769071
 11
3.0385073306
 21
44.234775234
  0
LINE
  5
3A1
100
AcDbEntity
  8
DRAFT
100
AcDbLine
 62
7
  6
CONTINUOUS
 10
-1.6595110948
 20
-46.7660982303
 11
-3.7666795679
 21
-47.7058093509
  0
LWPOLYLINE
  5
3A2
100
AcDbEntity
  8
RACCORDO
100
AcDbPolyline
 62
7
  6
CONTINUOUS
 90
18
 70
0
 10
9.2869219066
 20
44.0054700708
 10
9.2268532378
 20
43.9976678704
 10
9.162321705
 20
43.991630332
 10
9.0958241029
 20
43.9877863757
 10
9.0280479428
 20
43.9862509386
 10
8.9596741491
 20
43.9870747676
 10
8.8918612913
 20
43.9902581028
 10
8.8252939056
 20
43.9957299889
 10
8.7606620251
 20
44.003348097
 10
8.6990902663
 20
44.0128550222
 10
8.6410302097
 20
44.0240239877
 10
8.5871386423
 20
44.0365217211
 10
8.5386502144
 20
44.0497584331
 10
8.4958255015
 20
44.0632992331
 10
8.4587853872
 20
44.0767062814
 10
8.4281328682
 20
44.0892803684
 10
8.4038168149
 20
44.1004891562
 10
8.3994990129
 20
44.1026233522
  0
LWPOLYLINE
  5
3A3
100
AcDbEntity
  8
ASSI
100
AcDbPolyline
 62
7
  6
CONTINUOUS
 90
5
 70
0
 10
6.141792689
 20
43.4727468021
 10
6.1010754183
 20
43.4707208149
 10
6.0604819132
 20
43.465345152
 10
6.0218131411
 20
43.4568183851
 10
5.9854609306
 20
43.4453664823
  0
LINE
  5
3A4
100
AcDbEntity
  8
ASSI
100
AcDbLine
 62
250
  6
CONTINUOUS
 10
-6.6293583484
 20
44.3043658517
 11
-7.3661661527
 21
44.4606660287
  0
LINE
  5
3A5
100
AcDbEntity
  8
ASSI
100
AcDbLine
 62
7
  6
CONTINUOUS
 10
-7.5466874129
 20
44.3369720431
 11
-6.9057842926
 21
44.2010162409
  0
LWPOLYLINE
  5
3A6
100
AcDbEntity
  8
ASSI
100
AcDbPolyline
 62
7
  6
CONTINUOUS
 90
5
 70
0
 10
6.3022525602
 20
43.4477211136
 10
6.2640835914
 20
43.458872181
 10
6.2242826342
 20
43.4668086154
 10
6.1828440258
 20
43.4714850484
 10
6.141792689
 20
43.4727468021
  0
LWPOLYLINE
  5
3A7
100
AcDbEntity
  8
ASSI
100
AcDbPolyline
 62
7
  6
CONTINUOUS
 90
5
 70
0
 10
0.6880726364
 20
46.2556454794
 10
0.6499340354
 20
46.2673364701
 10
0.6100735843
 20
46.275784955
 10
0.5684924378
 20
46.2809429066
 10
0.5271996765
 20
46.2826405589
  0
LWPOLYLINE
  5
3A8
100
AcDbEntity
  8
ASSI
100
AcDbPolyline
 62
7
  6
CONTINUOUS
 90
8
 70
0
 10
-7.351839182
 20
47.2513173138
 10
-7.3730650874
 20
47.2588793472
 10
-7.3951047929
 20
47.2642592849
 10
-7.4177291052
 20
47.2673651034
 10
-7.4407877312
 20
47.2681294287
 10
-7.4640510264
 20
47.2664913792
 10
-7.4871760652
 20
47.2624395605
 10
-7.5099036036
 20
47.2560083307
  0
LWPOLYLINE
  5
3A9
100
AcDbEntity
  8
ASSI
100
AcDbPolyline
 62
7
  6
CONTINUOUS
 90
8
 70
0
 10
9.9361566332
 20
44.071074425
 10
9.8933940322
 20
44.0902054455
 10
9.8431863398
 20
44.1071619745
 10
9.7904029337
 20
44.1192767442
 10
9.7354817582
 20
44.1262342817
 10
9.6790559491
 20
44.1278009891
 10
9.6214783614
 20
44.1238796074
 10
9.5630303649
 20
44.1144211008
  0
LINE
  5
3AA
100
AcDbEntity
  8
ASSI
100
AcDbLine
 62
7
  6
CONTINUOUS
 10
6.9227906404
 20
42.866815435
 11
6.5269353905
 21
43.06474306
  0
LINE
  5
3AB
100
AcDbEntity
  8
ASSI
100
AcDbLine
 62
7
  6
CONTINUOUS
 10
5.8711606667
 20
43.3926304219
 11
3.3238168936
 21
44.6663023084
  0
LINE
  5
3AC
100
AcDbEntity
  8
ASSI
100
AcDbLine
 62
7
  6
CONTINUOUS
 10
7.9150375776
 20
43.3484468775
 11
3.9332746601
 21
45.3393283362
  0
LINE
  5
3AD
100
AcDbEntity
  8
DRAFT
100
AcDbLine
 62
7
  6
CONTINUOUS
 10
14.020957574
 20
41.1566839125
 11
13.2725384806
 21
41.5308934592
  0
LINE
  5
3AE
100
AcDbEntity
  8
ASSI
100
AcDbLine
 62
7
  6
CONTINUOUS
 10
5.5885738873
 20
45.4807397822
 11
8.904966077
 21
43.8225436873
  0
LINE
  5
3AF
100
AcDbEntity
  8
RACCORDO
100
AcDbLine
 62
7
  6
CONTINUOUS
 10
8.3995736351
 20
44.1025949632
 11
5.588184023
 21
45.5082897693
  0
LINE
  5
3B0
100
AcDbEntity
  8
ASSI
100
AcDbLine
 62
250
  6
CONTINUOUS
 10
1.9884162712
 20
47.8051475241
 11
4.8070078646
 21
46.3958517274
  0
LINE
  5
3B1
100
AcDbEntity
  8
ASSI
100
AcDbLine
 62
250
  6
CONTINUOUS
 10
9.502545205
 20
44.0480830572
 11
12.3211367984
 21
42.6387872605
  0
LINE
  5
3B2
100
AcDbEntity
  8
ASSI
100
AcDbLine
 62
7
  6
CONTINUOUS
 10
9.9353318129
 20
44.0714895231
 11
12.9109605029
 21
42.5836751781
  0
LINE
  5
3B3
100
AcDbEntity
  8
0
100
AcDbLine
 62
7
  6
CONTINUOUS
 10
14.9982543178
 20
42.0819998123
 11
14.2912853776
 21
42.4354842824
  0
LINE
  5
3B4
100
AcDbEntity
  8
ASSI
100
AcDbLine
 62
7
  6
CONTINUOUS
 10
5.2442470323
 20
46.417031769
 11
2.2683383278
 21
47.9049862657
  0
LINE
  5
3B5
100
AcDbEntity
  8
0
100
AcDbLine
 62
7
  6
CONTINUOUS
 10
14.9982543178
 20
42.0819998123
 11
15.2121467717
 21
41.8844665447
  0
LINE
  5
3B6
100
AcDbEntity
  8
RACCORDO
100
AcDbLine
 62
250
  6
CONTINUOUS
 10
22.3662165581
 20
43.5465601236
 11
22.7857597691
 21
42.8229551221
  0
LINE
  5
3B7
100
AcDbEntity
  8
RACCORDO
100
AcDbLine
 62
7
  6
CONTINUOUS
 10
22.7564809225
 20
43.5409503097
 11
23.103318693
 21
42.9427436438
  0
LINE
  5
3B8
100
AcDbEntity
  8
ASSI
100
AcDbLine
 62
7
  6
CONTINUOUS
 10
5.5149671388
 20
45.4195683284
 11
3.9332746601
 21
45.3393283362
  0
LWPOLYLINE
  5
3B9
100
AcDbEntity
  8
ASSI
100
AcDbPolyline
 62
7
  6
CONTINUOUS
 90
5
 70
0
 10
0.5271996765
 20
46.2826405589
 10
0.4861217662
 20
46.2810011071
 10
0.4450656527
 20
46.2759575424
 10
0.4058800733
 20
46.2676898316
 10
0.3689621542
 20
46.2564117396
  0
LINE
  5
3BA
100
AcDbEntity
  8
0
100
AcDbLine
 62
7
  6
CONTINUOUS
 10
15.942973726
 20
42.2077393526
 11
15.4932290646
 21
42.3294871858
  0
LINE
  5
3BB
100
AcDbEntity
  8
0
100
AcDbLine
 62
7
  6
CONTINUOUS
 10
15.4932290646
 20
42.3294871858
 11
14.7862601245
 21
42.6829716558
  0
LINE
  5
3BC
100
AcDbEntity
  8
DRAFT
100
AcDbLine
 62
7
  6
CONTINUOUS
 10
14.5257653521
 20
43.165617297
 11
14.0871548796
 21
43.3849225333
  0
LINE
  5
3BD
100
AcDbEntity
  8
RACCORDO
100
AcDbLine
 62
7
  6
CONTINUOUS
 10
18.7556783321
 20
42.9258809224
 11
18.0291809434
 21
43.2891296168
  0
LINE
  5
3BE
100
AcDbEntity
  8
DRAFT
100
AcDbLine
 62
7
  6
CONTINUOUS
 10
18.5728486717
 20
43.0329556052
 11
18.2687292878
 21
43.1850152972
  0
LINE
  5
3BF
100
AcDbEntity
  8
DRAFT
100
AcDbLine
 62
7
  6
CONTINUOUS
 10
20.9674487055
 20
43.664742017
 11
17.8552111327
 21
45.2208608034
  0
LINE
  5
3C0
100
AcDbEntity
  8
RACCORDO
100
AcDbLine
 62
250
  6
CONTINUOUS
 10
22.3662165581
 20
43.5465601236
 11
21.5605446221
 21
43.9493960916
  0
LINE
  5
3C1
100
AcDbEntity
  8
RACCORDO
100
AcDbLine
 62
250
  6
CONTINUOUS
 10
16.858881543
 20
46.3002276311
 11
15.8877227093
 21
46.785807048
  0
LINE
  5
3C2
100
AcDbEntity
  8
RACCORDO
100
AcDbLine
 62
7
  6
CONTINUOUS
 10
22.6964919357
 20
43.5972422277
 11
21.8707330355
 21
44.0101216778
  0
LINE
  5
3C3
100
AcDbEntity
  8
RACCORDO
100
AcDbLine
 62
7
  6
CONTINUOUS
 10
17.3314643145
 20
46.2797560383
 11
16.2791083018
 21
46.8059340446
  0
ARC
  5
3C4
100
AcDbEntity
  8
RACCORDO
100
AcDbCircle
 62
7
  6
CONTINUOUS
 10
-17.9316218298
 20
-27.6128450912
 40
78.8191348929
100
AcDbArc
 50
62.7491355285
 51
63.4099869178
  0
ARC
  5
3C5
100
AcDbEntity
  8
RACCORDO
100
AcDbCircle
 62
250
  6
CONTINUOUS
 10
-20.7658403495
 20
-24.0138548142
 40
20.7733583517
100
AcDbArc
 50
17.9648009941
 51
18.1279174012
  0
ARC
  5
3C6
100
AcDbEntity
  8
RACCORDO
100
AcDbCircle
 62
250
  6
CONTINUOUS
 10
-18.540773949
 20
-23.4493049994
 40
18.4763942237
100
AcDbArc
 50
10.8265427483
 51
10.9950578721
  0
ARC
  5
3C7
100
AcDbEntity
  8
0
100
AcDbCircle
 62
7
  6
CONTINUOUS
 10
-12.7321453644
 20
-22.0522741402
 40
14.7834129193
100
AcDbArc
 50
0.0157645649
 51
2.1232271164
  0
ARC
  5
3C8
100
AcDbEntity
  8
DRAFT
100
AcDbCircle
 62
7
  6
CONTINUOUS
 10
-11.9005454558
 20
-39.3699688443
 40
13.9518125075
100
AcDbArc
 50
357.7338425915
 51
0.0051505675
  0
ARC
  5
3C9
100
AcDbEntity
  8
0
100
AcDbCircle
 62
7
  6
CONTINUOUS
 10
-10.8422318266
 20
-32.6398855278
 40
13.2224974735
100
AcDbArc
 50
76.3001478577
 51
76.6001757208
  0
ARC
  5
3CA
100
AcDbEntity
  8
RACCORDO
100
AcDbCircle
 62
250
  6
CONTINUOUS
 10
-11.4835824561
 20
-31.6139864042
 40
5.8436345401
100
AcDbArc
 50
161.1860858444
 51
162.890188187
  0
ARC
  5
3CB
100
AcDbEntity
  8
DRAFT
100
AcDbCircle
 62
7
  6
CONTINUOUS
 10
-3.7233046141
 20
-42.1381437553
 40
5.0672546463
100
AcDbArc
 50
294.0363285376
 51
299.0933621918
  0
ARC
  5
3CC
100
AcDbEntity
  8
DRAFT
100
AcDbCircle
 62
7
  6
CONTINUOUS
 10
-3.7223144017
 20
-42.1401181758
 40
5.0650478671
100
AcDbArc
 50
294.8532160802
 51
299.0943732763
  0
ARC
  5
3CD
100
AcDbEntity
  8
0
100
AcDbCircle
 62
7
  6
CONTINUOUS
 10
-6.4432402221
 20
-22.7158878002
 40
0.5944114795
100
AcDbArc
 50
47.3215732697
 51
51.6544343527
  0
ARC
  5
3CE
100
AcDbEntity
  8
RACCORDO
100
AcDbCircle
 62
250
  6
CONTINUOUS
 10
-1.3057565318
 20
-11.7807061635
 40
26.4922370127
100
AcDbArc
 50
227.6461213228
 51
231.3928479616
  0
ARC
  5
3CF
100
AcDbEntity
  8
0
100
AcDbCircle
 62
7
  6
CONTINUOUS
 10
-12.8692667352
 20
-16.2594185756
 40
11.9527447833
100
AcDbArc
 50
59.1445187109
 51
60.3545806189
  0
ARC
  5
3D0
100
AcDbEntity
  8
RACCORDO
100
AcDbCircle
 62
250
  6
CONTINUOUS
 10
-9.1395576573
 20
-8.8527377539
 40
5.1298411066
100
AcDbArc
 50
107.636355516
 51
108.0230974337
  0
ARC
  5
3D1
100
AcDbEntity
  8
RACCORDO
100
AcDbCircle
 62
250
  6
CONTINUOUS
 10
-9.1476876374
 20
-8.828068635
 40
5.1038670375
100
AcDbArc
 50
108.0219925451
 51
109.8300666122
  0
ARC
  5
3D2
100
AcDbEntity
  8
0
100
AcDbCircle
 62
7
  6
CONTINUOUS
 10
-11.2619790039
 20
-9.7414948757
 40
5.0768203121
100
AcDbArc
 50
113.5476398016
 51
114.0336473945
  0
ARC
  5
3D3
100
AcDbEntity
  8
0
100
AcDbCircle
 62
7
  6
CONTINUOUS
 10
-11.2647536576
 20
-9.7352550827
 40
5.0699914246
100
AcDbArc
 50
114.0337511367
 51
117.842527615
  0
ARC
  5
3D4
100
AcDbEntity
  8
0
100
AcDbCircle
 62
7
  6
CONTINUOUS
 10
-11.2647163541
 20
-9.7351140951
 40
5.0698841818
100
AcDbArc
 50
117.8436445397
 51
119.097089737
  0
ARC
  5
3D5
100
AcDbEntity
  8
RACCORDO
100
AcDbCircle
 62
250
  6
CONTINUOUS
 10
-9.1643414907
 20
-8.782227691
 40
5.0550948171
100
AcDbArc
 50
109.8287560248
 51
113.3734768463
  0
ARC
  5
3D6
100
AcDbEntity
  8
RACCORDO
100
AcDbCircle
 62
250
  6
CONTINUOUS
 10
-9.1747428427
 20
-8.757412756
 40
5.0281897892
100
AcDbArc
 50
113.3768594886
 51
113.9967755166
  0
ARC
  5
3D7
100
AcDbEntity
  8
ASSI
100
AcDbCircle
 62
250
  6
CONTINUOUS
 10
-13.3568992028
 20
4.5763751563
 40
0.4679501356
100
AcDbArc
 50
236.6435688094
 51
237.3495177302
  0
ARC
  5
3D8
100
AcDbEntity
  8
ASSI
100
AcDbCircle
 62
250
  6
CONTINUOUS
 10
-13.3583388564
 20
4.5741016895
 40
0.4652592165
100
AcDbArc
 50
237.3477433207
 51
240.4077048538
  0
ARC
  5
3D9
100
AcDbEntity
  8
ASSI
100
AcDbCircle
 62
7
  6
CONTINUOUS
 10
6.9971055173
 20
-0.8975829429
 40
0.1897068997
100
AcDbArc
 50
298.4131232313
 51
301.183179147
  0
ARC
  5
3DA
100
AcDbEntity
  8
ASSI
100
AcDbCircle
 62
250
  6
CONTINUOUS
 10
7.2682477979
 20
-1.8494317279
 40
0.1325016596
100
AcDbArc
 50
54.4471033551
 51
63.532183772
  0
ARC
  5
3DB
100
AcDbEntity
  8
ASSI
100
AcDbCircle
 62
250
  6
CONTINUOUS
 10
7.3080528952
 20
-1.8241973544
 40
0.0953426928
100
AcDbArc
 50
63.6273159207
 51
78.3589260647
  0
ARC
  5
3DC
100
AcDbEntity
  8
0
100
AcDbCircle
 62
7
  6
CONTINUOUS
 10
40.915364855
 20
-20.8415167489
 40
48.7049770767
100
AcDbArc
 50
178.7480305744
 51
179.9931739965
  0
ARC
  5
3DD
100
AcDbEntity
  8
0
100
AcDbCircle
 62
7
  6
CONTINUOUS
 10
40.9421433501
 20
-20.8066825861
 40
48.6606459589
100
AcDbArc
 50
178.8077016401
 51
179.9923390183
  0
ARC
  5
3DE
100
AcDbEntity
  8
0
100
AcDbCircle
 62
7
  6
CONTINUOUS
 10
41.2710201866
 20
-21.0945076975
 40
48.4267782838
100
AcDbArc
 50
179.3946499233
 51
179.9913172035
  0
ARC
  5
3DF
100
AcDbEntity
  8
0
100
AcDbCircle
 62
7
  6
CONTINUOUS
 10
33.9638546973
 20
-21.6665357124
 40
47.2885316176
100
AcDbArc
 50
174.5799192698
 51
175.8645984481
  0
ARC
  5
3E0
100
AcDbEntity
  8
0
100
AcDbCircle
 62
7
  6
CONTINUOUS
 10
34.011280991
 20
-21.6300193476
 40
47.2651088543
100
AcDbArc
 50
174.7239649779
 51
175.8638911413
  0
ARC
  5
3E1
100
AcDbEntity
  8
0
100
AcDbCircle
 62
7
  6
CONTINUOUS
 10
35.3441270716
 20
-33.7099897063
 40
47.1593313266
100
AcDbArc
 50
161.9132497731
 51
163.0062683939
  0
ARC
  5
3E2
100
AcDbEntity
  8
0
100
AcDbCircle
 62
7
  6
CONTINUOUS
 10
35.2063940735
 20
-33.7216071089
 40
47.0883618451
100
AcDbArc
 50
161.7763715481
 51
163.0101255938
  0
ARC
  5
3E3
100
AcDbEntity
  8
0
100
AcDbCircle
 62
7
  6
CONTINUOUS
 10
35.7876301216
 20
-32.4839235863
 40
46.7054350031
100
AcDbArc
 50
164.6019760995
 51
164.735878373
  0
ARC
  5
3E4
100
AcDbEntity
  8
0
100
AcDbCircle
 62
7
  6
CONTINUOUS
 10
31.5716745193
 20
-34.5437523861
 40
45.9536102314
100
AcDbArc
 50
159.1321785728
 51
160.2323166258
  0
ARC
  5
3E5
100
AcDbEntity
  8
0
100
AcDbCircle
 62
7
  6
CONTINUOUS
 10
31.3853706318
 20
-34.5350012608
 40
45.8299151674
100
AcDbArc
 50
158.9945036648
 51
160.2353374346
  0
ARC
  5
3E6
100
AcDbEntity
  8
0
100
AcDbCircle
 62
7
  6
CONTINUOUS
 10
26.540908283
 20
-28.6972406627
 40
42.7213997064
100
AcDbArc
 50
163.3479480076
 51
164.5195105288
  0
ARC
  5
3E7
100
AcDbEntity
  8
0
100
AcDbCircle
 62
7
  6
CONTINUOUS
 10
26.0191941156
 20
-26.6975311616
 40
42.2166420934
100
AcDbArc
 50
165.6020423662
 51
166.788500128
  0
ARC
  5
3E8
100
AcDbEntity
  8
0
100
AcDbCircle
 62
7
  6
CONTINUOUS
 10
25.8678697749
 20
-26.7145936907
 40
42.1344575853
100
AcDbArc
 50
165.4483049257
 51
166.7881770621
  0
ARC
  5
3E9
100
AcDbEntity
  8
0
100
AcDbCircle
 62
7
  6
CONTINUOUS
 10
25.4607923972
 20
-28.3934791535
 40
41.5993921006
100
AcDbArc
 50
164.5256361642
 51
164.6707892341
  0
ARC
  5
3EA
100
AcDbEntity
  8
0
100
AcDbCircle
 62
7
  6
CONTINUOUS
 10
41.8919128276
 20
-4.9388820295
 40
55.8749848233
100
AcDbArc
 50
193.0004666568
 51
194.3412808848
  0
ARC
  5
3EB
100
AcDbEntity
  8
0
100
AcDbCircle
 62
7
  6
CONTINUOUS
 10
37.9350112795
 20
-6.2255519911
 40
55.0598099768
100
AcDbArc
 50
189.311574116
 51
190.6478550553
  0
ARC
  5
3EC
100
AcDbEntity
  8
0
100
AcDbCircle
 62
7
  6
CONTINUOUS
 10
37.8647900974
 20
-6.2209875864
 40
54.9146051531
100
AcDbArc
 50
189.406902913
 51
190.6431849381
  0
ARC
  5
3ED
100
AcDbEntity
  8
0
100
AcDbCircle
 62
7
  6
CONTINUOUS
 10
37.9882573055
 20
-7.5627971765
 40
54.4332051583
100
AcDbArc
 50
188.3920585654
 51
189.7151154944
  0
ARC
  5
3EE
100
AcDbEntity
  8
0
100
AcDbCircle
 62
7
  6
CONTINUOUS
 10
43.6714241307
 20
-7.7732516329
 40
53.8240169177
100
AcDbArc
 50
192.3254998489
 51
193.6643024458
  0
ARC
  5
3EF
100
AcDbEntity
  8
0
100
AcDbCircle
 62
7
  6
CONTINUOUS
 10
43.1549948929
 20
-9.5232156118
 40
53.4497032686
100
AcDbArc
 50
191.3941177526
 51
191.5640258524
  0
ARC
  5
3F0
100
AcDbEntity
  8
0
100
AcDbCircle
 62
7
  6
CONTINUOUS
 10
43.1123169455
 20
-9.5094254307
 40
53.3341296003
100
AcDbArc
 50
191.3954254849
 51
191.5657099139
  0
ARC
  5
3F1
100
AcDbEntity
  8
0
100
AcDbCircle
 62
7
  6
CONTINUOUS
 10
40.3017095032
 20
-15.7063042022
 40
51.1825316123
100
AcDbArc
 50
183.0129599388
 51
184.2918407253
  0
ARC
  5
3F2
100
AcDbEntity
  8
0
100
AcDbCircle
 62
7
  6
CONTINUOUS
 10
35.4855363155
 20
-17.9978931321
 40
49.147224709
100
AcDbArc
 50
178.713508443
 51
179.9953197036
  0
ARC
  5
3F3
100
AcDbEntity
  8
0
100
AcDbCircle
 62
7
  6
CONTINUOUS
 10
34.6706286622
 20
-17.6788441822
 40
48.8738139193
100
AcDbArc
 50
178.7056355713
 51
179.9946671806
  0
ARC
  5
3F4
100
AcDbEntity
  8
0
100
AcDbCircle
 62
7
  6
CONTINUOUS
 10
34.6925536804
 20
-17.6440441003
 40
48.8247294495
100
AcDbArc
 50
178.7940598615
 51
179.9938507586
  0
ARC
  5
3F5
100
AcDbEntity
  8
0
100
AcDbCircle
 62
7
  6
CONTINUOUS
 10
322.8922885865
 20
-139.2656799423
 40
355.5794886071
100
AcDbArc
 50
160.2376458626
 51
160.3575705381
  0
ARC
  5
3F6
100
AcDbEntity
  8
0
100
AcDbCircle
 62
7
  6
CONTINUOUS
 10
322.4862967577
 20
-139.0562528915
 40
355.0720018379
100
AcDbArc
 50
160.238070822
 51
160.3581657413
  0
ARC
  5
3F7
100
AcDbEntity
  8
0
100
AcDbCircle
 62
7
  6
CONTINUOUS
 10
316.0764507509
 20
-140.6165943174
 40
349.061042014
100
AcDbArc
 50
159.6797522013
 51
160.0003926378
  0
ARC
  5
3F8
100
AcDbEntity
  8
0
100
AcDbCircle
 62
250
  6
CONTINUOUS
 10
6.3331769819
 20
16.5195051315
 40
39.8869437534
100
AcDbArc
 50
239.9147184971
 51
240.6756782812
  0
ARC
  5
3F9
100
AcDbEntity
  8
0
100
AcDbCircle
 62
7
  6
CONTINUOUS
 10
5.8342478575
 20
13.2943576886
 40
38.8975640456
100
AcDbArc
 50
238.9933508477
 51
239.9195859165
  0
ARC
  5
3FA
100
AcDbEntity
  8
0
100
AcDbCircle
 62
7
  6
CONTINUOUS
 10
5.7348078943
 20
16.5590831205
 40
38.6637174417
100
AcDbArc
 50
239.0818495271
 51
239.9105536305
  0
ARC
  5
3FB
100
AcDbEntity
  8
0
100
AcDbCircle
 62
7
  6
CONTINUOUS
 10
5.7082510076
 20
12.9846304456
 40
38.5001788117
100
AcDbArc
 50
238.9799774027
 51
239.7936394882
  0
ARC
  5
3FC
100
AcDbEntity
  8
0
100
AcDbCircle
 62
250
  6
CONTINUOUS
 10
5.679684555
 20
15.3008491879
 40
38.4386595912
100
AcDbArc
 50
238.9748047421
 51
239.7549600866
  0
ARC
  5
3FD
100
AcDbEntity
  8
0
100
AcDbCircle
 62
250
  6
CONTINUOUS
 10
5.0658897765
 20
14.3783307684
 40
37.3987710825
100
AcDbArc
 50
238.1693525063
 51
238.9869807804
  0
ARC
  5
3FE
100
AcDbEntity
  8
0
100
AcDbCircle
 62
7
  6
CONTINUOUS
 10
4.7936816098
 20
15.0059394977
 40
36.8478461827
100
AcDbArc
 50
237.7716426911
 51
238.6282917132
  0
ARC
  5
3FF
100
AcDbEntity
  8
0
100
AcDbCircle
 62
250
  6
CONTINUOUS
 10
4.4044894037
 20
13.2251741142
 40
36.0024925298
100
AcDbArc
 50
237.2345537188
 51
238.006697938
  0
ARC
  5
400
100
AcDbEntity
  8
0
100
AcDbCircle
 62
7
  6
CONTINUOUS
 10
3.8002286711
 20
10.0169252815
 40
35.0399330822
100
AcDbArc
 50
236.2680883215
 51
237.1479232404
  0
ARC
  5
401
100
AcDbEntity
  8
0
100
AcDbCircle
 62
250
  6
CONTINUOUS
 10
3.72379263
 20
12.2631365082
 40
34.8936436835
100
AcDbArc
 50
236.245569738
 51
237.2527622583
  0
ARC
  5
402
100
AcDbEntity
  8
0
100
AcDbCircle
 62
7
  6
CONTINUOUS
 10
3.6887929745
 20
9.7569109436
 40
34.6924374171
100
AcDbArc
 50
236.2480450043
 51
237.0373298288
  0
ARC
  5
403
100
AcDbEntity
  8
0
100
AcDbCircle
 62
250
  6
CONTINUOUS
 10
2.9558221647
 20
11.0311868507
 40
33.3732726472
100
AcDbArc
 50
235.1700340363
 51
236.0561117749
  0
ARC
  5
404
100
AcDbEntity
  8
0
100
AcDbCircle
 62
7
  6
CONTINUOUS
 10
2.73004507
 20
11.8636216723
 40
33.0881340201
100
AcDbArc
 50
234.8057180291
 51
235.8128474622
  0
ARC
  5
405
100
AcDbEntity
  8
RACCORDO
100
AcDbCircle
 62
250
  6
CONTINUOUS
 10
1.912884338
 20
42.2873093651
 40
21.0999250098
100
AcDbArc
 50
241.8242596087
 51
243.4389313734
  0
ARC
  5
406
100
AcDbEntity
  8
DRAFT
100
AcDbCircle
 62
7
  6
CONTINUOUS
 10
5.4269592829
 20
33.9597389492
 40
3.2612405139
100
AcDbArc
 50
25.4662896271
 51
30.0973483271
  0
ARC
  5
407
100
AcDbEntity
  8
RACCORDO
100
AcDbCircle
 62
7
  6
CONTINUOUS
 10
2.6503257593
 20
42.7116459685
 40
1.5770389823
100
AcDbArc
 50
77.4689461489
 51
80.409670616
  0
ARC
  5
408
100
AcDbEntity
  8
RACCORDO
100
AcDbCircle
 62
7
  6
CONTINUOUS
 10
2.5346266037
 20
42.9446596249
 40
1.3376490124
100
AcDbArc
 50
105.3086081409
 51
108.7938608937
  0
ARC
  5
409
100
AcDbEntity
  8
RACCORDO
100
AcDbCircle
 62
7
  6
CONTINUOUS
 10
2.4878860712
 20
43.0840842282
 40
1.1906000601
100
AcDbArc
 50
108.8260612712
 51
112.2763731713
  0
ARC
  5
40A
100
AcDbEntity
  8
0
100
AcDbCircle
 62
250
  6
CONTINUOUS
 10
-7.5105751764
 20
30.1136945306
 40
0.8115808087
100
AcDbArc
 50
56.8127762294
 51
57.8162661429
  0
ARC
  5
40B
100
AcDbEntity
  8
0
100
AcDbCircle
 62
250
  6
CONTINUOUS
 10
-7.4392926206
 20
30.2397621493
 40
0.6666797051
100
AcDbArc
 50
63.432716484
 51
64.5582374673
  0
ARC
  5
40C
100
AcDbEntity
  8
RACCORDO
100
AcDbCircle
 62
250
  6
CONTINUOUS
 10
-6.5169752391
 20
29.3922014731
 40
0.5350902876
100
AcDbArc
 50
295.3218657897
 51
300.2870051356
  0
ARC
  5
40D
100
AcDbEntity
  8
RACCORDO
100
AcDbCircle
 62
250
  6
CONTINUOUS
 10
3.1156543793
 20
43.0539843525
 40
0.5224384214
100
AcDbArc
 50
312.7323809786
 51
317.9261275076
  0
ARC
  5
40E
100
AcDbEntity
  8
RACCORDO
100
AcDbCircle
 62
7
  6
CONTINUOUS
 10
2.9488257264
 20
44.0552187176
 40
0.200706502
100
AcDbArc
 50
63.4538375191
 51
77.4355559119
  0
ARC
  5
40F
100
AcDbEntity
  8
ASSI
100
AcDbCircle
 62
250
  6
CONTINUOUS
 10
5.9927333411
 20
43.3433678423
 40
0.0969477184
100
AcDbArc
 50
112.0385520278
 51
115.5733997547
  0
ARC
  5
410
100
AcDbEntity
  8
ASSI
100
AcDbCircle
 62
250
  6
CONTINUOUS
 10
-9.6226710664
 20
45.4710407164
 40
0.0930069358
100
AcDbArc
 50
241.0266447551
 51
243.4382536676
  0
ARC
  5
411
100
AcDbEntity
  8
ASSI
100
AcDbCircle
 62
250
  6
CONTINUOUS
 10
2.9638296387
 20
39.1777903639
 40
0.0930069358
100
AcDbArc
 50
241.0266447535
 51
243.4382536675
  0
ARC
  5
412
100
AcDbEntity
  8
RACCORDO
100
AcDbCircle
 62
250
  6
CONTINUOUS
 10
3.0048952217
 20
44.1675501312
 40
0.0751591923
100
AcDbArc
 50
63.4291495118
 51
66.3264811765
  0
ARC
  5
413
100
AcDbEntity
  8
RACCORDO
100
AcDbCircle
 62
7
  6
CONTINUOUS
 10
2.0626237351
 20
44.1223745756
 40
0.0685893154
100
AcDbArc
 50
112.3300883043
 51
115.2604856632
  0
ARC
  5
414
100
AcDbEntity
  8
RACCORDO
100
AcDbCircle
 62
7
  6
CONTINUOUS
 10
1.9223905141
 20
44.0616801365
 40
0.0635823074
100
AcDbArc
 50
115.4495520973
 51
131.3833850805
  0
ARC
  5
415
100
AcDbEntity
  8
RACCORDO
100
AcDbCircle
 62
250
  6
CONTINUOUS
 10
16.4001320497
 20
23.2147983293
 40
65.981234178
100
AcDbArc
 50
252.6564342563
 51
254.6914685095
  0
ARC
  5
416
100
AcDbEntity
  8
0
100
AcDbCircle
 62
7
  6
CONTINUOUS
 10
12.8466452718
 20
27.8759008743
 40
55.0933183632
100
AcDbArc
 50
248.0020745714
 51
248.7357590228
  0
ARC
  5
417
100
AcDbEntity
  8
0
100
AcDbCircle
 62
7
  6
CONTINUOUS
 10
12.7510509226
 20
27.5179933821
 40
54.6660588657
100
AcDbArc
 50
248.0096073709
 51
248.6689884991
  0
ARC
  5
418
100
AcDbEntity
  8
0
100
AcDbCircle
 62
7
  6
CONTINUOUS
 10
12.0705864636
 20
25.960453596
 40
53.0266197817
100
AcDbArc
 50
246.9866801928
 51
247.7812419979
  0
ARC
  5
419
100
AcDbEntity
  8
0
100
AcDbCircle
 62
7
  6
CONTINUOUS
 10
11.9299300973
 20
25.5092896422
 40
52.4959884351
100
AcDbArc
 50
246.9916055309
 51
247.6151819829
  0
ARC
  5
41A
100
AcDbEntity
  8
0
100
AcDbCircle
 62
250
  6
CONTINUOUS
 10
11.3523209237
 20
26.5333344945
 40
51.0306296222
100
AcDbArc
 50
246.325063217
 51
246.9162397394
  0
ARC
  5
41B
100
AcDbEntity
  8
0
100
AcDbCircle
 62
7
  6
CONTINUOUS
 10
11.1643184585
 20
24.5274534849
 40
50.7168843362
100
AcDbArc
 50
245.7323432972
 51
246.7880875333
  0
ARC
  5
41C
100
AcDbEntity
  8
0
100
AcDbCircle
 62
7
  6
CONTINUOUS
 10
11.0708756476
 20
27.0836984883
 40
50.4709148437
100
AcDbArc
 50
246.0054804503
 51
246.6761210739
  0
ARC
  5
41D
100
AcDbEntity
  8
0
100
AcDbCircle
 62
7
  6
CONTINUOUS
 10
11.0356572746
 20
24.7735917821
 40
50.4006099186
100
AcDbArc
 50
245.8892366458
 51
246.6361505855
  0
ARC
  5
41E
100
AcDbEntity
  8
0
100
AcDbCircle
 62
7
  6
CONTINUOUS
 10
11.0442806383
 20
24.1418491556
 40
50.2546431891
100
AcDbArc
 50
245.7334211475
 51
246.7989686903
  0
ARC
  5
41F
100
AcDbEntity
  8
0
100
AcDbCircle
 62
250
  6
CONTINUOUS
 10
10.7017838589
 20
25.0597509801
 40
49.4198339223
100
AcDbArc
 50
245.5461304422
 51
246.1289393672
  0
ARC
  5
420
100
AcDbEntity
  8
0
100
AcDbCircle
 62
7
  6
CONTINUOUS
 10
10.1914977251
 20
21.6754553764
 40
48.3474459004
100
AcDbArc
 50
244.7172594697
 51
245.5086687352
  0
ARC
  5
421
100
AcDbEntity
  8
0
100
AcDbCircle
 62
7
  6
CONTINUOUS
 10
10.0812674789
 20
21.3284698749
 40
47.9244265897
100
AcDbArc
 50
244.7176616129
 51
245.4449967315
  0
ARC
  5
422
100
AcDbEntity
  8
0
100
AcDbCircle
 62
250
  6
CONTINUOUS
 10
9.8810505764
 20
23.3806362077
 40
47.6131133341
100
AcDbArc
 50
244.3394064983
 51
245.5488188629
  0
ARC
  5
423
100
AcDbEntity
  8
0
100
AcDbCircle
 62
7
  6
CONTINUOUS
 10
9.4045704547
 20
20.0093894396
 40
46.5048811602
100
AcDbArc
 50
243.7840172141
 51
244.5874737454
  0
ARC
  5
424
100
AcDbEntity
  8
0
100
AcDbCircle
 62
7
  6
CONTINUOUS
 10
9.252253129
 20
19.5882134754
 40
45.9967850921
100
AcDbArc
 50
243.7820393089
 51
244.4130395126
  0
ARC
  5
425
100
AcDbEntity
  8
0
100
AcDbCircle
 62
7
  6
CONTINUOUS
 10
8.9634977673
 20
22.5524501419
 40
45.4732318223
100
AcDbArc
 50
243.4894105533
 51
244.2249025977
  0
ARC
  5
426
100
AcDbEntity
  8
0
100
AcDbCircle
 62
250
  6
CONTINUOUS
 10
8.7544530321
 20
20.9450836233
 40
44.8673906523
100
AcDbArc
 50
242.9153361061
 51
244.2432570723
  0
ARC
  5
427
100
AcDbEntity
  8
0
100
AcDbCircle
 62
7
  6
CONTINUOUS
 10
8.0552217621
 20
17.3123749842
 40
43.489055686
100
AcDbArc
 50
242.4798813533
 51
242.6004378047
  0
ARC
  5
428
100
AcDbEntity
  8
0
100
AcDbCircle
 62
250
  6
CONTINUOUS
 10
7.9905121084
 20
19.555417176
 40
43.3459719783
100
AcDbArc
 50
242.1754926272
 51
242.9160989528
  0
ARC
  5
429
100
AcDbEntity
  8
0
100
AcDbCircle
 62
250
  6
CONTINUOUS
 10
7.1095700035
 20
17.8024563091
 40
41.3201789518
100
AcDbArc
 50
240.6699013658
 51
242.0403118698
  0
ARC
  5
42A
100
AcDbEntity
  8
0
100
AcDbCircle
 62
7
  6
CONTINUOUS
 10
7.0439335099
 20
18.8571289185
 40
41.3087595415
100
AcDbArc
 50
240.891561685
 51
241.6829301963
  0
ARC
  5
42B
100
AcDbEntity
  8
0
100
AcDbCircle
 62
7
  6
CONTINUOUS
 10
6.8568212023
 20
15.0820162994
 40
40.9570525562
100
AcDbArc
 50
240.4125741302
 51
241.2677245717
  0
ARC
  5
42C
100
AcDbEntity
  8
0
100
AcDbCircle
 62
7
  6
CONTINUOUS
 10
6.744537859
 20
14.7813360358
 40
40.5743488329
100
AcDbArc
 50
240.4031179554
 51
241.1586413261
  0
ARC
  5
42D
100
AcDbEntity
  8
RACCORDO
100
AcDbCircle
 62
250
  6
CONTINUOUS
 10
22.5246560937
 20
10.7049552374
 40
0.5592481606
100
AcDbArc
 50
297.832179873
 51
305.9350085168
  0
ARC
  5
42E
100
AcDbEntity
  8
0
100
AcDbCircle
 62
250
  6
CONTINUOUS
 10
15.5980621985
 20
37.8545562792
 40
63.1838766156
100
AcDbArc
 50
250.3819258381
 51
254.7511803127
  0
ARC
  5
42F
100
AcDbEntity
  8
0
100
AcDbCircle
 62
7
  6
CONTINUOUS
 10
14.2035693814
 20
31.4740546536
 40
58.9389632915
100
AcDbArc
 50
249.8450814412
 51
250.527100777
  0
ARC
  5
430
100
AcDbEntity
  8
0
100
AcDbCircle
 62
7
  6
CONTINUOUS
 10
14.1009298166
 20
31.0688243996
 40
58.4649542822
100
AcDbArc
 50
249.8564124761
 51
250.3908155368
  0
ARC
  5
431
100
AcDbEntity
  8
0
100
AcDbCircle
 62
250
  6
CONTINUOUS
 10
14.0077338979
 20
33.1940625572
 40
58.2021552089
100
AcDbArc
 50
249.7020743639
 51
250.2590257793
  0
ARC
  5
432
100
AcDbEntity
  8
0
100
AcDbCircle
 62
250
  6
CONTINUOUS
 10
13.3795697674
 20
31.6292459275
 40
56.5749066646
100
AcDbArc
 50
248.7169312806
 51
249.6936251759
  0
ARC
  5
433
100
AcDbEntity
  8
0
100
AcDbCircle
 62
7
  6
CONTINUOUS
 10
13.2572726621
 20
30.2926940311
 40
56.2311634478
100
AcDbArc
 50
248.7381441863
 51
249.1285816892
  0
ARC
  5
434
100
AcDbEntity
  8
0
100
AcDbCircle
 62
7
  6
CONTINUOUS
 10
13.1969824203
 20
30.7065572004
 40
56.0662774836
100
AcDbArc
 50
248.714632865
 51
249.1319426726
  0
ARC
  5
435
100
AcDbEntity
  8
0
100
AcDbCircle
 62
7
  6
CONTINUOUS
 10
13.232864538
 20
30.110474713
 40
55.9934512979
100
AcDbArc
 50
248.7485377337
 51
249.1407030778
  0
ARC
  5
436
100
AcDbEntity
  8
0
100
AcDbCircle
 62
250
  6
CONTINUOUS
 10
12.7224037928
 20
29.8280096121
 40
54.5989362132
100
AcDbArc
 50
248.0138249581
 51
248.6098204766
  0
ARC
  5
437
100
AcDbEntity
  8
0
100
AcDbCircle
 62
250
  6
CONTINUOUS
 10
12.0397443507
 20
28.2655805997
 40
52.9541360185
100
AcDbArc
 50
247.0257403187
 51
248.0088829603
  0
ARC
  5
438
100
AcDbEntity
  8
RACCORDO
100
AcDbCircle
 62
7
  6
CONTINUOUS
 10
16.257279205
 20
39.3290620067
 40
3.7059776187
100
AcDbArc
 50
73.0771937146
 51
74.2386873556
  0
ARC
  5
439
100
AcDbEntity
  8
RACCORDO
100
AcDbCircle
 62
250
  6
CONTINUOUS
 10
9.0277925544
 20
46.7045935338
 40
2.8334994761
100
AcDbArc
 50
265.108094485
 51
269.5869879289
  0
ARC
  5
43A
100
AcDbEntity
  8
RACCORDO
100
AcDbCircle
 62
250
  6
CONTINUOUS
 10
17.2651041352
 20
41.3066436106
 40
1.4712916631
100
AcDbArc
 50
46.4995514929
 51
50.7194619361
  0
ARC
  5
43B
100
AcDbEntity
  8
RACCORDO
100
AcDbCircle
 62
250
  6
CONTINUOUS
 10
17.3389743092
 20
41.5150805132
 40
1.1985912515
100
AcDbArc
 50
43.5179553287
 51
44.5762283427
  0
ARC
  5
43C
100
AcDbEntity
  8
RACCORDO
100
AcDbCircle
 62
7
  6
CONTINUOUS
 10
15.8766049207
 20
46.0010023603
 40
0.8999458359
100
AcDbArc
 50
63.4315459583
 51
114.789822733
  0
ARC
  5
43D
100
AcDbEntity
  8
0
100
AcDbCircle
 62
7
  6
CONTINUOUS
 10
13.7432000743
 20
42.6234987835
 40
0.6886989668
100
AcDbArc
 50
179.994737474
 51
183.993565172
  0
ARC
  5
43E
100
AcDbEntity
  8
ASSI
100
AcDbCircle
 62
7
  6
CONTINUOUS
 10
7.7511077874
 20
42.8833161623
 40
0.5530420305
100
AcDbArc
 50
175.4820026846
 51
177.7646915155
  0
ARC
  5
43F
100
AcDbEntity
  8
RACCORDO
100
AcDbCircle
 62
7
  6
CONTINUOUS
 10
17.3134739907
 20
42.8002699937
 40
0.0776367623
100
AcDbArc
 50
63.5314456203
 51
73.1139843021
  0
ARC
  5
440
100
AcDbEntity
  8
RACCORDO
100
AcDbCircle
 62
7
  6
CONTINUOUS
 10
18.123907415
 20
42.3905934394
 40
0.0759917442
100
AcDbArc
 50
55.9851762195
 51
62.7845765141
  0
ARC
  5
441
100
AcDbEntity
  8
ASSI
100
AcDbCircle
 62
250
  6
CONTINUOUS
 10
67.5160526448
 20
186.6220935335
 40
166.9518227408
100
AcDbArc
 50
246.0148629699
 51
246.4708241192
  0
ARC
  5
442
100
AcDbEntity
  8
ASSI
100
AcDbCircle
 62
250
  6
CONTINUOUS
 10
66.9956001814
 20
148.51954496
 40
164.9637274213
100
AcDbArc
 50
243.2946039895
 51
246.3672795427
  0
ARC
  5
443
100
AcDbEntity
  8
ASSI
100
AcDbCircle
 62
250
  6
CONTINUOUS
 10
62.6387828742
 20
175.8229996312
 40
155.1026261922
100
AcDbArc
 50
242.0024732843
 51
246.0393524279
  0
ARC
  5
444
100
AcDbEntity
  8
ASSI
100
AcDbCircle
 62
250
  6
CONTINUOUS
 10
61.1703416655
 20
172.7707216953
 40
150.1178616986
100
AcDbArc
 50
242.3914551773
 51
246.5469822532
  0
ARC
  5
445
100
AcDbEntity
  8
ASSI
100
AcDbCircle
 62
250
  6
CONTINUOUS
 10
57.4784011847
 20
129.935762336
 40
144.0836207988
100
AcDbArc
 50
240.3121775648
 51
242.5630775486
  0
ARC
  5
446
100
AcDbEntity
  8
ASSI
100
AcDbCircle
 62
250
  6
CONTINUOUS
 10
54.6680227121
 20
160.4452427011
 40
137.782938438
100
AcDbArc
 50
240.163589912
 51
241.9272441377
  0
ARC
  5
447
100
AcDbEntity
  8
ASSI
100
AcDbCircle
 62
250
  6
CONTINUOUS
 10
53.3761643433
 20
157.5037189858
 40
132.9773094555
100
AcDbArc
 50
240.0228215074
 51
242.3188665708
  0
ARC
  5
448
100
AcDbEntity
  8
0
100
AcDbCircle
 62
7
  6
CONTINUOUS
 10
310.9064848234
 20
24.7952665541
 40
320.659426637
100
AcDbArc
 50
179.5881008717
 51
179.9590136343
  0
ARC
  5
449
100
AcDbEntity
  8
0
100
AcDbCircle
 62
7
  6
CONTINUOUS
 10
289.5668021483
 20
24.4985956943
 40
299.3201241863
100
AcDbArc
 50
179.8993029047
 51
184.2159093247
  0
ARC
  5
44A
100
AcDbEntity
  8
0
100
AcDbCircle
 62
7
  6
CONTINUOUS
 10
290.8350324899
 20
24.5720494111
 40
298.8903236077
100
AcDbArc
 50
179.5176497409
 51
184.2119609471
  0
ARC
  5
44B
100
AcDbEntity
  8
0
100
AcDbCircle
 62
7
  6
CONTINUOUS
 10
509.4006509843
 20
-140.2102657802
 40
538.8086144063
100
AcDbArc
 50
166.79037057
 51
166.9128108408
  0
ARC
  5
44C
100
AcDbEntity
  8
0
100
AcDbCircle
 62
7
  6
CONTINUOUS
 10
509.1140632138
 20
-140.0551994567
 40
538.4329389817
100
AcDbArc
 50
166.7940436939
 51
166.9165608035
  0
ARC
  5
44D
100
AcDbEntity
  8
0
100
AcDbCircle
 62
7
  6
CONTINUOUS
 10
472.6751271058
 20
-167.3696205122
 40
504.5166992361
100
AcDbArc
 50
163.0117620067
 51
163.2584271492
  0
ARC
  5
44E
100
AcDbEntity
  8
0
100
AcDbCircle
 62
7
  6
CONTINUOUS
 10
472.0740815051
 20
-167.1405183597
 40
503.8175831367
100
AcDbArc
 50
163.0105070702
 51
163.2575184558
  0
ARC
  5
44F
100
AcDbEntity
  8
0
100
AcDbCircle
 62
7
  6
CONTINUOUS
 10
404.8003194513
 20
-132.3783272003
 40
434.9329978461
100
AcDbArc
 50
164.6706116959
 51
164.9398067081
  0
ARC
  5
450
100
AcDbEntity
  8
0
100
AcDbCircle
 62
7
  6
CONTINUOUS
 10
706.3535188661
 20
106.8553945856
 40
732.5214335336
100
AcDbArc
 50
189.714417043
 51
189.8301019649
  0
ARC
  5
451
100
AcDbEntity
  8
0
100
AcDbCircle
 62
7
  6
CONTINUOUS
 10
592.6619999088
 20
125.6903018083
 40
618.8047001178
100
AcDbArc
 50
193.6639777459
 51
193.9157228925
  0
ARC
  5
452
100
AcDbEntity
  8
0
100
AcDbCircle
 62
7
  6
CONTINUOUS
 10
554.9975834874
 20
90.9887565436
 40
581.181778119
100
AcDbArc
 50
190.6480117954
 51
190.9214644236
  0
ARC
  5
453
100
AcDbEntity
  8
0
100
AcDbCircle
 62
7
  6
CONTINUOUS
 10
552.6927681433
 20
90.5236507922
 40
578.7536758913
100
AcDbArc
 50
190.6427488887
 51
190.9173518867
  0
ARC
  5
454
100
AcDbEntity
  8
RACCORDO
100
AcDbCircle
 62
250
  6
CONTINUOUS
 10
564.5814021573
 20
16.5741764784
 40
572.1442685453
100
AcDbArc
 50
178.8811400729
 51
179.3149980519
  0
ARC
  5
455
100
AcDbEntity
  8
ASSI
100
AcDbCircle
 62
250
  6
CONTINUOUS
 10
516.912153201
 20
15.4709178525
 40
516.3625727075
100
AcDbArc
 50
177.9933993656
 51
182.0066006304
  0
ARC
  5
456
100
AcDbEntity
  8
ASSI
100
AcDbCircle
 62
250
  6
CONTINUOUS
 10
499.0113132072
 20
22.845262758
 40
513.2123672877
100
AcDbArc
 50
177.9810773448
 51
182.0189226521
  0
ARC
  5
457
100
AcDbEntity
  8
ASSI
100
AcDbCircle
 62
250
  6
CONTINUOUS
 10
505.9210823743
 20
15.4776306279
 40
504.7052232004
100
AcDbArc
 50
177.9491419972
 51
182.050857973
  0
ARC
  5
458
100
AcDbEntity
  8
0
100
AcDbCircle
 62
7
  6
CONTINUOUS
 10
426.4652599601
 20
93.3706715206
 40
452.815065474
100
AcDbArc
 50
194.3397974933
 51
194.4650792971
  0
ARC
  5
459
100
AcDbEntity
  8
0
100
AcDbCircle
 62
7
  6
CONTINUOUS
 10
421.1287033995
 20
91.0932724907
 40
447.5006927401
100
AcDbArc
 50
194.194061753
 51
194.5401912978
  0
ARC
  5
45A
100
AcDbEntity
  8
0
100
AcDbCircle
 62
7
  6
CONTINUOUS
 10
420.1448819182
 20
90.8496243791
 40
446.4098725948
100
AcDbArc
 50
194.1925315672
 51
194.5395083444
  0
LINE
  5
45B
100
AcDbEntity
  8
RACCORDO
100
AcDbLine
 62
7
  6
CONTINUOUS
 10
18.1966053439
 20
42.445504733
 11
18.309395519
 21
42.3890429371
  0
SPLINE
  5
45C
100
AcDbEntity
  8
RACCORDO
100
AcDbSpline
 62
7
  6
CONTINUOUS
 70
0
 71
3
 72
11
 73
7
 74
0
 42
0.0000001
 43
0.0000001
 44
0.0000000001
 40
0.0
 40
0.0
 40
0.0
 40
0.0
 40
0.2790622737
 40
0.5354121262
 40
0.7731144998
 40
1.0
 40
1.0
 40
1.0
 40
1.0
 10
18.1029398488
 20
42.4391942766
 30
0.0
 10
18.1110218464
 20
42.4432352754
 30
0.0
 10
18.127184297
 20
42.4497912979
 30
0.0
 10
18.1519484908
 20
42.4545734393
 30
0.0
 10
18.1755096606
 20
42.4535394406
 30
0.0
 10
18.1900316439
 20
42.4487845571
 30
0.0
 10
18.1966053439
 20
42.445504733
 30
0.0
  0
SPLINE
  5
45D
100
AcDbEntity
  8
RACCORDO
100
AcDbSpline
 62
7
  6
CONTINUOUS
 70
0
 71
3
 72
15
 73
11
 74
0
 42
0.0000001
 43
0.0000001
 44
0.0000000001
 40
0.0
 40
0.0
 40
0.0
 40
0.0
 40
0.1239431405
 40
0.2528690727
 40
0.3845266169
 40
0.5164261195
 40
0.6460736386
 40
0.7711313758
 40
0.8895882584
 40
1.0
 40
1.0
 40
1.0
 40
1.0
 10
17.2639356641
 20
42.8957008844
 30
0.0
 10
17.137698318
 20
42.9313443266
 30
0.0
 10
16.8762808606
 20
42.990844556
 30
0.0
 10
16.4724833548
 20
43.0451418884
 30
0.0
 10
16.0571236417
 20
43.0656224258
 30
0.0
 10
15.6407387442
 20
43.0517856291
 30
0.0
 10
15.233885418
 20
43.0039682098
 30
0.0
 10
14.8467115109
 20
42.9231934153
 30
0.0
 10
14.4886503451
 20
42.8111437301
 30
0.0
 10
14.2663597643
 20
42.7130807428
 30
0.0
 10
14.1629979489
 20
42.6585760138
 30
0.0
  0
SPLINE
  5
45E
100
AcDbEntity
  8
RACCORDO
100
AcDbSpline
 62
250
  6
CONTINUOUS
 70
0
 71
3
 72
10
 73
6
 74
0
 42
0.0000001
 43
0.0000001
 44
0.0000000001
 40
0.0
 40
0.0
 40
0.0
 40
0.0
 40
0.4657640826
 40
0.724337405
 40
1.0
 40
1.0
 40
1.0
 40
1.0
 10
13.6464133727
 20
42.2560051886
 30
0.0
 10
13.7104529296
 20
42.3356886454
 30
0.0
 10
13.827690174
 20
42.4457969344
 30
0.0
 10
14.0075949453
 20
42.5716253202
 30
0.0
 10
14.1093556241
 20
42.6302834099
 30
0.0
 10
14.1628727669
 20
42.6585073943
 30
0.0
  0
SPLINE
  5
45F
100
AcDbEntity
  8
RACCORDO
100
AcDbSpline
 62
250
  6
CONTINUOUS
 70
0
 71
3
 72
9
 73
5
 74
0
 42
0.0000001
 43
0.0000001
 44
0.0000000001
 40
0.0
 40
0.0
 40
0.0
 40
0.0
 40
0.2553269455
 40
1.0
 40
1.0
 40
1.0
 40
1.0
 10
18.1029687447
 20
42.4392087246
 30
0.0
 10
18.1106959777
 20
42.4326965178
 30
0.0
 10
18.1406845179
 20
42.4068667655
 30
0.0
 10
18.1695578489
 20
42.3797362498
 30
0.0
 10
18.1903021179
 20
42.3588000507
 30
0.0
  0
LINE
  5
460
100
AcDbEntity
  8
RACCORDO
100
AcDbLine
 62
250
  6
CONTINUOUS
 10
18.1903021179
 20
42.3588000507
 11
18.1927515976
 21
42.3563208654
  0
SPLINE
  5
461
100
AcDbEntity
  8
RACCORDO
100
AcDbSpline
 62
250
  6
CONTINUOUS
 70
0
 71
3
 72
17
 73
13
 74
0
 42
0.0000001
 43
0.0000001
 44
0.0000000001
 40
0.0
 40
0.0
 40
0.0
 40
0.0
 40
0.0890902331
 40
0.1394982394
 40
0.1938210985
 40
0.2518917037
 40
0.3134075848
 40
0.4449787119
 40
0.5844323548
 40
0.7268367702
 40
0.8670152835
 40
1.0
 40
1.0
 40
1.0
 40
1.0
 10
13.7279205017
 20
42.2223695482
 30
0.0
 10
13.7920618551
 20
42.3136553142
 30
0.0
 10
13.9181307439
 20
42.4389499305
 30
0.0
 10
14.1168074252
 20
42.5784800114
 30
0.0
 10
14.2950225198
 20
42.6783202171
 30
0.0
 10
14.4938863104
 20
42.7676600689
 30
0.0
 10
14.7902262659
 20
42.873855478
 30
0.0
 10
15.1962624628
 20
42.9720307203
 30
0.0
 10
15.7114023664
 20
43.0333514167
 30
0.0
 10
16.2409887019
 20
43.0377490908
 30
0.0
 10
16.7597303914
 20
42.9850639092
 30
0.0
 10
17.0947789864
 20
42.9108334371
 30
0.0
 10
17.254438037
 20
42.8634715081
 30
0.0
  0
SPLINE
  5
462
100
AcDbEntity
  8
RACCORDO
100
AcDbSpline
 62
7
  6
CONTINUOUS
 70
0
 71
3
 72
9
 73
5
 74
0
 42
0.0000001
 43
0.0000001
 44
0.0000000001
 40
0.0
 40
0.0
 40
0.0
 40
0.0
 40
0.4665212439
 40
1.0
 40
1.0
 40
1.0
 40
1.0
 10
17.3360250365
 20
42.8745594088
 30
0.0
 10
17.3235475773
 20
42.8783543208
 30
0.0
 10
17.2945881465
 20
42.8796380504
 30
0.0
 10
17.2677508559
 20
42.8701279176
 30
0.0
 10
17.2544117114
 20
42.8634583453
 30
0.0
  0
SPLINE
  5
463
100
AcDbEntity
  8
0
100
AcDbSpline
 62
7
  6
CONTINUOUS
 70
0
 71
3
 72
13
 73
9
 74
0
 42
0.0000001
 43
0.0000001
 44
0.0000000001
 40
0.0
 40
0.0
 40
0.0
 40
0.0
 40
0.2478727188
 40
0.377166484
 40
0.5074316629
 40
0.6365108131
 40
0.762466722
 40
1.0
 40
1.0
 40
1.0
 40
1.0
 10
-9.744655743
 20
27.1004660254
 30
0.0
 10
-9.7419506914
 20
27.4771363248
 30
0.0
 10
-9.6464223628
 20
28.0520667387
 30
0.0
 10
-9.3821148082
 20
28.7774078592
 30
0.0
 10
-9.1139476558
 20
29.3053739125
 30
0.0
 10
-8.7864127643
 20
29.7928026496
 30
0.0
 10
-8.2935287506
 20
30.357127777
 30
0.0
 10
-7.8441120166
 20
30.6987588574
 30
0.0
 10
-7.5212527163
 20
30.8601885076
 30
0.0
  0
SPLINE
  5
464
100
AcDbEntity
  8
0
100
AcDbSpline
 62
7
  6
CONTINUOUS
 70
0
 71
3
 72
15
 73
11
 74
0
 42
0.0000001
 43
0.0000001
 44
0.0000000001
 40
0.0
 40
0.0
 40
0.0
 40
0.0
 40
0.1161668638
 40
0.245789278
 40
0.3832373433
 40
0.5231654829
 40
0.660319728
 40
0.789339664
 40
0.9045819751
 40
1.0
 40
1.0
 40
1.0
 40
1.0
 10
-8.044699579
 20
27.0882578181
 30
0.0
 10
-8.0439497047
 20
27.1926755573
 30
0.0
 10
-8.0235740624
 20
27.413634673
 30
0.0
 10
-7.945890635
 20
27.7501317026
 30
0.0
 10
-7.8202419203
 20
28.0946768441
 30
0.0
 10
-7.6521301319
 20
28.4281601456
 30
0.0
 10
-7.4502935908
 20
28.7333615989
 30
0.0
 10
-7.2267806566
 20
28.994644757
 30
0.0
 10
-6.9979888683
 20
29.1982754165
 30
0.0
 10
-6.8377043119
 20
29.3013049289
 30
0.0
 10
-6.760989604
 20
29.3396622829
 30
0.0
  0
SPLINE
  5
465
100
AcDbEntity
  8
0
100
AcDbSpline
 62
250
  6
CONTINUOUS
 70
0
 71
3
 72
17
 73
13
 74
0
 42
0.0000001
 43
0.0000001
 44
0.0000000001
 40
0.0
 40
0.0
 40
0.0
 40
0.0
 40
0.127013132
 40
0.268714683
 40
0.4172285417
 40
0.5634789239
 40
0.6987632109
 40
0.8165413435
 40
0.8681451811
 40
0.9151658783
 40
0.9585869884
 40
1.0
 40
1.0
 40
1.0
 40
1.0
 10
-8.6944689372
 20
2.1933032283
 30
0.0
 10
-8.6299553362
 20
2.1610464278
 30
0.0
 10
-8.4839075869
 20
2.1116471652
 30
0.0
 10
-8.2480024962
 20
2.0801057541
 30
0.0
 10
-7.9991615542
 20
2.0883889265
 30
0.0
 10
-7.7584172947
 20
2.1359102317
 30
0.0
 10
-7.5459524986
 20
2.2185704392
 30
0.0
 10
-7.4001169963
 20
2.3158557697
 30
0.0
 10
-7.3165333122
 20
2.4067344895
 30
0.0
 10
-7.2737882064
 20
2.4758336395
 30
0.0
 10
-7.2494448145
 20
2.5474058301
 30
0.0
 10
-7.2463361281
 20
2.5961772581
 30
0.0
 10
-7.2480664457
 20
2.6196311976
 30
0.0
  0
SPLINE
  5
466
100
AcDbEntity
  8
0
100
AcDbSpline
 62
250
  6
CONTINUOUS
 70
0
 71
3
 72
11
 73
7
 74
0
 42
0.0000001
 43
0.0000001
 44
0.0000000001
 40
0.0
 40
0.0
 40
0.0
 40
0.0
 40
0.2165955865
 40
0.4490807846
 40
0.7089085634
 40
1.0
 40
1.0
 40
1.0
 40
1.0
 10
-8.9433641837
 20
2.4940433298
 30
0.0
 10
-8.9412012497
 20
2.4647254034
 30
0.0
 10
-8.9259041611
 20
2.4043307405
 30
0.0
 10
-8.8733316407
 20
2.3221985751
 30
0.0
 10
-8.794297409
 20
2.24971797
 30
0.0
 10
-8.7298065127
 20
2.210972016
 30
0.0
 10
-8.6944689372
 20
2.1933032283
 30
0.0
  0
SPLINE
  5
467
100
AcDbEntity
  8
0
100
AcDbSpline
 62
250
  6
CONTINUOUS
 70
0
 71
3
 72
17
 73
13
 74
0
 42
0.0000001
 43
0.0000001
 44
0.0000000001
 40
0.0
 40
0.0
 40
0.0
 40
0.0
 40
0.1301199001
 40
0.2754415592
 40
0.4271604836
 40
0.5755320528
 40
0.7112894607
 40
0.8273749264
 40
0.877163574
 40
0.9216919786
 40
0.962034991
 40
1.0
 40
1.0
 40
1.0
 40
1.0
 10
-9.4956950101
 20
26.8003508729
 30
0.0
 10
-9.4320650966
 20
26.7685359161
 30
0.0
 10
-9.2891029668
 20
26.7175476375
 30
0.0
 10
-9.0583458784
 20
26.6767696186
 30
0.0
 10
-8.8140877795
 20
26.6695561031
 30
0.0
 10
-8.5764064143
 20
26.6965512584
 30
0.0
 10
-8.3647096055
 20
26.7554178961
 30
0.0
 10
-8.2159513677
 20
26.8310192146
 30
0.0
 10
-8.1276334179
 20
26.905545712
 30
0.0
 10
-8.0810071456
 20
26.9632325453
 30
0.0
 10
-8.051759597
 20
27.024495739
 30
0.0
 10
-8.0448773955
 20
27.0675019636
 30
0.0
 10
-8.0447302603
 20
27.0882580378
 30
0.0
  0
SPLINE
  5
468
100
AcDbEntity
  8
0
100
AcDbSpline
 62
250
  6
CONTINUOUS
 70
0
 71
3
 72
11
 73
7
 74
0
 42
0.0000001
 43
0.0000001
 44
0.0000000001
 40
0.0
 40
0.0
 40
0.0
 40
0.0
 40
0.205405359
 40
0.4328213906
 40
0.6964759217
 40
1.0
 40
1.0
 40
1.0
 40
1.0
 10
-9.7446250617
 20
27.1004658058
 30
0.0
 10
-9.7448235413
 20
27.0724666646
 30
0.0
 10
-9.7326907154
 20
27.0129139069
 30
0.0
 10
-9.6807615294
 20
26.9316123883
 30
0.0
 10
-9.5995645898
 20
26.8585398453
 30
0.0
 10
-9.5327018493
 20
26.8188542925
 30
0.0
 10
-9.4956950101
 20
26.8003508729
 30
0.0
  0
SPLINE
  5
469
100
AcDbEntity
  8
0
100
AcDbSpline
 62
250
  6
CONTINUOUS
 70
0
 71
3
 72
9
 73
5
 74
0
 42
0.0000001
 43
0.0000001
 44
0.0000000001
 40
0.0
 40
0.0
 40
0.0
 40
0.0
 40
0.2449932387
 40
1.0
 40
1.0
 40
1.0
 40
1.0
 10
-7.1411211601
 20
30.8360469885
 30
0.0
 10
-7.1358500953
 20
30.833411456
 30
0.0
 10
-7.1144764582
 20
30.8223721807
 30
0.0
 10
-7.0936692366
 20
30.810244202
 30
0.0
 10
-7.0782980027
 20
30.8005714149
 30
0.0
  0
SPLINE
  5
46A
100
AcDbEntity
  8
0
100
AcDbSpline
 62
250
  6
CONTINUOUS
 70
0
 71
3
 72
9
 73
5
 74
0
 42
0.0000001
 43
0.0000001
 44
0.0000000001
 40
0.0
 40
0.0
 40
0.0
 40
0.0
 40
0.2428304844
 40
1.0
 40
1.0
 40
1.0
 40
1.0
 10
-7.0663348148
 20
30.7928954657
 30
0.0
 10
-7.0568309909
 20
30.7866799299
 30
0.0
 10
-7.0182252868
 20
30.7602750652
 30
0.0
 10
-6.9817412917
 20
30.7308033294
 30
0.0
 10
-6.9553893497
 20
30.7071527281
 30
0.0
  0
SPLINE
  5
46B
100
AcDbEntity
  8
0
100
AcDbSpline
 62
250
  6
CONTINUOUS
 70
0
 71
3
 72
15
 73
11
 74
0
 42
0.0000001
 43
0.0000001
 44
0.0000000001
 40
0.0
 40
0.0
 40
0.0
 40
0.0
 40
0.1372372915
 40
0.2815772862
 40
0.4268051948
 40
0.5665247174
 40
0.6952564148
 40
0.8095607446
 40
0.9094834782
 40
1.0
 40
1.0
 40
1.0
 40
1.0
 10
-6.9553893497
 20
30.7071527281
 30
0.0
 10
-6.9023374784
 20
30.6595392102
 30
0.0
 10
-6.8034467656
 20
30.5504285163
 30
0.0
 10
-6.6840729039
 20
30.3625348845
 30
0.0
 10
-6.5957941935
 20
30.1566791038
 30
0.0
 10
-6.5447330665
 20
29.9468390647
 30
0.0
 10
-6.5343660562
 20
29.7469070045
 30
0.0
 10
-6.5661260257
 20
29.5696015501
 30
0.0
 10
-6.6400369777
 20
29.426130808
 30
0.0
 10
-6.7189543954
 20
29.3607247668
 30
0.0
 10
-6.7609958371
 20
29.3396747427
 30
0.0
  0
SPLINE
  5
46C
100
AcDbEntity
  8
0
100
AcDbSpline
 62
250
  6
CONTINUOUS
 70
0
 71
3
 72
11
 73
7
 74
0
 42
0.0000001
 43
0.0000001
 44
0.0000000001
 40
0.0
 40
0.0
 40
0.0
 40
0.0
 40
0.2280078406
 40
0.466027715
 40
0.7221274826
 40
1.0
 40
1.0
 40
1.0
 40
1.0
 10
-7.5212464831
 20
30.8601760478
 30
0.0
 10
-7.4953410697
 20
30.8731468108
 30
0.0
 10
-7.4384226158
 20
30.8923459887
 30
0.0
 10
-7.3459366874
 20
30.8980829927
 30
0.0
 10
-7.2485481603
 20
30.88129764
 30
0.0
 10
-7.1847751152
 20
30.8569553168
 30
0.0
 10
-7.1528913828
 20
30.8417888599
 30
0.0
  0
SPLINE
  5
46D
100
AcDbEntity
  8
RACCORDO
100
AcDbSpline
 62
250
  6
CONTINUOUS
 70
0
 71
3
 72
8
 73
4
 74
0
 42
0.0000001
 43
0.0000001
 44
0.0000000001
 40
0.0
 40
0.0
 40
0.0
 40
0.0
 40
1.0
 40
1.0
 40
1.0
 40
1.0
 10
4.0479659811
 20
-38.2981116625
 30
0.0
 10
4.0484051676
 20
-32.5246120248
 30
0.0
 10
4.0484051959
 20
-26.7511123371
 30
0.0
 10
4.0479659811
 20
-20.9776126994
 30
0.0
  0
SPLINE
  5
46E
100
AcDbEntity
  8
0
100
AcDbSpline
 62
7
  6
CONTINUOUS
 70
0
 71
3
 72
12
 73
8
 74
0
 42
0.0000001
 43
0.0000001
 44
0.0000000001
 40
0.0
 40
0.0
 40
0.0
 40
0.0
 40
0.1152643608
 40
0.2318765701
 40
0.4721683948
 40
0.7269260874
 40
1.0
 40
1.0
 40
1.0
 40
1.0
 10
-13.2902387395
 20
-5.087435691
 30
0.0
 10
-13.1127170599
 20
-5.0100708588
 30
0.0
 10
-12.7462941351
 20
-4.8748354431
 30
0.0
 10
-11.9746342373
 20
-4.6852063324
 30
0.0
 10
-10.9415128601
 20
-4.6076978945
 30
0.0
 10
-9.6540563163
 20
-4.7678245231
 30
0.0
 10
-8.8017561989
 20
-5.0285532218
 30
0.0
 10
-8.3738582529
 20
-5.1940063625
 30
0.0
  0
SPLINE
  5
46F
100
AcDbEntity
  8
DRAFT
100
AcDbSpline
 62
7
  6
CONTINUOUS
 70
0
 71
3
 72
14
 73
10
 74
0
 42
0.0000001
 43
0.0000001
 44
0.0000000001
 40
0.0
 40
0.0
 40
0.0
 40
0.0
 40
0.2861326141
 40
0.4189966692
 40
0.5451963768
 40
0.6652917834
 40
0.7802162388
 40
0.8912563254
 40
1.0
 40
1.0
 40
1.0
 40
1.0
 10
2.0403556913
 20
-39.9216457885
 30
0.0
 10
2.0109771677
 20
-40.6588009487
 30
0.0
 10
1.8798071547
 20
-41.7399102553
 30
0.0
 10
1.4911861917
 20
-43.0932055664
 30
0.0
 10
1.1142403908
 20
-43.9978974685
 30
0.0
 10
0.6480277204
 20
-44.8073338555
 30
0.0
 10
0.096630562
 20
-45.5129583353
 30
0.0
 10
-0.5344016584
 20
-46.1066010162
 30
0.0
 10
-1.0068616487
 20
-46.4249260232
 30
0.0
 10
-1.2516152638
 20
-46.5616963863
 30
0.0
  0
LINE
  5
470
100
AcDbEntity
  8
DRAFT
100
AcDbLine
 62
7
  6
CONTINUOUS
 10
-1.2516152638
 20
-46.5616963863
 11
-1.2594370573
 21
-46.5660581983
  0
SPLINE
  5
471
100
AcDbEntity
  8
RACCORDO
100
AcDbSpline
 62
250
  6
CONTINUOUS
 70
0
 71
3
 72
15
 73
11
 74
0
 42
0.0000001
 43
0.0000001
 44
0.0000000001
 40
0.0
 40
0.0
 40
0.0
 40
0.0
 40
0.1075486068
 40
0.2175970356
 40
0.3318723163
 40
0.4517317112
 40
0.5781238506
 40
0.7115842896
 40
0.8522666706
 40
1.0
 40
1.0
 40
1.0
 40
1.0
 10
0.7532770699
 20
-45.4460153027
 30
0.0
 10
1.011686581
 20
-45.302496327
 30
0.0
 10
1.5098139022
 20
-44.9651177197
 30
0.0
 10
2.1695735008
 20
-44.3295005799
 30
0.0
 10
2.7393888583
 20
-43.5696640749
 30
0.0
 10
3.2128439843
 20
-42.6955650312
 30
0.0
 10
3.5853172883
 20
-41.7177661312
 30
0.0
 10
3.8532184928
 20
-40.6476204304
 30
0.0
 10
4.0139405493
 20
-39.4974032578
 30
0.0
 10
4.0479363658
 20
-38.7041459846
 30
0.0
 10
4.0479659812
 20
-38.2981116624
 30
0.0
  0
SPLINE
  5
472
100
AcDbEntity
  8
RACCORDO
100
AcDbSpline
 62
250
  6
CONTINUOUS
 70
0
 71
3
 72
19
 73
15
 74
0
 42
0.0000001
 43
0.0000001
 44
0.0000000001
 40
0.0
 40
0.0
 40
0.0
 40
0.0
 40
0.1219527569
 40
0.2517053914
 40
0.3859876969
 40
0.5210436514
 40
0.6530521332
 40
0.7784800159
 40
0.8378488877
 40
0.8945883941
 40
0.9219289117
 40
0.9486247135
 40
0.9746614682
 40
1.0
 40
1.0
 40
1.0
 40
1.0
 10
4.0479659813
 20
-20.9776126993
 30
0.0
 10
4.0479030957
 20
-20.1178951813
 30
0.0
 10
3.8878917763
 20
-18.3414652241
 30
0.0
 10
3.2432994934
 20
-15.6893593203
 30
0.0
 10
2.2141178175
 20
-13.062019917
 30
0.0
 10
0.8462859845
 20
-10.5761455215
 30
0.0
 10
-0.7984149635
 20
-8.3411265591
 30
0.0
 10
-2.3682573459
 20
-6.739295424
 30
0.0
 10
-3.7010134859
 20
-5.6767502858
 30
0.0
 10
-4.5454446892
 20
-5.1174472069
 30
0.0
 10
-5.2263369277
 20
-4.7344406279
 30
0.0
 10
-5.7330940179
 20
-4.4850578152
 30
0.0
 10
-6.2399638766
 20
-4.2699285023
 30
0.0
 10
-6.5809963574
 20
-4.1472815117
 30
0.0
 10
-6.7508460155
 20
-4.0919780032
 30
0.0
  0
SPLINE
  5
473
100
AcDbEntity
  8
RACCORDO
100
AcDbSpline
 62
250
  6
CONTINUOUS
 70
0
 71
3
 72
9
 73
5
 74
0
 42
0.0000001
 43
0.0000001
 44
0.0000000001
 40
0.0
 40
0.0
 40
0.0
 40
0.0
 40
0.5110731414
 40
1.0
 40
1.0
 40
1.0
 40
1.0
 10
-8.4821020038
 20
-3.733362264
 30
0.0
 10
-8.8614417254
 20
-3.7018650892
 30
0.0
 10
-9.6110223642
 20
-3.7039191616
 30
0.0
 10
-10.3467345347
 20
-3.8536774953
 30
0.0
 10
-10.6937694798
 20
-3.9640062835
 30
0.0
  0
SPLINE
  5
474
100
AcDbEntity
  8
RACCORDO
100
AcDbSpline
 62
250
  6
CONTINUOUS
 70
0
 71
3
 72
11
 73
7
 74
0
 42
0.0000001
 43
0.0000001
 44
0.0000000001
 40
0.0
 40
0.0
 40
0.0
 40
0.0
 40
0.2999014941
 40
0.5622437283
 40
0.7911196877
 40
1.0
 40
1.0
 40
1.0
 40
1.0
 10
4.0479659595
 20
-20.9776078117
 30
0.0
 10
4.0799743484
 20
-20.9604445834
 30
0.0
 10
4.1378164998
 20
-20.9237931429
 30
0.0
 10
4.2077508919
 20
-20.8571258376
 30
0.0
 10
4.2523010622
 20
-20.7834991418
 30
0.0
 10
4.2628745245
 20
-20.7300971733
 30
0.0
 10
4.2628732878
 20
-20.7048007023
 30
0.0
  0
SPLINE
  5
475
100
AcDbEntity
  8
RACCORDO
100
AcDbSpline
 62
250
  6
CONTINUOUS
 70
0
 71
3
 72
11
 73
7
 74
0
 42
0.0000001
 43
0.0000001
 44
0.0000000001
 40
0.0
 40
0.0
 40
0.0
 40
0.0
 40
0.2998993353
 40
0.5622399433
 40
0.7911161866
 40
1.0
 40
1.0
 40
1.0
 40
1.0
 10
4.0479659809
 20
-38.2981158973
 30
0.0
 10
4.0799725969
 20
-38.2809553989
 30
0.0
 10
4.1378119509
 20
-38.2443096102
 30
0.0
 10
4.2077446711
 20
-38.1776512066
 30
0.0
 10
4.2522960721
 20
-38.1040321691
 30
0.0
 10
4.2628724984
 20
-38.0506343944
 30
0.0
 10
4.2628733201
 20
-38.0253393041
 30
0.0
  0
SPLINE
  5
476
100
AcDbEntity
  8
0
100
AcDbSpline
 62
7
  6
CONTINUOUS
 70
0
 71
3
 72
12
 73
8
 74
0
 42
0.0000001
 43
0.0000001
 44
0.0000000001
 40
0.0
 40
0.0
 40
0.0
 40
0.0
 40
0.2730738688
 40
0.5278315771
 40
0.7681234313
 40
0.8847356467
 40
1.0
 40
1.0
 40
1.0
 40
1.0
 10
-8.3738582498
 20
-5.1940063534
 30
0.0
 10
-8.8017550271
 20
-5.0285536673
 30
0.0
 10
-9.6540528317
 20
-4.7678255036
 30
0.0
 10
-10.9415058954
 20
-4.6076983193
 30
0.0
 10
-11.9746247576
 20
-4.6852050536
 30
0.0
 10
-12.7462830861
 20
-4.8748321376
 30
0.0
 10
-13.1127053895
 20
-5.0100663092
 30
0.0
 10
-13.2902267985
 20
-5.0874304836
 30
0.0
  0
SPLINE
  5
477
100
AcDbEntity
  8
0
100
AcDbSpline
 62
7
  6
CONTINUOUS
 70
0
 71
3
 72
15
 73
11
 74
0
 42
0.0000001
 43
0.0000001
 44
0.0000000001
 40
0.0
 40
0.0
 40
0.0
 40
0.0
 40
0.118998882
 40
0.2450424726
 40
0.3757118508
 40
0.5081938905
 40
0.6395385284
 40
0.7668835572
 40
0.8876864505
 40
1.0
 40
1.0
 40
1.0
 40
1.0
 10
2.0512669953
 20
-22.0482065793
 30
0.0
 10
2.0512669953
 20
-21.2838994954
 30
0.0
 10
1.9260462828
 20
-19.7085147536
 30
0.0
 10
1.4148543928
 20
-17.3440507908
 30
0.0
 10
0.5921446241
 20
-14.9772797704
 30
0.0
 10
-0.5134180312
 20
-12.6912353757
 30
0.0
 10
-1.8631474214
 20
-10.5654023971
 30
0.0
 10
-3.4104755326
 20
-8.6737828847
 30
0.0
 10
-5.1012748753
 20
-7.0824592868
 30
0.0
 10
-6.3371364377
 20
-6.2234601624
 30
0.0
 10
-6.9643444648
 20
-5.8671140371
 30
0.0
  0
LINE
  5
478
100
AcDbEntity
  8
0
100
AcDbLine
 62
7
  6
CONTINUOUS
 10
-7.1557575411
 20
-21.0871689396
 11
-7.1558204429
 21
-21.5351013346
  0
SPLINE
  5
479
100
AcDbEntity
  8
0
100
AcDbSpline
 62
7
  6
CONTINUOUS
 70
0
 71
3
 72
10
 73
6
 74
0
 42
0.0000001
 43
0.0000001
 44
0.0000000001
 40
0.0
 40
0.0
 40
0.0
 40
0.0
 40
0.2701381154
 40
0.5286672148
 40
1.0
 40
1.0
 40
1.0
 40
1.0
 10
-6.7747854976
 20
-21.6819525809
 30
0.0
 10
-6.742919244
 20
-21.6933330007
 30
0.0
 10
-6.6792645369
 20
-21.7127066674
 30
0.0
 10
-6.5564956312
 20
-21.7344575628
 30
0.0
 10
-6.4593817961
 20
-21.7265545401
 30
0.0
 10
-6.4065892722
 20
-21.7001243157
 30
0.0
  0
LINE
  5
47A
100
AcDbEntity
  8
0
100
AcDbLine
 62
7
  6
CONTINUOUS
 10
-7.1338838683
 20
-22.1109745242
 11
-7.1340308389
 21
-23.4665407352
  0
SPLINE
  5
47B
100
AcDbEntity
  8
0
100
AcDbSpline
 62
7
  6
CONTINUOUS
 70
0
 71
3
 72
9
 73
5
 74
0
 42
0.0000001
 43
0.0000001
 44
0.0000000001
 40
0.0
 40
0.0
 40
0.0
 40
0.0
 40
0.5002183705
 40
1.0
 40
1.0
 40
1.0
 40
1.0
 10
-5.6799776541
 20
-23.0721656213
 30
0.0
 10
-5.6396775935
 20
-23.2422342675
 30
0.0
 10
-5.5613229957
 20
-23.5827419205
 30
0.0
 10
-5.4847753236
 20
-23.9236681198
 30
0.0
 10
-5.4443796828
 20
-24.093557239
 30
0.0
  0
SPLINE
  5
47C
100
AcDbEntity
  8
0
100
AcDbSpline
 62
7
  6
CONTINUOUS
 70
0
 71
3
 72
11
 73
7
 74
0
 42
0.0000001
 43
0.0000001
 44
0.0000000001
 40
0.0
 40
0.0
 40
0.0
 40
0.0
 40
0.2558754253
 40
0.5101854101
 40
0.7577594137
 40
1.0
 40
1.0
 40
1.0
 40
1.0
 10
-6.0402988396
 20
-22.2788943801
 30
0.0
 10
-5.9848796325
 20
-22.3299084076
 30
0.0
 10
-5.8923724998
 20
-22.451270948
 30
0.0
 10
-5.7966373537
 20
-22.6534517183
 30
0.0
 10
-5.7284503469
 20
-22.8621359377
 30
0.0
 10
-5.6964202566
 20
-23.0027768637
 30
0.0
 10
-5.6799776541
 20
-23.0721656213
 30
0.0
  0
LINE
  5
47D
100
AcDbEntity
  8
0
100
AcDbLine
 62
7
  6
CONTINUOUS
 10
-6.0744619301
 20
-22.2292316906
 11
-6.0744655895
 21
-22.2497008449
  0
SPLINE
  5
47E
100
AcDbEntity
  8
0
100
AcDbSpline
 62
7
  6
CONTINUOUS
 70
0
 71
3
 72
12
 73
8
 74
0
 42
0.0000001
 43
0.0000001
 44
0.0000000001
 40
0.0
 40
0.0
 40
0.0
 40
0.0
 40
0.2704862044
 40
0.5241920208
 40
0.7649556507
 40
0.8826561557
 40
1.0
 40
1.0
 40
1.0
 40
1.0
 10
-5.615844037
 20
-21.6615965401
 30
0.0
 10
-5.6217323168
 20
-21.7174970504
 30
0.0
 10
-5.6420606813
 20
-21.8253709305
 30
0.0
 10
-5.7047640418
 20
-21.9727182976
 30
0.0
 10
-5.7814769536
 20
-22.0763985559
 30
0.0
 10
-5.8574429803
 20
-22.1402784899
 30
0.0
 10
-5.8989824847
 20
-22.166211316
 30
0.0
 10
-5.9201970863
 20
-22.178235485
 30
0.0
  0
SPLINE
  5
47F
100
AcDbEntity
  8
0
100
AcDbSpline
 62
7
  6
CONTINUOUS
 70
0
 71
3
 72
9
 73
5
 74
0
 42
0.0000001
 43
0.0000001
 44
0.0000000001
 40
0.0
 40
0.0
 40
0.0
 40
0.0
 40
0.5004326033
 40
1.0
 40
1.0
 40
1.0
 40
1.0
 10
-5.9201970863
 20
-22.178235485
 30
0.0
 10
-5.9299257355
 20
-22.1837495609
 30
0.0
 10
-5.9495706491
 20
-22.1943993793
 30
0.0
 10
-5.9691757938
 20
-22.2051325611
 30
0.0
 10
-5.9791362268
 20
-22.2101733337
 30
0.0
  0
LINE
  5
480
100
AcDbEntity
  8
0
100
AcDbLine
 62
7
  6
CONTINUOUS
 10
-15.1942023741
 20
-19.3680876109
 11
-15.2079534378
 21
-19.4192076731
  0
LINE
  5
481
100
AcDbEntity
  8
0
100
AcDbLine
 62
7
  6
CONTINUOUS
 10
-13.6616882295
 20
-17.9938784633
 11
-13.6617933675
 21
-20.3645915707
  0
LINE
  5
482
100
AcDbEntity
  8
0
100
AcDbLine
 62
7
  6
CONTINUOUS
 10
-12.7101372419
 20
-18.6369893051
 11
-12.8297813311
 21
-20.7930264563
  0
LINE
  5
483
100
AcDbEntity
  8
0
100
AcDbLine
 62
7
  6
CONTINUOUS
 10
-12.8297813311
 20
-20.7930264563
 11
-12.8319518819
 21
-20.8322199938
  0
LINE
  5
484
100
AcDbEntity
  8
0
100
AcDbLine
 62
7
  6
CONTINUOUS
 10
-11.9344527561
 20
-21.232934496
 11
-11.9385099022
 21
-21.2440825593
  0
LINE
  5
485
100
AcDbEntity
  8
0
100
AcDbLine
 62
7
  6
CONTINUOUS
 10
-11.9385099022
 20
-21.2440825593
 11
-11.9581372783
 21
-21.2980306647
  0
SPLINE
  5
486
100
AcDbEntity
  8
0
100
AcDbSpline
 62
7
  6
CONTINUOUS
 70
0
 71
3
 72
8
 73
4
 74
0
 42
0.0000001
 43
0.0000001
 44
0.0000000001
 40
0.0
 40
0.0
 40
0.0
 40
0.0
 40
1.0
 40
1.0
 40
1.0
 40
1.0
 10
-10.7372960975
 20
-19.5366370259
 30
0.0
 10
-10.6757683869
 20
-20.3563540917
 30
0.0
 10
-10.6140666775
 20
-21.1760581158
 30
0.0
 10
-10.5521907741
 20
-21.995748972
 30
0.0
  0
LINE
  5
487
100
AcDbEntity
  8
0
100
AcDbLine
 62
7
  6
CONTINUOUS
 10
-9.6803112978
 20
-21.7078551774
 11
-9.8318488852
 21
-22.2522049903
  0
LINE
  5
488
100
AcDbEntity
  8
0
100
AcDbLine
 62
7
  6
CONTINUOUS
 10
-9.8318488852
 20
-22.2522049903
 11
-9.8512049111
 21
-22.3218808626
  0
SPLINE
  5
489
100
AcDbEntity
  8
0
100
AcDbSpline
 62
7
  6
CONTINUOUS
 70
0
 71
3
 72
8
 73
4
 74
0
 42
0.0000001
 43
0.0000001
 44
0.0000000001
 40
0.0
 40
0.0
 40
0.0
 40
0.0
 40
1.0
 40
1.0
 40
1.0
 40
1.0
 10
-9.2758790849
 20
-20.2088351996
 30
0.0
 10
-9.3685719202
 20
-20.549124966
 30
0.0
 10
-9.4609752071
 20
-20.8894937353
 30
0.0
 10
-9.5530893784
 20
-21.2299405978
 30
0.0
  0
LINE
  5
48A
100
AcDbEntity
  8
0
100
AcDbLine
 62
7
  6
CONTINUOUS
 10
-9.520164605
 20
-18.9958212203
 11
-9.4530844672
 21
-19.0257398769
  0
LINE
  5
48B
100
AcDbEntity
  8
0
100
AcDbLine
 62
7
  6
CONTINUOUS
 10
-11.398965382
 20
-18.1069241941
 11
-11.3340798621
 21
-18.1393568312
  0
LINE
  5
48C
100
AcDbEntity
  8
0
100
AcDbLine
 62
7
  6
CONTINUOUS
 10
-13.1132461531
 20
-17.1997921484
 11
-13.0512934181
 21
-17.2343585761
  0
LINE
  5
48D
100
AcDbEntity
  8
0
100
AcDbLine
 62
7
  6
CONTINUOUS
 10
-14.190714419
 20
-16.5748336237
 11
-14.1311146431
 21
-16.610604369
  0
LINE
  5
48E
100
AcDbEntity
  8
0
100
AcDbLine
 62
7
  6
CONTINUOUS
 10
-14.9149709207
 20
-16.1281674381
 11
-14.8570911033
 21
-16.1647342211
  0
LINE
  5
48F
100
AcDbEntity
  8
0
100
AcDbLine
 62
7
  6
CONTINUOUS
 10
-16.3992784036
 20
-15.1344037303
 11
-16.3403262359
 21
-15.1760815655
  0
SPLINE
  5
490
100
AcDbEntity
  8
0
100
AcDbSpline
 62
7
  6
CONTINUOUS
 70
0
 71
3
 72
15
 73
11
 74
0
 42
0.0000001
 43
0.0000001
 44
0.0000000001
 40
0.0
 40
0.0
 40
0.0
 40
0.0
 40
0.1274364865
 40
0.2579738241
 40
0.3893361687
 40
0.5195958335
 40
0.6468998077
 40
0.7696797198
 40
0.887540365
 40
1.0
 40
1.0
 40
1.0
 40
1.0
 10
-6.1334648092
 20
-20.4484048895
 30
0.0
 10
-6.087126066
 20
-20.4836952768
 30
0.0
 10
-6.0012647964
 20
-20.5654843467
 30
0.0
 10
-5.8880240767
 20
-20.7030851424
 30
0.0
 10
-5.7903792452
 20
-20.8539292409
 30
0.0
 10
-5.7121449672
 20
-21.0140178771
 30
0.0
 10
-5.6550180004
 20
-21.1786912839
 30
0.0
 10
-5.620641797
 20
-21.3437799039
 30
0.0
 10
-5.6069220597
 20
-21.5049222271
 30
0.0
 10
-5.6104594601
 20
-21.6104779431
 30
0.0
 10
-5.615844037
 20
-21.6615965401
 30
0.0
  0
SPLINE
  5
491
100
AcDbEntity
  8
0
100
AcDbSpline
 62
7
  6
CONTINUOUS
 70
0
 71
3
 72
13
 73
9
 74
0
 42
0.0000001
 43
0.0000001
 44
0.0000000001
 40
0.0
 40
0.0
 40
0.0
 40
0.0
 40
0.2356770587
 40
0.4789495254
 40
0.6042583453
 40
0.7323851038
 40
0.8639791166
 40
1.0
 40
1.0
 40
1.0
 40
1.0
 10
-7.7106731898
 20
-19.793571662
 30
0.0
 10
-7.579487947
 20
-19.8255619701
 30
0.0
 10
-7.3139300868
 20
-19.8951047886
 30
0.0
 10
-6.9849985866
 20
-20.0043853642
 30
0.0
 10
-6.7215372712
 20
-20.1122396258
 30
0.0
 10
-6.5216741206
 20
-20.2058770725
 30
0.0
 10
-6.3227235548
 20
-20.3150548139
 30
0.0
 10
-6.1954471786
 20
-20.4011649936
 30
0.0
 10
-6.1334648092
 20
-20.4484048895
 30
0.0
  0
LINE
  5
492
100
AcDbEntity
  8
0
100
AcDbLine
 62
7
  6
CONTINUOUS
 10
-9.2701522875
 20
-20.1878305808
 11
-9.2758790849
 21
-20.2088351996
  0
LINE
  5
493
100
AcDbEntity
  8
DRAFT
100
AcDbLine
 62
7
  6
CONTINUOUS
 10
-1.2594323622
 20
-46.5660555856
 11
-1.2434122637
 21
-46.5571024844
  0
SPLINE
  5
494
100
AcDbEntity
  8
DRAFT
100
AcDbSpline
 62
7
  6
CONTINUOUS
 70
0
 71
3
 72
15
 73
11
 74
0
 42
0.0000001
 43
0.0000001
 44
0.0000000001
 40
0.0
 40
0.0
 40
0.0
 40
0.0
 40
0.1074850302
 40
0.2174907602
 40
0.3317420444
 40
0.4516016022
 40
0.5780144931
 40
0.7114966541
 40
0.8522395158
 40
1.0
 40
1.0
 40
1.0
 40
1.0
 10
-1.2434122637
 20
-46.5571024844
 30
0.0
 10
-0.9847041674
 20
-46.4119033508
 30
0.0
 10
-0.48617807
 20
-46.0711249626
 30
0.0
 10
0.1736825717
 20
-45.4305756107
 30
0.0
 10
0.7433647125
 20
-44.6658750288
 30
0.0
 10
1.2166157269
 20
-43.786911654
 30
0.0
 10
1.5888577855
 20
-42.8041757129
 30
0.0
 10
1.8566520091
 20
-41.7289073802
 30
0.0
 10
2.0172864899
 20
-40.5734116309
 30
0.0
 10
2.0512669953
 20
-39.7765481723
 30
0.0
 10
2.0512669953
 20
-39.368714655
 30
0.0
  0
SPLINE
  5
495
100
AcDbEntity
  8
0
100
AcDbSpline
 62
7
  6
CONTINUOUS
 70
0
 71
3
 72
8
 73
4
 74
0
 42
0.0000001
 43
0.0000001
 44
0.0000000001
 40
0.0
 40
0.0
 40
0.0
 40
0.0
 40
1.0
 40
1.0
 40
1.0
 40
1.0
 10
-13.3657659025
 20
-20.5343721317
 30
0.0
 10
-13.3111827314
 20
-19.7750316185
 30
0.0
 10
-13.2564464842
 20
-19.0157020932
 30
0.0
 10
-13.2015572632
 20
-18.2563836416
 30
0.0
  0
SPLINE
  5
496
100
AcDbEntity
  8
RACCORDO
100
AcDbSpline
 62
250
  6
CONTINUOUS
 70
0
 71
3
 72
10
 73
6
 74
0
 42
0.0000001
 43
0.0000001
 44
0.0000000001
 40
0.0
 40
0.0
 40
0.0
 40
0.0
 40
0.2274273036
 40
0.4653410701
 40
1.0
 40
1.0
 40
1.0
 40
1.0
 10
-19.2522223891
 20
-13.8456602455
 30
0.0
 10
-19.2522213466
 20
-13.8624575247
 30
0.0
 10
-19.2478123187
 20
-13.8969791829
 30
0.0
 10
-19.2207607747
 20
-13.9663062503
 30
0.0
 10
-19.1829528126
 20
-14.0112897396
 30
0.0
 10
-19.1537815166
 20
-14.0379054357
 30
0.0
  0
SPLINE
  5
497
100
AcDbEntity
  8
RACCORDO
100
AcDbSpline
 62
250
  6
CONTINUOUS
 70
0
 71
3
 72
34
 73
30
 74
0
 42
0.0000001
 43
0.0000001
 44
0.0000000001
 40
0.0
 40
0.0
 40
0.0
 40
0.0
 40
0.0163916935
 40
0.0324361709
 40
0.0634527401
 40
0.0930113546
 40
0.1211212068
 40
0.1732529469
 40
0.1977431378
 40
0.221508798
 40
0.244902349
 40
0.2683025239
 40
0.2920881273
 40
0.3166152737
 40
0.3421880311
 40
0.3689884332
 40
0.4265730403
 40
0.4897599253
 40
0.5234217464
 40
0.5583126163
 40
0.6311224865
 40
0.7066204565
 40
0.7830084961
 40
0.8584577896
 40
0.895304384
 40
0.9312887941
 40
0.9662368434
 40
0.9832785628
 40
1.0
 40
1.0
 40
1.0
 40
1.0
 10
-3.2689236995
 20
-39.7665600998
 30
0.0
 10
-3.2682409369
 20
-39.9112691698
 30
0.0
 10
-3.2746028724
 20
-40.1976780274
 30
0.0
 10
-3.3087490738
 20
-40.7569145896
 30
0.0
 10
-3.3931494075
 20
-41.4289972835
 30
0.0
 10
-3.5635994087
 20
-42.1946475108
 30
0.0
 10
-3.8715554637
 20
-43.1148220715
 30
0.0
 10
-4.3144359589
 20
-43.940228487
 30
0.0
 10
-4.8917240294
 20
-44.6163912973
 30
0.0
 10
-5.3723434321
 20
-45.0316671752
 30
0.0
 10
-5.9046909792
 20
-45.3602743584
 30
0.0
 10
-6.4830381088
 20
-45.5992284665
 30
0.0
 10
-7.1014524036
 20
-45.7462593042
 30
0.0
 10
-7.7539519322
 20
-45.7994901531
 30
0.0
 10
-8.4336646404
 20
-45.7575414184
 30
0.0
 10
-9.3892713222
 20
-45.5749268903
 30
0.0
 10
-10.6158482834
 20
-45.102526529
 30
0.0
 10
-11.7706770142
 20
-44.3640930115
 30
0.0
 10
-12.6718532787
 20
-43.6277105534
 30
0.0
 10
-13.5787981385
 20
-42.7689133503
 30
0.0
 10
-14.6336992606
 20
-41.5363632747
 30
0.0
 10
-15.7321703275
 20
-39.8790667067
 30
0.0
 10
-16.6365932532
 20
-38.082219653
 30
0.0
 10
-17.2041607911
 20
-36.5112400618
 30
0.0
 10
-17.5297096367
 20
-35.2424830941
 30
0.0
 10
-17.7048219915
 20
-34.306492298
 30
0.0
 10
-17.7942617247
 20
-33.5342432128
 30
0.0
 10
-17.8300543912
 20
-32.928596647
 30
0.0
 10
-17.8366830053
 20
-32.6304897329
 30
0.0
 10
-17.8363069849
 20
-32.4828684576
 30
0.0
  0
SPLINE
  5
498
100
AcDbEntity
  8
RACCORDO
100
AcDbSpline
 62
250
  6
CONTINUOUS
 70
0
 71
3
 72
10
 73
6
 74
0
 42
0.0000001
 43
0.0000001
 44
0.0000000001
 40
0.0
 40
0.0
 40
0.0
 40
0.0
 40
0.2274340592
 40
0.4653500034
 40
1.0
 40
1.0
 40
1.0
 40
1.0
 10
-19.2522224202
 20
-31.1661939651
 30
0.0
 10
-19.2522204193
 20
-31.1829899961
 30
0.0
 10
-19.2478100543
 20
-31.2175084838
 30
0.0
 10
-19.2207580128
 20
-31.2868270614
 30
0.0
 10
-19.1829514392
 20
-31.3318033642
 30
0.0
 10
-19.1537815389
 20
-31.3584135173
 30
0.0
  0
LINE
  5
499
100
AcDbEntity
  8
0
100
AcDbLine
 62
7
  6
CONTINUOUS
 10
-11.1392457724
 20
-21.7117752919
 11
-11.2612213885
 21
-19.3991885943
  0
SPLINE
  5
49A
100
AcDbEntity
  8
RACCORDO
100
AcDbSpline
 62
250
  6
CONTINUOUS
 70
0
 71
3
 72
33
 73
29
 74
0
 42
0.0000001
 43
0.0000001
 44
0.0000000001
 40
0.0
 40
0.0
 40
0.0
 40
0.0
 40
0.0633715635
 40
0.0929266952
 40
0.1210413703
 40
0.1477908726
 40
0.1733218235
 40
0.1978497688
 40
0.2216625901
 40
0.2451001036
 40
0.2685357698
 40
0.2923367879
 40
0.3168444385
 40
0.3423399587
 40
0.3690411527
 40
0.3970921397
 40
0.4265974739
 40
0.457521847
 40
0.4898893918
 40
0.5235842382
 40
0.5584833306
 40
0.5944319668
 40
0.6312534092
 40
0.706668963
 40
0.7830311993
 40
0.8585105438
 40
0.9313420225
 40
1.0
 40
1.0
 40
1.0
 40
1.0
 10
-1.0200138221
 20
-40.4252973766
 30
0.0
 10
-1.0200349678
 20
-41.1204523753
 30
0.0
 10
-1.0977452631
 20
-42.1438987762
 30
0.0
 10
-1.3899947533
 20
-43.4409599691
 30
0.0
 10
-1.6882329583
 20
-44.3197420815
 30
0.0
 10
-2.0678915003
 20
-45.1181588211
 30
0.0
 10
-2.5258976362
 20
-45.8283992492
 30
0.0
 10
-3.0582152305
 20
-46.4432031053
 30
0.0
 10
-3.6599330606
 20
-46.9559414551
 30
0.0
 10
-4.3249622893
 20
-47.3610895273
 30
0.0
 10
-5.046268032
 20
-47.6542038727
 30
0.0
 10
-5.8160247489
 20
-47.8325835643
 30
0.0
 10
-6.6260859361
 20
-47.8949640149
 30
0.0
 10
-7.4683284267
 20
-47.8417562163
 30
0.0
 10
-8.3347363387
 20
-47.6741956302
 30
0.0
 10
-9.2175904642
 20
-47.3945932743
 30
0.0
 10
-10.1087494559
 20
-47.0053943694
 30
0.0
 10
-10.9945649652
 20
-46.5006044919
 30
0.0
 10
-11.871423579
 20
-45.8961342794
 30
0.0
 10
-12.7317175666
 20
-45.1969536727
 30
0.0
 10
-13.5670174926
 20
-44.4098360038
 30
0.0
 10
-14.3694122899
 20
-43.5419189121
 30
0.0
 10
-15.3930164245
 20
-42.2779373242
 30
0.0
 10
-16.5401120457
 20
-40.5493871983
 30
0.0
 10
-17.6636690637
 20
-38.3176849984
 30
0.0
 10
-18.5027397712
 20
-35.993621241
 30
0.0
 10
-19.0252427284
 20
-33.665206462
 30
0.0
 10
-19.1536779646
 20
-32.1115578802
 30
0.0
 10
-19.1537815398
 20
-31.3584135177
 30
0.0
  0
LINE
  5
49B
100
AcDbEntity
  8
0
100
AcDbLine
 62
7
  6
CONTINUOUS
 10
-8.6599113367
 20
-22.8459892822
 11
-8.824879322
 21
-22.0840722235
  0
SPLINE
  5
49C
100
AcDbEntity
  8
RACCORDO
100
AcDbSpline
 62
250
  6
CONTINUOUS
 70
0
 71
3
 72
22
 73
18
 74
0
 42
0.0000001
 43
0.0000001
 44
0.0000000001
 40
0.0
 40
0.0
 40
0.0
 40
0.0
 40
0.0457734921
 40
0.0922817626
 40
0.1404165997
 40
0.190909489
 40
0.2442774762
 40
0.2721568862
 40
0.3008564396
 40
0.360876156
 40
0.4241351038
 40
0.4903705022
 40
0.5592519715
 40
0.6303545027
 40
0.7031798105
 40
0.8516506978
 40
1.0
 40
1.0
 40
1.0
 40
1.0
 10
-15.7423820212
 20
-6.4248287525
 30
0.0
 10
-15.46803529
 20
-6.2724791849
 30
0.0
 10
-14.8845550049
 20
-6.0167886879
 30
0.0
 10
-13.941555534
 20
-5.7994101677
 30
0.0
 10
-12.9429507181
 20
-5.7493764703
 30
0.0
 10
-11.9034135293
 20
-5.8661278342
 30
0.0
 10
-11.0271018423
 20
-6.0968994139
 30
0.0
 10
-10.3194749279
 20
-6.3576976064
 30
0.0
 10
-9.5876913361
 20
-6.6804046416
 30
0.0
 10
-8.6695609229
 20
-7.177399717
 30
0.0
 10
-7.5954280442
 20
-7.9120568896
 30
0.0
 10
-6.5481015984
 20
-8.7824976822
 30
0.0
 10
-5.5412031226
 20
-9.7772110066
 30
0.0
 10
-4.5873994638
 20
-10.8831932633
 30
0.0
 10
-3.3953450073
 20
-12.4968345703
 30
0.0
 10
-2.1149710835
 20
-14.6939226166
 30
0.0
 10
-1.3400241778
 20
-16.5838837427
 30
0.0
 10
-1.0235833955
 20
-17.5504418173
 30
0.0
  0
SPLINE
  5
49D
100
AcDbEntity
  8
RACCORDO
100
AcDbSpline
 62
250
  6
CONTINUOUS
 70
0
 71
3
 72
9
 73
5
 74
0
 42
0.0000001
 43
0.0000001
 44
0.0000000001
 40
0.0
 40
0.0
 40
0.0
 40
0.0
 40
0.2535102147
 40
1.0
 40
1.0
 40
1.0
 40
1.0
 10
-1.0052626161
 20
-17.6066725281
 30
0.0
 10
-0.9428049493
 20
-17.7993003137
 30
0.0
 10
-0.7075705727
 20
-18.5626907084
 30
0.0
 10
-0.5172647917
 20
-19.3400671136
 30
0.0
 10
-0.4035391008
 20
-19.9254072189
 30
0.0
  0
SPLINE
  5
49E
100
AcDbEntity
  8
RACCORDO
100
AcDbSpline
 62
250
  6
CONTINUOUS
 70
0
 71
3
 72
9
 73
5
 74
0
 42
0.0000001
 43
0.0000001
 44
0.0000000001
 40
0.0
 40
0.0
 40
0.0
 40
0.0
 40
0.2580241678
 40
1.0
 40
1.0
 40
1.0
 40
1.0
 10
-0.3932532722
 20
-19.9787665983
 30
0.0
 10
-0.3434096931
 20
-20.2394009294
 30
0.0
 10
-0.1720812773
 20
-21.2534510087
 30
0.0
 10
-0.0898708025
 20
-22.2834967199
 30
0.0
 10
-0.0899305206
 20
-23.0465605082
 30
0.0
  0
SPLINE
  5
49F
100
AcDbEntity
  8
0
100
AcDbSpline
 62
7
  6
CONTINUOUS
 70
0
 71
3
 72
8
 73
4
 74
0
 42
0.0000001
 43
0.0000001
 44
0.0000000001
 40
0.0
 40
0.0
 40
0.0
 40
0.0
 40
1.0
 40
1.0
 40
1.0
 40
1.0
 10
-8.9516499696
 20
-21.4944212431
 30
0.0
 10
-9.0380012254
 20
-21.0756445856
 30
0.0
 10
-9.1240340651
 20
-20.6568021455
 30
0.0
 10
-9.2097492454
 20
-20.2378948334
 30
0.0
  0
LINE
  5
4A0
100
AcDbEntity
  8
0
100
AcDbLine
 62
250
  6
CONTINUOUS
 10
-5.651117898
 20
-21.5875074918
 11
-5.6116112644
 21
-21.6016700339
  0
LINE
  5
4A1
100
AcDbEntity
  8
0
100
AcDbLine
 62
250
  6
CONTINUOUS
 10
-7.1907671459
 20
-21.0100613465
 11
-7.1557292424
 21
-21.0237731103
  0
LINE
  5
4A2
100
AcDbEntity
  8
0
100
AcDbLine
 62
250
  6
CONTINUOUS
 10
-8.6555840911
 20
-20.4114085185
 11
-8.6468679836
 21
-20.4151227083
  0
LINE
  5
4A3
100
AcDbEntity
  8
0
100
AcDbLine
 62
250
  6
CONTINUOUS
 10
-9.2974225293
 20
-20.1326347585
 11
-9.2596505317
 21
-20.1493329585
  0
LINE
  5
4A4
100
AcDbEntity
  8
0
100
AcDbLine
 62
250
  6
CONTINUOUS
 10
-13.6818372632
 20
-17.9055059878
 11
-13.661623366
 21
-17.917285276
  0
LINE
  5
4A5
100
AcDbEntity
  8
0
100
AcDbLine
 62
250
  6
CONTINUOUS
 10
-14.6703556125
 20
-17.3089012111
 11
-14.6398737744
 21
-17.3279247076
  0
SPLINE
  5
4A6
100
AcDbEntity
  8
0
100
AcDbSpline
 62
7
  6
CONTINUOUS
 70
0
 71
3
 72
11
 73
7
 74
0
 42
0.0000001
 43
0.0000001
 44
0.0000000001
 40
0.0
 40
0.0
 40
0.0
 40
0.0
 40
0.2726107264
 40
0.5278280934
 40
0.7674540866
 40
1.0
 40
1.0
 40
1.0
 40
1.0
 10
-6.1826924297
 20
-21.3938258034
 30
0.0
 10
-6.1854423667
 20
-21.4231467756
 30
0.0
 10
-6.1943458502
 20
-21.4797399803
 30
0.0
 10
-6.2235532777
 20
-21.5582056282
 30
0.0
 10
-6.2706499739
 20
-21.6224598042
 30
0.0
 10
-6.3126865111
 20
-21.6531286634
 30
0.0
 10
-6.3351461906
 20
-21.6643826992
 30
0.0
  0
SPLINE
  5
4A7
100
AcDbEntity
  8
0
100
AcDbSpline
 62
7
  6
CONTINUOUS
 70
0
 71
3
 72
9
 73
5
 74
0
 42
0.0000001
 43
0.0000001
 44
0.0000000001
 40
0.0
 40
0.0
 40
0.0
 40
0.0
 40
0.2537281447
 40
1.0
 40
1.0
 40
1.0
 40
1.0
 10
-6.1793979698
 20
-21.3047267688
 30
0.0
 10
-6.1793061359
 20
-21.3122688493
 30
0.0
 10
-6.1792661448
 20
-21.3419950329
 30
0.0
 10
-6.1806208889
 20
-21.3717381238
 30
0.0
 10
-6.1826924297
 20
-21.3938258034
 30
0.0
  0
SPLINE
  5
4A8
100
AcDbEntity
  8
0
100
AcDbSpline
 62
7
  6
CONTINUOUS
 70
0
 71
3
 72
11
 73
7
 74
0
 42
0.0000001
 43
0.0000001
 44
0.0000000001
 40
0.0
 40
0.0
 40
0.0
 40
0.0
 40
0.2425646342
 40
0.5006287347
 40
0.7589502256
 40
1.0
 40
1.0
 40
1.0
 40
1.0
 10
-6.5581719225
 20
-20.7274947563
 30
0.0
 10
-6.5061105435
 20
-20.7537366038
 30
0.0
 10
-6.4061017152
 20
-20.823209283
 30
0.0
 10
-6.2837704751
 20
-20.9612638222
 30
0.0
 10
-6.2037676682
 20
-21.1269760698
 30
0.0
 10
-6.1801033582
 20
-21.2467940406
 30
0.0
 10
-6.1793979569
 20
-21.304726775
 30
0.0
  0
SPLINE
  5
4A9
100
AcDbEntity
  8
0
100
AcDbSpline
 62
7
  6
CONTINUOUS
 70
0
 71
3
 72
9
 73
5
 74
0
 42
0.0000001
 43
0.0000001
 44
0.0000000001
 40
0.0
 40
0.0
 40
0.0
 40
0.0
 40
0.4841623881
 40
1.0
 40
1.0
 40
1.0
 40
1.0
 10
-5.9791362268
 20
-22.2101733337
 30
0.0
 10
-5.9933482887
 20
-22.2173657692
 30
0.0
 10
-6.0235527017
 20
-22.2308016153
 30
0.0
 10
-6.0579213398
 20
-22.2330272059
 30
0.0
 10
-6.0744619301
 20
-22.2292316906
 30
0.0
  0
SPLINE
  5
4AA
100
AcDbEntity
  8
0
100
AcDbSpline
 62
7
  6
CONTINUOUS
 70
0
 71
3
 72
11
 73
7
 74
0
 42
0.0000001
 43
0.0000001
 44
0.0000000001
 40
0.0
 40
0.0
 40
0.0
 40
0.0
 40
0.2394848009
 40
0.485584316
 40
0.7392438586
 40
1.0
 40
1.0
 40
1.0
 40
1.0
 10
-7.0817946197
 20
-20.5472409379
 30
0.0
 10
-7.0383298304
 20
-20.5560240123
 30
0.0
 10
-6.950511096
 20
-20.5755769083
 30
0.0
 10
-6.8193003169
 20
-20.6150457998
 30
0.0
 10
-6.6877792318
 20
-20.6656772433
 30
0.0
 10
-6.6012864393
 20
-20.7057626281
 30
0.0
 10
-6.5581719225
 20
-20.7274947565
 30
0.0
  0
LINE
  5
4AB
100
AcDbEntity
  8
0
100
AcDbLine
 62
250
  6
CONTINUOUS
 10
-9.2758790849
 20
-20.2088351996
 11
-9.2097492454
 21
-20.2378948334
  0
LINE
  5
4AC
100
AcDbEntity
  8
0
100
AcDbLine
 62
7
  6
CONTINUOUS
 10
-7.7185021738
 20
-20.8001762026
 11
-7.7187159213
 21
-23.1709268792
  0
SPLINE
  5
4AD
100
AcDbEntity
  8
0
100
AcDbSpline
 62
7
  6
CONTINUOUS
 70
0
 71
3
 72
9
 73
5
 74
0
 42
0.0000001
 43
0.0000001
 44
0.0000000001
 40
0.0
 40
0.0
 40
0.0
 40
0.0
 40
0.5159129769
 40
1.0
 40
1.0
 40
1.0
 40
1.0
 10
-6.0029133616
 20
-22.1934574064
 30
0.0
 10
-5.9908673502
 20
-22.1962189416
 30
0.0
 10
-5.9662576899
 20
-22.1968050077
 30
0.0
 10
-5.9431062681
 20
-22.189830654
 30
0.0
 10
-5.9323308085
 20
-22.1855458609
 30
0.0
  0
LINE
  5
4AE
100
AcDbEntity
  8
0
100
AcDbLine
 62
7
  6
CONTINUOUS
 10
-5.5200594709
 20
-24.005376989
 11
-5.459878151
 21
-24.0267823773
  0
SPLINE
  5
4AF
100
AcDbEntity
  8
0
100
AcDbSpline
 62
7
  6
CONTINUOUS
 70
0
 71
3
 72
11
 73
7
 74
0
 42
0.0000001
 43
0.0000001
 44
0.0000000001
 40
0.0
 40
0.0
 40
0.0
 40
0.0
 40
0.2518058043
 40
0.5011755964
 40
0.7505191511
 40
1.0
 40
1.0
 40
1.0
 40
1.0
 10
-6.3295494061
 20
-22.6595882066
 30
0.0
 10
-6.2997309882
 20
-22.7556040568
 30
0.0
 10
-6.2466976563
 20
-22.9486655447
 30
0.0
 10
-6.1771042185
 20
-23.2401277777
 30
0.0
 10
-6.1054321
 20
-23.5301418066
 30
0.0
 10
-6.0566944789
 20
-23.7232545405
 30
0.0
 10
-6.0328807636
 20
-23.8199772884
 30
0.0
  0
SPLINE
  5
4B0
100
AcDbEntity
  8
0
100
AcDbSpline
 62
7
  6
CONTINUOUS
 70
0
 71
3
 72
11
 73
7
 74
0
 42
0.0000001
 43
0.0000001
 44
0.0000000001
 40
0.0
 40
0.0
 40
0.0
 40
0.0
 40
0.233000173
 40
0.4859456904
 40
0.7455203876
 40
1.0
 40
1.0
 40
1.0
 40
1.0
 10
-6.7049615233
 20
-22.21303511
 30
0.0
 10
-6.6612681618
 20
-22.2296850631
 30
0.0
 10
-6.5747148711
 20
-22.2777360425
 30
0.0
 10
-6.4672718728
 20
-22.384145145
 30
0.0
 10
-6.3845272789
 20
-22.515027078
 30
0.0
 10
-6.344695543
 20
-22.6108172706
 30
0.0
 10
-6.3295493751
 20
-22.6595882078
 30
0.0
  0
SPLINE
  5
4B1
100
AcDbEntity
  8
0
100
AcDbSpline
 62
7
  6
CONTINUOUS
 70
0
 71
3
 72
8
 73
4
 74
0
 42
0.0000001
 43
0.0000001
 44
0.0000000001
 40
0.0
 40
0.0
 40
0.0
 40
0.0
 40
1.0
 40
1.0
 40
1.0
 40
1.0
 10
-9.1388852471
 20
-20.2024722205
 30
0.0
 10
-9.0531590903
 20
-20.6213707197
 30
0.0
 10
-8.9671145768
 20
-21.040204195
 30
0.0
 10
-8.8807509475
 20
-21.4589717321
 30
0.0
  0
LINE
  5
4B2
100
AcDbEntity
  8
0
100
AcDbLine
 62
7
  6
CONTINUOUS
 10
-8.0618746914
 20
-23.0309672902
 11
-7.9989115698
 21
-23.0568547506
  0
LINE
  5
4B3
100
AcDbEntity
  8
0
100
AcDbLine
 62
7
  6
CONTINUOUS
 10
-8.7539608854
 20
-22.0486130052
 11
-8.5889663145
 21
-22.8105167711
  0
SPLINE
  5
4B4
100
AcDbEntity
  8
0
100
AcDbSpline
 62
7
  6
CONTINUOUS
 70
0
 71
3
 72
9
 73
5
 74
0
 42
0.0000001
 43
0.0000001
 44
0.0000000001
 40
0.0
 40
0.0
 40
0.0
 40
0.0
 40
0.2461287432
 40
1.0
 40
1.0
 40
1.0
 40
1.0
 10
-6.2541858706
 20
-21.4295488539
 30
0.0
 10
-6.2535032819
 20
-21.4222658998
 30
0.0
 10
-6.25120357
 20
-21.3926316653
 30
0.0
 10
-6.250622099
 20
-21.3628782798
 30
0.0
 10
-6.2508948966
 20
-21.3404751154
 30
0.0
  0
LINE
  5
4B5
100
AcDbEntity
  8
0
100
AcDbLine
 62
7
  6
CONTINUOUS
 10
-7.7898254577
 20
-23.2064816474
 11
-7.7896118761
 21
-20.8357142213
  0
SPLINE
  5
4B6
100
AcDbEntity
  8
0
100
AcDbSpline
 62
7
  6
CONTINUOUS
 70
0
 71
3
 72
11
 73
7
 74
0
 42
0.0000001
 43
0.0000001
 44
0.0000000001
 40
0.0
 40
0.0
 40
0.0
 40
0.0
 40
0.2607621241
 40
0.5144235832
 40
0.7605202107
 40
1.0
 40
1.0
 40
1.0
 40
1.0
 10
-6.6295681889
 20
-20.7631928912
 30
0.0
 10
-6.6726708019
 20
-20.7414551397
 30
0.0
 10
-6.759140035
 20
-20.7013586964
 30
0.0
 10
-6.890626345
 20
-20.6507088643
 30
0.0
 10
-7.0218043184
 20
-20.611225347
 30
0.0
 10
-7.1096011446
 20
-20.5916597733
 30
0.0
 10
-7.1530552625
 20
-20.5828712593
 30
0.0
  0
SPLINE
  5
4B7
100
AcDbEntity
  8
0
100
AcDbSpline
 62
7
  6
CONTINUOUS
 70
0
 71
3
 72
11
 73
7
 74
0
 42
0.0000001
 43
0.0000001
 44
0.0000000001
 40
0.0
 40
0.0
 40
0.0
 40
0.0
 40
0.2410616178
 40
0.499390787
 40
0.7574529296
 40
1.0
 40
1.0
 40
1.0
 40
1.0
 10
-6.2508948966
 20
-21.3404751154
 30
0.0
 10
-6.251600336
 20
-21.2825417669
 30
0.0
 10
-6.275258291
 20
-21.1627238032
 30
0.0
 10
-6.3552367466
 20
-20.9970042126
 30
0.0
 10
-6.4775329295
 20
-20.8589330489
 30
0.0
 10
-6.5775182278
 20
-20.7894430195
 30
0.0
 10
-6.6295681889
 20
-20.7631928912
 30
0.0
  0
LINE
  5
4B8
100
AcDbEntity
  8
0
100
AcDbLine
 62
7
  6
CONTINUOUS
 10
-9.46853092
 20
-19.0188906671
 11
-9.484946192
 21
-19.0690634546
  0
LINE
  5
4B9
100
AcDbEntity
  8
0
100
AcDbLine
 62
7
  6
CONTINUOUS
 10
-11.3509806623
 20
-18.130947585
 11
-11.3675938933
 21
-18.1744664675
  0
LINE
  5
4BA
100
AcDbEntity
  8
0
100
AcDbLine
 62
7
  6
CONTINUOUS
 10
-10.6128612484
 20
-21.897705456
 11
-10.5576040979
 21
-21.9241227961
  0
LINE
  5
4BB
100
AcDbEntity
  8
0
100
AcDbLine
 62
7
  6
CONTINUOUS
 10
-11.1905101964
 20
-19.3638329983
 11
-11.0685330532
 21
-21.6764189323
  0
LINE
  5
4BC
100
AcDbEntity
  8
0
100
AcDbLine
 62
7
  6
CONTINUOUS
 10
-11.9686076002
 20
-21.2204721069
 11
-11.9360619536
 21
-21.2374128779
  0
SPLINE
  5
4BD
100
AcDbEntity
  8
0
100
AcDbSpline
 62
7
  6
CONTINUOUS
 70
0
 71
3
 72
8
 73
4
 74
0
 42
0.0000001
 43
0.0000001
 44
0.0000000001
 40
0.0
 40
0.0
 40
0.0
 40
0.0
 40
1.0
 40
1.0
 40
1.0
 40
1.0
 10
-13.1307271088
 20
-18.220974419
 30
0.0
 10
-13.1856086973
 20
-18.9802869165
 30
0.0
 10
-13.2403369846
 20
-19.7396105098
 30
0.0
 10
-13.2949118656
 20
-20.4989451132
 30
0.0
  0
LINE
  5
4BE
100
AcDbEntity
  8
0
100
AcDbLine
 62
7
  6
CONTINUOUS
 10
-13.0491040395
 20
-17.2356180633
 11
-13.0535772585
 21
-17.2837988095
  0
LINE
  5
4BF
100
AcDbEntity
  8
0
100
AcDbLine
 62
7
  6
CONTINUOUS
 10
-14.1321754879
 20
-17.6388040102
 11
-14.1323383309
 21
-20.0095324205
  0
LINE
  5
4C0
100
AcDbEntity
  8
0
100
AcDbLine
 62
7
  6
CONTINUOUS
 10
-14.8616719781
 20
-16.1618871453
 11
-14.8715087517
 21
-16.2001367868
  0
SPLINE
  5
4C1
100
AcDbEntity
  8
0
100
AcDbSpline
 62
7
  6
CONTINUOUS
 70
0
 71
3
 72
11
 73
7
 74
0
 42
0.0000001
 43
0.0000001
 44
0.0000000001
 40
0.0
 40
0.0
 40
0.0
 40
0.0
 40
0.2544924207
 40
0.5140777924
 40
0.7670211018
 40
1.0
 40
1.0
 40
1.0
 40
1.0
 10
-6.4010031395
 20
-22.6953145225
 30
0.0
 10
-6.4161447108
 20
-22.6465424879
 30
0.0
 10
-6.4559641626
 20
-22.5507488324
 30
0.0
 10
-6.5386836082
 20
-22.4198567099
 30
0.0
 10
-6.6460960265
 20
-22.3134333181
 30
0.0
 10
-6.7326290617
 20
-22.2653670025
 30
0.0
 10
-6.7763125844
 20
-22.2487106406
 30
0.0
  0
SPLINE
  5
4C2
100
AcDbEntity
  8
0
100
AcDbSpline
 62
7
  6
CONTINUOUS
 70
0
 71
3
 72
11
 73
7
 74
0
 42
0.0000001
 43
0.0000001
 44
0.0000000001
 40
0.0
 40
0.0
 40
0.0
 40
0.0
 40
0.2494809381
 40
0.4988245255
 40
0.748194171
 40
1.0
 40
1.0
 40
1.0
 40
1.0
 10
-6.1044202134
 20
-23.8557470133
 30
0.0
 10
-6.1282268682
 20
-23.7590207116
 30
0.0
 10
-6.1769501006
 20
-23.5659007347
 30
0.0
 10
-6.2486017143
 20
-23.2758763163
 30
0.0
 10
-6.3181747115
 20
-22.9844038895
 30
0.0
 10
-6.3711930672
 20
-22.7913348002
 30
0.0
 10
-6.4010031395
 20
-22.6953145225
 30
0.0
  0
SPLINE
  5
4C3
100
AcDbEntity
  8
RACCORDO
100
AcDbSpline
 62
250
  6
CONTINUOUS
 70
0
 71
3
 72
9
 73
5
 74
0
 42
0.0000001
 43
0.0000001
 44
0.0000000001
 40
0.0
 40
0.0
 40
0.0
 40
0.0
 40
0.4691536456
 40
1.0
 40
1.0
 40
1.0
 40
1.0
 10
-17.8363069098
 20
-32.4828685159
 30
0.0
 10
-17.7795494596
 20
-32.5282723957
 30
0.0
 10
-17.6474776555
 20
-32.611313426
 30
0.0
 10
-17.5042735609
 20
-32.6718110022
 30
0.0
 10
-17.4266839553
 20
-32.6990783789
 30
0.0
  0
SPLINE
  5
4C4
100
AcDbEntity
  8
RACCORDO
100
AcDbSpline
 62
250
  6
CONTINUOUS
 70
0
 71
3
 72
9
 73
5
 74
0
 42
0.0000001
 43
0.0000001
 44
0.0000000001
 40
0.0
 40
0.0
 40
0.0
 40
0.0
 40
0.528938509
 40
1.0
 40
1.0
 40
1.0
 40
1.0
 10
-3.2689236995
 20
-39.7665600998
 30
0.0
 10
-3.3496837971
 20
-39.7413106361
 30
0.0
 10
-3.4997485703
 20
-39.6844762408
 30
0.0
 10
-3.639936577
 20
-39.6054264974
 30
0.0
 10
-3.7013436868
 20
-39.5617484881
 30
0.0
  0
SPLINE
  5
4C5
100
AcDbEntity
  8
RACCORDO
100
AcDbSpline
 62
250
  6
CONTINUOUS
 70
0
 71
3
 72
11
 73
7
 74
0
 42
0.0000001
 43
0.0000001
 44
0.0000000001
 40
0.0
 40
0.0
 40
0.0
 40
0.0
 40
0.2301064195
 40
0.4854786403
 40
0.7484524728
 40
1.0
 40
1.0
 40
1.0
 40
1.0
 10
-0.089930554
 20
-40.3670641296
 30
0.0
 10
-0.1558195867
 20
-40.3977869823
 30
0.0
 10
-0.3030411704
 20
-40.445211343
 30
0.0
 10
-0.5381449283
 20
-40.4778606135
 30
0.0
 10
-0.7822551089
 20
-40.4741204173
 30
0.0
 10
-0.9433663352
 20
-40.4463036076
 30
0.0
 10
-1.0200138126
 20
-40.4252973679
 30
0.0
  0
SPLINE
  5
4C6
100
AcDbEntity
  8
RACCORDO
100
AcDbSpline
 62
250
  6
CONTINUOUS
 70
0
 71
3
 72
11
 73
7
 74
0
 42
0.0000001
 43
0.0000001
 44
0.0000000001
 40
0.0
 40
0.0
 40
0.0
 40
0.0
 40
0.2301048159
 40
0.4854778051
 40
0.7484531884
 40
1.0
 40
1.0
 40
1.0
 40
1.0
 10
-0.0899305202
 20
-23.0465560721
 30
0.0
 10
-0.1558200075
 20
-23.0772757217
 30
0.0
 10
-0.3030422876
 20
-23.1246936326
 30
0.0
 10
-0.5381452844
 20
-23.1573373782
 30
0.0
 10
-0.7822541563
 20
-23.1535986867
 30
0.0
 10
-0.9433654537
 20
-23.1257896383
 30
0.0
 10
-1.0200138209
 20
-23.1047893
 30
0.0
  0
SPLINE
  5
4C7
100
AcDbEntity
  8
0
100
AcDbSpline
 62
7
  6
CONTINUOUS
 70
0
 71
3
 72
11
 73
7
 74
0
 42
0.0000001
 43
0.0000001
 44
0.0000000001
 40
0.0
 40
0.0
 40
0.0
 40
0.0
 40
0.2325207865
 40
0.4721301273
 40
0.7273628893
 40
1.0
 40
1.0
 40
1.0
 40
1.0
 10
-6.4065892722
 20
-21.7001243157
 30
0.0
 10
-6.3841291946
 20
-21.6888798278
 30
0.0
 10
-6.34212607
 20
-21.658174146
 30
0.0
 10
-6.2950191882
 20
-21.5939427412
 30
0.0
 10
-6.2658379269
 20
-21.5154642777
 30
0.0
 10
-6.2569341043
 20
-21.4588714289
 30
0.0
 10
-6.2541858706
 20
-21.4295488539
 30
0.0
  0
SPLINE
  5
4C8
100
AcDbEntity
  8
RACCORDO
100
AcDbSpline
 62
250
  6
CONTINUOUS
 70
0
 71
3
 72
8
 73
4
 74
0
 42
0.0000001
 43
0.0000001
 44
0.0000000001
 40
0.0
 40
0.0
 40
0.0
 40
0.0
 40
1.0
 40
1.0
 40
1.0
 40
1.0
 10
-0.0899305204
 20
-23.0465605081
 30
0.0
 10
-0.0904014841
 20
-28.8200600166
 30
0.0
 10
-0.0904015281
 20
-34.5935595826
 30
0.0
 10
-0.0899305204
 20
-40.3670590911
 30
0.0
  0
LINE
  5
4C9
100
AcDbEntity
  8
RACCORDO
100
AcDbLine
 62
250
  6
CONTINUOUS
 10
-1.0214238517
 20
-23.104403498
 11
-1.0214238517
 21
-40.4249103795
  0
SPLINE
  5
4CA
100
AcDbEntity
  8
RACCORDO
100
AcDbSpline
 62
250
  6
CONTINUOUS
 70
0
 71
3
 72
35
 73
31
 74
0
 42
0.0000001
 43
0.0000001
 44
0.0000000001
 40
0.0
 40
0.0
 40
0.0
 40
0.0
 40
0.0633706416
 40
0.092934219
 40
0.1210635033
 40
0.1478367419
 40
0.173397719
 40
0.1979630119
 40
0.2218131044
 40
0.2452864652
 40
0.2687464355
 40
0.2925602695
 40
0.3170599926
 40
0.3425281228
 40
0.3691783586
 40
0.3830006329
 40
0.3971680025
 40
0.4116911639
 40
0.4265961026
 40
0.4419078986
 40
0.457596278
 40
0.4736345537
 40
0.4900113857
 40
0.558580083
 40
0.6312951577
 40
0.7066893585
 40
0.7830383897
 40
0.8585144389
 40
0.9313462589
 40
1.0
 40
1.0
 40
1.0
 40
1.0
 10
-19.1537815398
 20
-14.037905442
 30
0.0
 10
-19.1536858182
 20
-13.3426462182
 30
0.0
 10
-19.0757709284
 20
-12.3189328698
 30
0.0
 10
-18.7826797644
 20
-11.0215814942
 30
0.0
 10
-18.4836533157
 20
-10.1423565176
 30
0.0
 10
-18.1029159025
 20
-9.3434558661
 30
0.0
 10
-17.6437177932
 20
-8.6326286811
 30
0.0
 10
-17.1101022578
 20
-8.0172573396
 30
0.0
 10
-16.5071532364
 20
-7.5039093405
 30
0.0
 10
-15.8410542075
 20
-7.0982284138
 30
0.0
 10
-15.1189326705
 20
-6.8046715109
 30
0.0
 10
-14.3487785284
 20
-6.6259966721
 30
0.0
 10
-13.5388088428
 20
-6.5636407411
 30
0.0
 10
-12.6974066842
 20
-6.6171526519
 30
0.0
 10
-11.9853971628
 20
-6.7558622281
 30
0.0
 10
-11.4088340936
 20
-6.9208868978
 30
0.0
 10
-10.968067434
 20
-7.0741704686
 30
0.0
 10
-10.5249973666
 20
-7.2549806995
 30
0.0
 10
-10.0813702579
 20
-7.4655084212
 30
0.0
 10
-9.6356291995
 20
-7.7003272936
 30
0.0
 10
-9.1915839206
 20
-7.9636972964
 30
0.0
 10
-8.7495692555
 20
-8.2523519848
 30
0.0
 10
-7.8479716462
 20
-8.8966502937
 30
0.0
 10
-6.5446822545
 20
-10.0451850022
 30
0.0
 10
-4.9900816979
 20
-11.8520270849
 30
0.0
 10
-3.6268891486
 20
-13.9104102317
 30
0.0
 10
-2.5059984718
 20
-16.1436262836
 30
0.0
 10
-1.6692569395
 20
-18.4686930681
 30
0.0
 10
-1.1481782866
 20
-20.797711905
 30
0.0
 10
-1.0200363913
 20
-22.3515675255
 30
0.0
 10
-1.0200138221
 20
-23.1047893009
 30
0.0
  0
SPLINE
  5
4CB
100
AcDbEntity
  8
RACCORDO
100
AcDbSpline
 62
250
  6
CONTINUOUS
 70
0
 71
3
 72
37
 73
33
 74
0
 42
0.0000001
 43
0.0000001
 44
0.0000000001
 40
0.0
 40
0.0
 40
0.0
 40
0.0
 40
0.0167776914
 40
0.0331059304
 40
0.0643569339
 40
0.0936576749
 40
0.120943417
 40
0.1462367725
 40
0.1697405871
 40
0.1917801495
 40
0.2127954495
 40
0.2333379702
 40
0.2540272238
 40
0.2754635141
 40
0.2981529645
 40
0.3224739767
 40
0.3486775886
 40
0.3768827142
 40
0.4070848163
 40
0.4391926178
 40
0.4730539299
 40
0.5451621539
 40
0.6214573209
 40
0.6998563701
 40
0.7783932986
 40
0.817194927
 40
0.8554235114
 40
0.892916287
 40
0.9295618751
 40
0.9652770937
 40
0.9827684125
 40
1.0
 40
1.0
 40
1.0
 40
1.0
 10
-17.8363069114
 20
-32.4828685164
 30
0.0
 10
-17.8359379732
 20
-32.3393479586
 30
0.0
 10
-17.8299077256
 20
-32.0561457576
 30
0.0
 10
-17.8010549281
 20
-31.5063151674
 30
0.0
 10
-17.7334334147
 20
-30.8515319098
 30
0.0
 10
-17.5991823619
 20
-30.1113964414
 30
0.0
 10
-17.4123274725
 20
-29.4351514745
 30
0.0
 10
-17.1707526725
 20
-28.8291746432
 30
0.0
 10
-16.8756306124
 20
-28.2977666813
 30
0.0
 10
-16.5272865139
 20
-27.8443920291
 30
0.0
 10
-16.1258041761
 20
-27.4729956803
 30
0.0
 10
-15.6721618068
 20
-27.1881428339
 30
0.0
 10
-15.1697078908
 20
-26.9925250025
 30
0.0
 10
-14.6226112942
 20
-26.8870163967
 30
0.0
 10
-14.0351309591
 20
-26.870080916
 30
0.0
 10
-13.4109728852
 20
-26.9400949854
 30
0.0
 10
-12.7543797538
 20
-27.0962054457
 30
0.0
 10
-12.0703649235
 20
-27.3361809777
 30
0.0
 10
-11.3645230956
 20
-27.6565913387
 30
0.0
 10
-10.6432947692
 20
-28.0538994391
 30
0.0
 10
-9.6502903067
 20
-28.6949500618
 30
0.0
 10
-8.4261859649
 20
-29.6673314323
 30
0.0
 10
-7.049430851
 20
-31.0397407567
 30
0.0
 10
-5.8002928628
 20
-32.6009322183
 30
0.0
 10
-4.9137608724
 20
-34.0269909226
 30
0.0
 10
-4.3246220658
 20
-35.2212123591
 30
0.0
 10
-3.9534042495
 20
-36.1287977461
 30
0.0
 10
-3.658316762
 20
-37.0446422557
 30
0.0
 10
-3.4419248669
 20
-37.9601227559
 30
0.0
 10
-3.3280480355
 20
-38.7213687145
 30
0.0
 10
-3.2799884014
 20
-39.3221471536
 30
0.0
 10
-3.2696249637
 20
-39.6191579453
 30
0.0
 10
-3.2689238171
 20
-39.7665600631
 30
0.0
  0
LINE
  5
4CC
100
AcDbEntity
  8
RACCORDO
100
AcDbLine
 62
250
  6
CONTINUOUS
 10
-19.1530087399
 20
-31.3591179354
 11
-19.1530087399
 21
-14.0386110538
  0
SPLINE
  5
4CD
100
AcDbEntity
  8
0
100
AcDbSpline
 62
250
  6
CONTINUOUS
 70
0
 71
3
 72
9
 73
5
 74
0
 42
0.0000001
 43
0.0000001
 44
0.0000000001
 40
0.0
 40
0.0
 40
0.0
 40
0.0
 40
0.2417308927
 40
1.0
 40
1.0
 40
1.0
 40
1.0
 10
-19.1537815399
 20
-14.0379054419
 30
0.0
 10
-18.9275041315
 20
-14.244343853
 30
0.0
 10
-17.9757895724
 20
-15.0811410091
 30
0.0
 10
-16.9656005117
 20
-15.850579458
 30
0.0
 10
-16.1767439232
 20
-16.3990776123
 30
0.0
  0
SPLINE
  5
4CE
100
AcDbEntity
  8
RACCORDO
100
AcDbSpline
 62
250
  6
CONTINUOUS
 70
0
 71
3
 72
36
 73
32
 74
0
 42
0.0000001
 43
0.0000001
 44
0.0000000001
 40
0.0
 40
0.0
 40
0.0
 40
0.0
 40
0.0082059713
 40
0.0163541033
 40
0.0324053074
 40
0.0634190248
 40
0.0929507817
 40
0.1210143402
 40
0.1730119463
 40
0.1974347167
 40
0.2211432111
 40
0.2444956208
 40
0.2678765837
 40
0.2916668209
 40
0.3162193535
 40
0.3418272517
 40
0.3686535607
 40
0.3967934871
 40
0.426322847
 40
0.4572771041
 40
0.4896222971
 40
0.5232743187
 40
0.5581393703
 40
0.6309047013
 40
0.7063949419
 40
0.7828168128
 40
0.8583287912
 40
0.8952094816
 40
0.9312248596
 40
0.9661950619
 40
1.0
 40
1.0
 40
1.0
 40
1.0
 10
-3.7013436868
 20
-39.5617484881
 30
0.0
 10
-3.7015737127
 20
-39.629722886
 30
0.0
 10
-3.7040150719
 20
-39.7651822809
 30
0.0
 10
-3.7122751582
 20
-40.0334953908
 30
0.0
 10
-3.7402965424
 20
-40.4901158655
 30
0.0
 10
-3.819670256
 20
-41.1205099012
 30
0.0
 10
-3.98067358
 20
-41.838072216
 30
0.0
 10
-4.2713050078
 20
-42.6991139701
 30
0.0
 10
-4.6896022341
 20
-43.4700344621
 30
0.0
 10
-5.2341604059
 20
-44.0992077192
 30
0.0
 10
-5.6870913317
 20
-44.484498751
 30
0.0
 10
-6.1884744626
 20
-44.7879356161
 30
0.0
 10
-6.7328108909
 20
-45.0068310359
 30
0.0
 10
-7.3143825127
 20
-45.1394494961
 30
0.0
 10
-7.9275338559
 20
-45.1843188192
 30
0.0
 10
-8.5656497557
 20
-45.1404527064
 30
0.0
 10
-9.2221498173
 20
-45.0118547501
 30
0.0
 10
-9.8907966037
 20
-44.8002518878
 30
0.0
 10
-10.5641323456
 20
-44.5043639599
 30
0.0
 10
-11.2341418254
 20
-44.1246423636
 30
0.0
 10
-11.8957818247
 20
-43.6678592988
 30
0.0
 10
-12.5451412433
 20
-43.1408852146
 30
0.0
 10
-13.3990285473
 20
-42.339284869
 30
0.0
 10
-14.3937912352
 20
-41.1878540586
 30
0.0
 10
-15.4315359878
 20
-39.6376785515
 30
0.0
 10
-16.2873352579
 20
-37.9544683028
 30
0.0
 10
-16.8255570347
 20
-36.4812544567
 30
0.0
 10
-17.1343065742
 20
-35.290523425
 30
0.0
 10
-17.3003817827
 20
-34.4118442714
 30
0.0
 10
-17.4011402312
 20
-33.5488815375
 30
0.0
 10
-17.424107843
 20
-32.9790923752
 30
0.0
 10
-17.4266837697
 20
-32.6990784483
 30
0.0
  0
SPLINE
  5
4CF
100
AcDbEntity
  8
RACCORDO
100
AcDbSpline
 62
250
  6
CONTINUOUS
 70
0
 71
3
 72
11
 73
7
 74
0
 42
0.0000001
 43
0.0000001
 44
0.0000000001
 40
0.0
 40
0.0
 40
0.0
 40
0.0
 40
0.2303600837
 40
0.4742002909
 40
0.7310204282
 40
1.0
 40
1.0
 40
1.0
 40
1.0
 10
-3.7013436868
 20
-39.5617484881
 30
0.0
 10
-4.6643666904
 20
-38.8766066899
 30
0.0
 10
-6.7103318638
 20
-37.5541727894
 30
0.0
 10
-10.0094243535
 20
-35.7637497666
 30
0.0
 10
-13.6039999016
 20
-34.1226796693
 30
0.0
 10
-16.1247112808
 20
-33.1565857401
 30
0.0
 10
-17.4266837697
 20
-32.6990784483
 30
0.0
  0
SPLINE
  5
4D0
100
AcDbEntity
  8
RACCORDO
100
AcDbSpline
 62
250
  6
CONTINUOUS
 70
0
 71
3
 72
14
 73
10
 74
0
 42
0.0000001
 43
0.0000001
 44
0.0000000001
 40
0.0
 40
0.0
 40
0.0
 40
0.0
 40
0.0692769752
 40
0.1377409609
 40
0.2053740459
 40
0.2721249769
 40
0.5299553716
 40
0.7727352098
 40
1.0
 40
1.0
 40
1.0
 40
1.0
 10
-17.4266839592
 20
-32.6990783817
 30
0.0
 10
-17.427291142
 20
-32.6335655434
 30
0.0
 10
-17.4262750134
 20
-32.5032958279
 30
0.0
 10
-17.4233434471
 20
-32.309094435
 30
0.0
 10
-17.4173405465
 20
-32.1173414029
 30
0.0
 10
-17.3996595674
 20
-31.7468409686
 30
0.0
 10
-17.3519186063
 20
-31.211902688
 30
0.0
 10
-17.2405156666
 20
-30.5320020055
 30
0.0
 10
-17.1318461914
 20
-30.1001729255
 30
0.0
 10
-17.0685931986
 20
-29.8947657539
 30
0.0
  0
SPLINE
  5
4D1
100
AcDbEntity
  8
RACCORDO
100
AcDbSpline
 62
250
  6
CONTINUOUS
 70
0
 71
3
 72
36
 73
32
 74
0
 42
0.0000001
 43
0.0000001
 44
0.0000000001
 40
0.0
 40
0.0
 40
0.0
 40
0.0
 40
0.0252931395
 40
0.0490253504
 40
0.0714328435
 40
0.0928210983
 40
0.113568268
 40
0.134118525
 40
0.1549390968
 40
0.1764704808
 40
0.1990872535
 40
0.2230783
 40
0.2758679804
 40
0.3048897677
 40
0.3356093341
 40
0.3679409942
 40
0.4017720603
 40
0.4732493654
 40
0.548556172
 40
0.6261076842
 40
0.704363725
 40
0.7819330945
 40
0.8200957224
 40
0.8576445137
 40
0.8944788948
 40
0.9305253211
 40
0.9482333151
 40
0.9657162776
 40
0.9829657501
 40
0.9915085811
 40
1.0
 40
1.0
 40
1.0
 40
1.0
 10
-17.014997275
 20
-29.7294401089
 30
0.0
 10
-16.9568840636
 20
-29.5590047089
 30
0.0
 10
-16.8283267202
 20
-29.2337151418
 30
0.0
 10
-16.5895521968
 20
-28.7834100469
 30
0.0
 10
-16.3120656864
 20
-28.3890747489
 30
0.0
 10
-15.9963125678
 20
-28.0529306587
 30
0.0
 10
-15.6426020467
 20
-27.7776587563
 30
0.0
 10
-15.2521969157
 20
-27.5656915236
 30
0.0
 10
-14.8273470635
 20
-27.4181592783
 30
0.0
 10
-14.3705272187
 20
-27.3355398617
 30
0.0
 10
-13.8843249285
 20
-27.3170643867
 30
0.0
 10
-13.1778722224
 20
-27.3788532255
 30
0.0
 10
-12.4438255234
 20
-27.5721547313
 30
0.0
 10
-11.6996802285
 20
-27.8697296759
 30
0.0
 10
-11.110053725
 20
-28.1575965992
 30
0.0
 10
-10.5113270621
 20
-28.5009285924
 30
0.0
 10
-9.6923604328
 20
-29.0399495619
 30
0.0
 10
-8.681543418
 20
-29.8391554645
 30
0.0
 10
-7.5328303112
 20
-30.9523033471
 30
0.0
 10
-6.4677954806
 20
-32.2101682408
 30
0.0
 10
-5.5269998878
 20
-33.5831483366
 30
0.0
 10
-4.8718491209
 20
-34.8026553306
 30
0.0
 10
-4.4436916688
 20
-35.8070868825
 30
0.0
 10
-4.1780646069
 20
-36.5636932973
 30
0.0
 10
-3.9687179144
 20
-37.3221184118
 30
0.0
 10
-3.8411002846
 20
-37.9549331718
 30
0.0
 10
-3.7690210831
 20
-38.457055654
 30
0.0
 10
-3.7303598001
 20
-38.8284882712
 30
0.0
 10
-3.7109226572
 20
-39.1360644086
 30
0.0
 10
-3.7030724143
 20
-39.3800205368
 30
0.0
 10
-3.7011358478
 20
-39.5012956412
 30
0.0
 10
-3.7013435536
 20
-39.5617485829
 30
0.0
  0
LINE
  5
4D2
100
AcDbEntity
  8
0
100
AcDbLine
 62
7
  6
CONTINUOUS
 10
-14.2033478056
 20
-20.0450371579
 11
-14.2031850453
 21
-17.6742952394
  0
SPLINE
  5
4D3
100
AcDbEntity
  8
RACCORDO
100
AcDbSpline
 62
250
  6
CONTINUOUS
 70
0
 71
3
 72
15
 73
11
 74
0
 42
0.0000001
 43
0.0000001
 44
0.0000000001
 40
0.0
 40
0.0
 40
0.0
 40
0.0
 40
0.1489503098
 40
0.2902914861
 40
0.4238419827
 40
0.5498353796
 40
0.6689828652
 40
0.7825028856
 40
0.8921304377
 40
1.0
 40
1.0
 40
1.0
 40
1.0
 10
-0.0899305206
 20
-40.3670590912
 30
0.0
 10
-0.0898970302
 20
-40.7975022776
 30
0.0
 10
-0.12781377
 20
-41.6370912552
 30
0.0
 10
-0.3080886583
 20
-42.8509013132
 30
0.0
 10
-0.6083834541
 20
-43.9727373186
 30
0.0
 10
-1.0256102314
 20
-44.9880906985
 30
0.0
 10
-1.5554140447
 20
-45.8835819154
 30
0.0
 10
-2.192096315
 20
-46.6468349106
 30
0.0
 10
-2.9277141236
 20
-47.266142121
 30
0.0
 10
-3.4788568905
 20
-47.5772118105
 30
0.0
 10
-3.7634667352
 20
-47.7043750032
 30
0.0
  0
SPLINE
  5
4D4
100
AcDbEntity
  8
RACCORDO
100
AcDbSpline
 62
7
  6
CONTINUOUS
 70
0
 71
3
 72
17
 73
13
 74
0
 42
0.0000001
 43
0.0000001
 44
0.0000000001
 40
0.0
 40
0.0
 40
0.0
 40
0.0
 40
0.1262301359
 40
0.2618454946
 40
0.4018038102
 40
0.5399049769
 40
0.6704345079
 40
0.7898137829
 40
0.8453327687
 40
0.8984593887
 40
0.9497487549
 40
1.0
 40
1.0
 40
1.0
 40
1.0
 10
23.3774912805
 20
41.3320273124
 30
0.0
 10
23.5827903107
 20
41.2021123228
 30
0.0
 10
23.9742170443
 20
40.8766248734
 30
0.0
 10
24.4609696806
 20
40.2704892703
 30
0.0
 10
24.8440456459
 20
39.5678130117
 30
0.0
 10
25.0962192851
 20
38.818408608
 30
0.0
 10
25.1985247256
 20
38.0738888027
 30
0.0
 10
25.1460604821
 20
37.4809825215
 30
0.0
 10
25.0110975372
 20
37.0615875142
 30
0.0
 10
24.8681211406
 20
36.7870637951
 30
0.0
 10
24.6818213792
 20
36.5524281702
 30
0.0
 10
24.5292513462
 20
36.4273273049
 30
0.0
 10
24.4480405258
 20
36.374800832
 30
0.0
  0
SPLINE
  5
4D5
100
AcDbEntity
  8
RACCORDO
100
AcDbSpline
 62
7
  6
CONTINUOUS
 70
0
 71
3
 72
9
 73
5
 74
0
 42
0.0000001
 43
0.0000001
 44
0.0000000001
 40
0.0
 40
0.0
 40
0.0
 40
0.0
 40
0.5021448215
 40
1.0
 40
1.0
 40
1.0
 40
1.0
 10
22.6984199819
 20
43.5962608087
 30
0.0
 10
22.710332526
 20
43.5902809069
 30
0.0
 10
22.7325777256
 20
43.5749958902
 30
0.0
 10
22.7491187939
 20
43.5536782998
 30
0.0
 10
22.7557297649
 20
43.5422353782
 30
0.0
  0
SPLINE
  5
4D6
100
AcDbEntity
  8
RACCORDO
100
AcDbSpline
 62
7
  6
CONTINUOUS
 70
0
 71
3
 72
11
 73
7
 74
0
 42
0.0000001
 43
0.0000001
 44
0.0000000001
 40
0.0
 40
0.0
 40
0.0
 40
0.0
 40
0.2499115435
 40
0.4992943761
 40
0.7487191603
 40
1.0
 40
1.0
 40
1.0
 40
1.0
 10
22.8528706038
 20
10.2521274431
 30
0.0
 10
22.9382800208
 20
10.3140274801
 30
0.0
 10
23.0929498958
 20
10.4614516494
 30
0.0
 10
23.2597829399
 20
10.733579075
 30
0.0
 10
23.3572373014
 20
11.0376403841
 30
0.0
 10
23.3773174327
 20
11.2497021939
 30
0.0
 10
23.3773174327
 20
11.3557618128
 30
0.0
  0
SPLINE
  5
4D7
100
AcDbEntity
  8
RACCORDO
100
AcDbSpline
 62
7
  6
CONTINUOUS
 70
0
 71
3
 72
9
 73
5
 74
0
 42
0.0000001
 43
0.0000001
 44
0.0000000001
 40
0.0
 40
0.0
 40
0.0
 40
0.0
 40
0.4950842791
 40
1.0
 40
1.0
 40
1.0
 40
1.0
 10
23.3773174327
 20
41.9638238824
 30
0.0
 10
23.3773174327
 20
42.1330048057
 30
0.0
 10
23.3257057781
 20
42.475792448
 30
0.0
 10
23.1898626043
 20
42.7934774767
 30
0.0
 10
23.103318693
 20
42.9427436438
 30
0.0
  0
SPLINE
  5
4D8
100
AcDbEntity
  8
RACCORDO
100
AcDbSpline
 62
7
  6
CONTINUOUS
 70
0
 71
3
 72
9
 73
5
 74
0
 42
0.0000001
 43
0.0000001
 44
0.0000000001
 40
0.0
 40
0.0
 40
0.0
 40
0.0
 40
0.506145467
 40
1.0
 40
1.0
 40
1.0
 40
1.0
 10
2.9130641187
 20
44.2666445235
 30
0.0
 10
2.7905697426
 20
44.2874038126
 30
0.0
 10
2.5436393064
 20
44.3017590058
 30
0.0
 10
2.2983774719
 20
44.2668820205
 30
0.0
 10
2.1814632369
 20
44.2348458582
 30
0.0
  0
SPLINE
  5
4D9
100
AcDbEntity
  8
RACCORDO
100
AcDbSpline
 62
7
  6
CONTINUOUS
 70
0
 71
3
 72
9
 73
5
 74
0
 42
0.0000001
 43
0.0000001
 44
0.0000000001
 40
0.0
 40
0.0
 40
0.0
 40
0.0
 40
0.2468732706
 40
1.0
 40
1.0
 40
1.0
 40
1.0
 10
22.3662165581
 20
9.9063397331
 30
0.0
 10
22.3721402969
 20
9.9094723037
 30
0.0
 10
22.3958979383
 20
9.9226069298
 30
0.0
 10
22.4186894794
 20
9.9374756486
 30
0.0
 10
22.4352281958
 20
9.9494909926
 30
0.0
  0
SPLINE
  5
4DA
100
AcDbEntity
  8
RACCORDO
100
AcDbSpline
 62
250
  6
CONTINUOUS
 70
0
 71
3
 72
11
 73
7
 74
0
 42
0.0000001
 43
0.0000001
 44
0.0000000001
 40
0.0
 40
0.0
 40
0.0
 40
0.0
 40
0.2278476681
 40
0.4657333803
 40
0.7217788532
 40
1.0
 40
1.0
 40
1.0
 40
1.0
 10
15.4992710028
 20
46.8180088757
 30
0.0
 10
15.5270544915
 20
46.8308369294
 30
0.0
 10
15.5877883391
 20
46.8492405384
 30
0.0
 10
15.6856563471
 20
46.852068629
 30
0.0
 10
15.7879865725
 20
46.8309797262
 30
0.0
 10
15.8545340345
 20
46.802978204
 30
0.0
 10
15.8877227093
 20
46.785807048
 30
0.0
  0
SPLINE
  5
4DB
100
AcDbEntity
  8
RACCORDO
100
AcDbSpline
 62
250
  6
CONTINUOUS
 70
0
 71
3
 72
14
 73
10
 74
0
 42
0.0000001
 43
0.0000001
 44
0.0000000001
 40
0.0
 40
0.0
 40
0.0
 40
0.0
 40
0.0282570206
 40
0.0515629833
 40
0.0820688737
 40
0.1653301237
 40
0.2782857061
 40
0.588974346
 40
1.0
 40
1.0
 40
1.0
 40
1.0
 10
23.1033074413
 20
42.9427371202
 30
0.0
 10
23.1016855993
 20
42.9455398508
 30
0.0
 10
23.0947994053
 20
42.9472552654
 30
0.0
 10
23.0857275935
 20
42.9468274156
 30
0.0
 10
23.0700205242
 20
42.9444337776
 30
0.0
 10
23.0450628127
 20
42.9373628683
 30
0.0
 10
22.9902480073
 20
42.9179260139
 30
0.0
 10
22.9024872864
 20
42.8797621886
 30
0.0
 10
22.8279364807
 20
42.8439250227
 30
0.0
 10
22.7857597681
 20
42.8229551239
 30
0.0
  0
SPLINE
  5
4DC
100
AcDbEntity
  8
RACCORDO
100
AcDbSpline
 62
250
  6
CONTINUOUS
 70
0
 71
3
 72
17
 73
13
 74
0
 42
0.0000001
 43
0.0000001
 44
0.0000000001
 40
0.0
 40
0.0
 40
0.0
 40
0.0
 40
0.2621117077
 40
0.3930718934
 40
0.5237851808
 40
0.6538512017
 40
0.7183114578
 40
0.7819164004
 40
0.8438707478
 40
0.9022192019
 40
0.9544150681
 40
1.0
 40
1.0
 40
1.0
 40
1.0
 10
23.3773177291
 20
38.5568731963
 30
0.0
 10
23.3772823557
 20
38.4731485245
 30
0.0
 10
23.3721289947
 20
38.3474963849
 30
0.0
 10
23.3540003774
 20
38.1811208634
 30
0.0
 10
23.3339909546
 20
38.0575388767
 30
0.0
 10
23.3107642628
 20
37.9561521021
 30
0.0
 10
23.2865418057
 20
37.8772930152
 30
0.0
 10
23.2649469627
 20
37.820510828
 30
0.0
 10
23.2390969364
 20
37.7676131861
 30
0.0
 10
23.2076931042
 20
37.7219903722
 30
0.0
 10
23.1698242597
 20
37.6882688661
 30
0.0
 10
23.1392118649
 20
37.6777844808
 30
0.0
 10
23.124723253
 20
37.6763353111
 30
0.0
  0
SPLINE
  5
4DD
100
AcDbEntity
  8
RACCORDO
100
AcDbSpline
 62
250
  6
CONTINUOUS
 70
0
 71
3
 72
11
 73
7
 74
0
 42
0.0000001
 43
0.0000001
 44
0.0000000001
 40
0.0
 40
0.0
 40
0.0
 40
0.0
 40
0.2077698197
 40
0.4361288948
 40
0.6987110217
 40
1.0
 40
1.0
 40
1.0
 40
1.0
 10
23.377317224
 20
41.9638238824
 30
0.0
 10
23.377314227
 20
41.9346752386
 30
0.0
 10
23.3647763305
 20
41.8730332749
 30
0.0
 10
23.3122493328
 20
41.7884949983
 30
0.0
 10
23.2300923597
 20
41.7122382839
 30
0.0
 10
23.1622590534
 20
41.6706623453
 30
0.0
 10
23.124723253
 20
41.6512276157
 30
0.0
  0
SPLINE
  5
4DE
100
AcDbEntity
  8
RACCORDO
100
AcDbSpline
 62
250
  6
CONTINUOUS
 70
0
 71
3
 72
11
 73
7
 74
0
 42
0.0000001
 43
0.0000001
 44
0.0000000001
 40
0.0
 40
0.0
 40
0.0
 40
0.0
 40
0.2077706525
 40
0.4361384342
 40
0.6986709806
 40
1.0
 40
1.0
 40
1.0
 40
1.0
 10
23.3773142552
 20
11.3557618126
 30
0.0
 10
23.3773220775
 20
11.3266130612
 30
0.0
 10
23.3647692627
 20
11.2649692969
 30
0.0
 10
23.312251382
 20
11.1804370044
 30
0.0
 10
23.2301004254
 20
11.1041715805
 30
0.0
 10
23.1622640312
 20
11.0626028548
 30
0.0
 10
23.124723253
 20
11.0431655479
 30
0.0
  0
SPLINE
  5
4DF
100
AcDbEntity
  8
RACCORDO
100
AcDbSpline
 62
250
  6
CONTINUOUS
 70
0
 71
3
 72
13
 73
9
 74
0
 42
0.0000001
 43
0.0000001
 44
0.0000000001
 40
0.0
 40
0.0
 40
0.0
 40
0.0
 40
0.254734268
 40
0.3710316998
 40
0.485089072
 40
0.6018533436
 40
0.7252809759
 40
1.0
 40
1.0
 40
1.0
 40
1.0
 10
3.4521489577
 20
43.1319625041
 30
0.0
 10
3.4909661692
 20
43.1125932676
 30
0.0
 10
3.5439584158
 20
43.0728877747
 30
0.0
 10
3.5856988688
 20
43.0005122448
 30
0.0
 10
3.6000615572
 20
42.9423541421
 30
0.0
 10
3.5981496619
 20
42.8813608539
 30
0.0
 10
3.5740384291
 20
42.7963507354
 30
0.0
 10
3.5347862121
 20
42.738645063
 30
0.0
 10
3.5034507469
 20
42.703904531
 30
0.0
  0
SPLINE
  5
4E0
100
AcDbEntity
  8
RACCORDO
100
AcDbSpline
 62
250
  6
CONTINUOUS
 70
0
 71
3
 72
11
 73
7
 74
0
 42
0.0000001
 43
0.0000001
 44
0.0000000001
 40
0.0
 40
0.0
 40
0.0
 40
0.0
 40
0.2525049943
 40
0.5168997369
 40
0.7726228642
 40
1.0
 40
1.0
 40
1.0
 40
1.0
 10
2.0056246653
 20
43.4025086825
 30
0.0
 10
2.0537871755
 20
43.4402914124
 30
0.0
 10
2.1638747963
 20
43.5034940329
 30
0.0
 10
2.3452216751
 20
43.5565503408
 30
0.0
 10
2.5279997689
 20
43.5649713042
 30
0.0
 10
2.6444308505
 20
43.5357976933
 30
0.0
 10
2.6937433591
 20
43.5111653034
 30
0.0
  0
SPLINE
  5
4E1
100
AcDbEntity
  8
0
100
AcDbSpline
 62
7
  6
CONTINUOUS
 70
0
 71
3
 72
12
 73
8
 74
0
 42
0.0000001
 43
0.0000001
 44
0.0000000001
 40
0.0
 40
0.0
 40
0.0
 40
0.0
 40
0.3016981062
 40
0.5641499035
 40
0.7921056904
 40
0.8974627524
 40
1.0
 40
1.0
 40
1.0
 40
1.0
 10
13.8430551542
 20
43.587312278
 30
0.0
 10
13.7260016204
 20
43.5277550073
 30
0.0
 10
13.5144803561
 20
43.4001278067
 30
0.0
 10
13.2580015483
 20
43.1656016179
 30
0.0
 10
13.1177783995
 20
42.9417492929
 30
0.0
 10
13.0634384276
 20
42.7589332532
 30
0.0
 10
13.0545065306
 20
42.6681981116
 30
0.0
 10
13.0545011104
 20
42.6235620394
 30
0.0
  0
SPLINE
  5
4E2
100
AcDbEntity
  8
DRAFT
100
AcDbSpline
 62
7
  6
CONTINUOUS
 70
0
 71
3
 72
9
 73
5
 74
0
 42
0.0000001
 43
0.0000001
 44
0.0000000001
 40
0.0
 40
0.0
 40
0.0
 40
0.0
 40
0.2412181231
 40
1.0
 40
1.0
 40
1.0
 40
1.0
 10
18.5728486717
 20
43.0329556052
 30
0.0
 10
18.5492401049
 20
43.0467626465
 30
0.0
 10
18.4503721097
 20
43.1022926261
 30
0.0
 10
18.3478361275
 20
43.1511992342
 30
0.0
 10
18.2687292878
 20
43.1850152972
 30
0.0
  0
SPLINE
  5
4E3
100
AcDbEntity
  8
RACCORDO
100
AcDbSpline
 62
7
  6
CONTINUOUS
 70
0
 71
3
 72
9
 73
5
 74
0
 42
0.0000001
 43
0.0000001
 44
0.0000000001
 40
0.0
 40
0.0
 40
0.0
 40
0.0
 40
0.2423387215
 40
1.0
 40
1.0
 40
1.0
 40
1.0
 10
1.8950681653
 20
44.1190926705
 30
0.0
 10
1.8972707256
 20
44.1201371502
 30
0.0
 10
1.9066052237
 20
44.1239271629
 30
0.0
 10
1.9167699629
 20
44.1255087667
 30
0.0
 10
1.9243900703
 20
44.1256407779
 30
0.0
  0
SPLINE
  5
4E4
100
AcDbEntity
  8
RACCORDO
100
AcDbSpline
 62
7
  6
CONTINUOUS
 70
0
 71
3
 72
9
 73
5
 74
0
 42
0.0000001
 43
0.0000001
 44
0.0000000001
 40
0.0
 40
0.0
 40
0.0
 40
0.0
 40
0.2271410778
 40
1.0
 40
1.0
 40
1.0
 40
1.0
 10
1.9243900703
 20
44.1256407779
 30
0.0
 10
1.9287428607
 20
44.1257161858
 30
0.0
 10
1.9479199459
 20
44.1245669232
 30
0.0
 10
1.9666484635
 20
44.118470612
 30
0.0
 10
1.9798974436
 20
44.1118461219
 30
0.0
  0
SPLINE
  5
4E5
100
AcDbEntity
  8
RACCORDO
100
AcDbSpline
 62
7
  6
CONTINUOUS
 70
0
 71
3
 72
9
 73
5
 74
0
 42
0.0000001
 43
0.0000001
 44
0.0000000001
 40
0.0
 40
0.0
 40
0.0
 40
0.0
 40
0.4624563088
 40
1.0
 40
1.0
 40
1.0
 40
1.0
 10
2.0365637754
 20
44.1858204004
 30
0.0
 10
2.0483976666
 20
44.1906810859
 30
0.0
 10
2.0773791005
 20
44.1934584737
 30
0.0
 10
2.1038400936
 20
44.1831189496
 30
0.0
 10
2.116832607
 20
44.1758853675
 30
0.0
  0
SPLINE
  5
4E6
100
AcDbEntity
  8
RACCORDO
100
AcDbSpline
 62
250
  6
CONTINUOUS
 70
0
 71
3
 72
9
 73
5
 74
0
 42
0.0000001
 43
0.0000001
 44
0.0000000001
 40
0.0
 40
0.0
 40
0.0
 40
0.0
 40
0.5177799267
 40
1.0
 40
1.0
 40
1.0
 40
1.0
 10
22.7857597691
 20
42.8229551221
 30
0.0
 10
22.8922246751
 20
42.6393303216
 30
0.0
 10
23.056578276
 20
42.2593799927
 30
0.0
 10
23.1247232531
 20
41.8489069085
 30
0.0
 10
23.124723253
 20
41.6512276157
 30
0.0
  0
SPLINE
  5
4E7
100
AcDbEntity
  8
DRAFT
100
AcDbSpline
 62
7
  6
CONTINUOUS
 70
0
 71
3
 72
9
 73
5
 74
0
 42
0.0000001
 43
0.0000001
 44
0.0000000001
 40
0.0
 40
0.0
 40
0.0
 40
0.0
 40
0.2407235763
 40
1.0
 40
1.0
 40
1.0
 40
1.0
 10
8.6627153994
 20
34.1633038504
 30
0.0
 10
8.6627153994
 20
34.2058161184
 30
0.0
 10
8.657379654
 20
34.3824021855
 30
0.0
 10
8.6319382525
 20
34.5581772606
 30
0.0
 10
8.603424962
 20
34.6892003573
 30
0.0
  0
SPLINE
  5
4E8
100
AcDbEntity
  8
DRAFT
100
AcDbSpline
 62
7
  6
CONTINUOUS
 70
0
 71
3
 72
9
 73
5
 74
0
 42
0.0000001
 43
0.0000001
 44
0.0000000001
 40
0.0
 40
0.0
 40
0.0
 40
0.0
 40
0.2469228088
 40
1.0
 40
1.0
 40
1.0
 40
1.0
 10
8.248501837
 20
2.5376036906
 30
0.0
 10
8.2595158446
 20
2.5455860361
 30
0.0
 10
8.3032544447
 20
2.5790979088
 30
0.0
 10
8.3434150572
 20
2.6172351028
 30
0.0
 10
8.3713325232
 20
2.6479214273
 30
0.0
  0
SPLINE
  5
4E9
100
AcDbEntity
  8
DRAFT
100
AcDbSpline
 62
7
  6
CONTINUOUS
 70
0
 71
3
 72
9
 73
5
 74
0
 42
0.0000001
 43
0.0000001
 44
0.0000000001
 40
0.0
 40
0.0
 40
0.0
 40
0.0
 40
0.2374094319
 40
1.0
 40
1.0
 40
1.0
 40
1.0
 10
8.603424962
 20
3.0886357112
 30
0.0
 10
8.6134174632
 20
3.1245603395
 30
0.0
 10
8.6495102038
 20
3.2775371797
 30
0.0
 10
8.6627153994
 20
3.4354663149
 30
0.0
 10
8.6627153994
 20
3.5552417808
 30
0.0
  0
SPLINE
  5
4EA
100
AcDbEntity
  8
RACCORDO
100
AcDbSpline
 62
7
  6
CONTINUOUS
 70
0
 71
3
 72
11
 73
7
 74
0
 42
0.0000001
 43
0.0000001
 44
0.0000000001
 40
0.0
 40
0.0
 40
0.0
 40
0.0
 40
0.2336741059
 40
0.4963205999
 40
0.7609364539
 40
1.0
 40
1.0
 40
1.0
 40
1.0
 10
2.5913030115
 20
42.3108650602
 30
0.0
 10
2.5618008137
 20
42.3256161591
 30
0.0
 10
2.4941691741
 20
42.3470014396
 30
0.0
 10
2.3867891757
 20
42.3581254087
 30
0.0
 10
2.2783947831
 20
42.3496764959
 30
0.0
 10
2.2092024519
 20
42.3301237787
 30
0.0
 10
2.1784317953
 20
42.3162707668
 30
0.0
  0
SPLINE
  5
4EB
100
AcDbEntity
  8
RACCORDO
100
AcDbSpline
 62
250
  6
CONTINUOUS
 70
0
 71
3
 72
15
 73
11
 74
0
 42
0.0000001
 43
0.0000001
 44
0.0000000001
 40
0.0
 40
0.0
 40
0.0
 40
0.0
 40
0.0951406638
 40
0.171690764
 40
0.2994227567
 40
0.4151614009
 40
0.5255423869
 40
0.6339721696
 40
0.7450560606
 40
1.0
 40
1.0
 40
1.0
 40
1.0
 10
23.2323825431
 20
36.1049304938
 30
0.0
 10
23.2504219861
 20
36.1113266498
 30
0.0
 10
23.2847461118
 20
36.1190562165
 30
0.0
 10
23.3455894169
 20
36.1129467663
 30
0.0
 10
23.4038155551
 20
36.0795904766
 30
0.0
 10
23.4477389557
 20
36.0220649056
 30
0.0
 10
23.4717794414
 20
35.9582737715
 30
0.0
 10
23.4773126943
 20
35.8912779903
 30
0.0
 10
23.4587113396
 20
35.796509366
 30
0.0
 10
23.4138588858
 20
35.7334919456
 30
0.0
 10
23.377582911
 20
35.6972356769
 30
0.0
  0
SPLINE
  5
4EC
100
AcDbEntity
  8
RACCORDO
100
AcDbSpline
 62
7
  6
CONTINUOUS
 70
0
 71
3
 72
31
 73
27
 74
0
 42
0.0000001
 43
0.0000001
 44
0.0000000001
 40
0.0
 40
0.0
 40
0.0
 40
0.0
 40
0.1395652982
 40
0.2102492609
 40
0.2817763226
 40
0.3544634145
 40
0.391401902
 40
0.4288645775
 40
0.4669866123
 40
0.5059064605
 40
0.5454486465
 40
0.5649186539
 40
0.5831167934
 40
0.599133957
 40
0.6130432868
 40
0.6256668924
 40
0.6377475879
 40
0.6615624773
 40
0.6857067582
 40
0.7103248418
 40
0.7353820266
 40
0.7865620725
 40
0.8388537209
 40
0.8919722947
 40
0.9457301391
 40
1.0
 40
1.0
 40
1.0
 40
1.0
 10
23.2323825431
 20
36.1049304938
 30
0.0
 10
23.3531013082
 20
36.2049802696
 30
0.0
 10
23.5332588962
 20
36.3577981143
 30
0.0
 10
23.7691151239
 20
36.56896131
 30
0.0
 10
23.9451052485
 20
36.7342594874
 30
0.0
 10
24.0888101432
 20
36.8784530944
 30
0.0
 10
24.2009357858
 20
36.9998622252
 30
0.0
 10
24.2835414831
 20
37.0955840453
 30
0.0
 10
24.363045393
 20
37.1968114631
 30
0.0
 10
24.4367080586
 20
37.3052136602
 30
0.0
 10
24.4881429365
 20
37.4031271931
 30
0.0
 10
24.5149560104
 20
37.4859476263
 30
0.0
 10
24.5228158817
 20
37.5461869186
 30
0.0
 10
24.5166204684
 20
37.6006609609
 30
0.0
 10
24.4965310842
 20
37.6448532257
 30
0.0
 10
24.468153009
 20
37.6782553237
 30
0.0
 10
24.4242643174
 20
37.711111937
 30
0.0
 10
24.3616723446
 20
37.7381860628
 30
0.0
 10
24.2821157025
 20
37.7568469506
 30
0.0
 10
24.199674496
 20
37.7668979303
 30
0.0
 10
24.0864271679
 20
37.7721406438
 30
0.0
 10
23.9419224418
 20
37.7672389197
 30
0.0
 10
23.7667740032
 20
37.7502438499
 30
0.0
 10
23.5896610899
 20
37.7253413928
 30
0.0
 10
23.4112390629
 20
37.6945843733
 30
0.0
 10
23.2921608593
 20
37.6711075795
 30
0.0
 10
23.2324559698
 20
37.6587639875
 30
0.0
  0
SPLINE
  5
4ED
100
AcDbEntity
  8
RACCORDO
100
AcDbSpline
 62
250
  6
CONTINUOUS
 70
0
 71
3
 72
14
 73
10
 74
0
 42
0.0000001
 43
0.0000001
 44
0.0000000001
 40
0.0
 40
0.0
 40
0.0
 40
0.0
 40
0.2544725274
 40
0.5087079822
 40
0.6355705859
 40
0.7615423764
 40
0.8849158252
 40
0.9442180361
 40
1.0
 40
1.0
 40
1.0
 40
1.0
 10
23.3777178676
 20
39.2492599016
 30
0.0
 10
23.4195334941
 20
39.1159441823
 30
0.0
 10
23.4741244033
 20
38.8398300504
 30
0.0
 10
23.4795557944
 20
38.4892331633
 30
0.0
 10
23.4485815432
 20
38.2122043372
 30
0.0
 10
23.4063865659
 20
38.0097375174
 30
0.0
 10
23.3522811253
 20
37.8482246125
 30
0.0
 10
23.2918301345
 20
37.7318158192
 30
0.0
 10
23.253799742
 20
37.6806262364
 30
0.0
 10
23.2323694422
 20
37.6587451202
 30
0.0
  0
SPLINE
  5
4EE
100
AcDbEntity
  8
RACCORDO
100
AcDbSpline
 62
250
  6
CONTINUOUS
 70
0
 71
3
 72
9
 73
5
 74
0
 42
0.0000001
 43
0.0000001
 44
0.0000000001
 40
0.0
 40
0.0
 40
0.0
 40
0.0
 40
0.5349853634
 40
1.0
 40
1.0
 40
1.0
 40
1.0
 10
2.95029873
 20
44.2297053407
 30
0.0
 10
2.9642517051
 20
44.2365326962
 30
0.0
 10
2.9925429006
 20
44.2458458961
 30
0.0
 10
3.0227076109
 20
44.2418060238
 30
0.0
 10
3.0350734811
 20
44.2363845475
 30
0.0
  0
SPLINE
  5
4EF
100
AcDbEntity
  8
RACCORDO
100
AcDbSpline
 62
250
  6
CONTINUOUS
 70
0
 71
3
 72
10
 73
6
 74
0
 42
0.0000001
 43
0.0000001
 44
0.0000000001
 40
0.0
 40
0.0
 40
0.0
 40
0.0
 40
0.3148903432
 40
0.6958669389
 40
1.0
 40
1.0
 40
1.0
 40
1.0
 10
2.95029873
 20
44.2297053407
 30
0.0
 10
2.9537353251
 20
44.2335603071
 30
0.0
 10
2.9618553027
 20
44.2416006724
 30
0.0
 10
2.9757869135
 20
44.2508316607
 30
0.0
 10
2.9876174239
 20
44.2521992383
 30
0.0
 10
2.9924869483
 20
44.2511187082
 30
0.0
  0
SPLINE
  5
4F0
100
AcDbEntity
  8
RACCORDO
100
AcDbSpline
 62
250
  6
CONTINUOUS
 70
0
 71
3
 72
11
 73
7
 74
0
 42
0.0000001
 43
0.0000001
 44
0.0000000001
 40
0.0
 40
0.0
 40
0.0
 40
0.0
 40
0.2539066107
 40
0.5150096465
 40
0.7683381763
 40
1.0
 40
1.0
 40
1.0
 40
1.0
 10
2.95029873
 20
44.2297053407
 30
0.0
 10
2.8804036382
 20
44.2452538124
 30
0.0
 10
2.7359947883
 20
44.2655939928
 30
0.0
 10
2.5186942289
 20
44.2665559699
 30
0.0
 10
2.3094717216
 20
44.2389386616
 30
0.0
 10
2.1773511359
 20
44.200493733
 30
0.0
 10
2.116832607
 20
44.1758853675
 30
0.0
  0
SPLINE
  5
4F1
100
AcDbEntity
  8
RACCORDO
100
AcDbSpline
 62
250
  6
CONTINUOUS
 70
0
 71
3
 72
10
 73
6
 74
0
 42
0.0000001
 43
0.0000001
 44
0.0000000001
 40
0.0
 40
0.0
 40
0.0
 40
0.0
 40
0.2610049634
 40
0.5270913481
 40
1.0
 40
1.0
 40
1.0
 40
1.0
 10
2.1784317953
 20
43.1811892947
 30
0.0
 10
2.2058914118
 20
43.2088346105
 30
0.0
 10
2.2692266653
 20
43.2576313829
 30
0.0
 10
2.4045868401
 20
43.3189004337
 30
0.0
 10
2.5281494611
 20
43.3250096452
 30
0.0
 10
2.5913030115
 20
43.29344972
 30
0.0
  0
SPLINE
  5
4F2
100
AcDbEntity
  8
RACCORDO
100
AcDbSpline
 62
250
  6
CONTINUOUS
 70
0
 71
3
 72
9
 73
5
 74
0
 42
0.0000001
 43
0.0000001
 44
0.0000000001
 40
0.0
 40
0.0
 40
0.0
 40
0.0
 40
0.5065966774
 40
1.0
 40
1.0
 40
1.0
 40
1.0
 10
3.3497086102
 20
42.9142469206
 30
0.0
 10
3.376067233
 20
42.9010851987
 30
0.0
 10
3.4231372494
 20
42.8606558123
 30
0.0
 10
3.4375458696
 20
42.8006070771
 30
0.0
 10
3.4375661926
 20
42.7719123917
 30
0.0
  0
SPLINE
  5
4F3
100
AcDbEntity
  8
RACCORDO
100
AcDbSpline
 62
250
  6
CONTINUOUS
 70
0
 71
3
 72
11
 73
7
 74
0
 42
0.0000001
 43
0.0000001
 44
0.0000000001
 40
0.0
 40
0.0
 40
0.0
 40
0.0
 40
0.3085817442
 40
0.5746667067
 40
0.8000780788
 40
1.0
 40
1.0
 40
1.0
 40
1.0
 10
3.4701679799
 20
42.6702370253
 30
0.0
 10
3.4605764622
 20
42.6744341727
 30
0.0
 10
3.4421042864
 20
42.6809927722
 30
0.0
 10
3.4150289472
 20
42.6850380625
 30
0.0
 10
3.3913590064
 20
42.6820189758
 30
0.0
 10
3.3783568852
 20
42.6746720265
 30
0.0
 10
3.3733688406
 20
42.6700754536
 30
0.0
  0
SPLINE
  5
4F4
100
AcDbEntity
  8
RACCORDO
100
AcDbSpline
 62
250
  6
CONTINUOUS
 70
0
 71
3
 72
9
 73
5
 74
0
 42
0.0000001
 43
0.0000001
 44
0.0000000001
 40
0.0
 40
0.0
 40
0.0
 40
0.0
 40
0.5039091101
 40
1.0
 40
1.0
 40
1.0
 40
1.0
 10
3.4521489577
 20
43.1319625041
 30
0.0
 10
3.4207318355
 20
43.1052205082
 30
0.0
 10
3.3716905229
 20
43.0365859186
 30
0.0
 10
3.3497086538
 20
42.9548641678
 30
0.0
 10
3.3497086123
 20
42.9142469196
 30
0.0
  0
SPLINE
  5
4F5
100
AcDbEntity
  8
RACCORDO
100
AcDbSpline
 62
250
  6
CONTINUOUS
 70
0
 71
3
 72
9
 73
5
 74
0
 42
0.0000001
 43
0.0000001
 44
0.0000000001
 40
0.0
 40
0.0
 40
0.0
 40
0.0
 40
0.503908962
 40
1.0
 40
1.0
 40
1.0
 40
1.0
 10
2.6937433591
 20
43.5111653034
 30
0.0
 10
2.6623262144
 20
43.4844233459
 30
0.0
 10
2.6132848486
 20
43.4157887691
 30
0.0
 10
2.5913030115
 20
43.3340669845
 30
0.0
 10
2.5913030115
 20
43.29344972
 30
0.0
  0
SPLINE
  5
4F6
100
AcDbEntity
  8
RACCORDO
100
AcDbSpline
 62
250
  6
CONTINUOUS
 70
0
 71
3
 72
11
 73
7
 74
0
 42
0.0000001
 43
0.0000001
 44
0.0000000001
 40
0.0
 40
0.0
 40
0.0
 40
0.0
 40
0.2345188867
 40
0.5007387613
 40
0.7665652614
 40
1.0
 40
1.0
 40
1.0
 40
1.0
 10
2.0056246653
 20
43.4025086825
 30
0.0
 10
2.0250702008
 20
43.3914487859
 30
0.0
 10
2.0632086236
 20
43.361941695
 30
0.0
 10
2.1127275194
 20
43.3077827086
 30
0.0
 10
2.1532108311
 20
43.2467007393
 30
0.0
 10
2.1725018171
 20
43.2026525012
 30
0.0
 10
2.1784317969
 20
43.181189296
 30
0.0
  0
SPLINE
  5
4F7
100
AcDbEntity
  8
RACCORDO
100
AcDbSpline
 62
250
  6
CONTINUOUS
 70
0
 71
3
 72
16
 73
12
 74
0
 42
0.0000001
 43
0.0000001
 44
0.0000000001
 40
0.0
 40
0.0
 40
0.0
 40
0.0
 40
0.1080918061
 40
0.1943287314
 40
0.2612719188
 40
0.3184127735
 40
0.3727001042
 40
0.4269608027
 40
0.5376689437
 40
0.7665407379
 40
1.0
 40
1.0
 40
1.0
 40
1.0
 10
23.124723253
 20
35.9758726223
 30
0.0
 10
23.1375636601
 20
35.9878837534
 30
0.0
 10
23.1621491739
 20
36.0080595934
 30
0.0
 10
23.2009573023
 20
36.0268566214
 30
0.0
 10
23.2359294488
 20
36.0301995217
 30
0.0
 10
23.264126537
 20
36.0210552043
 30
0.0
 10
23.2864424674
 20
36.0054876765
 30
0.0
 10
23.3109213479
 20
35.9793032745
 30
0.0
 10
23.3438241098
 20
35.9236565432
 30
0.0
 10
23.3704360022
 20
35.8332284158
 30
0.0
 10
23.3772804496
 20
35.7579304105
 30
0.0
 10
23.3773180384
 20
35.7199553863
 30
0.0
  0
SPLINE
  5
4F8
100
AcDbEntity
  8
RACCORDO
100
AcDbSpline
 62
250
  6
CONTINUOUS
 70
0
 71
3
 72
9
 73
5
 74
0
 42
0.0000001
 43
0.0000001
 44
0.0000000001
 40
0.0
 40
0.0
 40
0.0
 40
0.0
 40
0.246951232
 40
1.0
 40
1.0
 40
1.0
 40
1.0
 10
22.7857597691
 20
10.2104015236
 30
0.0
 10
22.7947039173
 20
10.2168837491
 30
0.0
 10
22.8302240295
 20
10.244087281
 30
0.0
 10
22.8628621518
 20
10.2750185568
 30
0.0
 10
22.8855671469
 20
10.2999000182
 30
0.0
  0
SPLINE
  5
4F9
100
AcDbEntity
  8
RACCORDO
100
AcDbSpline
 62
250
  6
CONTINUOUS
 70
0
 71
3
 72
11
 73
7
 74
0
 42
0.0000001
 43
0.0000001
 44
0.0000000001
 40
0.0
 40
0.0
 40
0.0
 40
0.0
 40
0.2211780059
 40
0.4599539454
 40
0.7194923471
 40
1.0
 40
1.0
 40
1.0
 40
1.0
 10
22.8855671469
 20
10.2999000182
 30
0.0
 10
22.9251907061
 20
10.3433218315
 30
0.0
 10
22.9962252177
 20
10.4444072352
 30
0.0
 10
23.0707205028
 20
10.6217721444
 30
0.0
 10
23.1155232818
 20
10.8248200719
 30
0.0
 10
23.124723253
 20
10.9686139429
 30
0.0
 10
23.124723253
 20
11.0431655461
 30
0.0
  0
SPLINE
  5
4FA
100
AcDbEntity
  8
RACCORDO
100
AcDbSpline
 62
250
  6
CONTINUOUS
 70
0
 71
3
 72
9
 73
5
 74
0
 42
0.0000001
 43
0.0000001
 44
0.0000000001
 40
0.0
 40
0.0
 40
0.0
 40
0.0
 40
0.2551444626
 40
1.0
 40
1.0
 40
1.0
 40
1.0
 10
8.2767404233
 20
44.1375759127
 30
0.0
 10
8.2875763306
 20
44.1365003971
 30
0.0
 10
8.3298437849
 20
44.1304965689
 30
0.0
 10
8.3710691923
 20
44.1168465862
 30
0.0
 10
8.3994962898
 20
44.1026179191
 30
0.0
  0
SPLINE
  5
4FB
100
AcDbEntity
  8
RACCORDO
100
AcDbSpline
 62
7
  6
CONTINUOUS
 70
0
 71
3
 72
10
 73
6
 74
0
 42
0.0000001
 43
0.0000001
 44
0.0000000001
 40
0.0
 40
0.0
 40
0.0
 40
0.0
 40
0.3213393498
 40
0.5943228933
 40
1.0
 40
1.0
 40
1.0
 40
1.0
 10
22.3662165581
 20
43.5465601236
 30
0.0
 10
22.3993727187
 20
43.5626656983
 30
0.0
 10
22.4626411294
 20
43.5893283806
 30
0.0
 10
22.5727040629
 20
43.6186364324
 30
0.0
 10
22.6568306777
 20
43.6171379572
 30
0.0
 10
22.6984199819
 20
43.5962608087
 30
0.0
  0
SPLINE
  5
4FC
100
AcDbEntity
  8
RACCORDO
100
AcDbSpline
 62
250
  6
CONTINUOUS
 70
0
 71
3
 72
11
 73
7
 74
0
 42
0.0000001
 43
0.0000001
 44
0.0000000001
 40
0.0
 40
0.0
 40
0.0
 40
0.0
 40
0.2780663821
 40
0.5340572864
 40
0.7720144474
 40
1.0
 40
1.0
 40
1.0
 40
1.0
 10
15.8877227093
 20
46.785807048
 30
0.0
 10
15.9215908904
 20
46.8020171045
 30
0.0
 10
15.9893152262
 20
46.8280625232
 30
0.0
 10
16.0927931498
 20
46.846017085
 30
0.0
 10
16.1910698736
 20
46.8400940753
 30
0.0
 10
16.2515503385
 20
46.8196921454
 30
0.0
 10
16.2790881013
 20
46.8059300886
 30
0.0
  0
SPLINE
  5
4FD
100
AcDbEntity
  8
RACCORDO
100
AcDbSpline
 62
250
  6
CONTINUOUS
 70
0
 71
3
 72
17
 73
13
 74
0
 42
0.0000001
 43
0.0000001
 44
0.0000000001
 40
0.0
 40
0.0
 40
0.0
 40
0.0
 40
0.1297523959
 40
0.2696969499
 40
0.4136781876
 40
0.5548477757
 40
0.6868353648
 40
0.8049893174
 40
0.8584227611
 40
0.9082550494
 40
0.9551146512
 40
1.0
 40
1.0
 40
1.0
 40
1.0
 10
23.3775135959
 20
41.2539539734
 30
0.0
 10
23.5761504822
 20
41.1137933462
 30
0.0
 10
23.9543315872
 20
40.7720003739
 30
0.0
 10
24.4244034893
 20
40.1511581794
 30
0.0
 10
24.7930937941
 20
39.4408818807
 30
0.0
 10
25.0331386102
 20
38.6928708102
 30
0.0
 10
25.127270754
 20
37.9613904798
 30
0.0
 10
25.0752672043
 20
37.3880836252
 30
0.0
 10
24.9479172119
 20
36.9916097676
 30
0.0
 10
24.8179827125
 20
36.7404169528
 30
0.0
 10
24.6526384257
 20
36.5308024436
 30
0.0
 10
24.5186554487
 20
36.4204747996
 30
0.0
 10
24.4480405205
 20
36.3748008415
 30
0.0
  0
SPLINE
  5
4FE
100
AcDbEntity
  8
RACCORDO
100
AcDbSpline
 62
7
  6
CONTINUOUS
 70
0
 71
3
 72
9
 73
5
 74
0
 42
0.0000001
 43
0.0000001
 44
0.0000000001
 40
0.0
 40
0.0
 40
0.0
 40
0.0
 40
0.5181535087
 40
1.0
 40
1.0
 40
1.0
 40
1.0
 10
23.2324559698
 20
37.6587639875
 30
0.0
 10
23.2136010494
 20
37.6548929901
 30
0.0
 10
23.1754797095
 20
37.6524036324
 30
0.0
 10
23.1397755438
 20
37.6666492701
 30
0.0
 10
23.124723253
 20
37.6763353111
 30
0.0
  0
SPLINE
  5
4FF
100
AcDbEntity
  8
RACCORDO
100
AcDbSpline
 62
7
  6
CONTINUOUS
 70
0
 71
3
 72
9
 73
5
 74
0
 42
0.0000001
 43
0.0000001
 44
0.0000000001
 40
0.0
 40
0.0
 40
0.0
 40
0.0
 40
0.2611040676
 40
1.0
 40
1.0
 40
1.0
 40
1.0
 10
23.124723253
 20
35.9758726223
 30
0.0
 10
23.1322108297
 20
35.9884840158
 30
0.0
 10
23.162517671
 20
36.035761887
 30
0.0
 10
23.2004338654
 20
36.0784361239
 30
0.0
 10
23.2323825431
 20
36.1049304938
 30
0.0
  0
SPLINE
  5
500
100
AcDbEntity
  8
ASSI
100
AcDbSpline
 62
7
  6
CONTINUOUS
 70
0
 71
3
 72
11
 73
7
 74
0
 42
0.0000001
 43
0.0000001
 44
0.0000000001
 40
0.0
 40
0.0
 40
0.0
 40
0.0
 40
0.1112164419
 40
0.313551606
 40
0.6122372714
 40
1.0
 40
1.0
 40
1.0
 40
1.0
 10
7.2255928995
 20
43.0182464781
 30
0.0
 10
7.222361393
 20
43.0166978107
 30
0.0
 10
7.2163155456
 20
43.0076780054
 30
0.0
 10
7.2094879201
 20
42.9895071311
 30
0.0
 10
7.203245678
 20
42.9612894453
 30
0.0
 10
7.2007717464
 20
42.9393352924
 30
0.0
 10
7.1997842578
 20
42.9268805197
 30
0.0
  0
SPLINE
  5
501
100
AcDbEntity
  8
ASSI
100
AcDbSpline
 62
7
  6
CONTINUOUS
 70
0
 71
3
 72
13
 73
9
 74
0
 42
0.0000001
 43
0.0000001
 44
0.0000000001
 40
0.0
 40
0.0
 40
0.0
 40
0.0
 40
0.2942061298
 40
0.5679729652
 40
0.6912605556
 40
0.8036201313
 40
0.9057779327
 40
1.0
 40
1.0
 40
1.0
 40
1.0
 10
6.3320894283
 20
42.8851606872
 30
0.0
 10
6.3624194111
 20
42.8312493115
 30
0.0
 10
6.4092218793
 20
42.7201311988
 30
0.0
 10
6.4327436756
 20
42.5747329163
 30
0.0
 10
6.4248771822
 20
42.4674464953
 30
0.0
 10
6.4066917443
 20
42.3982728261
 30
0.0
 10
6.3763859061
 20
42.3401766849
 30
0.0
 10
6.3477289475
 20
42.3094967581
 30
0.0
 10
6.3320894283
 20
42.2973371189
 30
0.0
  0
SPLINE
  5
502
100
AcDbEntity
  8
ASSI
100
AcDbSpline
 62
7
  6
CONTINUOUS
 70
0
 71
3
 72
9
 73
5
 74
0
 42
0.0000001
 43
0.0000001
 44
0.0000000001
 40
0.0
 40
0.0
 40
0.0
 40
0.0
 40
0.2722774608
 40
1.0
 40
1.0
 40
1.0
 40
1.0
 10
7.2332617405
 20
42.9612772406
 30
0.0
 10
7.2336626083
 20
42.9637115275
 30
0.0
 10
7.2350184786
 20
42.9726694812
 30
0.0
 10
7.2359218113
 20
42.9817054017
 30
0.0
 10
7.2361696888
 20
42.9882945457
 30
0.0
  0
SPLINE
  5
503
100
AcDbEntity
  8
ASSI
100
AcDbSpline
 62
250
  6
CONTINUOUS
 70
0
 71
3
 72
11
 73
7
 74
0
 42
0.0000001
 43
0.0000001
 44
0.0000000001
 40
0.0
 40
0.0
 40
0.0
 40
0.0
 40
0.23096881
 40
0.4883736668
 40
0.7520846432
 40
1.0
 40
1.0
 40
1.0
 40
1.0
 10
1.6593608077
 20
34.9525289984
 30
0.0
 10
1.548246765
 20
34.8882944303
 30
0.0
 10
1.337606638
 20
34.7099287649
 30
0.0
 10
1.0923601194
 20
34.367632445
 30
0.0
 10
0.9223709856
 20
33.972123833
 30
0.0
 10
0.8707411402
 20
33.6888491713
 30
0.0
 10
0.8662141077
 20
33.5511618184
 30
0.0
  0
SPLINE
  5
504
100
AcDbEntity
  8
ASSI
100
AcDbSpline
 62
250
  6
CONTINUOUS
 70
0
 71
3
 72
11
 73
7
 74
0
 42
0.0000001
 43
0.0000001
 44
0.0000000001
 40
0.0
 40
0.0
 40
0.0
 40
0.0
 40
0.2468203221
 40
0.509723977
 40
0.7673358031
 40
1.0
 40
1.0
 40
1.0
 40
1.0
 10
-13.8824757255
 20
40.9255067157
 30
0.0
 10
-13.8775153264
 20
41.0628950018
 30
0.0
 10
-13.8238885857
 20
41.3456074031
 30
0.0
 10
-13.6485133403
 20
41.7389976127
 30
0.0
 10
-13.3959932101
 20
42.078177369
 30
0.0
 10
-13.1801295799
 20
42.2529968049
 30
0.0
 10
-13.0666149924
 20
42.3155168807
 30
0.0
  0
SPLINE
  5
505
100
AcDbEntity
  8
ASSI
100
AcDbSpline
 62
250
  6
CONTINUOUS
 70
0
 71
3
 72
11
 73
7
 74
0
 42
0.0000001
 43
0.0000001
 44
0.0000000001
 40
0.0
 40
0.0
 40
0.0
 40
0.0
 40
0.2898984923
 40
0.5491288382
 40
0.7820011108
 40
1.0
 40
1.0
 40
1.0
 40
1.0
 10
0.8662140894
 20
-2.6093260788
 30
0.0
 10
0.8686091302
 20
-2.6795441353
 30
0.0
 10
0.8845200537
 20
-2.8126892433
 30
0.0
 10
0.9485318137
 20
-2.9931194245
 30
0.0
 10
1.0502975121
 20
-3.1352751126
 30
0.0
 10
1.142631029
 20
-3.1987735892
 30
0.0
 10
1.1909359467
 20
-3.2201749112
 30
0.0
  0
SPLINE
  5
506
100
AcDbEntity
  8
ASSI
100
AcDbSpline
 62
250
  6
CONTINUOUS
 70
0
 71
3
 72
11
 73
7
 74
0
 42
0.0000001
 43
0.0000001
 44
0.0000000001
 40
0.0
 40
0.0
 40
0.0
 40
0.0
 40
0.2290602854
 40
0.4673711348
 40
0.7228858452
 40
1.0
 40
1.0
 40
1.0
 40
1.0
 10
5.2439658688
 20
46.4171725479
 30
0.0
 10
5.2130800257
 20
46.4326138032
 30
0.0
 10
5.1453945965
 20
46.4555362521
 30
0.0
 10
5.0355633128
 20
46.4625126031
 30
0.0
 10
4.9201338066
 20
46.442814063
 30
0.0
 10
4.8446931201
 20
46.413878165
 30
0.0
 10
4.8070078646
 20
46.3958517274
 30
0.0
  0
SPLINE
  5
507
100
AcDbEntity
  8
ASSI
100
AcDbSpline
 62
250
  6
CONTINUOUS
 70
0
 71
3
 72
9
 73
5
 74
0
 42
0.0000001
 43
0.0000001
 44
0.0000000001
 40
0.0
 40
0.0
 40
0.0
 40
0.0
 40
0.5097182529
 40
1.0
 40
1.0
 40
1.0
 40
1.0
 10
-7.3841523871
 20
44.8067502768
 30
0.0
 10
-7.3841524432
 20
44.8190180196
 30
0.0
 10
-7.3764118584
 20
44.8429171212
 30
0.0
 10
-7.3593457167
 20
44.8618015396
 30
0.0
 10
-7.3488077244
 20
44.867110924
 30
0.0
  0
SPLINE
  5
508
100
AcDbEntity
  8
ASSI
100
AcDbSpline
 62
250
  6
CONTINUOUS
 70
0
 71
3
 72
11
 73
7
 74
0
 42
0.0000001
 43
0.0000001
 44
0.0000000001
 40
0.0
 40
0.0
 40
0.0
 40
0.0
 40
0.2901782888
 40
0.5506982161
 40
0.7836829758
 40
1.0
 40
1.0
 40
1.0
 40
1.0
 10
2.0220416334
 20
-2.9345050717
 30
0.0
 10
2.0206420074
 20
-2.9670649689
 30
0.0
 10
2.0125620138
 20
-3.0288616466
 30
0.0
 10
1.9819432309
 20
-3.1123350357
 30
0.0
 10
1.9339863918
 20
-3.1776220444
 30
0.0
 10
1.890764344
 20
-3.2062070119
 30
0.0
 10
1.8683055862
 20
-3.2154715468
 30
0.0
  0
SPLINE
  5
509
100
AcDbEntity
  8
ASSI
100
AcDbSpline
 62
250
  6
CONTINUOUS
 70
0
 71
3
 72
11
 73
7
 74
0
 42
0.0000001
 43
0.0000001
 44
0.0000000001
 40
0.0
 40
0.0
 40
0.0
 40
0.0
 40
0.2374454021
 40
0.4997939078
 40
0.7622524585
 40
1.0
 40
1.0
 40
1.0
 40
1.0
 10
1.539145503
 20
-2.5840438198
 30
0.0
 10
1.4907256034
 20
-2.6095095747
 30
0.0
 10
1.380668059
 20
-2.6477722441
 30
0.0
 10
1.2055874782
 20
-2.6707143663
 30
0.0
 10
1.0292096399
 20
-2.660959671
 30
0.0
 10
0.9164978742
 20
-2.6310693545
 30
0.0
 10
0.8662224496
 20
-2.609320911
 30
0.0
  0
SPLINE
  5
50A
100
AcDbEntity
  8
ASSI
100
AcDbSpline
 62
250
  6
CONTINUOUS
 70
0
 71
3
 72
11
 73
7
 74
0
 42
0.0000001
 43
0.0000001
 44
0.0000000001
 40
0.0
 40
0.0
 40
0.0
 40
0.0
 40
0.2326601311
 40
0.4946330426
 40
0.75945891
 40
1.0
 40
1.0
 40
1.0
 40
1.0
 10
1.5391455125
 20
33.5393053383
 30
0.0
 10
1.4900314084
 20
33.5185294933
 30
0.0
 10
1.3791027841
 20
33.4897767191
 30
0.0
 10
1.2046546038
 20
33.4783206525
 30
0.0
 10
1.0289217373
 20
33.4962714679
 30
0.0
 10
0.916645452
 20
33.5288811387
 30
0.0
 10
0.8662141017
 20
33.5511619053
 30
0.0
  0
SPLINE
  5
50B
100
AcDbEntity
  8
ASSI
100
AcDbSpline
 62
250
  6
CONTINUOUS
 70
0
 71
3
 72
11
 73
7
 74
0
 42
0.0000001
 43
0.0000001
 44
0.0000000001
 40
0.0
 40
0.0
 40
0.0
 40
0.0
 40
0.2449319447
 40
0.5106975777
 40
0.7706500547
 40
1.0
 40
1.0
 40
1.0
 40
1.0
 10
2.0220416503
 20
34.34801791
 30
0.0
 10
2.0193726493
 20
34.4075748733
 30
0.0
 10
1.9937562078
 20
34.530994285
 30
0.0
 10
1.9146013306
 20
34.7025386788
 30
0.0
 10
1.8032028872
 20
34.850377825
 30
0.0
 10
1.7087153102
 20
34.9264433919
 30
0.0
 10
1.6593608091
 20
34.9525289991
 30
0.0
  0
SPLINE
  5
50C
100
AcDbEntity
  8
ASSI
100
AcDbSpline
 62
7
  6
CONTINUOUS
 70
0
 71
3
 72
11
 73
7
 74
0
 42
0.0000001
 43
0.0000001
 44
0.0000000001
 40
0.0
 40
0.0
 40
0.0
 40
0.0
 40
0.2291665379
 40
0.4879399238
 40
0.7531104567
 40
1.0
 40
1.0
 40
1.0
 40
1.0
 10
6.859595769
 20
37.7455906682
 30
0.0
 10
6.909455421
 20
37.7200500885
 30
0.0
 10
7.0048385544
 20
37.6445283947
 30
0.0
 10
7.1156198261
 20
37.4955983223
 30
0.0
 10
7.1919631853
 20
37.3216165608
 30
0.0
 10
7.213146498
 20
37.1962190358
 30
0.0
 10
7.213146498
 20
37.1358659967
 30
0.0
  0
SPLINE
  5
50D
100
AcDbEntity
  8
ASSI
100
AcDbSpline
 62
250
  6
CONTINUOUS
 70
0
 71
3
 72
11
 73
7
 74
0
 42
0.0000001
 43
0.0000001
 44
0.0000000001
 40
0.0
 40
0.0
 40
0.0
 40
0.0
 40
0.2043166657
 40
0.4308151398
 40
0.6947024387
 40
1.0
 40
1.0
 40
1.0
 40
1.0
 10
0.9077216834
 20
45.972778845
 30
0.0
 10
0.9079023439
 20
45.960514317
 30
0.0
 10
0.9026466806
 20
45.9343515701
 30
0.0
 10
0.8795165881
 20
45.8987989851
 30
0.0
 10
0.8432768808
 20
45.8670465411
 30
0.0
 10
0.8134653211
 20
45.8499501224
 30
0.0
 10
0.7969519283
 20
45.8419985703
 30
0.0
  0
SPLINE
  5
50E
100
AcDbEntity
  8
ASSI
100
AcDbSpline
 62
7
  6
CONTINUOUS
 70
0
 71
3
 72
11
 73
7
 74
0
 42
0.0000001
 43
0.0000001
 44
0.0000000001
 40
0.0
 40
0.0
 40
0.0
 40
0.0
 40
0.2052398993
 40
0.431965489
 40
0.695454082
 40
1.0
 40
1.0
 40
1.0
 40
1.0
 10
0.9254141824
 20
44.7857798384
 30
0.0
 10
0.9256040305
 20
44.7728595658
 30
0.0
 10
0.9201290828
 20
44.7453450072
 30
0.0
 10
0.8959109824
 20
44.7079694481
 30
0.0
 10
0.857937686
 20
44.6747086072
 30
0.0
 10
0.8266939435
 20
44.6568824572
 30
0.0
 10
0.8093959696
 20
44.6486110004
 30
0.0
  0
SPLINE
  5
50F
100
AcDbEntity
  8
ASSI
100
AcDbSpline
 62
250
  6
CONTINUOUS
 70
0
 71
3
 72
9
 73
5
 74
0
 42
0.0000001
 43
0.0000001
 44
0.0000000001
 40
0.0
 40
0.0
 40
0.0
 40
0.0
 40
0.5571881296
 40
1.0
 40
1.0
 40
1.0
 40
1.0
 10
7.4178295179
 20
-2.0141463078
 30
0.0
 10
7.4178337554
 20
-2.0075475133
 30
0.0
 10
7.4160899623
 20
-1.995056641
 30
0.0
 10
7.405600697
 20
-1.9866784038
 30
0.0
 10
7.4004604132
 20
-1.985639425
 30
0.0
  0
SPLINE
  5
510
100
AcDbEntity
  8
ASSI
100
AcDbSpline
 62
250
  6
CONTINUOUS
 70
0
 71
3
 72
9
 73
5
 74
0
 42
0.0000001
 43
0.0000001
 44
0.0000000001
 40
0.0
 40
0.0
 40
0.0
 40
0.0
 40
0.4876027425
 40
1.0
 40
1.0
 40
1.0
 40
1.0
 10
7.3836975739
 20
-2.4150569092
 30
0.0
 10
7.393994513
 20
-2.4095017263
 30
0.0
 10
7.4104124116
 20
-2.3901949511
 30
0.0
 10
7.4178292427
 20
-2.3663847115
 30
0.0
 10
7.4178295179
 20
-2.3540899027
 30
0.0
  0
SPLINE
  5
511
100
AcDbEntity
  8
ASSI
100
AcDbSpline
 62
250
  6
CONTINUOUS
 70
0
 71
3
 72
10
 73
6
 74
0
 42
0.0000001
 43
0.0000001
 44
0.0000000001
 40
0.0
 40
0.0
 40
0.0
 40
0.0
 40
0.5182694933
 40
0.7415260131
 40
1.0
 40
1.0
 40
1.0
 40
1.0
 10
7.4178295179
 20
39.6254014264
 30
0.0
 10
7.4178296601
 20
39.63443116
 30
0.0
 10
7.4139900952
 20
39.6499133738
 30
0.0
 10
7.3961319389
 20
39.6556642653
 30
0.0
 10
7.3877319749
 20
39.6530247226
 30
0.0
 10
7.3836975739
 20
39.6510237703
 30
0.0
  0
SPLINE
  5
512
100
AcDbEntity
  8
ASSI
100
AcDbSpline
 62
250
  6
CONTINUOUS
 70
0
 71
3
 72
9
 73
5
 74
0
 42
0.0000001
 43
0.0000001
 44
0.0000000001
 40
0.0
 40
0.0
 40
0.0
 40
0.0
 40
0.2555817852
 40
1.0
 40
1.0
 40
1.0
 40
1.0
 10
7.4004604132
 20
39.2389647144
 30
0.0
 10
7.4031458069
 20
39.2422841398
 30
0.0
 10
7.4124628355
 20
39.2561428022
 30
0.0
 10
7.4178281888
 20
39.2730218656
 30
0.0
 10
7.4178295179
 20
39.2854578316
 30
0.0
  0
SPLINE
  5
513
100
AcDbEntity
  8
ASSI
100
AcDbSpline
 62
7
  6
CONTINUOUS
 70
0
 71
3
 72
11
 73
7
 74
0
 42
0.0000001
 43
0.0000001
 44
0.0000000001
 40
0.0
 40
0.0
 40
0.0
 40
0.0
 40
0.2064735236
 40
0.434119302
 40
0.6972352228
 40
1.0
 40
1.0
 40
1.0
 40
1.0
 10
6.5203150627
 20
41.9863293775
 30
0.0
 10
6.5202391917
 20
41.9738423078
 30
0.0
 10
6.5146085411
 20
41.9474153334
 30
0.0
 10
6.4913991734
 20
41.9114102658
 30
0.0
 10
6.4553095963
 20
41.8791590328
 30
0.0
 10
6.4256522184
 20
41.8616955006
 30
0.0
 10
6.4092483435
 20
41.8535590577
 30
0.0
  0
SPLINE
  5
514
100
AcDbEntity
  8
ASSI
100
AcDbSpline
 62
250
  6
CONTINUOUS
 70
0
 71
3
 72
11
 73
7
 74
0
 42
0.0000001
 43
0.0000001
 44
0.0000000001
 40
0.0
 40
0.0
 40
0.0
 40
0.0
 40
0.2174820428
 40
0.4508639075
 40
0.7105743403
 40
1.0
 40
1.0
 40
1.0
 40
1.0
 10
4.9871559926
 20
38.062142293
 30
0.0
 10
4.9769393102
 20
38.067256798
 30
0.0
 10
4.9576085851
 20
38.0819507304
 30
0.0
 10
4.9368764497
 20
38.1136769097
 30
0.0
 10
4.9244590685
 20
38.1532887055
 30
0.0
 10
4.9219952303
 20
38.1822477229
 30
0.0
 10
4.9219952882
 20
38.197452616
 30
0.0
  0
SPLINE
  5
515
100
AcDbEntity
  8
ASSI
100
AcDbSpline
 62
250
  6
CONTINUOUS
 70
0
 71
3
 72
11
 73
7
 74
0
 42
0.0000001
 43
0.0000001
 44
0.0000000001
 40
0.0
 40
0.0
 40
0.0
 40
0.0
 40
0.2233445304
 40
0.4614640248
 40
0.7216378387
 40
1.0
 40
1.0
 40
1.0
 40
1.0
 10
5.0399056086
 20
38.0437291928
 30
0.0
 10
5.0571218574
 20
38.040078491
 30
0.0
 10
5.0948508548
 20
38.0407413418
 30
0.0
 10
5.1475576413
 20
38.0654298127
 30
0.0
 10
5.1917309289
 20
38.1091861902
 30
0.0
 10
5.2123764168
 20
38.1469759414
 30
0.0
 10
5.2203345525
 20
38.1674156762
 30
0.0
  0
SPLINE
  5
516
100
AcDbEntity
  8
ASSI
100
AcDbSpline
 62
250
  6
CONTINUOUS
 70
0
 71
3
 72
9
 73
5
 74
0
 42
0.0000001
 43
0.0000001
 44
0.0000000001
 40
0.0
 40
0.0
 40
0.0
 40
0.0
 40
0.4648500649
 40
1.0
 40
1.0
 40
1.0
 40
1.0
 10
7.3506290447
 20
39.9006861851
 30
0.0
 10
7.3351844388
 20
39.9084057335
 30
0.0
 10
7.296637865
 20
39.915102312
 30
0.0
 10
7.2602035085
 20
39.9035338404
 30
0.0
 10
7.2422977568
 20
39.8949023796
 30
0.0
  0
SPLINE
  5
517
100
AcDbEntity
  8
RACCORDO
100
AcDbSpline
 62
250
  6
CONTINUOUS
 70
0
 71
3
 72
21
 73
17
 74
0
 42
0.0000001
 43
0.0000001
 44
0.0000000001
 40
0.0
 40
0.0
 40
0.0
 40
0.0
 40
0.0346256972
 40
0.0684182262
 40
0.1335724103
 40
0.1957018552
 40
0.2551147789
 40
0.3122908768
 40
0.3679433273
 40
0.4228693654
 40
0.4779156193
 40
0.5339591828
 40
0.5917751147
 40
0.7148197277
 40
0.8506939086
 40
1.0
 40
1.0
 40
1.0
 40
1.0
 10
-6.8522373541
 20
34.6385572997
 30
0.0
 10
-6.9157773632
 20
34.6703270692
 30
0.0
 10
-7.043345878
 20
34.7291026346
 30
0.0
 10
-7.2974184846
 20
34.8319864371
 30
0.0
 10
-7.6132263817
 20
34.9317682438
 30
0.0
 10
-7.9901115146
 20
35.0049781063
 30
0.0
 10
-8.3571724577
 20
35.0285681203
 30
0.0
 10
-8.7107081047
 20
35.0001252511
 30
0.0
 10
-9.0470593751
 20
34.9210987178
 30
0.0
 10
-9.3631770947
 20
34.7927157066
 30
0.0
 10
-9.6558321618
 20
34.6156275996
 30
0.0
 10
-9.9209890064
 20
34.3903012206
 30
0.0
 10
-10.2415765127
 20
34.0229941789
 30
0.0
 10
-10.5626432121
 20
33.449156431
 30
0.0
 10
-10.7956823245
 20
32.63908941
 30
0.0
 10
-10.8534319174
 20
32.0536640682
 30
0.0
 10
-10.8607296582
 20
31.7474272837
 30
0.0
  0
SPLINE
  5
518
100
AcDbEntity
  8
RACCORDO
100
AcDbSpline
 62
250
  6
CONTINUOUS
 70
0
 71
3
 72
9
 73
5
 74
0
 42
0.0000001
 43
0.0000001
 44
0.0000000001
 40
0.0
 40
0.0
 40
0.0
 40
0.0
 40
0.5005528805
 40
1.0
 40
1.0
 40
1.0
 40
1.0
 10
-10.8607296582
 20
31.7474272837
 30
0.0
 10
-10.8850330306
 20
30.7272370515
 30
0.0
 10
-10.933308916
 20
28.6890676457
 30
0.0
 10
-10.9551455337
 20
26.6504433898
 30
0.0
 10
-10.965851835
 20
25.6322743253
 30
0.0
  0
SPLINE
  5
519
100
AcDbEntity
  8
RACCORDO
100
AcDbSpline
 62
250
  6
CONTINUOUS
 70
0
 71
3
 72
12
 73
8
 74
0
 42
0.0000001
 43
0.0000001
 44
0.0000000001
 40
0.0
 40
0.0
 40
0.0
 40
0.0
 40
0.2347528377
 40
0.483945523
 40
0.6121161571
 40
0.7414524619
 40
1.0
 40
1.0
 40
1.0
 40
1.0
 10
-10.965851835
 20
25.6322743253
 30
0.0
 10
-10.9695515033
 20
25.2802929637
 30
0.0
 10
-10.9149523499
 20
24.5533588419
 30
0.0
 10
-10.7179798518
 20
23.6540778794
 30
0.0
 10
-10.4833520891
 20
22.9309260392
 30
0.0
 10
-10.1983321723
 20
22.2111656606
 30
0.0
 10
-9.9328560959
 20
21.6912388154
 30
0.0
 10
-9.7337712929
 20
21.3585814905
 30
0.0
  0
SPLINE
  5
51A
100
AcDbEntity
  8
RACCORDO
100
AcDbSpline
 62
250
  6
CONTINUOUS
 70
0
 71
3
 72
10
 73
6
 74
0
 42
0.0000001
 43
0.0000001
 44
0.0000000001
 40
0.0
 40
0.0
 40
0.0
 40
0.0
 40
0.5116712263
 40
0.7588666437
 40
1.0
 40
1.0
 40
1.0
 40
1.0
 10
-8.0036799929
 20
19.3364095699
 30
0.0
 10
-7.8660765375
 20
19.2275628571
 30
0.0
 10
-7.6547068151
 20
19.0748748118
 30
0.0
 10
-7.3621570189
 20
18.8958572059
 30
0.0
 10
-7.2150833335
 20
18.8155542609
 30
0.0
 10
-7.1411293941
 20
18.7785770209
 30
0.0
  0
SPLINE
  5
51B
100
AcDbEntity
  8
ASSI
100
AcDbSpline
 62
250
  6
CONTINUOUS
 70
0
 71
3
 72
9
 73
5
 74
0
 42
0.0000001
 43
0.0000001
 44
0.0000000001
 40
0.0
 40
0.0
 40
0.0
 40
0.0
 40
0.4652857921
 40
1.0
 40
1.0
 40
1.0
 40
1.0
 10
5.2486735893
 20
40.9516639188
 30
0.0
 10
5.2331130602
 20
40.9594477381
 30
0.0
 10
5.1943527274
 20
40.9662836627
 30
0.0
 10
5.157615452
 20
40.9548554227
 30
0.0
 10
5.1395559311
 20
40.9462732925
 30
0.0
  0
SPLINE
  5
51C
100
AcDbEntity
  8
RACCORDO
100
AcDbSpline
 62
250
  6
CONTINUOUS
 70
0
 71
3
 72
21
 73
17
 74
0
 42
0.0000001
 43
0.0000001
 44
0.0000000001
 40
0.0
 40
0.0
 40
0.0
 40
0.0
 40
0.0343531646
 40
0.0679233455
 40
0.1328046062
 40
0.1949141232
 40
0.2545584277
 40
0.3121852724
 40
0.3684629403
 40
0.4241168444
 40
0.4798941456
 40
0.5365596094
 40
0.5948057139
 40
0.7179318378
 40
0.8527149967
 40
1.0
 40
1.0
 40
1.0
 40
1.0
 10
-7.1411293941
 20
18.7785770209
 30
0.0
 10
-7.0775735777
 20
18.7467997979
 30
0.0
 10
-6.9498579627
 20
18.6880348909
 30
0.0
 10
-6.6949479858
 20
18.5854618435
 30
0.0
 10
-6.3771142409
 20
18.486544459
 30
0.0
 10
-5.9967966006
 20
18.4151311464
 30
0.0
 10
-5.6251956081
 20
18.3938918258
 30
0.0
 10
-5.2662848914
 20
18.4252247884
 30
0.0
 10
-4.9239826656
 20
18.5074405819
 30
0.0
 10
-4.6015666504
 20
18.6390690652
 30
0.0
 10
-4.3025298723
 20
18.8192260019
 30
0.0
 10
-4.0311601213
 20
19.0472748952
 30
0.0
 10
-3.7037305696
 20
19.4169636338
 30
0.0
 10
-3.3762083281
 20
19.9921356663
 30
0.0
 10
-3.1416679613
 20
20.8028851111
 30
0.0
 10
-3.0888447693
 20
21.3875078266
 30
0.0
 10
-3.0855825452
 20
21.6921396805
 30
0.0
  0
SPLINE
  5
51D
100
AcDbEntity
  8
ASSI
100
AcDbSpline
 62
7
  6
CONTINUOUS
 70
0
 71
3
 72
9
 73
5
 74
0
 42
0.0000001
 43
0.0000001
 44
0.0000000001
 40
0.0
 40
0.0
 40
0.0
 40
0.0
 40
0.4939555319
 40
1.0
 40
1.0
 40
1.0
 40
1.0
 10
4.1867439461
 20
38.4623688166
 30
0.0
 10
4.1445103849
 20
38.4838288861
 30
0.0
 10
4.0683418721
 20
38.5454983069
 30
0.0
 10
4.0108699757
 20
38.6232028647
 30
0.0
 10
3.9865267694
 20
38.6651886849
 30
0.0
  0
SPLINE
  5
51E
100
AcDbEntity
  8
ASSI
100
AcDbSpline
 62
250
  6
CONTINUOUS
 70
0
 71
3
 72
11
 73
7
 74
0
 42
0.0000001
 43
0.0000001
 44
0.0000000001
 40
0.0
 40
0.0
 40
0.0
 40
0.0
 40
0.2174820428
 40
0.4508639075
 40
0.7105743403
 40
1.0
 40
1.0
 40
1.0
 40
1.0
 10
-7.5993447125
 20
44.3553926456
 30
0.0
 10
-7.6095613949
 20
44.3605071506
 30
0.0
 10
-7.62889212
 20
44.375201083
 30
0.0
 10
-7.6496242554
 20
44.4069272622
 30
0.0
 10
-7.6620416367
 20
44.446539058
 30
0.0
 10
-7.6645054749
 20
44.4754980754
 30
0.0
 10
-7.664505417
 20
44.4907029686
 30
0.0
  0
SPLINE
  5
51F
100
AcDbEntity
  8
ASSI
100
AcDbSpline
 62
250
  6
CONTINUOUS
 70
0
 71
3
 72
11
 73
7
 74
0
 42
0.0000001
 43
0.0000001
 44
0.0000000001
 40
0.0
 40
0.0
 40
0.0
 40
0.0
 40
0.2233445304
 40
0.4614640248
 40
0.7216378387
 40
1.0
 40
1.0
 40
1.0
 40
1.0
 10
-7.5465950965
 20
44.3369795453
 30
0.0
 10
-7.5293788477
 20
44.3333288435
 30
0.0
 10
-7.4916498504
 20
44.3339916944
 30
0.0
 10
-7.4389430638
 20
44.3586801652
 30
0.0
 10
-7.3947697762
 20
44.4024365428
 30
0.0
 10
-7.3741242883
 20
44.440226294
 30
0.0
 10
-7.3661661527
 20
44.4606660287
 30
0.0
  0
SPLINE
  5
520
100
AcDbEntity
  8
ASSI
100
AcDbSpline
 62
7
  6
CONTINUOUS
 70
0
 71
3
 72
9
 73
5
 74
0
 42
0.0000001
 43
0.0000001
 44
0.0000000001
 40
0.0
 40
0.0
 40
0.0
 40
0.0
 40
0.248307196
 40
1.0
 40
1.0
 40
1.0
 40
1.0
 10
3.7477586555
 20
-2.4412236298
 30
0.0
 10
3.7507668156
 20
-2.4495146888
 30
0.0
 10
3.7636670528
 20
-2.4826163607
 30
0.0
 10
3.7795700263
 20
-2.5145347399
 30
0.0
 10
3.7929624833
 20
-2.5376333114
 30
0.0
  0
SPLINE
  5
521
100
AcDbEntity
  8
ASSI
100
AcDbSpline
 62
250
  6
CONTINUOUS
 70
0
 71
3
 72
11
 73
7
 74
0
 42
0.0000001
 43
0.0000001
 44
0.0000000001
 40
0.0
 40
0.0
 40
0.0
 40
0.0
 40
0.2076695449
 40
0.4361879293
 40
0.6992917157
 40
1.0
 40
1.0
 40
1.0
 40
1.0
 10
-5.1125392095
 20
45.6481740212
 30
0.0
 10
-5.1125401084
 20
45.6416999859
 30
0.0
 10
-5.1153315322
 20
45.6280033006
 30
0.0
 10
-5.127001315
 20
45.6091924017
 30
0.0
 10
-5.1452915528
 20
45.5922782863
 30
0.0
 10
-5.1603463798
 20
45.5830184794
 30
0.0
 10
-5.1686711872
 20
45.5787081841
 30
0.0
  0
SPLINE
  5
522
100
AcDbEntity
  8
ASSI
100
AcDbSpline
 62
250
  6
CONTINUOUS
 70
0
 71
3
 72
11
 73
7
 74
0
 42
0.0000001
 43
0.0000001
 44
0.0000000001
 40
0.0
 40
0.0
 40
0.0
 40
0.0
 40
0.2076695446
 40
0.4361879292
 40
0.699291716
 40
1.0
 40
1.0
 40
1.0
 40
1.0
 10
-5.1125392095
 20
45.988117616
 30
0.0
 10
-5.1125401084
 20
45.9816435807
 30
0.0
 10
-5.1153315321
 20
45.9679468954
 30
0.0
 10
-5.127001315
 20
45.9491359965
 30
0.0
 10
-5.1452915528
 20
45.9322218812
 30
0.0
 10
-5.1603463798
 20
45.9229620742
 30
0.0
 10
-5.1686711872
 20
45.918651779
 30
0.0
  0
SPLINE
  5
523
100
AcDbEntity
  8
ASSI
100
AcDbSpline
 62
250
  6
CONTINUOUS
 70
0
 71
3
 72
10
 73
6
 74
0
 42
0.0000001
 43
0.0000001
 44
0.0000000001
 40
0.0
 40
0.0
 40
0.0
 40
0.0
 40
0.3758715799
 40
0.6547334137
 40
1.0
 40
1.0
 40
1.0
 40
1.0
 10
-5.1743562606
 20
45.4759756002
 30
0.0
 10
-5.1696580484
 20
45.4817993875
 30
0.0
 10
-5.169626095
 20
45.4970133056
 30
0.0
 10
-5.1765442214
 20
45.5152550351
 30
0.0
 10
-5.1824649871
 20
45.5263447791
 30
0.0
 10
-5.1860402919
 20
45.5322150669
 30
0.0
  0
SPLINE
  5
524
100
AcDbEntity
  8
ASSI
100
AcDbSpline
 62
7
  6
CONTINUOUS
 70
0
 71
3
 72
9
 73
5
 74
0
 42
0.0000001
 43
0.0000001
 44
0.0000000001
 40
0.0
 40
0.0
 40
0.0
 40
0.0
 40
0.2770957711
 40
1.0
 40
1.0
 40
1.0
 40
1.0
 10
7.2361696888
 20
42.9882945457
 30
0.0
 10
7.236224153
 20
42.9897423267
 30
0.0
 10
7.2363432759
 20
42.9949681724
 30
0.0
 10
7.236156116
 20
43.000212684
 30
0.0
 10
7.2357015511
 20
43.0039649812
 30
0.0
  0
SPLINE
  5
525
100
AcDbEntity
  8
ASSI
100
AcDbSpline
 62
7
  6
CONTINUOUS
 70
0
 71
3
 72
11
 73
7
 74
0
 42
0.0000001
 43
0.0000001
 44
0.0000000001
 40
0.0
 40
0.0
 40
0.0
 40
0.0
 40
0.3649976216
 40
0.6347728962
 40
0.8237128439
 40
1.0
 40
1.0
 40
1.0
 40
1.0
 10
7.2357015511
 20
43.0039649812
 30
0.0
 10
7.2354064582
 20
43.006400885
 30
0.0
 10
7.2346328173
 20
43.0106315865
 30
0.0
 10
7.2326815201
 20
43.0158091746
 30
0.0
 10
7.2294402492
 20
43.0191476521
 30
0.0
 10
7.2266616096
 20
43.0187586468
 30
0.0
 10
7.2255928995
 20
43.0182464781
 30
0.0
  0
SPLINE
  5
526
100
AcDbEntity
  8
ASSI
100
AcDbSpline
 62
250
  6
CONTINUOUS
 70
0
 71
3
 72
11
 73
7
 74
0
 42
0.0000001
 43
0.0000001
 44
0.0000000001
 40
0.0
 40
0.0
 40
0.0
 40
0.0
 40
0.2161856706
 40
0.4483274062
 40
0.7080938924
 40
1.0
 40
1.0
 40
1.0
 40
1.0
 10
-14.0060399272
 20
4.9304618189
 30
0.0
 10
-14.0054979233
 20
4.9149767953
 30
0.0
 10
-13.9987727003
 20
4.8828534118
 30
0.0
 10
-13.973136265
 20
4.8382910091
 30
0.0
 10
-13.9334617676
 20
4.7978713106
 30
0.0
 10
-13.900596248
 20
4.7754761516
 30
0.0
 10
-13.882475699
 20
4.7650187481
 30
0.0
  0
SPLINE
  5
527
100
AcDbEntity
  8
ASSI
100
AcDbSpline
 62
7
  6
CONTINUOUS
 70
0
 71
3
 72
9
 73
5
 74
0
 42
0.0000001
 43
0.0000001
 44
0.0000000001
 40
0.0
 40
0.0
 40
0.0
 40
0.0
 40
0.2452208379
 40
1.0
 40
1.0
 40
1.0
 40
1.0
 10
4.5094941501
 20
40.7023100035
 30
0.0
 10
4.5120280534
 20
40.7034792429
 30
0.0
 10
4.5226210865
 20
40.707676867
 30
0.0
 10
4.5341278771
 20
40.7094447692
 30
0.0
 10
4.5427172304
 20
40.7095003245
 30
0.0
  0
SPLINE
  5
528
100
AcDbEntity
  8
ASSI
100
AcDbSpline
 62
7
  6
CONTINUOUS
 70
0
 71
3
 72
9
 73
5
 74
0
 42
0.0000001
 43
0.0000001
 44
0.0000000001
 40
0.0
 40
0.0
 40
0.0
 40
0.0
 40
0.2336306509
 40
1.0
 40
1.0
 40
1.0
 40
1.0
 10
4.5427172304
 20
40.7095003245
 30
0.0
 10
4.54709102
 20
40.7095286139
 30
0.0
 10
4.5658213464
 20
40.7082779755
 30
0.0
 10
4.5839971026
 20
40.7020407943
 30
0.0
 10
4.5968298684
 20
40.6956244114
 30
0.0
  0
SPLINE
  5
529
100
AcDbEntity
  8
ASSI
100
AcDbSpline
 62
250
  6
CONTINUOUS
 70
0
 71
3
 72
11
 73
7
 74
0
 42
0.0000001
 43
0.0000001
 44
0.0000000001
 40
0.0
 40
0.0
 40
0.0
 40
0.0
 40
0.2056069763
 40
0.4328959395
 40
0.6962131395
 40
1.0
 40
1.0
 40
1.0
 40
1.0
 10
-14.0060586449
 20
41.0879872254
 30
0.0
 10
-14.0065321496
 20
41.0733525879
 30
0.0
 10
-14.0011600343
 20
41.0421003142
 30
0.0
 10
-13.9757644796
 20
40.9986310977
 30
0.0
 10
-13.9351373103
 20
40.958601345
 30
0.0
 10
-13.9012892909
 20
40.9361748068
 30
0.0
 10
-13.8824661622
 20
40.9255105069
 30
0.0
  0
SPLINE
  5
52A
100
AcDbEntity
  8
ASSI
100
AcDbSpline
 62
250
  6
CONTINUOUS
 70
0
 71
3
 72
11
 73
7
 74
0
 42
0.0000001
 43
0.0000001
 44
0.0000000001
 40
0.0
 40
0.0
 40
0.0
 40
0.0
 40
0.223697647
 40
0.4596515511
 40
0.7172199347
 40
1.0
 40
1.0
 40
1.0
 40
1.0
 10
-13.3029218464
 20
42.3225275543
 30
0.0
 10
-13.2871667811
 20
42.3318580233
 30
0.0
 10
-13.2516022776
 20
42.3460596119
 30
0.0
 10
-13.1924397973
 20
42.3513132216
 30
0.0
 10
-13.1291862968
 20
42.3411331334
 30
0.0
 10
-13.0875398421
 20
42.3254125961
 30
0.0
 10
-13.0666149924
 20
42.3155168807
 30
0.0
  0
SPLINE
  5
52B
100
AcDbEntity
  8
ASSI
100
AcDbSpline
 62
250
  6
CONTINUOUS
 70
0
 71
3
 72
9
 73
5
 74
0
 42
0.0000001
 43
0.0000001
 44
0.0000000001
 40
0.0
 40
0.0
 40
0.0
 40
0.0
 40
0.4660652927
 40
1.0
 40
1.0
 40
1.0
 40
1.0
 10
9.3915130612
 20
44.0555548203
 30
0.0
 10
9.407531536
 20
44.0632108808
 30
0.0
 10
9.4471306808
 20
44.0694927295
 30
0.0
 10
9.4843508791
 20
44.057174796
 30
0.0
 10
9.5025452036
 20
44.0480830566
 30
0.0
  0
SPLINE
  5
52C
100
AcDbEntity
  8
RACCORDO
100
AcDbSpline
 62
250
  6
CONTINUOUS
 70
0
 71
3
 72
11
 73
7
 74
0
 42
0.0000001
 43
0.0000001
 44
0.0000000001
 40
0.0
 40
0.0
 40
0.0
 40
0.0
 40
0.2409979715
 40
0.4844894906
 40
0.735963261
 40
1.0
 40
1.0
 40
1.0
 40
1.0
 10
-6.2881155942
 20
28.9085229861
 30
0.0
 10
-6.3253566258
 20
28.8909092248
 30
0.0
 10
-6.4047344361
 20
28.8642275611
 30
0.0
 10
-6.531242161
 20
28.853558185
 30
0.0
 10
-6.6606146629
 20
28.8731006353
 30
0.0
 10
-6.7435101246
 20
28.9051004834
 30
0.0
 10
-6.7838827674
 20
28.9252792502
 30
0.0
  0
SPLINE
  5
52D
100
AcDbEntity
  8
ASSI
100
AcDbSpline
 62
7
  6
CONTINUOUS
 70
0
 71
3
 72
11
 73
7
 74
0
 42
0.0000001
 43
0.0000001
 44
0.0000000001
 40
0.0
 40
0.0
 40
0.0
 40
0.0
 40
0.2175208227
 40
0.4525013529
 40
0.7128527964
 40
1.0
 40
1.0
 40
1.0
 40
1.0
 10
7.0953311723
 20
-1.0598802888
 30
0.0
 10
7.1140024295
 20
-1.0485808892
 30
0.0
 10
7.1489050027
 20
-1.0180563362
 30
0.0
 10
7.186199757
 20
-0.9559699396
 30
0.0
 10
7.2086279404
 20
-0.8800360997
 30
0.0
 10
7.213146498
 20
-0.8249222539
 30
0.0
 10
7.213146498
 20
-0.7961124353
 30
0.0
  0
SPLINE
  5
52E
100
AcDbEntity
  8
ASSI
100
AcDbSpline
 62
250
  6
CONTINUOUS
 70
0
 71
3
 72
11
 73
7
 74
0
 42
0.0000001
 43
0.0000001
 44
0.0000000001
 40
0.0
 40
0.0
 40
0.0
 40
0.0
 40
0.2207351983
 40
0.4569642938
 40
0.715881523
 40
1.0
 40
1.0
 40
1.0
 40
1.0
 10
-13.6141995945
 20
4.1855122164
 30
0.0
 10
-13.6548610408
 20
4.2122790083
 30
0.0
 10
-13.7305733265
 20
4.2814614915
 30
0.0
 10
-13.8134695731
 20
4.4178127219
 30
0.0
 10
-13.8662927698
 20
4.5827145692
 30
0.0
 10
-13.8801379894
 20
4.7024032306
 30
0.0
 10
-13.8824757073
 20
4.7650188368
 30
0.0
  0
SPLINE
  5
52F
100
AcDbEntity
  8
ASSI
100
AcDbSpline
 62
250
  6
CONTINUOUS
 70
0
 71
3
 72
15
 73
11
 74
0
 42
0.0000001
 43
0.0000001
 44
0.0000000001
 40
0.0
 40
0.0
 40
0.0
 40
0.0
 40
0.1457269165
 40
0.2792753725
 40
0.4018041859
 40
0.5165831375
 40
0.628599918
 40
0.743537831
 40
0.8663203531
 40
1.0
 40
1.0
 40
1.0
 40
1.0
 10
1.5391455031
 20
-2.5840438198
 30
0.0
 10
1.5404440927
 20
-2.6192256383
 30
0.0
 10
1.5481025981
 20
-2.6866514885
 30
0.0
 10
1.577138579
 20
-2.7799764361
 30
0.0
 10
1.6227206414
 20
-2.8581654616
 30
0.0
 10
1.6837605594
 20
-2.918079137
 30
0.0
 10
1.7580944346
 20
-2.9567564265
 30
0.0
 10
1.8422473269
 20
-2.9725234392
 30
0.0
 10
1.9325526714
 20
-2.9653797452
 30
0.0
 10
1.992179202
 20
-2.9468023133
 30
0.0
 10
2.0220416334
 20
-2.9345050717
 30
0.0
  0
SPLINE
  5
530
100
AcDbEntity
  8
RACCORDO
100
AcDbSpline
 62
250
  6
CONTINUOUS
 70
0
 71
3
 72
9
 73
5
 74
0
 42
0.0000001
 43
0.0000001
 44
0.0000000001
 40
0.0
 40
0.0
 40
0.0
 40
0.0
 40
0.4675475419
 40
1.0
 40
1.0
 40
1.0
 40
1.0
 10
-8.8621820221
 20
30.3271972147
 30
0.0
 10
-8.8010841965
 20
30.2913177539
 30
0.0
 10
-8.6610371718
 20
30.2304854615
 30
0.0
 10
-8.5135998225
 20
30.1932620089
 30
0.0
 10
-8.4342556807
 20
30.1785867696
 30
0.0
  0
SPLINE
  5
531
100
AcDbEntity
  8
RACCORDO
100
AcDbSpline
 62
250
  6
CONTINUOUS
 70
0
 71
3
 72
11
 73
7
 74
0
 42
0.0000001
 43
0.0000001
 44
0.0000000001
 40
0.0
 40
0.0
 40
0.0
 40
0.0
 40
0.2463745307
 40
0.5096833094
 40
0.7677411426
 40
1.0
 40
1.0
 40
1.0
 40
1.0
 10
-7.4537742127
 20
27.746182331
 30
0.0
 10
-7.4515441307
 20
27.861647623
 30
0.0
 10
-7.4098848627
 20
28.1002308931
 30
0.0
 10
-7.2669565825
 20
28.4335330917
 30
0.0
 10
-7.0584307044
 20
28.722136837
 30
0.0
 10
-6.8787029955
 20
28.8717867817
 30
0.0
 10
-6.7838829419
 20
28.9252832523
 30
0.0
  0
SPLINE
  5
532
100
AcDbEntity
  8
RACCORDO
100
AcDbSpline
 62
250
  6
CONTINUOUS
 70
0
 71
3
 72
12
 73
8
 74
0
 42
0.0000001
 43
0.0000001
 44
0.0000000001
 40
0.0
 40
0.0
 40
0.0
 40
0.0
 40
0.3111647378
 40
0.5777687711
 40
0.8019534384
 40
0.9028722064
 40
1.0
 40
1.0
 40
1.0
 40
1.0
 10
-5.8205518289
 20
28.8063823669
 30
0.0
 10
-5.8747688641
 20
28.8296037871
 30
0.0
 10
-5.9726762459
 20
28.8800945529
 30
0.0
 10
-6.0925188021
 20
28.9755071631
 30
0.0
 10
-6.158734486
 20
29.0691095556
 30
0.0
 10
-6.1831708374
 20
29.1459228182
 30
0.0
 10
-6.186301067
 20
29.1837255494
 30
0.0
 10
-6.185670611
 20
29.2021251404
 30
0.0
  0
SPLINE
  5
533
100
AcDbEntity
  8
RACCORDO
100
AcDbSpline
 62
250
  6
CONTINUOUS
 70
0
 71
3
 72
11
 73
7
 74
0
 42
0.0000001
 43
0.0000001
 44
0.0000000001
 40
0.0
 40
0.0
 40
0.0
 40
0.0
 40
0.294632277
 40
0.5569425642
 40
0.7882924999
 40
1.0
 40
1.0
 40
1.0
 40
1.0
 10
-7.3027216357
 20
31.4640831011
 30
0.0
 10
-7.3093643706
 20
31.392354913
 30
0.0
 10
-7.3100390208
 20
31.2551142956
 30
0.0
 10
-7.2674226333
 20
31.0650718524
 30
0.0
 10
-7.1814744627
 20
30.9119803828
 30
0.0
 10
-7.0944013647
 20
30.8418661029
 30
0.0
 10
-7.0481357976
 20
30.8186568729
 30
0.0
  0
SPLINE
  5
534
100
AcDbEntity
  8
RACCORDO
100
AcDbSpline
 62
250
  6
CONTINUOUS
 70
0
 71
3
 72
9
 73
5
 74
0
 42
0.0000001
 43
0.0000001
 44
0.0000000001
 40
0.0
 40
0.0
 40
0.0
 40
0.0
 40
0.2588329963
 40
1.0
 40
1.0
 40
1.0
 40
1.0
 10
-7.1411293936
 20
18.7785770211
 30
0.0
 10
-7.1411309199
 20
18.7888623855
 30
0.0
 10
-7.1419624233
 20
18.8285907916
 30
0.0
 10
-7.1461944526
 20
18.8682838168
 30
0.0
 10
-7.1515951896
 20
18.8972364967
 30
0.0
  0
SPLINE
  5
535
100
AcDbEntity
  8
RACCORDO
100
AcDbSpline
 62
250
  6
CONTINUOUS
 70
0
 71
3
 72
9
 73
5
 74
0
 42
0.0000001
 43
0.0000001
 44
0.0000000001
 40
0.0
 40
0.0
 40
0.0
 40
0.0
 40
0.2636254213
 40
1.0
 40
1.0
 40
1.0
 40
1.0
 10
-10.9658518372
 20
25.6322743243
 30
0.0
 10
-10.9579413073
 20
25.6279515337
 30
0.0
 10
-10.9282877255
 20
25.6109306914
 30
0.0
 10
-10.9000705116
 20
25.5912979485
 30
0.0
 10
-10.8807551721
 20
25.5751438004
 30
0.0
  0
SPLINE
  5
536
100
AcDbEntity
  8
RACCORDO
100
AcDbSpline
 62
250
  6
CONTINUOUS
 70
0
 71
3
 72
9
 73
5
 74
0
 42
0.0000001
 43
0.0000001
 44
0.0000000001
 40
0.0
 40
0.0
 40
0.0
 40
0.0
 40
0.264046464
 40
1.0
 40
1.0
 40
1.0
 40
1.0
 10
-10.860729658
 20
31.7474272837
 30
0.0
 10
-10.8526922132
 20
31.7430653184
 30
0.0
 10
-10.8226048633
 20
31.7259201705
 30
0.0
 10
-10.7939461128
 20
31.7061540779
 30
0.0
 10
-10.7743263045
 20
31.68988368
 30
0.0
  0
SPLINE
  5
537
100
AcDbEntity
  8
RACCORDO
100
AcDbSpline
 62
250
  6
CONTINUOUS
 70
0
 71
3
 72
9
 73
5
 74
0
 42
0.0000001
 43
0.0000001
 44
0.0000000001
 40
0.0
 40
0.0
 40
0.0
 40
0.0
 40
0.2435117379
 40
1.0
 40
1.0
 40
1.0
 40
1.0
 10
-6.8522373536
 20
34.6385572999
 30
0.0
 10
-6.8526314793
 20
34.6276885595
 30
0.0
 10
-6.855179477
 20
34.5830913943
 30
0.0
 10
-6.861315154
 20
34.538718857
 30
0.0
 10
-6.8676886989
 20
34.5055386711
 30
0.0
  0
SPLINE
  5
538
100
AcDbEntity
  8
RACCORDO
100
AcDbSpline
 62
250
  6
CONTINUOUS
 70
0
 71
3
 72
9
 73
5
 74
0
 42
0.0000001
 43
0.0000001
 44
0.0000000001
 40
0.0
 40
0.0
 40
0.0
 40
0.0
 40
0.2402325483
 40
1.0
 40
1.0
 40
1.0
 40
1.0
 10
-2.9790693475
 20
27.806597132
 30
0.0
 10
-2.988096523
 20
27.8107564052
 30
0.0
 10
-3.026005801
 20
27.8273452594
 30
0.0
 10
-3.0651063463
 20
27.8411589233
 30
0.0
 10
-3.0951791116
 20
27.8503101807
 30
0.0
  0
SPLINE
  5
539
100
AcDbEntity
  8
RACCORDO
100
AcDbSpline
 62
250
  6
CONTINUOUS
 70
0
 71
3
 72
9
 73
5
 74
0
 42
0.0000001
 43
0.0000001
 44
0.0000000001
 40
0.0
 40
0.0
 40
0.0
 40
0.0
 40
0.2404679265
 40
1.0
 40
1.0
 40
1.0
 40
1.0
 10
-3.0855825453
 20
21.6921396805
 30
0.0
 10
-3.0945108665
 20
21.6962247577
 30
0.0
 10
-3.1319676
 20
21.7124931751
 30
0.0
 10
-3.1706006773
 20
21.7260009006
 30
0.0
 10
-3.2003033865
 20
21.7349177787
 30
0.0
  0
SPLINE
  5
53A
100
AcDbEntity
  8
ASSI
100
AcDbSpline
 62
250
  6
CONTINUOUS
 70
0
 71
3
 72
11
 73
7
 74
0
 42
0.0000001
 43
0.0000001
 44
0.0000000001
 40
0.0
 40
0.0
 40
0.0
 40
0.0
 40
0.2334199064
 40
0.4910057105
 40
0.7535333017
 40
1.0
 40
1.0
 40
1.0
 40
1.0
 10
2.0220416503
 20
34.34801791
 30
0.0
 10
1.9550456353
 20
34.3120297838
 30
0.0
 10
1.8274246055
 20
34.2110733842
 30
0.0
 10
1.6777086336
 20
34.0139683621
 30
0.0
 10
1.5737014378
 20
33.784702079
 30
0.0
 10
1.5420073553
 20
33.6195551314
 30
0.0
 10
1.5391455125
 20
33.5393053383
 30
0.0
  0
SPLINE
  5
53B
100
AcDbEntity
  8
ASSI
100
AcDbSpline
 62
250
  6
CONTINUOUS
 70
0
 71
3
 72
9
 73
5
 74
0
 42
0.0000001
 43
0.0000001
 44
0.0000000001
 40
0.0
 40
0.0
 40
0.0
 40
0.0
 40
0.4651564399
 40
1.0
 40
1.0
 40
1.0
 40
1.0
 10
-7.5330471559
 20
47.2467783537
 30
0.0
 10
-7.5205383283
 20
47.2525015285
 30
0.0
 10
-7.4897125786
 20
47.2568185963
 30
0.0
 10
-7.4609927058
 20
47.2467917638
 30
0.0
 10
-7.446944774
 20
47.239523645
 30
0.0
  0
SPLINE
  5
53C
100
AcDbEntity
  8
ASSI
100
AcDbSpline
 62
7
  6
CONTINUOUS
 70
0
 71
3
 72
9
 73
5
 74
0
 42
0.0000001
 43
0.0000001
 44
0.0000000001
 40
0.0
 40
0.0
 40
0.0
 40
0.0
 40
0.7434564307
 40
1.0
 40
1.0
 40
1.0
 40
1.0
 10
-0.0025117032
 20
42.5160222633
 30
0.0
 10
0.0061464386
 20
42.5200312647
 30
0.0
 10
0.0187349642
 20
42.5236172052
 30
0.0
 10
0.0315207956
 20
42.5247635934
 30
0.0
 10
0.034809805
 20
42.5249127137
 30
0.0
  0
SPLINE
  5
53D
100
AcDbEntity
  8
ASSI
100
AcDbSpline
 62
7
  6
CONTINUOUS
 70
0
 71
3
 72
9
 73
5
 74
0
 42
0.0000001
 43
0.0000001
 44
0.0000000001
 40
0.0
 40
0.0
 40
0.0
 40
0.0
 40
0.2323604911
 40
1.0
 40
1.0
 40
1.0
 40
1.0
 10
0.034809805
 20
42.5249127137
 30
0.0
 10
0.0405660827
 20
42.5251736974
 30
0.0
 10
0.0654339957
 20
42.5243477746
 30
0.0
 10
0.0896698333
 20
42.5161917271
 30
0.0
 10
0.1066964231
 20
42.5076784322
 30
0.0
  0
SPLINE
  5
53E
100
AcDbEntity
  8
ASSI
100
AcDbSpline
 62
7
  6
CONTINUOUS
 70
0
 71
3
 72
9
 73
5
 74
0
 42
0.0000001
 43
0.0000001
 44
0.0000000001
 40
0.0
 40
0.0
 40
0.0
 40
0.0
 40
0.4784340984
 40
1.0
 40
1.0
 40
1.0
 40
1.0
 10
6.8096957313
 20
-2.804906137
 30
0.0
 10
6.8183251681
 20
-2.8002555536
 30
0.0
 10
6.8344791638
 20
-2.7867527199
 30
0.0
 10
6.844809387
 20
-2.7686174111
 30
0.0
 10
6.848831351
 20
-2.7587165904
 30
0.0
  0
SPLINE
  5
53F
100
AcDbEntity
  8
ASSI
100
AcDbSpline
 62
7
  6
CONTINUOUS
 70
0
 71
3
 72
9
 73
5
 74
0
 42
0.0000001
 43
0.0000001
 44
0.0000000001
 40
0.0
 40
0.0
 40
0.0
 40
0.0
 40
0.2332872417
 40
1.0
 40
1.0
 40
1.0
 40
1.0
 10
6.848831351
 20
-2.7587165904
 30
0.0
 10
6.8506475906
 20
-2.7542455751
 30
0.0
 10
6.8572639116
 20
-2.7346073879
 30
0.0
 10
6.8595931074
 20
-2.7136837009
 30
0.0
 10
6.8595931074
 20
-2.6978232927
 30
0.0
  0
SPLINE
  5
540
100
AcDbEntity
  8
ASSI
100
AcDbSpline
 62
250
  6
CONTINUOUS
 70
0
 71
3
 72
10
 73
6
 74
0
 42
0.0000001
 43
0.0000001
 44
0.0000000001
 40
0.0
 40
0.0
 40
0.0
 40
0.0
 40
0.2583922339
 40
0.4816379323
 40
1.0
 40
1.0
 40
1.0
 40
1.0
 10
-5.2028031312
 20
45.9442741229
 30
0.0
 10
-5.1987701199
 20
45.9462745539
 30
0.0
 10
-5.1903724078
 20
45.9489135887
 30
0.0
 10
-5.1725128609
 20
45.9431682188
 30
0.0
 10
-5.1686710487
 20
45.9276830208
 30
0.0
 10
-5.1686711872
 20
45.918651779
 30
0.0
  0
SPLINE
  5
541
100
AcDbEntity
  8
ASSI
100
AcDbSpline
 62
250
  6
CONTINUOUS
 70
0
 71
3
 72
9
 73
5
 74
0
 42
0.0000001
 43
0.0000001
 44
0.0000000001
 40
0.0
 40
0.0
 40
0.0
 40
0.0
 40
0.2368595852
 40
1.0
 40
1.0
 40
1.0
 40
1.0
 10
-5.1686711872
 20
45.5787081841
 30
0.0
 10
-5.168671133
 20
45.5747491684
 30
0.0
 10
-5.1704932404
 20
45.5580713786
 30
0.0
 10
-5.1780228005
 20
45.5421360059
 30
0.0
 10
-5.1860402919
 20
45.5322150669
 30
0.0
  0
SPLINE
  5
542
100
AcDbEntity
  8
RACCORDO
100
AcDbSpline
 62
250
  6
CONTINUOUS
 70
0
 71
3
 72
9
 73
5
 74
0
 42
0.0000001
 43
0.0000001
 44
0.0000000001
 40
0.0
 40
0.0
 40
0.0
 40
0.0
 40
0.2375674294
 40
1.0
 40
1.0
 40
1.0
 40
1.0
 10
-6.7838827674
 20
28.9252792502
 30
0.0
 10
-6.8085937272
 20
28.9376394533
 30
0.0
 10
-6.909570007
 20
28.9957368448
 30
0.0
 10
-6.9970505829
 20
29.0756804672
 30
0.0
 10
-7.0550017492
 20
29.142796772
 30
0.0
  0
SPLINE
  5
543
100
AcDbEntity
  8
ASSI
100
AcDbSpline
 62
250
  6
CONTINUOUS
 70
0
 71
3
 72
10
 73
6
 74
0
 42
0.0000001
 43
0.0000001
 44
0.0000000001
 40
0.0
 40
0.0
 40
0.0
 40
0.0
 40
0.5128367311
 40
0.7395188303
 40
1.0
 40
1.0
 40
1.0
 40
1.0
 10
5.2023483181
 20
-3.4206418159
 30
0.0
 10
5.2023481692
 20
-3.4297701958
 30
0.0
 10
5.2066062124
 20
-3.4453900796
 30
0.0
 10
5.2247600725
 20
-3.4512611295
 30
0.0
 10
5.233483639
 20
-3.4488143913
 30
0.0
 10
5.2376929807
 20
-3.4468705191
 30
0.0
  0
SPLINE
  5
544
100
AcDbEntity
  8
ASSI
100
AcDbSpline
 62
250
  6
CONTINUOUS
 70
0
 71
3
 72
10
 73
6
 74
0
 42
0.0000001
 43
0.0000001
 44
0.0000000001
 40
0.0
 40
0.0
 40
0.0
 40
0.0
 40
0.2611521367
 40
0.4862746355
 40
1.0
 40
1.0
 40
1.0
 40
1.0
 10
-0.2431111075
 20
42.1512623832
 30
0.0
 10
-0.2472738967
 20
42.1533438751
 30
0.0
 10
-0.2559111459
 20
42.1560948834
 30
0.0
 10
-0.274277891
 20
42.150575463
 30
0.0
 10
-0.2784608152
 20
42.1347981608
 30
0.0
 10
-0.2784610617
 20
42.1256426852
 30
0.0
  0
SPLINE
  5
545
100
AcDbEntity
  8
ASSI
100
AcDbSpline
 62
250
  6
CONTINUOUS
 70
0
 71
3
 72
9
 73
5
 74
0
 42
0.0000001
 43
0.0000001
 44
0.0000000001
 40
0.0
 40
0.0
 40
0.0
 40
0.0
 40
0.5121950194
 40
1.0
 40
1.0
 40
1.0
 40
1.0
 10
2.0121873354
 20
40.9803184866
 30
0.0
 10
2.0121874221
 20
40.9927371631
 30
0.0
 10
2.0044759803
 20
41.0167931107
 30
0.0
 10
1.9874161259
 20
41.0359989466
 30
0.0
 10
1.9768373811
 20
41.0412881389
 30
0.0
  0
SPLINE
  5
546
100
AcDbEntity
  8
ASSI
100
AcDbSpline
 62
250
  6
CONTINUOUS
 70
0
 71
3
 72
10
 73
6
 74
0
 42
0.0000001
 43
0.0000001
 44
0.0000000001
 40
0.0
 40
0.0
 40
0.0
 40
0.0
 40
0.2611521367
 40
0.4862746355
 40
1.0
 40
1.0
 40
1.0
 40
1.0
 10
-3.9554217087
 20
44.0074176838
 30
0.0
 10
-3.9595844979
 20
44.0094991757
 30
0.0
 10
-3.9682217471
 20
44.012250184
 30
0.0
 10
-3.9865884923
 20
44.0067307637
 30
0.0
 10
-3.9907714164
 20
43.9909534614
 30
0.0
 10
-3.990771663
 20
43.9817979858
 30
0.0
  0
SPLINE
  5
547
100
AcDbEntity
  8
ASSI
100
AcDbSpline
 62
250
  6
CONTINUOUS
 70
0
 71
3
 72
9
 73
5
 74
0
 42
0.0000001
 43
0.0000001
 44
0.0000000001
 40
0.0
 40
0.0
 40
0.0
 40
0.0
 40
0.2359032591
 40
1.0
 40
1.0
 40
1.0
 40
1.0
 10
-1.7001232659
 20
42.8364737872
 30
0.0
 10
-1.7001232403
 20
42.8401356589
 30
0.0
 10
-1.7017195042
 20
42.8556334488
 30
0.0
 10
-1.7084423218
 20
42.8704591598
 30
0.0
 10
-1.7155513965
 20
42.8799534702
 30
0.0
  0
SPLINE
  5
548
100
AcDbEntity
  8
ASSI
100
AcDbSpline
 62
250
  6
CONTINUOUS
 70
0
 71
3
 72
9
 73
5
 74
0
 42
0.0000001
 43
0.0000001
 44
0.0000000001
 40
0.0
 40
0.0
 40
0.0
 40
0.0
 40
0.2694427022
 40
1.0
 40
1.0
 40
1.0
 40
1.0
 10
-1.7155513965
 20
42.8799534702
 30
0.0
 10
-1.7169851083
 20
42.8818682207
 30
0.0
 10
-1.7226304784
 20
42.8887055826
 30
0.0
 10
-1.7296722302
 20
42.8945430433
 30
0.0
 10
-1.7354732201
 20
42.8974434395
 30
0.0
  0
SPLINE
  5
549
100
AcDbEntity
  8
ASSI
100
AcDbSpline
 62
250
  6
CONTINUOUS
 70
0
 71
3
 72
9
 73
5
 74
0
 42
0.0000001
 43
0.0000001
 44
0.0000000001
 40
0.0
 40
0.0
 40
0.0
 40
0.0
 40
0.2565616253
 40
1.0
 40
1.0
 40
1.0
 40
1.0
 10
5.2203345525
 20
-3.0571884632
 30
0.0
 10
5.2175606007
 20
-3.0604521172
 30
0.0
 10
5.2079399293
 20
-3.0740863976
 30
0.0
 10
5.2023496917
 20
-3.0909614412
 30
0.0
 10
5.2023483181
 20
-3.1033730155
 30
0.0
  0
SPLINE
  5
54A
100
AcDbEntity
  8
ASSI
100
AcDbSpline
 62
7
  6
CONTINUOUS
 70
0
 71
3
 72
10
 73
6
 74
0
 42
0.0000001
 43
0.0000001
 44
0.0000000001
 40
0.0
 40
0.0
 40
0.0
 40
0.0
 40
0.4539933938
 40
0.7184177455
 40
1.0
 40
1.0
 40
1.0
 40
1.0
 10
2.5108864031
 20
40.4240172583
 30
0.0
 10
2.5366296024
 20
40.4762445898
 30
0.0
 10
2.5518284507
 20
40.5713705004
 30
0.0
 10
2.5395555085
 20
40.6989383483
 30
0.0
 10
2.5222089999
 20
40.7672153062
 30
0.0
 10
2.5108864031
 20
40.80150898
 30
0.0
  0
SPLINE
  5
54B
100
AcDbEntity
  8
ASSI
100
AcDbSpline
 62
250
  6
CONTINUOUS
 70
0
 71
3
 72
9
 73
5
 74
0
 42
0.0000001
 43
0.0000001
 44
0.0000000001
 40
0.0
 40
0.0
 40
0.0
 40
0.0
 40
0.4489712015
 40
1.0
 40
1.0
 40
1.0
 40
1.0
 10
5.2203345525
 20
38.1674156762
 30
0.0
 10
5.2150426275
 20
38.1685381153
 30
0.0
 10
5.2043016961
 20
38.1768715253
 30
0.0
 10
5.2023482452
 20
38.1895917798
 30
0.0
 10
5.2023483181
 20
38.1962311238
 30
0.0
  0
SPLINE
  5
54C
100
AcDbEntity
  8
ASSI
100
AcDbSpline
 62
250
  6
CONTINUOUS
 70
0
 71
3
 72
9
 73
5
 74
0
 42
0.0000001
 43
0.0000001
 44
0.0000000001
 40
0.0
 40
0.0
 40
0.0
 40
0.0
 40
0.5097182529
 40
1.0
 40
1.0
 40
1.0
 40
1.0
 10
5.2023483181
 20
38.5134999242
 30
0.0
 10
5.202348262
 20
38.525767667
 30
0.0
 10
5.2100888467
 20
38.5496667687
 30
0.0
 10
5.2271549885
 20
38.568551187
 30
0.0
 10
5.2376929807
 20
38.5738605714
 30
0.0
  0
SPLINE
  5
54D
100
AcDbEntity
  8
RACCORDO
100
AcDbSpline
 62
250
  6
CONTINUOUS
 70
0
 71
3
 72
11
 73
7
 74
0
 42
0.0000001
 43
0.0000001
 44
0.0000000001
 40
0.0
 40
0.0
 40
0.0
 40
0.0
 40
0.2492436044
 40
0.4989245823
 40
0.7492468871
 40
1.0
 40
1.0
 40
1.0
 40
1.0
 10
-3.0855825452
 20
21.6921396805
 30
0.0
 10
-3.0801438293
 20
22.2001859658
 30
0.0
 10
-3.0654678341
 20
23.217127904
 30
0.0
 10
-3.0392640877
 20
24.7442191505
 30
0.0
 10
-3.012230772
 20
26.2743735776
 30
0.0
 10
-2.9913802597
 20
27.2955929214
 30
0.0
 10
-2.979069351
 20
27.8065971302
 30
0.0
  0
SPLINE
  5
54E
100
AcDbEntity
  8
RACCORDO
100
AcDbSpline
 62
250
  6
CONTINUOUS
 70
0
 71
3
 72
17
 73
13
 74
0
 42
0.0000001
 43
0.0000001
 44
0.0000000001
 40
0.0
 40
0.0
 40
0.0
 40
0.0
 40
0.1206699777
 40
0.2480334787
 40
0.379659656
 40
0.512617329
 40
0.6438380179
 40
0.77039044
 40
0.8896381225
 40
0.946016473
 40
0.9733189404
 40
1.0
 40
1.0
 40
1.0
 40
1.0
 10
-2.979069351
 20
27.8065971302
 30
0.0
 10
-2.9711145944
 20
28.136923718
 30
0.0
 10
-3.0126749829
 20
28.8180130534
 30
0.0
 10
-3.2230052519
 20
29.8391672083
 30
0.0
 10
-3.5768021034
 20
30.855478106
 30
0.0
 10
-4.0555019137
 20
31.8308606827
 30
0.0
 10
-4.6447007626
 20
32.7272365
 30
0.0
 10
-5.3162166973
 20
33.5151825461
 30
0.0
 10
-5.9393554449
 20
34.0647155804
 30
0.0
 10
-6.3972069344
 20
34.3806760353
 30
0.0
 10
-6.6568054112
 20
34.5355153948
 30
0.0
 10
-6.7868917861
 20
34.6058837185
 30
0.0
 10
-6.8522373541
 20
34.6385572997
 30
0.0
  0
SPLINE
  5
54F
100
AcDbEntity
  8
RACCORDO
100
AcDbSpline
 62
250
  6
CONTINUOUS
 70
0
 71
3
 72
20
 73
16
 74
0
 42
0.0000001
 43
0.0000001
 44
0.0000000001
 40
0.0
 40
0.0
 40
0.0
 40
0.0
 40
0.0684722859
 40
0.1336660791
 40
0.1957982583
 40
0.2551907889
 40
0.3123341838
 40
0.3679621531
 40
0.4228814452
 40
0.4779375245
 40
0.5340086547
 40
0.5918653972
 40
0.7149618608
 40
0.8508064863
 40
1.0
 40
1.0
 40
1.0
 40
1.0
 10
-6.8676886984
 20
34.5055386711
 30
0.0
 10
-6.9902800148
 20
34.5668327742
 30
0.0
 10
-7.2349610895
 20
34.6763541848
 30
0.0
 10
-7.6087486931
 20
34.7968863138
 30
0.0
 10
-7.9762377067
 20
34.8698599479
 30
0.0
 10
-8.3342210458
 20
34.8938747256
 30
0.0
 10
-8.679046102
 20
34.8662668894
 30
0.0
 10
-9.0069900288
 20
34.788710923
 30
0.0
 10
-9.315111658
 20
34.66282981
 30
0.0
 10
-9.6003516138
 20
34.4894570196
 30
0.0
 10
-9.8586847105
 20
34.2689348788
 30
0.0
 10
-10.1708178649
 20
33.9097024121
 30
0.0
 10
-10.4835532559
 20
33.3494903186
 30
0.0
 10
-10.7107060002
 20
32.5593022327
 30
0.0
 10
-10.7671650212
 20
31.988437564
 30
0.0
 10
-10.7743263051
 20
31.6898836798
 30
0.0
  0
SPLINE
  5
550
100
AcDbEntity
  8
RACCORDO
100
AcDbSpline
 62
250
  6
CONTINUOUS
 70
0
 71
3
 72
16
 73
12
 74
0
 42
0.0000001
 43
0.0000001
 44
0.0000000001
 40
0.0
 40
0.0
 40
0.0
 40
0.0
 40
0.1492579241
 40
0.2190880482
 40
0.2856303722
 40
0.4093259565
 40
0.5234816396
 40
0.633499896
 40
0.7460653249
 40
0.8670423717
 40
1.0
 40
1.0
 40
1.0
 40
1.0
 10
-8.8621828736
 20
30.3271968931
 30
0.0
 10
-8.8604591137
 20
30.4468221189
 30
0.0
 10
-8.8446210173
 20
30.6228865641
 30
0.0
 10
-8.7916242759
 20
30.8459658232
 30
0.0
 10
-8.7226707826
 20
31.0429835044
 30
0.0
 10
-8.6037580379
 20
31.2591157
 30
0.0
 10
-8.4047598396
 20
31.4603298006
 30
0.0
 10
-8.1601564644
 20
31.5853737102
 30
0.0
 10
-7.8834994911
 20
31.627002681
 30
0.0
 10
-7.5892795606
 20
31.5864565541
 30
0.0
 10
-7.3980481017
 20
31.5117395415
 30
0.0
 10
-7.302725772
 20
31.4640816351
 30
0.0
  0
SPLINE
  5
551
100
AcDbEntity
  8
RACCORDO
100
AcDbSpline
 62
250
  6
CONTINUOUS
 70
0
 71
3
 72
17
 73
13
 74
0
 42
0.0000001
 43
0.0000001
 44
0.0000000001
 40
0.0
 40
0.0
 40
0.0
 40
0.0
 40
0.120701956
 40
0.2480866998
 40
0.3797319067
 40
0.5127173329
 40
0.6439764594
 40
0.770548349
 40
0.8312319191
 40
0.8898172092
 40
0.9461228736
 40
1.0
 40
1.0
 40
1.0
 40
1.0
 10
-3.0951791871
 20
27.8503101208
 30
0.0
 10
-3.08745096
 20
28.1723397637
 30
0.0
 10
-3.1279047897
 20
28.8362676719
 30
0.0
 10
-3.3321041587
 20
29.8318385357
 30
0.0
 10
-3.6755837931
 20
30.8229779034
 30
0.0
 10
-4.1405428804
 20
31.7746887178
 30
0.0
 10
-4.7136675337
 20
32.6491776403
 30
0.0
 10
-5.2663459417
 20
33.2987756792
 30
0.0
 10
-5.7446513627
 20
33.7486733925
 30
0.0
 10
-6.1095826962
 20
34.0433228872
 30
0.0
 10
-6.4818746407
 20
34.297743397
 30
0.0
 10
-6.7390854602
 20
34.441234031
 30
0.0
 10
-6.8676886984
 20
34.5055386711
 30
0.0
  0
SPLINE
  5
552
100
AcDbEntity
  8
RACCORDO
100
AcDbSpline
 62
250
  6
CONTINUOUS
 70
0
 71
3
 72
9
 73
5
 74
0
 42
0.0000001
 43
0.0000001
 44
0.0000000001
 40
0.0
 40
0.0
 40
0.0
 40
0.0
 40
0.2478429006
 40
1.0
 40
1.0
 40
1.0
 40
1.0
 10
-7.302725772
 20
31.4640816351
 30
0.0
 10
-7.2793150466
 20
31.7168823091
 30
0.0
 10
-7.1716494565
 20
32.7356339501
 30
0.0
 10
-7.0130329672
 20
33.7488860291
 30
0.0
 10
-6.8676886984
 20
34.5055386711
 30
0.0
  0
SPLINE
  5
553
100
AcDbEntity
  8
RACCORDO
100
AcDbSpline
 62
250
  6
CONTINUOUS
 70
0
 71
3
 72
14
 73
10
 74
0
 42
0.0000001
 43
0.0000001
 44
0.0000000001
 40
0.0
 40
0.0
 40
0.0
 40
0.0
 40
0.1102097876
 40
0.229530554
 40
0.3561797966
 40
0.4876145311
 40
0.7521667006
 40
0.8795888074
 40
1.0
 40
1.0
 40
1.0
 40
1.0
 10
-7.302725772
 20
31.4640816351
 30
0.0
 10
-7.1980714847
 20
31.4117506787
 30
0.0
 10
-6.9908182198
 20
31.2806567167
 30
0.0
 10
-6.7070865061
 20
31.0287177925
 30
0.0
 10
-6.4472978174
 20
30.721895776
 30
0.0
 10
-6.1463367924
 20
30.2544850987
 30
0.0
 10
-5.9337057471
 20
29.7333181368
 30
0.0
 10
-5.8292245865
 20
29.1982355167
 30
0.0
 10
-5.8160641941
 20
28.9341425102
 30
0.0
 10
-5.8205527606
 20
28.8063818366
 30
0.0
  0
SPLINE
  5
554
100
AcDbEntity
  8
RACCORDO
100
AcDbSpline
 62
250
  6
CONTINUOUS
 70
0
 71
3
 72
9
 73
5
 74
0
 42
0.0000001
 43
0.0000001
 44
0.0000000001
 40
0.0
 40
0.0
 40
0.0
 40
0.0
 40
0.2601311302
 40
1.0
 40
1.0
 40
1.0
 40
1.0
 10
-8.8621828736
 20
30.3271968931
 30
0.0
 10
-9.0361624154
 20
30.4331545009
 30
0.0
 10
-9.6979771119
 20
30.8517206458
 30
0.0
 10
-10.3310629123
 20
31.3167870896
 30
0.0
 10
-10.7743263051
 20
31.6898836798
 30
0.0
  0
SPLINE
  5
555
100
AcDbEntity
  8
RACCORDO
100
AcDbSpline
 62
250
  6
CONTINUOUS
 70
0
 71
3
 72
11
 73
7
 74
0
 42
0.0000001
 43
0.0000001
 44
0.0000000001
 40
0.0
 40
0.0
 40
0.0
 40
0.0
 40
0.2504462227
 40
0.5005060533
 40
0.7504456789
 40
1.0
 40
1.0
 40
1.0
 40
1.0
 10
-10.7743263051
 20
31.6898836798
 30
0.0
 10
-10.7866221803
 20
31.1794772702
 30
0.0
 10
-10.8115721075
 20
30.159460824
 30
0.0
 10
-10.84298427
 20
28.6299321958
 30
0.0
 10
-10.8648098407
 20
27.1020550676
 30
0.0
 10
-10.8753224404
 20
26.0838510252
 30
0.0
 10
-10.8807553369
 20
25.5751437535
 30
0.0
  0
SPLINE
  5
556
100
AcDbEntity
  8
RACCORDO
100
AcDbSpline
 62
250
  6
CONTINUOUS
 70
0
 71
3
 72
9
 73
5
 74
0
 42
0.0000001
 43
0.0000001
 44
0.0000000001
 40
0.0
 40
0.0
 40
0.0
 40
0.0
 40
0.2405191689
 40
1.0
 40
1.0
 40
1.0
 40
1.0
 10
-7.4537806612
 20
27.7461792964
 30
0.0
 10
-7.4877996807
 20
27.7631964225
 30
0.0
 10
-7.6267619379
 20
27.8388658478
 30
0.0
 10
-7.7554285847
 20
27.932882252
 30
0.0
 10
-7.8463715955
 20
28.0113425826
 30
0.0
  0
SPLINE
  5
557
100
AcDbEntity
  8
RACCORDO
100
AcDbSpline
 62
250
  6
CONTINUOUS
 70
0
 71
3
 72
9
 73
5
 74
0
 42
0.0000001
 43
0.0000001
 44
0.0000000001
 40
0.0
 40
0.0
 40
0.0
 40
0.0
 40
0.2587548471
 40
1.0
 40
1.0
 40
1.0
 40
1.0
 10
-8.8063383219
 20
29.746168544
 30
0.0
 10
-8.8161246414
 20
29.7956047741
 30
0.0
 10
-8.8493845892
 20
29.9875020458
 30
0.0
 10
-8.8641766869
 20
30.1828444087
 30
0.0
 10
-8.8621828736
 20
30.3271968931
 30
0.0
  0
SPLINE
  5
558
100
AcDbEntity
  8
RACCORDO
100
AcDbSpline
 62
250
  6
CONTINUOUS
 70
0
 71
3
 72
11
 73
7
 74
0
 42
0.0000001
 43
0.0000001
 44
0.0000000001
 40
0.0
 40
0.0
 40
0.0
 40
0.0
 40
0.2492258071
 40
0.498893084
 40
0.7492291016
 40
1.0
 40
1.0
 40
1.0
 40
1.0
 10
-3.2003033868
 20
21.7349177784
 30
0.0
 10
-3.1949642398
 20
22.2430042788
 30
0.0
 10
-3.1801966555
 20
23.2600322769
 30
0.0
 10
-3.1539548814
 20
24.7873130985
 30
0.0
 10
-3.1276506215
 20
26.3177434765
 30
0.0
 10
-3.1073564116
 20
27.339190518
 30
0.0
 10
-3.0951791871
 20
27.8503101208
 30
0.0
  0
SPLINE
  5
559
100
AcDbEntity
  8
RACCORDO
100
AcDbSpline
 62
250
  6
CONTINUOUS
 70
0
 71
3
 72
9
 73
5
 74
0
 42
0.0000001
 43
0.0000001
 44
0.0000000001
 40
0.0
 40
0.0
 40
0.0
 40
0.0
 40
0.2565873664
 40
1.0
 40
1.0
 40
1.0
 40
1.0
 10
-3.0951791871
 20
27.8503101208
 30
0.0
 10
-3.3320357363
 20
27.9206604271
 30
0.0
 10
-4.2518626826
 20
28.2056624972
 30
0.0
 10
-5.1583012729
 20
28.5345320546
 30
0.0
 10
-5.8205527606
 20
28.8063818366
 30
0.0
  0
SPLINE
  5
55A
100
AcDbEntity
  8
RACCORDO
100
AcDbSpline
 62
250
  6
CONTINUOUS
 70
0
 71
3
 72
15
 73
11
 74
0
 42
0.0000001
 43
0.0000001
 44
0.0000000001
 40
0.0
 40
0.0
 40
0.0
 40
0.0
 40
0.1444562809
 40
0.2775780108
 40
0.4007647554
 40
0.5171169626
 40
0.6309535299
 40
0.746908259
 40
0.8690019098
 40
1.0
 40
1.0
 40
1.0
 40
1.0
 10
-5.8205527606
 20
28.8063818366
 30
0.0
 10
-5.8246570599
 20
28.6916030848
 30
0.0
 10
-5.8522261509
 20
28.470929393
 30
0.0
 10
-5.9589724593
 20
28.1678110564
 30
0.0
 10
-6.1245879181
 20
27.917991854
 30
0.0
 10
-6.3409969482
 20
27.7327685108
 30
0.0
 10
-6.5966404324
 20
27.6205531155
 30
0.0
 10
-6.87784417
 20
27.58532561
 30
0.0
 10
-7.171299981
 20
27.6263725776
 30
0.0
 10
-7.3606161313
 20
27.6996174623
 30
0.0
 10
-7.4537806612
 20
27.7461792964
 30
0.0
  0
SPLINE
  5
55B
100
AcDbEntity
  8
RACCORDO
100
AcDbSpline
 62
250
  6
CONTINUOUS
 70
0
 71
3
 72
9
 73
5
 74
0
 42
0.0000001
 43
0.0000001
 44
0.0000000001
 40
0.0
 40
0.0
 40
0.0
 40
0.0
 40
0.2563508867
 40
1.0
 40
1.0
 40
1.0
 40
1.0
 10
-9.7530094058
 20
24.7194621047
 30
0.0
 10
-9.8527414087
 20
24.7879653332
 30
0.0
 10
-10.2387417018
 20
25.0595752598
 30
0.0
 10
-10.6122391825
 20
25.3491102337
 30
0.0
 10
-10.8807553369
 20
25.5751437535
 30
0.0
  0
SPLINE
  5
55C
100
AcDbEntity
  8
RACCORDO
100
AcDbSpline
 62
250
  6
CONTINUOUS
 70
0
 71
3
 72
11
 73
7
 74
0
 42
0.0000001
 43
0.0000001
 44
0.0000000001
 40
0.0
 40
0.0
 40
0.0
 40
0.0
 40
0.2347516527
 40
0.4837059735
 40
0.7409984245
 40
1.0
 40
1.0
 40
1.0
 40
1.0
 10
-10.8807553369
 20
25.5751437535
 30
0.0
 10
-10.8843102615
 20
25.2405323028
 30
0.0
 10
-10.833922544
 20
24.5498012732
 30
0.0
 10
-10.6125938482
 20
23.5140502977
 30
0.0
 10
-10.2493745805
 20
22.4825844203
 30
0.0
 10
-9.9212800193
 20
21.8212608819
 30
0.0
 10
-9.7358508165
 20
21.5020070726
 30
0.0
  0
SPLINE
  5
55D
100
AcDbEntity
  8
RACCORDO
100
AcDbSpline
 62
250
  6
CONTINUOUS
 70
0
 71
3
 72
9
 73
5
 74
0
 42
0.0000001
 43
0.0000001
 44
0.0000000001
 40
0.0
 40
0.0
 40
0.0
 40
0.0
 40
0.2592498464
 40
1.0
 40
1.0
 40
1.0
 40
1.0
 10
-8.0052994123
 20
19.4469199739
 30
0.0
 10
-7.9364502519
 20
19.3923878799
 30
0.0
 10
-7.6661476068
 20
19.1881749485
 30
0.0
 10
-7.3760533772
 20
19.0094673577
 30
0.0
 10
-7.15159519
 20
18.8972364964
 30
0.0
  0
SPLINE
  5
55E
100
AcDbEntity
  8
RACCORDO
100
AcDbSpline
 62
250
  6
CONTINUOUS
 70
0
 71
3
 72
9
 73
5
 74
0
 42
0.0000001
 43
0.0000001
 44
0.0000000001
 40
0.0
 40
0.0
 40
0.0
 40
0.0
 40
0.5157593117
 40
1.0
 40
1.0
 40
1.0
 40
1.0
 10
-3.2003033868
 20
21.7349177784
 30
0.0
 10
-3.9651462465
 20
21.9620662381
 30
0.0
 10
-5.4322006235
 20
22.4585276934
 30
0.0
 10
-6.8519598439
 20
23.079298192
 30
0.0
 10
-7.5219771769
 20
23.4143068585
 30
0.0
  0
SPLINE
  5
55F
100
AcDbEntity
  8
RACCORDO
100
AcDbSpline
 62
250
  6
CONTINUOUS
 70
0
 71
3
 72
9
 73
5
 74
0
 42
0.0000001
 43
0.0000001
 44
0.0000000001
 40
0.0
 40
0.0
 40
0.0
 40
0.0
 40
0.4707824002
 40
1.0
 40
1.0
 40
1.0
 40
1.0
 10
-7.15159519
 20
18.8972364964
 30
0.0
 10
-7.2821714817
 20
19.5972388437
 30
0.0
 10
-7.4801014918
 20
21.099617397
 30
0.0
 10
-7.5308301438
 20
22.6138934232
 30
0.0
 10
-7.5219771769
 20
23.4143068585
 30
0.0
  0
SPLINE
  5
560
100
AcDbEntity
  8
RACCORDO
100
AcDbSpline
 62
250
  6
CONTINUOUS
 70
0
 71
3
 72
20
 73
16
 74
0
 42
0.0000001
 43
0.0000001
 44
0.0000000001
 40
0.0
 40
0.0
 40
0.0
 40
0.0
 40
0.1329722145
 40
0.1951704174
 40
0.2548453789
 40
0.3124430533
 40
0.3686563448
 40
0.4242380588
 40
0.4799482534
 40
0.5365565175
 40
0.5947595651
 40
0.717830151
 40
0.7837399981
 40
0.8527636364
 40
1.0
 40
1.0
 40
1.0
 40
1.0
 10
-7.15159519
 20
18.8972364964
 30
0.0
 10
-6.9115880127
 20
18.7772374639
 30
0.0
 10
-6.5403800516
 20
18.6335802958
 30
0.0
 10
-6.0342278727
 20
18.5368561183
 30
0.0
 10
-5.6715123628
 20
18.5151230035
 30
0.0
 10
-5.3214344439
 20
18.5454323099
 30
0.0
 10
-4.9878668155
 20
18.6259025648
 30
0.0
 10
-4.6739254453
 20
18.7547348077
 30
0.0
 10
-4.3828788116
 20
18.9308850275
 30
0.0
 10
-4.1189604057
 20
19.1538621818
 30
0.0
 10
-3.8008448735
 20
19.5152126857
 30
0.0
 10
-3.5518214683
 20
19.9547044456
 30
0.0
 10
-3.3765081684
 20
20.4456635969
 30
0.0
 10
-3.2429167814
 20
21.0001053117
 30
0.0
 10
-3.2034523704
 20
21.4378156749
 30
0.0
 10
-3.2003033868
 20
21.7349177784
 30
0.0
  0
SPLINE
  5
561
100
AcDbEntity
  8
ASSI
100
AcDbSpline
 62
250
  6
CONTINUOUS
 70
0
 71
3
 72
11
 73
7
 74
0
 42
0.0000001
 43
0.0000001
 44
0.0000000001
 40
0.0
 40
0.0
 40
0.0
 40
0.0
 40
0.3043293267
 40
0.568730848
 40
0.7957845971
 40
1.0
 40
1.0
 40
1.0
 40
1.0
 10
5.5110025431
 20
45.699728812
 30
0.0
 10
5.5219102031
 20
45.7051826425
 30
0.0
 10
5.5416088061
 20
45.7168890986
 30
0.0
 10
5.5655743014
 20
45.7383380137
 30
0.0
 10
5.5808190121
 20
45.76221666
 30
0.0
 10
5.5843444542
 20
45.7796800483
 30
0.0
 10
5.5842276917
 20
45.7878625685
 30
0.0
  0
SPLINE
  5
562
100
AcDbEntity
  8
ASSI
100
AcDbSpline
 62
250
  6
CONTINUOUS
 70
0
 71
3
 72
11
 73
7
 74
0
 42
0.0000001
 43
0.0000001
 44
0.0000000001
 40
0.0
 40
0.0
 40
0.0
 40
0.0
 40
0.2486719439
 40
0.5136524203
 40
0.7711625041
 40
1.0
 40
1.0
 40
1.0
 40
1.0
 10
4.9806724572
 20
46.0932394332
 30
0.0
 10
4.9806725862
 20
46.1233679131
 30
0.0
 10
4.9705974439
 20
46.1857228176
 30
0.0
 10
4.9336584805
 20
46.272411171
 30
0.0
 10
4.8791603481
 20
46.3463268837
 30
0.0
 10
4.8318032463
 20
46.3834466424
 30
0.0
 10
4.8070078646
 20
46.3958517274
 30
0.0
  0
SPLINE
  5
563
100
AcDbEntity
  8
ASSI
100
AcDbSpline
 62
250
  6
CONTINUOUS
 70
0
 71
3
 72
11
 73
7
 74
0
 42
0.0000001
 43
0.0000001
 44
0.0000000001
 40
0.0
 40
0.0
 40
0.0
 40
0.0
 40
0.2792147089
 40
0.5355025067
 40
0.7730823165
 40
1.0
 40
1.0
 40
1.0
 40
1.0
 10
9.502545205
 20
44.0480830572
 30
0.0
 10
9.5401528441
 20
44.066089325
 30
0.0
 10
9.6152062134
 20
44.0950676885
 30
0.0
 10
9.7297504053
 20
44.1152215921
 30
0.0
 10
9.8382777105
 20
44.1089933239
 30
0.0
 10
9.9050234422
 20
44.0866420907
 30
0.0
 10
9.9353329918
 20
44.0714889864
 30
0.0
  0
SPLINE
  5
564
100
AcDbEntity
  8
ASSI
100
AcDbSpline
 62
250
  6
CONTINUOUS
 70
0
 71
3
 72
11
 73
7
 74
0
 42
0.0000001
 43
0.0000001
 44
0.0000000001
 40
0.0
 40
0.0
 40
0.0
 40
0.0
 40
0.2347796661
 40
0.4987463311
 40
0.7633868304
 40
1.0
 40
1.0
 40
1.0
 40
1.0
 10
-1.7001232659
 20
42.8364737872
 30
0.0
 10
-1.6799709697
 20
42.8263976394
 30
0.0
 10
-1.6336930112
 20
42.8119461482
 30
0.0
 10
-1.5603926772
 20
42.8048325317
 30
0.0
 10
-1.4868573089
 20
42.8113410629
 30
0.0
 10
-1.4402182909
 20
42.8253772567
 30
0.0
 10
-1.4197702355
 20
42.8352504853
 30
0.0
  0
SPLINE
  5
565
100
AcDbEntity
  8
ASSI
100
AcDbSpline
 62
250
  6
CONTINUOUS
 70
0
 71
3
 72
11
 73
7
 74
0
 42
0.0000001
 43
0.0000001
 44
0.0000000001
 40
0.0
 40
0.0
 40
0.0
 40
0.0
 40
0.2462187683
 40
0.5106608019
 40
0.7692790849
 40
1.0
 40
1.0
 40
1.0
 40
1.0
 10
-1.7354732201
 20
42.8974434395
 30
0.0
 10
-1.7354732201
 20
42.9213191768
 30
0.0
 10
-1.7273239297
 20
42.9709229174
 30
0.0
 10
-1.697735039
 20
43.0400725847
 30
0.0
 10
-1.6541375952
 20
43.0995110169
 30
0.0
 10
-1.6163584329
 20
43.1297554281
 30
0.0
 10
-1.5965200069
 20
43.140098747
 30
0.0
  0
SPLINE
  5
566
100
AcDbEntity
  8
ASSI
100
AcDbSpline
 62
250
  6
CONTINUOUS
 70
0
 71
3
 72
11
 73
7
 74
0
 42
0.0000001
 43
0.0000001
 44
0.0000000001
 40
0.0
 40
0.0
 40
0.0
 40
0.0
 40
0.2462187672
 40
0.5106608001
 40
0.7692790838
 40
1.0
 40
1.0
 40
1.0
 40
1.0
 10
-3.9554217087
 20
44.0074176838
 30
0.0
 10
-3.9554217087
 20
44.031293421
 30
0.0
 10
-3.9472724185
 20
44.0808971615
 30
0.0
 10
-3.9176835279
 20
44.1500468287
 30
0.0
 10
-3.8740860841
 20
44.209485261
 30
0.0
 10
-3.8363069216
 20
44.2397296723
 30
0.0
 10
-3.8164684955
 20
44.2500729912
 30
0.0
  0
SPLINE
  5
567
100
AcDbEntity
  8
ASSI
100
AcDbSpline
 62
250
  6
CONTINUOUS
 70
0
 71
3
 72
11
 73
7
 74
0
 42
0.0000001
 43
0.0000001
 44
0.0000000001
 40
0.0
 40
0.0
 40
0.0
 40
0.0
 40
0.3019103668
 40
0.5654931424
 40
0.7935263697
 40
1.0
 40
1.0
 40
1.0
 40
1.0
 10
-3.990771663
 20
43.9817979858
 30
0.0
 10
-3.9994356162
 20
43.9861299624
 30
0.0
 10
-4.0151095245
 20
43.9954679879
 30
0.0
 10
-4.0341992592
 20
44.0126447348
 30
0.0
 10
-4.0464132651
 20
44.0318401494
 30
0.0
 10
-4.0493511643
 20
44.0458840943
 30
0.0
 10
-4.0493502445
 20
44.0525086639
 30
0.0
  0
SPLINE
  5
568
100
AcDbEntity
  8
ASSI
100
AcDbSpline
 62
250
  6
CONTINUOUS
 70
0
 71
3
 72
11
 73
7
 74
0
 42
0.0000001
 43
0.0000001
 44
0.0000000001
 40
0.0
 40
0.0
 40
0.0
 40
0.0
 40
0.2347796661
 40
0.4987463311
 40
0.7633868304
 40
1.0
 40
1.0
 40
1.0
 40
1.0
 10
2.0121873354
 20
40.9803184866
 30
0.0
 10
2.0323396316
 20
40.9702423387
 30
0.0
 10
2.07861759
 20
40.9557908476
 30
0.0
 10
2.151917924
 20
40.948677231
 30
0.0
 10
2.2254532923
 20
40.9551857623
 30
0.0
 10
2.2720923103
 20
40.9692219561
 30
0.0
 10
2.2925403657
 20
40.9790951847
 30
0.0
  0
SPLINE
  5
569
100
AcDbEntity
  8
ASSI
100
AcDbSpline
 62
250
  6
CONTINUOUS
 70
0
 71
3
 72
11
 73
7
 74
0
 42
0.0000001
 43
0.0000001
 44
0.0000000001
 40
0.0
 40
0.0
 40
0.0
 40
0.0
 40
0.2462187683
 40
0.5106608019
 40
0.7692790849
 40
1.0
 40
1.0
 40
1.0
 40
1.0
 10
1.9768373811
 20
41.0412881389
 30
0.0
 10
1.9768373811
 20
41.0651638762
 30
0.0
 10
1.9849866715
 20
41.1147676168
 30
0.0
 10
2.0145755622
 20
41.1839172841
 30
0.0
 10
2.058173006
 20
41.2433557163
 30
0.0
 10
2.0959521683
 20
41.2736001274
 30
0.0
 10
2.1157905943
 20
41.2839434463
 30
0.0
  0
SPLINE
  5
56A
100
AcDbEntity
  8
ASSI
100
AcDbSpline
 62
250
  6
CONTINUOUS
 70
0
 71
3
 72
11
 73
7
 74
0
 42
0.0000001
 43
0.0000001
 44
0.0000000001
 40
0.0
 40
0.0
 40
0.0
 40
0.0
 40
0.2462187672
 40
0.5106608001
 40
0.7692790838
 40
1.0
 40
1.0
 40
1.0
 40
1.0
 10
-0.2431111075
 20
42.1512623832
 30
0.0
 10
-0.2431111075
 20
42.1751381203
 30
0.0
 10
-0.2349618172
 20
42.2247418608
 30
0.0
 10
-0.2053729267
 20
42.2938915281
 30
0.0
 10
-0.1617754828
 20
42.3533299604
 30
0.0
 10
-0.1239963203
 20
42.3835743717
 30
0.0
 10
-0.1041578942
 20
42.3939176906
 30
0.0
  0
SPLINE
  5
56B
100
AcDbEntity
  8
ASSI
100
AcDbSpline
 62
250
  6
CONTINUOUS
 70
0
 71
3
 72
11
 73
7
 74
0
 42
0.0000001
 43
0.0000001
 44
0.0000000001
 40
0.0
 40
0.0
 40
0.0
 40
0.0
 40
0.3019103668
 40
0.5654931424
 40
0.7935263697
 40
1.0
 40
1.0
 40
1.0
 40
1.0
 10
-0.2784610617
 20
42.1256426852
 30
0.0
 10
-0.2871250149
 20
42.1299746618
 30
0.0
 10
-0.3027989233
 20
42.1393126873
 30
0.0
 10
-0.3218886579
 20
42.1564894342
 30
0.0
 10
-0.3341026638
 20
42.1756848488
 30
0.0
 10
-0.3370405631
 20
42.1897287937
 30
0.0
 10
-0.3370396433
 20
42.1963533633
 30
0.0
  0
SPLINE
  5
56C
100
AcDbEntity
  8
ASSI
100
AcDbSpline
 62
7
  6
CONTINUOUS
 70
0
 71
3
 72
11
 73
7
 74
0
 42
0.0000001
 43
0.0000001
 44
0.0000000001
 40
0.0
 40
0.0
 40
0.0
 40
0.0
 40
0.2468214196
 40
0.5117844928
 40
0.770298635
 40
1.0
 40
1.0
 40
1.0
 40
1.0
 10
-1.2014241982
 20
42.9452653668
 30
0.0
 10
-1.2014241982
 20
42.9754598421
 30
0.0
 10
-1.2118377136
 20
43.038177531
 30
0.0
 10
-1.249578189
 20
43.1253904551
 30
0.0
 10
-1.3050154748
 20
43.1999821294
 30
0.0
 10
-1.3530404556
 20
43.2375468715
 30
0.0
 10
-1.3781739695
 20
43.2501136285
 30
0.0
  0
SPLINE
  5
56D
100
AcDbEntity
  8
ASSI
100
AcDbSpline
 62
250
  6
CONTINUOUS
 70
0
 71
3
 72
11
 73
7
 74
0
 42
0.0000001
 43
0.0000001
 44
0.0000000001
 40
0.0
 40
0.0
 40
0.0
 40
0.0
 40
0.2465201866
 40
0.5119831914
 40
0.7708931135
 40
1.0
 40
1.0
 40
1.0
 40
1.0
 10
-1.4197702355
 20
42.8352504853
 30
0.0
 10
-1.4201208379
 20
42.8653469282
 30
0.0
 10
-1.4310999604
 20
42.9278266942
 30
0.0
 10
-1.4690306943
 20
43.0147873112
 30
0.0
 10
-1.5241361829
 20
43.0893842337
 30
0.0
 10
-1.5716460417
 20
43.127302535
 30
0.0
 10
-1.5965200069
 20
43.140098747
 30
0.0
  0
SPLINE
  5
56E
100
AcDbEntity
  8
ASSI
100
AcDbSpline
 62
250
  6
CONTINUOUS
 70
0
 71
3
 72
9
 73
5
 74
0
 42
0.0000001
 43
0.0000001
 44
0.0000000001
 40
0.0
 40
0.0
 40
0.0
 40
0.0
 40
0.5372364847
 40
1.0
 40
1.0
 40
1.0
 40
1.0
 10
-0.1041578942
 20
42.3939176906
 30
0.0
 10
-0.1232965478
 20
42.4032182365
 30
0.0
 10
-0.1621788755
 20
42.4156596285
 30
0.0
 10
-0.2033561312
 20
42.4078586499
 30
0.0
 10
-0.2194906747
 20
42.3991619575
 30
0.0
  0
SPLINE
  5
56F
100
AcDbEntity
  8
ASSI
100
AcDbSpline
 62
250
  6
CONTINUOUS
 70
0
 71
3
 72
11
 73
7
 74
0
 42
0.0000001
 43
0.0000001
 44
0.0000000001
 40
0.0
 40
0.0
 40
0.0
 40
0.0
 40
0.2491240283
 40
0.5140866942
 40
0.7713494507
 40
1.0
 40
1.0
 40
1.0
 40
1.0
 10
0.7969519283
 20
45.8419985703
 30
0.0
 10
0.7967419319
 20
45.8720229363
 30
0.0
 10
0.7864082944
 20
45.9340346749
 30
0.0
 10
0.7493866068
 20
46.0201667948
 30
0.0
 10
0.6950589122
 20
46.0935337578
 30
0.0
 10
0.6479648272
 20
46.1303721749
 30
0.0
 10
0.6233209887
 20
46.1427051192
 30
0.0
  0
SPLINE
  5
570
100
AcDbEntity
  8
ASSI
100
AcDbSpline
 62
250
  6
CONTINUOUS
 70
0
 71
3
 72
9
 73
5
 74
0
 42
0.0000001
 43
0.0000001
 44
0.0000000001
 40
0.0
 40
0.0
 40
0.0
 40
0.0
 40
0.5372364847
 40
1.0
 40
1.0
 40
1.0
 40
1.0
 10
-3.8164684955
 20
44.2500729912
 30
0.0
 10
-3.8356071491
 20
44.2593735371
 30
0.0
 10
-3.8744894767
 20
44.2718149291
 30
0.0
 10
-3.9156667324
 20
44.2640139505
 30
0.0
 10
-3.9318012759
 20
44.2553172582
 30
0.0
  0
SPLINE
  5
571
100
AcDbEntity
  8
ASSI
100
AcDbSpline
 62
7
  6
CONTINUOUS
 70
0
 71
3
 72
11
 73
7
 74
0
 42
0.0000001
 43
0.0000001
 44
0.0000000001
 40
0.0
 40
0.0
 40
0.0
 40
0.0
 40
0.2468214196
 40
0.5117844928
 40
0.770298635
 40
1.0
 40
1.0
 40
1.0
 40
1.0
 10
2.5108864031
 20
41.0891100662
 30
0.0
 10
2.5108864031
 20
41.1193045415
 30
0.0
 10
2.5004728876
 20
41.1820222304
 30
0.0
 10
2.4627324122
 20
41.2692351545
 30
0.0
 10
2.4072951265
 20
41.3438268288
 30
0.0
 10
2.3592701456
 20
41.3813915709
 30
0.0
 10
2.3341366317
 20
41.3939583279
 30
0.0
  0
SPLINE
  5
572
100
AcDbEntity
  8
ASSI
100
AcDbSpline
 62
250
  6
CONTINUOUS
 70
0
 71
3
 72
11
 73
7
 74
0
 42
0.0000001
 43
0.0000001
 44
0.0000000001
 40
0.0
 40
0.0
 40
0.0
 40
0.0
 40
0.2465201866
 40
0.5119831914
 40
0.7708931135
 40
1.0
 40
1.0
 40
1.0
 40
1.0
 10
2.2925403657
 20
40.9790951847
 30
0.0
 10
2.2921897633
 20
41.0091916276
 30
0.0
 10
2.2812106409
 20
41.0716713936
 30
0.0
 10
2.2432799069
 20
41.1586320106
 30
0.0
 10
2.1881744184
 20
41.2332289331
 30
0.0
 10
2.1406645595
 20
41.2711472344
 30
0.0
 10
2.1157905943
 20
41.2839434463
 30
0.0
  0
SPLINE
  5
573
100
AcDbEntity
  8
ASSI
100
AcDbSpline
 62
250
  6
CONTINUOUS
 70
0
 71
3
 72
11
 73
7
 74
0
 42
0.0000001
 43
0.0000001
 44
0.0000000001
 40
0.0
 40
0.0
 40
0.0
 40
0.0
 40
0.2304221264
 40
0.4885147188
 40
0.7529146637
 40
1.0
 40
1.0
 40
1.0
 40
1.0
 10
6.2446653358
 20
43.3336093939
 30
0.0
 10
6.2701073048
 20
43.3213154096
 30
0.0
 10
6.3187480133
 20
43.2841691806
 30
0.0
 10
6.3746258437
 20
43.2095889384
 30
0.0
 10
6.4121021423
 20
43.1220486349
 30
0.0
 10
6.4218361747
 20
43.05905822
 30
0.0
 10
6.4214151099
 20
43.0287611336
 30
0.0
  0
SPLINE
  5
574
100
AcDbEntity
  8
ASSI
100
AcDbSpline
 62
250
  6
CONTINUOUS
 70
0
 71
3
 72
9
 73
5
 74
0
 42
0.0000001
 43
0.0000001
 44
0.0000000001
 40
0.0
 40
0.0
 40
0.0
 40
0.0
 40
0.5330814501
 40
1.0
 40
1.0
 40
1.0
 40
1.0
 10
6.0619794135
 20
43.4233759068
 30
0.0
 10
6.0447256395
 20
43.431995082
 30
0.0
 10
6.009594061
 20
43.4438542196
 30
0.0
 10
5.9720142198
 20
43.4395708647
 30
0.0
 10
5.9563556125
 20
43.4332317448
 30
0.0
  0
SPLINE
  5
575
100
AcDbEntity
  8
ASSI
100
AcDbSpline
 62
250
  6
CONTINUOUS
 70
0
 71
3
 72
9
 73
5
 74
0
 42
0.0000001
 43
0.0000001
 44
0.0000000001
 40
0.0
 40
0.0
 40
0.0
 40
0.0
 40
0.4651167755
 40
1.0
 40
1.0
 40
1.0
 40
1.0
 10
0.3359549392
 20
46.2429561671
 30
0.0
 10
0.3516075915
 20
46.2501788984
 30
0.0
 10
0.390242697
 20
46.2556820338
 30
0.0
 10
0.4262493706
 20
46.24312338
 30
0.0
 10
0.4438568378
 20
46.2340136428
 30
0.0
  0
SPLINE
  5
576
100
AcDbEntity
  8
ASSI
100
AcDbSpline
 62
7
  6
CONTINUOUS
 70
0
 71
3
 72
9
 73
5
 74
0
 42
0.0000001
 43
0.0000001
 44
0.0000000001
 40
0.0
 40
0.0
 40
0.0
 40
0.0
 40
0.7434564307
 40
1.0
 40
1.0
 40
1.0
 40
1.0
 10
-3.7148223044
 20
44.372177564
 30
0.0
 10
-3.7061641626
 20
44.3761865653
 30
0.0
 10
-3.693575637
 20
44.3797725058
 30
0.0
 10
-3.6807898056
 20
44.380918894
 30
0.0
 10
-3.6775007962
 20
44.3810680143
 30
0.0
  0
SPLINE
  5
577
100
AcDbEntity
  8
ASSI
100
AcDbSpline
 62
7
  6
CONTINUOUS
 70
0
 71
3
 72
9
 73
5
 74
0
 42
0.0000001
 43
0.0000001
 44
0.0000000001
 40
0.0
 40
0.0
 40
0.0
 40
0.0
 40
0.2323604911
 40
1.0
 40
1.0
 40
1.0
 40
1.0
 10
-3.6775007962
 20
44.3810680143
 30
0.0
 10
-3.6717445186
 20
44.381328998
 30
0.0
 10
-3.6468766055
 20
44.3805030752
 30
0.0
 10
-3.622640768
 20
44.3723470277
 30
0.0
 10
-3.6056141781
 20
44.3638337328
 30
0.0
  0
SPLINE
  5
578
100
AcDbEntity
  8
ASSI
100
AcDbSpline
 62
250
  6
CONTINUOUS
 70
0
 71
3
 72
11
 73
7
 74
0
 42
0.0000001
 43
0.0000001
 44
0.0000000001
 40
0.0
 40
0.0
 40
0.0
 40
0.0
 40
0.3014209198
 40
0.5640742997
 40
0.792212822
 40
1.0
 40
1.0
 40
1.0
 40
1.0
 10
6.421486073
 20
43.0287965457
 30
0.0
 10
6.4371502165
 20
43.0366217506
 30
0.0
 10
6.4654802037
 20
43.0534623382
 30
0.0
 10
6.4999153513
 20
43.0845866965
 30
0.0
 10
6.5220451875
 20
43.1193637364
 30
0.0
 10
6.5274042535
 20
43.1448497649
 30
0.0
 10
6.5274873754
 20
43.1569201349
 30
0.0
  0
SPLINE
  5
579
100
AcDbEntity
  8
ASSI
100
AcDbSpline
 62
250
  6
CONTINUOUS
 70
0
 71
3
 72
11
 73
7
 74
0
 42
0.0000001
 43
0.0000001
 44
0.0000000001
 40
0.0
 40
0.0
 40
0.0
 40
0.0
 40
0.2289445384
 40
0.4879231217
 40
0.7534943086
 40
1.0
 40
1.0
 40
1.0
 40
1.0
 10
5.0962931636
 20
38.8177391807
 30
0.0
 10
5.1161386781
 20
38.8074564394
 30
0.0
 10
5.1540413512
 20
38.7770560799
 30
0.0
 10
5.1980554226
 20
38.7173813438
 30
0.0
 10
5.2284449491
 20
38.6478644269
 30
0.0
 10
5.2373416939
 20
38.5979237265
 30
0.0
 10
5.2376929807
 20
38.5738605714
 30
0.0
  0
SPLINE
  5
57A
100
AcDbEntity
  8
ASSI
100
AcDbSpline
 62
250
  6
CONTINUOUS
 70
0
 71
3
 72
11
 73
7
 74
0
 42
0.0000001
 43
0.0000001
 44
0.0000000001
 40
0.0
 40
0.0
 40
0.0
 40
0.0
 40
0.2347796719
 40
0.4987463406
 40
0.7633868356
 40
1.0
 40
1.0
 40
1.0
 40
1.0
 10
4.9219952877
 20
38.5147232261
 30
0.0
 10
4.9421475843
 20
38.5046470778
 30
0.0
 10
4.9884255438
 20
38.4901955862
 30
0.0
 10
5.0617258784
 20
38.4830819697
 30
0.0
 10
5.1352612462
 20
38.4895905015
 30
0.0
 10
5.1819002632
 20
38.5036266956
 30
0.0
 10
5.2023483181
 20
38.5134999242
 30
0.0
  0
SPLINE
  5
57B
100
AcDbEntity
  8
ASSI
100
AcDbSpline
 62
250
  6
CONTINUOUS
 70
0
 71
3
 72
11
 73
7
 74
0
 42
0.0000001
 43
0.0000001
 44
0.0000000001
 40
0.0
 40
0.0
 40
0.0
 40
0.0
 40
0.2347796703
 40
0.4987463379
 40
0.763386834
 40
1.0
 40
1.0
 40
1.0
 40
1.0
 10
4.9219952877
 20
38.1974544257
 30
0.0
 10
4.9421475842
 20
38.1873782775
 30
0.0
 10
4.9884255434
 20
38.172926786
 30
0.0
 10
5.0617258778
 20
38.1658131695
 30
0.0
 10
5.1352612458
 20
38.1723217012
 30
0.0
 10
5.1819002631
 20
38.1863578952
 30
0.0
 10
5.2023483181
 20
38.1962311238
 30
0.0
  0
SPLINE
  5
57C
100
AcDbEntity
  8
ASSI
100
AcDbSpline
 62
7
  6
CONTINUOUS
 70
0
 71
3
 72
10
 73
6
 74
0
 42
0.0000001
 43
0.0000001
 44
0.0000000001
 40
0.0
 40
0.0
 40
0.0
 40
0.0
 40
0.2480871755
 40
0.5042340971
 40
1.0
 40
1.0
 40
1.0
 40
1.0
 10
5.9571423567
 20
38.0111154992
 30
0.0
 10
5.9395468733
 20
37.9929706631
 30
0.0
 10
5.8996670493
 20
37.9597570936
 30
0.0
 10
5.8101851292
 20
37.9111923637
 30
0.0
 10
5.7288728832
 20
37.8975283986
 30
0.0
 10
5.679476023
 20
37.9080682891
 30
0.0
  0
SPLINE
  5
57D
100
AcDbEntity
  8
ASSI
100
AcDbSpline
 62
7
  6
CONTINUOUS
 70
0
 71
3
 72
11
 73
7
 74
0
 42
0.0000001
 43
0.0000001
 44
0.0000000001
 40
0.0
 40
0.0
 40
0.0
 40
0.0
 40
0.2296740836
 40
0.4882138821
 40
0.7532075651
 40
1.0
 40
1.0
 40
1.0
 40
1.0
 10
6.7181932903
 20
39.6349427005
 30
0.0
 10
6.7382977779
 20
39.6248904566
 30
0.0
 10
6.7767158401
 20
39.5948376825
 30
0.0
 10
6.8210782003
 20
39.5351689968
 30
0.0
 10
6.8512601954
 20
39.4653901338
 30
0.0
 10
6.8595931074
 20
39.4152169124
 30
0.0
 10
6.8595931074
 20
39.3910640911
 30
0.0
  0
SPLINE
  5
57E
100
AcDbEntity
  8
ASSI
100
AcDbSpline
 62
250
  6
CONTINUOUS
 70
0
 71
3
 72
11
 73
7
 74
0
 42
0.0000001
 43
0.0000001
 44
0.0000000001
 40
0.0
 40
0.0
 40
0.0
 40
0.0
 40
0.2470852825
 40
0.5114851658
 40
0.7695777888
 40
1.0
 40
1.0
 40
1.0
 40
1.0
 10
7.3836975739
 20
39.6510237703
 30
0.0
 10
7.3840344345
 20
39.6752614357
 30
0.0
 10
7.3762472275
 20
39.7256537628
 30
0.0
 10
7.3462662056
 20
39.7956860108
 30
0.0
 10
7.3015639334
 20
39.8553502137
 30
0.0
 10
7.2626513452
 20
39.8850671967
 30
0.0
 10
7.2422977568
 20
39.8949023796
 30
0.0
  0
LINE
  5
57F
100
AcDbEntity
  8
ASSI
100
AcDbLine
 62
250
  6
CONTINUOUS
 10
6.4214860808
 20
43.0287963357
 11
6.4175887538
 21
42.6539779328
  0
LINE
  5
580
100
AcDbEntity
  8
ASSI
100
AcDbLine
 62
250
  6
CONTINUOUS
 10
6.4153005025
 20
42.4347899445
 11
6.4092483435
 21
41.8535590577
  0
SPLINE
  5
581
100
AcDbEntity
  8
ASSI
100
AcDbSpline
 62
250
  6
CONTINUOUS
 70
0
 71
3
 72
11
 73
7
 74
0
 42
0.0000001
 43
0.0000001
 44
0.0000000001
 40
0.0
 40
0.0
 40
0.0
 40
0.0
 40
0.3007064586
 40
0.5638105971
 40
0.7923304394
 40
1.0
 40
1.0
 40
1.0
 40
1.0
 10
7.4178295179
 20
39.6254014264
 30
0.0
 10
7.4261539511
 20
39.6297115279
 30
0.0
 10
7.4412081736
 20
39.6389708989
 30
0.0
 10
7.4594979261
 20
39.6558840692
 30
0.0
 10
7.4711679236
 20
39.6746938225
 30
0.0
 10
7.4739601151
 20
39.6883897918
 30
0.0
 10
7.4739614949
 20
39.6948635758
 30
0.0
  0
SPLINE
  5
582
100
AcDbEntity
  8
ASSI
100
AcDbSpline
 62
250
  6
CONTINUOUS
 70
0
 71
3
 72
11
 73
7
 74
0
 42
0.0000001
 43
0.0000001
 44
0.0000000001
 40
0.0
 40
0.0
 40
0.0
 40
0.0
 40
0.300708284
 40
0.5638120708
 40
0.7923304554
 40
1.0
 40
1.0
 40
1.0
 40
1.0
 10
7.4178295179
 20
39.2854578316
 30
0.0
 10
7.4261543253
 20
39.2897681268
 30
0.0
 10
7.4412091523
 20
39.2990279338
 30
0.0
 10
7.4594993902
 20
39.3159420491
 30
0.0
 10
7.471169173
 20
39.334752948
 30
0.0
 10
7.4739605967
 20
39.3484496333
 30
0.0
 10
7.4739614956
 20
39.3549236686
 30
0.0
  0
SPLINE
  5
583
100
AcDbEntity
  8
ASSI
100
AcDbSpline
 62
250
  6
CONTINUOUS
 70
0
 71
3
 72
10
 73
6
 74
0
 42
0.0000001
 43
0.0000001
 44
0.0000000001
 40
0.0
 40
0.0
 40
0.0
 40
0.0
 40
0.3452665035
 40
0.6241282913
 40
1.0
 40
1.0
 40
1.0
 40
1.0
 10
7.4004604132
 20
39.2389647144
 30
0.0
 10
7.4040357102
 20
39.2330944253
 30
0.0
 10
7.4099564651
 20
39.2220046818
 30
0.0
 10
7.4168745757
 20
39.2037629483
 30
0.0
 10
7.416842637
 20
39.1885490453
 30
0.0
 10
7.4121444415
 20
39.1827252431
 30
0.0
  0
SPLINE
  5
584
100
AcDbEntity
  8
ASSI
100
AcDbSpline
 62
250
  6
CONTINUOUS
 70
0
 71
3
 72
15
 73
11
 74
0
 42
0.0000001
 43
0.0000001
 44
0.0000000001
 40
0.0
 40
0.0
 40
0.0
 40
0.0
 40
0.1488503755
 40
0.2847698863
 40
0.4083919596
 40
0.5227766869
 40
0.6331953327
 40
0.7460787126
 40
0.8671656368
 40
1.0
 40
1.0
 40
1.0
 40
1.0
 10
5.5110025431
 20
45.699728812
 30
0.0
 10
5.5104210094
 20
45.7403184328
 30
0.0
 10
5.5034646254
 20
45.8181025987
 30
0.0
 10
5.4730362328
 20
45.926018123
 30
0.0
 10
5.4236029868
 20
46.016412452
 30
0.0
 10
5.3562574579
 20
46.0853952763
 30
0.0
 10
5.2733748339
 20
46.1290291783
 30
0.0
 10
5.1793265858
 20
46.1448996851
 30
0.0
 10
5.078886326
 20
46.133076266
 30
0.0
 10
5.0133537036
 20
46.1088681664
 30
0.0
 10
4.9806724572
 20
46.0932394332
 30
0.0
  0
SPLINE
  5
585
100
AcDbEntity
  8
ASSI
100
AcDbSpline
 62
7
  6
CONTINUOUS
 70
0
 71
3
 72
11
 73
7
 74
0
 42
0.0000001
 43
0.0000001
 44
0.0000000001
 40
0.0
 40
0.0
 40
0.0
 40
0.0
 40
0.2467924349
 40
0.5117861179
 40
0.7703259164
 40
1.0
 40
1.0
 40
1.0
 40
1.0
 10
-5.7269075978
 20
45.6843144437
 30
0.0
 10
-5.7269075978
 20
45.7084672649
 30
0.0
 10
-5.7352405097
 20
45.7586404864
 30
0.0
 10
-5.7654225048
 20
45.8284193493
 30
0.0
 10
-5.809784865
 20
45.888088035
 30
0.0
 10
-5.8482029272
 20
45.9181408092
 30
0.0
 10
-5.8683074148
 20
45.928193053
 30
0.0
  0
SPLINE
  5
586
100
AcDbEntity
  8
ASSI
100
AcDbSpline
 62
250
  6
CONTINUOUS
 70
0
 71
3
 72
11
 73
7
 74
0
 42
0.0000001
 43
0.0000001
 44
0.0000000001
 40
0.0
 40
0.0
 40
0.0
 40
0.0
 40
0.2289445384
 40
0.4879231217
 40
0.7534943086
 40
1.0
 40
1.0
 40
1.0
 40
1.0
 10
-7.4902075415
 20
45.1109895333
 30
0.0
 10
-7.470362027
 20
45.100706792
 30
0.0
 10
-7.4324593539
 20
45.0703064325
 30
0.0
 10
-7.3884452825
 20
45.0106316964
 30
0.0
 10
-7.358055756
 20
44.9411147795
 30
0.0
 10
-7.3491590112
 20
44.8911740791
 30
0.0
 10
-7.3488077244
 20
44.867110924
 30
0.0
  0
SPLINE
  5
587
100
AcDbEntity
  8
ASSI
100
AcDbSpline
 62
250
  6
CONTINUOUS
 70
0
 71
3
 72
11
 73
7
 74
0
 42
0.0000001
 43
0.0000001
 44
0.0000000001
 40
0.0
 40
0.0
 40
0.0
 40
0.0
 40
0.2347796719
 40
0.4987463406
 40
0.7633868356
 40
1.0
 40
1.0
 40
1.0
 40
1.0
 10
-7.6645054174
 20
44.8079735787
 30
0.0
 10
-7.6443531208
 20
44.7978974303
 30
0.0
 10
-7.5980751613
 20
44.7834459387
 30
0.0
 10
-7.5247748267
 20
44.7763323223
 30
0.0
 10
-7.4512394589
 20
44.7828408541
 30
0.0
 10
-7.4046004419
 20
44.7968770482
 30
0.0
 10
-7.3841523871
 20
44.8067502768
 30
0.0
  0
SPLINE
  5
588
100
AcDbEntity
  8
ASSI
100
AcDbSpline
 62
250
  6
CONTINUOUS
 70
0
 71
3
 72
11
 73
7
 74
0
 42
0.0000001
 43
0.0000001
 44
0.0000000001
 40
0.0
 40
0.0
 40
0.0
 40
0.0
 40
0.2347796703
 40
0.4987463379
 40
0.763386834
 40
1.0
 40
1.0
 40
1.0
 40
1.0
 10
-7.6645054174
 20
44.4907047783
 30
0.0
 10
-7.6443531209
 20
44.4806286301
 30
0.0
 10
-7.5980751617
 20
44.4661771386
 30
0.0
 10
-7.5247748273
 20
44.4590635221
 30
0.0
 10
-7.4512394593
 20
44.4655720538
 30
0.0
 10
-7.404600442
 20
44.4796082478
 30
0.0
 10
-7.3841523871
 20
44.4894814764
 30
0.0
  0
SPLINE
  5
589
100
AcDbEntity
  8
ASSI
100
AcDbSpline
 62
7
  6
CONTINUOUS
 70
0
 71
3
 72
10
 73
6
 74
0
 42
0.0000001
 43
0.0000001
 44
0.0000000001
 40
0.0
 40
0.0
 40
0.0
 40
0.0
 40
0.2480868159
 40
0.5042334556
 40
1.0
 40
1.0
 40
1.0
 40
1.0
 10
-6.6293583484
 20
44.3043658517
 30
0.0
 10
-6.6469538266
 20
44.2862210211
 30
0.0
 10
-6.6868336391
 20
44.2530074479
 30
0.0
 10
-6.7763156636
 20
44.2044426646
 30
0.0
 10
-6.857628082
 20
44.190778738
 30
0.0
 10
-6.9070250464
 20
44.2013187318
 30
0.0
  0
SPLINE
  5
58A
100
AcDbEntity
  8
ASSI
100
AcDbSpline
 62
250
  6
CONTINUOUS
 70
0
 71
3
 72
11
 73
7
 74
0
 42
0.0000001
 43
0.0000001
 44
0.0000000001
 40
0.0
 40
0.0
 40
0.0
 40
0.0
 40
0.2304222142
 40
0.4885148398
 40
0.7529147209
 40
1.0
 40
1.0
 40
1.0
 40
1.0
 10
-5.3442029483
 20
46.1881527322
 30
0.0
 10
-5.3238493597
 20
46.1783175491
 30
0.0
 10
-5.2849367712
 20
46.1486005656
 30
0.0
 10
-5.240234499
 20
46.0889363622
 30
0.0
 10
-5.2102534775
 20
46.0189041145
 30
0.0
 10
-5.2024662706
 20
45.9685117879
 30
0.0
 10
-5.2028031312
 20
45.9442741229
 30
0.0
  0
SPLINE
  5
58B
100
AcDbEntity
  8
ASSI
100
AcDbSpline
 62
250
  6
CONTINUOUS
 70
0
 71
3
 72
9
 73
5
 74
0
 42
0.0000001
 43
0.0000001
 44
0.0000000001
 40
0.0
 40
0.0
 40
0.0
 40
0.0
 40
0.5373169717
 40
1.0
 40
1.0
 40
1.0
 40
1.0
 10
3.0305791223
 20
39.8505962014
 30
0.0
 10
3.0152280968
 20
39.8580028084
 30
0.0
 10
2.9840752075
 20
39.8678901499
 30
0.0
 10
2.9511110222
 20
39.8616609792
 30
0.0
 10
2.9381808185
 20
39.8547167879
 30
0.0
  0
SPLINE
  5
58C
100
AcDbEntity
  8
ASSI
100
AcDbSpline
 62
250
  6
CONTINUOUS
 70
0
 71
3
 72
11
 73
7
 74
0
 42
0.0000001
 43
0.0000001
 44
0.0000000001
 40
0.0
 40
0.0
 40
0.0
 40
0.0
 40
0.3018953371
 40
0.5654808703
 40
0.7935260075
 40
1.0
 40
1.0
 40
1.0
 40
1.0
 10
2.857493965
 20
39.5469738875
 30
0.0
 10
2.8488330835
 20
39.5513043282
 30
0.0
 10
2.833164136
 20
39.5606388855
 30
0.0
 10
2.8140784085
 20
39.5778080182
 30
0.0
 10
2.8018627077
 20
39.5969941363
 30
0.0
 10
2.7989184399
 20
39.6110322401
 30
0.0
 10
2.7989153883
 20
39.6176548018
 30
0.0
  0
SPLINE
  5
58D
100
AcDbEntity
  8
ASSI
100
AcDbSpline
 62
250
  6
CONTINUOUS
 70
0
 71
3
 72
11
 73
7
 74
0
 42
0.0000001
 43
0.0000001
 44
0.0000000001
 40
0.0
 40
0.0
 40
0.0
 40
0.0
 40
0.3018950782
 40
0.5654806589
 40
0.7935260011
 40
1.0
 40
1.0
 40
1.0
 40
1.0
 10
2.857493965
 20
39.2297050871
 30
0.0
 10
2.8488331364
 20
39.2340355014
 30
0.0
 10
2.8331642743
 20
39.243369999
 30
0.0
 10
2.8140786158
 20
39.2605390006
 30
0.0
 10
2.8018628858
 20
39.2797249588
 30
0.0
 10
2.7989185085
 20
39.2937629621
 30
0.0
 10
2.7989153885
 20
39.3003854892
 30
0.0
  0
SPLINE
  5
58E
100
AcDbEntity
  8
ASSI
100
AcDbSpline
 62
250
  6
CONTINUOUS
 70
0
 71
3
 72
9
 73
5
 74
0
 42
0.0000001
 43
0.0000001
 44
0.0000000001
 40
0.0
 40
0.0
 40
0.0
 40
0.0
 40
0.5348392578
 40
1.0
 40
1.0
 40
1.0
 40
1.0
 10
5.1395559311
 20
40.9462732925
 30
0.0
 10
5.1255120893
 20
40.9535392951
 30
0.0
 10
5.0968013992
 20
40.9635639672
 30
0.0
 10
5.0659845105
 20
40.9592560521
 30
0.0
 10
5.0534771246
 20
40.9535387827
 30
0.0
  0
SPLINE
  5
58F
100
AcDbEntity
  8
ASSI
100
AcDbSpline
 62
7
  6
CONTINUOUS
 70
0
 71
3
 72
9
 73
5
 74
0
 42
0.0000001
 43
0.0000001
 44
0.0000000001
 40
0.0
 40
0.0
 40
0.0
 40
0.0
 40
0.5356764828
 40
1.0
 40
1.0
 40
1.0
 40
1.0
 10
-7.9896708367
 20
46.988874764
 30
0.0
 10
-8.0040233667
 20
46.996051029
 30
0.0
 10
-8.0331954727
 20
47.0058587081
 30
0.0
 10
-8.0643771007
 20
47.0013880665
 30
0.0
 10
-8.0770065551
 20
46.9955603561
 30
0.0
  0
SPLINE
  5
590
100
AcDbEntity
  8
ASSI
100
AcDbSpline
 62
250
  6
CONTINUOUS
 70
0
 71
3
 72
9
 73
5
 74
0
 42
0.0000001
 43
0.0000001
 44
0.0000000001
 40
0.0
 40
0.0
 40
0.0
 40
0.0
 40
0.5373169717
 40
1.0
 40
1.0
 40
1.0
 40
1.0
 10
-9.5559215829
 20
46.143846554
 30
0.0
 10
-9.5712726084
 20
46.151253161
 30
0.0
 10
-9.6024254976
 20
46.1611405024
 30
0.0
 10
-9.6353896829
 20
46.1549113318
 30
0.0
 10
-9.6483198867
 20
46.1479671405
 30
0.0
  0
SPLINE
  5
591
100
AcDbEntity
  8
ASSI
100
AcDbSpline
 62
250
  6
CONTINUOUS
 70
0
 71
3
 72
11
 73
7
 74
0
 42
0.0000001
 43
0.0000001
 44
0.0000000001
 40
0.0
 40
0.0
 40
0.0
 40
0.0
 40
0.3018953371
 40
0.5654808703
 40
0.7935260075
 40
1.0
 40
1.0
 40
1.0
 40
1.0
 10
-9.7290067401
 20
45.84022424
 30
0.0
 10
-9.7376676216
 20
45.8445546808
 30
0.0
 10
-9.7533365691
 20
45.853889238
 30
0.0
 10
-9.7724222966
 20
45.8710583707
 30
0.0
 10
-9.7846379974
 20
45.8902444889
 30
0.0
 10
-9.7875822652
 20
45.9042825927
 30
0.0
 10
-9.7875853168
 20
45.9109051543
 30
0.0
  0
SPLINE
  5
592
100
AcDbEntity
  8
ASSI
100
AcDbSpline
 62
250
  6
CONTINUOUS
 70
0
 71
3
 72
11
 73
7
 74
0
 42
0.0000001
 43
0.0000001
 44
0.0000000001
 40
0.0
 40
0.0
 40
0.0
 40
0.0
 40
0.3018950782
 40
0.5654806589
 40
0.7935260011
 40
1.0
 40
1.0
 40
1.0
 40
1.0
 10
-9.7290067401
 20
45.5229554397
 30
0.0
 10
-9.7376675688
 20
45.527285854
 30
0.0
 10
-9.7533364308
 20
45.5366203515
 30
0.0
 10
-9.7724220894
 20
45.5537893532
 30
0.0
 10
-9.7846378193
 20
45.5729753114
 30
0.0
 10
-9.7875821966
 20
45.5870133147
 30
0.0
 10
-9.7875853166
 20
45.5936358417
 30
0.0
  0
SPLINE
  5
593
100
AcDbEntity
  8
ASSI
100
AcDbSpline
 62
250
  6
CONTINUOUS
 70
0
 71
3
 72
11
 73
7
 74
0
 42
0.0000001
 43
0.0000001
 44
0.0000000001
 40
0.0
 40
0.0
 40
0.0
 40
0.0
 40
0.2880667101
 40
0.548055149
 40
0.7818193658
 40
1.0
 40
1.0
 40
1.0
 40
1.0
 10
7.3836975739
 20
-2.4150569092
 30
0.0
 10
7.3838639091
 20
-2.4268527498
 30
0.0
 10
7.3822410825
 20
-2.4493988024
 30
0.0
 10
7.3731436616
 20
-2.4804196527
 30
0.0
 10
7.357428975
 20
-2.5054891667
 30
0.0
 10
7.3426582605
 20
-2.5173653316
 30
0.0
 10
7.3347927695
 20
-2.5216042596
 30
0.0
  0
SPLINE
  5
594
100
AcDbEntity
  8
ASSI
100
AcDbSpline
 62
250
  6
CONTINUOUS
 70
0
 71
3
 72
11
 73
7
 74
0
 42
0.0000001
 43
0.0000001
 44
0.0000000001
 40
0.0
 40
0.0
 40
0.0
 40
0.0
 40
0.300708284
 40
0.5638120708
 40
0.7923304554
 40
1.0
 40
1.0
 40
1.0
 40
1.0
 10
7.4178295179
 20
-2.3540899027
 30
0.0
 10
7.4261543253
 20
-2.3497796074
 30
0.0
 10
7.4412091523
 20
-2.3405198005
 30
0.0
 10
7.4594993902
 20
-2.3236056851
 30
0.0
 10
7.471169173
 20
-2.3047947862
 30
0.0
 10
7.4739605967
 20
-2.2910981009
 30
0.0
 10
7.4739614956
 20
-2.2846240656
 30
0.0
  0
SPLINE
  5
595
100
AcDbEntity
  8
ASSI
100
AcDbSpline
 62
250
  6
CONTINUOUS
 70
0
 71
3
 72
11
 73
7
 74
0
 42
0.0000001
 43
0.0000001
 44
0.0000000001
 40
0.0
 40
0.0
 40
0.0
 40
0.0
 40
0.3006954236
 40
0.563801637
 40
0.792330277
 40
1.0
 40
1.0
 40
1.0
 40
1.0
 10
7.4178295179
 20
-2.0141463078
 30
0.0
 10
7.4261516897
 20
-2.0098373843
 30
0.0
 10
7.4412022602
 20
-2.0005806613
 30
0.0
 10
7.4594890782
 20
-1.9836732148
 30
0.0
 10
7.4711603696
 20
-1.9648703914
 30
0.0
 10
7.4739572007
 20
-1.9511787521
 30
0.0
 10
7.4739614853
 20
-1.9447064876
 30
0.0
  0
SPLINE
  5
596
100
AcDbEntity
  8
ASSI
100
AcDbSpline
 62
250
  6
CONTINUOUS
 70
0
 71
3
 72
9
 73
5
 74
0
 42
0.0000001
 43
0.0000001
 44
0.0000000001
 40
0.0
 40
0.0
 40
0.0
 40
0.0
 40
0.2544748169
 40
1.0
 40
1.0
 40
1.0
 40
1.0
 10
7.4004604132
 20
-1.985639425
 30
0.0
 10
7.4049898954
 20
-1.9735120585
 30
0.0
 10
7.4190274186
 20
-1.9245749578
 30
0.0
 10
7.4181303544
 20
-1.8710363025
 30
0.0
 10
7.4076647513
 20
-1.834582552
 30
0.0
  0
SPLINE
  5
597
100
AcDbEntity
  8
ASSI
100
AcDbSpline
 62
250
  6
CONTINUOUS
 70
0
 71
3
 72
9
 73
5
 74
0
 42
0.0000001
 43
0.0000001
 44
0.0000000001
 40
0.0
 40
0.0
 40
0.0
 40
0.0
 40
0.5186513152
 40
1.0
 40
1.0
 40
1.0
 40
1.0
 10
7.4076647513
 20
-1.834582552
 30
0.0
 10
7.4022483845
 20
-1.8157162832
 30
0.0
 10
7.3866959187
 20
-1.7804871164
 30
0.0
 10
7.3601236366
 20
-1.7522072155
 30
0.0
 10
7.3452914598
 20
-1.741631153
 30
0.0
  0
SPLINE
  5
598
100
AcDbEntity
  8
ASSI
100
AcDbSpline
 62
250
  6
CONTINUOUS
 70
0
 71
3
 72
11
 73
7
 74
0
 42
0.0000001
 43
0.0000001
 44
0.0000000001
 40
0.0
 40
0.0
 40
0.0
 40
0.0
 40
0.2904549793
 40
0.5513505726
 40
0.7841500972
 40
1.0
 40
1.0
 40
1.0
 40
1.0
 10
5.2376929807
 20
-3.4468705191
 30
0.0
 10
5.2375133185
 20
-3.4593508799
 30
0.0
 10
5.2351145657
 20
-3.483095579
 30
0.0
 10
5.224512272
 20
-3.5154344016
 30
0.0
 10
5.2070904579
 20
-3.5410453562
 30
0.0
 10
5.1910370743
 20
-3.5526168856
 30
0.0
 10
5.1826148357
 20
-3.5565032595
 30
0.0
  0
SPLINE
  5
599
100
AcDbEntity
  8
ASSI
100
AcDbSpline
 62
250
  6
CONTINUOUS
 70
0
 71
3
 72
11
 73
7
 74
0
 42
0.0000001
 43
0.0000001
 44
0.0000000001
 40
0.0
 40
0.0
 40
0.0
 40
0.0
 40
0.2366131649
 40
0.5012536604
 40
0.7652203288
 40
1.0
 40
1.0
 40
1.0
 40
1.0
 10
5.2023483181
 20
-3.4206418159
 30
0.0
 10
5.1819002632
 20
-3.4305150444
 30
0.0
 10
5.135261246
 20
-3.4445512384
 30
0.0
 10
5.0617258782
 20
-3.4510597701
 30
0.0
 10
4.9884255436
 20
-3.4439461537
 30
0.0
 10
4.9421475843
 20
-3.4294946623
 30
0.0
 10
4.9219952877
 20
-3.419418514
 30
0.0
  0
SPLINE
  5
59A
100
AcDbEntity
  8
ASSI
100
AcDbSpline
 62
250
  6
CONTINUOUS
 70
0
 71
3
 72
11
 73
7
 74
0
 42
0.0000001
 43
0.0000001
 44
0.0000000001
 40
0.0
 40
0.0
 40
0.0
 40
0.0
 40
0.236613166
 40
0.5012536621
 40
0.7652203297
 40
1.0
 40
1.0
 40
1.0
 40
1.0
 10
5.2023483181
 20
-3.1033730155
 30
0.0
 10
5.1819002631
 20
-3.1132462441
 30
0.0
 10
5.1352612458
 20
-3.1272824382
 30
0.0
 10
5.0617258778
 20
-3.1337909699
 30
0.0
 10
4.9884255434
 20
-3.1266773534
 30
0.0
 10
4.9421475842
 20
-3.1122258619
 30
0.0
 10
4.9219952877
 20
-3.1021497136
 30
0.0
  0
SPLINE
  5
59B
100
AcDbEntity
  8
ASSI
100
AcDbSpline
 62
250
  6
CONTINUOUS
 70
0
 71
3
 72
11
 73
7
 74
0
 42
0.0000001
 43
0.0000001
 44
0.0000000001
 40
0.0
 40
0.0
 40
0.0
 40
0.0
 40
0.2196222455
 40
0.4839271469
 40
0.7566741746
 40
1.0
 40
1.0
 40
1.0
 40
1.0
 10
5.2203345525
 20
-3.0571884632
 30
0.0
 10
5.2093688903
 20
-3.0396135503
 30
0.0
 10
5.1806322252
 20
-3.0038131127
 30
0.0
 10
5.1296971965
 20
-2.9536954747
 30
0.0
 10
5.0721744042
 20
-2.9075857811
 30
0.0
 10
5.0310327161
 20
-2.8812406717
 30
0.0
 10
5.0106921971
 20
-2.870609826
 30
0.0
  0
SPLINE
  5
59C
100
AcDbEntity
  8
ASSI
100
AcDbSpline
 62
7
  6
CONTINUOUS
 70
0
 71
3
 72
11
 73
7
 74
0
 42
0.0000001
 43
0.0000001
 44
0.0000000001
 40
0.0
 40
0.0
 40
0.0
 40
0.0
 40
0.2598995882
 40
0.5360593786
 40
0.7903005399
 40
1.0
 40
1.0
 40
1.0
 40
1.0
 10
5.6434824097
 20
-2.1252966562
 30
0.0
 10
5.6705755723
 20
-2.1313481298
 30
0.0
 10
5.7260750583
 20
-2.145461587
 30
0.0
 10
5.8081368772
 20
-2.1652958572
 30
0.0
 10
5.8856063077
 20
-2.1810746362
 30
0.0
 10
5.9347915847
 20
-2.1878965595
 30
0.0
 10
5.9571423567
 20
-2.1893612605
 30
0.0
  0
LINE
  5
59D
100
AcDbEntity
  8
ASSI
100
AcDbLine
 62
250
  6
CONTINUOUS
 10
1.6593608206
 20
34.9525290053
 11
1.4238905286
 21
35.0545861937
  0
SPLINE
  5
59E
100
AcDbEntity
  8
ASSI
100
AcDbSpline
 62
250
  6
CONTINUOUS
 70
0
 71
3
 72
11
 73
7
 74
0
 42
0.0000001
 43
0.0000001
 44
0.0000000001
 40
0.0
 40
0.0
 40
0.0
 40
0.0
 40
0.2892792516
 40
0.5489902747
 40
0.7824478812
 40
1.0
 40
1.0
 40
1.0
 40
1.0
 10
4.9219952877
 20
-3.419418514
 30
0.0
 10
4.9219951609
 20
-3.4345925601
 30
0.0
 10
4.9244496948
 20
-3.4634991381
 30
0.0
 10
4.9368179791
 20
-3.5030540472
 30
0.0
 10
4.9574747845
 20
-3.5347656403
 30
0.0
 10
4.9767458007
 20
-3.5494862662
 30
0.0
 10
4.986937286
 20
-3.5546203461
 30
0.0
  0
SPLINE
  5
59F
100
AcDbEntity
  8
ASSI
100
AcDbSpline
 62
250
  6
CONTINUOUS
 70
0
 71
3
 72
9
 73
5
 74
0
 42
0.0000001
 43
0.0000001
 44
0.0000000001
 40
0.0
 40
0.0
 40
0.0
 40
0.0
 40
0.5132089837
 40
1.0
 40
1.0
 40
1.0
 40
1.0
 10
5.0106402807
 20
-2.8706722372
 30
0.0
 10
4.9831266738
 20
-2.9037129134
 30
0.0
 10
4.9405216219
 20
-2.9775703298
 30
0.0
 10
4.9219967725
 20
-3.0613840056
 30
0.0
 10
4.9219952798
 20
-3.1021670596
 30
0.0
  0
SPLINE
  5
5A0
100
AcDbEntity
  8
ASSI
100
AcDbSpline
 62
7
  6
CONTINUOUS
 70
0
 71
3
 72
9
 73
5
 74
0
 42
0.0000001
 43
0.0000001
 44
0.0000000001
 40
0.0
 40
0.0
 40
0.0
 40
0.0
 40
0.5607573593
 40
1.0
 40
1.0
 40
1.0
 40
1.0
 10
4.228008226
 20
-2.4792678351
 30
0.0
 10
4.1816320769
 20
-2.5062709198
 30
0.0
 10
4.1001009305
 20
-2.5564379123
 30
0.0
 10
4.0205635135
 20
-2.6097474988
 30
0.0
 10
3.9865267694
 20
-2.6344154545
 30
0.0
  0
SPLINE
  5
5A1
100
AcDbEntity
  8
ASSI
100
AcDbSpline
 62
7
  6
CONTINUOUS
 70
0
 71
3
 72
9
 73
5
 74
0
 42
0.0000001
 43
0.0000001
 44
0.0000000001
 40
0.0
 40
0.0
 40
0.0
 40
0.0
 40
0.5060444681
 40
1.0
 40
1.0
 40
1.0
 40
1.0
 10
-8.5999739357
 20
44.9584390375
 30
0.0
 10
-8.5756307294
 20
44.9164532173
 30
0.0
 10
-8.5181588331
 20
44.8387486595
 30
0.0
 10
-8.4419903202
 20
44.7770792386
 30
0.0
 10
-8.399756759
 20
44.7556191691
 30
0.0
  0
SPLINE
  5
5A2
100
AcDbEntity
  8
ASSI
100
AcDbSpline
 62
250
  6
CONTINUOUS
 70
0
 71
3
 72
9
 73
5
 74
0
 42
0.0000001
 43
0.0000001
 44
0.0000000001
 40
0.0
 40
0.0
 40
0.0
 40
0.0
 40
0.2302581433
 40
1.0
 40
1.0
 40
1.0
 40
1.0
 10
-9.55592361
 20
46.1438454898
 30
0.0
 10
-9.5649094577
 20
46.1391283433
 30
0.0
 10
-9.6024165527
 20
46.1157634248
 30
0.0
 10
-9.6335528846
 20
46.0830726357
 30
0.0
 10
-9.6536420509
 20
46.0557331093
 30
0.0
  0
SPLINE
  5
5A3
100
AcDbEntity
  8
ASSI
100
AcDbSpline
 62
250
  6
CONTINUOUS
 70
0
 71
3
 72
9
 73
5
 74
0
 42
0.0000001
 43
0.0000001
 44
0.0000000001
 40
0.0
 40
0.0
 40
0.0
 40
0.0
 40
0.5151634675
 40
1.0
 40
1.0
 40
1.0
 40
1.0
 10
-9.6536420509
 20
46.0557331093
 30
0.0
 10
-9.6771287786
 20
46.0237698112
 30
0.0
 10
-9.7134330296
 20
45.9546106138
 30
0.0
 10
-9.7290068572
 20
45.8775538218
 30
0.0
 10
-9.7290067401
 20
45.84022424
 30
0.0
  0
SPLINE
  5
5A4
100
AcDbEntity
  8
ASSI
100
AcDbSpline
 62
250
  6
CONTINUOUS
 70
0
 71
3
 72
11
 73
7
 74
0
 42
0.0000001
 43
0.0000001
 44
0.0000000001
 40
0.0
 40
0.0
 40
0.0
 40
0.0
 40
0.2460218248
 40
0.5103503761
 40
0.7690162542
 40
1.0
 40
1.0
 40
1.0
 40
1.0
 10
-7.6645054174
 20
44.8079735787
 30
0.0
 10
-7.6645054866
 20
44.8378049377
 30
0.0
 10
-7.6542862391
 20
44.8997949877
 30
0.0
 10
-7.6171666343
 20
44.9861824587
 30
0.0
 10
-7.5624608628
 20
45.0604046168
 30
0.0
 10
-7.515078915
 20
45.0981109372
 30
0.0
 10
-7.4902075415
 20
45.1109895333
 30
0.0
  0
SPLINE
  5
5A5
100
AcDbEntity
  8
ASSI
100
AcDbSpline
 62
250
  6
CONTINUOUS
 70
0
 71
3
 72
9
 73
5
 74
0
 42
0.0000001
 43
0.0000001
 44
0.0000000001
 40
0.0
 40
0.0
 40
0.0
 40
0.0
 40
0.5350719736
 40
1.0
 40
1.0
 40
1.0
 40
1.0
 10
-5.3442029483
 20
46.1881527322
 30
0.0
 10
-5.3263060207
 20
46.1967801823
 30
0.0
 10
-5.2898868951
 20
46.2083442973
 30
0.0
 10
-5.251350808
 20
46.2016679642
 30
0.0
 10
-5.2359066055
 20
46.1939543385
 30
0.0
  0
SPLINE
  5
5A6
100
AcDbEntity
  8
ASSI
100
AcDbSpline
 62
250
  6
CONTINUOUS
 70
0
 71
3
 72
9
 73
5
 74
0
 42
0.0000001
 43
0.0000001
 44
0.0000000001
 40
0.0
 40
0.0
 40
0.0
 40
0.0
 40
0.534657451
 40
1.0
 40
1.0
 40
1.0
 40
1.0
 10
-7.446944774
 20
47.239523645
 30
0.0
 10
-7.4288908803
 20
47.248103124
 30
0.0
 10
-7.3921629822
 20
47.2595289395
 30
0.0
 10
-7.3534087833
 20
47.2527056319
 30
0.0
 10
-7.3378481413
 20
47.2449252676
 30
0.0
  0
SPLINE
  5
5A7
100
AcDbEntity
  8
ASSI
100
AcDbSpline
 62
250
  6
CONTINUOUS
 70
0
 71
3
 72
11
 73
7
 74
0
 42
0.0000001
 43
0.0000001
 44
0.0000000001
 40
0.0
 40
0.0
 40
0.0
 40
0.0
 40
0.2460218248
 40
0.5103503761
 40
0.7690162542
 40
1.0
 40
1.0
 40
1.0
 40
1.0
 10
4.9219952877
 20
38.5147232261
 30
0.0
 10
4.9219952185
 20
38.5445545851
 30
0.0
 10
4.932214466
 20
38.6065446352
 30
0.0
 10
4.9693340708
 20
38.6929321061
 30
0.0
 10
5.0240398423
 20
38.7671542642
 30
0.0
 10
5.0714217901
 20
38.8048605846
 30
0.0
 10
5.0962931636
 20
38.8177391807
 30
0.0
  0
SPLINE
  5
5A8
100
AcDbEntity
  8
ASSI
100
AcDbSpline
 62
250
  6
CONTINUOUS
 70
0
 71
3
 72
9
 73
5
 74
0
 42
0.0000001
 43
0.0000001
 44
0.0000000001
 40
0.0
 40
0.0
 40
0.0
 40
0.0
 40
0.2302581433
 40
1.0
 40
1.0
 40
1.0
 40
1.0
 10
3.0305770951
 20
39.8505951373
 30
0.0
 10
3.0215912474
 20
39.8458779907
 30
0.0
 10
2.9840841524
 20
39.8225130723
 30
0.0
 10
2.9529478205
 20
39.7898222831
 30
0.0
 10
2.9328586542
 20
39.7624827567
 30
0.0
  0
SPLINE
  5
5A9
100
AcDbEntity
  8
ASSI
100
AcDbSpline
 62
250
  6
CONTINUOUS
 70
0
 71
3
 72
9
 73
5
 74
0
 42
0.0000001
 43
0.0000001
 44
0.0000000001
 40
0.0
 40
0.0
 40
0.0
 40
0.0
 40
0.5151634675
 40
1.0
 40
1.0
 40
1.0
 40
1.0
 10
2.9328586542
 20
39.7624827567
 30
0.0
 10
2.9093719265
 20
39.7305194586
 30
0.0
 10
2.8730676756
 20
39.6613602613
 30
0.0
 10
2.8574938479
 20
39.5843034693
 30
0.0
 10
2.857493965
 20
39.5469738875
 30
0.0
  0
SPLINE
  5
5AA
100
AcDbEntity
  8
ASSI
100
AcDbSpline
 62
7
  6
CONTINUOUS
 70
0
 71
3
 72
9
 73
5
 74
0
 42
0.0000001
 43
0.0000001
 44
0.0000000001
 40
0.0
 40
0.0
 40
0.0
 40
0.0
 40
0.2377321414
 40
1.0
 40
1.0
 40
1.0
 40
1.0
 10
5.9571423567
 20
37.2528206232
 30
0.0
 10
5.9525813508
 20
37.2503296344
 30
0.0
 10
5.9330716263
 20
37.240446006
 30
0.0
 10
5.9124629634
 20
37.232822433
 30
0.0
 10
5.896510268
 20
37.2280077375
 30
0.0
  0
SPLINE
  5
5AB
100
AcDbEntity
  8
ASSI
100
AcDbSpline
 62
250
  6
CONTINUOUS
 70
0
 71
3
 72
18
 73
14
 74
0
 42
0.0000001
 43
0.0000001
 44
0.0000000001
 40
0.0
 40
0.0
 40
0.0
 40
0.0
 40
0.0593081388
 40
0.1106676988
 40
0.1550040552
 40
0.1953519401
 40
0.280507877
 40
0.3334377141
 40
0.3944588553
 40
0.5376958443
 40
0.6982687445
 40
0.8582645952
 40
1.0
 40
1.0
 40
1.0
 40
1.0
 10
6.2446653358
 20
43.3336093939
 30
0.0
 10
6.2500776486
 20
43.3362905921
 30
0.0
 10
6.2598384317
 20
43.3420573393
 30
0.0
 10
6.2716467523
 20
43.352749791
 30
0.0
 10
6.2790800584
 20
43.364720071
 30
0.0
 10
6.2823363153
 20
43.3822378169
 30
0.0
 10
6.273318676
 20
43.4000084023
 30
0.0
 10
6.2579390392
 20
43.4132033019
 30
0.0
 10
6.2351728558
 20
43.4264847734
 30
0.0
 10
6.1992648783
 20
43.4375184289
 30
0.0
 10
6.152018206
 20
43.4422687913
 30
0.0
 10
6.1048619083
 20
43.4383723028
 30
0.0
 10
6.0749958395
 20
43.4296151977
 30
0.0
 10
6.0619794135
 20
43.4233759068
 30
0.0
  0
SPLINE
  5
5AC
100
AcDbEntity
  8
ASSI
100
AcDbSpline
 62
7
  6
CONTINUOUS
 70
0
 71
3
 72
12
 73
8
 74
0
 42
0.0000001
 43
0.0000001
 44
0.0000000001
 40
0.0
 40
0.0
 40
0.0
 40
0.0
 40
0.3763927822
 40
0.6767350754
 40
0.8888180846
 40
0.9573248286
 40
1.0
 40
1.0
 40
1.0
 40
1.0
 10
-8.7935382218
 20
45.0552211805
 30
0.0
 10
-8.8035276486
 20
45.0479813947
 30
0.0
 10
-8.8213647228
 20
45.0347486219
 30
0.0
 10
-8.8439756156
 20
45.0164888273
 30
0.0
 10
-8.8582343531
 20
45.0036063402
 30
0.0
 10
-8.8648479058
 20
44.9954685094
 30
0.0
 10
-8.86666975
 20
44.9920887986
 30
0.0
 10
-8.8667381331
 20
44.9906917028
 30
0.0
  0
SPLINE
  5
5AD
100
AcDbEntity
  8
ASSI
100
AcDbSpline
 62
250
  6
CONTINUOUS
 70
0
 71
3
 72
16
 73
12
 74
0
 42
0.0000001
 43
0.0000001
 44
0.0000000001
 40
0.0
 40
0.0
 40
0.0
 40
0.0
 40
0.143190979
 40
0.3039411234
 40
0.4644168285
 40
0.6067886759
 40
0.6672000466
 40
0.7195136527
 40
0.8039896992
 40
0.8882321197
 40
1.0
 40
1.0
 40
1.0
 40
1.0
 10
0.4438568378
 20
46.2340136428
 30
0.0
 10
0.4570682817
 20
46.2401180347
 30
0.0
 10
0.4871694647
 20
46.2486047238
 30
0.0
 10
0.5344788054
 20
46.2521111397
 30
0.0
 10
0.5815668328
 20
46.2469721928
 30
0.0
 10
0.6171483826
 20
46.2356441679
 30
0.0
 10
0.6394866565
 20
46.2221417324
 30
0.0
 10
0.6544238162
 20
46.2088164082
 30
0.0
 10
0.6649317181
 20
46.1862747826
 30
0.0
 10
0.6510674862
 20
46.1581742031
 30
0.0
 10
0.6335707854
 20
46.1476027221
 30
0.0
 10
0.6233209887
 20
46.1427051192
 30
0.0
  0
SPLINE
  5
5AE
100
AcDbEntity
  8
ASSI
100
AcDbSpline
 62
250
  6
CONTINUOUS
 70
0
 71
3
 72
11
 73
7
 74
0
 42
0.0000001
 43
0.0000001
 44
0.0000000001
 40
0.0
 40
0.0
 40
0.0
 40
0.0
 40
0.2892040719
 40
0.5493330513
 40
0.7831537347
 40
1.0
 40
1.0
 40
1.0
 40
1.0
 10
-9.7290067403
 20
45.522954035
 30
0.0
 10
-9.7290067752
 20
45.5081714036
 30
0.0
 10
-9.7266908432
 20
45.4799935351
 30
0.0
 10
-9.7150555574
 20
45.4413141578
 30
0.0
 10
-9.6956385232
 20
45.4100107333
 30
0.0
 10
-9.6774207862
 20
45.3950431195
 30
0.0
 10
-9.6677238899
 20
45.3896740574
 30
0.0
  0
SPLINE
  5
5AF
100
AcDbEntity
  8
ASSI
100
AcDbSpline
 62
7
  6
CONTINUOUS
 70
0
 71
3
 72
11
 73
7
 74
0
 42
0.0000001
 43
0.0000001
 44
0.0000000001
 40
0.0
 40
0.0
 40
0.0
 40
0.0
 40
0.2354221602
 40
0.4857222974
 40
0.7421463299
 40
1.0
 40
1.0
 40
1.0
 40
1.0
 10
2.8551539769
 20
45.0765530938
 30
0.0
 10
2.8555392484
 20
45.1108799983
 30
0.0
 10
2.8340253801
 20
45.1827368866
 30
0.0
 10
2.7549631378
 20
45.2616028788
 30
0.0
 10
2.6496264023
 20
45.3046205809
 30
0.0
 10
2.5739257395
 20
45.3108150461
 30
0.0
 10
2.5363411713
 20
45.3097375252
 30
0.0
  0
SPLINE
  5
5B0
100
AcDbEntity
  8
ASSI
100
AcDbSpline
 62
7
  6
CONTINUOUS
 70
0
 71
3
 72
12
 73
8
 74
0
 42
0.0000001
 43
0.0000001
 44
0.0000000001
 40
0.0
 40
0.0
 40
0.0
 40
0.0
 40
0.3763927822
 40
0.6767350754
 40
0.8888180846
 40
0.9573248286
 40
1.0
 40
1.0
 40
1.0
 40
1.0
 10
3.7929624833
 20
38.7619708279
 30
0.0
 10
3.7829730566
 20
38.7547310421
 30
0.0
 10
3.7651359823
 20
38.7414982694
 30
0.0
 10
3.7425250896
 20
38.7232384747
 30
0.0
 10
3.728266352
 20
38.7103559876
 30
0.0
 10
3.7216527993
 20
38.7022181569
 30
0.0
 10
3.7198309551
 20
38.698838446
 30
0.0
 10
3.719762572
 20
38.6974413502
 30
0.0
  0
SPLINE
  5
5B1
100
AcDbEntity
  8
ASSI
100
AcDbSpline
 62
250
  6
CONTINUOUS
 70
0
 71
3
 72
9
 73
5
 74
0
 42
0.0000001
 43
0.0000001
 44
0.0000000001
 40
0.0
 40
0.0
 40
0.0
 40
0.0
 40
0.4489712015
 40
1.0
 40
1.0
 40
1.0
 40
1.0
 10
-7.3661661527
 20
44.4606660287
 30
0.0
 10
-7.3714580776
 20
44.4617884679
 30
0.0
 10
-7.382199009
 20
44.4701218778
 30
0.0
 10
-7.3841524599
 20
44.4828421323
 30
0.0
 10
-7.3841523871
 20
44.4894814764
 30
0.0
  0
SPLINE
  5
5B2
100
AcDbEntity
  8
ASSI
100
AcDbSpline
 62
250
  6
CONTINUOUS
 70
0
 71
3
 72
11
 73
7
 74
0
 42
0.0000001
 43
0.0000001
 44
0.0000000001
 40
0.0
 40
0.0
 40
0.0
 40
0.0
 40
0.2892040719
 40
0.5493330513
 40
0.7831537347
 40
1.0
 40
1.0
 40
1.0
 40
1.0
 10
2.8574939648
 20
39.2297036824
 30
0.0
 10
2.8574939299
 20
39.214921051
 30
0.0
 10
2.8598098619
 20
39.1867431825
 30
0.0
 10
2.8714451477
 20
39.1480638052
 30
0.0
 10
2.8908621819
 20
39.1167603807
 30
0.0
 10
2.9090799189
 20
39.1017927669
 30
0.0
 10
2.9187768152
 20
39.0964237048
 30
0.0
  0
ELLIPSE
  5
5B3
100
AcDbEntity
  8
DRAFT
100
AcDbEllipse
 62
7
  6
CONTINUOUS
 10
16.4762453315
 20
42.1903773073
 30
0.0
 11
2.7583300471
 21
-0.038763314
 31
0.0
 40
0.4892375088
 41
0.4291477653
 42
0.6564870977
  0
ELLIPSE
  5
5B4
100
AcDbEntity
  8
DRAFT
100
AcDbEllipse
 62
7
  6
CONTINUOUS
 10
15.8044938894
 20
42.3018749913
 30
0.0
 11
2.7499350056
 21
-0.0386453369
 31
0.0
 40
0.4892375088
 41
8.654981679
 42
9.2672200839
  0
ELLIPSE
  5
5B5
100
AcDbEntity
  8
DRAFT
100
AcDbEllipse
 62
7
  6
CONTINUOUS
 10
16.4762453315
 20
42.1903773073
 30
0.0
 11
2.7583300471
 21
-0.038763314
 31
0.0
 40
0.4892375088
 41
0.9280596999
 42
2.3630697256
  0
ELLIPSE
  5
5B6
100
AcDbEntity
  8
RACCORDO
100
AcDbEllipse
 62
7
  6
CONTINUOUS
 10
21.1819595626
 20
43.3482778244
 30
0.0
 11
0.716172246
 21
0.6416715914
 31
0.0
 40
0.2882345029
 41
0.1142323894
 42
0.7807533904
  0
ELLIPSE
  5
5B7
100
AcDbEntity
  8
DRAFT
100
AcDbEllipse
 62
7
  6
CONTINUOUS
 10
16.4762453315
 20
44.1350880185
 30
0.0
 11
2.7583515655
 21
-1.4175703156
 31
0.0
 40
0.0109499087
 41
-0.9155571536
 42
-0.85781018
  0
ELLIPSE
  5
5B8
100
AcDbEntity
  8
DRAFT
100
AcDbEllipse
 62
7
  6
CONTINUOUS
 10
16.4762453315
 20
44.1350880185
 30
0.0
 11
2.7583515655
 21
-1.4175703156
 31
0.0
 40
0.0109499087
 41
-0.7017315251
 42
-0.6439845515
  0
ELLIPSE
  5
5B9
100
AcDbEntity
  8
DRAFT
100
AcDbEllipse
 62
7
  6
CONTINUOUS
 10
16.4762453315
 20
42.6233900092
 30
0.0
 11
2.7583300471
 21
-0.038763314
 31
0.0
 40
0.4892375088
 41
0.1708839954
 42
2.3630697256
  0
ELLIPSE
  5
5BA
100
AcDbEntity
  8
RACCORDO
100
AcDbEllipse
 62
7
  6
CONTINUOUS
 10
17.2152533155
 20
45.3316309479
 30
0.0
 11
-0.2796057293
 21
0.9974617846
 31
0.0
 40
0.6760995073
 41
4.8467711056
 42
6.4001141399
  0
ELLIPSE
  5
5BB
100
AcDbEntity
  8
0
100
AcDbEllipse
 62
7
  6
CONTINUOUS
 10
15.7807550703
 20
43.483637124
 30
0.0
 11
3.3311333813
 21
-0.0467042088
 31
0.0
 40
0.4892378494
 41
2.3616770883
 42
5.5059722822
  0
ELLIPSE
  5
5BC
100
AcDbEntity
  8
ASSI
100
AcDbEllipse
 62
7
  6
CONTINUOUS
 10
0.78789084
 20
42.6056854604
 30
0.0
 11
-0.1174113663
 21
0.2209958577
 31
0.0
 40
0.5985429242
 41
-0.6989839728
 42
-0.0337839605
  0
ELLIPSE
  5
5BD
100
AcDbEntity
  8
ASSI
100
AcDbEllipse
 62
7
  6
CONTINUOUS
 10
7.5543034377
 20
-0.244401838
 30
0.0
 11
-0.2237009107
 21
0.4473351135
 31
0.0
 40
0.6121897086
 41
-3.1223332426
 42
-2.2557347926
  0
ELLIPSE
  5
5BE
100
AcDbEntity
  8
ASSI
100
AcDbEllipse
 62
7
  6
CONTINUOUS
 10
7.5543034377
 20
37.6571458685
 30
0.0
 11
-0.2235807756
 21
0.4472283268
 31
0.0
 40
0.6125552124
 41
-2.255296188
 42
-0.6848044477
  0
ELLIPSE
  5
5BF
100
AcDbEntity
  8
ASSI
100
AcDbEllipse
 62
7
  6
CONTINUOUS
 10
12.8402982221
 20
4.76791254
 30
0.0
 11
0.4349639225
 21
0.9005141702
 31
0.0
 40
0.6016116119
 41
-1.150450314
 42
-0.9391738336
  0
ELLIPSE
  5
5C0
100
AcDbEntity
  8
ASSI
100
AcDbEllipse
 62
7
  6
CONTINUOUS
 10
12.8402982221
 20
41.5009723298
 30
0.0
 11
0.4349639225
 21
0.9005141702
 31
0.0
 40
0.6016116119
 41
-0.8943064336
 42
-0.6381625531
  0
ELLIPSE
  5
5C1
100
AcDbEntity
  8
ASSI
100
AcDbEllipse
 62
7
  6
CONTINUOUS
 10
1.268924166
 20
47.2866593578
 30
0.0
 11
1.004787277
 21
0.6140102217
 31
0.0
 40
0.0864918533
 41
0.0543686983
 42
0.7212730538
  0
ELLIPSE
  5
5C2
100
AcDbEntity
  8
ASSI
100
AcDbEllipse
 62
7
  6
CONTINUOUS
 10
13.0159474737
 20
4.6800879143
 30
0.0
 11
0.9927147821
 21
0.620457446
 31
0.0
 40
0.0764819879
 41
-2.3927159682
 42
-1.0955168143
  0
ELLIPSE
  5
5C3
100
AcDbEntity
  8
ASSI
100
AcDbEllipse
 62
7
  6
CONTINUOUS
 10
-0.7204580239
 20
43.3598598923
 30
0.0
 11
-0.1172693628
 21
0.2208586762
 31
0.0
 40
0.5994421146
 41
-2.2699607138
 42
-0.6994689735
  0
ELLIPSE
  5
5C4
100
AcDbEntity
  8
ASSI
100
AcDbEllipse
 62
7
  6
CONTINUOUS
 10
8.4270861906
 20
94.2452681366
 30
0.0
 11
3.5378457856
 21
99.5794032239
 31
0.0
 40
0.0069684374
 41
-2.1126796177
 42
-2.1122241571
  0
ELLIPSE
  5
5C5
100
AcDbEntity
  8
ASSI
100
AcDbEllipse
 62
7
  6
CONTINUOUS
 10
6.2362517507
 20
43.0113782518
 30
0.0
 11
1.000203771
 21
-0.0143477891
 31
0.0
 40
0.4891226537
 41
-0.7775824994
 42
-0.0732257619
  0
ELLIPSE
  5
5C6
100
AcDbEntity
  8
ASSI
100
AcDbEllipse
 62
7
  6
CONTINUOUS
 10
6.8737166839
 20
37.3196929744
 30
0.0
 11
41.2152542262
 21
22.501943358
 31
0.0
 40
0.0081048063
 41
1.5667140536
 42
1.5886117747
  0
ELLIPSE
  5
5C7
100
AcDbEntity
  8
ASSI
100
AcDbEllipse
 62
7
  6
CONTINUOUS
 10
5.3381635155
 20
45.5079701401
 30
0.0
 11
0.2503214863
 21
-0.0601325557
 31
0.0
 40
0.261363135
 41
-0.7257858084
 42
0.0672477981
  0
ELLIPSE
  5
5C8
100
AcDbEntity
  8
ASSI
100
AcDbEllipse
 62
7
  6
CONTINUOUS
 10
4.1633034647
 20
-2.2960271068
 30
0.0
 11
0.220014872
 21
0.1791173313
 31
0.0
 40
0.6627826692
 41
-1.8038058062
 42
-1.2976603231
  0
ELLIPSE
  5
5C9
100
AcDbEntity
  8
ASSI
100
AcDbEllipse
 62
7
  6
CONTINUOUS
 10
-1.5587019096
 20
41.7289889777
 30
0.0
 11
0.199943508
 21
0.008945986
 31
0.0
 40
0.5313301283
 41
-2.3799630874
 42
-0.8266200532
  0
ELLIPSE
  5
5CA
100
AcDbEntity
  8
ASSI
100
AcDbEllipse
 62
7
  6
CONTINUOUS
 10
-3.8493503067
 20
42.8743131762
 30
0.0
 11
0.199943508
 21
0.008945986
 31
0.0
 40
0.5313301283
 41
3.1180383302
 42
3.9032222197
  0
ELLIPSE
  5
5CB
100
AcDbEntity
  8
ASSI
100
AcDbEllipse
 62
7
  6
CONTINUOUS
 10
2.1536086916
 20
39.872833677
 30
0.0
 11
0.199943508
 21
0.008945986
 31
0.0
 40
0.5313301283
 41
-2.3799630874
 42
-0.8266200532
  0
ELLIPSE
  5
5CC
100
AcDbEntity
  8
ASSI
100
AcDbEllipse
 62
7
  6
CONTINUOUS
 10
-0.1370397055
 20
41.0181578756
 30
0.0
 11
0.199943508
 21
0.008945986
 31
0.0
 40
0.5313301283
 41
3.1180383302
 42
3.9032222197
  0
ELLIPSE
  5
5CD
100
AcDbEntity
  8
ASSI
100
AcDbEllipse
 62
7
  6
CONTINUOUS
 10
18.5930815167
 20
48.9395633954
 30
0.0
 11
18.2927339069
 21
9.4748417608
 31
0.0
 40
0.0170707209
 41
-2.6536573066
 42
-2.3141694431
  0
ELLIPSE
  5
5CE
100
AcDbEntity
  8
ASSI
100
AcDbEllipse
 62
7
  6
CONTINUOUS
 10
18.5930815167
 20
48.9395633954
 30
0.0
 11
18.2927339069
 21
9.4748417608
 31
0.0
 40
0.0170707209
 41
2.2964861198
 42
2.6359739833
  0
ELLIPSE
  5
5CF
100
AcDbEntity
  8
ASSI
100
AcDbEllipse
 62
7
  6
CONTINUOUS
 10
-8.4231972404
 20
43.6938748067
 30
0.0
 11
0.249929385
 21
0.0111824824
 31
0.0
 40
0.5313301283
 41
-2.3799630874
 42
-0.8266200532
  0
ELLIPSE
  5
5D0
100
AcDbEntity
  8
ASSI
100
AcDbEllipse
 62
7
  6
CONTINUOUS
 10
4.1633034647
 20
37.4006244541
 30
0.0
 11
0.249929385
 21
0.0111824824
 31
0.0
 40
0.5313301283
 41
-2.3799630874
 42
-0.8266200532
  0
ELLIPSE
  5
5D1
100
AcDbEntity
  8
ASSI
100
AcDbEllipse
 62
7
  6
CONTINUOUS
 10
5.7834777641
 20
37.3430305539
 30
0.0
 11
0.249929385
 21
0.0111824824
 31
0.0
 40
0.5313301283
 41
-2.3799630874
 42
-1.125412988
  0
ELLIPSE
  5
5D2
100
AcDbEntity
  8
ASSI
100
AcDbEllipse
 62
7
  6
CONTINUOUS
 10
3.7637784417
 20
38.3528802151
 30
0.0
 11
0.249929385
 21
0.0111824824
 31
0.0
 40
0.5313301283
 41
3.117765999
 42
3.9032222197
  0
ELLIPSE
  5
5D3
100
AcDbEntity
  8
ASSI
100
AcDbEllipse
 62
7
  6
CONTINUOUS
 10
-6.8030229411
 20
43.6362809064
 30
0.0
 11
0.249929385
 21
0.0111824824
 31
0.0
 40
0.5313301283
 41
-2.3799630874
 42
-0.8266200532
  0
ELLIPSE
  5
5D4
100
AcDbEntity
  8
ASSI
100
AcDbEllipse
 62
7
  6
CONTINUOUS
 10
-8.8227222635
 20
44.6461305676
 30
0.0
 11
0.249929385
 21
0.0111824824
 31
0.0
 40
0.5313301283
 41
3.118062645
 42
3.9032222197
  0
ELLIPSE
  5
5D5
100
AcDbEntity
  8
ASSI
100
AcDbEllipse
 62
7
  6
CONTINUOUS
 10
5.7834777641
 20
-1.8990074753
 30
0.0
 11
0.220014872
 21
0.1791173313
 31
0.0
 40
0.6627826692
 41
-2.8510033574
 42
-2.6599685648
  0
ELLIPSE
  5
5D6
100
AcDbEntity
  8
ASSI
100
AcDbEllipse
 62
7
  6
CONTINUOUS
 10
-8.6167615265
 20
43.7906569498
 30
0.0
 11
0.249929385
 21
0.0111824824
 31
0.0
 40
0.5313301283
 41
3.117765999
 42
3.9032222197
  0
ELLIPSE
  5
5D7
100
AcDbEntity
  8
ASSI
100
AcDbEllipse
 62
7
  6
CONTINUOUS
 10
6.2149567696
 20
42.5133831983
 30
0.0
 11
1.0006854676
 21
0.0
 31
0.0
 40
0.499657501
 41
0.4960493931
 42
0.7850555471
  0
ELLIPSE
  5
5D8
100
AcDbEntity
  8
ASSI
100
AcDbEllipse
 62
7
  6
CONTINUOUS
 10
2.6169524202
 20
97.1503350218
 30
0.0
 11
0.7093717925
 21
100.9935570733
 31
0.0
 40
0.0069790045
 41
-2.1156864167
 42
-2.1124724433
  0
ELLIPSE
  5
5D9
100
AcDbEntity
  8
ASSI
100
AcDbEllipse
 62
7
  6
CONTINUOUS
 10
2.6169524202
 20
44.312385373
 30
0.0
 11
1.0
 21
0.0
 31
0.0
 40
0.5003427338
 41
0.7857407797
 42
1.3334966153
  0
ELLIPSE
  5
5DA
100
AcDbEntity
  8
ASSI
100
AcDbEllipse
 62
7
  6
CONTINUOUS
 10
2.6169524202
 20
44.821027917
 30
0.0
 11
0.9999753489
 21
-0.014348771
 31
0.0
 40
0.4893460778
 41
1.6585167088
 42
2.3628734463
  0
ELLIPSE
  5
5DB
100
AcDbEntity
  8
ASSI
100
AcDbEllipse
 62
7
  6
CONTINUOUS
 10
13.0159474737
 20
41.413147704
 30
0.0
 11
-0.7356038977
 21
1.2035991204
 31
0.0
 40
0.5552491559
 41
4.9268361304
 42
6.2240352843
  0
ELLIPSE
  5
5DC
100
AcDbEntity
  8
ASSI
100
AcDbEllipse
 62
7
  6
CONTINUOUS
 10
3.9697391786
 20
37.4974065972
 30
0.0
 11
0.249929385
 21
0.0111824824
 31
0.0
 40
0.5313301283
 41
3.117765999
 42
3.9032222197
  0
ENDSEC
  0
SECTION
  2
OBJECTS
  0
DICTIONARY
  5
C
100
AcDbDictionary
280
0
281
1
  3
ACAD_GROUP
350
D
  3
ACAD_MLINESTYLE
350
17
  3
ACAD_LAYOUT
350
1A
  3
ACAD_PLOTSETTINGS
350
19
  3
ACAD_PLOTSTYLENAME
350
E
  0
DICTIONARY
  5
D
102
{ACAD_REACTORS
330
C
102
}
100
AcDbDictionary
280
0
281
1
  0
ACDBDICTIONARYWDFLT
  5
E
102
{ACAD_REACTORS
330
C
102
}
100
AcDbDictionary
281
1
  3
Normal
350
F
100
AcDbDictionaryWithDefault
340
F
  0
DICTIONARY
  5
17
102
{ACAD_REACTORS
330
C
102
}
100
AcDbDictionary
280
0
281
1
  3
Standard
350
18
  0
DICTIONARY
  5
19
102
{ACAD_REACTORS
330
C
102
}
100
AcDbDictionary
281
1
  0
DICTIONARY
  5
1A
102
{ACAD_REACTORS
330
C
102
}
100
AcDbDictionary
281
1
  3
Model
350
5DD
  3
Layout1
350
5DE
  0
ACDBPLACEHOLDER
  5
F
102
{ACAD_REACTORS
330
E
102
}
  0
MLINESTYLE
  5
18
102
{ACAD_REACTORS
330
17
102
}
100
AcDbMlineStyle
  2
STANDARD
 70
0
  3

 62
256
 51
90.0
 52
90.0
 71
2
 49
0.5
 62
256
  6
BYLAYER
 49
-0.5
 62
256
  6
BYLAYER
  0
LAYOUT
  5
5DD
102
{ACAD_REACTORS
330
1A
102
}
100
AcDbPlotSettings
  1

  2
none_device
  4
ISO_A4_(297.00_x_210.00_MM)
  6

 40
0.0
 41
0.0
 42
0.0
 43
0.0
 44
297.0
 45
210.0
 46
0.0
 47
0.0
 48
0.0
 49
0.0
140
0.0
141
0.0
142
1.0
143
1.0
 70
1024
 72
1
 73
0
 74
0
  7

 75
0
147
1.0
148
0.0
149
0.0
100
AcDbLayout
  1
Model
 70
0
 71
0
 10
0.0
 20
0.0
 11
297.0
 21
210.0
 12
0.0
 22
0.0
 32
0.0
 14
0.0
 24
0.0
 34
0.0
 15
0.0
 25
0.0
 35
0.0
146
0.0
 13
0.0
 23
0.0
 33
0.0
 16
1.0
 26
0.0
 36
0.0
 17
0.0
 27
1.0
 37
0.0
 76
0
330
221
345
0
346
0
  0
LAYOUT
  5
5DE
102
{ACAD_REACTORS
330
1A
102
}
100
AcDbPlotSettings
  1

  2
none_device
  4
ISO_A4_(297.00_x_210.00_MM)
  6

 40
0.0
 41
0.0
 42
0.0
 43
0.0
 44
297.0
 45
210.0
 46
0.0
 47
0.0
 48
0.0
 49
0.0
140
0.0
141
0.0
142
1.0
143
1.0
 70
0
 72
1
 73
0
 74
0
  7

 75
0
147
1.0
148
0.0
149
0.0
100
AcDbLayout
  1
Layout1
 70
0
 71
1
 10
0.0
 20
0.0
 11
297.0
 21
210.0
 12
0.0
 22
0.0
 32
0.0
 14
0.0
 24
0.0
 34
0.0
 15
0.0
 25
0.0
 35
0.0
146
0.0
 13
0.0
 23
0.0
 33
0.0
 16
1.0
 26
0.0
 36
0.0
 17
0.0
 27
1.0
 37
0.0
 76
0
330
222
345
0
346
0
  0
ENDSEC
  0
EOF
