  0
SECTION
  2
HEADER
  9
$ACADVER
  1
AC1021
  9
$DWGCODEPAGE
  3
ANSI_1252
  9
$EXTMAX
 10
297.0
 20
210.0
 30
0.0
  9
$EXTMIN
 10
0.0
 20
0.0
 30
0.0
  9
$LIMMIN
 10
0.0
 20
0.0
  9
$LIMMAX
 10
297.0
 20
210.0
  9
$VIEWCTR
 10
148.5
 20
105.0
  9
$VIEWSIZE
 40
210.0
  9
$CLAYER
  8
0
  9
$LTSCALE
 40
16.335
  9
$CELTYPE
  6
BYLAYER
  9
$DIMSCALE
 40
1.0
  9
$DIMASZ
 40
3.0
  9
$DIMEXO
 40
0.5
  9
$DIMDLI
 40
11.286
  9
$DIMEXE
 40
1.5
  9
$DIMCEN
 40
2.673
  9
$DIMLFAC
 40
1.0
  9
$DIMBLK
  1
_FILLED
  9
$DIMALT
 70
0
  9
$DIMALTF
 40
25.4
  9
$DIMTXT
 40
3.0
  9
$DIMTOL
 70
1
  9
$DIMLIM
 70
0
  9
$DIMTFAC
 40
1.0
  9
$DIMTP
 40
0.01
  9
$DIMTM
 40
0.01
  9
$DIMGAP
 40
0.625
  9
$DIMDSEP
 70
44
  9
$AUNITS
 70
0
  9
$PDMODE
 70
3
  9
$PDSIZE
 40
3.0
  9
$HANDSEED
  5
929
  9
$TILEMODE
 70
1
  9
$MEASUREMENT
 70
1
  9
$INSUNITS
 70
4
  0
ENDSEC
  0
SECTION
  2
CLASSES
  0
CLASS
  1
ACDBDICTIONARYWDFLT
  2
AcDbDictionaryWithDefault
  3
AutoCAD 2000
 90
0
 91
1
280
0
281
0
  0
CLASS
  1
ACDBPLACEHOLDER
  2
AcDbPlaceHolder
  3
AutoCAD 2000
 90
0
 91
1
280
0
281
0
  0
CLASS
  1
LAYOUT
  2
AcDbLayout
  3
AutoCAD 2000
 90
0
 91
0
280
0
281
0
  0
ENDSEC
  0
SECTION
  2
TABLES
  0
TABLE
  2
VPORT
  5
8
100
AcDbSymbolTable
 70
2
  0
VPORT
  5
1F4
100
AcDbSymbolTableRecord
100
AcDbViewportTableRecord
  2
*ACTIVE
 70
0
 10
0.0
 20
0.0
 11
1.0
 21
1.0
 12
148.5
 22
105.0
 13
0.0
 23
0.0
 14
1.0
 24
1.0
 15
0.0
 25
0.0
 16
0.0
 26
0.0
 36
1.0
 17
0.0
 27
0.0
 37
0.0
 40
210.0
 41
1.4142857143
 42
50.0
 43
0.0
 44
0.0
 50
0.0
 51
0.0
 71
0
 72
100
 73
1
 74
1
 75
0
 76
0
 77
0
 78
0
  0
ENDTAB
  0
TABLE
  2
LTYPE
  5
5
100
AcDbSymbolTable
 70
6
  0
LTYPE
  5
14
100
AcDbSymbolTableRecord
100
AcDbLinetypeTableRecord
  2
BYBLOCK
 70
0
  3

 72
65
 73
0
 40
0.0
  0
LTYPE
  5
15
100
AcDbSymbolTableRecord
100
AcDbLinetypeTableRecord
  2
BYLAYER
 70
0
  3

 72
65
 73
0
 40
0.0
  0
LTYPE
  5
16
100
AcDbSymbolTableRecord
100
AcDbLinetypeTableRecord
  2
CONTINUOUS
 70
64
  3
Solid line
 72
65
 73
0
 40
0.0
  0
LTYPE
  5
1F5
100
AcDbSymbolTableRecord
100
AcDbLinetypeTableRecord
  2
CENTER
 70
64
  3
____ _ ____ _ ____ _ ____ _ ____ _ ____ _ ____
 72
65
 73
4
 40
0.6
 49
0.375
 74
0
 49
-0.075
 74
0
 49
0.075
 74
0
 49
-0.075
 74
0
  0
LTYPE
  5
1F6
100
AcDbSymbolTableRecord
100
AcDbLinetypeTableRecord
  2
HIDDEN
 70
64
  3
- - - - - - - - - - - - - - - - - - - -
 72
65
 73
2
 40
0.2
 49
0.1
 74
0
 49
-0.1
 74
0
  0
LTYPE
  5
1F7
100
AcDbSymbolTableRecord
100
AcDbLinetypeTableRecord
  2
PHANTOM
 70
64
  3
_____ _ _ _____ _ _ _____ _ _ _____
 72
65
 73
6
 40
0.8
 49
0.45
 74
0
 49
-0.05
 74
0
 49
0.1
 74
0
 49
-0.05
 74
0
 49
0.1
 74
0
 49
-0.05
 74
0
  0
LTYPE
  5
1F8
100
AcDbSymbolTableRecord
100
AcDbLinetypeTableRecord
  2
DOT
 70
64
  3
. . . . . . . . . . . . . . . . . . . .
 72
65
 73
2
 40
0.2
 49
0.1
 74
0
 49
-0.1
 74
0
  0
LTYPE
  5
1F9
100
AcDbSymbolTableRecord
100
AcDbLinetypeTableRecord
  2
DASHED
 70
64
  3
- - - - - - - - - - - - - - - - - - - -
 72
65
 73
2
 40
0.2
 49
0.1
 74
0
 49
-0.1
 74
0
  0
ENDTAB
  0
TABLE
  2
LAYER
  5
2
100
AcDbSymbolTable
 70
36
  0
LAYER
  5
10
100
AcDbSymbolTableRecord
100
AcDbLayerTableRecord
  2
0
 70
0
 62
7
  6
CONTINUOUS
370
-3
390
F
  0
LAYER
  5
1FA
100
AcDbSymbolTableRecord
100
AcDbLayerTableRecord
  2
DEFAULT_1
 70
0
 62
7
  6
CENTER
370
-3
390
F
  0
LAYER
  5
1FB
100
AcDbSymbolTableRecord
100
AcDbLayerTableRecord
  2
DEFAULT_2
 70
0
 62
7
  6
HIDDEN
370
-3
390
F
  0
LAYER
  5
1FC
100
AcDbSymbolTableRecord
100
AcDbLayerTableRecord
  2
DEFAULT_3
 70
0
 62
7
  6
PHANTOM
370
-3
390
F
  0
LAYER
  5
1FD
100
AcDbSymbolTableRecord
100
AcDbLayerTableRecord
  2
ASSI
 70
0
 62
7
  6
CONTINUOUS
370
-3
390
F
  0
LAYER
  5
1FE
100
AcDbSymbolTableRecord
100
AcDbLayerTableRecord
  2
COORDINATE
 70
0
 62
7
  6
CONTINUOUS
370
-3
390
F
  0
LAYER
  5
1FF
100
AcDbSymbolTableRecord
100
AcDbLayerTableRecord
  2
COPY_PUBLISH
 70
0
 62
7
  6
CONTINUOUS
370
-3
390
F
  0
LAYER
  5
200
100
AcDbSymbolTableRecord
100
AcDbLayerTableRecord
  2
COSMETIC
 70
0
 62
7
  6
CONTINUOUS
370
-3
390
F
  0
LAYER
  5
201
100
AcDbSymbolTableRecord
100
AcDbLayerTableRecord
  2
COSMETICI
 70
0
 62
7
  6
CONTINUOUS
370
-3
390
F
  0
LAYER
  5
202
100
AcDbSymbolTableRecord
100
AcDbLayerTableRecord
  2
CURVE
 70
0
 62
7
  6
CONTINUOUS
370
-3
390
F
  0
LAYER
  5
203
100
AcDbSymbolTableRecord
100
AcDbLayerTableRecord
  2
DRAFT
 70
0
 62
7
  6
CONTINUOUS
370
-3
390
F
  0
LAYER
  5
204
100
AcDbSymbolTableRecord
100
AcDbLayerTableRecord
  2
IMPORT_IGES
 70
0
 62
7
  6
CONTINUOUS
370
-3
390
F
  0
LAYER
  5
205
100
AcDbSymbolTableRecord
100
AcDbLayerTableRecord
  2
INTFCLR_1
 70
0
 62
7
  6
CONTINUOUS
370
-3
390
F
  0
LAYER
  5
206
100
AcDbSymbolTableRecord
100
AcDbLayerTableRecord
  2
NOTE
 70
0
 62
7
  6
CONTINUOUS
370
-3
390
F
  0
LAYER
  5
207
100
AcDbSymbolTableRecord
100
AcDbLayerTableRecord
  2
PIANI
 70
0
 62
7
  6
CONTINUOUS
370
-3
390
F
  0
LAYER
  5
208
100
AcDbSymbolTableRecord
100
AcDbLayerTableRecord
  2
PUNTI
 70
0
 62
7
  6
CONTINUOUS
370
-3
390
F
  0
LAYER
  5
209
100
AcDbSymbolTableRecord
100
AcDbLayerTableRecord
  2
RACCORDO
 70
0
 62
7
  6
CONTINUOUS
370
-3
390
F
  0
LAYER
  5
20A
100
AcDbSymbolTableRecord
100
AcDbLayerTableRecord
  2
SIMBOLI
 70
0
 62
7
  6
CONTINUOUS
370
-3
390
F
  0
LAYER
  5
20B
100
AcDbSymbolTableRecord
100
AcDbLayerTableRecord
  2
SMUSSO
 70
0
 62
7
  6
CONTINUOUS
370
-3
390
F
  0
LAYER
  5
20C
100
AcDbSymbolTableRecord
100
AcDbLayerTableRecord
  2
SNAPLINE
 70
0
 62
7
  6
CONTINUOUS
370
-3
390
F
  0
LAYER
  5
20D
100
AcDbSymbolTableRecord
100
AcDbLayerTableRecord
  2
SUPERFICI
 70
0
 62
7
  6
CONTINUOUS
370
-3
390
F
  0
LAYER
  5
20E
100
AcDbSymbolTableRecord
100
AcDbLayerTableRecord
  2
TRASH
 70
0
 62
7
  6
CONTINUOUS
370
-3
390
F
  0
LAYER
  5
20F
100
AcDbSymbolTableRecord
100
AcDbLayerTableRecord
  2
XSEC_DATUMS
 70
0
 62
7
  6
CONTINUOUS
370
-3
390
F
  0
ENDTAB
  0
TABLE
  2
STYLE
  5
3
100
AcDbSymbolTable
 70
1
  0
STYLE
  5
11
100
AcDbSymbolTableRecord
100
AcDbTextStyleTableRecord
  2
STANDARD
 70
0
 40
0.0
 41
0.8
 50
0.0
 71
0
 42
0.2
  3
txt
  4

  0
STYLE
  5
210
100
AcDbSymbolTableRecord
100
AcDbTextStyleTableRecord
  2
TEXTSTYLE_1
 70
0
 40
0.0
 41
0.8
 50
0.0
 71
0
 42
0.2
  3
gdt
  4

  0
ENDTAB
  0
TABLE
  2
VIEW
  5
6
100
AcDbSymbolTable
 70
0
  0
ENDTAB
  0
TABLE
  2
UCS
  5
7
100
AcDbSymbolTable
 70
0
  0
ENDTAB
  0
TABLE
  2
APPID
  5
9
100
AcDbSymbolTable
 70
1
  0
APPID
  5
211
100
AcDbSymbolTableRecord
100
AcDbRegAppTableRecord
  2
ACAD
 70
0
  0
ENDTAB
  0
TABLE
  2
BLOCK_RECORD
  5
1
100
AcDbSymbolTable
 70
0
  0
BLOCK_RECORD
  5
212
100
AcDbSymbolTableRecord
100
AcDbBlockTableRecord
  2
*Model_Space
  0
BLOCK_RECORD
  5
213
100
AcDbSymbolTableRecord
100
AcDbBlockTableRecord
  2
*Paper_Space
  0
BLOCK_RECORD
  5
214
100
AcDbSymbolTableRecord
100
AcDbBlockTableRecord
  2
_FILLED
  0
ENDTAB
  0
TABLE
  2
DIMSTYLE
  5
A
100
AcDbSymbolTable
 70
1
100
AcDbDimStyleTable
 71
0
  0
DIMSTYLE
105
215
100
AcDbSymbolTableRecord
100
AcDbDimStyleTableRecord
  2
STANDARD
 70
0
  3

  4

 40
1.0
 41
3.0
 42
0.5
 43
0.38
 44
1.5
 45
0.0
 46
0.0
 47
0.01
 48
0.01
140
3.0
141
0.09
142
0.0
143
25.4
144
1.0
145
0.0
146
1.0
147
0.625
 71
1.0
 72
0.0
 73
0
 74
0
 75
0
 76
0
 77
1
 78
8
 79
2
170
0
171
1
172
0
173
0
174
0
175
0
176
0
177
0
178
0
270
2
179
2
271
2
272
2
273
2
274
2
275
0
280
0
281
0
282
0
283
1
284
8
285
0
286
0
287
3
288
0
340
11
278
44
341
214
342
214
343
214
344
214
  0
ENDTAB
  0
ENDSEC
  0
SECTION
  2
BLOCKS
  0
BLOCK
  5
20
100
AcDbEntity
  8
0
100
AcDbBlockBegin
  2
*Model_Space
 70
0
 10
0.0
 20
0.0
 30
0.0
  3
*Model_Space
  1

  0
ENDBLK
  5
21
100
AcDbEntity
  8
0
100
AcDbBlockEnd
  0
BLOCK
  5
1C
100
AcDbEntity
  8
0
100
AcDbBlockBegin
  2
*Paper_Space
 70
0
 10
0.0
 20
0.0
 30
0.0
  3
*Paper_Space
  1

  0
ENDBLK
  5
1D
100
AcDbEntity
  8
0
100
AcDbBlockEnd
  0
BLOCK
  5
216
100
AcDbEntity
  8
0
100
AcDbBlockBegin
  2
_FILLED
 70
64
 10
0.0
 20
0.0
  3
_FILLED
  1

  0
SOLID
  5
217
100
AcDbEntity
  8
0
  6
BYBLOCK
 62
0
100
AcDbTrace
 10
0.0
 20
0.0
 11
-1.0
 21
0.1333333333
 12
-1.0
 22
-0.1333333333
 13
-1.0
 23
-0.1333333333
  0
ENDBLK
  5
218
100
AcDbEntity
  8
0
  6
BYBLOCK
 62
0
100
AcDbBlockEnd
  0
ENDSEC
  0
SECTION
  2
ENTITIES
  0
LINE
  5
219
100
AcDbEntity
  8
0
100
AcDbLine
 62
7
  6
CONTINUOUS
 10
4.2254471781
 20
-24.2380342356
 11
4.2274076575
 21
-24.2562732653
  0
LINE
  5
21A
100
AcDbEntity
  8
0
100
AcDbLine
 62
7
  6
CONTINUOUS
 10
4.5025076846
 20
-24.4713084353
 11
4.5059739219
 21
-24.5051966868
  0
LINE
  5
21B
100
AcDbEntity
  8
RACCORDO
100
AcDbLine
 62
7
  6
CONTINUOUS
 10
-41.8054755689
 20
-1.7041753935
 11
-41.6236036696
 21
-3.5172644563
  0
LINE
  5
21C
100
AcDbEntity
  8
RACCORDO
100
AcDbLine
 62
7
  6
CONTINUOUS
 10
-41.8941000085
 20
-1.5751369172
 11
-41.7108930101
 21
-3.402019647
  0
LINE
  5
21D
100
AcDbEntity
  8
0
100
AcDbLine
 62
7
  6
CONTINUOUS
 10
-11.8697446743
 20
23.1368054806
 11
-11.8714157145
 21
23.1535448524
  0
LINE
  5
21E
100
AcDbEntity
  8
0
100
AcDbLine
 62
7
  6
CONTINUOUS
 10
-12.0723777556
 20
23.2625052802
 11
-12.0742069841
 21
23.2809955933
  0
LINE
  5
21F
100
AcDbEntity
  8
RACCORDO
100
AcDbLine
 62
7
  6
CONTINUOUS
 10
-42.0544465082
 20
0.2693308695
 11
-41.8941000085
 21
-1.5751369172
  0
LINE
  5
220
100
AcDbEntity
  8
RACCORDO
100
AcDbLine
 62
7
  6
CONTINUOUS
 10
-41.9648282165
 20
0.1263120112
 11
-41.8054755689
 21
-1.7041753935
  0
LINE
  5
221
100
AcDbEntity
  8
0
100
AcDbLine
 62
7
  6
CONTINUOUS
 10
-1.3036491021
 20
-22.5537140429
 11
-1.3597572757
 21
-21.8244516055
  0
LINE
  5
222
100
AcDbEntity
  8
0
100
AcDbLine
 62
7
  6
CONTINUOUS
 10
3.387512127
 20
-25.2623320064
 11
3.3320409623
 21
-24.5416417712
  0
LINE
  5
223
100
AcDbEntity
  8
0
100
AcDbLine
 62
7
  6
CONTINUOUS
 10
3.6926138401
 20
-25.5614478975
 11
3.6377115168
 21
-24.8477112857
  0
LINE
  5
224
100
AcDbEntity
  8
0
100
AcDbLine
 62
7
  6
CONTINUOUS
 10
-1.4101235172
 20
-22.6151910357
 11
-1.4661811053
 21
-21.8858987687
  0
LINE
  5
225
100
AcDbEntity
  8
0
100
AcDbLine
 62
7
  6
CONTINUOUS
 10
-0.9968846574
 20
-22.8537899743
 11
-1.0529422456
 21
-22.1244977073
  0
LINE
  5
226
100
AcDbEntity
  8
0
100
AcDbLine
 62
7
  6
CONTINUOUS
 10
3.2810377118
 20
-25.3238089993
 11
3.225616559
 21
-24.6030892795
  0
LINE
  5
227
100
AcDbEntity
  8
RACCORDO
100
AcDbLine
 62
7
  6
CONTINUOUS
 10
-42.1016297308
 20
1.9738318223
 11
-41.9648282165
 21
0.1263120112
  0
LINE
  5
228
100
AcDbEntity
  8
RACCORDO
100
AcDbLine
 62
7
  6
CONTINUOUS
 10
-42.1919015819
 20
2.1310276772
 11
-42.0544465082
 21
0.2693308695
  0
LINE
  5
229
100
AcDbEntity
  8
0
100
AcDbLine
 62
7
  6
CONTINUOUS
 10
3.225616559
 20
-24.6030892795
 11
3.173798153
 21
-23.8799398807
  0
LINE
  5
22A
100
AcDbEntity
  8
0
100
AcDbLine
 62
7
  6
CONTINUOUS
 10
3.3320409623
 20
-24.5416417712
 11
3.2801757931
 21
-23.8185193502
  0
LINE
  5
22B
100
AcDbEntity
  8
0
100
AcDbLine
 62
7
  6
CONTINUOUS
 10
-1.4661811053
 20
-21.8858987687
 11
-1.5185498591
 21
-21.1541190442
  0
LINE
  5
22C
100
AcDbEntity
  8
0
100
AcDbLine
 62
7
  6
CONTINUOUS
 10
-1.3597572757
 20
-21.8244516055
 11
-1.4121732887
 21
-21.0926991444
  0
LINE
  5
22D
100
AcDbEntity
  8
0
100
AcDbLine
 62
7
  6
CONTINUOUS
 10
-1.0529422456
 20
-22.1244977073
 11
-1.1053109993
 21
-21.3927179827
  0
LINE
  5
22E
100
AcDbEntity
  8
RACCORDO
100
AcDbLine
 62
7
  6
CONTINUOUS
 10
-15.2713581922
 20
-8.900253188
 11
-15.2736814059
 21
-8.8655705728
  0
LINE
  5
22F
100
AcDbEntity
  8
RACCORDO
100
AcDbLine
 62
7
  6
CONTINUOUS
 10
-15.9575981848
 20
-8.9314018609
 11
-15.9613835771
 21
-8.8747405162
  0
LINE
  5
230
100
AcDbEntity
  8
0
100
AcDbLine
 62
7
  6
CONTINUOUS
 10
-1.4121732887
 20
-21.0926991444
 11
-1.4526535986
 21
-20.4860425341
  0
LINE
  5
231
100
AcDbEntity
  8
0
100
AcDbLine
 62
7
  6
CONTINUOUS
 10
-1.5185498591
 20
-21.1541190442
 11
-1.5672271046
 21
-20.4198892278
  0
LINE
  5
232
100
AcDbEntity
  8
0
100
AcDbLine
 62
7
  6
CONTINUOUS
 10
-1.1053109993
 20
-21.3927179827
 11
-1.1539882448
 21
-20.6584881663
  0
LINE
  5
233
100
AcDbEntity
  8
0
100
AcDbLine
 62
7
  6
CONTINUOUS
 10
-0.9296869465
 20
-13.9852125819
 11
-0.9315265973
 21
-13.9553487109
  0
LINE
  5
234
100
AcDbEntity
  8
RACCORDO
100
AcDbLine
 62
7
  6
CONTINUOUS
 10
-42.2158484598
 20
3.8380058352
 11
-42.1016297308
 21
1.9738318223
  0
LINE
  5
235
100
AcDbEntity
  8
RACCORDO
100
AcDbLine
 62
7
  6
CONTINUOUS
 10
-42.3064387482
 20
4.0095176716
 11
-42.1919015819
 21
2.1310276772
  0
LINE
  5
236
100
AcDbEntity
  8
RACCORDO
100
AcDbLine
 62
7
  6
CONTINUOUS
 10
-14.9951144087
 20
27.361888724
 11
-14.9935572818
 21
27.3322920648
  0
LINE
  5
237
100
AcDbEntity
  8
RACCORDO
100
AcDbLine
 62
7
  6
CONTINUOUS
 10
-42.307459892
 20
5.718457079
 11
-42.2158484598
 21
3.8380058352
  0
LINE
  5
238
100
AcDbEntity
  8
RACCORDO
100
AcDbLine
 62
7
  6
CONTINUOUS
 10
-42.3953244272
 20
5.8403321583
 11
-42.3064387482
 21
4.0095176716
  0
LINE
  5
239
100
AcDbEntity
  8
RACCORDO
100
AcDbLine
 62
7
  6
CONTINUOUS
 10
-15.9613835771
 20
-8.8747405162
 11
-16.0822772875
 21
-5.9633053068
  0
LINE
  5
23A
100
AcDbEntity
  8
RACCORDO
100
AcDbLine
 62
7
  6
CONTINUOUS
 10
-15.2736818154
 20
-8.8655708087
 11
-15.3944561404
 21
-5.95704065
  0
LINE
  5
23B
100
AcDbEntity
  8
0
100
AcDbLine
 62
7
  6
CONTINUOUS
 10
-11.8118209883
 20
23.2001035432
 11
-11.8133289072
 21
23.2378693811
  0
LINE
  5
23C
100
AcDbEntity
  8
RACCORDO
100
AcDbLine
 62
7
  6
CONTINUOUS
 10
-42.510553913
 20
8.7993668481
 11
-42.3953244272
 21
5.8403320703
  0
LINE
  5
23D
100
AcDbEntity
  8
RACCORDO
100
AcDbLine
 62
7
  6
CONTINUOUS
 10
-42.4243978553
 20
8.7257668273
 11
-42.307459964
 21
5.7184571206
  0
LINE
  5
23E
100
AcDbEntity
  8
RACCORDO
100
AcDbLine
 62
7
  6
CONTINUOUS
 10
-16.0822772875
 20
-5.9633053068
 11
-16.1812007056
 21
-3.0394700366
  0
LINE
  5
23F
100
AcDbEntity
  8
RACCORDO
100
AcDbLine
 62
7
  6
CONTINUOUS
 10
-15.3944561404
 20
-5.95704065
 11
-15.4932732697
 21
-3.0365096372
  0
LINE
  5
240
100
AcDbEntity
  8
0
100
AcDbLine
 62
7
  6
CONTINUOUS
 10
-11.8691657775
 20
23.119153996
 11
-11.8697446743
 21
23.1368054806
  0
LINE
  5
241
100
AcDbEntity
  8
RACCORDO
100
AcDbLine
 62
7
  6
CONTINUOUS
 10
-42.6068865942
 20
11.8319198319
 11
-42.510553913
 21
8.7993668481
  0
LINE
  5
242
100
AcDbEntity
  8
RACCORDO
100
AcDbLine
 62
7
  6
CONTINUOUS
 10
-42.5200916799
 20
11.7479032167
 11
-42.4243978553
 21
8.7257668273
  0
LINE
  5
243
100
AcDbEntity
  8
RACCORDO
100
AcDbLine
 62
7
  6
CONTINUOUS
 10
-16.1812007056
 20
-3.0394700366
 11
-16.2581476563
 21
-0.1034265068
  0
LINE
  5
244
100
AcDbEntity
  8
RACCORDO
100
AcDbLine
 62
7
  6
CONTINUOUS
 10
-15.4932732697
 20
-3.0365096372
 11
-15.5701332031
 21
-0.1039777703
  0
LINE
  5
245
100
AcDbEntity
  8
RACCORDO
100
AcDbLine
 62
7
  6
CONTINUOUS
 10
-42.6818148829
 20
14.879054373
 11
-42.6068865942
 21
11.8319198319
  0
LINE
  5
246
100
AcDbEntity
  8
RACCORDO
100
AcDbLine
 62
7
  6
CONTINUOUS
 10
-42.5945317884
 20
14.7846544777
 11
-42.5200916799
 21
11.7479032167
  0
LINE
  5
247
100
AcDbEntity
  8
RACCORDO
100
AcDbLine
 62
7
  6
CONTINUOUS
 10
-16.2581476563
 20
-0.1034265068
 11
-16.3131134441
 21
2.8446327415
  0
LINE
  5
248
100
AcDbEntity
  8
RACCORDO
100
AcDbLine
 62
7
  6
CONTINUOUS
 10
-15.5701332031
 20
-0.1039777703
 11
-15.6250381132
 21
2.8407490577
  0
LINE
  5
249
100
AcDbEntity
  8
RACCORDO
100
AcDbLine
 62
7
  6
CONTINUOUS
 10
-42.7353320639
 20
17.9405292917
 11
-42.6818148829
 21
14.879054373
  0
LINE
  5
24A
100
AcDbEntity
  8
RACCORDO
100
AcDbLine
 62
7
  6
CONTINUOUS
 10
-42.6477104626
 20
17.8358459377
 11
-42.5945317884
 21
14.7846544777
  0
LINE
  5
24B
100
AcDbEntity
  8
0
100
AcDbLine
 62
7
  6
CONTINUOUS
 10
-12.07210787
 20
23.244706479
 11
-12.0723777556
 21
23.2625052802
  0
LINE
  5
24C
100
AcDbEntity
  8
RACCORDO
100
AcDbLine
 62
7
  6
CONTINUOUS
 10
-14.9946922016
 20
-10.4385432454
 11
-14.9951144085
 21
-10.4082422215
  0
LINE
  5
24D
100
AcDbEntity
  8
RACCORDO
100
AcDbLine
 62
7
  6
CONTINUOUS
 10
-16.3131134441
 20
2.8446327415
 11
-16.3460945275
 21
5.8045141304
  0
LINE
  5
24E
100
AcDbEntity
  8
RACCORDO
100
AcDbLine
 62
7
  6
CONTINUOUS
 10
-15.6250381132
 20
2.8407490577
 11
-15.6579858276
 21
5.7974767398
  0
LINE
  5
24F
100
AcDbEntity
  8
RACCORDO
100
AcDbLine
 62
7
  6
CONTINUOUS
 10
-42.7674358635
 20
21.0161289544
 11
-42.7353320639
 21
17.9405292917
  0
LINE
  5
250
100
AcDbEntity
  8
RACCORDO
100
AcDbLine
 62
7
  6
CONTINUOUS
 10
-42.6796203037
 20
20.901225925
 11
-42.6477104626
 21
17.8358459377
  0
LINE
  5
251
100
AcDbEntity
  8
RACCORDO
100
AcDbLine
 62
7
  6
CONTINUOUS
 10
-42.3953162835
 20
42.8474923705
 11
-42.3953516814
 21
42.8555010868
  0
LINE
  5
252
100
AcDbEntity
  8
RACCORDO
100
AcDbLine
 62
7
  6
CONTINUOUS
 10
-16.3460945275
 20
5.8045141304
 11
-16.3570885227
 21
8.7760230564
  0
LINE
  5
253
100
AcDbEntity
  8
RACCORDO
100
AcDbLine
 62
7
  6
CONTINUOUS
 10
-15.6579858276
 20
5.7974767398
 11
-15.6689698289
 21
8.7656229548
  0
LINE
  5
254
100
AcDbEntity
  8
RACCORDO
100
AcDbLine
 62
7
  6
CONTINUOUS
 10
-42.778125
 20
24.1056485692
 11
-42.7674358635
 21
21.0161289544
  0
LINE
  5
255
100
AcDbEntity
  8
RACCORDO
100
AcDbLine
 62
7
  6
CONTINUOUS
 10
-42.6902570425
 20
23.9804641209
 11
-42.6796203037
 21
20.901225925
  0
LINE
  5
256
100
AcDbEntity
  8
0
100
AcDbLine
 62
7
  6
CONTINUOUS
 10
-13.2151261757
 20
-7.6769718545
 11
-13.2151261757
 21
26.1737289871
  0
LINE
  5
257
100
AcDbEntity
  8
0
100
AcDbLine
 62
7
  6
CONTINUOUS
 10
-11.8691657775
 20
21.2949052915
 11
-11.8691657775
 21
23.119153996
  0
LINE
  5
258
100
AcDbEntity
  8
0
100
AcDbLine
 62
7
  6
CONTINUOUS
 10
-11.8118158673
 20
21.3758445365
 11
-11.8118158673
 21
23.2000932322
  0
LINE
  5
259
100
AcDbEntity
  8
RACCORDO
100
AcDbLine
 62
7
  6
CONTINUOUS
 10
-42.7673986135
 20
27.2088742934
 11
-42.778125
 21
24.1056485692
  0
LINE
  5
25A
100
AcDbEntity
  8
RACCORDO
100
AcDbLine
 62
7
  6
CONTINUOUS
 10
-42.6796203095
 20
27.0733435093
 11
-42.6902570425
 21
23.9804641209
  0
LINE
  5
25B
100
AcDbEntity
  8
RACCORDO
100
AcDbLine
 62
7
  6
CONTINUOUS
 10
-16.3570885227
 20
8.7760230564
 11
-16.3460945281
 21
11.7589642955
  0
LINE
  5
25C
100
AcDbEntity
  8
RACCORDO
100
AcDbLine
 62
7
  6
CONTINUOUS
 10
-15.6689698289
 20
8.7656229548
 11
-15.6579857388
 21
11.7451908978
  0
LINE
  5
25D
100
AcDbEntity
  8
RACCORDO
100
AcDbLine
 62
7
  6
CONTINUOUS
 10
-42.7352582837
 20
30.3255907119
 11
-42.7673986135
 21
27.2088742934
  0
LINE
  5
25E
100
AcDbEntity
  8
RACCORDO
100
AcDbLine
 62
7
  6
CONTINUOUS
 10
-42.6477104727
 20
30.1796456511
 11
-42.6796203095
 21
27.0733435093
  0
LINE
  5
25F
100
AcDbEntity
  8
RACCORDO
100
AcDbLine
 62
7
  6
CONTINUOUS
 10
-16.3460945281
 20
11.7589642955
 11
-16.3131134452
 21
14.7531420812
  0
LINE
  5
260
100
AcDbEntity
  8
RACCORDO
100
AcDbLine
 62
7
  6
CONTINUOUS
 10
-15.6579857388
 20
11.7451908978
 11
-15.6250379358
 21
14.7361773737
  0
LINE
  5
261
100
AcDbEntity
  8
RACCORDO
100
AcDbLine
 62
7
  6
CONTINUOUS
 10
-14.9946922016
 20
27.3926772914
 11
-14.9951144087
 21
27.361888724
  0
LINE
  5
262
100
AcDbEntity
  8
RACCORDO
100
AcDbLine
 62
7
  6
CONTINUOUS
 10
-40.7606168947
 20
61.2416769801
 11
-40.7604246689
 21
61.2533956425
  0
LINE
  5
263
100
AcDbEntity
  8
0
100
AcDbLine
 62
7
  6
CONTINUOUS
 10
-12.07210787
 20
20.9308740314
 11
-12.0723777496
 21
20.9145625654
  0
LINE
  5
264
100
AcDbEntity
  8
RACCORDO
100
AcDbLine
 62
7
  6
CONTINUOUS
 10
-42.6817060133
 20
33.4555908806
 11
-42.7352582837
 21
30.3255907119
  0
LINE
  5
265
100
AcDbEntity
  8
RACCORDO
100
AcDbLine
 62
7
  6
CONTINUOUS
 10
-42.5945318007
 20
33.2990338018
 11
-42.6477104727
 21
30.1796456511
  0
LINE
  5
266
100
AcDbEntity
  8
RACCORDO
100
AcDbLine
 62
7
  6
CONTINUOUS
 10
-16.3131134452
 20
14.7531420812
 11
-16.2581476577
 21
17.7583598042
  0
LINE
  5
267
100
AcDbEntity
  8
RACCORDO
100
AcDbLine
 62
7
  6
CONTINUOUS
 10
-15.6250379358
 20
14.7361773737
 11
-15.570133038
 21
17.7379904754
  0
LINE
  5
268
100
AcDbEntity
  8
RACCORDO
100
AcDbLine
 62
7
  6
CONTINUOUS
 10
-42.5200916917
 20
36.4312472472
 11
-42.5945318007
 21
33.2990338018
  0
LINE
  5
269
100
AcDbEntity
  8
RACCORDO
100
AcDbLine
 62
7
  6
CONTINUOUS
 10
-42.6067447981
 20
36.5986557444
 11
-42.6817060133
 21
33.4555908806
  0
LINE
  5
26A
100
AcDbEntity
  8
RACCORDO
100
AcDbLine
 62
7
  6
CONTINUOUS
 10
-16.2581476577
 20
17.7583598042
 11
-16.181200707
 21
20.7744200465
  0
LINE
  5
26B
100
AcDbEntity
  8
RACCORDO
100
AcDbLine
 62
7
  6
CONTINUOUS
 10
-15.570133038
 20
17.7379904754
 11
-15.4932732514
 21
20.7504329007
  0
LINE
  5
26C
100
AcDbEntity
  8
0
100
AcDbLine
 62
7
  6
CONTINUOUS
 10
-11.8127337355
 20
21.3457024628
 11
-11.8118209912
 21
21.3758641753
  0
LINE
  5
26D
100
AcDbEntity
  8
RACCORDO
100
AcDbLine
 62
7
  6
CONTINUOUS
 10
-42.5103820761
 20
39.7545350545
 11
-42.6067447981
 21
36.5986557444
  0
LINE
  5
26E
100
AcDbEntity
  8
RACCORDO
100
AcDbLine
 62
7
  6
CONTINUOUS
 10
-42.4243978631
 20
39.576102901
 11
-42.5200916917
 21
36.4312472472
  0
LINE
  5
26F
100
AcDbEntity
  8
0
100
AcDbLine
 62
7
  6
CONTINUOUS
 10
-11.8697446736
 20
21.2765735411
 11
-11.8691657775
 21
21.2949052915
  0
LINE
  5
270
100
AcDbEntity
  8
RACCORDO
100
AcDbLine
 62
7
  6
CONTINUOUS
 10
-16.181200707
 20
20.7744200465
 11
-16.0822772884
 21
23.8011245955
  0
LINE
  5
271
100
AcDbEntity
  8
RACCORDO
100
AcDbLine
 62
7
  6
CONTINUOUS
 10
-15.4932732514
 20
20.7504329007
 11
-15.3944563702
 21
23.7737019518
  0
LINE
  5
272
100
AcDbEntity
  8
RACCORDO
100
AcDbLine
 62
7
  6
CONTINUOUS
 10
-42.3074599635
 20
42.7333778097
 11
-42.4243978631
 21
39.576102901
  0
LINE
  5
273
100
AcDbEntity
  8
RACCORDO
100
AcDbLine
 62
7
  6
CONTINUOUS
 10
-42.3953516794
 20
42.8555011361
 11
-42.5103820761
 21
39.7545350545
  0
LINE
  5
274
100
AcDbEntity
  8
RACCORDO
100
AcDbLine
 62
7
  6
CONTINUOUS
 10
-16.0822772884
 20
23.8011245955
 11
-15.9613835771
 21
26.8382745191
  0
LINE
  5
275
100
AcDbEntity
  8
RACCORDO
100
AcDbLine
 62
7
  6
CONTINUOUS
 10
-15.3944563702
 20
23.7737019518
 11
-15.2736823941
 21
26.8077976288
  0
LINE
  5
276
100
AcDbEntity
  8
0
100
AcDbLine
 62
7
  6
CONTINUOUS
 10
-11.8120434879
 20
23.1945854154
 11
-11.8118158673
 21
23.2000931917
  0
LINE
  5
277
100
AcDbEntity
  8
0
100
AcDbLine
 62
7
  6
CONTINUOUS
 10
-11.8120434072
 20
21.370337695
 11
-11.8118158673
 21
21.3758445365
  0
LINE
  5
278
100
AcDbEntity
  8
RACCORDO
100
AcDbLine
 62
7
  6
CONTINUOUS
 10
-42.3062109033
 20
44.8052434831
 11
-42.3953516786
 21
42.8555010867
  0
LINE
  5
279
100
AcDbEntity
  8
RACCORDO
100
AcDbLine
 62
7
  6
CONTINUOUS
 10
-42.2158484644
 20
44.7313054038
 11
-42.3074598915
 21
42.7333777681
  0
LINE
  5
27A
100
AcDbEntity
  8
RACCORDO
100
AcDbLine
 62
7
  6
CONTINUOUS
 10
-14.9951144085
 20
-10.4082422215
 11
-14.9935572801
 21
-10.3768474211
  0
LINE
  5
27B
100
AcDbEntity
  8
RACCORDO
100
AcDbLine
 62
7
  6
CONTINUOUS
 10
-42.1916598276
 20
46.8297981136
 11
-42.3062109033
 21
44.8052434831
  0
LINE
  5
27C
100
AcDbEntity
  8
RACCORDO
100
AcDbLine
 62
7
  6
CONTINUOUS
 10
-42.1016297381
 20
46.7419371764
 11
-42.2158484644
 21
44.7313054038
  0
LINE
  5
27D
100
AcDbEntity
  8
RACCORDO
100
AcDbLine
 62
7
  6
CONTINUOUS
 10
-15.9613835771
 20
26.8382745191
 11
-15.9576645092
 21
26.8956271227
  0
LINE
  5
27E
100
AcDbEntity
  8
RACCORDO
100
AcDbLine
 62
7
  6
CONTINUOUS
 10
-15.273682258
 20
26.8077976917
 11
-15.2713855602
 21
26.8428291421
  0
LINE
  5
27F
100
AcDbEntity
  8
RACCORDO
100
AcDbLine
 62
7
  6
CONTINUOUS
 10
-42.0542116492
 20
48.8667880515
 11
-42.1916598276
 21
46.8297981136
  0
LINE
  5
280
100
AcDbEntity
  8
RACCORDO
100
AcDbLine
 62
7
  6
CONTINUOUS
 10
-41.9648282212
 20
48.7648678108
 11
-42.1016297381
 21
46.7419371764
  0
LINE
  5
281
100
AcDbEntity
  8
RACCORDO
100
AcDbLine
 62
7
  6
CONTINUOUS
 10
-41.8938962545
 20
50.9157419295
 11
-42.0542116492
 21
48.8667880515
  0
LINE
  5
282
100
AcDbEntity
  8
RACCORDO
100
AcDbLine
 62
7
  6
CONTINUOUS
 10
-41.8054755562
 20
50.7996872632
 11
-41.9648282212
 21
48.7648678108
  0
LINE
  5
283
100
AcDbEntity
  8
RACCORDO
100
AcDbLine
 62
7
  6
CONTINUOUS
 10
-41.7107480514
 20
52.9762615654
 11
-41.8938962545
 21
50.9157419295
  0
LINE
  5
284
100
AcDbEntity
  8
RACCORDO
100
AcDbLine
 62
7
  6
CONTINUOUS
 10
-41.623603626
 20
52.8459880742
 11
-41.8054755562
 21
50.7996872632
  0
LINE
  5
285
100
AcDbEntity
  8
RACCORDO
100
AcDbLine
 62
7
  6
CONTINUOUS
 10
-41.4192441279
 20
54.9033656376
 11
-41.623603626
 21
52.8459880742
  0
LINE
  5
286
100
AcDbEntity
  8
RACCORDO
100
AcDbLine
 62
7
  6
CONTINUOUS
 10
-41.504801058
 20
55.0479788254
 11
-41.7107480514
 21
52.9762615654
  0
LINE
  5
287
100
AcDbEntity
  8
RACCORDO
100
AcDbLine
 62
7
  6
CONTINUOUS
 10
-41.1924379454
 20
56.9714084895
 11
-41.4192441279
 21
54.9033656376
  0
LINE
  5
288
100
AcDbEntity
  8
RACCORDO
100
AcDbLine
 62
7
  6
CONTINUOUS
 10
-41.2760938011
 20
57.1304957802
 11
-41.504801058
 21
55.0479788254
  0
LINE
  5
289
100
AcDbEntity
  8
RACCORDO
100
AcDbLine
 62
7
  6
CONTINUOUS
 10
-15.9576645092
 20
26.8956271227
 11
-15.9511533253
 21
26.9514328538
  0
LINE
  5
28A
100
AcDbEntity
  8
RACCORDO
100
AcDbLine
 62
7
  6
CONTINUOUS
 10
-40.9432355595
 20
59.0496982052
 11
-41.1924379454
 21
56.9714084895
  0
LINE
  5
28B
100
AcDbEntity
  8
RACCORDO
100
AcDbLine
 62
7
  6
CONTINUOUS
 10
-41.0246833611
 20
59.2233300345
 11
-41.2760938011
 21
57.1304957802
  0
LINE
  5
28C
100
AcDbEntity
  8
RACCORDO
100
AcDbLine
 62
7
  6
CONTINUOUS
 10
-40.7604246689
 20
61.2533956425
 11
-40.7602205834
 21
61.2550752077
  0
LINE
  5
28D
100
AcDbEntity
  8
RACCORDO
100
AcDbLine
 62
7
  6
CONTINUOUS
 10
-40.6716898578
 20
61.1378168845
 11
-40.9432355595
 21
59.0496982052
  0
LINE
  5
28E
100
AcDbEntity
  8
RACCORDO
100
AcDbLine
 62
7
  6
CONTINUOUS
 10
-40.7602202647
 20
61.2550775675
 11
-41.0246833611
 21
59.2233300345
  0
LINE
  5
28F
100
AcDbEntity
  8
RACCORDO
100
AcDbLine
 62
7
  6
CONTINUOUS
 10
-40.7526596782
 20
61.3027516118
 11
-40.7602160831
 21
61.2550745996
  0
LINE
  5
290
100
AcDbEntity
  8
RACCORDO
100
AcDbLine
 62
7
  6
CONTINUOUS
 10
-40.6657923119
 20
61.1745359322
 11
-40.6716898578
 21
61.1378168845
  0
LINE
  5
291
100
AcDbEntity
  8
RACCORDO
100
AcDbLine
 62
7
  6
CONTINUOUS
 10
-40.0909695554
 20
61.4851144527
 11
-40.086717551
 21
61.5088160676
  0
LINE
  5
292
100
AcDbEntity
  8
RACCORDO
100
AcDbLine
 62
7
  6
CONTINUOUS
 10
-40.7407736464
 20
61.3588368042
 11
-40.7526596782
 21
61.3027516118
  0
LINE
  5
293
100
AcDbEntity
  8
RACCORDO
100
AcDbLine
 62
7
  6
CONTINUOUS
 10
-40.6582697127
 20
61.2099275761
 11
-40.6657923119
 21
61.1745359322
  0
LINE
  5
294
100
AcDbEntity
  8
RACCORDO
100
AcDbLine
 62
7
  6
CONTINUOUS
 10
-40.086717551
 20
61.5088160676
 11
-40.080845845
 21
61.5329320657
  0
LINE
  5
295
100
AcDbEntity
  8
RACCORDO
100
AcDbLine
 62
7
  6
CONTINUOUS
 10
-40.6491222787
 20
61.2439917335
 11
-40.6582697127
 21
61.2099275761
  0
LINE
  5
296
100
AcDbEntity
  8
RACCORDO
100
AcDbLine
 62
7
  6
CONTINUOUS
 10
-40.7260222466
 20
61.412748235
 11
-40.7407736464
 21
61.3588368042
  0
LINE
  5
297
100
AcDbEntity
  8
RACCORDO
100
AcDbLine
 62
7
  6
CONTINUOUS
 10
-40.080845845
 20
61.5329320657
 11
-40.0734009645
 21
61.5572713086
  0
LINE
  5
298
100
AcDbEntity
  8
RACCORDO
100
AcDbLine
 62
7
  6
CONTINUOUS
 10
-40.6383027848
 20
61.2768457681
 11
-40.6491222787
 21
61.2439917335
  0
LINE
  5
299
100
AcDbEntity
  8
RACCORDO
100
AcDbLine
 62
7
  6
CONTINUOUS
 10
-40.7085084334
 20
61.4644137592
 11
-40.7260222466
 21
61.412748235
  0
LINE
  5
29A
100
AcDbEntity
  8
RACCORDO
100
AcDbLine
 62
7
  6
CONTINUOUS
 10
-40.0734009645
 20
61.5572713086
 11
-40.0644419062
 21
61.5816408868
  0
LINE
  5
29B
100
AcDbEntity
  8
RACCORDO
100
AcDbLine
 62
7
  6
CONTINUOUS
 10
-40.6258588347
 20
61.3083721725
 11
-40.6383027848
 21
61.2768457681
  0
LINE
  5
29C
100
AcDbEntity
  8
RACCORDO
100
AcDbLine
 62
7
  6
CONTINUOUS
 10
-40.6883136395
 20
61.5137941731
 11
-40.7085084334
 21
61.4644137592
  0
LINE
  5
29D
100
AcDbEntity
  8
RACCORDO
100
AcDbLine
 62
7
  6
CONTINUOUS
 10
-40.0644419062
 20
61.5816408868
 11
-40.0540396689
 21
61.6058476471
  0
LINE
  5
29E
100
AcDbEntity
  8
RACCORDO
100
AcDbLine
 62
7
  6
CONTINUOUS
 10
44.8224422064
 20
-60.361513922
 11
44.8439365424
 21
-60.359687364
  0
LINE
  5
29F
100
AcDbEntity
  8
RACCORDO
100
AcDbLine
 62
7
  6
CONTINUOUS
 10
45.1660762373
 20
-60.0865583462
 11
45.1911220753
 21
-60.0851191423
  0
LINE
  5
2A0
100
AcDbEntity
  8
RACCORDO
100
AcDbLine
 62
7
  6
CONTINUOUS
 10
45.0224640108
 20
-60.496875
 11
45.063627307
 21
-60.4953002393
  0
LINE
  5
2A1
100
AcDbEntity
  8
RACCORDO
100
AcDbLine
 62
7
  6
CONTINUOUS
 10
45.141248148
 20
-60.0865502625
 11
45.1660762373
 21
-60.0865583462
  0
LINE
  5
2A2
100
AcDbEntity
  8
RACCORDO
100
AcDbLine
 62
7
  6
CONTINUOUS
 10
44.7998301962
 20
-60.3613058529
 11
44.8224422064
 21
-60.361513922
  0
LINE
  5
2A3
100
AcDbEntity
  8
RACCORDO
100
AcDbLine
 62
7
  6
CONTINUOUS
 10
44.9807680849
 20
-60.4953329104
 11
45.0224640108
 21
-60.496875
  0
LINE
  5
2A4
100
AcDbEntity
  8
RACCORDO
100
AcDbLine
 62
7
  6
CONTINUOUS
 10
45.1168145774
 20
-60.0850949488
 11
45.141248148
 21
-60.0865502625
  0
LINE
  5
2A5
100
AcDbEntity
  8
RACCORDO
100
AcDbLine
 62
7
  6
CONTINUOUS
 10
44.7761217527
 20
-60.3590859826
 11
44.7998301962
 21
-60.3613058529
  0
LINE
  5
2A6
100
AcDbEntity
  8
RACCORDO
100
AcDbLine
 62
7
  6
CONTINUOUS
 10
44.9386855688
 20
-60.4907356622
 11
44.9807680849
 21
-60.4953329104
  0
LINE
  5
2A7
100
AcDbEntity
  8
RACCORDO
100
AcDbLine
 62
7
  6
CONTINUOUS
 10
45.0929494866
 20
-60.0822027664
 11
45.1168145774
 21
-60.0850949488
  0
LINE
  5
2A8
100
AcDbEntity
  8
RACCORDO
100
AcDbLine
 62
7
  6
CONTINUOUS
 10
44.7515845204
 20
-60.3548963163
 11
44.7761217527
 21
-60.3590859826
  0
LINE
  5
2A9
100
AcDbEntity
  8
RACCORDO
100
AcDbLine
 62
7
  6
CONTINUOUS
 10
44.8962048519
 20
-60.4831361574
 11
44.9386855688
 21
-60.4907356622
  0
LINE
  5
2AA
100
AcDbEntity
  8
RACCORDO
100
AcDbLine
 62
7
  6
CONTINUOUS
 10
45.0698227892
 20
-60.0778943071
 11
45.0929494866
 21
-60.0822027664
  0
LINE
  5
2AB
100
AcDbEntity
  8
RACCORDO
100
AcDbLine
 62
7
  6
CONTINUOUS
 10
16.2178526593
 20
-28.3952242476
 11
16.1659323985
 21
-28.385090622
  0
LINE
  5
2AC
100
AcDbEntity
  8
0
100
AcDbLine
 62
7
  6
CONTINUOUS
 10
3.9568888594
 20
-24.5291221497
 11
3.972198204
 21
-24.5321747643
  0
LINE
  5
2AD
100
AcDbEntity
  8
0
100
AcDbLine
 62
7
  6
CONTINUOUS
 10
4.2832138917
 20
-24.9066460718
 11
4.2743136523
 21
-24.9048653421
  0
LINE
  5
2AE
100
AcDbEntity
  8
0
100
AcDbLine
 62
7
  6
CONTINUOUS
 10
4.3802021248
 20
-24.8433395877
 11
4.3885868164
 21
-24.8451309914
  0
LINE
  5
2AF
100
AcDbEntity
  8
RACCORDO
100
AcDbLine
 62
7
  6
CONTINUOUS
 10
16.4221567079
 20
-27.7305187183
 11
16.391195337
 21
-27.7235518715
  0
LINE
  5
2B0
100
AcDbEntity
  8
RACCORDO
100
AcDbLine
 62
7
  6
CONTINUOUS
 10
44.7262301764
 20
-60.3487231472
 11
44.7515845204
 21
-60.3548963163
  0
LINE
  5
2B1
100
AcDbEntity
  8
RACCORDO
100
AcDbLine
 62
7
  6
CONTINUOUS
 10
44.8533521949
 20
-60.4725706537
 11
44.8962048519
 21
-60.4831361574
  0
LINE
  5
2B2
100
AcDbEntity
  8
RACCORDO
100
AcDbLine
 62
7
  6
CONTINUOUS
 10
45.0475991418
 20
-60.0722002461
 11
45.0698227892
 21
-60.0778943071
  0
LINE
  5
2B3
100
AcDbEntity
  8
0
100
AcDbLine
 62
7
  6
CONTINUOUS
 10
3.9411060148
 20
-24.5249597132
 11
3.9568888594
 21
-24.5291221497
  0
LINE
  5
2B4
100
AcDbEntity
  8
RACCORDO
100
AcDbLine
 62
7
  6
CONTINUOUS
 10
16.1659323985
 20
-28.385090622
 11
16.1127124646
 21
-28.3707048457
  0
LINE
  5
2B5
100
AcDbEntity
  8
0
100
AcDbLine
 62
7
  6
CONTINUOUS
 10
-2.8661698739
 20
-12.7603858396
 11
-2.8859096633
 21
-12.754729986
  0
LINE
  5
2B6
100
AcDbEntity
  8
RACCORDO
100
AcDbLine
 62
7
  6
CONTINUOUS
 10
-15.8616194682
 20
-8.9184734435
 11
-15.8244298021
 21
-8.9293719914
  0
LINE
  5
2B7
100
AcDbEntity
  8
0
100
AcDbLine
 62
7
  6
CONTINUOUS
 10
-3.2413101333
 20
-12.7702913515
 11
-3.2551318391
 21
-12.7662003471
  0
LINE
  5
2B8
100
AcDbEntity
  8
RACCORDO
100
AcDbLine
 62
7
  6
CONTINUOUS
 10
16.391195337
 20
-27.7235518715
 11
16.3595832265
 21
-27.7139794357
  0
LINE
  5
2B9
100
AcDbEntity
  8
0
100
AcDbLine
 62
7
  6
CONTINUOUS
 10
4.2743136523
 20
-24.9048653421
 11
4.2650308535
 21
-24.9019823891
  0
LINE
  5
2BA
100
AcDbEntity
  8
RACCORDO
100
AcDbLine
 62
7
  6
CONTINUOUS
 10
44.7000462418
 20
-60.3405808157
 11
44.7262301764
 21
-60.3487231472
  0
LINE
  5
2BB
100
AcDbEntity
  8
RACCORDO
100
AcDbLine
 62
7
  6
CONTINUOUS
 10
44.810117942
 20
-60.4590509542
 11
44.8533521949
 21
-60.4725706537
  0
LINE
  5
2BC
100
AcDbEntity
  8
0
100
AcDbLine
 62
7
  6
CONTINUOUS
 10
3.925011734
 20
-24.5199216982
 11
3.9411060148
 21
-24.5249597132
  0
LINE
  5
2BD
100
AcDbEntity
  8
0
100
AcDbLine
 62
7
  6
CONTINUOUS
 10
-2.7881026289
 20
-12.7399980431
 11
-2.8220996531
 21
-12.7291811555
  0
LINE
  5
2BE
100
AcDbEntity
  8
0
100
AcDbLine
 62
7
  6
CONTINUOUS
 10
4.3714344518
 20
-24.840546285
 11
4.3802021248
 21
-24.8433395877
  0
LINE
  5
2BF
100
AcDbEntity
  8
RACCORDO
100
AcDbLine
 62
7
  6
CONTINUOUS
 10
45.0264367714
 20
-60.0651611236
 11
45.0475991418
 21
-60.0722002461
  0
LINE
  5
2C0
100
AcDbEntity
  8
0
100
AcDbLine
 62
7
  6
CONTINUOUS
 10
-2.8472976447
 20
-12.7668019555
 11
-2.8661698739
 21
-12.7603858396
  0
LINE
  5
2C1
100
AcDbEntity
  8
RACCORDO
100
AcDbLine
 62
7
  6
CONTINUOUS
 10
16.1127124646
 20
-28.3707048457
 11
16.058978741
 21
-28.352384459
  0
LINE
  5
2C2
100
AcDbEntity
  8
0
100
AcDbLine
 62
7
  6
CONTINUOUS
 10
3.9086039579
 20
-24.5140152956
 11
3.925011734
 21
-24.5199216982
  0
LINE
  5
2C3
100
AcDbEntity
  8
RACCORDO
100
AcDbLine
 62
7
  6
CONTINUOUS
 10
-15.8970070139
 20
-8.9056725018
 11
-15.8616194682
 21
-8.9184734435
  0
LINE
  5
2C4
100
AcDbEntity
  8
0
100
AcDbLine
 62
7
  6
CONTINUOUS
 10
-1.133812078
 20
-13.6867861092
 11
-1.1224179119
 21
-13.6909692809
  0
LINE
  5
2C5
100
AcDbEntity
  8
0
100
AcDbLine
 62
7
  6
CONTINUOUS
 10
-2.7137096366
 20
-12.7745733502
 11
-2.7023154071
 21
-12.7787563611
  0
LINE
  5
2C6
100
AcDbEntity
  8
RACCORDO
100
AcDbLine
 62
7
  6
CONTINUOUS
 10
44.6732641758
 20
-60.3305533595
 11
44.7000462418
 21
-60.3405808157
  0
LINE
  5
2C7
100
AcDbEntity
  8
RACCORDO
100
AcDbLine
 62
7
  6
CONTINUOUS
 10
16.3595832265
 20
-27.7139794357
 11
16.3275211643
 21
-27.7019069406
  0
LINE
  5
2C8
100
AcDbEntity
  8
RACCORDO
100
AcDbLine
 62
7
  6
CONTINUOUS
 10
44.7665051223
 20
-60.4425895552
 11
44.810117942
 21
-60.4590509542
  0
LINE
  5
2C9
100
AcDbEntity
  8
0
100
AcDbLine
 62
7
  6
CONTINUOUS
 10
-2.7552561112
 20
-12.7526638141
 11
-2.7881026289
 21
-12.7399980431
  0
LINE
  5
2CA
100
AcDbEntity
  8
0
100
AcDbLine
 62
7
  6
CONTINUOUS
 10
3.6525731234
 20
-23.6722902158
 11
3.6892025994
 21
-23.6868684383
  0
LINE
  5
2CB
100
AcDbEntity
  8
0
100
AcDbLine
 62
7
  6
CONTINUOUS
 10
3.582953208
 20
-23.7483237542
 11
3.5462184752
 21
-23.7336980567
  0
LINE
  5
2CC
100
AcDbEntity
  8
0
100
AcDbLine
 62
7
  6
CONTINUOUS
 10
-2.8293968312
 20
-12.7739468032
 11
-2.8472976447
 21
-12.7668019555
  0
LINE
  5
2CD
100
AcDbEntity
  8
0
100
AcDbLine
 62
7
  6
CONTINUOUS
 10
3.891884624
 20
-24.5072333958
 11
3.9086039579
 21
-24.5140152956
  0
LINE
  5
2CE
100
AcDbEntity
  8
RACCORDO
100
AcDbLine
 62
7
  6
CONTINUOUS
 10
16.058978741
 20
-28.352384459
 11
16.0049926094
 21
-28.3302356787
  0
LINE
  5
2CF
100
AcDbEntity
  8
RACCORDO
100
AcDbLine
 62
7
  6
CONTINUOUS
 10
45.006486349
 20
-60.0568270565
 11
45.0264367714
 21
-60.0651611236
  0
LINE
  5
2D0
100
AcDbEntity
  8
0
100
AcDbLine
 62
7
  6
CONTINUOUS
 10
3.1255850894
 20
-23.1543970272
 11
3.1673989497
 21
-23.1719379729
  0
LINE
  5
2D1
100
AcDbEntity
  8
0
100
AcDbLine
 62
7
  6
CONTINUOUS
 10
-3.227191119
 20
-12.7763314049
 11
-3.2413101333
 21
-12.7702913515
  0
LINE
  5
2D2
100
AcDbEntity
  8
0
100
AcDbLine
 62
7
  6
CONTINUOUS
 10
3.1673989497
 20
-23.1719379729
 11
3.2092108363
 21
-23.1898613194
  0
LINE
  5
2D3
100
AcDbEntity
  8
0
100
AcDbLine
 62
7
  6
CONTINUOUS
 10
3.6195158874
 20
-23.764161596
 11
3.582953208
 21
-23.7483237542
  0
LINE
  5
2D4
100
AcDbEntity
  8
0
100
AcDbLine
 62
7
  6
CONTINUOUS
 10
3.6892025994
 20
-23.6868684383
 11
3.7256849747
 21
-23.7026676925
  0
LINE
  5
2D5
100
AcDbEntity
  8
RACCORDO
100
AcDbLine
 62
7
  6
CONTINUOUS
 10
44.6459609883
 20
-60.3186689044
 11
44.6732641758
 21
-60.3305533595
  0
LINE
  5
2D6
100
AcDbEntity
  8
0
100
AcDbLine
 62
7
  6
CONTINUOUS
 10
3.2092108363
 20
-23.1898613194
 11
3.2510206964
 21
-23.2081671016
  0
LINE
  5
2D7
100
AcDbEntity
  8
RACCORDO
100
AcDbLine
 62
7
  6
CONTINUOUS
 10
-15.9303407431
 20
-8.8910602137
 11
-15.8970070139
 21
-8.9056725018
  0
LINE
  5
2D8
100
AcDbEntity
  8
RACCORDO
100
AcDbLine
 62
7
  6
CONTINUOUS
 10
44.7225403602
 20
-60.4231973802
 11
44.7665051223
 21
-60.4425895552
  0
LINE
  5
2D9
100
AcDbEntity
  8
0
100
AcDbLine
 62
7
  6
CONTINUOUS
 10
3.8750218295
 20
-24.4997887648
 11
3.891884624
 21
-24.5072333958
  0
LINE
  5
2DA
100
AcDbEntity
  8
0
100
AcDbLine
 62
7
  6
CONTINUOUS
 10
3.2510206964
 20
-23.2081671016
 11
3.2927988294
 21
-23.2267990632
  0
LINE
  5
2DB
100
AcDbEntity
  8
RACCORDO
100
AcDbLine
 62
7
  6
CONTINUOUS
 10
16.3275211643
 20
-27.7019069406
 11
16.2951680539
 21
-27.6874309506
  0
LINE
  5
2DC
100
AcDbEntity
  8
0
100
AcDbLine
 62
7
  6
CONTINUOUS
 10
3.2927988294
 20
-23.2267990632
 11
3.3345748433
 21
-23.2458135217
  0
LINE
  5
2DD
100
AcDbEntity
  8
0
100
AcDbLine
 62
7
  6
CONTINUOUS
 10
-2.7236149143
 20
-12.767225936
 11
-2.7552561112
 21
-12.7526638141
  0
LINE
  5
2DE
100
AcDbEntity
  8
0
100
AcDbLine
 62
7
  6
CONTINUOUS
 10
-2.8123635779
 20
-12.7818519132
 11
-2.8293968312
 21
-12.7739468032
  0
LINE
  5
2DF
100
AcDbEntity
  8
0
100
AcDbLine
 62
7
  6
CONTINUOUS
 10
3.3345748433
 20
-23.2458135217
 11
3.3764376401
 21
-23.2653793775
  0
LINE
  5
2E0
100
AcDbEntity
  8
0
100
AcDbLine
 62
7
  6
CONTINUOUS
 10
3.7256849747
 20
-23.7026676925
 11
3.7620200965
 21
-23.7196880797
  0
LINE
  5
2E1
100
AcDbEntity
  8
0
100
AcDbLine
 62
7
  6
CONTINUOUS
 10
3.6559063598
 20
-23.7812116839
 11
3.6195158874
 21
-23.764161596
  0
LINE
  5
2E2
100
AcDbEntity
  8
0
100
AcDbLine
 62
7
  6
CONTINUOUS
 10
3.8580715926
 20
-24.4917523343
 11
3.8750218295
 21
-24.4997887648
  0
LINE
  5
2E3
100
AcDbEntity
  8
RACCORDO
100
AcDbLine
 62
7
  6
CONTINUOUS
 10
16.0049926094
 20
-28.3302356787
 11
15.9504910035
 21
-28.3041533641
  0
LINE
  5
2E4
100
AcDbEntity
  8
0
100
AcDbLine
 62
7
  6
CONTINUOUS
 10
3.3764376401
 20
-23.2653793775
 11
3.4183954431
 21
-23.285496432
  0
LINE
  5
2E5
100
AcDbEntity
  8
0
100
AcDbLine
 62
7
  6
CONTINUOUS
 10
3.4183954431
 20
-23.285496432
 11
3.4604399329
 21
-23.3061649473
  0
LINE
  5
2E6
100
AcDbEntity
  8
RACCORDO
100
AcDbLine
 62
7
  6
CONTINUOUS
 10
44.6180592513
 20
-60.3048996553
 11
44.6459609883
 21
-60.3186689044
  0
LINE
  5
2E7
100
AcDbEntity
  8
RACCORDO
100
AcDbLine
 62
7
  6
CONTINUOUS
 10
44.6782377481
 20
-60.4008642067
 11
44.7225403602
 21
-60.4231973802
  0
LINE
  5
2E8
100
AcDbEntity
  8
0
100
AcDbLine
 62
7
  6
CONTINUOUS
 10
3.7620200965
 20
-23.7196880797
 11
3.7982632894
 21
-23.737974588
  0
LINE
  5
2E9
100
AcDbEntity
  8
0
100
AcDbLine
 62
7
  6
CONTINUOUS
 10
3.6921817346
 20
-23.7995229984
 11
3.6559063598
 21
-23.7812116839
  0
LINE
  5
2EA
100
AcDbEntity
  8
0
100
AcDbLine
 62
7
  6
CONTINUOUS
 10
3.4604399329
 20
-23.3061649473
 11
3.5026351826
 21
-23.3275545249
  0
LINE
  5
2EB
100
AcDbEntity
  8
0
100
AcDbLine
 62
7
  6
CONTINUOUS
 10
3.8409778437
 20
-24.4830532071
 11
3.8580715926
 21
-24.4917523343
  0
LINE
  5
2EC
100
AcDbEntity
  8
RACCORDO
100
AcDbLine
 62
7
  6
CONTINUOUS
 10
44.9878899166
 20
-60.0472573815
 11
45.006486349
 21
-60.0568270565
  0
LINE
  5
2ED
100
AcDbEntity
  8
RACCORDO
100
AcDbLine
 62
7
  6
CONTINUOUS
 10
16.2951680539
 20
-27.6874309506
 11
16.2626329575
 21
-27.670610919
  0
LINE
  5
2EE
100
AcDbEntity
  8
0
100
AcDbLine
 62
7
  6
CONTINUOUS
 10
3.5026351826
 20
-23.3275545249
 11
3.5449890006
 21
-23.3496641937
  0
LINE
  5
2EF
100
AcDbEntity
  8
0
100
AcDbLine
 62
7
  6
CONTINUOUS
 10
-2.7023154071
 20
-12.7787563611
 11
-2.697427198
 21
-12.7813153815
  0
LINE
  5
2F0
100
AcDbEntity
  8
0
100
AcDbLine
 62
7
  6
CONTINUOUS
 10
-1.1224179119
 20
-13.6909692809
 11
-1.1175305526
 21
-13.6935279038
  0
LINE
  5
2F1
100
AcDbEntity
  8
RACCORDO
100
AcDbLine
 62
7
  6
CONTINUOUS
 10
-15.9613835675
 20
-8.8747405101
 11
-15.9303407431
 21
-8.8910602137
  0
LINE
  5
2F2
100
AcDbEntity
  8
0
100
AcDbLine
 62
7
  6
CONTINUOUS
 10
-2.7961978848
 20
-12.7905172857
 11
-2.8123635779
 21
-12.7818519132
  0
LINE
  5
2F3
100
AcDbEntity
  8
0
100
AcDbLine
 62
7
  6
CONTINUOUS
 10
3.5449890006
 20
-23.3496641937
 11
3.5874935043
 21
-23.3724949739
  0
LINE
  5
2F4
100
AcDbEntity
  8
0
100
AcDbLine
 62
7
  6
CONTINUOUS
 10
-2.6974115706
 20
-12.7813303218
 11
-2.7236149143
 21
-12.767225936
  0
LINE
  5
2F5
100
AcDbEntity
  8
0
100
AcDbLine
 62
7
  6
CONTINUOUS
 10
3.7982632894
 20
-23.737974588
 11
3.8343590365
 21
-23.7574823566
  0
LINE
  5
2F6
100
AcDbEntity
  8
0
100
AcDbLine
 62
7
  6
CONTINUOUS
 10
3.7282847096
 20
-23.8190466867
 11
3.6921817346
 21
-23.7995229984
  0
LINE
  5
2F7
100
AcDbEntity
  8
0
100
AcDbLine
 62
7
  6
CONTINUOUS
 10
3.8237405677
 20
-24.4736913933
 11
3.8409778437
 21
-24.4830532071
  0
LINE
  5
2F8
100
AcDbEntity
  8
RACCORDO
100
AcDbLine
 62
7
  6
CONTINUOUS
 10
15.9504910035
 20
-28.3041533641
 11
15.8954735074
 21
-28.2741377811
  0
LINE
  5
2F9
100
AcDbEntity
  8
RACCORDO
100
AcDbLine
 62
7
  6
CONTINUOUS
 10
44.5895588599
 20
-60.2892456949
 11
44.6180592513
 21
-60.3048996553
  0
LINE
  5
2FA
100
AcDbEntity
  8
0
100
AcDbLine
 62
7
  6
CONTINUOUS
 10
3.5874935043
 20
-23.3724949739
 11
3.6301892272
 21
-23.3962194558
  0
LINE
  5
2FB
100
AcDbEntity
  8
0
100
AcDbLine
 62
7
  6
CONTINUOUS
 10
-3.2129294271
 20
-12.7842543569
 11
-3.227191119
 21
-12.7763314049
  0
LINE
  5
2FC
100
AcDbEntity
  8
RACCORDO
100
AcDbLine
 62
7
  6
CONTINUOUS
 10
-14.6601521414
 20
-9.8159189066
 11
-14.6790929127
 21
-9.8053878753
  0
LINE
  5
2FD
100
AcDbEntity
  8
RACCORDO
100
AcDbLine
 62
7
  6
CONTINUOUS
 10
44.6481017471
 20
-60.3840943765
 11
44.6782377481
 21
-60.4008642067
  0
LINE
  5
2FE
100
AcDbEntity
  8
0
100
AcDbLine
 62
7
  6
CONTINUOUS
 10
3.6301892272
 20
-23.3962194558
 11
3.6731199017
 21
-23.4208609926
  0
LINE
  5
2FF
100
AcDbEntity
  8
0
100
AcDbLine
 62
7
  6
CONTINUOUS
 10
3.8343590365
 20
-23.7574823566
 11
3.8701409803
 21
-23.7780766758
  0
LINE
  5
300
100
AcDbEntity
  8
0
100
AcDbLine
 62
7
  6
CONTINUOUS
 10
3.7640435721
 20
-23.839636062
 11
3.7282847096
 21
-23.8190466867
  0
LINE
  5
301
100
AcDbEntity
  8
RACCORDO
100
AcDbLine
 62
7
  6
CONTINUOUS
 10
-40.0323701641
 20
-11.4906566293
 11
44.648158317
 21
-60.384132478
  0
LINE
  5
302
100
AcDbEntity
  8
RACCORDO
100
AcDbLine
 62
7
  6
CONTINUOUS
 10
-40.0909695554
 20
-11.3957698842
 11
44.5895588599
 21
-60.2892456949
  0
LINE
  5
303
100
AcDbEntity
  8
0
100
AcDbLine
 62
7
  6
CONTINUOUS
 10
4.7229199451
 20
-26.1563337297
 11
4.3254321787
 21
-25.9268292751
  0
LINE
  5
304
100
AcDbEntity
  8
0
100
AcDbLine
 62
7
  6
CONTINUOUS
 10
3.6926138401
 20
-25.5614478975
 11
3.2810377118
 21
-25.3238089993
  0
LINE
  5
305
100
AcDbEntity
  8
0
100
AcDbLine
 62
7
  6
CONTINUOUS
 10
3.0677666462
 20
-25.200668695
 11
2.6322298812
 21
-24.9491952254
  0
LINE
  5
306
100
AcDbEntity
  8
0
100
AcDbLine
 62
7
  6
CONTINUOUS
 10
1.8483885793
 20
-24.4966150815
 11
1.4396334836
 21
-24.2606050122
  0
LINE
  5
307
100
AcDbEntity
  8
0
100
AcDbLine
 62
7
  6
CONTINUOUS
 10
1.2262512844
 20
-24.1374008047
 11
0.821994095
 21
-23.90398777
  0
LINE
  5
308
100
AcDbEntity
  8
0
100
AcDbLine
 62
7
  6
CONTINUOUS
 10
0.2457515658
 20
-23.5712725557
 11
0.1877949727
 21
-23.5378091452
  0
LINE
  5
309
100
AcDbEntity
  8
0
100
AcDbLine
 62
7
  6
CONTINUOUS
 10
-0.3861607732
 20
-23.2064142909
 11
-0.7814963964
 21
-22.9781524568
  0
LINE
  5
30A
100
AcDbEntity
  8
0
100
AcDbLine
 62
7
  6
CONTINUOUS
 10
-0.9968846574
 20
-22.8537899743
 11
-1.4101235172
 21
-22.6151910357
  0
LINE
  5
30B
100
AcDbEntity
  8
0
100
AcDbLine
 62
7
  6
CONTINUOUS
 10
-2.2563973982
 20
-22.1265631031
 11
-2.6205644616
 21
-21.9162976048
  0
LINE
  5
30C
100
AcDbEntity
  8
0
100
AcDbLine
 62
7
  6
CONTINUOUS
 10
4.6819445811
 20
-26.0097210823
 11
4.4319065939
 21
-25.8653522822
  0
LINE
  5
30D
100
AcDbEntity
  8
0
100
AcDbLine
 62
7
  6
CONTINUOUS
 10
3.6824351446
 20
-25.4326168605
 11
3.387512127
 21
-25.2623320064
  0
LINE
  5
30E
100
AcDbEntity
  8
0
100
AcDbLine
 62
7
  6
CONTINUOUS
 10
3.0218571278
 20
-25.0512071287
 11
2.7387042964
 21
-24.8877182326
  0
LINE
  5
30F
100
AcDbEntity
  8
0
100
AcDbLine
 62
7
  6
CONTINUOUS
 10
1.8718676959
 20
-24.3872176435
 11
1.5461078987
 21
-24.1991280193
  0
LINE
  5
310
100
AcDbEntity
  8
0
100
AcDbLine
 62
7
  6
CONTINUOUS
 10
1.2052172862
 20
-24.002302052
 11
0.9284685101
 21
-23.8425107772
  0
LINE
  5
311
100
AcDbEntity
  8
0
100
AcDbLine
 62
7
  6
CONTINUOUS
 10
-0.388247556
 20
-23.0822554229
 11
-0.6750219812
 21
-22.9166754639
  0
LINE
  5
312
100
AcDbEntity
  8
0
100
AcDbLine
 62
7
  6
CONTINUOUS
 10
-1.0070138338
 20
-22.724987529
 11
-1.3036491021
 21
-22.5537140429
  0
LINE
  5
313
100
AcDbEntity
  8
0
100
AcDbLine
 62
7
  6
CONTINUOUS
 10
-2.2290418872
 20
-22.0194038467
 11
-2.5140900465
 21
-21.854820612
  0
LINE
  5
314
100
AcDbEntity
  8
0
100
AcDbLine
 62
7
  6
CONTINUOUS
 10
2.491147039
 20
-24.4506941088
 11
1.9283840863
 21
-24.125761833
  0
LINE
  5
315
100
AcDbEntity
  8
0
100
AcDbLine
 62
7
  6
CONTINUOUS
 10
2.597590711
 20
-24.3892348666
 11
2.0348277584
 21
-24.0643025908
  0
LINE
  5
316
100
AcDbEntity
  8
0
100
AcDbLine
 62
7
  6
CONTINUOUS
 10
2.383142138
 20
-24.0645715093
 11
1.9874953878
 21
-23.8361300344
  0
LINE
  5
317
100
AcDbEntity
  8
0
100
AcDbLine
 62
7
  6
CONTINUOUS
 10
3.8487238487
 20
-24.832608851
 11
3.6271550378
 21
-24.7046777965
  0
LINE
  5
318
100
AcDbEntity
  8
0
100
AcDbLine
 62
7
  6
CONTINUOUS
 10
3.9551391479
 20
-24.771165991
 11
3.7335703369
 21
-24.6432349364
  0
LINE
  5
319
100
AcDbEntity
  8
0
100
AcDbLine
 62
7
  6
CONTINUOUS
 10
3.8237405655
 20
-24.473691392
 11
3.5875786462
 21
-24.3373344596
  0
LINE
  5
31A
100
AcDbEntity
  8
0
100
AcDbLine
 62
7
  6
CONTINUOUS
 10
2.3032540306
 20
-22.6547839651
 11
1.9034947474
 21
-22.4239679651
  0
LINE
  5
31B
100
AcDbEntity
  8
0
100
AcDbLine
 62
7
  6
CONTINUOUS
 10
0.884032738
 20
-21.8353433778
 11
0.4751736976
 21
-21.599273292
  0
LINE
  5
31C
100
AcDbEntity
  8
0
100
AcDbLine
 62
7
  6
CONTINUOUS
 10
-0.3469397589
 20
-21.1245952858
 11
-0.7598370861
 21
-20.8861935439
  0
LINE
  5
31D
100
AcDbEntity
  8
0
100
AcDbLine
 62
7
  6
CONTINUOUS
 10
-1.7771410056
 20
-20.2988150106
 11
-2.1900977297
 21
-20.0603789736
  0
LINE
  5
31E
100
AcDbEntity
  8
0
100
AcDbLine
 62
7
  6
CONTINUOUS
 10
-2.9563547003
 20
-19.6179518022
 11
-3.4052600261
 21
-19.3587594932
  0
LINE
  5
31F
100
AcDbEntity
  8
0
100
AcDbLine
 62
7
  6
CONTINUOUS
 10
-1.1539882448
 20
-20.6584881663
 11
-1.5672271046
 21
-20.4198892278
  0
LINE
  5
320
100
AcDbEntity
  8
RACCORDO
100
AcDbLine
 62
7
  6
CONTINUOUS
 10
15.8954735074
 20
-28.2741377811
 11
-14.9946922016
 21
-10.4385432454
  0
LINE
  5
321
100
AcDbEntity
  8
RACCORDO
100
AcDbLine
 62
7
  6
CONTINUOUS
 10
16.2300468312
 20
-27.6515324143
 11
-14.6601519388
 21
-9.8159187896
  0
LINE
  5
322
100
AcDbEntity
  8
0
100
AcDbLine
 62
7
  6
CONTINUOUS
 10
16.5459219899
 20
-25.5129091379
 11
-12.650216003
 21
-8.6554249744
  0
LINE
  5
323
100
AcDbEntity
  8
0
100
AcDbLine
 62
7
  6
CONTINUOUS
 10
-1.2163012661
 20
-13.7027297925
 11
-2.7961978848
 21
-12.7905172857
  0
LINE
  5
324
100
AcDbEntity
  8
0
100
AcDbLine
 62
7
  6
CONTINUOUS
 10
-1.1175305526
 20
-13.6935279038
 11
-2.6974271636
 21
-12.7813154014
  0
LINE
  5
325
100
AcDbEntity
  8
DRAFT
100
AcDbLine
 62
7
  6
CONTINUOUS
 10
47.8081890407
 20
-24.4189104473
 11
48.1617424313
 21
-24.6230477439
  0
LINE
  5
326
100
AcDbEntity
  8
RACCORDO
100
AcDbLine
 62
7
  6
CONTINUOUS
 10
16.2626329575
 20
-27.670610919
 11
16.2300460013
 21
-27.6515329987
  0
LINE
  5
327
100
AcDbEntity
  8
0
100
AcDbLine
 62
7
  6
CONTINUOUS
 10
-1.1117721707
 20
-13.696911123
 11
-1.1175156309
 21
-13.6935424367
  0
LINE
  5
328
100
AcDbEntity
  8
RACCORDO
100
AcDbLine
 62
7
  6
CONTINUOUS
 10
-14.6790929127
 20
-9.8053878753
 11
-14.6978130684
 21
-9.7943433268
  0
LINE
  5
329
100
AcDbEntity
  8
0
100
AcDbLine
 62
7
  6
CONTINUOUS
 10
3.6731199017
 20
-23.4208609926
 11
3.7162417769
 21
-23.4463962433
  0
LINE
  5
32A
100
AcDbEntity
  8
RACCORDO
100
AcDbLine
 62
7
  6
CONTINUOUS
 10
-14.9946922016
 20
-10.4385432454
 11
-15.0244988849
 21
-10.4207420135
  0
LINE
  5
32B
100
AcDbEntity
  8
0
100
AcDbLine
 62
7
  6
CONTINUOUS
 10
-1.20902719
 20
-13.9412823938
 11
-1.1937475833
 21
-13.9504162105
  0
LINE
  5
32C
100
AcDbEntity
  8
RACCORDO
100
AcDbLine
 62
7
  6
CONTINUOUS
 10
-40.1197561694
 20
-11.3783559532
 11
-40.0909695554
 21
-11.3957698842
  0
LINE
  5
32D
100
AcDbEntity
  8
RACCORDO
100
AcDbLine
 62
7
  6
CONTINUOUS
 10
-40.0721211674
 20
-11.4665980418
 11
-40.0322653955
 21
-11.4907121068
  0
LINE
  5
32E
100
AcDbEntity
  8
0
100
AcDbLine
 62
7
  6
CONTINUOUS
 10
3.8657633744
 20
-24.8430092052
 11
3.8487238546
 21
-24.8326088544
  0
LINE
  5
32F
100
AcDbEntity
  8
0
100
AcDbLine
 62
7
  6
CONTINUOUS
 10
3.9551391479
 20
-24.771165991
 11
3.9725433759
 21
-24.7817989086
  0
LINE
  5
330
100
AcDbEntity
  8
0
100
AcDbLine
 62
7
  6
CONTINUOUS
 10
3.7994010959
 20
-23.8612422214
 11
3.7640435721
 21
-23.839636062
  0
LINE
  5
331
100
AcDbEntity
  8
0
100
AcDbLine
 62
7
  6
CONTINUOUS
 10
3.8701409803
 20
-23.7780766758
 11
3.9055536795
 21
-23.7997126348
  0
LINE
  5
332
100
AcDbEntity
  8
0
100
AcDbLine
 62
7
  6
CONTINUOUS
 10
3.7162417769
 20
-23.4463962433
 11
3.7594641786
 21
-23.4729277456
  0
LINE
  5
333
100
AcDbEntity
  8
0
100
AcDbLine
 62
7
  6
CONTINUOUS
 10
-1.2013035586
 20
-13.7120577762
 11
-1.2163012661
 21
-13.7027297925
  0
LINE
  5
334
100
AcDbEntity
  8
RACCORDO
100
AcDbLine
 62
7
  6
CONTINUOUS
 10
-14.6978130684
 20
-9.7943433268
 11
-14.7162950423
 21
-9.7828206058
  0
LINE
  5
335
100
AcDbEntity
  8
RACCORDO
100
AcDbLine
 62
7
  6
CONTINUOUS
 10
-15.0244988849
 20
-10.4207420135
 11
-15.0539075458
 21
-10.4022254912
  0
LINE
  5
336
100
AcDbEntity
  8
0
100
AcDbLine
 62
7
  6
CONTINUOUS
 10
-12.1949414947
 20
23.4823166591
 11
-12.2098224257
 21
23.4916900206
  0
LINE
  5
337
100
AcDbEntity
  8
RACCORDO
100
AcDbLine
 62
7
  6
CONTINUOUS
 10
16.7695856002
 20
-27.7731889912
 11
16.7410467252
 21
-27.7551073201
  0
LINE
  5
338
100
AcDbEntity
  8
RACCORDO
100
AcDbLine
 62
7
  6
CONTINUOUS
 10
-42.3074579823
 20
5.7184114075
 11
-42.3245813585
 21
5.7292638432
  0
LINE
  5
339
100
AcDbEntity
  8
0
100
AcDbLine
 62
7
  6
CONTINUOUS
 10
3.7594641786
 20
-23.4729277456
 11
3.8027885591
 21
-23.5004046498
  0
LINE
  5
33A
100
AcDbEntity
  8
RACCORDO
100
AcDbLine
 62
7
  6
CONTINUOUS
 10
-40.6716898147
 20
-10.5884896178
 11
-40.6888581716
 21
-10.5774087186
  0
LINE
  5
33B
100
AcDbEntity
  8
0
100
AcDbLine
 62
7
  6
CONTINUOUS
 10
3.9055536795
 20
-23.7997126348
 11
3.940652607
 21
-23.8224351235
  0
LINE
  5
33C
100
AcDbEntity
  8
0
100
AcDbLine
 62
7
  6
CONTINUOUS
 10
3.8344145391
 20
-23.8839140469
 11
3.7994010959
 21
-23.8612422214
  0
LINE
  5
33D
100
AcDbEntity
  8
0
100
AcDbLine
 62
7
  6
CONTINUOUS
 10
-1.0815554609
 20
-13.7165361514
 11
-1.1117721707
 21
-13.696911123
  0
LINE
  5
33E
100
AcDbEntity
  8
0
100
AcDbLine
 62
7
  6
CONTINUOUS
 10
3.8027885591
 20
-23.5004046498
 11
3.846213548
 21
-23.5288777515
  0
LINE
  5
33F
100
AcDbEntity
  8
RACCORDO
100
AcDbLine
 62
7
  6
CONTINUOUS
 10
-14.7162950423
 20
-9.7828206058
 11
-14.7345047393
 21
-9.7708681771
  0
LINE
  5
340
100
AcDbEntity
  8
RACCORDO
100
AcDbLine
 62
7
  6
CONTINUOUS
 10
-40.1485748787
 20
-11.3593758063
 11
-40.1197561694
 21
-11.3783559532
  0
LINE
  5
341
100
AcDbEntity
  8
RACCORDO
100
AcDbLine
 62
7
  6
CONTINUOUS
 10
-40.0422758983
 20
-11.4841262855
 11
-40.0323701641
 21
-11.4906566293
  0
LINE
  5
342
100
AcDbEntity
  8
RACCORDO
100
AcDbLine
 62
7
  6
CONTINUOUS
 10
44.6382518556
 20
-60.3776015907
 11
44.6480994035
 21
-60.3840984354
  0
LINE
  5
343
100
AcDbEntity
  8
RACCORDO
100
AcDbLine
 62
7
  6
CONTINUOUS
 10
-15.0539075458
 20
-10.4022254912
 11
-15.0829181535
 21
-10.3829936586
  0
LINE
  5
344
100
AcDbEntity
  8
RACCORDO
100
AcDbLine
 62
7
  6
CONTINUOUS
 10
-40.1193228135
 20
-11.435169581
 11
-40.0721211674
 21
-11.4665980418
  0
LINE
  5
345
100
AcDbEntity
  8
0
100
AcDbLine
 62
7
  6
CONTINUOUS
 10
-11.9441252475
 20
23.4910251609
 11
-11.9692374616
 21
23.5078581648
  0
LINE
  5
346
100
AcDbEntity
  8
0
100
AcDbLine
 62
7
  6
CONTINUOUS
 10
3.940652607
 20
-23.8224351235
 11
3.9754378322
 21
-23.8462440958
  0
LINE
  5
347
100
AcDbEntity
  8
0
100
AcDbLine
 62
7
  6
CONTINUOUS
 10
3.846213548
 20
-23.5288777515
 11
3.889644292
 21
-23.5586020194
  0
LINE
  5
348
100
AcDbEntity
  8
0
100
AcDbLine
 62
7
  6
CONTINUOUS
 10
3.8690839706
 20
-23.9076514926
 11
3.8344145391
 21
-23.8839140469
  0
LINE
  5
349
100
AcDbEntity
  8
0
100
AcDbLine
 62
7
  6
CONTINUOUS
 10
3.8826489466
 20
-24.8545764686
 11
3.8657633744
 21
-24.8430092052
  0
LINE
  5
34A
100
AcDbEntity
  8
0
100
AcDbLine
 62
7
  6
CONTINUOUS
 10
3.9725433759
 20
-24.7817989086
 11
3.9897817733
 21
-24.793647468
  0
LINE
  5
34B
100
AcDbEntity
  8
RACCORDO
100
AcDbLine
 62
7
  6
CONTINUOUS
 10
-14.7345047393
 20
-9.7708681771
 11
-14.7524450003
 21
-9.7585076604
  0
LINE
  5
34C
100
AcDbEntity
  8
RACCORDO
100
AcDbLine
 62
7
  6
CONTINUOUS
 10
-15.0829181535
 20
-10.3829936586
 11
-15.1115247679
 21
-10.3630188841
  0
LINE
  5
34D
100
AcDbEntity
  8
RACCORDO
100
AcDbLine
 62
7
  6
CONTINUOUS
 10
-14.9131672975
 20
27.1565062418
 11
-14.895474316
 21
27.1440093966
  0
LINE
  5
34E
100
AcDbEntity
  8
RACCORDO
100
AcDbLine
 62
7
  6
CONTINUOUS
 10
15.9769984401
 20
9.320911683
 11
15.9946914235
 21
9.3084148422
  0
LINE
  5
34F
100
AcDbEntity
  8
0
100
AcDbLine
 62
7
  6
CONTINUOUS
 10
3.889644292
 20
-23.5586020194
 11
3.9331711874
 21
-23.5895620618
  0
LINE
  5
350
100
AcDbEntity
  8
RACCORDO
100
AcDbLine
 62
7
  6
CONTINUOUS
 10
-40.1774255779
 20
-11.3388293602
 11
-40.1485748787
 21
-11.3593758063
  0
LINE
  5
351
100
AcDbEntity
  8
RACCORDO
100
AcDbLine
 62
7
  6
CONTINUOUS
 10
15.9832489531
 20
9.501273053
 11
16.0115178089
 21
9.4811032611
  0
LINE
  5
352
100
AcDbEntity
  8
0
100
AcDbLine
 62
7
  6
CONTINUOUS
 10
-1.1937475833
 20
-13.9504162105
 11
-1.1786488182
 21
-13.9612461094
  0
LINE
  5
353
100
AcDbEntity
  8
0
100
AcDbLine
 62
7
  6
CONTINUOUS
 10
-1.1876418077
 20
-13.7218755763
 11
-1.2013035586
 21
-13.7120577762
  0
LINE
  5
354
100
AcDbEntity
  8
RACCORDO
100
AcDbLine
 62
7
  6
CONTINUOUS
 10
-14.7524450003
 20
-9.7585076604
 11
-14.7701551075
 21
-9.7457279406
  0
LINE
  5
355
100
AcDbEntity
  8
RACCORDO
100
AcDbLine
 62
7
  6
CONTINUOUS
 10
-40.1659867279
 20
-11.4010012167
 11
-40.1193228135
 21
-11.435169581
  0
LINE
  5
356
100
AcDbEntity
  8
RACCORDO
100
AcDbLine
 62
7
  6
CONTINUOUS
 10
-15.5965752292
 20
27.2364916413
 11
-15.5628157817
 21
27.211779728
  0
LINE
  5
357
100
AcDbEntity
  8
0
100
AcDbLine
 62
7
  6
CONTINUOUS
 10
3.9754378322
 20
-23.8462440958
 11
3.9935834575
 21
-23.859548337
  0
LINE
  5
358
100
AcDbEntity
  8
RACCORDO
100
AcDbLine
 62
7
  6
CONTINUOUS
 10
-15.1115247679
 20
-10.3630188841
 11
-15.1397332085
 21
-10.3423287223
  0
LINE
  5
359
100
AcDbEntity
  8
RACCORDO
100
AcDbLine
 62
7
  6
CONTINUOUS
 10
-42.3245813617
 20
42.7440818281
 11
-42.3400760503
 21
42.7554441883
  0
LINE
  5
35A
100
AcDbEntity
  8
RACCORDO
100
AcDbLine
 62
7
  6
CONTINUOUS
 10
16.7410447034
 20
7.9575901937
 11
16.7152208827
 21
7.9765386088
  0
LINE
  5
35B
100
AcDbEntity
  8
0
100
AcDbLine
 62
7
  6
CONTINUOUS
 10
3.8901476266
 20
-23.923184614
 11
3.8690839706
 21
-23.9076514926
  0
LINE
  5
35C
100
AcDbEntity
  8
0
100
AcDbLine
 62
7
  6
CONTINUOUS
 10
3.9331711874
 20
-23.5895620618
 11
3.9767041213
 21
-23.6217730836
  0
LINE
  5
35D
100
AcDbEntity
  8
RACCORDO
100
AcDbLine
 62
7
  6
CONTINUOUS
 10
16.0596302736
 20
9.2666646956
 11
16.0885626823
 21
9.2451330205
  0
LINE
  5
35E
100
AcDbEntity
  8
RACCORDO
100
AcDbLine
 62
7
  6
CONTINUOUS
 10
16.0115178089
 20
9.4811032611
 11
16.0392964114
 21
9.4601649164
  0
LINE
  5
35F
100
AcDbEntity
  8
RACCORDO
100
AcDbLine
 62
7
  6
CONTINUOUS
 10
-14.7701551075
 20
-9.7457279406
 11
-14.7876212241
 21
-9.7325570296
  0
LINE
  5
360
100
AcDbEntity
  8
0
100
AcDbLine
 62
7
  6
CONTINUOUS
 10
-12.1802775929
 20
23.471227443
 11
-12.1949414947
 21
23.4823166591
  0
LINE
  5
361
100
AcDbEntity
  8
RACCORDO
100
AcDbLine
 62
7
  6
CONTINUOUS
 10
16.7410467252
 20
-27.7551073201
 11
16.7152225255
 21
-27.7355628941
  0
LINE
  5
362
100
AcDbEntity
  8
RACCORDO
100
AcDbLine
 62
7
  6
CONTINUOUS
 10
-42.3245813585
 20
5.7292638432
 11
-42.340076047
 21
5.7409969102
  0
LINE
  5
363
100
AcDbEntity
  8
0
100
AcDbLine
 62
7
  6
CONTINUOUS
 10
3.8993806227
 20
-24.86731061
 11
3.8826489466
 21
-24.8545764686
  0
LINE
  5
364
100
AcDbEntity
  8
0
100
AcDbLine
 62
7
  6
CONTINUOUS
 10
3.9897817733
 20
-24.793647468
 11
4.0068543966
 21
-24.8067116317
  0
LINE
  5
365
100
AcDbEntity
  8
RACCORDO
100
AcDbLine
 62
7
  6
CONTINUOUS
 10
-40.2064099742
 20
-11.3166367732
 11
-40.1774255779
 21
-11.3388293602
  0
LINE
  5
366
100
AcDbEntity
  8
RACCORDO
100
AcDbLine
 62
7
  6
CONTINUOUS
 10
-15.1397332085
 20
-10.3423287223
 11
-15.1675610641
 21
-10.3210059209
  0
LINE
  5
367
100
AcDbEntity
  8
0
100
AcDbLine
 62
7
  6
CONTINUOUS
 10
-1.0539373665
 20
-13.7378028069
 11
-1.0815554609
 21
-13.7165361514
  0
LINE
  5
368
100
AcDbEntity
  8
RACCORDO
100
AcDbLine
 62
7
  6
CONTINUOUS
 10
-40.6888581716
 20
-10.5774087186
 11
-40.7044179109
 21
-10.5652392812
  0
LINE
  5
369
100
AcDbEntity
  8
0
100
AcDbLine
 62
7
  6
CONTINUOUS
 10
3.9767041213
 20
-23.6217730836
 11
4.0198776314
 21
-23.6555358463
  0
LINE
  5
36A
100
AcDbEntity
  8
RACCORDO
100
AcDbLine
 62
7
  6
CONTINUOUS
 10
-14.7876212241
 20
-9.7325570296
 11
-14.8048314975
 21
-9.7190220818
  0
LINE
  5
36B
100
AcDbEntity
  8
RACCORDO
100
AcDbLine
 62
7
  6
CONTINUOUS
 10
16.0392964114
 20
9.4601649164
 11
16.0666115958
 21
9.4385461053
  0
LINE
  5
36C
100
AcDbEntity
  8
RACCORDO
100
AcDbLine
 62
7
  6
CONTINUOUS
 10
-40.2120335073
 20
-11.3642099865
 11
-40.1659867279
 21
-11.4010012167
  0
LINE
  5
36D
100
AcDbEntity
  8
RACCORDO
100
AcDbLine
 62
7
  6
CONTINUOUS
 10
-15.1675610641
 20
-10.3210059209
 11
-15.1950045863
 21
-10.2990637388
  0
LINE
  5
36E
100
AcDbEntity
  8
0
100
AcDbLine
 62
7
  6
CONTINUOUS
 10
3.9935834575
 20
-23.859548337
 11
4.0115215845
 21
-23.8739072962
  0
LINE
  5
36F
100
AcDbEntity
  8
RACCORDO
100
AcDbLine
 62
7
  6
CONTINUOUS
 10
16.0885626823
 20
9.2451330205
 11
16.1182487185
 21
9.2211666174
  0
LINE
  5
370
100
AcDbEntity
  8
0
100
AcDbLine
 62
7
  6
CONTINUOUS
 10
-11.9130281879
 20
23.2431085285
 11
-11.9228630332
 21
23.2510761537
  0
LINE
  5
371
100
AcDbEntity
  8
0
100
AcDbLine
 62
7
  6
CONTINUOUS
 10
3.9108995424
 20
-23.9401300735
 11
3.8901476266
 21
-23.923184614
  0
LINE
  5
372
100
AcDbEntity
  8
RACCORDO
100
AcDbLine
 62
7
  6
CONTINUOUS
 10
-40.235425938
 20
-11.2928775533
 11
-40.2064099742
 21
-11.3166367732
  0
LINE
  5
373
100
AcDbEntity
  8
RACCORDO
100
AcDbLine
 62
7
  6
CONTINUOUS
 10
-14.8048314975
 20
-9.7190220818
 11
-14.8218282602
 21
-9.7050999891
  0
LINE
  5
374
100
AcDbEntity
  8
0
100
AcDbLine
 62
7
  6
CONTINUOUS
 10
-11.9205040142
 20
23.4714499643
 11
-11.9441252475
 21
23.4910251609
  0
LINE
  5
375
100
AcDbEntity
  8
0
100
AcDbLine
 62
7
  6
CONTINUOUS
 10
4.0198776314
 20
-23.6555358463
 11
4.0625701891
 21
-23.690950411
  0
LINE
  5
376
100
AcDbEntity
  8
RACCORDO
100
AcDbLine
 62
7
  6
CONTINUOUS
 10
16.0666115958
 20
9.4385461053
 11
16.093460896
 21
9.416260827
  0
LINE
  5
377
100
AcDbEntity
  8
RACCORDO
100
AcDbLine
 62
7
  6
CONTINUOUS
 10
-15.1950045863
 20
-10.2990637388
 11
-15.2220673191
 21
-10.2764887865
  0
LINE
  5
378
100
AcDbEntity
  8
0
100
AcDbLine
 62
7
  6
CONTINUOUS
 10
3.9160496978
 20
-24.8812429673
 11
3.8993806227
 21
-24.86731061
  0
LINE
  5
379
100
AcDbEntity
  8
0
100
AcDbLine
 62
7
  6
CONTINUOUS
 10
-1.1753160136
 20
-13.7321831931
 11
-1.1876418077
 21
-13.7218755763
  0
LINE
  5
37A
100
AcDbEntity
  8
0
100
AcDbLine
 62
7
  6
CONTINUOUS
 10
-1.1786488182
 20
-13.9612461094
 11
-1.1638962548
 21
-13.9736534876
  0
LINE
  5
37B
100
AcDbEntity
  8
0
100
AcDbLine
 62
7
  6
CONTINUOUS
 10
4.0068543966
 20
-24.8067116317
 11
4.0238793312
 21
-24.8210564132
  0
LINE
  5
37C
100
AcDbEntity
  8
RACCORDO
100
AcDbLine
 62
7
  6
CONTINUOUS
 10
-15.6288097289
 20
27.2636492117
 11
-15.5965752292
 21
27.2364916413
  0
LINE
  5
37D
100
AcDbEntity
  8
RACCORDO
100
AcDbLine
 62
7
  6
CONTINUOUS
 10
-14.8218282602
 20
-9.7050999891
 11
-14.8385994859
 21
-9.6908129552
  0
LINE
  5
37E
100
AcDbEntity
  8
RACCORDO
100
AcDbLine
 62
7
  6
CONTINUOUS
 10
-40.2573107644
 20
-11.3249533898
 11
-40.2120335073
 21
-11.3642099865
  0
LINE
  5
37F
100
AcDbEntity
  8
RACCORDO
100
AcDbLine
 62
7
  6
CONTINUOUS
 10
-15.2220673191
 20
-10.2764887865
 11
-15.2487777842
 21
-10.2533238354
  0
LINE
  5
380
100
AcDbEntity
  8
0
100
AcDbLine
 62
7
  6
CONTINUOUS
 10
4.0115215845
 20
-23.8739072962
 11
4.0292523177
 21
-23.8893209044
  0
LINE
  5
381
100
AcDbEntity
  8
RACCORDO
100
AcDbLine
 62
7
  6
CONTINUOUS
 10
16.093460896
 20
9.416260827
 11
16.1198469827
 21
9.3932951879
  0
LINE
  5
382
100
AcDbEntity
  8
RACCORDO
100
AcDbLine
 62
7
  6
CONTINUOUS
 10
-42.3400760503
 20
42.7554441883
 11
-42.3538318437
 21
42.7674322467
  0
LINE
  5
383
100
AcDbEntity
  8
RACCORDO
100
AcDbLine
 62
7
  6
CONTINUOUS
 10
16.7152208827
 20
7.9765386088
 11
16.6922954162
 21
7.9965349989
  0
LINE
  5
384
100
AcDbEntity
  8
RACCORDO
100
AcDbLine
 62
7
  6
CONTINUOUS
 10
16.1182487185
 20
9.2211666174
 11
16.1485014718
 21
9.194776177
  0
LINE
  5
385
100
AcDbEntity
  8
RACCORDO
100
AcDbLine
 62
7
  6
CONTINUOUS
 10
-40.0540390012
 20
-11.4738578813
 11
-40.0422758983
 21
-11.4841262855
  0
LINE
  5
386
100
AcDbEntity
  8
RACCORDO
100
AcDbLine
 62
7
  6
CONTINUOUS
 10
-40.2641675176
 20
-11.2677905692
 11
-40.235425938
 21
-11.2928775533
  0
LINE
  5
387
100
AcDbEntity
  8
RACCORDO
100
AcDbLine
 62
7
  6
CONTINUOUS
 10
44.6264888679
 20
-60.367333112
 11
44.6382518556
 21
-60.3776015907
  0
LINE
  5
388
100
AcDbEntity
  8
0
100
AcDbLine
 62
7
  6
CONTINUOUS
 10
4.0625701891
 20
-23.690950411
 11
4.1049041092
 21
-23.727916198
  0
LINE
  5
389
100
AcDbEntity
  8
RACCORDO
100
AcDbLine
 62
7
  6
CONTINUOUS
 10
-14.8385994859
 20
-9.6908129552
 11
-14.8551342956
 21
-9.6761824831
  0
LINE
  5
38A
100
AcDbEntity
  8
0
100
AcDbLine
 62
7
  6
CONTINUOUS
 10
-12.1659913189
 20
23.4585438211
 11
-12.1802775929
 21
23.471227443
  0
LINE
  5
38B
100
AcDbEntity
  8
0
100
AcDbLine
 62
7
  6
CONTINUOUS
 10
3.9313398938
 20
-23.9584877545
 11
3.9108995424
 21
-23.9401300735
  0
LINE
  5
38C
100
AcDbEntity
  8
RACCORDO
100
AcDbLine
 62
7
  6
CONTINUOUS
 10
-15.2487777842
 20
-10.2533238354
 11
-15.2751346988
 21
-10.2295800938
  0
LINE
  5
38D
100
AcDbEntity
  8
RACCORDO
100
AcDbLine
 62
7
  6
CONTINUOUS
 10
16.1198469827
 20
9.3932951879
 11
16.1458044022
 21
9.3696954378
  0
LINE
  5
38E
100
AcDbEntity
  8
RACCORDO
100
AcDbLine
 62
7
  6
CONTINUOUS
 10
16.7152225255
 20
-27.7355628941
 11
16.6922966793
 21
-27.7146947258
  0
LINE
  5
38F
100
AcDbEntity
  8
RACCORDO
100
AcDbLine
 62
7
  6
CONTINUOUS
 10
-42.340076047
 20
5.7409969102
 11
-42.3538318402
 21
5.753527156
  0
LINE
  5
390
100
AcDbEntity
  8
0
100
AcDbLine
 62
7
  6
CONTINUOUS
 10
-1.028902768
 20
-13.7606476933
 11
-1.0539373665
 21
-13.7378028069
  0
LINE
  5
391
100
AcDbEntity
  8
0
100
AcDbLine
 62
7
  6
CONTINUOUS
 10
3.932565085
 20
-24.8963420629
 11
3.9160496978
 21
-24.8812429673
  0
LINE
  5
392
100
AcDbEntity
  8
0
100
AcDbLine
 62
7
  6
CONTINUOUS
 10
4.1049041092
 20
-23.727916198
 11
4.1468798782
 21
-23.7664328864
  0
LINE
  5
393
100
AcDbEntity
  8
RACCORDO
100
AcDbLine
 62
7
  6
CONTINUOUS
 10
-14.9293398237
 20
27.1713450739
 11
-14.9131672975
 21
27.1565062418
  0
LINE
  5
394
100
AcDbEntity
  8
RACCORDO
100
AcDbLine
 62
7
  6
CONTINUOUS
 10
15.9608259113
 20
9.3357505112
 11
15.9769984401
 21
9.320911683
  0
LINE
  5
395
100
AcDbEntity
  8
RACCORDO
100
AcDbLine
 62
7
  6
CONTINUOUS
 10
-14.8551342956
 20
-9.6761824831
 11
-14.8714755354
 21
-9.6611748959
  0
LINE
  5
396
100
AcDbEntity
  8
0
100
AcDbLine
 62
7
  6
CONTINUOUS
 10
4.0238793312
 20
-24.8210564132
 11
4.0407387204
 21
-24.8366166453
  0
LINE
  5
397
100
AcDbEntity
  8
RACCORDO
100
AcDbLine
 62
7
  6
CONTINUOUS
 10
-40.2926267213
 20
-11.2413652098
 11
-40.2641675176
 21
-11.2677905692
  0
LINE
  5
398
100
AcDbEntity
  8
RACCORDO
100
AcDbLine
 62
7
  6
CONTINUOUS
 10
-15.2751346988
 20
-10.2295800938
 11
-15.3011390731
 21
-10.2052461795
  0
LINE
  5
399
100
AcDbEntity
  8
RACCORDO
100
AcDbLine
 62
7
  6
CONTINUOUS
 10
-40.3017099271
 20
-11.2833564216
 11
-40.2573107644
 21
-11.3249533898
  0
LINE
  5
39A
100
AcDbEntity
  8
0
100
AcDbLine
 62
7
  6
CONTINUOUS
 10
4.0292523177
 20
-23.8893209044
 11
4.0468563665
 21
-23.9058244841
  0
LINE
  5
39B
100
AcDbEntity
  8
RACCORDO
100
AcDbLine
 62
7
  6
CONTINUOUS
 10
16.1485014718
 20
9.194776177
 11
16.1791496819
 21
9.1659773634
  0
LINE
  5
39C
100
AcDbEntity
  8
RACCORDO
100
AcDbLine
 62
7
  6
CONTINUOUS
 10
16.1458044022
 20
9.3696954378
 11
16.1713331638
 21
9.3454735313
  0
LINE
  5
39D
100
AcDbEntity
  8
RACCORDO
100
AcDbLine
 62
7
  6
CONTINUOUS
 10
-40.7044179109
 20
-10.5652392812
 11
-40.7182582536
 21
-10.5520679469
  0
LINE
  5
39E
100
AcDbEntity
  8
RACCORDO
100
AcDbLine
 62
7
  6
CONTINUOUS
 10
-14.8714755354
 20
-9.6611748959
 11
-14.8876119593
 21
-9.6458074224
  0
LINE
  5
39F
100
AcDbEntity
  8
RACCORDO
100
AcDbLine
 62
7
  6
CONTINUOUS
 10
-40.7182600782
 20
61.1703460359
 11
-40.7302830512
 21
61.1819298385
  0
LINE
  5
3A0
100
AcDbEntity
  8
RACCORDO
100
AcDbLine
 62
7
  6
CONTINUOUS
 10
-15.6592870058
 20
27.2930567479
 11
-15.6288097289
 21
27.2636492117
  0
LINE
  5
3A1
100
AcDbEntity
  8
RACCORDO
100
AcDbLine
 62
7
  6
CONTINUOUS
 10
-15.3011390731
 20
-10.2052461795
 11
-15.3268228636
 21
-10.1803309742
  0
LINE
  5
3A2
100
AcDbEntity
  8
0
100
AcDbLine
 62
7
  6
CONTINUOUS
 10
-1.1638962548
 20
-13.9736534876
 11
-1.149651463
 21
-13.9875024647
  0
LINE
  5
3A3
100
AcDbEntity
  8
0
100
AcDbLine
 62
7
  6
CONTINUOUS
 10
3.951617163
 20
-23.978327645
 11
3.9313398938
 21
-23.9584877545
  0
LINE
  5
3A4
100
AcDbEntity
  8
0
100
AcDbLine
 62
7
  6
CONTINUOUS
 10
-1.1642720007
 20
-13.743040341
 11
-1.1753160136
 21
-13.7321831931
  0
LINE
  5
3A5
100
AcDbEntity
  8
RACCORDO
100
AcDbLine
 62
7
  6
CONTINUOUS
 10
-40.3208107404
 20
-11.213611454
 11
-40.2926267213
 21
-11.2413652098
  0
LINE
  5
3A6
100
AcDbEntity
  8
RACCORDO
100
AcDbLine
 62
7
  6
CONTINUOUS
 10
16.5006650685
 20
8.6968718995
 11
16.4989905218
 21
8.6985223781
  0
LINE
  5
3A7
100
AcDbEntity
  8
RACCORDO
100
AcDbLine
 62
7
  6
CONTINUOUS
 10
-14.8876119593
 20
-9.6458074224
 11
-14.9035322237
 21
-9.6300973662
  0
LINE
  5
3A8
100
AcDbEntity
  8
RACCORDO
100
AcDbLine
 62
7
  6
CONTINUOUS
 10
16.1713331638
 20
9.3454735313
 11
16.1964335309
 21
9.3206176547
  0
LINE
  5
3A9
100
AcDbEntity
  8
0
100
AcDbLine
 62
7
  6
CONTINUOUS
 10
4.1468798782
 20
-23.7664328864
 11
4.1695907629
 21
-23.7891212604
  0
LINE
  5
3AA
100
AcDbEntity
  8
RACCORDO
100
AcDbLine
 62
7
  6
CONTINUOUS
 10
-15.3268228636
 20
-10.1803309742
 11
-15.3521875789
 21
-10.1548430301
  0
LINE
  5
3AB
100
AcDbEntity
  8
0
100
AcDbLine
 62
7
  6
CONTINUOUS
 10
3.9486533247
 20
-24.9125135979
 11
3.932565085
 21
-24.8963420629
  0
LINE
  5
3AC
100
AcDbEntity
  8
RACCORDO
100
AcDbLine
 62
7
  6
CONTINUOUS
 10
-40.3450950528
 20
-11.239566891
 11
-40.3017099271
 21
-11.2833564216
  0
LINE
  5
3AD
100
AcDbEntity
  8
0
100
AcDbLine
 62
7
  6
CONTINUOUS
 10
4.0468563665
 20
-23.9058244841
 11
4.0642533213
 21
-23.923382514
  0
LINE
  5
3AE
100
AcDbEntity
  8
RACCORDO
100
AcDbLine
 62
7
  6
CONTINUOUS
 10
16.1791496819
 20
9.1659773634
 11
16.2099368502
 21
9.1348902294
  0
LINE
  5
3AF
100
AcDbEntity
  8
0
100
AcDbLine
 62
7
  6
CONTINUOUS
 10
4.0407387204
 20
-24.8366166453
 11
4.0570787659
 21
-24.8531969788
  0
LINE
  5
3B0
100
AcDbEntity
  8
0
100
AcDbLine
 62
7
  6
CONTINUOUS
 10
-11.8986887357
 20
23.4492699679
 11
-11.9205040142
 21
23.4714499643
  0
LINE
  5
3B1
100
AcDbEntity
  8
RACCORDO
100
AcDbLine
 62
7
  6
CONTINUOUS
 10
-14.9035322237
 20
-9.6300973662
 11
-14.9192766502
 21
-9.6140029206
  0
LINE
  5
3B2
100
AcDbEntity
  8
0
100
AcDbLine
 62
7
  6
CONTINUOUS
 10
-12.1522391355
 20
23.4444047037
 11
-12.1659913189
 21
23.4585438211
  0
LINE
  5
3B3
100
AcDbEntity
  8
RACCORDO
100
AcDbLine
 62
7
  6
CONTINUOUS
 10
16.1964335309
 20
9.3206176547
 11
16.2211404374
 21
9.2951384091
  0
LINE
  5
3B4
100
AcDbEntity
  8
RACCORDO
100
AcDbLine
 62
7
  6
CONTINUOUS
 10
-15.3521875789
 20
-10.1548430301
 11
-15.3772313718
 21
-10.128773579
  0
LINE
  5
3B5
100
AcDbEntity
  8
0
100
AcDbLine
 62
7
  6
CONTINUOUS
 10
-11.9040944704
 20
23.2337946392
 11
-11.9130281879
 21
23.2431085285
  0
LINE
  5
3B6
100
AcDbEntity
  8
RACCORDO
100
AcDbLine
 62
7
  6
CONTINUOUS
 10
-40.3484363499
 20
-11.1847990171
 11
-40.3208107404
 21
-11.213611454
  0
LINE
  5
3B7
100
AcDbEntity
  8
RACCORDO
100
AcDbLine
 62
7
  6
CONTINUOUS
 10
-42.3538318437
 20
42.7674322467
 11
-42.3657509021
 21
42.7799607371
  0
LINE
  5
3B8
100
AcDbEntity
  8
RACCORDO
100
AcDbLine
 62
7
  6
CONTINUOUS
 10
16.6922954162
 20
7.9965349989
 11
16.6724313626
 21
8.0174371383
  0
LINE
  5
3B9
100
AcDbEntity
  8
RACCORDO
100
AcDbLine
 62
7
  6
CONTINUOUS
 10
-14.9192766502
 20
-9.6140029206
 11
-14.934833482
 21
-9.5975377057
  0
LINE
  5
3BA
100
AcDbEntity
  8
0
100
AcDbLine
 62
7
  6
CONTINUOUS
 10
3.9715833856
 20
-23.9995794139
 11
3.951617163
 21
-23.978327645
  0
LINE
  5
3BB
100
AcDbEntity
  8
0
100
AcDbLine
 62
7
  6
CONTINUOUS
 10
4.2659650907
 20
-24.9149505004
 11
4.28622255
 21
-24.9365745982
  0
LINE
  5
3BC
100
AcDbEntity
  8
RACCORDO
100
AcDbLine
 62
7
  6
CONTINUOUS
 10
16.2211404374
 20
9.2951384091
 11
16.2454566495
 21
9.2690450726
  0
LINE
  5
3BD
100
AcDbEntity
  8
RACCORDO
100
AcDbLine
 62
7
  6
CONTINUOUS
 10
-15.3772313718
 20
-10.128773579
 11
-15.4019811505
 21
-10.102105514
  0
LINE
  5
3BE
100
AcDbEntity
  8
0
100
AcDbLine
 62
7
  6
CONTINUOUS
 10
4.1695907629
 20
-23.7891212604
 11
4.1925813313
 21
-23.8139807695
  0
LINE
  5
3BF
100
AcDbEntity
  8
RACCORDO
100
AcDbLine
 62
7
  6
CONTINUOUS
 10
16.2099368502
 20
9.1348902294
 11
16.2406829165
 21
9.1015904199
  0
LINE
  5
3C0
100
AcDbEntity
  8
RACCORDO
100
AcDbLine
 62
7
  6
CONTINUOUS
 10
-40.3872147997
 20
-11.1938443127
 11
-40.3450950528
 21
-11.239566891
  0
LINE
  5
3C1
100
AcDbEntity
  8
0
100
AcDbLine
 62
7
  6
CONTINUOUS
 10
-1.0064402563
 20
-13.7850555344
 11
-1.028902768
 21
-13.7606476933
  0
LINE
  5
3C2
100
AcDbEntity
  8
0
100
AcDbLine
 62
7
  6
CONTINUOUS
 10
4.0642533213
 20
-23.923382514
 11
4.0812016598
 21
-23.9418886247
  0
LINE
  5
3C3
100
AcDbEntity
  8
RACCORDO
100
AcDbLine
 62
7
  6
CONTINUOUS
 10
-14.934833482
 20
-9.5975377057
 11
-14.9501900006
 21
-9.5807159483
  0
LINE
  5
3C4
100
AcDbEntity
  8
RACCORDO
100
AcDbLine
 62
7
  6
CONTINUOUS
 10
-15.6877874474
 20
27.3245023454
 11
-15.6592870058
 21
27.2930567479
  0
LINE
  5
3C5
100
AcDbEntity
  8
RACCORDO
100
AcDbLine
 62
7
  6
CONTINUOUS
 10
-40.3754977105
 20
-11.1549169103
 11
-40.3484363499
 21
-11.1847990171
  0
LINE
  5
3C6
100
AcDbEntity
  8
0
100
AcDbLine
 62
7
  6
CONTINUOUS
 10
3.9642950256
 20
-24.9298494967
 11
3.9486533247
 21
-24.9125135979
  0
LINE
  5
3C7
100
AcDbEntity
  8
RACCORDO
100
AcDbLine
 62
7
  6
CONTINUOUS
 10
16.6922966793
 20
-27.7146947258
 11
16.6724322504
 21
-27.6926512432
  0
LINE
  5
3C8
100
AcDbEntity
  8
RACCORDO
100
AcDbLine
 62
7
  6
CONTINUOUS
 10
-42.3538318402
 20
5.753527156
 11
-42.3657508987
 21
5.7667654579
  0
LINE
  5
3C9
100
AcDbEntity
  8
RACCORDO
100
AcDbLine
 62
7
  6
CONTINUOUS
 10
-15.4019811505
 20
-10.102105514
 11
-15.4264407111
 21
-10.0748447389
  0
LINE
  5
3CA
100
AcDbEntity
  8
0
100
AcDbLine
 62
7
  6
CONTINUOUS
 10
-1.149651463
 20
-13.9875024647
 11
-1.136070451
 21
-14.0026413725
  0
LINE
  5
3CB
100
AcDbEntity
  8
RACCORDO
100
AcDbLine
 62
7
  6
CONTINUOUS
 10
16.2454566495
 20
9.2690450726
 11
16.2693797396
 21
9.2423285421
  0
LINE
  5
3CC
100
AcDbEntity
  8
0
100
AcDbLine
 62
7
  6
CONTINUOUS
 10
4.0570787659
 20
-24.8531969788
 11
4.0728500578
 21
-24.8708802712
  0
LINE
  5
3CD
100
AcDbEntity
  8
RACCORDO
100
AcDbLine
 62
7
  6
CONTINUOUS
 10
-14.9501900006
 20
-9.5807159483
 11
-14.9653816359
 21
-9.5634898785
  0
LINE
  5
3CE
100
AcDbEntity
  8
RACCORDO
100
AcDbLine
 62
7
  6
CONTINUOUS
 10
-15.4264407111
 20
-10.0748447389
 11
-15.4506058438
 21
-10.0469850862
  0
LINE
  5
3CF
100
AcDbEntity
  8
0
100
AcDbLine
 62
7
  6
CONTINUOUS
 10
4.28622255
 20
-24.9365745982
 11
4.3052754138
 21
-24.9585756685
  0
LINE
  5
3D0
100
AcDbEntity
  8
RACCORDO
100
AcDbLine
 62
7
  6
CONTINUOUS
 10
16.2406829165
 20
9.1015904199
 11
16.2712214994
 21
9.0661576572
  0
LINE
  5
3D1
100
AcDbEntity
  8
RACCORDO
100
AcDbLine
 62
7
  6
CONTINUOUS
 10
16.2693797396
 20
9.2423285421
 11
16.2929368642
 21
9.2149718538
  0
LINE
  5
3D2
100
AcDbEntity
  8
0
100
AcDbLine
 62
7
  6
CONTINUOUS
 10
4.1925813313
 20
-23.8139807695
 11
4.2158520983
 21
-23.8410110738
  0
LINE
  5
3D3
100
AcDbEntity
  8
RACCORDO
100
AcDbLine
 62
7
  6
CONTINUOUS
 10
-40.4279297848
 20
-11.1463624105
 11
-40.3872147997
 21
-11.1938443127
  0
LINE
  5
3D4
100
AcDbEntity
  8
RACCORDO
100
AcDbLine
 62
7
  6
CONTINUOUS
 10
-40.4019995721
 20
-11.1239752624
 11
-40.3754977105
 21
-11.1549169103
  0
LINE
  5
3D5
100
AcDbEntity
  8
RACCORDO
100
AcDbLine
 62
7
  6
CONTINUOUS
 10
-40.7302830512
 20
61.1819298385
 11
-40.7404024624
 21
61.1937485418
  0
LINE
  5
3D6
100
AcDbEntity
  8
0
100
AcDbLine
 62
7
  6
CONTINUOUS
 10
3.9907941612
 20
-24.0220324043
 11
3.9715833856
 21
-23.9995794139
  0
LINE
  5
3D7
100
AcDbEntity
  8
0
100
AcDbLine
 62
7
  6
CONTINUOUS
 10
-1.1545639445
 20
-13.7543873055
 11
-1.1642720007
 21
-13.743040341
  0
LINE
  5
3D8
100
AcDbEntity
  8
RACCORDO
100
AcDbLine
 62
7
  6
CONTINUOUS
 10
-40.7182582536
 20
-10.5520679469
 11
-40.7302806622
 21
-10.5379884903
  0
LINE
  5
3D9
100
AcDbEntity
  8
RACCORDO
100
AcDbLine
 62
7
  6
CONTINUOUS
 10
-40.0644413829
 20
-11.4616633986
 11
-40.0540390012
 21
-11.4738578813
  0
LINE
  5
3DA
100
AcDbEntity
  8
RACCORDO
100
AcDbLine
 62
7
  6
CONTINUOUS
 10
44.6160866155
 20
-60.3551386033
 11
44.6264888679
 21
-60.367333112
  0
LINE
  5
3DB
100
AcDbEntity
  8
RACCORDO
100
AcDbLine
 62
7
  6
CONTINUOUS
 10
-14.9653816359
 20
-9.5634898785
 11
-14.9803947708
 21
-9.5458711303
  0
LINE
  5
3DC
100
AcDbEntity
  8
RACCORDO
100
AcDbLine
 62
7
  6
CONTINUOUS
 10
-14.9439013332
 20
27.1884428
 11
-14.9293398237
 21
27.1713450739
  0
LINE
  5
3DD
100
AcDbEntity
  8
RACCORDO
100
AcDbLine
 62
7
  6
CONTINUOUS
 10
15.9462643985
 20
9.3528482341
 11
15.9608259113
 21
9.3357505112
  0
LINE
  5
3DE
100
AcDbEntity
  8
0
100
AcDbLine
 62
7
  6
CONTINUOUS
 10
4.0812016598
 20
-23.9418886247
 11
4.0977639723
 21
-23.9614220476
  0
LINE
  5
3DF
100
AcDbEntity
  8
0
100
AcDbLine
 62
7
  6
CONTINUOUS
 10
-12.1391716561
 20
23.4289649422
 11
-12.1522391355
 21
23.4444047037
  0
LINE
  5
3E0
100
AcDbEntity
  8
RACCORDO
100
AcDbLine
 62
7
  6
CONTINUOUS
 10
-15.4506058438
 20
-10.0469850862
 11
-15.4744914221
 21
-10.0184913251
  0
LINE
  5
3E1
100
AcDbEntity
  8
RACCORDO
100
AcDbLine
 62
7
  6
CONTINUOUS
 10
16.2929368642
 20
9.2149718538
 11
16.316133023
 21
9.1869816067
  0
LINE
  5
3E2
100
AcDbEntity
  8
0
100
AcDbLine
 62
7
  6
CONTINUOUS
 10
3.9795100434
 20
-24.9482575229
 11
3.9642950256
 21
-24.9298494967
  0
LINE
  5
3E3
100
AcDbEntity
  8
RACCORDO
100
AcDbLine
 62
7
  6
CONTINUOUS
 10
-14.9803947708
 20
-9.5458711303
 11
-14.9952146342
 21
-9.5278718379
  0
LINE
  5
3E4
100
AcDbEntity
  8
0
100
AcDbLine
 62
7
  6
CONTINUOUS
 10
4.0728500578
 20
-24.8708802712
 11
4.0881024889
 21
-24.8895833408
  0
LINE
  5
3E5
100
AcDbEntity
  8
RACCORDO
100
AcDbLine
 62
7
  6
CONTINUOUS
 10
-15.4744914221
 20
-10.0184913251
 11
-15.4981029455
 21
-9.9893671937
  0
LINE
  5
3E6
100
AcDbEntity
  8
0
100
AcDbLine
 62
7
  6
CONTINUOUS
 10
4.2158520983
 20
-23.8410110738
 11
4.239497369
 21
-23.8701854743
  0
LINE
  5
3E7
100
AcDbEntity
  8
RACCORDO
100
AcDbLine
 62
7
  6
CONTINUOUS
 10
-40.4276746139
 20
-11.0922754821
 11
-40.4019995721
 21
-11.1239752624
  0
LINE
  5
3E8
100
AcDbEntity
  8
RACCORDO
100
AcDbLine
 62
7
  6
CONTINUOUS
 10
16.2712214994
 20
9.0661576572
 11
16.3013400845
 21
9.0287485703
  0
LINE
  5
3E9
100
AcDbEntity
  8
0
100
AcDbLine
 62
7
  6
CONTINUOUS
 10
-11.878984751
 20
23.4246990418
 11
-11.8986887357
 21
23.4492699679
  0
LINE
  5
3EA
100
AcDbEntity
  8
RACCORDO
100
AcDbLine
 62
7
  6
CONTINUOUS
 10
-40.4671052666
 20
-11.0972807724
 11
-40.4279297848
 21
-11.1463624105
  0
LINE
  5
3EB
100
AcDbEntity
  8
0
100
AcDbLine
 62
7
  6
CONTINUOUS
 10
4.3052754138
 20
-24.9585756685
 11
4.3231239483
 21
-24.9809535331
  0
LINE
  5
3EC
100
AcDbEntity
  8
RACCORDO
100
AcDbLine
 62
7
  6
CONTINUOUS
 10
16.316133023
 20
9.1869816067
 11
16.3389636299
 21
9.1583514158
  0
LINE
  5
3ED
100
AcDbEntity
  8
RACCORDO
100
AcDbLine
 62
7
  6
CONTINUOUS
 10
-14.9952146342
 20
-9.5278718379
 11
-15.0098704321
 21
-9.509439489
  0
LINE
  5
3EE
100
AcDbEntity
  8
RACCORDO
100
AcDbLine
 62
7
  6
CONTINUOUS
 10
-15.7141056856
 20
27.3577594142
 11
-15.6877874474
 21
27.3245023454
  0
LINE
  5
3EF
100
AcDbEntity
  8
0
100
AcDbLine
 62
7
  6
CONTINUOUS
 10
4.0977639723
 20
-23.9614220476
 11
4.1138781766
 21
-23.9819032144
  0
LINE
  5
3F0
100
AcDbEntity
  8
0
100
AcDbLine
 62
7
  6
CONTINUOUS
 10
-1.136070451
 20
-14.0026413725
 11
-1.1233019569
 21
-14.0189044168
  0
LINE
  5
3F1
100
AcDbEntity
  8
RACCORDO
100
AcDbLine
 62
7
  6
CONTINUOUS
 10
-15.4981029455
 20
-9.9893671937
 11
-15.521434408
 21
-9.9596086313
  0
LINE
  5
3F2
100
AcDbEntity
  8
0
100
AcDbLine
 62
7
  6
CONTINUOUS
 10
4.009318342
 20
-24.0458559906
 11
3.9907941612
 21
-24.0220324043
  0
LINE
  5
3F3
100
AcDbEntity
  8
RACCORDO
100
AcDbLine
 62
7
  6
CONTINUOUS
 10
-42.3657509021
 20
42.7799607371
 11
-42.3757484503
 21
42.7929405492
  0
LINE
  5
3F4
100
AcDbEntity
  8
RACCORDO
100
AcDbLine
 62
7
  6
CONTINUOUS
 10
16.6724313626
 20
8.0174371383
 11
16.6557700063
 21
8.0390963594
  0
LINE
  5
3F5
100
AcDbEntity
  8
RACCORDO
100
AcDbLine
 62
7
  6
CONTINUOUS
 10
-15.0098704321
 20
-9.509439489
 11
-15.0243454259
 21
-9.4905854239
  0
LINE
  5
3F6
100
AcDbEntity
  8
RACCORDO
100
AcDbLine
 62
7
  6
CONTINUOUS
 10
16.3389636299
 20
9.1583514158
 11
16.3614414889
 21
9.1290448555
  0
LINE
  5
3F7
100
AcDbEntity
  8
RACCORDO
100
AcDbLine
 62
7
  6
CONTINUOUS
 10
-40.4525154481
 20
-11.0598081981
 11
-40.4276746139
 21
-11.0922754821
  0
LINE
  5
3F8
100
AcDbEntity
  8
0
100
AcDbLine
 62
7
  6
CONTINUOUS
 10
-0.9866230281
 20
-13.8109643244
 11
-1.0064402563
 21
-13.7850555344
  0
LINE
  5
3F9
100
AcDbEntity
  8
0
100
AcDbLine
 62
7
  6
CONTINUOUS
 10
4.239497369
 20
-23.8701854743
 11
4.2634241147
 21
-23.901529827
  0
LINE
  5
3FA
100
AcDbEntity
  8
0
100
AcDbLine
 62
7
  6
CONTINUOUS
 10
3.9940838027
 20
-24.9673671267
 11
3.9795100434
 21
-24.9482575229
  0
LINE
  5
3FB
100
AcDbEntity
  8
RACCORDO
100
AcDbLine
 62
7
  6
CONTINUOUS
 10
-15.521434408
 20
-9.9596086313
 11
-15.54448338
 21
-9.929168681
  0
LINE
  5
3FC
100
AcDbEntity
  8
0
100
AcDbLine
 62
7
  6
CONTINUOUS
 10
-11.8960487523
 20
23.2231591355
 11
-11.9040944704
 21
23.2337946392
  0
LINE
  5
3FD
100
AcDbEntity
  8
0
100
AcDbLine
 62
7
  6
CONTINUOUS
 10
4.0881024889
 20
-24.8895833408
 11
4.1026312034
 21
-24.908861788
  0
LINE
  5
3FE
100
AcDbEntity
  8
RACCORDO
100
AcDbLine
 62
7
  6
CONTINUOUS
 10
16.3013400845
 20
9.0287485703
 11
16.3308721721
 21
8.9894921512
  0
LINE
  5
3FF
100
AcDbEntity
  8
RACCORDO
100
AcDbLine
 62
7
  6
CONTINUOUS
 10
-40.5045062954
 20
-11.0468902464
 11
-40.4671052666
 21
-11.0972807724
  0
LINE
  5
400
100
AcDbEntity
  8
RACCORDO
100
AcDbLine
 62
7
  6
CONTINUOUS
 10
-15.0243454259
 20
-9.4905854239
 11
-15.038622035
 21
-9.4713207007
  0
LINE
  5
401
100
AcDbEntity
  8
0
100
AcDbLine
 62
7
  6
CONTINUOUS
 10
-12.1269319953
 20
23.4123936321
 11
-12.1391716561
 21
23.4289649422
  0
LINE
  5
402
100
AcDbEntity
  8
RACCORDO
100
AcDbLine
 62
7
  6
CONTINUOUS
 10
16.3614414889
 20
9.1290448555
 11
16.3835732825
 21
9.0990663469
  0
LINE
  5
403
100
AcDbEntity
  8
RACCORDO
100
AcDbLine
 62
7
  6
CONTINUOUS
 10
-15.54448338
 20
-9.929168681
 11
-15.5672567269
 21
-9.8980493448
  0
LINE
  5
404
100
AcDbEntity
  8
0
100
AcDbLine
 62
7
  6
CONTINUOUS
 10
4.3231239483
 20
-24.9809535331
 11
4.33970151
 21
-25.0038689166
  0
LINE
  5
405
100
AcDbEntity
  8
RACCORDO
100
AcDbLine
 62
7
  6
CONTINUOUS
 10
-40.4765282075
 20
-11.0265817921
 11
-40.4525154481
 21
-11.0598081981
  0
LINE
  5
406
100
AcDbEntity
  8
0
100
AcDbLine
 62
7
  6
CONTINUOUS
 10
4.1138781766
 20
-23.9819032144
 11
4.1291157718
 21
-24.0029875351
  0
LINE
  5
407
100
AcDbEntity
  8
RACCORDO
100
AcDbLine
 62
7
  6
CONTINUOUS
 10
16.6724322504
 20
-27.6926512432
 11
16.6557705273
 21
-27.6695892338
  0
LINE
  5
408
100
AcDbEntity
  8
RACCORDO
100
AcDbLine
 62
7
  6
CONTINUOUS
 10
-42.3657508987
 20
5.7667654579
 11
-42.3757484468
 21
5.780617657
  0
LINE
  5
409
100
AcDbEntity
  8
RACCORDO
100
AcDbLine
 62
7
  6
CONTINUOUS
 10
-15.038622035
 20
-9.4713207007
 11
-15.0527225706
 21
-9.4515882492
  0
LINE
  5
40A
100
AcDbEntity
  8
0
100
AcDbLine
 62
7
  6
CONTINUOUS
 10
4.2634241147
 20
-23.901529827
 11
4.287352077
 21
-23.9351224745
  0
LINE
  5
40B
100
AcDbEntity
  8
RACCORDO
100
AcDbLine
 62
7
  6
CONTINUOUS
 10
16.3835732825
 20
9.0990663469
 11
16.4053528345
 21
9.0684117311
  0
LINE
  5
40C
100
AcDbEntity
  8
0
100
AcDbLine
 62
7
  6
CONTINUOUS
 10
4.0270879912
 20
-24.0708801913
 11
4.009318342
 21
-24.0458559906
  0
LINE
  5
40D
100
AcDbEntity
  8
RACCORDO
100
AcDbLine
 62
7
  6
CONTINUOUS
 10
-15.5672567269
 20
-9.8980493448
 11
-15.5897469589
 21
-9.8662482234
  0
LINE
  5
40E
100
AcDbEntity
  8
0
100
AcDbLine
 62
7
  6
CONTINUOUS
 10
-1.1463543718
 20
-13.7660449427
 11
-1.1545639445
 21
-13.7543873055
  0
LINE
  5
40F
100
AcDbEntity
  8
RACCORDO
100
AcDbLine
 62
7
  6
CONTINUOUS
 10
16.3308721721
 20
8.9894921512
 11
16.3596683725
 21
8.9485152103
  0
LINE
  5
410
100
AcDbEntity
  8
0
100
AcDbLine
 62
7
  6
CONTINUOUS
 10
4.0079639118
 20
-24.9871587065
 11
3.9940838027
 21
-24.9673671267
  0
LINE
  5
411
100
AcDbEntity
  8
0
100
AcDbLine
 62
7
  6
CONTINUOUS
 10
4.1026312034
 20
-24.908861788
 11
4.1163689417
 21
-24.9286634946
  0
LINE
  5
412
100
AcDbEntity
  8
RACCORDO
100
AcDbLine
 62
7
  6
CONTINUOUS
 10
-40.5400099273
 20
-10.9953656421
 11
-40.5045062954
 21
-11.0468902464
  0
LINE
  5
413
100
AcDbEntity
  8
RACCORDO
100
AcDbLine
 62
7
  6
CONTINUOUS
 10
-15.0527225706
 20
-9.4515882492
 11
-15.0666252461
 21
-9.4314019824
  0
LINE
  5
414
100
AcDbEntity
  8
RACCORDO
100
AcDbLine
 62
7
  6
CONTINUOUS
 10
-15.7380520769
 20
27.392588311
 11
-15.7141056856
 21
27.3577594142
  0
LINE
  5
415
100
AcDbEntity
  8
0
100
AcDbLine
 62
7
  6
CONTINUOUS
 10
-1.1233019569
 20
-14.0189044168
 11
-1.1114858223
 21
-14.0361134909
  0
LINE
  5
416
100
AcDbEntity
  8
RACCORDO
100
AcDbLine
 62
7
  6
CONTINUOUS
 10
16.4053528345
 20
9.0684117311
 11
16.4267737054
 21
9.0370317358
  0
LINE
  5
417
100
AcDbEntity
  8
RACCORDO
100
AcDbLine
 62
7
  6
CONTINUOUS
 10
-15.5897469589
 20
-9.8662482234
 11
-15.6119300476
 21
-9.8337117164
  0
LINE
  5
418
100
AcDbEntity
  8
RACCORDO
100
AcDbLine
 62
7
  6
CONTINUOUS
 10
-40.4994659574
 20
-10.9929243861
 11
-40.4765282075
 21
-11.0265817921
  0
LINE
  5
419
100
AcDbEntity
  8
RACCORDO
100
AcDbLine
 62
7
  6
CONTINUOUS
 10
-40.7404024624
 20
61.1937485418
 11
-40.7485462639
 21
61.2057179995
  0
LINE
  5
41A
100
AcDbEntity
  8
RACCORDO
100
AcDbLine
 62
7
  6
CONTINUOUS
 10
-40.7302806622
 20
-10.5379884903
 11
-40.740399542
 21
-10.5231011513
  0
LINE
  5
41B
100
AcDbEntity
  8
0
100
AcDbLine
 62
7
  6
CONTINUOUS
 10
4.287352077
 20
-23.9351224745
 11
4.3114570502
 21
-23.9711084943
  0
LINE
  5
41C
100
AcDbEntity
  8
RACCORDO
100
AcDbLine
 62
7
  6
CONTINUOUS
 10
-14.9567702861
 20
27.207703678
 11
-14.9439013332
 21
27.1884428
  0
LINE
  5
41D
100
AcDbEntity
  8
RACCORDO
100
AcDbLine
 62
7
  6
CONTINUOUS
 10
15.9333954418
 20
9.3721091101
 11
15.9462643985
 21
9.3528482341
  0
LINE
  5
41E
100
AcDbEntity
  8
RACCORDO
100
AcDbLine
 62
7
  6
CONTINUOUS
 10
-15.0666252461
 20
-9.4314019824
 11
-15.080309417
 21
-9.41077198
  0
LINE
  5
41F
100
AcDbEntity
  8
RACCORDO
100
AcDbLine
 62
7
  6
CONTINUOUS
 10
16.6021293528
 20
-28.2952412475
 11
16.5788636253
 21
-28.260019344
  0
LINE
  5
420
100
AcDbEntity
  8
0
100
AcDbLine
 62
7
  6
CONTINUOUS
 10
4.33970151
 20
-25.0038689166
 11
4.3550753952
 21
-25.0271606567
  0
LINE
  5
421
100
AcDbEntity
  8
RACCORDO
100
AcDbLine
 62
7
  6
CONTINUOUS
 10
-15.6119300476
 20
-9.8337117164
 11
-15.6338144506
 21
-9.8004402931
  0
LINE
  5
422
100
AcDbEntity
  8
0
100
AcDbLine
 62
7
  6
CONTINUOUS
 10
4.1291157718
 20
-24.0029875351
 11
4.1434242679
 21
-24.0247497035
  0
LINE
  5
423
100
AcDbEntity
  8
RACCORDO
100
AcDbLine
 62
7
  6
CONTINUOUS
 10
16.4267737054
 20
9.0370317358
 11
16.4478439713
 21
9.004929062
  0
LINE
  5
424
100
AcDbEntity
  8
RACCORDO
100
AcDbLine
 62
7
  6
CONTINUOUS
 10
16.3596683725
 20
8.9485152103
 11
16.3875634971
 21
8.9059888208
  0
LINE
  5
425
100
AcDbEntity
  8
0
100
AcDbLine
 62
7
  6
CONTINUOUS
 10
-11.8615747949
 20
23.397901477
 11
-11.878984751
 21
23.4246990418
  0
LINE
  5
426
100
AcDbEntity
  8
0
100
AcDbLine
 62
7
  6
CONTINUOUS
 10
4.0212033092
 20
-25.0076514964
 11
4.0079639118
 21
-24.9871587065
  0
LINE
  5
427
100
AcDbEntity
  8
0
100
AcDbLine
 62
7
  6
CONTINUOUS
 10
-12.1156542013
 20
23.3948722621
 11
-12.1269319953
 21
23.4123936321
  0
LINE
  5
428
100
AcDbEntity
  8
0
100
AcDbLine
 62
7
  6
CONTINUOUS
 10
4.0434535115
 20
-24.0963853245
 11
4.0270879912
 21
-24.0708801913
  0
LINE
  5
429
100
AcDbEntity
  8
RACCORDO
100
AcDbLine
 62
7
  6
CONTINUOUS
 10
-40.5213179167
 20
-10.9588313074
 11
-40.4994659574
 21
-10.9929243861
  0
LINE
  5
42A
100
AcDbEntity
  8
RACCORDO
100
AcDbLine
 62
7
  6
CONTINUOUS
 10
-40.0734005932
 20
-11.447639492
 11
-40.0644413829
 21
-11.4616633986
  0
LINE
  5
42B
100
AcDbEntity
  8
RACCORDO
100
AcDbLine
 62
7
  6
CONTINUOUS
 10
44.6071275374
 20
-60.3411147325
 11
44.6160866155
 21
-60.3551386033
  0
LINE
  5
42C
100
AcDbEntity
  8
0
100
AcDbLine
 62
7
  6
CONTINUOUS
 10
4.1163689417
 20
-24.9286634946
 11
4.1293834733
 21
-24.9490402361
  0
LINE
  5
42D
100
AcDbEntity
  8
RACCORDO
100
AcDbLine
 62
7
  6
CONTINUOUS
 10
-15.080309417
 20
-9.41077198
 11
-15.0937919157
 21
-9.3896325835
  0
LINE
  5
42E
100
AcDbEntity
  8
RACCORDO
100
AcDbLine
 62
7
  6
CONTINUOUS
 10
-40.5734819694
 20
-10.9428792221
 11
-40.5400099273
 21
-10.9953656421
  0
LINE
  5
42F
100
AcDbEntity
  8
RACCORDO
100
AcDbLine
 62
7
  6
CONTINUOUS
 10
-15.6338144506
 20
-9.8004402931
 11
-15.6553909353
 21
-9.7664329916
  0
LINE
  5
430
100
AcDbEntity
  8
RACCORDO
100
AcDbLine
 62
7
  6
CONTINUOUS
 10
16.4478439713
 20
9.004929062
 11
16.4685561804
 21
8.9721013324
  0
LINE
  5
431
100
AcDbEntity
  8
0
100
AcDbLine
 62
7
  6
CONTINUOUS
 10
4.3114570502
 20
-23.9711084943
 11
4.3355653374
 21
-24.0093414223
  0
LINE
  5
432
100
AcDbEntity
  8
0
100
AcDbLine
 62
7
  6
CONTINUOUS
 10
-0.9695889237
 20
-13.8382030403
 11
-0.9866230281
 21
-13.8109643244
  0
LINE
  5
433
100
AcDbEntity
  8
0
100
AcDbLine
 62
7
  6
CONTINUOUS
 10
4.3550753952
 20
-25.0271606567
 11
4.3694466248
 21
-25.0503458475
  0
LINE
  5
434
100
AcDbEntity
  8
RACCORDO
100
AcDbLine
 62
7
  6
CONTINUOUS
 10
-15.0937919157
 20
-9.3896325835
 11
-15.1070588139
 21
-9.3679705333
  0
LINE
  5
435
100
AcDbEntity
  8
RACCORDO
100
AcDbLine
 62
7
  6
CONTINUOUS
 10
16.3875634971
 20
8.9059888208
 11
16.4144145794
 21
8.8620762437
  0
LINE
  5
436
100
AcDbEntity
  8
RACCORDO
100
AcDbLine
 62
7
  6
CONTINUOUS
 10
-15.6553909353
 20
-9.7664329916
 11
-15.6766088468
 21
-9.731634007
  0
LINE
  5
437
100
AcDbEntity
  8
RACCORDO
100
AcDbLine
 62
7
  6
CONTINUOUS
 10
16.4685561804
 20
8.9721013324
 11
16.4888806669
 21
8.9384916916
  0
LINE
  5
438
100
AcDbEntity
  8
RACCORDO
100
AcDbLine
 62
7
  6
CONTINUOUS
 10
-40.5420935926
 20
-10.9243062259
 11
-40.5213179167
 21
-10.9588313074
  0
LINE
  5
439
100
AcDbEntity
  8
0
100
AcDbLine
 62
7
  6
CONTINUOUS
 10
4.0337453196
 20
-25.0285332641
 11
4.0212033092
 21
-25.0076514964
  0
LINE
  5
43A
100
AcDbEntity
  8
0
100
AcDbLine
 62
7
  6
CONTINUOUS
 10
4.1434242679
 20
-24.0247497035
 11
4.1568568125
 21
-24.0471145895
  0
LINE
  5
43B
100
AcDbEntity
  8
RACCORDO
100
AcDbLine
 62
7
  6
CONTINUOUS
 10
-42.3757484503
 20
42.7929405492
 11
-42.3837533794
 21
42.8062793629
  0
LINE
  5
43C
100
AcDbEntity
  8
RACCORDO
100
AcDbLine
 62
7
  6
CONTINUOUS
 10
16.6557700063
 20
8.0390963594
 11
16.6424298521
 21
8.0613586096
  0
LINE
  5
43D
100
AcDbEntity
  8
0
100
AcDbLine
 62
7
  6
CONTINUOUS
 10
-1.1114858223
 20
-14.0361134909
 11
-1.1007514611
 21
-14.0540801231
  0
LINE
  5
43E
100
AcDbEntity
  8
0
100
AcDbLine
 62
7
  6
CONTINUOUS
 10
-11.8890213085
 20
23.2113812115
 11
-11.8960487523
 21
23.2231591355
  0
LINE
  5
43F
100
AcDbEntity
  8
0
100
AcDbLine
 62
7
  6
CONTINUOUS
 10
4.1293834733
 20
-24.9490402361
 11
4.1416723636
 21
-24.9697035359
  0
LINE
  5
440
100
AcDbEntity
  8
RACCORDO
100
AcDbLine
 62
7
  6
CONTINUOUS
 10
-40.6047277156
 20
-10.8897195417
 11
-40.5734819694
 21
-10.9428792221
  0
LINE
  5
441
100
AcDbEntity
  8
RACCORDO
100
AcDbLine
 62
7
  6
CONTINUOUS
 10
-15.1070588139
 20
-9.3679705333
 11
-15.1200694218
 21
-9.3458275394
  0
LINE
  5
442
100
AcDbEntity
  8
RACCORDO
100
AcDbLine
 62
7
  6
CONTINUOUS
 10
-15.6766088468
 20
-9.731634007
 11
-15.6974509598
 21
-9.6960245216
  0
LINE
  5
443
100
AcDbEntity
  8
0
100
AcDbLine
 62
7
  6
CONTINUOUS
 10
4.3694466248
 20
-25.0503458475
 11
4.3827891821
 21
-25.0732934756
  0
LINE
  5
444
100
AcDbEntity
  8
0
100
AcDbLine
 62
7
  6
CONTINUOUS
 10
4.3355653374
 20
-24.0093414223
 11
4.3588727624
 21
-24.0494620765
  0
LINE
  5
445
100
AcDbEntity
  8
RACCORDO
100
AcDbLine
 62
7
  6
CONTINUOUS
 10
16.4888806669
 20
8.9384916916
 11
16.5088271926
 21
8.9041013619
  0
LINE
  5
446
100
AcDbEntity
  8
RACCORDO
100
AcDbLine
 62
7
  6
CONTINUOUS
 10
16.4144145794
 20
8.8620762437
 11
16.4400890894
 21
8.816946681
  0
LINE
  5
447
100
AcDbEntity
  8
0
100
AcDbLine
 62
7
  6
CONTINUOUS
 10
4.0582665246
 20
-24.1224374375
 11
4.0434535115
 21
-24.0963853245
  0
LINE
  5
448
100
AcDbEntity
  8
RACCORDO
100
AcDbLine
 62
7
  6
CONTINUOUS
 10
-40.5615766815
 20
-10.8896899342
 11
-40.5420935926
 21
-10.9243062259
  0
LINE
  5
449
100
AcDbEntity
  8
RACCORDO
100
AcDbLine
 62
7
  6
CONTINUOUS
 10
-15.1200694218
 20
-9.3458275394
 11
-15.1327956401
 21
-9.3232209008
  0
LINE
  5
44A
100
AcDbEntity
  8
RACCORDO
100
AcDbLine
 62
7
  6
CONTINUOUS
 10
-15.6974509598
 20
-9.6960245216
 11
-15.7179335209
 21
-9.6596227318
  0
LINE
  5
44B
100
AcDbEntity
  8
RACCORDO
100
AcDbLine
 62
7
  6
CONTINUOUS
 10
16.5788636253
 20
-28.260019344
 11
16.5583098776
 21
-28.2234339307
  0
LINE
  5
44C
100
AcDbEntity
  8
0
100
AcDbLine
 62
7
  6
CONTINUOUS
 10
-1.1396674377
 20
-13.7780210172
 11
-1.1463543718
 21
-13.7660449427
  0
LINE
  5
44D
100
AcDbEntity
  8
RACCORDO
100
AcDbLine
 62
7
  6
CONTINUOUS
 10
16.6557705273
 20
-27.6695892338
 11
16.6424300191
 21
-27.6456727296
  0
LINE
  5
44E
100
AcDbEntity
  8
0
100
AcDbLine
 62
7
  6
CONTINUOUS
 10
-12.1054617883
 20
23.3765927253
 11
-12.1156542013
 21
23.3948722621
  0
LINE
  5
44F
100
AcDbEntity
  8
0
100
AcDbLine
 62
7
  6
CONTINUOUS
 10
4.0455986986
 20
-25.0497975369
 11
4.0337453196
 21
-25.0285332641
  0
LINE
  5
450
100
AcDbEntity
  8
RACCORDO
100
AcDbLine
 62
7
  6
CONTINUOUS
 10
-42.3757484468
 20
5.780617657
 11
-42.383753376
 21
5.7949852282
  0
LINE
  5
451
100
AcDbEntity
  8
RACCORDO
100
AcDbLine
 62
7
  6
CONTINUOUS
 10
16.5088271926
 20
8.9041013619
 11
16.5283867708
 21
8.8689295235
  0
LINE
  5
452
100
AcDbEntity
  8
0
100
AcDbLine
 62
7
  6
CONTINUOUS
 10
4.1416723636
 20
-24.9697035359
 11
4.1532436845
 21
-24.9906254982
  0
LINE
  5
453
100
AcDbEntity
  8
0
100
AcDbLine
 62
7
  6
CONTINUOUS
 10
4.1568568125
 20
-24.0471145895
 11
4.1691432447
 21
-24.0695129448
  0
LINE
  5
454
100
AcDbEntity
  8
RACCORDO
100
AcDbLine
 62
7
  6
CONTINUOUS
 10
-15.7179335209
 20
-9.6596227318
 11
-15.7380560136
 21
-9.6224283102
  0
LINE
  5
455
100
AcDbEntity
  8
0
100
AcDbLine
 62
7
  6
CONTINUOUS
 10
4.3827891821
 20
-25.0732934756
 11
4.3951293797
 21
-25.0961343553
  0
LINE
  5
456
100
AcDbEntity
  8
RACCORDO
100
AcDbLine
 62
7
  6
CONTINUOUS
 10
-40.6336464514
 20
-10.8360370316
 11
-40.6047277156
 21
-10.8897195417
  0
LINE
  5
457
100
AcDbEntity
  8
0
100
AcDbLine
 62
7
  6
CONTINUOUS
 10
4.3588727624
 20
-24.0494620765
 11
4.3814769226
 21
-24.0918804814
  0
LINE
  5
458
100
AcDbEntity
  8
RACCORDO
100
AcDbLine
 62
7
  6
CONTINUOUS
 10
16.5283867708
 20
8.8689295235
 11
16.5475017046
 21
8.8329163052
  0
LINE
  5
459
100
AcDbEntity
  8
RACCORDO
100
AcDbLine
 62
7
  6
CONTINUOUS
 10
-15.1327956401
 20
-9.3232209008
 11
-15.1529856598
 21
-9.2851364493
  0
LINE
  5
45A
100
AcDbEntity
  8
RACCORDO
100
AcDbLine
 62
7
  6
CONTINUOUS
 10
16.4400890894
 20
8.816946681
 11
16.4644558285
 21
8.770791748
  0
LINE
  5
45B
100
AcDbEntity
  8
RACCORDO
100
AcDbLine
 62
7
  6
CONTINUOUS
 10
-40.5797594691
 20
-10.8549656157
 11
-40.5615766815
 21
-10.8896899342
  0
LINE
  5
45C
100
AcDbEntity
  8
RACCORDO
100
AcDbLine
 62
7
  6
CONTINUOUS
 10
-40.740399542
 20
-10.5231011513
 11
-40.7485428508
 21
-10.5075119216
  0
LINE
  5
45D
100
AcDbEntity
  8
RACCORDO
100
AcDbLine
 62
7
  6
CONTINUOUS
 10
-14.9678746203
 20
27.2290198531
 11
-14.9567702861
 21
27.207703678
  0
LINE
  5
45E
100
AcDbEntity
  8
RACCORDO
100
AcDbLine
 62
7
  6
CONTINUOUS
 10
15.9222911037
 20
9.3934252844
 11
15.9333954418
 21
9.3721091101
  0
LINE
  5
45F
100
AcDbEntity
  8
0
100
AcDbLine
 62
7
  6
CONTINUOUS
 10
-11.8466194965
 20
23.3690846243
 11
-11.8615747949
 21
23.397901477
  0
LINE
  5
460
100
AcDbEntity
  8
0
100
AcDbLine
 62
7
  6
CONTINUOUS
 10
4.0567551918
 20
-25.0714504503
 11
4.0455986986
 21
-25.0497975369
  0
LINE
  5
461
100
AcDbEntity
  8
0
100
AcDbLine
 62
7
  6
CONTINUOUS
 10
-1.1007514611
 20
-14.0540801231
 11
-1.0912164407
 21
-14.0726075429
  0
LINE
  5
462
100
AcDbEntity
  8
0
100
AcDbLine
 62
7
  6
CONTINUOUS
 10
4.3951293797
 20
-25.0961343553
 11
4.4067464588
 21
-25.1187785067
  0
LINE
  5
463
100
AcDbEntity
  8
0
100
AcDbLine
 62
7
  6
CONTINUOUS
 10
4.1532436845
 20
-24.9906254982
 11
4.1640898025
 21
-25.0118337237
  0
LINE
  5
464
100
AcDbEntity
  8
RACCORDO
100
AcDbLine
 62
7
  6
CONTINUOUS
 10
-15.7380560136
 20
-9.6224283102
 11
-15.7700251885
 21
-9.5597578896
  0
LINE
  5
465
100
AcDbEntity
  8
RACCORDO
100
AcDbLine
 62
7
  6
CONTINUOUS
 10
-40.7485462639
 20
61.2057179995
 11
-40.7546564739
 21
61.2177529921
  0
LINE
  5
466
100
AcDbEntity
  8
RACCORDO
100
AcDbLine
 62
7
  6
CONTINUOUS
 10
16.5475017046
 20
8.8329163052
 11
16.566153102
 21
8.7960419272
  0
LINE
  5
467
100
AcDbEntity
  8
0
100
AcDbLine
 62
7
  6
CONTINUOUS
 10
4.0716764125
 20
-24.1489698166
 11
4.0582665246
 21
-24.1224374375
  0
LINE
  5
468
100
AcDbEntity
  8
0
100
AcDbLine
 62
7
  6
CONTINUOUS
 10
-0.9554905668
 20
-13.8665120368
 11
-0.9695889237
 21
-13.8382030403
  0
LINE
  5
469
100
AcDbEntity
  8
0
100
AcDbLine
 62
7
  6
CONTINUOUS
 10
4.1691432447
 20
-24.0695129448
 11
4.1801971139
 21
-24.0919032731
  0
LINE
  5
46A
100
AcDbEntity
  8
0
100
AcDbLine
 62
7
  6
CONTINUOUS
 10
4.3814769226
 20
-24.0918804814
 11
4.4032832917
 21
-24.1361845791
  0
LINE
  5
46B
100
AcDbEntity
  8
RACCORDO
100
AcDbLine
 62
7
  6
CONTINUOUS
 10
-40.6601216484
 20
-10.7819880121
 11
-40.6336464514
 21
-10.8360370316
  0
LINE
  5
46C
100
AcDbEntity
  8
RACCORDO
100
AcDbLine
 62
7
  6
CONTINUOUS
 10
-15.1529856598
 20
-9.2851364493
 11
-15.1718906295
 21
-9.2464875883
  0
LINE
  5
46D
100
AcDbEntity
  8
RACCORDO
100
AcDbLine
 62
7
  6
CONTINUOUS
 10
16.4644558285
 20
8.770791748
 11
16.4873987411
 21
8.723801788
  0
LINE
  5
46E
100
AcDbEntity
  8
0
100
AcDbLine
 62
7
  6
CONTINUOUS
 10
4.4067464588
 20
-25.1187785067
 11
4.4176794889
 21
-25.1412219716
  0
LINE
  5
46F
100
AcDbEntity
  8
RACCORDO
100
AcDbLine
 62
7
  6
CONTINUOUS
 10
-40.5966485169
 20
-10.8201491816
 11
-40.5797594691
 21
-10.8549656157
  0
LINE
  5
470
100
AcDbEntity
  8
RACCORDO
100
AcDbLine
 62
7
  6
CONTINUOUS
 10
16.566153102
 20
8.7960419272
 11
16.5843608336
 21
8.7583266784
  0
LINE
  5
471
100
AcDbEntity
  8
0
100
AcDbLine
 62
7
  6
CONTINUOUS
 10
-12.0964663831
 20
23.3577552189
 11
-12.1054617883
 21
23.3765927253
  0
LINE
  5
472
100
AcDbEntity
  8
0
100
AcDbLine
 62
7
  6
CONTINUOUS
 10
4.0671324651
 20
-25.0931987814
 11
4.0567551918
 21
-25.0714504503
  0
LINE
  5
473
100
AcDbEntity
  8
0
100
AcDbLine
 62
7
  6
CONTINUOUS
 10
4.1640898025
 20
-25.0118337237
 11
4.1741845951
 21
-25.0331230671
  0
LINE
  5
474
100
AcDbEntity
  8
RACCORDO
100
AcDbLine
 62
7
  6
CONTINUOUS
 10
-40.0808456205
 20
-11.4318973164
 11
-40.0734005932
 21
-11.447639492
  0
LINE
  5
475
100
AcDbEntity
  8
RACCORDO
100
AcDbLine
 62
7
  6
CONTINUOUS
 10
44.5996826327
 20
-60.3253726649
 11
44.6071275374
 21
-60.3411147325
  0
LINE
  5
476
100
AcDbEntity
  8
RACCORDO
100
AcDbLine
 62
7
  6
CONTINUOUS
 10
-15.7700251885
 20
-9.5597578896
 11
-15.7997729152
 21
-9.4965576503
  0
LINE
  5
477
100
AcDbEntity
  8
RACCORDO
100
AcDbLine
 62
7
  6
CONTINUOUS
 10
16.5583098776
 20
-28.2234339307
 11
16.5406162154
 21
-28.1857486341
  0
LINE
  5
478
100
AcDbEntity
  8
0
100
AcDbLine
 62
7
  6
CONTINUOUS
 10
-11.883030941
 20
23.1984438293
 11
-11.8890213085
 21
23.2113812115
  0
LINE
  5
479
100
AcDbEntity
  8
RACCORDO
100
AcDbLine
 62
7
  6
CONTINUOUS
 10
16.5843608336
 20
8.7583266784
 11
16.6021254159
 21
8.7197708277
  0
LINE
  5
47A
100
AcDbEntity
  8
0
100
AcDbLine
 62
7
  6
CONTINUOUS
 10
4.4176794889
 20
-25.1412219716
 11
4.4278895554
 21
-25.1634686034
  0
LINE
  5
47B
100
AcDbEntity
  8
RACCORDO
100
AcDbLine
 62
7
  6
CONTINUOUS
 10
16.4873987411
 20
8.723801788
 11
16.4989904216
 21
8.6985233419
  0
LINE
  5
47C
100
AcDbEntity
  8
0
100
AcDbLine
 62
7
  6
CONTINUOUS
 10
4.0834798296
 20
-24.1750638968
 11
4.0716764125
 21
-24.1489698166
  0
LINE
  5
47D
100
AcDbEntity
  8
RACCORDO
100
AcDbLine
 62
7
  6
CONTINUOUS
 10
-15.1718906295
 20
-9.2464875883
 11
-15.1894339495
 21
-9.2073894491
  0
LINE
  5
47E
100
AcDbEntity
  8
0
100
AcDbLine
 62
7
  6
CONTINUOUS
 10
4.4032832917
 20
-24.1361845791
 11
4.4231990788
 21
-24.1807823476
  0
LINE
  5
47F
100
AcDbEntity
  8
RACCORDO
100
AcDbLine
 62
7
  6
CONTINUOUS
 10
-40.6120492464
 20
-10.7856307623
 11
-40.5966485169
 21
-10.8201491816
  0
LINE
  5
480
100
AcDbEntity
  8
0
100
AcDbLine
 62
7
  6
CONTINUOUS
 10
4.1801971139
 20
-24.0919032731
 11
4.190105359
 21
-24.1143267461
  0
LINE
  5
481
100
AcDbEntity
  8
RACCORDO
100
AcDbLine
 62
7
  6
CONTINUOUS
 10
-40.6840084063
 20
-10.7278148418
 11
-40.6601216484
 21
-10.7819880121
  0
LINE
  5
482
100
AcDbEntity
  8
0
100
AcDbLine
 62
7
  6
CONTINUOUS
 10
4.0767031681
 20
-25.1149447255
 11
4.0671324651
 21
-25.0931987814
  0
LINE
  5
483
100
AcDbEntity
  8
0
100
AcDbLine
 62
7
  6
CONTINUOUS
 10
4.4278895554
 20
-25.1634686034
 11
4.4375387729
 21
-25.1854402405
  0
LINE
  5
484
100
AcDbEntity
  8
0
100
AcDbLine
 62
7
  6
CONTINUOUS
 10
4.1741845951
 20
-25.0331230671
 11
4.1835194485
 21
-25.0544250836
  0
LINE
  5
485
100
AcDbEntity
  8
RACCORDO
100
AcDbLine
 62
7
  6
CONTINUOUS
 10
-42.3837533794
 20
42.8062793629
 11
-42.3897087536
 21
42.8198823043
  0
LINE
  5
486
100
AcDbEntity
  8
RACCORDO
100
AcDbLine
 62
7
  6
CONTINUOUS
 10
16.4989905218
 20
8.6985223781
 11
16.510639117
 21
8.6719093432
  0
LINE
  5
487
100
AcDbEntity
  8
RACCORDO
100
AcDbLine
 62
7
  6
CONTINUOUS
 10
16.6424298521
 20
8.0613586096
 11
16.6325057827
 21
8.0840655472
  0
LINE
  5
488
100
AcDbEntity
  8
0
100
AcDbLine
 62
7
  6
CONTINUOUS
 10
-1.0912164407
 20
-14.0726075429
 11
-1.0829851912
 21
-14.0914928411
  0
LINE
  5
489
100
AcDbEntity
  8
RACCORDO
100
AcDbLine
 62
7
  6
CONTINUOUS
 10
-15.7997729152
 20
-9.4965576503
 11
-15.8272985412
 21
-9.4328271786
  0
LINE
  5
48A
100
AcDbEntity
  8
RACCORDO
100
AcDbLine
 62
7
  6
CONTINUOUS
 10
16.6021254159
 20
8.7197708277
 11
16.6300454526
 21
8.6547189512
  0
LINE
  5
48B
100
AcDbEntity
  8
0
100
AcDbLine
 62
7
  6
CONTINUOUS
 10
-1.134478987
 20
-13.7903077644
 11
-1.1396674377
 21
-13.7780210172
  0
LINE
  5
48C
100
AcDbEntity
  8
0
100
AcDbLine
 62
7
  6
CONTINUOUS
 10
4.4375387729
 20
-25.1854402405
 11
4.4466453244
 21
-25.2071323614
  0
LINE
  5
48D
100
AcDbEntity
  8
RACCORDO
100
AcDbLine
 62
7
  6
CONTINUOUS
 10
-15.1894339495
 20
-9.2073894491
 11
-15.2055845013
 21
-9.1678638597
  0
LINE
  5
48E
100
AcDbEntity
  8
RACCORDO
100
AcDbLine
 62
7
  6
CONTINUOUS
 10
16.510639117
 20
8.6719093432
 11
16.5315334853
 21
8.6205566288
  0
LINE
  5
48F
100
AcDbEntity
  8
RACCORDO
100
AcDbLine
 62
7
  6
CONTINUOUS
 10
-40.6259374102
 20
-10.7514311751
 11
-40.6120492464
 21
-10.7856307623
  0
LINE
  5
490
100
AcDbEntity
  8
0
100
AcDbLine
 62
7
  6
CONTINUOUS
 10
-11.8342667376
 20
23.3385195585
 11
-11.8466194965
 21
23.3690846243
  0
LINE
  5
491
100
AcDbEntity
  8
RACCORDO
100
AcDbLine
 62
7
  6
CONTINUOUS
 10
16.6424300191
 20
-27.6456727296
 11
16.632505612
 21
-27.6210718403
  0
LINE
  5
492
100
AcDbEntity
  8
RACCORDO
100
AcDbLine
 62
7
  6
CONTINUOUS
 10
-42.383753376
 20
5.7949852282
 11
-42.3897087503
 21
5.8097659806
  0
LINE
  5
493
100
AcDbEntity
  8
0
100
AcDbLine
 62
7
  6
CONTINUOUS
 10
4.0854950278
 20
-25.1367858335
 11
4.0767031681
 21
-25.1149447255
  0
LINE
  5
494
100
AcDbEntity
  8
0
100
AcDbLine
 62
7
  6
CONTINUOUS
 10
4.1835194485
 20
-25.0544250836
 11
4.192103329
 21
-25.0758079803
  0
LINE
  5
495
100
AcDbEntity
  8
0
100
AcDbLine
 62
7
  6
CONTINUOUS
 10
-12.0887665032
 20
23.3385660503
 11
-12.0964663831
 21
23.3577552189
  0
LINE
  5
496
100
AcDbEntity
  8
0
100
AcDbLine
 62
7
  6
CONTINUOUS
 10
4.4466453244
 20
-25.2071323614
 11
4.4551910612
 21
-25.2285494638
  0
LINE
  5
497
100
AcDbEntity
  8
RACCORDO
100
AcDbLine
 62
7
  6
CONTINUOUS
 10
-14.9771521549
 20
27.2522719611
 11
-14.9678746203
 21
27.2290198531
  0
LINE
  5
498
100
AcDbEntity
  8
RACCORDO
100
AcDbLine
 62
7
  6
CONTINUOUS
 10
15.9130135651
 20
9.4166773932
 11
15.9222911037
 21
9.3934252844
  0
LINE
  5
499
100
AcDbEntity
  8
0
100
AcDbLine
 62
7
  6
CONTINUOUS
 10
4.190105359
 20
-24.1143267461
 11
4.1988576233
 21
-24.1363383042
  0
LINE
  5
49A
100
AcDbEntity
  8
0
100
AcDbLine
 62
7
  6
CONTINUOUS
 10
4.0935766802
 20
-24.2005206033
 11
4.0834798296
 21
-24.1750638968
  0
LINE
  5
49B
100
AcDbEntity
  8
0
100
AcDbLine
 62
7
  6
CONTINUOUS
 10
4.4231990788
 20
-24.1807823476
 11
4.44099237
 21
-24.2257352732
  0
LINE
  5
49C
100
AcDbEntity
  8
RACCORDO
100
AcDbLine
 62
7
  6
CONTINUOUS
 10
-15.8272985412
 20
-9.4328271786
 11
-15.8527552269
 21
-9.3681888213
  0
LINE
  5
49D
100
AcDbEntity
  8
RACCORDO
100
AcDbLine
 62
7
  6
CONTINUOUS
 10
-40.7052114733
 20
-10.673647555
 11
-40.6840084063
 21
-10.7278148418
  0
LINE
  5
49E
100
AcDbEntity
  8
RACCORDO
100
AcDbLine
 62
7
  6
CONTINUOUS
 10
16.6300454526
 20
8.6547189512
 11
16.6555850137
 21
8.5890561927
  0
LINE
  5
49F
100
AcDbEntity
  8
0
100
AcDbLine
 62
7
  6
CONTINUOUS
 10
4.4551910612
 20
-25.2285494638
 11
4.4632834908
 21
-25.249626989
  0
LINE
  5
4A0
100
AcDbEntity
  8
RACCORDO
100
AcDbLine
 62
7
  6
CONTINUOUS
 10
16.5406162154
 20
-28.1857486341
 11
16.5259101355
 21
-28.1472350064
  0
LINE
  5
4A1
100
AcDbEntity
  8
0
100
AcDbLine
 62
7
  6
CONTINUOUS
 10
-0.9444209319
 20
-13.8956513103
 11
-0.9554905668
 21
-13.8665120368
  0
LINE
  5
4A2
100
AcDbEntity
  8
RACCORDO
100
AcDbLine
 62
7
  6
CONTINUOUS
 10
-40.7485428508
 20
-10.5075119216
 11
-40.7546526116
 21
-10.49133179
  0
LINE
  5
4A3
100
AcDbEntity
  8
0
100
AcDbLine
 62
7
  6
CONTINUOUS
 10
4.4632834908
 20
-25.249626989
 11
4.4709239284
 21
-25.2703328089
  0
LINE
  5
4A4
100
AcDbEntity
  8
RACCORDO
100
AcDbLine
 62
7
  6
CONTINUOUS
 10
-15.2055845013
 20
-9.1678638597
 11
-15.2202189208
 21
-9.1281343359
  0
LINE
  5
4A5
100
AcDbEntity
  8
RACCORDO
100
AcDbLine
 62
7
  6
CONTINUOUS
 10
16.5315334853
 20
8.6205566288
 11
16.5503062974
 21
8.5694057274
  0
LINE
  5
4A6
100
AcDbEntity
  8
RACCORDO
100
AcDbLine
 62
7
  6
CONTINUOUS
 10
-40.6383364322
 20
-10.7175289582
 11
-40.6259374102
 21
-10.7514311751
  0
LINE
  5
4A7
100
AcDbEntity
  8
0
100
AcDbLine
 62
7
  6
CONTINUOUS
 10
4.0935082521
 20
-25.1587219652
 11
4.0854950278
 21
-25.1367858335
  0
LINE
  5
4A8
100
AcDbEntity
  8
0
100
AcDbLine
 62
7
  6
CONTINUOUS
 10
4.192103329
 20
-25.0758079803
 11
4.1999364293
 21
-25.0972716275
  0
LINE
  5
4A9
100
AcDbEntity
  8
0
100
AcDbLine
 62
7
  6
CONTINUOUS
 10
-1.0829851912
 20
-14.0914928411
 11
-1.0761478662
 21
-14.1105291846
  0
LINE
  5
4AA
100
AcDbEntity
  8
RACCORDO
100
AcDbLine
 62
7
  6
CONTINUOUS
 10
-15.8527552269
 20
-9.3681888213
 11
-15.8759883522
 21
-9.3030193063
  0
LINE
  5
4AB
100
AcDbEntity
  8
0
100
AcDbLine
 62
7
  6
CONTINUOUS
 10
-11.8780588479
 20
23.1843640267
 11
-11.883030941
 21
23.1984438293
  0
LINE
  5
4AC
100
AcDbEntity
  8
0
100
AcDbLine
 62
7
  6
CONTINUOUS
 10
4.4709239284
 20
-25.2703328089
 11
4.478110995
 21
-25.2906990938
  0
LINE
  5
4AD
100
AcDbEntity
  8
0
100
AcDbLine
 62
7
  6
CONTINUOUS
 10
4.1988576233
 20
-24.1363383042
 11
4.2064382169
 21
-24.1578856116
  0
LINE
  5
4AE
100
AcDbEntity
  8
0
100
AcDbLine
 62
7
  6
CONTINUOUS
 10
4.44099237
 20
-24.2257352732
 11
4.4568972748
 21
-24.2709804105
  0
LINE
  5
4AF
100
AcDbEntity
  8
RACCORDO
100
AcDbLine
 62
7
  6
CONTINUOUS
 10
16.6555850137
 20
8.5890561927
 11
16.6787447501
 21
8.522782891
  0
LINE
  5
4B0
100
AcDbEntity
  8
RACCORDO
100
AcDbLine
 62
7
  6
CONTINUOUS
 10
-40.723638106
 20
-10.6195773942
 11
-40.7052114733
 21
-10.673647555
  0
LINE
  5
4B1
100
AcDbEntity
  8
0
100
AcDbLine
 62
7
  6
CONTINUOUS
 10
4.478110995
 20
-25.2906990938
 11
4.4849480993
 21
-25.3107577702
  0
LINE
  5
4B2
100
AcDbEntity
  8
0
100
AcDbLine
 62
7
  6
CONTINUOUS
 10
4.102067446
 20
-24.2255387537
 11
4.0935766802
 21
-24.2005206033
  0
LINE
  5
4B3
100
AcDbEntity
  8
0
100
AcDbLine
 62
7
  6
CONTINUOUS
 10
4.1999364293
 20
-25.0972716275
 11
4.2121997894
 21
-25.1334419467
  0
LINE
  5
4B4
100
AcDbEntity
  8
0
100
AcDbLine
 62
7
  6
CONTINUOUS
 10
4.1058028562
 20
-25.1949950874
 11
4.0935082521
 21
-25.1587219652
  0
LINE
  5
4B5
100
AcDbEntity
  8
RACCORDO
100
AcDbLine
 62
7
  6
CONTINUOUS
 10
-40.0867174548
 20
-11.4145616457
 11
-40.0808456205
 21
-11.4318973164
  0
LINE
  5
4B6
100
AcDbEntity
  8
RACCORDO
100
AcDbLine
 62
7
  6
CONTINUOUS
 10
-40.7546564739
 20
61.2177529921
 11
-40.7586895891
 21
61.2297678332
  0
LINE
  5
4B7
100
AcDbEntity
  8
0
100
AcDbLine
 62
7
  6
CONTINUOUS
 10
4.2121997894
 20
-25.1334419467
 11
4.2241442717
 21
-25.1694992974
  0
LINE
  5
4B8
100
AcDbEntity
  8
0
100
AcDbLine
 62
7
  6
CONTINUOUS
 10
4.1177751314
 20
-25.2311476179
 11
4.1058028562
 21
-25.1949950874
  0
LINE
  5
4B9
100
AcDbEntity
  8
0
100
AcDbLine
 62
7
  6
CONTINUOUS
 10
4.4849480993
 20
-25.3107577702
 11
4.4914275938
 21
-25.3304748599
  0
LINE
  5
4BA
100
AcDbEntity
  8
RACCORDO
100
AcDbLine
 62
7
  6
CONTINUOUS
 10
16.5503062974
 20
8.5694057274
 11
16.5669165667
 21
8.5187272568
  0
LINE
  5
4BB
100
AcDbEntity
  8
RACCORDO
100
AcDbLine
 62
7
  6
CONTINUOUS
 10
-15.2202189208
 20
-9.1281343359
 11
-15.2331598126
 21
-9.0886210909
  0
LINE
  5
4BC
100
AcDbEntity
  8
0
100
AcDbLine
 62
7
  6
CONTINUOUS
 10
-12.0824464772
 20
23.3192353788
 11
-12.0887665032
 21
23.3385660503
  0
LINE
  5
4BD
100
AcDbEntity
  8
RACCORDO
100
AcDbLine
 62
7
  6
CONTINUOUS
 10
-40.6491236264
 20
-10.6842511274
 11
-40.6383364322
 21
-10.7175289582
  0
LINE
  5
4BE
100
AcDbEntity
  8
0
100
AcDbLine
 62
7
  6
CONTINUOUS
 10
4.2241442717
 20
-25.1694992974
 11
4.2357699284
 21
-25.2054436426
  0
LINE
  5
4BF
100
AcDbEntity
  8
0
100
AcDbLine
 62
7
  6
CONTINUOUS
 10
4.1294251263
 20
-25.2671795221
 11
4.1177751314
 21
-25.2311476179
  0
LINE
  5
4C0
100
AcDbEntity
  8
RACCORDO
100
AcDbLine
 62
7
  6
CONTINUOUS
 10
-15.8759883522
 20
-9.3030193063
 11
-15.8965359056
 21
-9.2384499904
  0
LINE
  5
4C1
100
AcDbEntity
  8
0
100
AcDbLine
 62
7
  6
CONTINUOUS
 10
4.4914275938
 20
-25.3304748599
 11
4.4975570441
 21
-25.3498843957
  0
LINE
  5
4C2
100
AcDbEntity
  8
0
100
AcDbLine
 62
7
  6
CONTINUOUS
 10
4.140701563
 20
-25.3030572532
 11
4.1294251263
 21
-25.2671795221
  0
LINE
  5
4C3
100
AcDbEntity
  8
0
100
AcDbLine
 62
7
  6
CONTINUOUS
 10
4.2357699284
 20
-25.2054436426
 11
4.2470256129
 21
-25.2412405426
  0
LINE
  5
4C4
100
AcDbEntity
  8
0
100
AcDbLine
 62
7
  6
CONTINUOUS
 10
4.4568972748
 20
-24.2709804105
 11
4.4705181998
 21
-24.3147403067
  0
LINE
  5
4C5
100
AcDbEntity
  8
RACCORDO
100
AcDbLine
 62
7
  6
CONTINUOUS
 10
16.6787447501
 20
8.522782891
 11
16.6996518463
 21
8.4555079411
  0
LINE
  5
4C6
100
AcDbEntity
  8
0
100
AcDbLine
 62
7
  6
CONTINUOUS
 10
4.4975570441
 20
-25.3498843957
 11
4.503462691
 21
-25.3691203125
  0
LINE
  5
4C7
100
AcDbEntity
  8
0
100
AcDbLine
 62
7
  6
CONTINUOUS
 10
4.2470256129
 20
-25.2412405426
 11
4.2687344703
 21
-25.3125982741
  0
LINE
  5
4C8
100
AcDbEntity
  8
0
100
AcDbLine
 62
7
  6
CONTINUOUS
 10
4.1624419178
 20
-25.3745511303
 11
4.140701563
 21
-25.3030572532
  0
LINE
  5
4C9
100
AcDbEntity
  8
0
100
AcDbLine
 62
7
  6
CONTINUOUS
 10
4.2064382169
 20
-24.1578856116
 11
4.212863015
 21
-24.1790208802
  0
LINE
  5
4CA
100
AcDbEntity
  8
0
100
AcDbLine
 62
7
  6
CONTINUOUS
 10
-11.8245910631
 20
23.3064143426
 11
-11.8342667376
 21
23.3385195585
  0
LINE
  5
4CB
100
AcDbEntity
  8
0
100
AcDbLine
 62
7
  6
CONTINUOUS
 10
4.503462691
 20
-25.3691203125
 11
4.5091348289
 21
-25.3881743829
  0
LINE
  5
4CC
100
AcDbEntity
  8
0
100
AcDbLine
 62
7
  6
CONTINUOUS
 10
4.3254321787
 20
-25.9268292751
 11
4.2360144509
 21
-25.6261265821
  0
LINE
  5
4CD
100
AcDbEntity
  8
0
100
AcDbLine
 62
7
  6
CONTINUOUS
 10
4.3422850322
 20
-25.5640297314
 11
4.4319065939
 21
-25.8653522822
  0
LINE
  5
4CE
100
AcDbEntity
  8
RACCORDO
100
AcDbLine
 62
7
  6
CONTINUOUS
 10
16.5259101355
 20
-28.1472350064
 11
16.5142976067
 21
-28.1081705684
  0
LINE
  5
4CF
100
AcDbEntity
  8
RACCORDO
100
AcDbLine
 62
7
  6
CONTINUOUS
 10
-14.9845509386
 20
27.2773297975
 11
-14.9771521549
 21
27.2522719611
  0
LINE
  5
4D0
100
AcDbEntity
  8
RACCORDO
100
AcDbLine
 62
7
  6
CONTINUOUS
 10
15.9056147777
 20
9.4417352321
 11
15.9130135651
 21
9.4166773932
  0
LINE
  5
4D1
100
AcDbEntity
  8
0
100
AcDbLine
 62
7
  6
CONTINUOUS
 10
4.1835096173
 20
-25.4459563652
 11
4.1624419178
 21
-25.3745511303
  0
LINE
  5
4D2
100
AcDbEntity
  8
0
100
AcDbLine
 62
7
  6
CONTINUOUS
 10
4.2687344703
 20
-25.3125982741
 11
4.2897832532
 21
-25.383910285
  0
LINE
  5
4D3
100
AcDbEntity
  8
0
100
AcDbLine
 62
7
  6
CONTINUOUS
 10
4.2897832532
 20
-25.383910285
 11
4.3422850322
 21
-25.5640297314
  0
LINE
  5
4D4
100
AcDbEntity
  8
0
100
AcDbLine
 62
7
  6
CONTINUOUS
 10
4.2360144509
 20
-25.6261265821
 11
4.1835096173
 21
-25.4459563652
  0
LINE
  5
4D5
100
AcDbEntity
  8
0
100
AcDbLine
 62
7
  6
CONTINUOUS
 10
-1.1308790813
 20
-13.8027027461
 11
-1.134478987
 21
-13.7903077644
  0
LINE
  5
4D6
100
AcDbEntity
  8
RACCORDO
100
AcDbLine
 62
7
  6
CONTINUOUS
 10
-40.7391920175
 20
-10.5656807015
 11
-40.723638106
 21
-10.6195773942
  0
LINE
  5
4D7
100
AcDbEntity
  8
0
100
AcDbLine
 62
7
  6
CONTINUOUS
 10
4.1090491551
 20
-24.2497969478
 11
4.102067446
 21
-24.2255387537
  0
LINE
  5
4D8
100
AcDbEntity
  8
0
100
AcDbLine
 62
7
  6
CONTINUOUS
 10
4.5091348289
 20
-25.3881743829
 11
4.5199629612
 21
-25.4259203435
  0
LINE
  5
4D9
100
AcDbEntity
  8
RACCORDO
100
AcDbLine
 62
7
  6
CONTINUOUS
 10
-15.2331598126
 20
-9.0886210909
 11
-15.244368194
 21
-9.0494515029
  0
LINE
  5
4DA
100
AcDbEntity
  8
0
100
AcDbLine
 62
7
  6
CONTINUOUS
 10
-1.0761478662
 20
-14.1105291846
 11
-1.070779354
 21
-14.1295080796
  0
LINE
  5
4DB
100
AcDbEntity
  8
0
100
AcDbLine
 62
7
  6
CONTINUOUS
 10
4.5199629612
 20
-25.4259203435
 11
4.5306208246
 21
-25.4637120768
  0
LINE
  5
4DC
100
AcDbEntity
  8
RACCORDO
100
AcDbLine
 62
7
  6
CONTINUOUS
 10
-40.6582580304
 20
-10.6517066368
 11
-40.6491236264
 21
-10.6842511274
  0
LINE
  5
4DD
100
AcDbEntity
  8
RACCORDO
100
AcDbLine
 62
7
  6
CONTINUOUS
 10
-42.3897087536
 20
42.8198823043
 11
-42.3935722147
 21
42.8336526211
  0
LINE
  5
4DE
100
AcDbEntity
  8
0
100
AcDbLine
 62
7
  6
CONTINUOUS
 10
4.6419940695
 20
-25.8654818631
 11
4.7229199451
 21
-26.1563337297
  0
LINE
  5
4DF
100
AcDbEntity
  8
RACCORDO
100
AcDbLine
 62
7
  6
CONTINUOUS
 10
-15.8965359056
 20
-9.2384499904
 11
-15.9142846398
 21
-9.174530225
  0
LINE
  5
4E0
100
AcDbEntity
  8
0
100
AcDbLine
 62
7
  6
CONTINUOUS
 10
4.5306208246
 20
-25.4637120768
 11
4.6419940695
 21
-25.8654818631
  0
LINE
  5
4E1
100
AcDbEntity
  8
0
100
AcDbLine
 62
7
  6
CONTINUOUS
 10
-0.9364241838
 20
-13.9253836761
 11
-0.9444209319
 21
-13.8956513103
  0
LINE
  5
4E2
100
AcDbEntity
  8
0
100
AcDbLine
 62
7
  6
CONTINUOUS
 10
4.4705181998
 20
-24.3147403067
 11
4.4815482706
 21
-24.3566239827
  0
LINE
  5
4E3
100
AcDbEntity
  8
0
100
AcDbLine
 62
7
  6
CONTINUOUS
 10
4.212863015
 20
-24.1790208802
 11
4.2181687287
 21
-24.1994560578
  0
LINE
  5
4E4
100
AcDbEntity
  8
0
100
AcDbLine
 62
7
  6
CONTINUOUS
 10
-11.874178898
 20
23.1693721113
 11
-11.8780588479
 21
23.1843640267
  0
LINE
  5
4E5
100
AcDbEntity
  8
RACCORDO
100
AcDbLine
 62
7
  6
CONTINUOUS
 10
16.632505612
 20
-27.6210718403
 11
16.626067895
 21
-27.5959615435
  0
LINE
  5
4E6
100
AcDbEntity
  8
RACCORDO
100
AcDbLine
 62
7
  6
CONTINUOUS
 10
-42.3897087503
 20
5.8097659806
 11
-42.3935722115
 21
5.8248547846
  0
LINE
  5
4E7
100
AcDbEntity
  8
0
100
AcDbLine
 62
7
  6
CONTINUOUS
 10
-12.077575522
 20
23.2999749132
 11
-12.0824464772
 21
23.3192353788
  0
LINE
  5
4E8
100
AcDbEntity
  8
RACCORDO
100
AcDbLine
 62
7
  6
CONTINUOUS
 10
-15.244368194
 20
-9.0494515029
 11
-15.2538272234
 21
-9.0107427312
  0
LINE
  5
4E9
100
AcDbEntity
  8
RACCORDO
100
AcDbLine
 62
7
  6
CONTINUOUS
 10
-40.7546526116
 20
-10.49133179
 11
-40.7586853255
 21
-10.4746759525
  0
LINE
  5
4EA
100
AcDbEntity
  8
RACCORDO
100
AcDbLine
 62
7
  6
CONTINUOUS
 10
-15.9142846398
 20
-9.174530225
 11
-15.9293470123
 21
-9.1112101599
  0
LINE
  5
4EB
100
AcDbEntity
  8
RACCORDO
100
AcDbLine
 62
7
  6
CONTINUOUS
 10
-40.6657801862
 20
-10.619786206
 11
-40.6582580304
 21
-10.6517066368
  0
LINE
  5
4EC
100
AcDbEntity
  8
0
100
AcDbLine
 62
7
  6
CONTINUOUS
 10
4.1145541095
 20
-24.2731880789
 11
4.1090491551
 21
-24.2497969478
  0
LINE
  5
4ED
100
AcDbEntity
  8
RACCORDO
100
AcDbLine
 62
7
  6
CONTINUOUS
 10
-40.7517625601
 20
-10.5119894867
 11
-40.7391920175
 21
-10.5656807015
  0
LINE
  5
4EE
100
AcDbEntity
  8
RACCORDO
100
AcDbLine
 62
7
  6
CONTINUOUS
 10
-40.0909695554
 20
-11.3957698842
 11
-40.0867174548
 21
-11.4145616457
  0
LINE
  5
4EF
100
AcDbEntity
  8
0
100
AcDbLine
 62
7
  6
CONTINUOUS
 10
4.4815482706
 20
-24.3566239827
 11
4.4902940024
 21
-24.3970226494
  0
LINE
  5
4F0
100
AcDbEntity
  8
RACCORDO
100
AcDbLine
 62
7
  6
CONTINUOUS
 10
16.5142976067
 20
-28.1081705684
 11
16.5058623065
 21
-28.0688368099
  0
LINE
  5
4F1
100
AcDbEntity
  8
0
100
AcDbLine
 62
7
  6
CONTINUOUS
 10
4.2181687287
 20
-24.1994560578
 11
4.2223675286
 21
-24.2190951706
  0
LINE
  5
4F2
100
AcDbEntity
  8
0
100
AcDbLine
 62
7
  6
CONTINUOUS
 10
-11.8176052971
 20
23.2728642679
 11
-11.8245910631
 21
23.3064143426
  0
LINE
  5
4F3
100
AcDbEntity
  8
0
100
AcDbLine
 62
7
  6
CONTINUOUS
 10
-1.070779354
 20
-14.1295080796
 11
-1.0669384536
 21
-14.1482216658
  0
LINE
  5
4F4
100
AcDbEntity
  8
RACCORDO
100
AcDbLine
 62
7
  6
CONTINUOUS
 10
-14.9900295404
 20
27.3040530461
 11
-14.9845509386
 21
27.2773297975
  0
LINE
  5
4F5
100
AcDbEntity
  8
RACCORDO
100
AcDbLine
 62
7
  6
CONTINUOUS
 10
-15.2538272234
 20
-9.0107427312
 11
-15.2614679357
 21
-8.9728803706
  0
LINE
  5
4F6
100
AcDbEntity
  8
RACCORDO
100
AcDbLine
 62
7
  6
CONTINUOUS
 10
-15.9293470123
 20
-9.1112101599
 11
-15.9416002984
 21
-9.0494728115
  0
LINE
  5
4F7
100
AcDbEntity
  8
RACCORDO
100
AcDbLine
 62
7
  6
CONTINUOUS
 10
-40.6716898578
 20
-10.5884896518
 11
-40.6657801862
 21
-10.619786206
  0
LINE
  5
4F8
100
AcDbEntity
  8
RACCORDO
100
AcDbLine
 62
7
  6
CONTINUOUS
 10
-40.7590209178
 20
-10.472695619
 11
-40.7517625601
 21
-10.5119894867
  0
LINE
  5
4F9
100
AcDbEntity
  8
0
100
AcDbLine
 62
7
  6
CONTINUOUS
 10
4.4902940024
 20
-24.3970226494
 11
4.4972779463
 21
-24.4353334238
  0
LINE
  5
4FA
100
AcDbEntity
  8
0
100
AcDbLine
 62
7
  6
CONTINUOUS
 10
-12.0742069841
 20
23.2809955933
 11
-12.077575522
 21
23.2999749132
  0
LINE
  5
4FB
100
AcDbEntity
  8
0
100
AcDbLine
 62
7
  6
CONTINUOUS
 10
4.1185500731
 20
-24.2958192087
 11
4.1145541095
 21
-24.2731880789
  0
LINE
  5
4FC
100
AcDbEntity
  8
0
100
AcDbLine
 62
7
  6
CONTINUOUS
 10
-11.8714157145
 20
23.1535448524
 11
-11.874178898
 21
23.1693721113
  0
LINE
  5
4FD
100
AcDbEntity
  8
RACCORDO
100
AcDbLine
 62
7
  6
CONTINUOUS
 10
-40.7586853255
 20
-10.4746759525
 11
-40.7589909151
 21
-10.4728800985
  0
LINE
  5
4FE
100
AcDbEntity
  8
0
100
AcDbLine
 62
7
  6
CONTINUOUS
 10
-0.9315265973
 20
-13.9553487109
 11
-0.9364241838
 21
-13.9253836761
  0
LINE
  5
4FF
100
AcDbEntity
  8
RACCORDO
100
AcDbLine
 62
7
  6
CONTINUOUS
 10
-40.7589909151
 20
-10.4728800985
 11
-40.7590209178
 21
-10.472695619
  0
LINE
  5
500
100
AcDbEntity
  8
0
100
AcDbLine
 62
7
  6
CONTINUOUS
 10
4.2223675286
 20
-24.2190951706
 11
4.2254471781
 21
-24.2380342356
  0
LINE
  5
501
100
AcDbEntity
  8
RACCORDO
100
AcDbLine
 62
7
  6
CONTINUOUS
 10
-40.7586895891
 20
61.2297678332
 11
-40.7606168947
 21
61.2416769801
  0
LINE
  5
502
100
AcDbEntity
  8
0
100
AcDbLine
 62
7
  6
CONTINUOUS
 10
-1.1288956324
 20
-13.8152050074
 11
-1.1308790813
 21
-13.8027027461
  0
LINE
  5
503
100
AcDbEntity
  8
RACCORDO
100
AcDbLine
 62
7
  6
CONTINUOUS
 10
-15.2614679357
 20
-8.9728803706
 11
-15.267296827
 21
-8.9360506106
  0
LINE
  5
504
100
AcDbEntity
  8
RACCORDO
100
AcDbLine
 62
7
  6
CONTINUOUS
 10
-15.9416002984
 20
-9.0494728115
 11
-15.9510037543
 21
-8.9896459571
  0
LINE
  5
505
100
AcDbEntity
  8
RACCORDO
100
AcDbLine
 62
7
  6
CONTINUOUS
 10
-41.0244491481
 20
-8.7737478823
 11
-40.7589950108
 21
-10.4728807665
  0
LINE
  5
506
100
AcDbEntity
  8
RACCORDO
100
AcDbLine
 62
7
  6
CONTINUOUS
 10
-40.9432356054
 20
-8.8485747124
 11
-40.6716898578
 21
-10.5884896518
  0
LINE
  5
507
100
AcDbEntity
  8
0
100
AcDbLine
 62
7
  6
CONTINUOUS
 10
4.4972779463
 20
-24.4353334238
 11
4.5025076846
 21
-24.4713084353
  0
LINE
  5
508
100
AcDbEntity
  8
RACCORDO
100
AcDbLine
 62
7
  6
CONTINUOUS
 10
-41.2760234714
 20
-7.0017055195
 11
-41.0244491481
 21
-8.7737478823
  0
LINE
  5
509
100
AcDbEntity
  8
RACCORDO
100
AcDbLine
 62
7
  6
CONTINUOUS
 10
-41.1924380116
 20
-7.0898263117
 11
-40.9432356054
 21
-8.8485747124
  0
LINE
  5
50A
100
AcDbEntity
  8
RACCORDO
100
AcDbLine
 62
7
  6
CONTINUOUS
 10
-41.5048559058
 20
-5.2109923453
 11
-41.2760234714
 21
-7.0017055195
  0
LINE
  5
50B
100
AcDbEntity
  8
RACCORDO
100
AcDbLine
 62
7
  6
CONTINUOUS
 10
-41.419244194
 20
-5.3126012808
 11
-41.1924380116
 21
-7.0898263117
  0
LINE
  5
50C
100
AcDbEntity
  8
RACCORDO
100
AcDbLine
 62
7
  6
CONTINUOUS
 10
-42.3935722147
 20
42.8336526211
 11
-42.3953162835
 21
42.8474923705
  0
LINE
  5
50D
100
AcDbEntity
  8
RACCORDO
100
AcDbLine
 62
7
  6
CONTINUOUS
 10
-14.9935572818
 20
27.3322920648
 11
-14.9900295404
 21
27.3040530461
  0
LINE
  5
50E
100
AcDbEntity
  8
0
100
AcDbLine
 62
7
  6
CONTINUOUS
 10
-1.0669384536
 20
-14.1482216658
 11
-1.0646672326
 21
-14.1664649926
  0
LINE
  5
50F
100
AcDbEntity
  8
0
100
AcDbLine
 62
7
  6
CONTINUOUS
 10
-11.8133289072
 20
23.2378693811
 11
-11.8176052971
 21
23.2728642679
  0
LINE
  5
510
100
AcDbEntity
  8
RACCORDO
100
AcDbLine
 62
7
  6
CONTINUOUS
 10
-42.3935722115
 20
5.8248547846
 11
-42.3953162805
 21
5.8401443193
  0
LINE
  5
511
100
AcDbEntity
  8
RACCORDO
100
AcDbLine
 62
7
  6
CONTINUOUS
 10
-41.7108930101
 20
-3.402019647
 11
-41.5048559058
 21
-5.2109923453
  0
LINE
  5
512
100
AcDbEntity
  8
RACCORDO
100
AcDbLine
 62
7
  6
CONTINUOUS
 10
-41.6236036696
 20
-3.5172644563
 11
-41.419244194
 21
-5.3126012808
  0
LINE
  5
513
100
AcDbEntity
  8
0
100
AcDbLine
 62
7
  6
CONTINUOUS
 10
4.1210370979
 20
-24.3176903022
 11
4.1185500731
 21
-24.2958192087
  0
LINE
  5
514
100
AcDbEntity
  8
RACCORDO
100
AcDbLine
 62
7
  6
CONTINUOUS
 10
-15.267296827
 20
-8.9360506106
 11
-15.2713581922
 21
-8.900253188
  0
LINE
  5
515
100
AcDbEntity
  8
RACCORDO
100
AcDbLine
 62
7
  6
CONTINUOUS
 10
-15.9510037543
 20
-8.9896459571
 11
-15.9575981848
 21
-8.9314018609
  0
LINE
  5
516
100
AcDbEntity
  8
0
100
AcDbLine
 62
7
  6
CONTINUOUS
 10
3.6377115168
 20
-24.8477112857
 11
3.6271550378
 21
-24.7046777965
  0
LINE
  5
517
100
AcDbEntity
  8
0
100
AcDbLine
 62
7
  6
CONTINUOUS
 10
4.2659650907
 20
-24.9149505004
 11
4.2650308535
 21
-24.9019823891
  0
LINE
  5
518
100
AcDbEntity
  8
0
100
AcDbLine
 62
7
  6
CONTINUOUS
 10
4.5059739219
 20
-24.5051966868
 11
4.5081731196
 21
-24.5371411201
  0
LINE
  5
519
100
AcDbEntity
  8
0
100
AcDbLine
 62
7
  6
CONTINUOUS
 10
3.5875786462
 20
-24.3373344596
 11
3.5462184752
 21
-23.7336980567
  0
LINE
  5
51A
100
AcDbEntity
  8
0
100
AcDbLine
 62
7
  6
CONTINUOUS
 10
3.2801757931
 20
-23.8185193502
 11
3.2390403197
 21
-23.2029216842
  0
LINE
  5
51B
100
AcDbEntity
  8
0
100
AcDbLine
 62
7
  6
CONTINUOUS
 10
3.173798153
 20
-23.8799398807
 11
3.1255850894
 21
-23.1543970272
  0
LINE
  5
51C
100
AcDbEntity
  8
0
100
AcDbLine
 62
7
  6
CONTINUOUS
 10
4.2274076575
 20
-24.2562732653
 11
4.2285040534
 21
-24.2754412946
  0
LINE
  5
51D
100
AcDbEntity
  8
0
100
AcDbLine
 62
7
  6
CONTINUOUS
 10
4.1221393056
 20
-24.3370357449
 11
4.1210370979
 21
-24.3176903022
  0
LINE
  5
51E
100
AcDbEntity
  8
0
100
AcDbLine
 62
7
  6
CONTINUOUS
 10
-1.0646672326
 20
-14.1664649926
 11
-1.0639905679
 21
-14.184038257
  0
LINE
  5
51F
100
AcDbEntity
  8
0
100
AcDbLine
 62
7
  6
CONTINUOUS
 10
4.5081731196
 20
-24.5371411201
 11
4.5091705709
 21
-24.5671067435
  0
LINE
  5
520
100
AcDbEntity
  8
0
100
AcDbLine
 62
7
  6
CONTINUOUS
 10
-1.1285007284
 20
-13.8278155032
 11
-1.1288956324
 21
-13.8152050074
  0
LINE
  5
521
100
AcDbEntity
  8
0
100
AcDbLine
 62
7
  6
CONTINUOUS
 10
4.2285040534
 20
-24.2754412946
 11
4.2287869299
 21
-24.2939801091
  0
LINE
  5
522
100
AcDbEntity
  8
0
100
AcDbLine
 62
7
  6
CONTINUOUS
 10
4.1224116994
 20
-24.3557436004
 11
4.1221393056
 21
-24.3370357449
  0
LINE
  5
523
100
AcDbEntity
  8
0
100
AcDbLine
 62
7
  6
CONTINUOUS
 10
-0.9296676822
 20
-13.9887354312
 11
-0.9296869465
 21
-13.9852125819
  0
LINE
  5
524
100
AcDbEntity
  8
0
100
AcDbLine
 62
7
  6
CONTINUOUS
 10
-0.929667419
 20
-13.9885775298
 11
-0.929667419
 21
-14.5703046445
  0
LINE
  5
525
100
AcDbEntity
  8
0
100
AcDbLine
 62
7
  6
CONTINUOUS
 10
-1.0639560012
 20
-14.1840172152
 11
-1.0639905682
 21
-14.7729070832
  0
LINE
  5
526
100
AcDbEntity
  8
0
100
AcDbLine
 62
7
  6
CONTINUOUS
 10
-0.9297581711
 20
-14.5758863553
 11
-0.929667419
 21
-14.5702690798
  0
LINE
  5
527
100
AcDbEntity
  8
0
100
AcDbLine
 62
7
  6
CONTINUOUS
 10
-0.9297583199
 20
-13.9940618169
 11
-0.929667473
 21
-13.9887198556
  0
LINE
  5
528
100
AcDbEntity
  8
0
100
AcDbLine
 62
7
  6
CONTINUOUS
 10
-1.0639905682
 20
-14.7729070832
 11
-1.0642937333
 21
-14.7892141979
  0
LINE
  5
529
100
AcDbEntity
  8
0
100
AcDbLine
 62
7
  6
CONTINUOUS
 10
-0.9309334601
 20
-14.5981106525
 11
-0.9296679187
 21
-14.5701986856
  0
LINE
  5
52A
100
AcDbEntity
  8
0
100
AcDbLine
 62
7
  6
CONTINUOUS
 10
-11.8714157133
 20
21.2578705176
 11
-11.8697446736
 21
21.2765735411
  0
LINE
  5
52B
100
AcDbEntity
  8
0
100
AcDbLine
 62
7
  6
CONTINUOUS
 10
-11.8159745975
 20
21.3109965091
 11
-11.8127337355
 21
21.3457024628
  0
LINE
  5
52C
100
AcDbEntity
  8
RACCORDO
100
AcDbLine
 62
7
  6
CONTINUOUS
 10
-14.9935572801
 20
-10.3768474211
 11
-14.9900295362
 21
-10.3445346456
  0
LINE
  5
52D
100
AcDbEntity
  8
RACCORDO
100
AcDbLine
 62
7
  6
CONTINUOUS
 10
-15.2713855602
 20
26.8428291421
 11
-15.2673717357
 21
26.877195586
  0
LINE
  5
52E
100
AcDbEntity
  8
0
100
AcDbLine
 62
7
  6
CONTINUOUS
 10
-12.0723777496
 20
20.9145625654
 11
-12.0742069545
 21
20.8993161586
  0
LINE
  5
52F
100
AcDbEntity
  8
0
100
AcDbLine
 62
7
  6
CONTINUOUS
 10
-11.8741788968
 20
21.238796221
 11
-11.8714157133
 21
21.2578705176
  0
LINE
  5
530
100
AcDbEntity
  8
0
100
AcDbLine
 62
7
  6
CONTINUOUS
 10
-11.8214618509
 20
21.2761962758
 11
-11.8159745975
 21
21.3109965091
  0
LINE
  5
531
100
AcDbEntity
  8
RACCORDO
100
AcDbLine
 62
7
  6
CONTINUOUS
 10
-15.9511533253
 20
26.9514328538
 11
-15.9418500037
 21
27.0056917223
  0
LINE
  5
532
100
AcDbEntity
  8
RACCORDO
100
AcDbLine
 62
7
  6
CONTINUOUS
 10
-15.2673717357
 20
26.877195586
 11
-15.2616068654
 21
26.9107639062
  0
LINE
  5
533
100
AcDbEntity
  8
0
100
AcDbLine
 62
7
  6
CONTINUOUS
 10
-11.8141173415
 20
23.1826250624
 11
-11.8120434879
 21
23.1945854154
  0
LINE
  5
534
100
AcDbEntity
  8
RACCORDO
100
AcDbLine
 62
7
  6
CONTINUOUS
 10
-40.6119331188
 20
61.3382184729
 11
-40.6258588347
 21
61.3083721725
  0
LINE
  5
535
100
AcDbEntity
  8
RACCORDO
100
AcDbLine
 62
7
  6
CONTINUOUS
 10
-40.6655296622
 20
61.5607939323
 11
-40.6883136395
 21
61.5137941731
  0
LINE
  5
536
100
AcDbEntity
  8
RACCORDO
100
AcDbLine
 62
7
  6
CONTINUOUS
 10
-40.0540396689
 20
61.6058476471
 11
-40.0422766914
 21
61.6296997232
  0
LINE
  5
537
100
AcDbEntity
  8
RACCORDO
100
AcDbLine
 62
7
  6
CONTINUOUS
 10
-40.5965121157
 20
61.3663544612
 11
-40.6119331188
 21
61.3382184729
  0
LINE
  5
538
100
AcDbEntity
  8
RACCORDO
100
AcDbLine
 62
7
  6
CONTINUOUS
 10
45.2162073416
 20
-60.0822428975
 11
45.2411534354
 21
-60.07795009
  0
LINE
  5
539
100
AcDbEntity
  8
RACCORDO
100
AcDbLine
 62
7
  6
CONTINUOUS
 10
45.063627307
 20
-60.4953002393
 11
45.1039197205
 21
-60.4905994285
  0
LINE
  5
53A
100
AcDbEntity
  8
RACCORDO
100
AcDbLine
 62
7
  6
CONTINUOUS
 10
45.1911220753
 20
-60.0851191423
 11
45.2162073416
 21
-60.0822428975
  0
LINE
  5
53B
100
AcDbEntity
  8
RACCORDO
100
AcDbLine
 62
7
  6
CONTINUOUS
 10
16.2684360905
 20
-28.4010058248
 11
16.2178526593
 21
-28.3952242476
  0
LINE
  5
53C
100
AcDbEntity
  8
0
100
AcDbLine
 62
7
  6
CONTINUOUS
 10
3.972198204
 20
-24.5321747643
 11
3.9870608773
 21
-24.5341251991
  0
LINE
  5
53D
100
AcDbEntity
  8
RACCORDO
100
AcDbLine
 62
7
  6
CONTINUOUS
 10
16.4523353034
 20
-27.7348498068
 11
16.4221567079
 21
-27.7305187183
  0
LINE
  5
53E
100
AcDbEntity
  8
0
100
AcDbLine
 62
7
  6
CONTINUOUS
 10
-2.9062054465
 20
-12.7499289873
 11
-2.9270710028
 21
-12.7459965995
  0
LINE
  5
53F
100
AcDbEntity
  8
0
100
AcDbLine
 62
7
  6
CONTINUOUS
 10
-2.8571193557
 20
-12.7202176245
 11
-2.8928813748
 21
-12.7131364034
  0
LINE
  5
540
100
AcDbEntity
  8
RACCORDO
100
AcDbLine
 62
7
  6
CONTINUOUS
 10
-15.8244298021
 20
-8.9293719914
 11
-15.7857025294
 21
-8.9382906289
  0
LINE
  5
541
100
AcDbEntity
  8
0
100
AcDbLine
 62
7
  6
CONTINUOUS
 10
-2.8859096633
 20
-12.754729986
 11
-2.9062054465
 21
-12.7499289873
  0
LINE
  5
542
100
AcDbEntity
  8
0
100
AcDbLine
 62
7
  6
CONTINUOUS
 10
-2.8220996531
 20
-12.7291811555
 11
-2.8571193557
 21
-12.7202176245
  0
LINE
  5
543
100
AcDbEntity
  8
RACCORDO
100
AcDbLine
 62
7
  6
CONTINUOUS
 10
-15.5277746497
 20
27.1896915408
 11
-15.4917043319
 21
27.1703862421
  0
LINE
  5
544
100
AcDbEntity
  8
RACCORDO
100
AcDbLine
 62
7
  6
CONTINUOUS
 10
-15.9613810742
 20
26.8382758237
 11
-15.9303384657
 21
26.8216397737
  0
LINE
  5
545
100
AcDbEntity
  8
RACCORDO
100
AcDbLine
 62
7
  6
CONTINUOUS
 10
-15.0498808685
 20
27.4225940424
 11
-14.9946922016
 21
27.3926772914
  0
LINE
  5
546
100
AcDbEntity
  8
0
100
AcDbLine
 62
7
  6
CONTINUOUS
 10
-12.7340885374
 20
23.7940447185
 11
-12.7198142182
 21
23.7861528901
  0
LINE
  5
547
100
AcDbEntity
  8
0
100
AcDbLine
 62
7
  6
CONTINUOUS
 10
-11.9735037108
 20
23.5103670381
 11
-11.9781925954
 21
23.5129689004
  0
LINE
  5
548
100
AcDbEntity
  8
0
100
AcDbLine
 62
7
  6
CONTINUOUS
 10
-12.4771286771
 20
23.8011535636
 11
-12.4852321179
 21
23.8056721623
  0
LINE
  5
549
100
AcDbEntity
  8
RACCORDO
100
AcDbLine
 62
7
  6
CONTINUOUS
 10
-14.907320488
 20
27.1504950391
 11
-14.8918027137
 21
27.1418196203
  0
LINE
  5
54A
100
AcDbEntity
  8
0
100
AcDbLine
 62
7
  6
CONTINUOUS
 10
-12.7197772508
 20
23.7861713539
 11
-12.2097869091
 21
23.4917094438
  0
LINE
  5
54B
100
AcDbEntity
  8
0
100
AcDbLine
 62
7
  6
CONTINUOUS
 10
-12.4771921988
 20
23.8011905151
 11
-11.9733859026
 21
23.5102990738
  0
LINE
  5
54C
100
AcDbEntity
  8
RACCORDO
100
AcDbLine
 62
7
  6
CONTINUOUS
 10
-14.891654546
 20
27.1417354563
 11
15.9985111628
 21
9.3061409207
  0
LINE
  5
54D
100
AcDbEntity
  8
RACCORDO
100
AcDbLine
 62
7
  6
CONTINUOUS
 10
-14.9946922016
 20
27.3926772914
 11
15.8954735074
 21
9.5570827558
  0
LINE
  5
54E
100
AcDbEntity
  8
RACCORDO
100
AcDbLine
 62
7
  6
CONTINUOUS
 10
15.9985481698
 20
9.3061194996
 11
16.0051426716
 21
9.3022615225
  0
LINE
  5
54F
100
AcDbEntity
  8
0
100
AcDbLine
 62
7
  6
CONTINUOUS
 10
-11.9692374616
 20
23.5078581648
 11
-11.9735173508
 21
23.5103746698
  0
LINE
  5
550
100
AcDbEntity
  8
RACCORDO
100
AcDbLine
 62
7
  6
CONTINUOUS
 10
15.9946914235
 20
9.3084148422
 11
15.9985111633
 21
9.3061409204
  0
LINE
  5
551
100
AcDbEntity
  8
RACCORDO
100
AcDbLine
 62
7
  6
CONTINUOUS
 10
-14.895474316
 20
27.1440093966
 11
-14.8918020703
 21
27.1418207355
  0
LINE
  5
552
100
AcDbEntity
  8
RACCORDO
100
AcDbLine
 62
7
  6
CONTINUOUS
 10
15.8954735074
 20
9.5570827558
 11
15.9252223837
 21
9.5392481471
  0
LINE
  5
553
100
AcDbEntity
  8
0
100
AcDbLine
 62
7
  6
CONTINUOUS
 10
-11.9228630332
 20
23.2510761537
 11
-11.9335858779
 21
23.2577221645
  0
LINE
  5
554
100
AcDbEntity
  8
RACCORDO
100
AcDbLine
 62
7
  6
CONTINUOUS
 10
-42.3074579854
 20
42.7334259822
 11
-42.3245813617
 21
42.7440818281
  0
LINE
  5
555
100
AcDbEntity
  8
RACCORDO
100
AcDbLine
 62
7
  6
CONTINUOUS
 10
16.7695832046
 20
7.9398245253
 11
16.7410447034
 21
7.9575901937
  0
LINE
  5
556
100
AcDbEntity
  8
RACCORDO
100
AcDbLine
 62
7
  6
CONTINUOUS
 10
16.0051426716
 20
9.3022615225
 11
16.0317520007
 21
9.2856963858
  0
LINE
  5
557
100
AcDbEntity
  8
RACCORDO
100
AcDbLine
 62
7
  6
CONTINUOUS
 10
-15.5628157817
 20
27.211779728
 11
-15.5277746497
 21
27.1896915408
  0
LINE
  5
558
100
AcDbEntity
  8
RACCORDO
100
AcDbLine
 62
7
  6
CONTINUOUS
 10
15.9252223837
 20
9.5392481471
 11
15.9544808553
 21
9.5206449075
  0
LINE
  5
559
100
AcDbEntity
  8
RACCORDO
100
AcDbLine
 62
7
  6
CONTINUOUS
 10
15.9544808553
 20
9.5206449075
 11
15.9832489531
 21
9.501273053
  0
LINE
  5
55A
100
AcDbEntity
  8
RACCORDO
100
AcDbLine
 62
7
  6
CONTINUOUS
 10
16.0317520007
 20
9.2856963858
 11
16.0596302736
 21
9.2666646956
  0
LINE
  5
55B
100
AcDbEntity
  8
RACCORDO
100
AcDbLine
 62
7
  6
CONTINUOUS
 10
-40.6888587925
 20
61.1482107689
 11
-40.7044191439
 21
61.159079608
  0
LINE
  5
55C
100
AcDbEntity
  8
RACCORDO
100
AcDbLine
 62
7
  6
CONTINUOUS
 10
-40.7044191439
 20
61.159079608
 11
-40.7182600782
 21
61.1703460359
  0
LINE
  5
55D
100
AcDbEntity
  8
RACCORDO
100
AcDbLine
 62
7
  6
CONTINUOUS
 10
44.5938108978
 20
-60.3080371825
 11
44.5996826327
 21
-60.3253726649
  0
LINE
  5
55E
100
AcDbEntity
  8
RACCORDO
100
AcDbLine
 62
7
  6
CONTINUOUS
 10
16.5669165667
 20
8.5187272568
 11
16.5813408543
 21
8.4687956926
  0
LINE
  5
55F
100
AcDbEntity
  8
RACCORDO
100
AcDbLine
 62
7
  6
CONTINUOUS
 10
16.6325057827
 20
8.0840655472
 11
16.6260683838
 21
8.1070556677
  0
LINE
  5
560
100
AcDbEntity
  8
RACCORDO
100
AcDbLine
 62
7
  6
CONTINUOUS
 10
16.6996518463
 20
8.4555079411
 11
16.7181805735
 21
8.3876232065
  0
LINE
  5
561
100
AcDbEntity
  8
RACCORDO
100
AcDbLine
 62
7
  6
CONTINUOUS
 10
16.5813408543
 20
8.4687956926
 11
16.5935837013
 21
8.4198485952
  0
LINE
  5
562
100
AcDbEntity
  8
RACCORDO
100
AcDbLine
 62
7
  6
CONTINUOUS
 10
16.7181805735
 20
8.3876232065
 11
16.7339519007
 21
8.3203033168
  0
LINE
  5
563
100
AcDbEntity
  8
RACCORDO
100
AcDbLine
 62
7
  6
CONTINUOUS
 10
16.5935837013
 20
8.4198485952
 11
16.6036594528
 21
8.3721509013
  0
LINE
  5
564
100
AcDbEntity
  8
RACCORDO
100
AcDbLine
 62
7
  6
CONTINUOUS
 10
15.9001361727
 20
9.468458485
 11
15.9056147777
 21
9.4417352321
  0
LINE
  5
565
100
AcDbEntity
  8
RACCORDO
100
AcDbLine
 62
7
  6
CONTINUOUS
 10
16.7339519007
 20
8.3203033168
 11
16.7468524208
 21
8.2535982938
  0
LINE
  5
566
100
AcDbEntity
  8
RACCORDO
100
AcDbLine
 62
7
  6
CONTINUOUS
 10
16.6036594528
 20
8.3721509013
 11
16.6115945523
 21
8.3260255989
  0
LINE
  5
567
100
AcDbEntity
  8
RACCORDO
100
AcDbLine
 62
7
  6
CONTINUOUS
 10
16.7468524208
 20
8.2535982938
 11
16.7569963263
 21
8.1874585268
  0
LINE
  5
568
100
AcDbEntity
  8
RACCORDO
100
AcDbLine
 62
7
  6
CONTINUOUS
 10
16.5058623065
 20
-28.0688368099
 11
16.5006650178
 21
-28.0295171616
  0
LINE
  5
569
100
AcDbEntity
  8
RACCORDO
100
AcDbLine
 62
7
  6
CONTINUOUS
 10
16.626067895
 20
-27.5959615435
 11
16.6231376551
 21
-27.5699339955
  0
LINE
  5
56A
100
AcDbEntity
  8
RACCORDO
100
AcDbLine
 62
7
  6
CONTINUOUS
 10
16.6174585646
 20
8.2816892044
 11
16.6213369196
 21
8.239373111
  0
LINE
  5
56B
100
AcDbEntity
  8
RACCORDO
100
AcDbLine
 62
7
  6
CONTINUOUS
 10
16.7643452586
 20
8.1229088189
 11
16.7688862675
 21
8.0602906866
  0
LINE
  5
56C
100
AcDbEntity
  8
RACCORDO
100
AcDbLine
 62
7
  6
CONTINUOUS
 10
15.8950513004
 20
9.5262941779
 11
15.8966084287
 21
9.4966975102
  0
LINE
  5
56D
100
AcDbEntity
  8
RACCORDO
100
AcDbLine
 62
7
  6
CONTINUOUS
 10
16.6213369196
 20
8.239373111
 11
16.6233350946
 21
8.1994152463
  0
LINE
  5
56E
100
AcDbEntity
  8
RACCORDO
100
AcDbLine
 62
7
  6
CONTINUOUS
 10
16.5006650178
 20
-28.0295171616
 11
16.4987431911
 21
-27.9904949522
  0
LINE
  5
56F
100
AcDbEntity
  8
RACCORDO
100
AcDbLine
 62
7
  6
CONTINUOUS
 10
16.5159312359
 20
-24.7139631957
 11
16.623138142
 21
-27.5699274919
  0
LINE
  5
570
100
AcDbEntity
  8
RACCORDO
100
AcDbLine
 62
7
  6
CONTINUOUS
 10
16.6607180924
 20
-24.8687004488
 11
16.769583195
 21
-27.7731905151
  0
LINE
  5
571
100
AcDbEntity
  8
RACCORDO
100
AcDbLine
 62
7
  6
CONTINUOUS
 10
16.4262359916
 20
-21.7854843382
 11
16.5159312359
 21
-24.7139631957
  0
LINE
  5
572
100
AcDbEntity
  8
RACCORDO
100
AcDbLine
 62
7
  6
CONTINUOUS
 10
16.5716364391
 20
-21.9505476702
 11
16.6607180924
 21
-24.8687004488
  0
LINE
  5
573
100
AcDbEntity
  8
RACCORDO
100
AcDbLine
 62
7
  6
CONTINUOUS
 10
16.7688862675
 20
8.0602906866
 11
16.7706322422
 21
7.9992625845
  0
LINE
  5
574
100
AcDbEntity
  8
RACCORDO
100
AcDbLine
 62
7
  6
CONTINUOUS
 10
16.3564713723
 20
-18.8434748761
 11
16.4262359916
 21
-21.7854843382
  0
LINE
  5
575
100
AcDbEntity
  8
RACCORDO
100
AcDbLine
 62
7
  6
CONTINUOUS
 10
16.5023444102
 20
-19.0189239806
 11
16.5716364391
 21
-21.9505476702
  0
LINE
  5
576
100
AcDbEntity
  8
RACCORDO
100
AcDbLine
 62
7
  6
CONTINUOUS
 10
16.6231376551
 20
-27.5699339955
 11
16.6236888507
 21
-27.5939670259
  0
LINE
  5
577
100
AcDbEntity
  8
RACCORDO
100
AcDbLine
 62
7
  6
CONTINUOUS
 10
16.769583195
 20
-27.7731905151
 11
16.7706540768
 21
-27.8277842035
  0
LINE
  5
578
100
AcDbEntity
  8
RACCORDO
100
AcDbLine
 62
7
  6
CONTINUOUS
 10
16.30664294
 20
-15.8881513548
 11
16.3564713723
 21
-18.8434748761
  0
LINE
  5
579
100
AcDbEntity
  8
RACCORDO
100
AcDbLine
 62
7
  6
CONTINUOUS
 10
16.4528469168
 20
-16.0740220459
 11
16.5023444102
 21
-19.0189239806
  0
LINE
  5
57A
100
AcDbEntity
  8
RACCORDO
100
AcDbLine
 62
7
  6
CONTINUOUS
 10
15.8954735074
 20
-28.2741377811
 11
15.8950513002
 21
-28.2438367679
  0
LINE
  5
57B
100
AcDbEntity
  8
RACCORDO
100
AcDbLine
 62
7
  6
CONTINUOUS
 10
16.2767524047
 20
-12.9197072685
 11
16.30664294
 21
-15.8881513548
  0
LINE
  5
57C
100
AcDbEntity
  8
0
100
AcDbLine
 62
7
  6
CONTINUOUS
 10
4.5091705709
 20
-24.5671067435
 11
4.5088993373
 21
-24.5951296389
  0
LINE
  5
57D
100
AcDbEntity
  8
0
100
AcDbLine
 62
7
  6
CONTINUOUS
 10
4.2287869299
 20
-24.2939801091
 11
4.2282562226
 21
-24.3118897511
  0
LINE
  5
57E
100
AcDbEntity
  8
0
100
AcDbLine
 62
7
  6
CONTINUOUS
 10
4.1218542151
 20
-24.3738139111
 11
4.1224116994
 21
-24.3557436004
  0
LINE
  5
57F
100
AcDbEntity
  8
0
100
AcDbLine
 62
7
  6
CONTINUOUS
 10
4.5088993373
 20
-24.5951296389
 11
4.507657526
 21
-24.6214593628
  0
LINE
  5
580
100
AcDbEntity
  8
0
100
AcDbLine
 62
7
  6
CONTINUOUS
 10
4.2282562226
 20
-24.3118897511
 11
4.2269040632
 21
-24.3292193444
  0
LINE
  5
581
100
AcDbEntity
  8
0
100
AcDbLine
 62
7
  6
CONTINUOUS
 10
4.120455543
 20
-24.3913076361
 11
4.1218542151
 21
-24.3738139111
  0
LINE
  5
582
100
AcDbEntity
  8
0
100
AcDbLine
 62
7
  6
CONTINUOUS
 10
-0.9317907537
 20
-14.5974288346
 11
-0.9297581711
 21
-14.5758863553
  0
LINE
  5
583
100
AcDbEntity
  8
0
100
AcDbLine
 62
7
  6
CONTINUOUS
 10
-1.129700695
 20
-13.8403346609
 11
-1.1285007284
 21
-13.8278155032
  0
LINE
  5
584
100
AcDbEntity
  8
0
100
AcDbLine
 62
7
  6
CONTINUOUS
 10
-0.9317934882
 20
-14.0150354688
 11
-0.9297583199
 21
-13.9940618169
  0
LINE
  5
585
100
AcDbEntity
  8
0
100
AcDbLine
 62
7
  6
CONTINUOUS
 10
-1.0642937333
 20
-14.7892141979
 11
-1.0661937148
 21
-14.8044813476
  0
LINE
  5
586
100
AcDbEntity
  8
RACCORDO
100
AcDbLine
 62
7
  6
CONTINUOUS
 10
-14.9900295362
 20
-10.3445346456
 11
-14.9845509311
 21
-10.3114848369
  0
LINE
  5
587
100
AcDbEntity
  8
0
100
AcDbLine
 62
7
  6
CONTINUOUS
 10
-11.81411709
 20
21.3583773161
 11
-11.8120434072
 21
21.370337695
  0
LINE
  5
588
100
AcDbEntity
  8
0
100
AcDbLine
 62
7
  6
CONTINUOUS
 10
-11.8780588472
 20
21.2192449474
 11
-11.8741788968
 21
21.238796221
  0
LINE
  5
589
100
AcDbEntity
  8
0
100
AcDbLine
 62
7
  6
CONTINUOUS
 10
-11.8291272234
 20
21.2413253729
 11
-11.8214618509
 21
21.2761962758
  0
LINE
  5
58A
100
AcDbEntity
  8
RACCORDO
100
AcDbLine
 62
7
  6
CONTINUOUS
 10
-14.9845509311
 20
-10.3114848369
 11
-14.9771521437
 21
-10.2778830637
  0
LINE
  5
58B
100
AcDbEntity
  8
RACCORDO
100
AcDbLine
 62
7
  6
CONTINUOUS
 10
-15.9418500037
 20
27.0056917223
 11
-15.929734723
 21
27.0587094169
  0
LINE
  5
58C
100
AcDbEntity
  8
RACCORDO
100
AcDbLine
 62
7
  6
CONTINUOUS
 10
-15.2616068654
 20
26.9107639062
 11
-15.2540469906
 21
26.9434588032
  0
LINE
  5
58D
100
AcDbEntity
  8
0
100
AcDbLine
 62
7
  6
CONTINUOUS
 10
-12.0742069545
 20
20.8993161586
 11
-12.0775754558
 21
20.8853017907
  0
LINE
  5
58E
100
AcDbEntity
  8
0
100
AcDbLine
 62
7
  6
CONTINUOUS
 10
-11.8830309413
 20
21.1993224006
 11
-11.8780588472
 21
21.2192449474
  0
LINE
  5
58F
100
AcDbEntity
  8
RACCORDO
100
AcDbLine
 62
7
  6
CONTINUOUS
 10
-15.929734723
 20
27.0587094169
 11
-15.9148271795
 21
27.1101803112
  0
LINE
  5
590
100
AcDbEntity
  8
RACCORDO
100
AcDbLine
 62
7
  6
CONTINUOUS
 10
-15.2540469906
 20
26.9434588032
 11
-15.2446773644
 21
26.9750761511
  0
LINE
  5
591
100
AcDbEntity
  8
RACCORDO
100
AcDbLine
 62
7
  6
CONTINUOUS
 10
-40.0422766914
 20
61.6296997232
 11
-40.0292461977
 21
61.6530080609
  0
LINE
  5
592
100
AcDbEntity
  8
RACCORDO
100
AcDbLine
 62
7
  6
CONTINUOUS
 10
-40.6402595451
 20
61.60532035
 11
-40.6655296622
 21
61.5607939323
  0
LINE
  5
593
100
AcDbEntity
  8
RACCORDO
100
AcDbLine
 62
7
  6
CONTINUOUS
 10
-40.0292461977
 20
61.6530080609
 11
-40.0150514608
 21
61.675587911
  0
LINE
  5
594
100
AcDbEntity
  8
RACCORDO
100
AcDbLine
 62
7
  6
CONTINUOUS
 10
-40.5796102162
 20
61.3928100222
 11
-40.5965121157
 21
61.3663544612
  0
LINE
  5
595
100
AcDbEntity
  8
RACCORDO
100
AcDbLine
 62
7
  6
CONTINUOUS
 10
-40.6125888329
 20
61.6473097881
 11
-40.6402595451
 21
61.60532035
  0
LINE
  5
596
100
AcDbEntity
  8
RACCORDO
100
AcDbLine
 62
7
  6
CONTINUOUS
 10
45.2411534354
 20
-60.07795009
 11
45.2657827463
 21
-60.0722712837
  0
LINE
  5
597
100
AcDbEntity
  8
RACCORDO
100
AcDbLine
 62
7
  6
CONTINUOUS
 10
45.1039197205
 20
-60.4905994285
 11
45.1432234622
 21
-60.4827820203
  0
LINE
  5
598
100
AcDbEntity
  8
RACCORDO
100
AcDbLine
 62
7
  6
CONTINUOUS
 10
44.8439365424
 20
-60.359687364
 11
44.8643355303
 21
-60.3558481481
  0
LINE
  5
599
100
AcDbEntity
  8
RACCORDO
100
AcDbLine
 62
7
  6
CONTINUOUS
 10
16.3177230851
 20
-28.4025331863
 11
16.2684360905
 21
-28.4010058248
  0
LINE
  5
59A
100
AcDbEntity
  8
RACCORDO
100
AcDbLine
 62
7
  6
CONTINUOUS
 10
16.4816112197
 20
-27.7365272353
 11
16.4523353034
 21
-27.7348498068
  0
LINE
  5
59B
100
AcDbEntity
  8
0
100
AcDbLine
 62
7
  6
CONTINUOUS
 10
3.9870608773
 20
-24.5341251991
 11
4.0014502844
 21
-24.5349656561
  0
LINE
  5
59C
100
AcDbEntity
  8
0
100
AcDbLine
 62
7
  6
CONTINUOUS
 10
4.2917316384
 20
-24.9073245335
 11
4.2832138917
 21
-24.9066460718
  0
LINE
  5
59D
100
AcDbEntity
  8
0
100
AcDbLine
 62
7
  6
CONTINUOUS
 10
4.3885868164
 20
-24.8451309914
 11
4.3965885802
 21
-24.84592046
  0
LINE
  5
59E
100
AcDbEntity
  8
0
100
AcDbLine
 62
7
  6
CONTINUOUS
 10
-2.8928813748
 20
-12.7131364034
 11
-2.9292626058
 21
-12.7079348705
  0
LINE
  5
59F
100
AcDbEntity
  8
0
100
AcDbLine
 62
7
  6
CONTINUOUS
 10
-2.9270710028
 20
-12.7459965995
 11
-2.9484925528
 21
-12.7429190664
  0
LINE
  5
5A0
100
AcDbEntity
  8
0
100
AcDbLine
 62
7
  6
CONTINUOUS
 10
-3.2551318391
 20
-12.7662003471
 11
-3.2685048616
 21
-12.7641031962
  0
LINE
  5
5A1
100
AcDbEntity
  8
RACCORDO
100
AcDbLine
 62
7
  6
CONTINUOUS
 10
-15.7857025294
 20
-8.9382906289
 11
-15.7457131002
 21
-8.9451659217
  0
LINE
  5
5A2
100
AcDbEntity
  8
0
100
AcDbLine
 62
7
  6
CONTINUOUS
 10
-1.1461133795
 20
-13.6845526175
 11
-1.133812078
 21
-13.6867861092
  0
LINE
  5
5A3
100
AcDbEntity
  8
0
100
AcDbLine
 62
7
  6
CONTINUOUS
 10
-2.7260109466
 20
-12.772340021
 11
-2.7137096366
 21
-12.7745733502
  0
LINE
  5
5A4
100
AcDbEntity
  8
0
100
AcDbLine
 62
7
  6
CONTINUOUS
 10
-12.7482606913
 20
23.8000338023
 11
-12.7340885374
 21
23.7940447185
  0
LINE
  5
5A5
100
AcDbEntity
  8
RACCORDO
100
AcDbLine
 62
7
  6
CONTINUOUS
 10
-14.9595494832
 20
27.1753471811
 11
-14.9342584945
 21
27.1641828095
  0
LINE
  5
5A6
100
AcDbEntity
  8
RACCORDO
100
AcDbLine
 62
7
  6
CONTINUOUS
 10
-15.4917043319
 20
27.1703862421
 11
-15.4548647435
 21
27.1540029418
  0
LINE
  5
5A7
100
AcDbEntity
  8
0
100
AcDbLine
 62
7
  6
CONTINUOUS
 10
-11.9781925954
 20
23.5129689004
 11
-11.997372715
 21
23.5216911752
  0
LINE
  5
5A8
100
AcDbEntity
  8
0
100
AcDbLine
 62
7
  6
CONTINUOUS
 10
-11.9335858779
 20
23.2577221645
 11
-11.9450270614
 21
23.2629413154
  0
LINE
  5
5A9
100
AcDbEntity
  8
RACCORDO
100
AcDbLine
 62
7
  6
CONTINUOUS
 10
-15.9303384657
 20
26.8216397737
 11
-15.8970049141
 21
26.806431149
  0
LINE
  5
5AA
100
AcDbEntity
  8
0
100
AcDbLine
 62
7
  6
CONTINUOUS
 10
-12.5017563895
 20
23.8129188627
 11
-12.4820732012
 21
23.8039038538
  0
LINE
  5
5AB
100
AcDbEntity
  8
RACCORDO
100
AcDbLine
 62
7
  6
CONTINUOUS
 10
-15.1049087741
 20
27.448372478
 11
-15.0498808685
 21
27.4225940424
  0
LINE
  5
5AC
100
AcDbEntity
  8
0
100
AcDbLine
 62
7
  6
CONTINUOUS
 10
-12.4852321179
 20
23.8056721623
 11
-12.5098706268
 21
23.817544892
  0
LINE
  5
5AD
100
AcDbEntity
  8
RACCORDO
100
AcDbLine
 62
7
  6
CONTINUOUS
 10
-14.9342584945
 20
27.1641828095
 11
-14.907320488
 21
27.1504950391
  0
LINE
  5
5AE
100
AcDbEntity
  8
RACCORDO
100
AcDbLine
 62
7
  6
CONTINUOUS
 10
-40.6716898099
 20
61.1378169022
 11
-40.6888587925
 21
61.1482107689
  0
LINE
  5
5AF
100
AcDbEntity
  8
RACCORDO
100
AcDbLine
 62
7
  6
CONTINUOUS
 10
44.8270927174
 20
12.8803992989
 11
44.7870633663
 21
12.9058108362
  0
LINE
  5
5B0
100
AcDbEntity
  8
RACCORDO
100
AcDbLine
 62
7
  6
CONTINUOUS
 10
44.6459353529
 20
12.5545350528
 11
44.6180345066
 21
12.5740451623
  0
LINE
  5
5B1
100
AcDbEntity
  8
RACCORDO
100
AcDbLine
 62
7
  6
CONTINUOUS
 10
44.866696381
 20
12.8521847148
 11
44.8270927174
 21
12.8803992989
  0
LINE
  5
5B2
100
AcDbEntity
  8
RACCORDO
100
AcDbLine
 62
7
  6
CONTINUOUS
 10
47.9245023902
 20
14.1721769133
 11
47.9467364569
 21
14.155040472
  0
LINE
  5
5B3
100
AcDbEntity
  8
RACCORDO
100
AcDbLine
 62
7
  6
CONTINUOUS
 10
44.6732615043
 20
12.5331083519
 11
44.6459353529
 21
12.5545350528
  0
LINE
  5
5B4
100
AcDbEntity
  8
RACCORDO
100
AcDbLine
 62
7
  6
CONTINUOUS
 10
44.9057455692
 20
12.821262355
 11
44.866696381
 21
12.8521847148
  0
LINE
  5
5B5
100
AcDbEntity
  8
RACCORDO
100
AcDbLine
 62
7
  6
CONTINUOUS
 10
47.9467364569
 20
14.155040472
 11
47.9678657899
 21
14.1368927012
  0
LINE
  5
5B6
100
AcDbEntity
  8
RACCORDO
100
AcDbLine
 62
7
  6
CONTINUOUS
 10
44.7001068356
 20
12.5096806956
 11
44.6732615043
 21
12.5331083519
  0
LINE
  5
5B7
100
AcDbEntity
  8
RACCORDO
100
AcDbLine
 62
7
  6
CONTINUOUS
 10
44.9441057557
 20
12.7877397406
 11
44.9057455692
 21
12.821262355
  0
LINE
  5
5B8
100
AcDbEntity
  8
RACCORDO
100
AcDbLine
 62
7
  6
CONTINUOUS
 10
47.9678657899
 20
14.1368927012
 11
47.9879276014
 21
14.1177585428
  0
LINE
  5
5B9
100
AcDbEntity
  8
RACCORDO
100
AcDbLine
 62
7
  6
CONTINUOUS
 10
44.9816556247
 20
12.7517248551
 11
44.9441057557
 21
12.7877397406
  0
LINE
  5
5BA
100
AcDbEntity
  8
RACCORDO
100
AcDbLine
 62
7
  6
CONTINUOUS
 10
44.7263778942
 20
12.4843366018
 11
44.7001068356
 21
12.5096806956
  0
LINE
  5
5BB
100
AcDbEntity
  8
RACCORDO
100
AcDbLine
 62
7
  6
CONTINUOUS
 10
45.0182868934
 20
12.7133228647
 11
44.9816556247
 21
12.7517248551
  0
LINE
  5
5BC
100
AcDbEntity
  8
RACCORDO
100
AcDbLine
 62
7
  6
CONTINUOUS
 10
47.9879276014
 20
14.1177585428
 11
48.0070335286
 21
14.0977128216
  0
LINE
  5
5BD
100
AcDbEntity
  8
RACCORDO
100
AcDbLine
 62
7
  6
CONTINUOUS
 10
44.7517938858
 20
12.4573294648
 11
44.7263778942
 21
12.4843366018
  0
LINE
  5
5BE
100
AcDbEntity
  8
RACCORDO
100
AcDbLine
 62
7
  6
CONTINUOUS
 10
45.0538747424
 20
12.6726497939
 11
45.0182868934
 21
12.7133228647
  0
LINE
  5
5BF
100
AcDbEntity
  8
RACCORDO
100
AcDbLine
 62
7
  6
CONTINUOUS
 10
48.0070335286
 20
14.0977128216
 11
48.0252132903
 21
14.0767991869
  0
LINE
  5
5C0
100
AcDbEntity
  8
RACCORDO
100
AcDbLine
 62
7
  6
CONTINUOUS
 10
44.7763417904
 20
12.4286457704
 11
44.7517938858
 21
12.4573294648
  0
LINE
  5
5C1
100
AcDbEntity
  8
RACCORDO
100
AcDbLine
 62
7
  6
CONTINUOUS
 10
45.0882946819
 20
12.6298436123
 11
45.0538747424
 21
12.6726497939
  0
LINE
  5
5C2
100
AcDbEntity
  8
RACCORDO
100
AcDbLine
 62
7
  6
CONTINUOUS
 10
48.0252132903
 20
14.0767991869
 11
48.0424371676
 21
14.0549739895
  0
LINE
  5
5C3
100
AcDbEntity
  8
RACCORDO
100
AcDbLine
 62
7
  6
CONTINUOUS
 10
44.8000354283
 20
12.3982993248
 11
44.7763417904
 21
12.4286457704
  0
LINE
  5
5C4
100
AcDbEntity
  8
RACCORDO
100
AcDbLine
 62
7
  6
CONTINUOUS
 10
45.1214410442
 20
12.5850502783
 11
45.0882946819
 21
12.6298436123
  0
LINE
  5
5C5
100
AcDbEntity
  8
RACCORDO
100
AcDbLine
 62
7
  6
CONTINUOUS
 10
48.0424371676
 20
14.0549739895
 11
48.0587276412
 21
14.0321811072
  0
LINE
  5
5C6
100
AcDbEntity
  8
RACCORDO
100
AcDbLine
 62
7
  6
CONTINUOUS
 10
44.8226343131
 20
12.3665845201
 11
44.8000354283
 21
12.3982993248
  0
LINE
  5
5C7
100
AcDbEntity
  8
RACCORDO
100
AcDbLine
 62
7
  6
CONTINUOUS
 10
45.1531879228
 20
12.5384154753
 11
45.1214410442
 21
12.5850502783
  0
LINE
  5
5C8
100
AcDbEntity
  8
RACCORDO
100
AcDbLine
 62
7
  6
CONTINUOUS
 10
44.844128305
 20
12.3334878843
 11
44.8226343131
 21
12.3665845201
  0
LINE
  5
5C9
100
AcDbEntity
  8
RACCORDO
100
AcDbLine
 62
7
  6
CONTINUOUS
 10
48.0587276412
 20
14.0321811072
 11
48.0741692481
 21
14.0083303275
  0
LINE
  5
5CA
100
AcDbEntity
  8
RACCORDO
100
AcDbLine
 62
7
  6
CONTINUOUS
 10
45.1834267092
 20
12.490086694
 11
45.1531879228
 21
12.5384154753
  0
LINE
  5
5CB
100
AcDbEntity
  8
RACCORDO
100
AcDbLine
 62
7
  6
CONTINUOUS
 10
44.8645286332
 20
12.2990232875
 11
44.844128305
 21
12.3334878843
  0
LINE
  5
5CC
100
AcDbEntity
  8
RACCORDO
100
AcDbLine
 62
7
  6
CONTINUOUS
 10
45.2120811686
 20
12.440219951
 11
45.1834267092
 21
12.490086694
  0
LINE
  5
5CD
100
AcDbEntity
  8
RACCORDO
100
AcDbLine
 62
7
  6
CONTINUOUS
 10
44.8836268458
 20
12.2635261285
 11
44.8645286332
 21
12.2990232875
  0
LINE
  5
5CE
100
AcDbEntity
  8
RACCORDO
100
AcDbLine
 62
7
  6
CONTINUOUS
 10
45.2390392359
 20
12.3889687844
 11
45.2120811686
 21
12.440219951
  0
LINE
  5
5CF
100
AcDbEntity
  8
RACCORDO
100
AcDbLine
 62
7
  6
CONTINUOUS
 10
44.9014117757
 20
12.2269848537
 11
44.8836268458
 21
12.2635261285
  0
LINE
  5
5D0
100
AcDbEntity
  8
RACCORDO
100
AcDbLine
 62
7
  6
CONTINUOUS
 10
44.5895588599
 20
-60.2892456949
 11
44.5938108978
 21
-60.3080371825
  0
LINE
  5
5D1
100
AcDbEntity
  8
RACCORDO
100
AcDbLine
 62
7
  6
CONTINUOUS
 10
16.6115945523
 20
8.3260255989
 11
16.6174585646
 21
8.2816892044
  0
LINE
  5
5D2
100
AcDbEntity
  8
RACCORDO
100
AcDbLine
 62
7
  6
CONTINUOUS
 10
16.6260683838
 20
8.1070556677
 11
16.6231634417
 21
8.1301654525
  0
LINE
  5
5D3
100
AcDbEntity
  8
RACCORDO
100
AcDbLine
 62
7
  6
CONTINUOUS
 10
15.8966084287
 20
9.4966975102
 11
15.9001361727
 21
9.468458485
  0
LINE
  5
5D4
100
AcDbEntity
  8
RACCORDO
100
AcDbLine
 62
7
  6
CONTINUOUS
 10
16.7569963263
 20
8.1874585268
 11
16.7643452586
 21
8.1229088189
  0
LINE
  5
5D5
100
AcDbEntity
  8
RACCORDO
100
AcDbLine
 62
7
  6
CONTINUOUS
 10
16.4231472845
 20
-13.1160353193
 11
16.4528469168
 21
-16.0740220459
  0
LINE
  5
5D6
100
AcDbEntity
  8
RACCORDO
100
AcDbLine
 62
7
  6
CONTINUOUS
 10
16.6233350946
 20
8.1994152463
 11
16.623600484
 21
8.1620394922
  0
LINE
  5
5D7
100
AcDbEntity
  8
RACCORDO
100
AcDbLine
 62
7
  6
CONTINUOUS
 10
16.6231634417
 20
8.1301654525
 11
16.6230973513
 21
8.1433328867
  0
LINE
  5
5D8
100
AcDbEntity
  8
RACCORDO
100
AcDbLine
 62
7
  6
CONTINUOUS
 10
16.2668006491
 20
-9.9383264977
 11
16.2767524047
 21
-12.9197072685
  0
LINE
  5
5D9
100
AcDbEntity
  8
RACCORDO
100
AcDbLine
 62
7
  6
CONTINUOUS
 10
16.4132472504
 20
-10.1451580304
 11
16.4231472845
 21
-13.1160353193
  0
LINE
  5
5DA
100
AcDbEntity
  8
RACCORDO
100
AcDbLine
 62
7
  6
CONTINUOUS
 10
16.2767881856
 20
-6.9442010985
 11
16.2668006491
 21
-9.9383264977
  0
LINE
  5
5DB
100
AcDbEntity
  8
RACCORDO
100
AcDbLine
 62
7
  6
CONTINUOUS
 10
16.423147285
 20
-7.1615851536
 11
16.4132472504
 21
-10.1451580304
  0
LINE
  5
5DC
100
AcDbEntity
  8
RACCORDO
100
AcDbLine
 62
7
  6
CONTINUOUS
 10
16.3067134131
 20
-3.9375243862
 11
16.2767881856
 21
-6.9442010985
  0
LINE
  5
5DD
100
AcDbEntity
  8
RACCORDO
100
AcDbLine
 62
7
  6
CONTINUOUS
 10
16.4528469177
 20
-4.1655127051
 11
16.423147285
 21
-7.1615851536
  0
LINE
  5
5DE
100
AcDbEntity
  8
RACCORDO
100
AcDbLine
 62
7
  6
CONTINUOUS
 10
15.8954735074
 20
9.5570827558
 11
15.8950513004
 21
9.5262941779
  0
LINE
  5
5DF
100
AcDbEntity
  8
RACCORDO
100
AcDbLine
 62
7
  6
CONTINUOUS
 10
16.5023444114
 20
-1.1571376682
 11
16.4528469177
 21
-4.1655127051
  0
LINE
  5
5E0
100
AcDbEntity
  8
RACCORDO
100
AcDbLine
 62
7
  6
CONTINUOUS
 10
16.3565743793
 20
-0.9184819649
 11
16.3067134131
 21
-3.9375243862
  0
LINE
  5
5E1
100
AcDbEntity
  8
RACCORDO
100
AcDbLine
 62
7
  6
CONTINUOUS
 10
16.6236888507
 20
-27.5939670259
 11
16.6232776101
 21
-27.6184044475
  0
LINE
  5
5E2
100
AcDbEntity
  8
RACCORDO
100
AcDbLine
 62
7
  6
CONTINUOUS
 10
16.7706322422
 20
7.9992625845
 11
16.769583195
 21
7.9398245203
  0
LINE
  5
5E3
100
AcDbEntity
  8
RACCORDO
100
AcDbLine
 62
7
  6
CONTINUOUS
 10
16.4263682751
 20
2.1127296057
 11
16.3565743793
 21
-0.9184819649
  0
LINE
  5
5E4
100
AcDbEntity
  8
RACCORDO
100
AcDbLine
 62
7
  6
CONTINUOUS
 10
16.5716364403
 20
1.8633424144
 11
16.5023444114
 21
-1.1571376682
  0
LINE
  5
5E5
100
AcDbEntity
  8
RACCORDO
100
AcDbLine
 62
7
  6
CONTINUOUS
 10
16.623600484
 20
8.1620394922
 11
16.6230988961
 21
8.1433884643
  0
LINE
  5
5E6
100
AcDbEntity
  8
RACCORDO
100
AcDbLine
 62
7
  6
CONTINUOUS
 10
16.5160884378
 20
5.1558857336
 11
16.4263682751
 21
2.1127296057
  0
LINE
  5
5E7
100
AcDbEntity
  8
RACCORDO
100
AcDbLine
 62
7
  6
CONTINUOUS
 10
16.6607180932
 20
4.8957294546
 11
16.5716364403
 21
1.8633424144
  0
LINE
  5
5E8
100
AcDbEntity
  8
RACCORDO
100
AcDbLine
 62
7
  6
CONTINUOUS
 10
16.7706540768
 20
-27.8277842035
 11
16.7689510935
 21
-27.8808211377
  0
LINE
  5
5E9
100
AcDbEntity
  8
RACCORDO
100
AcDbLine
 62
7
  6
CONTINUOUS
 10
16.4987431911
 20
-27.9904949522
 11
16.5001106748
 21
-27.9520513673
  0
LINE
  5
5EA
100
AcDbEntity
  8
RACCORDO
100
AcDbLine
 62
7
  6
CONTINUOUS
 10
16.6230973513
 20
8.1433328867
 11
16.5160884378
 21
5.1558857336
  0
LINE
  5
5EB
100
AcDbEntity
  8
RACCORDO
100
AcDbLine
 62
7
  6
CONTINUOUS
 10
16.769583195
 20
7.9398245203
 11
16.6607180932
 21
4.8957294546
  0
LINE
  5
5EC
100
AcDbEntity
  8
RACCORDO
100
AcDbLine
 62
7
  6
CONTINUOUS
 10
15.8950513002
 20
-28.2438367679
 11
15.8966084271
 21
-28.2124419776
  0
LINE
  5
5ED
100
AcDbEntity
  8
RACCORDO
100
AcDbLine
 62
7
  6
CONTINUOUS
 10
16.6232776101
 20
-27.6184044475
 11
16.6219649281
 21
-27.6400226794
  0
LINE
  5
5EE
100
AcDbEntity
  8
0
100
AcDbLine
 62
7
  6
CONTINUOUS
 10
4.507657526
 20
-24.6214593628
 11
4.5054582719
 21
-24.6461126171
  0
LINE
  5
5EF
100
AcDbEntity
  8
0
100
AcDbLine
 62
7
  6
CONTINUOUS
 10
4.2269040632
 20
-24.3292193444
 11
4.2247382076
 21
-24.3459198393
  0
LINE
  5
5F0
100
AcDbEntity
  8
0
100
AcDbLine
 62
7
  6
CONTINUOUS
 10
4.118226884
 20
-24.4081638878
 11
4.120455543
 21
-24.3913076361
  0
LINE
  5
5F1
100
AcDbEntity
  8
0
100
AcDbLine
 62
7
  6
CONTINUOUS
 10
-0.9347545381
 20
-14.626006942
 11
-0.9309334601
 21
-14.5981106525
  0
LINE
  5
5F2
100
AcDbEntity
  8
0
100
AcDbLine
 62
7
  6
CONTINUOUS
 10
4.5054582719
 20
-24.6461126171
 11
4.5022871111
 21
-24.669073582
  0
LINE
  5
5F3
100
AcDbEntity
  8
RACCORDO
100
AcDbLine
 62
7
  6
CONTINUOUS
 10
-14.9771521437
 20
-10.2778830637
 11
-14.9678746051
 21
-10.2439174859
  0
LINE
  5
5F4
100
AcDbEntity
  8
0
100
AcDbLine
 62
7
  6
CONTINUOUS
 10
-11.8389104937
 20
21.2064972086
 11
-11.8291272234
 21
21.2413253729
  0
LINE
  5
5F5
100
AcDbEntity
  8
0
100
AcDbLine
 62
7
  6
CONTINUOUS
 10
-11.8890213093
 20
21.1793456924
 11
-11.8830309413
 21
21.1993224006
  0
LINE
  5
5F6
100
AcDbEntity
  8
0
100
AcDbLine
 62
7
  6
CONTINUOUS
 10
-11.850696135
 20
21.1719699707
 11
-11.8389104937
 21
21.2064972086
  0
LINE
  5
5F7
100
AcDbEntity
  8
0
100
AcDbLine
 62
7
  6
CONTINUOUS
 10
-11.8960487529
 20
21.1593097663
 11
-11.8890213093
 21
21.1793456924
  0
LINE
  5
5F8
100
AcDbEntity
  8
0
100
AcDbLine
 62
7
  6
CONTINUOUS
 10
-11.8183332199
 20
23.1708540146
 11
-11.8141173415
 21
23.1826250624
  0
LINE
  5
5F9
100
AcDbEntity
  8
RACCORDO
100
AcDbLine
 62
7
  6
CONTINUOUS
 10
-15.9148271795
 20
27.1101803112
 11
-15.8971869948
 21
27.1591872524
  0
LINE
  5
5FA
100
AcDbEntity
  8
RACCORDO
100
AcDbLine
 62
7
  6
CONTINUOUS
 10
-15.2446773644
 20
26.9750761511
 11
-15.2335425477
 21
27.0053122263
  0
LINE
  5
5FB
100
AcDbEntity
  8
RACCORDO
100
AcDbLine
 62
7
  6
CONTINUOUS
 10
-40.0150514608
 20
61.675587911
 11
-39.9998049856
 21
61.6972602927
  0
LINE
  5
5FC
100
AcDbEntity
  8
RACCORDO
100
AcDbLine
 62
7
  6
CONTINUOUS
 10
-40.5614123817
 20
61.4173226742
 11
-40.5796102162
 21
61.3928100222
  0
LINE
  5
5FD
100
AcDbEntity
  8
RACCORDO
100
AcDbLine
 62
7
  6
CONTINUOUS
 10
-40.582626128
 20
61.6866514837
 11
-40.6125888329
 21
61.6473097881
  0
LINE
  5
5FE
100
AcDbEntity
  8
RACCORDO
100
AcDbLine
 62
7
  6
CONTINUOUS
 10
16.3650442165
 20
-28.3997853039
 11
16.3177230851
 21
-28.4025331863
  0
LINE
  5
5FF
100
AcDbEntity
  8
0
100
AcDbLine
 62
7
  6
CONTINUOUS
 10
4.0014502844
 20
-24.5349656561
 11
4.0151242851
 21
-24.5344386922
  0
LINE
  5
600
100
AcDbEntity
  8
RACCORDO
100
AcDbLine
 62
7
  6
CONTINUOUS
 10
16.509820548
 20
-27.735524017
 11
16.4816112197
 21
-27.7365272353
  0
LINE
  5
601
100
AcDbEntity
  8
0
100
AcDbLine
 62
7
  6
CONTINUOUS
 10
-2.9661426493
 20
-12.7046207078
 11
-3.0031843676
 21
-12.7032076036
  0
LINE
  5
602
100
AcDbEntity
  8
0
100
AcDbLine
 62
7
  6
CONTINUOUS
 10
-2.9701171923
 20
-12.7407497123
 11
-2.9919434981
 21
-12.7395045195
  0
LINE
  5
603
100
AcDbEntity
  8
RACCORDO
100
AcDbLine
 62
7
  6
CONTINUOUS
 10
-15.7047459418
 20
-8.9499489687
 11
-15.6630924356
 21
-8.9526057503
  0
LINE
  5
604
100
AcDbEntity
  8
0
100
AcDbLine
 62
7
  6
CONTINUOUS
 10
-2.9292626058
 20
-12.7079348705
 11
-2.9661426493
 21
-12.7046207078
  0
LINE
  5
605
100
AcDbEntity
  8
0
100
AcDbLine
 62
7
  6
CONTINUOUS
 10
-2.9484925528
 20
-12.7429190664
 11
-2.9701171923
 21
-12.7407497123
  0
LINE
  5
606
100
AcDbEntity
  8
RACCORDO
100
AcDbLine
 62
7
  6
CONTINUOUS
 10
-15.7457131002
 20
-8.9451659217
 11
-15.7047459418
 21
-8.9499489687
  0
LINE
  5
607
100
AcDbEntity
  8
0
100
AcDbLine
 62
7
  6
CONTINUOUS
 10
-11.9450270614
 20
23.2629413154
 11
-11.957198884
 21
23.2667110319
  0
LINE
  5
608
100
AcDbEntity
  8
0
100
AcDbLine
 62
7
  6
CONTINUOUS
 10
-11.997372715
 20
23.5216911752
 11
-12.0177577642
 21
23.528030872
  0
LINE
  5
609
100
AcDbEntity
  8
0
100
AcDbLine
 62
7
  6
CONTINUOUS
 10
-12.5226770775
 20
23.8195698803
 11
-12.5017563895
 21
23.8129188627
  0
LINE
  5
60A
100
AcDbEntity
  8
RACCORDO
100
AcDbLine
 62
7
  6
CONTINUOUS
 10
-15.2147471947
 20
27.4876184115
 11
-15.1597755022
 21
27.4700128127
  0
LINE
  5
60B
100
AcDbEntity
  8
RACCORDO
100
AcDbLine
 62
7
  6
CONTINUOUS
 10
-15.8616175094
 20
26.7927581233
 11
-15.8244279497
 21
26.7807179481
  0
LINE
  5
60C
100
AcDbEntity
  8
RACCORDO
100
AcDbLine
 62
7
  6
CONTINUOUS
 10
-15.4548647435
 20
27.1540029418
 11
-15.4175213424
 21
27.1406596944
  0
LINE
  5
60D
100
AcDbEntity
  8
RACCORDO
100
AcDbLine
 62
7
  6
CONTINUOUS
 10
45.0475990188
 20
11.6502147192
 11
45.0698225141
 21
11.6420252422
  0
LINE
  5
60E
100
AcDbEntity
  8
RACCORDO
100
AcDbLine
 62
7
  6
CONTINUOUS
 10
-14.9828614771
 20
27.1840467222
 11
-14.9595494832
 21
27.1753471811
  0
LINE
  5
60F
100
AcDbEntity
  8
0
100
AcDbLine
 62
7
  6
CONTINUOUS
 10
-12.5098706268
 20
23.817544892
 11
-12.5355538311
 21
23.8272268092
  0
LINE
  5
610
100
AcDbEntity
  8
RACCORDO
100
AcDbLine
 62
7
  6
CONTINUOUS
 10
-15.8970049141
 20
26.806431149
 11
-15.8616175094
 21
26.7927581233
  0
LINE
  5
611
100
AcDbEntity
  8
RACCORDO
100
AcDbLine
 62
7
  6
CONTINUOUS
 10
-15.1597755022
 20
27.4700128127
 11
-15.1049087741
 21
27.448372478
  0
LINE
  5
612
100
AcDbEntity
  8
RACCORDO
100
AcDbLine
 62
7
  6
CONTINUOUS
 10
45.0264367468
 20
11.6591584633
 11
45.0475990188
 21
11.6502147192
  0
LINE
  5
613
100
AcDbEntity
  8
RACCORDO
100
AcDbLine
 62
7
  6
CONTINUOUS
 10
45.006486365
 20
11.6687927987
 11
45.0264367468
 21
11.6591584633
  0
LINE
  5
614
100
AcDbEntity
  8
RACCORDO
100
AcDbLine
 62
7
  6
CONTINUOUS
 10
-39.893465049
 20
61.7992866469
 11
-39.9350403585
 21
61.8209908443
  0
LINE
  5
615
100
AcDbEntity
  8
RACCORDO
100
AcDbLine
 62
7
  6
CONTINUOUS
 10
-40.0909695554
 20
61.4851144527
 11
-40.1197844076
 21
61.5005868473
  0
LINE
  5
616
100
AcDbEntity
  8
RACCORDO
100
AcDbLine
 62
7
  6
CONTINUOUS
 10
-35.7228333684
 20
62.4719658789
 11
-35.6990536944
 21
62.4591594147
  0
LINE
  5
617
100
AcDbEntity
  8
RACCORDO
100
AcDbLine
 62
7
  6
CONTINUOUS
 10
44.9878899118
 20
11.6790491331
 11
45.006486365
 21
11.6687927987
  0
LINE
  5
618
100
AcDbEntity
  8
RACCORDO
100
AcDbLine
 62
7
  6
CONTINUOUS
 10
44.5895588599
 20
12.591638642
 11
-40.0909695554
 21
61.4851144527
  0
LINE
  5
619
100
AcDbEntity
  8
RACCORDO
100
AcDbLine
 62
7
  6
CONTINUOUS
 10
44.7870633663
 20
12.9058108362
 11
-39.893465049
 21
61.7992866469
  0
LINE
  5
61A
100
AcDbEntity
  8
RACCORDO
100
AcDbLine
 62
7
  6
CONTINUOUS
 10
-38.3183859731
 20
62.9098967255
 11
46.5363658998
 21
13.9158264739
  0
LINE
  5
61B
100
AcDbEntity
  8
RACCORDO
100
AcDbLine
 62
7
  6
CONTINUOUS
 10
-35.6990536944
 20
62.4591594147
 11
47.8768316927
 21
14.2034906329
  0
LINE
  5
61C
100
AcDbEntity
  8
RACCORDO
100
AcDbLine
 62
7
  6
CONTINUOUS
 10
44.6180345066
 20
12.5740451623
 11
44.5895588599
 21
12.591638642
  0
LINE
  5
61D
100
AcDbEntity
  8
RACCORDO
100
AcDbLine
 62
7
  6
CONTINUOUS
 10
47.8768316927
 20
14.2034906329
 11
47.9012008022
 21
14.188326967
  0
LINE
  5
61E
100
AcDbEntity
  8
RACCORDO
100
AcDbLine
 62
7
  6
CONTINUOUS
 10
47.9012008022
 20
14.188326967
 11
47.9245023902
 21
14.1721769133
  0
LINE
  5
61F
100
AcDbEntity
  8
RACCORDO
100
AcDbLine
 62
7
  6
CONTINUOUS
 10
48.0741692481
 20
14.0083303275
 11
48.0886774513
 21
13.9835118629
  0
LINE
  5
620
100
AcDbEntity
  8
RACCORDO
100
AcDbLine
 62
7
  6
CONTINUOUS
 10
48.0886774513
 20
13.9835118629
 11
48.1020211203
 21
13.957940228
  0
LINE
  5
621
100
AcDbEntity
  8
RACCORDO
100
AcDbLine
 62
7
  6
CONTINUOUS
 10
45.2641972568
 20
12.3365008606
 11
45.2390392359
 21
12.3889687844
  0
LINE
  5
622
100
AcDbEntity
  8
RACCORDO
100
AcDbLine
 62
7
  6
CONTINUOUS
 10
48.1020211203
 20
13.957940228
 11
48.1142063513
 21
13.9315193475
  0
LINE
  5
623
100
AcDbEntity
  8
RACCORDO
100
AcDbLine
 62
7
  6
CONTINUOUS
 10
44.9178958449
 20
12.1894114764
 11
44.9014117757
 21
12.2269848537
  0
LINE
  5
624
100
AcDbEntity
  8
RACCORDO
100
AcDbLine
 62
7
  6
CONTINUOUS
 10
45.2874960094
 20
12.2829986201
 11
45.2641972568
 21
12.3365008606
  0
LINE
  5
625
100
AcDbEntity
  8
RACCORDO
100
AcDbLine
 62
7
  6
CONTINUOUS
 10
48.1142063513
 20
13.9315193475
 11
48.1252270481
 21
13.9043452968
  0
LINE
  5
626
100
AcDbEntity
  8
RACCORDO
100
AcDbLine
 62
7
  6
CONTINUOUS
 10
44.9329058796
 20
12.151176707
 11
44.9178958449
 21
12.1894114764
  0
LINE
  5
627
100
AcDbEntity
  8
RACCORDO
100
AcDbLine
 62
7
  6
CONTINUOUS
 10
45.3088346515
 20
12.2286309292
 11
45.2874960094
 21
12.2829986201
  0
LINE
  5
628
100
AcDbEntity
  8
RACCORDO
100
AcDbLine
 62
7
  6
CONTINUOUS
 10
45.3281245398
 20
12.1735723137
 11
45.3088346515
 21
12.2286309292
  0
LINE
  5
629
100
AcDbEntity
  8
RACCORDO
100
AcDbLine
 62
7
  6
CONTINUOUS
 10
48.1252270481
 20
13.9043452968
 11
48.1348337914
 21
13.8769208173
  0
LINE
  5
62A
100
AcDbEntity
  8
RACCORDO
100
AcDbLine
 62
7
  6
CONTINUOUS
 10
44.9464284399
 20
12.1122743376
 11
44.9329058796
 21
12.151176707
  0
LINE
  5
62B
100
AcDbEntity
  8
RACCORDO
100
AcDbLine
 62
7
  6
CONTINUOUS
 10
45.3453308407
 20
12.1180177095
 11
45.3281245398
 21
12.1735723137
  0
LINE
  5
62C
100
AcDbEntity
  8
RACCORDO
100
AcDbLine
 62
7
  6
CONTINUOUS
 10
44.9584782395
 20
12.0727110445
 11
44.9464284399
 21
12.1122743376
  0
LINE
  5
62D
100
AcDbEntity
  8
RACCORDO
100
AcDbLine
 62
7
  6
CONTINUOUS
 10
45.3603739371
 20
12.0621188692
 11
45.3453308407
 21
12.1180177095
  0
LINE
  5
62E
100
AcDbEntity
  8
RACCORDO
100
AcDbLine
 62
7
  6
CONTINUOUS
 10
44.9689241377
 20
12.0328767922
 11
44.9584782395
 21
12.0727110445
  0
LINE
  5
62F
100
AcDbEntity
  8
RACCORDO
100
AcDbLine
 62
7
  6
CONTINUOUS
 10
44.9878898686
 20
-60.0472574191
 11
44.6863557446
 21
-58.2900278489
  0
LINE
  5
630
100
AcDbEntity
  8
RACCORDO
100
AcDbLine
 62
7
  6
CONTINUOUS
 10
45.3973990886
 20
-60.0120054984
 11
45.0963038716
 21
-58.2573509195
  0
LINE
  5
631
100
AcDbEntity
  8
RACCORDO
100
AcDbLine
 62
7
  6
CONTINUOUS
 10
44.6863557446
 20
-58.2900278489
 11
44.4096425154
 21
-56.515395218
  0
LINE
  5
632
100
AcDbEntity
  8
RACCORDO
100
AcDbLine
 62
7
  6
CONTINUOUS
 10
45.0963038716
 20
-58.2573509195
 11
44.8200828044
 21
-56.4860283499
  0
LINE
  5
633
100
AcDbEntity
  8
RACCORDO
100
AcDbLine
 62
7
  6
CONTINUOUS
 10
44.9926095617
 20
-60.0778462061
 11
44.9878898686
 21
-60.0472574191
  0
LINE
  5
634
100
AcDbEntity
  8
RACCORDO
100
AcDbLine
 62
7
  6
CONTINUOUS
 10
44.4096425154
 20
-56.515395218
 11
44.1578030686
 21
-54.7237163536
  0
LINE
  5
635
100
AcDbEntity
  8
RACCORDO
100
AcDbLine
 62
7
  6
CONTINUOUS
 10
44.8200828044
 20
-56.4860283499
 11
44.5687358868
 21
-54.6980377897
  0
LINE
  5
636
100
AcDbEntity
  8
RACCORDO
100
AcDbLine
 62
7
  6
CONTINUOUS
 10
44.1578030686
 20
-54.7237163536
 11
43.9308838731
 21
-52.9153536987
  0
LINE
  5
637
100
AcDbEntity
  8
RACCORDO
100
AcDbLine
 62
7
  6
CONTINUOUS
 10
44.5687358868
 20
-54.6980377897
 11
44.3422217196
 21
-52.8930060402
  0
LINE
  5
638
100
AcDbEntity
  8
RACCORDO
100
AcDbLine
 62
7
  6
CONTINUOUS
 10
44.9956140598
 20
-60.107159636
 11
44.9926095617
 21
-60.0778462061
  0
LINE
  5
639
100
AcDbEntity
  8
RACCORDO
100
AcDbLine
 62
7
  6
CONTINUOUS
 10
43.7289298247
 20
-51.0906691934
 11
43.5519846565
 21
-49.2500239029
  0
LINE
  5
63A
100
AcDbEntity
  8
RACCORDO
100
AcDbLine
 62
7
  6
CONTINUOUS
 10
44.140581702
 20
-51.0713063002
 11
43.9639400324
 21
-49.2340581654
  0
LINE
  5
63B
100
AcDbEntity
  8
RACCORDO
100
AcDbLine
 62
7
  6
CONTINUOUS
 10
45.4011237015
 20
-60.0569463309
 11
45.3973990886
 21
-60.0120054984
  0
LINE
  5
63C
100
AcDbEntity
  8
RACCORDO
100
AcDbLine
 62
7
  6
CONTINUOUS
 10
43.5519846565
 20
-49.2500239029
 11
43.400084263
 21
-47.3937861573
  0
LINE
  5
63D
100
AcDbEntity
  8
RACCORDO
100
AcDbLine
 62
7
  6
CONTINUOUS
 10
43.9639400324
 20
-49.2340581654
 11
43.81233811
 21
-47.3816348347
  0
LINE
  5
63E
100
AcDbEntity
  8
RACCORDO
100
AcDbLine
 62
7
  6
CONTINUOUS
 10
43.81233811
 20
-47.3816348347
 11
43.6857345354
 21
-45.5136631094
  0
LINE
  5
63F
100
AcDbEntity
  8
RACCORDO
100
AcDbLine
 62
7
  6
CONTINUOUS
 10
43.400084263
 20
-47.3937861573
 11
43.2732562742
 21
-45.522331773
  0
LINE
  5
640
100
AcDbEntity
  8
RACCORDO
100
AcDbLine
 62
7
  6
CONTINUOUS
 10
43.6857345354
 20
-45.5136631094
 11
43.5841293088
 21
-43.6301429893
  0
LINE
  5
641
100
AcDbEntity
  8
RACCORDO
100
AcDbLine
 62
7
  6
CONTINUOUS
 10
43.2732562742
 20
-45.522331773
 11
43.1715251983
 21
-43.6360377234
  0
LINE
  5
642
100
AcDbEntity
  8
RACCORDO
100
AcDbLine
 62
7
  6
CONTINUOUS
 10
16.7689510935
 20
-27.8808211377
 11
16.7644742679
 21
-27.9323013016
  0
LINE
  5
643
100
AcDbEntity
  8
RACCORDO
100
AcDbLine
 62
7
  6
CONTINUOUS
 10
16.6219649281
 20
-27.6400226794
 11
16.6199682196
 21
-27.6587601404
  0
LINE
  5
644
100
AcDbEntity
  8
RACCORDO
100
AcDbLine
 62
7
  6
CONTINUOUS
 10
15.8966084271
 20
-28.2124419776
 11
15.9001361686
 21
-28.1801292114
  0
LINE
  5
645
100
AcDbEntity
  8
RACCORDO
100
AcDbLine
 62
7
  6
CONTINUOUS
 10
16.5001106748
 20
-27.9520513673
 11
16.504757615
 21
-27.9144634231
  0
LINE
  5
646
100
AcDbEntity
  8
0
100
AcDbLine
 62
7
  6
CONTINUOUS
 10
4.5022871111
 20
-24.669073582
 11
4.4984008725
 21
-24.6905429531
  0
LINE
  5
647
100
AcDbEntity
  8
0
100
AcDbLine
 62
7
  6
CONTINUOUS
 10
4.2247382076
 20
-24.3459198393
 11
4.2217819645
 21
-24.36184406
  0
LINE
  5
648
100
AcDbEntity
  8
0
100
AcDbLine
 62
7
  6
CONTINUOUS
 10
4.1152018581
 20
-24.4241999927
 11
4.118226884
 21
-24.4081638878
  0
LINE
  5
649
100
AcDbEntity
  8
0
100
AcDbLine
 62
7
  6
CONTINUOUS
 10
-0.9364855805
 20
-14.6188592806
 11
-0.9317907537
 21
-14.5974288346
  0
LINE
  5
64A
100
AcDbEntity
  8
0
100
AcDbLine
 62
7
  6
CONTINUOUS
 10
-0.936494502
 20
-14.0358613181
 11
-0.9317934882
 21
-14.0150354688
  0
LINE
  5
64B
100
AcDbEntity
  8
0
100
AcDbLine
 62
7
  6
CONTINUOUS
 10
-1.1325212321
 20
-13.8527618456
 11
-1.129700695
 21
-13.8403346609
  0
LINE
  5
64C
100
AcDbEntity
  8
0
100
AcDbLine
 62
7
  6
CONTINUOUS
 10
-0.9411551086
 20
-14.6537404147
 11
-0.9347545381
 21
-14.626006942
  0
LINE
  5
64D
100
AcDbEntity
  8
0
100
AcDbLine
 62
7
  6
CONTINUOUS
 10
-1.0661937148
 20
-14.8044813476
 11
-1.0696697204
 21
-14.8185415221
  0
LINE
  5
64E
100
AcDbEntity
  8
RACCORDO
100
AcDbLine
 62
7
  6
CONTINUOUS
 10
-14.9678746051
 20
-10.2439174859
 11
-14.9567702669
 21
-10.2097783002
  0
LINE
  5
64F
100
AcDbEntity
  8
0
100
AcDbLine
 62
7
  6
CONTINUOUS
 10
-11.8183328234
 20
21.3466061931
 11
-11.81411709
 21
21.3583773161
  0
LINE
  5
650
100
AcDbEntity
  8
0
100
AcDbLine
 62
7
  6
CONTINUOUS
 10
-12.0775754558
 20
20.8853017907
 11
-12.082446366
 21
20.872672949
  0
LINE
  5
651
100
AcDbEntity
  8
0
100
AcDbLine
 62
7
  6
CONTINUOUS
 10
-11.9040944704
 20
21.1392196789
 11
-11.8960487529
 21
21.1593097663
  0
LINE
  5
652
100
AcDbEntity
  8
0
100
AcDbLine
 62
7
  6
CONTINUOUS
 10
-11.8644203976
 20
21.1378492409
 11
-11.850696135
 21
21.1719699707
  0
LINE
  5
653
100
AcDbEntity
  8
RACCORDO
100
AcDbLine
 62
7
  6
CONTINUOUS
 10
-15.8971869948
 20
27.1591872524
 11
-15.8766881032
 21
27.2056855047
  0
LINE
  5
654
100
AcDbEntity
  8
RACCORDO
100
AcDbLine
 62
7
  6
CONTINUOUS
 10
-15.2335425477
 20
27.0053122263
 11
-15.2206369194
 21
27.0340862364
  0
LINE
  5
655
100
AcDbEntity
  8
RACCORDO
100
AcDbLine
 62
7
  6
CONTINUOUS
 10
-39.9998049856
 20
61.6972602927
 11
-39.9836276109
 21
61.7178534223
  0
LINE
  5
656
100
AcDbEntity
  8
RACCORDO
100
AcDbLine
 62
7
  6
CONTINUOUS
 10
-40.5419066109
 20
61.4398694906
 11
-40.5614123817
 21
61.4173226742
  0
LINE
  5
657
100
AcDbEntity
  8
RACCORDO
100
AcDbLine
 62
7
  6
CONTINUOUS
 10
-39.9836276109
 20
61.7178534223
 11
-39.9666475567
 21
61.7372040669
  0
LINE
  5
658
100
AcDbEntity
  8
RACCORDO
100
AcDbLine
 62
7
  6
CONTINUOUS
 10
-40.5504968967
 20
61.723237387
 11
-40.582626128
 21
61.6866514837
  0
LINE
  5
659
100
AcDbEntity
  8
RACCORDO
100
AcDbLine
 62
7
  6
CONTINUOUS
 10
16.5368336243
 20
-27.7318641222
 11
16.509820548
 21
-27.735524017
  0
LINE
  5
65A
100
AcDbEntity
  8
0
100
AcDbLine
 62
7
  6
CONTINUOUS
 10
4.299739629
 20
-24.9066773032
 11
4.2917316384
 21
-24.9073245335
  0
LINE
  5
65B
100
AcDbEntity
  8
0
100
AcDbLine
 62
7
  6
CONTINUOUS
 10
4.3965885802
 20
-24.84592046
 11
4.4040953807
 21
-24.845516182
  0
LINE
  5
65C
100
AcDbEntity
  8
0
100
AcDbLine
 62
7
  6
CONTINUOUS
 10
-3.0139728935
 20
-12.7391675055
 11
-3.0358567436
 21
-12.7397440479
  0
LINE
  5
65D
100
AcDbEntity
  8
0
100
AcDbLine
 62
7
  6
CONTINUOUS
 10
-3.0031843676
 20
-12.7032076036
 11
-3.0402559499
 21
-12.7036963113
  0
LINE
  5
65E
100
AcDbEntity
  8
0
100
AcDbLine
 62
7
  6
CONTINUOUS
 10
-3.2685048616
 20
-12.7641031962
 11
-3.2812827399
 21
-12.7640228669
  0
LINE
  5
65F
100
AcDbEntity
  8
RACCORDO
100
AcDbLine
 62
7
  6
CONTINUOUS
 10
-15.6630924356
 20
-8.9526057503
 11
-15.6210488448
 21
-8.9531173699
  0
LINE
  5
660
100
AcDbEntity
  8
0
100
AcDbLine
 62
7
  6
CONTINUOUS
 10
-2.9919434981
 20
-12.7395045195
 11
-3.0139728935
 21
-12.7391675055
  0
LINE
  5
661
100
AcDbEntity
  8
0
100
AcDbLine
 62
7
  6
CONTINUOUS
 10
-1.1591885328
 20
-13.6842930056
 11
-1.1461133795
 21
-13.6845526175
  0
LINE
  5
662
100
AcDbEntity
  8
0
100
AcDbLine
 62
7
  6
CONTINUOUS
 10
-2.7390860475
 20
-12.7720805515
 11
-2.7260109466
 21
-12.772340021
  0
LINE
  5
663
100
AcDbEntity
  8
RACCORDO
100
AcDbLine
 62
7
  6
CONTINUOUS
 10
16.5058622748
 20
8.6957268899
 11
16.5006650685
 21
8.6968718995
  0
LINE
  5
664
100
AcDbEntity
  8
RACCORDO
100
AcDbLine
 62
7
  6
CONTINUOUS
 10
45.1168138574
 20
11.6281365273
 11
45.1412471463
 21
11.6225361712
  0
LINE
  5
665
100
AcDbEntity
  8
RACCORDO
100
AcDbLine
 62
7
  6
CONTINUOUS
 10
-15.2695560252
 20
27.5010867787
 11
-15.2147471947
 21
27.4876184115
  0
LINE
  5
666
100
AcDbEntity
  8
RACCORDO
100
AcDbLine
 62
7
  6
CONTINUOUS
 10
-15.8244279497
 20
26.7807179481
 11
-15.7857007516
 21
26.770396261
  0
LINE
  5
667
100
AcDbEntity
  8
RACCORDO
100
AcDbLine
 62
7
  6
CONTINUOUS
 10
-15.4175213424
 20
27.1406596944
 11
-15.3799432172
 21
27.1304526484
  0
LINE
  5
668
100
AcDbEntity
  8
RACCORDO
100
AcDbLine
 62
7
  6
CONTINUOUS
 10
45.0929490107
 20
11.6346483381
 11
45.1168138574
 21
11.6281365273
  0
LINE
  5
669
100
AcDbEntity
  8
0
100
AcDbLine
 62
7
  6
CONTINUOUS
 10
-12.5355538311
 20
23.8272268092
 11
-12.562290301
 21
23.8346966251
  0
LINE
  5
66A
100
AcDbEntity
  8
0
100
AcDbLine
 62
7
  6
CONTINUOUS
 10
-12.7621756463
 20
23.8040546273
 11
-12.7482606913
 21
23.8000338023
  0
LINE
  5
66B
100
AcDbEntity
  8
RACCORDO
100
AcDbLine
 62
7
  6
CONTINUOUS
 10
-15.0036651163
 20
27.1903454142
 11
-14.9828614771
 21
27.1840467222
  0
LINE
  5
66C
100
AcDbEntity
  8
RACCORDO
100
AcDbLine
 62
7
  6
CONTINUOUS
 10
45.0698225141
 20
11.6420252422
 11
45.0929490107
 21
11.6346483381
  0
LINE
  5
66D
100
AcDbEntity
  8
RACCORDO
100
AcDbLine
 62
7
  6
CONTINUOUS
 10
-39.9350403585
 20
61.8209908443
 11
-39.9767048708
 21
61.8397038253
  0
LINE
  5
66E
100
AcDbEntity
  8
RACCORDO
100
AcDbLine
 62
7
  6
CONTINUOUS
 10
-40.1197844076
 20
61.5005868473
 11
-40.1486041164
 21
61.513826071
  0
LINE
  5
66F
100
AcDbEntity
  8
RACCORDO
100
AcDbLine
 62
7
  6
CONTINUOUS
 10
-35.7458410051
 20
62.4826246649
 11
-35.7228333684
 21
62.4719658789
  0
LINE
  5
670
100
AcDbEntity
  8
RACCORDO
100
AcDbLine
 62
7
  6
CONTINUOUS
 10
48.1348337914
 20
13.8769208173
 11
48.1429634397
 21
13.8493434812
  0
LINE
  5
671
100
AcDbEntity
  8
RACCORDO
100
AcDbLine
 62
7
  6
CONTINUOUS
 10
48.1429634397
 20
13.8493434812
 11
48.1496791345
 21
13.8215157162
  0
LINE
  5
672
100
AcDbEntity
  8
RACCORDO
100
AcDbLine
 62
7
  6
CONTINUOUS
 10
45.3731735864
 20
12.0060807164
 11
45.3603739371
 21
12.0621188692
  0
LINE
  5
673
100
AcDbEntity
  8
RACCORDO
100
AcDbLine
 62
7
  6
CONTINUOUS
 10
44.9777516309
 20
11.992750844
 11
44.9689241377
 21
12.0328767922
  0
LINE
  5
674
100
AcDbEntity
  8
RACCORDO
100
AcDbLine
 62
7
  6
CONTINUOUS
 10
45.3837087609
 20
11.9501793629
 11
45.3731735864
 21
12.0060807164
  0
LINE
  5
675
100
AcDbEntity
  8
RACCORDO
100
AcDbLine
 62
7
  6
CONTINUOUS
 10
48.1496791345
 20
13.8215157162
 11
48.1549208815
 21
13.7936475472
  0
LINE
  5
676
100
AcDbEntity
  8
RACCORDO
100
AcDbLine
 62
7
  6
CONTINUOUS
 10
44.9849763754
 20
11.9523543622
 11
44.9777516309
 21
11.992750844
  0
LINE
  5
677
100
AcDbEntity
  8
RACCORDO
100
AcDbLine
 62
7
  6
CONTINUOUS
 10
45.3919151786
 20
11.8946366825
 11
45.3837087609
 21
11.9501793629
  0
LINE
  5
678
100
AcDbEntity
  8
RACCORDO
100
AcDbLine
 62
7
  6
CONTINUOUS
 10
44.9905121588
 20
11.9121400467
 11
44.9849763754
 21
11.9523543622
  0
LINE
  5
679
100
AcDbEntity
  8
RACCORDO
100
AcDbLine
 62
7
  6
CONTINUOUS
 10
43.9308838731
 20
-52.9153536987
 11
43.7289298247
 21
-51.0906691934
  0
LINE
  5
67A
100
AcDbEntity
  8
RACCORDO
100
AcDbLine
 62
7
  6
CONTINUOUS
 10
44.3422217196
 20
-52.8930060402
 11
44.140581702
 21
-51.0713063002
  0
LINE
  5
67B
100
AcDbEntity
  8
RACCORDO
100
AcDbLine
 62
7
  6
CONTINUOUS
 10
45.3977552897
 20
11.839585188
 11
45.3919151786
 21
11.8946366825
  0
LINE
  5
67C
100
AcDbEntity
  8
RACCORDO
100
AcDbLine
 62
7
  6
CONTINUOUS
 10
44.9943383837
 20
11.8721308221
 11
44.9905121588
 21
11.9121400467
  0
LINE
  5
67D
100
AcDbEntity
  8
RACCORDO
100
AcDbLine
 62
7
  6
CONTINUOUS
 10
48.1586686825
 20
13.7658089824
 11
48.1609425358
 21
13.7379300135
  0
LINE
  5
67E
100
AcDbEntity
  8
RACCORDO
100
AcDbLine
 62
7
  6
CONTINUOUS
 10
45.4012570121
 20
11.7851668216
 11
45.3977552897
 21
11.839585188
  0
LINE
  5
67F
100
AcDbEntity
  8
RACCORDO
100
AcDbLine
 62
7
  6
CONTINUOUS
 10
44.996476471
 20
11.8323040701
 11
44.9943383837
 21
11.8721308221
  0
LINE
  5
680
100
AcDbEntity
  8
RACCORDO
100
AcDbLine
 62
7
  6
CONTINUOUS
 10
44.9969031445
 20
-60.1351978782
 11
44.9956140598
 21
-60.107159636
  0
LINE
  5
681
100
AcDbEntity
  8
RACCORDO
100
AcDbLine
 62
7
  6
CONTINUOUS
 10
43.1715252701
 20
-43.6360377649
 11
43.0416601697
 21
-40.6212639994
  0
LINE
  5
682
100
AcDbEntity
  8
RACCORDO
100
AcDbLine
 62
7
  6
CONTINUOUS
 10
43.5841293088
 20
-43.6301429893
 11
43.4543322088
 21
-40.6170069118
  0
LINE
  5
683
100
AcDbEntity
  8
RACCORDO
100
AcDbLine
 62
7
  6
CONTINUOUS
 10
43.0416601697
 20
-40.6212639994
 11
42.935389192
 21
-37.593020456
  0
LINE
  5
684
100
AcDbEntity
  8
RACCORDO
100
AcDbLine
 62
7
  6
CONTINUOUS
 10
43.4543322088
 20
-40.6170069118
 11
43.3481311273
 21
-37.5908384997
  0
LINE
  5
685
100
AcDbEntity
  8
RACCORDO
100
AcDbLine
 62
7
  6
CONTINUOUS
 10
45.4023999942
 20
-60.1002884811
 11
45.4011237015
 21
-60.0569463309
  0
LINE
  5
686
100
AcDbEntity
  8
RACCORDO
100
AcDbLine
 62
7
  6
CONTINUOUS
 10
48.1609425358
 20
13.7379300135
 11
48.1617424412
 21
13.7100106405
  0
LINE
  5
687
100
AcDbEntity
  8
RACCORDO
100
AcDbLine
 62
7
  6
CONTINUOUS
 10
42.935389192
 20
-37.593020456
 11
42.8527219859
 21
-34.551518946
  0
LINE
  5
688
100
AcDbEntity
  8
RACCORDO
100
AcDbLine
 62
7
  6
CONTINUOUS
 10
43.3481311273
 20
-37.5908384997
 11
43.2655260643
 21
-34.551637753
  0
LINE
  5
689
100
AcDbEntity
  8
RACCORDO
100
AcDbLine
 62
7
  6
CONTINUOUS
 10
45.4023995187
 20
11.7315470168
 11
45.4012570121
 21
11.7851668216
  0
LINE
  5
68A
100
AcDbEntity
  8
RACCORDO
100
AcDbLine
 62
7
  6
CONTINUOUS
 10
42.8527219859
 20
-34.551518946
 11
42.7936658463
 21
-31.4969339023
  0
LINE
  5
68B
100
AcDbEntity
  8
RACCORDO
100
AcDbLine
 62
7
  6
CONTINUOUS
 10
43.2655260643
 20
-34.551637753
 11
43.2065127971
 21
-31.4991518144
  0
LINE
  5
68C
100
AcDbEntity
  8
RACCORDO
100
AcDbLine
 62
7
  6
CONTINUOUS
 10
42.7936658463
 20
-31.4969339023
 11
42.7582285948
 21
-28.4295172368
  0
LINE
  5
68D
100
AcDbEntity
  8
RACCORDO
100
AcDbLine
 62
7
  6
CONTINUOUS
 10
43.2065127971
 20
-31.4991518144
 11
43.1710955484
 21
-28.4336335412
  0
LINE
  5
68E
100
AcDbEntity
  8
RACCORDO
100
AcDbLine
 62
7
  6
CONTINUOUS
 10
44.9969028503
 20
11.7930440347
 11
44.996476471
 21
11.8323040701
  0
LINE
  5
68F
100
AcDbEntity
  8
RACCORDO
100
AcDbLine
 62
7
  6
CONTINUOUS
 10
42.7582285948
 20
-28.4295172368
 11
42.7464157702
 21
-25.3495999882
  0
LINE
  5
690
100
AcDbEntity
  8
RACCORDO
100
AcDbLine
 62
7
  6
CONTINUOUS
 10
43.1710955484
 20
-28.4336335412
 11
43.1592869864
 21
-25.3558415053
  0
LINE
  5
691
100
AcDbEntity
  8
RACCORDO
100
AcDbLine
 62
7
  6
CONTINUOUS
 10
42.7464157702
 20
-25.3495999882
 11
42.7582285885
 21
-22.2573996521
  0
LINE
  5
692
100
AcDbEntity
  8
RACCORDO
100
AcDbLine
 62
7
  6
CONTINUOUS
 10
43.1592869864
 20
-25.3558415053
 11
43.1710955585
 21
-22.2657712429
  0
LINE
  5
693
100
AcDbEntity
  8
RACCORDO
100
AcDbLine
 62
7
  6
CONTINUOUS
 10
42.7582285885
 20
-22.2573996521
 11
42.7936658353
 21
-19.1531341881
  0
LINE
  5
694
100
AcDbEntity
  8
RACCORDO
100
AcDbLine
 62
7
  6
CONTINUOUS
 10
43.1710955585
 20
-22.2657712429
 11
43.2065128173
 21
-19.1634272179
  0
LINE
  5
695
100
AcDbEntity
  8
RACCORDO
100
AcDbLine
 62
7
  6
CONTINUOUS
 10
42.7936658353
 20
-19.1531341881
 11
42.8527219722
 21
-16.0371396211
  0
LINE
  5
696
100
AcDbEntity
  8
RACCORDO
100
AcDbLine
 62
7
  6
CONTINUOUS
 10
43.2065128173
 20
-19.1634272179
 11
43.2655260891
 21
-16.0495813935
  0
LINE
  5
697
100
AcDbEntity
  8
RACCORDO
100
AcDbLine
 62
7
  6
CONTINUOUS
 10
42.8527219722
 20
-16.0371396211
 11
42.9353891773
 21
-12.9096764256
  0
LINE
  5
698
100
AcDbEntity
  8
RACCORDO
100
AcDbLine
 62
7
  6
CONTINUOUS
 10
16.7644742679
 20
-27.9323013016
 11
16.7572287739
 21
-27.9825180145
  0
LINE
  5
699
100
AcDbEntity
  8
RACCORDO
100
AcDbLine
 62
7
  6
CONTINUOUS
 10
16.6199682196
 20
-27.6587601404
 11
16.6174990707
 21
-27.6747146607
  0
LINE
  5
69A
100
AcDbEntity
  8
RACCORDO
100
AcDbLine
 62
7
  6
CONTINUOUS
 10
15.9001361686
 20
-28.1801292114
 11
15.9056147704
 21
-28.1470794108
  0
LINE
  5
69B
100
AcDbEntity
  8
RACCORDO
100
AcDbLine
 62
7
  6
CONTINUOUS
 10
16.6174990707
 20
-27.6747146607
 11
16.6147521119
 21
-27.6880375404
  0
LINE
  5
69C
100
AcDbEntity
  8
0
100
AcDbLine
 62
7
  6
CONTINUOUS
 10
4.4984008725
 20
-24.6905429531
 11
4.4938085457
 21
-24.710517713
  0
LINE
  5
69D
100
AcDbEntity
  8
0
100
AcDbLine
 62
7
  6
CONTINUOUS
 10
4.2217819645
 20
-24.36184406
 11
4.2180549237
 21
-24.3769987476
  0
LINE
  5
69E
100
AcDbEntity
  8
0
100
AcDbLine
 62
7
  6
CONTINUOUS
 10
4.111394912
 20
-24.4394124381
 11
4.1152018581
 21
-24.4241999927
  0
LINE
  5
69F
100
AcDbEntity
  8
0
100
AcDbLine
 62
7
  6
CONTINUOUS
 10
4.4938085457
 20
-24.710517713
 11
4.4885000252
 21
-24.7290016208
  0
LINE
  5
6A0
100
AcDbEntity
  8
0
100
AcDbLine
 62
7
  6
CONTINUOUS
 10
-0.950140985
 20
-14.6811118467
 11
-0.9411551086
 21
-14.6537404147
  0
LINE
  5
6A1
100
AcDbEntity
  8
RACCORDO
100
AcDbLine
 62
7
  6
CONTINUOUS
 10
-14.9567702669
 20
-10.2097783002
 11
-14.9439013102
 21
-10.1756566757
  0
LINE
  5
6A2
100
AcDbEntity
  8
RACCORDO
100
AcDbLine
 62
7
  6
CONTINUOUS
 10
-14.9439013102
 20
-10.1756566757
 11
-14.9293397974
 21
-10.1417436827
  0
LINE
  5
6A3
100
AcDbEntity
  8
0
100
AcDbLine
 62
7
  6
CONTINUOUS
 10
-11.9130281875
 20
21.1194077111
 11
-11.9040944704
 21
21.1392196789
  0
LINE
  5
6A4
100
AcDbEntity
  8
0
100
AcDbLine
 62
7
  6
CONTINUOUS
 10
-11.8800293732
 20
21.1042433678
 11
-11.8644203976
 21
21.1378492409
  0
LINE
  5
6A5
100
AcDbEntity
  8
0
100
AcDbLine
 62
7
  6
CONTINUOUS
 10
-11.9228630329
 20
21.0998830853
 11
-11.9130281875
 21
21.1194077111
  0
LINE
  5
6A6
100
AcDbEntity
  8
RACCORDO
100
AcDbLine
 62
7
  6
CONTINUOUS
 10
-15.8766881032
 20
27.2056855047
 11
-15.8534572391
 21
27.2497194536
  0
LINE
  5
6A7
100
AcDbEntity
  8
0
100
AcDbLine
 62
7
  6
CONTINUOUS
 10
-11.8973658996
 20
21.0714518944
 11
-11.8800293732
 21
21.1042433678
  0
LINE
  5
6A8
100
AcDbEntity
  8
RACCORDO
100
AcDbLine
 62
7
  6
CONTINUOUS
 10
-15.2206369194
 20
27.0340862364
 11
-15.2059971079
 21
27.0612548756
  0
LINE
  5
6A9
100
AcDbEntity
  8
RACCORDO
100
AcDbLine
 62
7
  6
CONTINUOUS
 10
-39.9666475567
 20
61.7372040669
 11
-39.9489994127
 21
61.7551588346
  0
LINE
  5
6AA
100
AcDbEntity
  8
RACCORDO
100
AcDbLine
 62
7
  6
CONTINUOUS
 10
16.410338323
 20
-28.3926861576
 11
16.3650442165
 21
-28.3997853039
  0
LINE
  5
6AB
100
AcDbEntity
  8
0
100
AcDbLine
 62
7
  6
CONTINUOUS
 10
4.0151242851
 20
-24.5344386922
 11
4.0280532801
 21
-24.5324862342
  0
LINE
  5
6AC
100
AcDbEntity
  8
0
100
AcDbLine
 62
7
  6
CONTINUOUS
 10
-3.0358567436
 20
-12.7397440479
 11
-3.0575941655
 21
-12.7412488605
  0
LINE
  5
6AD
100
AcDbEntity
  8
0
100
AcDbLine
 62
7
  6
CONTINUOUS
 10
-3.0402559499
 20
-12.7036963113
 11
-3.0772258132
 21
-12.7060897147
  0
LINE
  5
6AE
100
AcDbEntity
  8
RACCORDO
100
AcDbLine
 62
7
  6
CONTINUOUS
 10
-15.6210488448
 20
-8.9531173699
 11
-15.5789142071
 21
-8.9514801886
  0
LINE
  5
6AF
100
AcDbEntity
  8
RACCORDO
100
AcDbLine
 62
7
  6
CONTINUOUS
 10
45.1911204222
 20
11.6142225389
 11
45.216205332
 21
11.6115684524
  0
LINE
  5
6B0
100
AcDbEntity
  8
RACCORDO
100
AcDbLine
 62
7
  6
CONTINUOUS
 10
45.1660749224
 20
11.617887142
 11
45.1911204222
 21
11.6142225389
  0
LINE
  5
6B1
100
AcDbEntity
  8
0
100
AcDbLine
 62
7
  6
CONTINUOUS
 10
-12.775681184
 20
23.8060632107
 11
-12.7621756463
 21
23.8040546273
  0
LINE
  5
6B2
100
AcDbEntity
  8
RACCORDO
100
AcDbLine
 62
7
  6
CONTINUOUS
 10
-15.7457113681
 20
26.7618664765
 11
-15.7047442298
 21
26.755189264
  0
LINE
  5
6B3
100
AcDbEntity
  8
RACCORDO
100
AcDbLine
 62
7
  6
CONTINUOUS
 10
-15.3234002524
 20
27.5101095302
 11
-15.2695560252
 21
27.5010867787
  0
LINE
  5
6B4
100
AcDbEntity
  8
0
100
AcDbLine
 62
7
  6
CONTINUOUS
 10
-11.957198884
 20
23.2667110319
 11
-11.9700890454
 21
23.2690538884
  0
LINE
  5
6B5
100
AcDbEntity
  8
0
100
AcDbLine
 62
7
  6
CONTINUOUS
 10
-12.0177577642
 20
23.528030872
 11
-12.0392368279
 21
23.5319528905
  0
LINE
  5
6B6
100
AcDbEntity
  8
RACCORDO
100
AcDbLine
 62
7
  6
CONTINUOUS
 10
-15.3799432172
 20
27.1304526484
 11
-15.3424011478
 21
27.1234553536
  0
LINE
  5
6B7
100
AcDbEntity
  8
0
100
AcDbLine
 62
7
  6
CONTINUOUS
 10
-12.562290301
 20
23.8346966251
 11
-12.5899277751
 21
23.8398629616
  0
LINE
  5
6B8
100
AcDbEntity
  8
RACCORDO
100
AcDbLine
 62
7
  6
CONTINUOUS
 10
45.1412471463
 20
11.6225361712
 11
45.1660749224
 21
11.617887142
  0
LINE
  5
6B9
100
AcDbEntity
  8
0
100
AcDbLine
 62
7
  6
CONTINUOUS
 10
-12.5447238517
 20
23.8238213647
 11
-12.5226770775
 21
23.8195698803
  0
LINE
  5
6BA
100
AcDbEntity
  8
RACCORDO
100
AcDbLine
 62
7
  6
CONTINUOUS
 10
-15.7857007516
 20
26.770396261
 11
-15.7457113681
 21
26.7618664765
  0
LINE
  5
6BB
100
AcDbEntity
  8
RACCORDO
100
AcDbLine
 62
7
  6
CONTINUOUS
 10
-15.0216122697
 20
27.1944696949
 11
-15.0036651163
 21
27.1903454142
  0
LINE
  5
6BC
100
AcDbEntity
  8
RACCORDO
100
AcDbLine
 62
7
  6
CONTINUOUS
 10
-39.9767048708
 20
61.8397038253
 11
-40.0183177557
 21
61.855370117
  0
LINE
  5
6BD
100
AcDbEntity
  8
RACCORDO
100
AcDbLine
 62
7
  6
CONTINUOUS
 10
-35.7538831673
 20
62.4859294144
 11
-35.8600934023
 21
62.5264118254
  0
LINE
  5
6BE
100
AcDbEntity
  8
RACCORDO
100
AcDbLine
 62
7
  6
CONTINUOUS
 10
-40.1486041164
 20
61.513826071
 11
-40.177428577
 21
61.5248321619
  0
LINE
  5
6BF
100
AcDbEntity
  8
RACCORDO
100
AcDbLine
 62
7
  6
CONTINUOUS
 10
-35.7961922861
 20
62.4962493017
 11
-35.6990538174
 21
62.45915947
  0
LINE
  5
6C0
100
AcDbEntity
  8
RACCORDO
100
AcDbLine
 62
7
  6
CONTINUOUS
 10
-35.7538813361
 20
62.4859150022
 11
-35.7458410051
 21
62.4826246649
  0
LINE
  5
6C1
100
AcDbEntity
  8
RACCORDO
100
AcDbLine
 62
7
  6
CONTINUOUS
 10
48.1549208815
 20
13.7936475472
 11
48.1586686825
 21
13.7658089824
  0
LINE
  5
6C2
100
AcDbEntity
  8
RACCORDO
100
AcDbLine
 62
7
  6
CONTINUOUS
 10
47.2425036157
 20
-59.158862172
 11
47.2425036157
 21
12.692760074
  0
LINE
  5
6C3
100
AcDbEntity
  8
DRAFT
100
AcDbLine
 62
7
  6
CONTINUOUS
 10
47.3805592342
 20
-19.8018773147
 11
47.3805592342
 21
-25.5171692523
  0
LINE
  5
6C4
100
AcDbEntity
  8
DRAFT
100
AcDbLine
 62
7
  6
CONTINUOUS
 10
48.1617424412
 20
13.7100106405
 11
48.1617424313
 21
-18.3318928514
  0
LINE
  5
6C5
100
AcDbEntity
  8
DRAFT
100
AcDbLine
 62
7
  6
CONTINUOUS
 10
48.1617424313
 20
-24.6230477439
 11
48.1617424541
 21
-56.6649511039
  0
LINE
  5
6C6
100
AcDbEntity
  8
RACCORDO
100
AcDbLine
 62
7
  6
CONTINUOUS
 10
44.9964676454
 20
-60.1620563244
 11
44.9969031445
 21
-60.1351978782
  0
LINE
  5
6C7
100
AcDbEntity
  8
RACCORDO
100
AcDbLine
 62
7
  6
CONTINUOUS
 10
45.4011229299
 20
11.6789109852
 11
45.4023995187
 21
11.7315470168
  0
LINE
  5
6C8
100
AcDbEntity
  8
RACCORDO
100
AcDbLine
 62
7
  6
CONTINUOUS
 10
43.2655260891
 20
-16.0495813935
 11
43.3481311493
 21
-12.924491091
  0
LINE
  5
6C9
100
AcDbEntity
  8
RACCORDO
100
AcDbLine
 62
7
  6
CONTINUOUS
 10
45.4012523671
 20
-60.1418755551
 11
45.4023999942
 21
-60.1002884811
  0
LINE
  5
6CA
100
AcDbEntity
  8
RACCORDO
100
AcDbLine
 62
7
  6
CONTINUOUS
 10
48.1617424541
 20
-56.6649511039
 11
48.1609425589
 21
-56.6919468835
  0
LINE
  5
6CB
100
AcDbEntity
  8
RACCORDO
100
AcDbLine
 62
7
  6
CONTINUOUS
 10
44.995609732
 20
11.7544788234
 11
44.9969028503
 21
11.7930440347
  0
LINE
  5
6CC
100
AcDbEntity
  8
RACCORDO
100
AcDbLine
 62
7
  6
CONTINUOUS
 10
42.9353891773
 20
-12.9096764256
 11
43.0416601561
 21
-9.7709279279
  0
LINE
  5
6CD
100
AcDbEntity
  8
RACCORDO
100
AcDbLine
 62
7
  6
CONTINUOUS
 10
43.3481311493
 20
-12.924491091
 11
43.4543322226
 21
-9.7878989892
  0
LINE
  5
6CE
100
AcDbEntity
  8
RACCORDO
100
AcDbLine
 62
7
  6
CONTINUOUS
 10
43.0416601561
 20
-9.7709279279
 11
43.1715252597
 21
-6.6211170817
  0
LINE
  5
6CF
100
AcDbEntity
  8
RACCORDO
100
AcDbLine
 62
7
  6
CONTINUOUS
 10
43.4543322226
 20
-9.7878989892
 11
43.5841293088
 21
-6.6398050881
  0
LINE
  5
6D0
100
AcDbEntity
  8
RACCORDO
100
AcDbLine
 62
7
  6
CONTINUOUS
 10
43.1715251876
 20
-6.62111704
 11
43.2732562735
 21
-4.6290322018
  0
LINE
  5
6D1
100
AcDbEntity
  8
RACCORDO
100
AcDbLine
 62
7
  6
CONTINUOUS
 10
43.5841293088
 20
-6.6398050881
 11
43.6857347143
 21
-4.6506366411
  0
LINE
  5
6D2
100
AcDbEntity
  8
RACCORDO
100
AcDbLine
 62
7
  6
CONTINUOUS
 10
43.2732562735
 20
-4.6290322018
 11
43.4000842692
 21
-2.6256807952
  0
LINE
  5
6D3
100
AcDbEntity
  8
RACCORDO
100
AcDbLine
 62
7
  6
CONTINUOUS
 10
43.6857347143
 20
-4.6506366411
 11
43.8123385165
 21
-2.6510243149
  0
LINE
  5
6D4
100
AcDbEntity
  8
RACCORDO
100
AcDbLine
 62
7
  6
CONTINUOUS
 10
45.3973990886
 20
11.6274300983
 11
45.4011229299
 21
11.6789109852
  0
LINE
  5
6D5
100
AcDbEntity
  8
RACCORDO
100
AcDbLine
 62
7
  6
CONTINUOUS
 10
43.4000842692
 20
-2.6256807952
 11
43.5519846627
 21
-0.6114680971
  0
LINE
  5
6D6
100
AcDbEntity
  8
RACCORDO
100
AcDbLine
 62
7
  6
CONTINUOUS
 10
43.8123385165
 20
-2.6510243149
 11
43.9639407152
 21
-0.6409681093
  0
LINE
  5
6D7
100
AcDbEntity
  8
RACCORDO
100
AcDbLine
 62
7
  6
CONTINUOUS
 10
44.9926053261
 20
11.7164804878
 11
44.995609732
 21
11.7544788234
  0
LINE
  5
6D8
100
AcDbEntity
  8
RACCORDO
100
AcDbLine
 62
7
  6
CONTINUOUS
 10
43.5519846627
 20
-0.6114680971
 11
43.7289298117
 21
1.4131934485
  0
LINE
  5
6D9
100
AcDbEntity
  8
RACCORDO
100
AcDbLine
 62
7
  6
CONTINUOUS
 10
43.9639407152
 20
-0.6409681093
 11
44.1405828347
 21
1.3799490308
  0
LINE
  5
6DA
100
AcDbEntity
  8
RACCORDO
100
AcDbLine
 62
7
  6
CONTINUOUS
 10
43.7289298117
 20
1.4131934485
 11
43.9308838239
 21
3.4478987782
  0
LINE
  5
6DB
100
AcDbEntity
  8
RACCORDO
100
AcDbLine
 62
7
  6
CONTINUOUS
 10
44.1405828347
 20
1.3799490308
 11
44.3422233507
 21
3.4113100503
  0
LINE
  5
6DC
100
AcDbEntity
  8
RACCORDO
100
AcDbLine
 62
7
  6
CONTINUOUS
 10
43.9308838239
 20
3.4478987782
 11
44.1578029935
 21
5.4922504833
  0
LINE
  5
6DD
100
AcDbEntity
  8
RACCORDO
100
AcDbLine
 62
7
  6
CONTINUOUS
 10
44.3422233507
 20
3.4113100503
 11
44.5687376913
 21
5.4518637833
  0
LINE
  5
6DE
100
AcDbEntity
  8
RACCORDO
100
AcDbLine
 62
7
  6
CONTINUOUS
 10
16.7572287739
 20
-27.9825180145
 11
16.7472095657
 21
-28.0311778734
  0
LINE
  5
6DF
100
AcDbEntity
  8
RACCORDO
100
AcDbLine
 62
7
  6
CONTINUOUS
 10
16.504757615
 20
-27.9144634231
 11
16.512650527
 21
-27.8780019701
  0
LINE
  5
6E0
100
AcDbEntity
  8
RACCORDO
100
AcDbLine
 62
7
  6
CONTINUOUS
 10
15.9056147704
 20
-28.1470794108
 11
15.913013554
 21
-28.1134776445
  0
LINE
  5
6E1
100
AcDbEntity
  8
RACCORDO
100
AcDbLine
 62
7
  6
CONTINUOUS
 10
16.6147521119
 20
-27.6880375404
 11
16.6119420928
 21
-27.6987717463
  0
LINE
  5
6E2
100
AcDbEntity
  8
RACCORDO
100
AcDbLine
 62
7
  6
CONTINUOUS
 10
15.913013554
 20
-28.1134776445
 11
15.9222910886
 21
-28.0795120721
  0
LINE
  5
6E3
100
AcDbEntity
  8
0
100
AcDbLine
 62
7
  6
CONTINUOUS
 10
4.2180549237
 20
-24.3769987476
 11
4.2135372463
 21
-24.3913773261
  0
LINE
  5
6E4
100
AcDbEntity
  8
0
100
AcDbLine
 62
7
  6
CONTINUOUS
 10
4.1067913148
 20
-24.4538049254
 11
4.111394912
 21
-24.4394124381
  0
LINE
  5
6E5
100
AcDbEntity
  8
0
100
AcDbLine
 62
7
  6
CONTINUOUS
 10
4.4885000252
 20
-24.7290016208
 11
4.4827036034
 21
-24.7462054672
  0
LINE
  5
6E6
100
AcDbEntity
  8
0
100
AcDbLine
 62
7
  6
CONTINUOUS
 10
-0.943817707
 20
-14.6400652084
 11
-0.9364855805
 21
-14.6188592806
  0
LINE
  5
6E7
100
AcDbEntity
  8
0
100
AcDbLine
 62
7
  6
CONTINUOUS
 10
-0.9438363078
 20
-14.0564257485
 11
-0.936494502
 21
-14.0358613181
  0
LINE
  5
6E8
100
AcDbEntity
  8
0
100
AcDbLine
 62
7
  6
CONTINUOUS
 10
-1.1369366398
 20
-13.8650976922
 11
-1.1325212321
 21
-13.8527618456
  0
LINE
  5
6E9
100
AcDbEntity
  8
0
100
AcDbLine
 62
7
  6
CONTINUOUS
 10
-1.0696697204
 20
-14.8185415221
 11
-1.0746837189
 21
-14.8312409192
  0
LINE
  5
6EA
100
AcDbEntity
  8
RACCORDO
100
AcDbLine
 62
7
  6
CONTINUOUS
 10
-14.9293397974
 20
-10.1417436827
 11
-14.9131672686
 21
-10.1082292237
  0
LINE
  5
6EB
100
AcDbEntity
  8
0
100
AcDbLine
 62
7
  6
CONTINUOUS
 10
-11.8246454242
 20
23.1593998055
 11
-11.8183332199
 21
23.1708540146
  0
LINE
  5
6EC
100
AcDbEntity
  8
0
100
AcDbLine
 62
7
  6
CONTINUOUS
 10
-11.8246449305
 20
21.3351518653
 11
-11.8183328234
 21
21.3466061931
  0
LINE
  5
6ED
100
AcDbEntity
  8
0
100
AcDbLine
 62
7
  6
CONTINUOUS
 10
-11.9335858779
 20
21.0806365793
 11
-11.9228630329
 21
21.0998830853
  0
LINE
  5
6EE
100
AcDbEntity
  8
0
100
AcDbLine
 62
7
  6
CONTINUOUS
 10
-12.082446366
 20
20.872672949
 11
-12.0887663436
 21
20.8615679466
  0
LINE
  5
6EF
100
AcDbEntity
  8
0
100
AcDbLine
 62
7
  6
CONTINUOUS
 10
-11.9163646549
 20
21.039589595
 11
-11.8973658996
 21
21.0714518944
  0
LINE
  5
6F0
100
AcDbEntity
  8
0
100
AcDbLine
 62
7
  6
CONTINUOUS
 10
-11.9450270616
 20
21.0619728078
 11
-11.9335858779
 21
21.0806365793
  0
LINE
  5
6F1
100
AcDbEntity
  8
RACCORDO
100
AcDbLine
 62
7
  6
CONTINUOUS
 10
-15.8534572391
 20
27.2497194536
 11
-15.8279339637
 21
27.2905052431
  0
LINE
  5
6F2
100
AcDbEntity
  8
RACCORDO
100
AcDbLine
 62
7
  6
CONTINUOUS
 10
-15.2059971079
 20
27.0612548756
 11
-15.1898048867
 21
27.086498275
  0
LINE
  5
6F3
100
AcDbEntity
  8
RACCORDO
100
AcDbLine
 62
7
  6
CONTINUOUS
 10
-40.5211060521
 20
61.4604729745
 11
-40.5419066109
 21
61.4398694906
  0
LINE
  5
6F4
100
AcDbEntity
  8
RACCORDO
100
AcDbLine
 62
7
  6
CONTINUOUS
 10
-40.5163306192
 20
61.7569825793
 11
-40.5504968967
 21
61.723237387
  0
LINE
  5
6F5
100
AcDbEntity
  8
RACCORDO
100
AcDbLine
 62
7
  6
CONTINUOUS
 10
-39.9489994127
 20
61.7551588346
 11
-39.9308230615
 21
61.7715754024
  0
LINE
  5
6F6
100
AcDbEntity
  8
RACCORDO
100
AcDbLine
 62
7
  6
CONTINUOUS
 10
16.4536707889
 20
-28.3813090786
 11
16.410338323
 21
-28.3926861576
  0
LINE
  5
6F7
100
AcDbEntity
  8
RACCORDO
100
AcDbLine
 62
7
  6
CONTINUOUS
 10
16.562570894
 20
-27.725578734
 11
16.5368336243
 21
-27.7318641222
  0
LINE
  5
6F8
100
AcDbEntity
  8
0
100
AcDbLine
 62
7
  6
CONTINUOUS
 10
4.3073653262
 20
-24.9049276715
 11
4.299739629
 21
-24.9066773032
  0
LINE
  5
6F9
100
AcDbEntity
  8
0
100
AcDbLine
 62
7
  6
CONTINUOUS
 10
4.4040953807
 20
-24.845516182
 11
4.4112194123
 21
-24.8441098626
  0
LINE
  5
6FA
100
AcDbEntity
  8
0
100
AcDbLine
 62
7
  6
CONTINUOUS
 10
-3.2812827399
 20
-12.7640228669
 11
-3.2933255311
 21
-12.7659602388
  0
LINE
  5
6FB
100
AcDbEntity
  8
0
100
AcDbLine
 62
7
  6
CONTINUOUS
 10
-3.0791860422
 20
-12.7436672294
 11
-3.1002863885
 21
-12.7469603902
  0
LINE
  5
6FC
100
AcDbEntity
  8
0
100
AcDbLine
 62
7
  6
CONTINUOUS
 10
-1.1728958697
 20
-13.6860100863
 11
-1.1591885328
 21
-13.6842930056
  0
LINE
  5
6FD
100
AcDbEntity
  8
0
100
AcDbLine
 62
7
  6
CONTINUOUS
 10
-2.7527932631
 20
-12.7737977332
 11
-2.7390860475
 21
-12.7720805515
  0
LINE
  5
6FE
100
AcDbEntity
  8
0
100
AcDbLine
 62
7
  6
CONTINUOUS
 10
-3.0772258132
 20
-12.7060897147
 11
-3.1137546965
 21
-12.7103723481
  0
LINE
  5
6FF
100
AcDbEntity
  8
0
100
AcDbLine
 62
7
  6
CONTINUOUS
 10
-3.0575941655
 20
-12.7412488605
 11
-3.0791860422
 21
-12.7436672294
  0
LINE
  5
700
100
AcDbEntity
  8
RACCORDO
100
AcDbLine
 62
7
  6
CONTINUOUS
 10
-15.5789142071
 20
-8.9514801886
 11
-15.5369882076
 21
-8.947705851
  0
LINE
  5
701
100
AcDbEntity
  8
RACCORDO
100
AcDbLine
 62
7
  6
CONTINUOUS
 10
45.2411510575
 20
11.6099437785
 11
45.2657799955
 21
11.6093600841
  0
LINE
  5
702
100
AcDbEntity
  8
RACCORDO
100
AcDbLine
 62
7
  6
CONTINUOUS
 10
45.216205332
 20
11.6115684524
 11
45.2411510575
 21
11.6099437785
  0
LINE
  5
703
100
AcDbEntity
  8
0
100
AcDbLine
 62
7
  6
CONTINUOUS
 10
-11.9700890454
 20
23.2690538884
 11
-11.9834909843
 21
23.2699323628
  0
LINE
  5
704
100
AcDbEntity
  8
0
100
AcDbLine
 62
7
  6
CONTINUOUS
 10
-12.0392368279
 20
23.5319528905
 11
-12.0616932636
 21
23.5334367305
  0
LINE
  5
705
100
AcDbEntity
  8
0
100
AcDbLine
 62
7
  6
CONTINUOUS
 10
-12.5677709857
 20
23.8256474521
 11
-12.5447238517
 21
23.8238213647
  0
LINE
  5
706
100
AcDbEntity
  8
0
100
AcDbLine
 62
7
  6
CONTINUOUS
 10
-12.5899277751
 20
23.8398629616
 11
-12.6182831291
 21
23.8426476425
  0
LINE
  5
707
100
AcDbEntity
  8
RACCORDO
100
AcDbLine
 62
7
  6
CONTINUOUS
 10
-15.3424011478
 20
27.1234553536
 11
-15.3051656542
 21
27.1197182309
  0
LINE
  5
708
100
AcDbEntity
  8
RACCORDO
100
AcDbLine
 62
7
  6
CONTINUOUS
 10
-15.7047442298
 20
26.755189264
 11
-15.6630907218
 21
26.7504121162
  0
LINE
  5
709
100
AcDbEntity
  8
RACCORDO
100
AcDbLine
 62
7
  6
CONTINUOUS
 10
-15.0364890272
 20
27.1967520387
 11
-15.0216122697
 21
27.1944696949
  0
LINE
  5
70A
100
AcDbEntity
  8
RACCORDO
100
AcDbLine
 62
7
  6
CONTINUOUS
 10
-36.0571746376
 20
62.5945317836
 11
-36.2507919675
 21
62.652469469
  0
LINE
  5
70B
100
AcDbEntity
  8
RACCORDO
100
AcDbLine
 62
7
  6
CONTINUOUS
 10
-36.1109132851
 20
62.5998289917
 11
-36.0021509107
 21
62.5668594716
  0
LINE
  5
70C
100
AcDbEntity
  8
RACCORDO
100
AcDbLine
 62
7
  6
CONTINUOUS
 10
-40.0183177557
 20
61.855370117
 11
-40.0597130578
 21
61.8679357398
  0
LINE
  5
70D
100
AcDbEntity
  8
RACCORDO
100
AcDbLine
 62
7
  6
CONTINUOUS
 10
-40.177428577
 20
61.5248321619
 11
-40.2063414049
 21
61.533629343
  0
LINE
  5
70E
100
AcDbEntity
  8
RACCORDO
100
AcDbLine
 62
7
  6
CONTINUOUS
 10
-36.0021509107
 20
62.5668594716
 11
-35.8971944416
 21
62.5322391969
  0
LINE
  5
70F
100
AcDbEntity
  8
RACCORDO
100
AcDbLine
 62
7
  6
CONTINUOUS
 10
-35.8600934023
 20
62.5264118254
 11
-36.0571746376
 21
62.5945317836
  0
LINE
  5
710
100
AcDbEntity
  8
RACCORDO
100
AcDbLine
 62
7
  6
CONTINUOUS
 10
-35.8971944416
 20
62.5322391969
 11
-35.7961922861
 21
62.4962493017
  0
LINE
  5
711
100
AcDbEntity
  8
RACCORDO
100
AcDbLine
 62
7
  6
CONTINUOUS
 10
44.9943163543
 20
-60.1876398765
 11
44.9964676454
 21
-60.1620563244
  0
LINE
  5
712
100
AcDbEntity
  8
RACCORDO
100
AcDbLine
 62
7
  6
CONTINUOUS
 10
45.397734772
 20
-60.1815489136
 11
45.4012523671
 21
-60.1418755551
  0
LINE
  5
713
100
AcDbEntity
  8
RACCORDO
100
AcDbLine
 62
7
  6
CONTINUOUS
 10
48.1609425589
 20
-56.6919468835
 11
48.1586687035
 21
-56.7172001506
  0
LINE
  5
714
100
AcDbEntity
  8
RACCORDO
100
AcDbLine
 62
7
  6
CONTINUOUS
 10
44.1578029935
 20
5.4922504833
 11
44.4096424411
 21
7.5458395021
  0
LINE
  5
715
100
AcDbEntity
  8
RACCORDO
100
AcDbLine
 62
7
  6
CONTINUOUS
 10
44.5687376913
 20
5.4518637833
 11
44.8200843325
 21
7.5011931747
  0
LINE
  5
716
100
AcDbEntity
  8
RACCORDO
100
AcDbLine
 62
7
  6
CONTINUOUS
 10
44.9878898686
 20
11.6790491171
 11
44.9926053261
 21
11.7164804878
  0
LINE
  5
717
100
AcDbEntity
  8
RACCORDO
100
AcDbLine
 62
7
  6
CONTINUOUS
 10
44.4096424411
 20
7.5458395021
 11
44.6863556936
 21
9.6082450128
  0
LINE
  5
718
100
AcDbEntity
  8
RACCORDO
100
AcDbLine
 62
7
  6
CONTINUOUS
 10
44.8200843325
 20
7.5011931747
 11
45.0963047983
 21
9.5597152797
  0
LINE
  5
719
100
AcDbEntity
  8
RACCORDO
100
AcDbLine
 62
7
  6
CONTINUOUS
 10
44.6863556936
 20
9.6082450128
 11
44.9878898686
 21
11.6790491171
  0
LINE
  5
71A
100
AcDbEntity
  8
RACCORDO
100
AcDbLine
 62
7
  6
CONTINUOUS
 10
45.0963047983
 20
9.5597152797
 11
45.3973990886
 21
11.6274300983
  0
LINE
  5
71B
100
AcDbEntity
  8
RACCORDO
100
AcDbLine
 62
7
  6
CONTINUOUS
 10
44.5895588599
 20
12.591638642
 11
44.5938109605
 21
12.6153406226
  0
LINE
  5
71C
100
AcDbEntity
  8
RACCORDO
100
AcDbLine
 62
7
  6
CONTINUOUS
 10
16.7472095657
 20
-28.0311778734
 11
16.7344009658
 21
-28.077401014
  0
LINE
  5
71D
100
AcDbEntity
  8
RACCORDO
100
AcDbLine
 62
7
  6
CONTINUOUS
 10
16.512650527
 20
-27.8780019701
 11
16.5237325363
 21
-27.8429297416
  0
LINE
  5
71E
100
AcDbEntity
  8
RACCORDO
100
AcDbLine
 62
7
  6
CONTINUOUS
 10
16.6119420928
 20
-27.6987717463
 11
16.6093223098
 21
-27.7068926785
  0
LINE
  5
71F
100
AcDbEntity
  8
RACCORDO
100
AcDbLine
 62
7
  6
CONTINUOUS
 10
15.9222910886
 20
-28.0795120721
 11
15.9333954228
 21
-28.0453728903
  0
LINE
  5
720
100
AcDbEntity
  8
0
100
AcDbLine
 62
7
  6
CONTINUOUS
 10
4.4827036034
 20
-24.7462054672
 11
4.4764411539
 21
-24.7621337312
  0
LINE
  5
721
100
AcDbEntity
  8
0
100
AcDbLine
 62
7
  6
CONTINUOUS
 10
4.2135372463
 20
-24.3913773261
 11
4.2081929818
 21
-24.4048127223
  0
LINE
  5
722
100
AcDbEntity
  8
0
100
AcDbLine
 62
7
  6
CONTINUOUS
 10
4.1013807788
 20
-24.4672056955
 11
4.1067913148
 21
-24.4538049254
  0
LINE
  5
723
100
AcDbEntity
  8
0
100
AcDbLine
 62
7
  6
CONTINUOUS
 10
-0.9616843912
 20
-14.7079098346
 11
-0.950140985
 21
-14.6811118467
  0
LINE
  5
724
100
AcDbEntity
  8
0
100
AcDbLine
 62
7
  6
CONTINUOUS
 10
-0.9537480186
 20
-14.6609275675
 11
-0.943817707
 21
-14.6400652084
  0
LINE
  5
725
100
AcDbEntity
  8
0
100
AcDbLine
 62
7
  6
CONTINUOUS
 10
-1.1428761443
 20
-13.8771445329
 11
-1.1369366398
 21
-13.8650976922
  0
LINE
  5
726
100
AcDbEntity
  8
RACCORDO
100
AcDbLine
 62
7
  6
CONTINUOUS
 10
-14.9131672686
 20
-10.1082292237
 11
-14.8954742852
 21
-10.0753009691
  0
LINE
  5
727
100
AcDbEntity
  8
RACCORDO
100
AcDbLine
 62
7
  6
CONTINUOUS
 10
-14.8954742852
 20
-10.0753009691
 11
-14.8763599224
 21
-10.0431433069
  0
LINE
  5
728
100
AcDbEntity
  8
0
100
AcDbLine
 62
7
  6
CONTINUOUS
 10
-11.9369620349
 20
21.0087719268
 11
-11.9163646549
 21
21.039589595
  0
LINE
  5
729
100
AcDbEntity
  8
0
100
AcDbLine
 62
7
  6
CONTINUOUS
 10
-11.9571988841
 20
21.0438998911
 11
-11.9450270616
 21
21.0619728078
  0
LINE
  5
72A
100
AcDbEntity
  8
RACCORDO
100
AcDbLine
 62
7
  6
CONTINUOUS
 10
-15.8279339637
 20
27.2905052431
 11
-15.8002654156
 21
27.3277812663
  0
LINE
  5
72B
100
AcDbEntity
  8
RACCORDO
100
AcDbLine
 62
7
  6
CONTINUOUS
 10
-15.1898048867
 20
27.086498275
 11
-15.1721840171
 21
27.1097005014
  0
LINE
  5
72C
100
AcDbEntity
  8
RACCORDO
100
AcDbLine
 62
7
  6
CONTINUOUS
 10
-40.4802812338
 20
61.7877844941
 11
-40.5163306192
 21
61.7569825793
  0
LINE
  5
72D
100
AcDbEntity
  8
RACCORDO
100
AcDbLine
 62
7
  6
CONTINUOUS
 10
-40.4992336898
 20
61.4789386791
 11
-40.5211060521
 21
61.4604729745
  0
LINE
  5
72E
100
AcDbEntity
  8
RACCORDO
100
AcDbLine
 62
7
  6
CONTINUOUS
 10
-39.9308230615
 20
61.7715754024
 11
-39.912262569
 21
61.7863236424
  0
LINE
  5
72F
100
AcDbEntity
  8
0
100
AcDbLine
 62
7
  6
CONTINUOUS
 10
4.0280532801
 20
-24.5324862342
 11
4.0402672559
 21
-24.5291660972
  0
LINE
  5
730
100
AcDbEntity
  8
0
100
AcDbLine
 62
7
  6
CONTINUOUS
 10
4.4112194123
 20
-24.8441098626
 11
4.4182970475
 21
-24.8422767588
  0
LINE
  5
731
100
AcDbEntity
  8
0
100
AcDbLine
 62
7
  6
CONTINUOUS
 10
-3.1002863885
 20
-12.7469603902
 11
-3.1208889473
 21
-12.7511434991
  0
LINE
  5
732
100
AcDbEntity
  8
0
100
AcDbLine
 62
7
  6
CONTINUOUS
 10
-3.1137546965
 20
-12.7103723481
 11
-3.1497183832
 21
-12.716544948
  0
LINE
  5
733
100
AcDbEntity
  8
RACCORDO
100
AcDbLine
 62
7
  6
CONTINUOUS
 10
-15.5369882076
 20
-8.947705851
 11
-15.4955690476
 21
-8.9418212023
  0
LINE
  5
734
100
AcDbEntity
  8
RACCORDO
100
AcDbLine
 62
7
  6
CONTINUOUS
 10
45.2899167981
 20
11.6098215249
 11
45.313389621
 21
11.6113248156
  0
LINE
  5
735
100
AcDbEntity
  8
RACCORDO
100
AcDbLine
 62
7
  6
CONTINUOUS
 10
16.5142974877
 20
8.696076044
 11
16.5058622748
 21
8.6957268899
  0
LINE
  5
736
100
AcDbEntity
  8
RACCORDO
100
AcDbLine
 62
7
  6
CONTINUOUS
 10
45.2657799955
 20
11.6093600841
 11
45.2899167981
 21
11.6098215249
  0
LINE
  5
737
100
AcDbEntity
  8
0
100
AcDbLine
 62
7
  6
CONTINUOUS
 10
-12.6182831291
 20
23.8426476425
 11
-12.6473669436
 21
23.8430026399
  0
LINE
  5
738
100
AcDbEntity
  8
RACCORDO
100
AcDbLine
 62
7
  6
CONTINUOUS
 10
-15.621047111
 20
26.7475690114
 11
-15.5789124389
 21
26.7466801715
  0
LINE
  5
739
100
AcDbEntity
  8
RACCORDO
100
AcDbLine
 62
7
  6
CONTINUOUS
 10
-15.6630907218
 20
26.7504121162
 11
-15.621047111
 21
26.7475690114
  0
LINE
  5
73A
100
AcDbEntity
  8
RACCORDO
100
AcDbLine
 62
7
  6
CONTINUOUS
 10
-15.0479187008
 20
27.1975766514
 11
-15.0364890272
 21
27.1967520387
  0
LINE
  5
73B
100
AcDbEntity
  8
RACCORDO
100
AcDbLine
 62
7
  6
CONTINUOUS
 10
-15.3762471659
 20
27.5145842012
 11
-15.3234002524
 21
27.5101095302
  0
LINE
  5
73C
100
AcDbEntity
  8
RACCORDO
100
AcDbLine
 62
7
  6
CONTINUOUS
 10
-40.2063414049
 20
61.533629343
 11
-40.2352585663
 21
61.5401935436
  0
LINE
  5
73D
100
AcDbEntity
  8
RACCORDO
100
AcDbLine
 62
7
  6
CONTINUOUS
 10
-40.0597130578
 20
61.8679357398
 11
-40.1007820648
 21
61.8773758899
  0
LINE
  5
73E
100
AcDbEntity
  8
RACCORDO
100
AcDbLine
 62
7
  6
CONTINUOUS
 10
-36.3416060674
 20
62.65962437
 11
-36.2237935782
 21
62.6308747386
  0
LINE
  5
73F
100
AcDbEntity
  8
RACCORDO
100
AcDbLine
 62
7
  6
CONTINUOUS
 10
-36.2507919675
 20
62.652469469
 11
-36.4405668954
 21
62.7004352101
  0
LINE
  5
740
100
AcDbEntity
  8
RACCORDO
100
AcDbLine
 62
7
  6
CONTINUOUS
 10
-36.2237935782
 20
62.6308747386
 11
-36.1109132851
 21
62.5998289917
  0
LINE
  5
741
100
AcDbEntity
  8
RACCORDO
100
AcDbLine
 62
7
  6
CONTINUOUS
 10
48.1586687035
 20
-56.7172001506
 11
48.1575011715
 21
-56.7257849988
  0
LINE
  5
742
100
AcDbEntity
  8
RACCORDO
100
AcDbLine
 62
7
  6
CONTINUOUS
 10
45.3918648155
 20
-60.2191752525
 11
45.397734772
 21
-60.1815489136
  0
LINE
  5
743
100
AcDbEntity
  8
RACCORDO
100
AcDbLine
 62
7
  6
CONTINUOUS
 10
44.9904757671
 20
-60.21166315
 11
44.9943163543
 21
-60.1876398765
  0
LINE
  5
744
100
AcDbEntity
  8
RACCORDO
100
AcDbLine
 62
7
  6
CONTINUOUS
 10
48.1405019363
 20
-56.8319871549
 11
48.1575127777
 21
-56.7257938209
  0
LINE
  5
745
100
AcDbEntity
  8
RACCORDO
100
AcDbLine
 62
7
  6
CONTINUOUS
 10
48.161742423
 20
-56.6649514119
 11
48.1446114926
 21
-56.7716567415
  0
LINE
  5
746
100
AcDbEntity
  8
RACCORDO
100
AcDbLine
 62
7
  6
CONTINUOUS
 10
44.5938109605
 20
12.6153406226
 11
44.5996827948
 21
12.6394569404
  0
LINE
  5
747
100
AcDbEntity
  8
RACCORDO
100
AcDbLine
 62
7
  6
CONTINUOUS
 10
44.5996827948
 20
12.6394569404
 11
44.6071278221
 21
12.6637964469
  0
LINE
  5
748
100
AcDbEntity
  8
RACCORDO
100
AcDbLine
 62
7
  6
CONTINUOUS
 10
16.7344009658
 20
-28.077401014
 11
16.7186784568
 21
-28.1211381564
  0
LINE
  5
749
100
AcDbEntity
  8
RACCORDO
100
AcDbLine
 62
7
  6
CONTINUOUS
 10
15.9333954228
 20
-28.0453728903
 11
15.9462643757
 21
-28.0112512679
  0
LINE
  5
74A
100
AcDbEntity
  8
RACCORDO
100
AcDbLine
 62
7
  6
CONTINUOUS
 10
16.6093223098
 20
-27.7068926785
 11
16.607197813
 21
-27.7123446923
  0
LINE
  5
74B
100
AcDbEntity
  8
0
100
AcDbLine
 62
7
  6
CONTINUOUS
 10
4.4764411539
 20
-24.7621337312
 11
4.4696899074
 21
-24.7767825299
  0
LINE
  5
74C
100
AcDbEntity
  8
0
100
AcDbLine
 62
7
  6
CONTINUOUS
 10
4.2081929818
 20
-24.4048127223
 11
4.202031613
 21
-24.4173373391
  0
LINE
  5
74D
100
AcDbEntity
  8
0
100
AcDbLine
 62
7
  6
CONTINUOUS
 10
-0.9537783445
 20
-14.0766174833
 11
-0.9438363078
 21
-14.0564257485
  0
LINE
  5
74E
100
AcDbEntity
  8
0
100
AcDbLine
 62
7
  6
CONTINUOUS
 10
4.0951718109
 20
-24.4796336591
 11
4.1013807788
 21
-24.4672056955
  0
LINE
  5
74F
100
AcDbEntity
  8
0
100
AcDbLine
 62
7
  6
CONTINUOUS
 10
-0.9758362587
 20
-14.7341280206
 11
-0.9616843912
 21
-14.7079098346
  0
LINE
  5
750
100
AcDbEntity
  8
RACCORDO
100
AcDbLine
 62
7
  6
CONTINUOUS
 10
-14.8763599224
 20
-10.0431433069
 11
-14.8559312149
 21
-10.0119363099
  0
LINE
  5
751
100
AcDbEntity
  8
0
100
AcDbLine
 62
7
  6
CONTINUOUS
 10
-11.9700890453
 20
21.0264097089
 11
-11.9571988841
 21
21.0438998911
  0
LINE
  5
752
100
AcDbEntity
  8
0
100
AcDbLine
 62
7
  6
CONTINUOUS
 10
-11.9589747985
 20
20.9792853883
 11
-11.9369620349
 21
21.0087719268
  0
LINE
  5
753
100
AcDbEntity
  8
0
100
AcDbLine
 62
7
  6
CONTINUOUS
 10
-11.8329855405
 20
23.1483865377
 11
-11.8246454242
 21
23.1593998055
  0
LINE
  5
754
100
AcDbEntity
  8
0
100
AcDbLine
 62
7
  6
CONTINUOUS
 10
-11.83298502
 20
21.3241384394
 11
-11.8246449305
 21
21.3351518653
  0
LINE
  5
755
100
AcDbEntity
  8
0
100
AcDbLine
 62
7
  6
CONTINUOUS
 10
-11.9834909841
 20
21.0097825153
 11
-11.9700890453
 21
21.0264097089
  0
LINE
  5
756
100
AcDbEntity
  8
0
100
AcDbLine
 62
7
  6
CONTINUOUS
 10
-12.0887663436
 20
20.8615679466
 11
-12.096466178
 21
20.8521084075
  0
LINE
  5
757
100
AcDbEntity
  8
RACCORDO
100
AcDbLine
 62
7
  6
CONTINUOUS
 10
-15.8002654156
 20
27.3277812663
 11
-15.7703058867
 21
27.3618083849
  0
LINE
  5
758
100
AcDbEntity
  8
RACCORDO
100
AcDbLine
 62
7
  6
CONTINUOUS
 10
-40.4515756096
 20
61.809271014
 11
-40.4802812338
 21
61.7877844941
  0
LINE
  5
759
100
AcDbEntity
  8
RACCORDO
100
AcDbLine
 62
7
  6
CONTINUOUS
 10
-40.4762819047
 20
61.4952427921
 11
-40.4992336898
 21
61.4789386791
  0
LINE
  5
75A
100
AcDbEntity
  8
RACCORDO
100
AcDbLine
 62
7
  6
CONTINUOUS
 10
-40.4515478458
 20
61.8092919166
 11
-38.8434377889
 21
62.9431926354
  0
LINE
  5
75B
100
AcDbEntity
  8
RACCORDO
100
AcDbLine
 62
7
  6
CONTINUOUS
 10
-39.893465049
 20
61.7992866469
 11
-38.3183859731
 21
62.9098967255
  0
LINE
  5
75C
100
AcDbEntity
  8
RACCORDO
100
AcDbLine
 62
7
  6
CONTINUOUS
 10
-39.912262569
 20
61.7863236424
 11
-39.8934650492
 21
61.799286647
  0
LINE
  5
75D
100
AcDbEntity
  8
0
100
AcDbLine
 62
7
  6
CONTINUOUS
 10
-1.1870868723
 20
-13.6896852552
 11
-1.1728958697
 21
-13.6860100863
  0
LINE
  5
75E
100
AcDbEntity
  8
0
100
AcDbLine
 62
7
  6
CONTINUOUS
 10
-2.7669840731
 20
-12.7774729396
 11
-2.7527932631
 21
-12.7737977332
  0
LINE
  5
75F
100
AcDbEntity
  8
0
100
AcDbLine
 62
7
  6
CONTINUOUS
 10
-3.1208889473
 20
-12.7511434991
 11
-3.1409999756
 21
-12.7562013999
  0
LINE
  5
760
100
AcDbEntity
  8
0
100
AcDbLine
 62
7
  6
CONTINUOUS
 10
-3.1497183832
 20
-12.716544948
 11
-3.1849971012
 21
-12.7246073732
  0
LINE
  5
761
100
AcDbEntity
  8
RACCORDO
100
AcDbLine
 62
7
  6
CONTINUOUS
 10
-15.4955690476
 20
-8.9418212023
 11
-15.4549513235
 21
-8.9338680974
  0
LINE
  5
762
100
AcDbEntity
  8
RACCORDO
100
AcDbLine
 62
7
  6
CONTINUOUS
 10
45.3360313475
 20
11.6138592534
 11
45.3576807777
 21
11.6174067942
  0
LINE
  5
763
100
AcDbEntity
  8
RACCORDO
100
AcDbLine
 62
7
  6
CONTINUOUS
 10
16.5259099251
 20
8.697916846
 11
16.5142974877
 21
8.696076044
  0
LINE
  5
764
100
AcDbEntity
  8
RACCORDO
100
AcDbLine
 62
7
  6
CONTINUOUS
 10
45.313389621
 20
11.6113248156
 11
45.3360313475
 21
11.6138592534
  0
LINE
  5
765
100
AcDbEntity
  8
0
100
AcDbLine
 62
7
  6
CONTINUOUS
 10
-11.9834909843
 20
23.2699323628
 11
-11.997414697
 21
23.269321713
  0
LINE
  5
766
100
AcDbEntity
  8
0
100
AcDbLine
 62
7
  6
CONTINUOUS
 10
-12.0616932636
 20
23.5334367305
 11
-12.0850090108
 21
23.5324745133
  0
LINE
  5
767
100
AcDbEntity
  8
RACCORDO
100
AcDbLine
 62
7
  6
CONTINUOUS
 10
-15.5789124389
 20
26.7466801715
 11
-15.5369863949
 21
26.7477519186
  0
LINE
  5
768
100
AcDbEntity
  8
0
100
AcDbLine
 62
7
  6
CONTINUOUS
 10
-12.5917009366
 20
23.8250404343
 11
-12.5677709857
 21
23.8256474521
  0
LINE
  5
769
100
AcDbEntity
  8
RACCORDO
100
AcDbLine
 62
7
  6
CONTINUOUS
 10
-15.0555145233
 20
27.1974733744
 11
-15.0479187008
 21
27.1975766514
  0
LINE
  5
76A
100
AcDbEntity
  8
0
100
AcDbLine
 62
7
  6
CONTINUOUS
 10
-12.7886295627
 20
23.806037582
 11
-12.775681184
 21
23.8060632107
  0
LINE
  5
76B
100
AcDbEntity
  8
RACCORDO
100
AcDbLine
 62
7
  6
CONTINUOUS
 10
-15.4281262395
 20
27.5146149289
 11
-15.3762471659
 21
27.5145842012
  0
LINE
  5
76C
100
AcDbEntity
  8
RACCORDO
100
AcDbLine
 62
7
  6
CONTINUOUS
 10
-15.3051656542
 20
27.1197182309
 11
-15.2685050474
 21
27.1192682092
  0
LINE
  5
76D
100
AcDbEntity
  8
RACCORDO
100
AcDbLine
 62
7
  6
CONTINUOUS
 10
-40.1007820648
 20
61.8773758899
 11
-40.1414687169
 21
61.883675759
  0
LINE
  5
76E
100
AcDbEntity
  8
RACCORDO
100
AcDbLine
 62
7
  6
CONTINUOUS
 10
-36.5943810338
 20
62.7089008404
 11
-36.4654107151
 21
62.6858651975
  0
LINE
  5
76F
100
AcDbEntity
  8
RACCORDO
100
AcDbLine
 62
7
  6
CONTINUOUS
 10
-36.4405668954
 20
62.7004352101
 11
-36.6261464827
 21
62.7386889923
  0
LINE
  5
770
100
AcDbEntity
  8
RACCORDO
100
AcDbLine
 62
7
  6
CONTINUOUS
 10
-36.4654107151
 20
62.6858651975
 11
-36.3416060674
 21
62.65962437
  0
LINE
  5
771
100
AcDbEntity
  8
RACCORDO
100
AcDbLine
 62
7
  6
CONTINUOUS
 10
48.1446114926
 20
-56.7716567415
 11
48.1243340018
 21
-56.881466737
  0
LINE
  5
772
100
AcDbEntity
  8
RACCORDO
100
AcDbLine
 62
7
  6
CONTINUOUS
 10
48.1012138601
 20
-57.0367542927
 11
48.1405019363
 21
-56.8319871549
  0
LINE
  5
773
100
AcDbEntity
  8
RACCORDO
100
AcDbLine
 62
7
  6
CONTINUOUS
 10
48.1243340018
 20
-56.881466737
 11
48.1005882981
 21
-56.9943167184
  0
LINE
  5
774
100
AcDbEntity
  8
RACCORDO
100
AcDbLine
 62
7
  6
CONTINUOUS
 10
45.3836242072
 20
-60.2546476714
 11
45.3918648155
 21
-60.2191752525
  0
LINE
  5
775
100
AcDbEntity
  8
RACCORDO
100
AcDbLine
 62
7
  6
CONTINUOUS
 10
44.9849256278
 20
-60.2340998252
 11
44.9904757671
 21
-60.21166315
  0
LINE
  5
776
100
AcDbEntity
  8
RACCORDO
100
AcDbLine
 62
7
  6
CONTINUOUS
 10
44.6071278221
 20
12.6637964469
 11
44.6160870324
 21
12.6881662249
  0
LINE
  5
777
100
AcDbEntity
  8
RACCORDO
100
AcDbLine
 62
7
  6
CONTINUOUS
 10
16.5237325363
 20
-27.8429297416
 11
16.5379237881
 21
-27.8094994606
  0
LINE
  5
778
100
AcDbEntity
  8
RACCORDO
100
AcDbLine
 62
7
  6
CONTINUOUS
 10
15.9462643757
 20
-28.0112512679
 11
15.9608258853
 21
-27.9773382757
  0
LINE
  5
779
100
AcDbEntity
  8
RACCORDO
100
AcDbLine
 62
7
  6
CONTINUOUS
 10
16.7186784568
 20
-28.1211381564
 11
16.7001658808
 21
-28.1624390066
  0
LINE
  5
77A
100
AcDbEntity
  8
RACCORDO
100
AcDbLine
 62
7
  6
CONTINUOUS
 10
16.607197813
 20
-27.7123446923
 11
16.6058970391
 21
-27.7151551093
  0
LINE
  5
77B
100
AcDbEntity
  8
RACCORDO
100
AcDbLine
 62
7
  6
CONTINUOUS
 10
15.9608258853
 20
-27.9773382757
 11
15.9769984114
 21
-27.9438238158
  0
LINE
  5
77C
100
AcDbEntity
  8
0
100
AcDbLine
 62
7
  6
CONTINUOUS
 10
4.4696899074
 20
-24.7767825299
 11
4.4626113057
 21
-24.7903500349
  0
LINE
  5
77D
100
AcDbEntity
  8
0
100
AcDbLine
 62
7
  6
CONTINUOUS
 10
-1.0746837189
 20
-14.8312409192
 11
-1.0811808521
 21
-14.8424406172
  0
LINE
  5
77E
100
AcDbEntity
  8
0
100
AcDbLine
 62
7
  6
CONTINUOUS
 10
-0.9662235407
 20
-14.6813380523
 11
-0.9537480186
 21
-14.6609275675
  0
LINE
  5
77F
100
AcDbEntity
  8
0
100
AcDbLine
 62
7
  6
CONTINUOUS
 10
-0.9662684108
 20
-14.0963303293
 11
-0.9537783445
 21
-14.0766174833
  0
LINE
  5
780
100
AcDbEntity
  8
0
100
AcDbLine
 62
7
  6
CONTINUOUS
 10
-1.1503661715
 20
-13.8888986533
 11
-1.1428761443
 21
-13.8771445329
  0
LINE
  5
781
100
AcDbEntity
  8
RACCORDO
100
AcDbLine
 62
7
  6
CONTINUOUS
 10
-14.8559312149
 20
-10.0119363099
 11
-14.8343025573
 21
-9.9818547276
  0
LINE
  5
782
100
AcDbEntity
  8
0
100
AcDbLine
 62
7
  6
CONTINUOUS
 10
-11.9823413491
 20
20.9512379245
 11
-11.9589747985
 21
20.9792853883
  0
LINE
  5
783
100
AcDbEntity
  8
0
100
AcDbLine
 62
7
  6
CONTINUOUS
 10
-11.9974146969
 20
20.9940313059
 11
-11.9834909841
 21
21.0097825153
  0
LINE
  5
784
100
AcDbEntity
  8
RACCORDO
100
AcDbLine
 62
7
  6
CONTINUOUS
 10
-15.1721840171
 20
27.1097005014
 11
-15.1531567213
 21
27.1308969256
  0
LINE
  5
785
100
AcDbEntity
  8
RACCORDO
100
AcDbLine
 62
7
  6
CONTINUOUS
 10
-40.4365796947
 20
61.8193902381
 11
-40.4513963821
 21
61.809398753
  0
LINE
  5
786
100
AcDbEntity
  8
RACCORDO
100
AcDbLine
 62
7
  6
CONTINUOUS
 10
-15.4549513235
 20
-8.9338680974
 11
-15.4154239313
 21
-8.9239031032
  0
LINE
  5
787
100
AcDbEntity
  8
RACCORDO
100
AcDbLine
 62
7
  6
CONTINUOUS
 10
16.5406159105
 20
8.7012360315
 11
16.5259099251
 21
8.697916846
  0
LINE
  5
788
100
AcDbEntity
  8
RACCORDO
100
AcDbLine
 62
7
  6
CONTINUOUS
 10
45.3576807777
 20
11.6174067942
 11
45.3781837767
 21
11.6219421808
  0
LINE
  5
789
100
AcDbEntity
  8
0
100
AcDbLine
 62
7
  6
CONTINUOUS
 10
-12.6163846291
 20
23.8220051505
 11
-12.5917009366
 21
23.8250404343
  0
LINE
  5
78A
100
AcDbEntity
  8
RACCORDO
100
AcDbLine
 62
7
  6
CONTINUOUS
 10
-15.0596543014
 20
27.1970599049
 11
-15.0555145233
 21
27.1974733744
  0
LINE
  5
78B
100
AcDbEntity
  8
RACCORDO
100
AcDbLine
 62
7
  6
CONTINUOUS
 10
-15.4783288761
 20
27.5102033017
 11
-15.4281262395
 21
27.5146149289
  0
LINE
  5
78C
100
AcDbEntity
  8
RACCORDO
100
AcDbLine
 62
7
  6
CONTINUOUS
 10
-15.2685050474
 20
27.1192682092
 11
-15.2326834957
 21
27.1221085312
  0
LINE
  5
78D
100
AcDbEntity
  8
RACCORDO
100
AcDbLine
 62
7
  6
CONTINUOUS
 10
-15.5369863949
 20
26.7477519186
 11
-15.4955671843
 21
26.7507766296
  0
LINE
  5
78E
100
AcDbEntity
  8
0
100
AcDbLine
 62
7
  6
CONTINUOUS
 10
-12.6473669436
 20
23.8430026399
 11
-12.6770497535
 21
23.8408598322
  0
LINE
  5
78F
100
AcDbEntity
  8
RACCORDO
100
AcDbLine
 62
7
  6
CONTINUOUS
 10
-36.8610875918
 20
62.7414087774
 11
-36.7264935708
 21
62.7276083671
  0
LINE
  5
790
100
AcDbEntity
  8
RACCORDO
100
AcDbLine
 62
7
  6
CONTINUOUS
 10
-36.8072150094
 20
62.7675320674
 11
-36.9834465652
 21
62.7873039385
  0
LINE
  5
791
100
AcDbEntity
  8
RACCORDO
100
AcDbLine
 62
7
  6
CONTINUOUS
 10
-36.7264935708
 20
62.7276083671
 11
-36.5943810338
 21
62.7089008404
  0
LINE
  5
792
100
AcDbEntity
  8
RACCORDO
100
AcDbLine
 62
7
  6
CONTINUOUS
 10
-40.2352585663
 20
61.5401935436
 11
-40.2639283903
 21
61.5444523962
  0
LINE
  5
793
100
AcDbEntity
  8
RACCORDO
100
AcDbLine
 62
7
  6
CONTINUOUS
 10
-36.6261464827
 20
62.7386889923
 11
-36.8072150094
 21
62.7675320674
  0
LINE
  5
794
100
AcDbEntity
  8
RACCORDO
100
AcDbLine
 62
7
  6
CONTINUOUS
 10
48.0548417506
 20
-57.2334571395
 11
48.1012138601
 21
-57.0367542927
  0
LINE
  5
795
100
AcDbEntity
  8
RACCORDO
100
AcDbLine
 62
7
  6
CONTINUOUS
 10
48.1005882981
 20
-56.9943167184
 11
48.0729603211
 21
-57.1106974297
  0
LINE
  5
796
100
AcDbEntity
  8
RACCORDO
100
AcDbLine
 62
7
  6
CONTINUOUS
 10
48.0729603211
 20
-57.1106974297
 11
48.0411714735
 21
-57.229954808
  0
LINE
  5
797
100
AcDbEntity
  8
RACCORDO
100
AcDbLine
 62
7
  6
CONTINUOUS
 10
48.0017549989
 20
-57.4218767448
 11
48.0548417506
 21
-57.2334571395
  0
LINE
  5
798
100
AcDbEntity
  8
RACCORDO
100
AcDbLine
 62
7
  6
CONTINUOUS
 10
44.6160870324
 20
12.6881662249
 11
44.6264894141
 21
12.7123731173
  0
LINE
  5
799
100
AcDbEntity
  8
RACCORDO
100
AcDbLine
 62
7
  6
CONTINUOUS
 10
44.6264894141
 20
12.7123731173
 11
44.638252517
 21
12.7362252578
  0
LINE
  5
79A
100
AcDbEntity
  8
RACCORDO
100
AcDbLine
 62
7
  6
CONTINUOUS
 10
15.9769984114
 20
-27.9438238158
 11
15.994691393
 21
-27.910895559
  0
LINE
  5
79B
100
AcDbEntity
  8
RACCORDO
100
AcDbLine
 62
7
  6
CONTINUOUS
 10
16.5379237881
 20
-27.8094994606
 11
16.5551220235
 21
-27.7779520184
  0
LINE
  5
79C
100
AcDbEntity
  8
RACCORDO
100
AcDbLine
 62
7
  6
CONTINUOUS
 10
16.7001658808
 20
-28.1624390066
 11
16.6792193566
 21
-28.2005726516
  0
LINE
  5
79D
100
AcDbEntity
  8
0
100
AcDbLine
 62
7
  6
CONTINUOUS
 10
4.4626113057
 20
-24.7903500349
 11
4.4552203196
 21
-24.8028534294
  0
LINE
  5
79E
100
AcDbEntity
  8
0
100
AcDbLine
 62
7
  6
CONTINUOUS
 10
4.202031613
 20
-24.4173373391
 11
4.1950433251
 21
-24.4289189942
  0
LINE
  5
79F
100
AcDbEntity
  8
0
100
AcDbLine
 62
7
  6
CONTINUOUS
 10
4.0881555267
 20
-24.4910701567
 11
4.0951718109
 21
-24.4796336591
  0
LINE
  5
7A0
100
AcDbEntity
  8
0
100
AcDbLine
 62
7
  6
CONTINUOUS
 10
-0.9925988811
 20
-14.7596064397
 11
-0.9758362587
 21
-14.7341280206
  0
LINE
  5
7A1
100
AcDbEntity
  8
RACCORDO
100
AcDbLine
 62
7
  6
CONTINUOUS
 10
-14.8343025573
 20
-9.9818547276
 11
-14.8115950633
 21
-9.9530670072
  0
LINE
  5
7A2
100
AcDbEntity
  8
0
100
AcDbLine
 62
7
  6
CONTINUOUS
 10
-12.0070015936
 20
20.9247332656
 11
-11.9823413491
 21
20.9512379245
  0
LINE
  5
7A3
100
AcDbEntity
  8
0
100
AcDbLine
 62
7
  6
CONTINUOUS
 10
-12.0118501873
 20
20.9791430852
 11
-11.9974146969
 21
20.9940313059
  0
LINE
  5
7A4
100
AcDbEntity
  8
0
100
AcDbLine
 62
7
  6
CONTINUOUS
 10
-11.8432631844
 20
23.1379335322
 11
-11.8329855405
 21
23.1483865377
  0
LINE
  5
7A5
100
AcDbEntity
  8
0
100
AcDbLine
 62
7
  6
CONTINUOUS
 10
-11.8432627276
 20
21.3136852449
 11
-11.83298502
 21
21.3241384394
  0
LINE
  5
7A6
100
AcDbEntity
  8
0
100
AcDbLine
 62
7
  6
CONTINUOUS
 10
-12.0327862106
 20
20.900002518
 11
-12.0070015936
 21
20.9247332656
  0
LINE
  5
7A7
100
AcDbEntity
  8
RACCORDO
100
AcDbLine
 62
7
  6
CONTINUOUS
 10
-15.7703058867
 20
27.3618083849
 11
-15.7380560136
 21
27.3925862674
  0
LINE
  5
7A8
100
AcDbEntity
  8
RACCORDO
100
AcDbLine
 62
7
  6
CONTINUOUS
 10
-15.1531567213
 20
27.1308969256
 11
-15.1327956401
 21
27.1500537522
  0
LINE
  5
7A9
100
AcDbEntity
  8
RACCORDO
100
AcDbLine
 62
7
  6
CONTINUOUS
 10
-40.4522595973
 20
61.509408655
 11
-40.4762819047
 21
61.4952427921
  0
LINE
  5
7AA
100
AcDbEntity
  8
RACCORDO
100
AcDbLine
 62
7
  6
CONTINUOUS
 10
-40.403894563
 20
61.8384413831
 11
-40.4365796947
 21
61.8193902381
  0
LINE
  5
7AB
100
AcDbEntity
  8
RACCORDO
100
AcDbLine
 62
7
  6
CONTINUOUS
 10
16.5583094762
 20
8.7060096833
 11
16.5406159105
 21
8.7012360315
  0
LINE
  5
7AC
100
AcDbEntity
  8
0
100
AcDbLine
 62
7
  6
CONTINUOUS
 10
-12.8008791351
 20
23.8039780245
 11
-12.7886295627
 21
23.806037582
  0
LINE
  5
7AD
100
AcDbEntity
  8
0
100
AcDbLine
 62
7
  6
CONTINUOUS
 10
-12.6770497535
 20
23.8408598322
 11
-12.7071663967
 21
23.8361617484
  0
LINE
  5
7AE
100
AcDbEntity
  8
0
100
AcDbLine
 62
7
  6
CONTINUOUS
 10
-11.997414697
 20
23.269321713
 11
-12.0118501872
 21
23.2672466811
  0
LINE
  5
7AF
100
AcDbEntity
  8
0
100
AcDbLine
 62
7
  6
CONTINUOUS
 10
-12.0850090108
 20
23.5324745133
 11
-12.1090554853
 21
23.5290714652
  0
LINE
  5
7B0
100
AcDbEntity
  8
RACCORDO
100
AcDbLine
 62
7
  6
CONTINUOUS
 10
-15.4955671843
 20
26.7507766296
 11
-15.4549494076
 21
26.7557327909
  0
LINE
  5
7B1
100
AcDbEntity
  8
RACCORDO
100
AcDbLine
 62
7
  6
CONTINUOUS
 10
-36.9989023573
 20
62.7501558199
 11
-36.8610875918
 21
62.7414087774
  0
LINE
  5
7B2
100
AcDbEntity
  8
RACCORDO
100
AcDbLine
 62
7
  6
CONTINUOUS
 10
-36.9834465652
 20
62.7873039385
 11
-37.1544831978
 21
62.7983908115
  0
LINE
  5
7B3
100
AcDbEntity
  8
RACCORDO
100
AcDbLine
 62
7
  6
CONTINUOUS
 10
-40.2639283903
 20
61.5444523962
 11
-40.2923708569
 21
61.546387229
  0
LINE
  5
7B4
100
AcDbEntity
  8
RACCORDO
100
AcDbLine
 62
7
  6
CONTINUOUS
 10
-40.1414687169
 20
61.883675759
 11
-40.1816796985
 21
61.8868000871
  0
LINE
  5
7B5
100
AcDbEntity
  8
RACCORDO
100
AcDbLine
 62
7
  6
CONTINUOUS
 10
48.0411714735
 20
-57.229954808
 11
48.00516083
 21
-57.3503011125
  0
LINE
  5
7B6
100
AcDbEntity
  8
RACCORDO
100
AcDbLine
 62
7
  6
CONTINUOUS
 10
45.3730647747
 20
-60.2878428274
 11
45.3836242072
 21
-60.2546476714
  0
LINE
  5
7B7
100
AcDbEntity
  8
RACCORDO
100
AcDbLine
 62
7
  6
CONTINUOUS
 10
47.9423550087
 20
-57.6018274934
 11
48.0017549989
 21
-57.4218767448
  0
LINE
  5
7B8
100
AcDbEntity
  8
RACCORDO
100
AcDbLine
 62
7
  6
CONTINUOUS
 10
48.00516083
 20
-57.3503011125
 11
47.964465737
 21
-57.4720554224
  0
LINE
  5
7B9
100
AcDbEntity
  8
RACCORDO
100
AcDbLine
 62
7
  6
CONTINUOUS
 10
44.9776853228
 20
-60.2549769027
 11
44.9849256278
 21
-60.2340998252
  0
LINE
  5
7BA
100
AcDbEntity
  8
RACCORDO
100
AcDbLine
 62
7
  6
CONTINUOUS
 10
44.638252517
 20
12.7362252578
 11
44.6512831055
 21
12.7595335921
  0
LINE
  5
7BB
100
AcDbEntity
  8
RACCORDO
100
AcDbLine
 62
7
  6
CONTINUOUS
 10
15.994691393
 20
-27.910895559
 11
16.0138057547
 21
-27.8787378933
  0
LINE
  5
7BC
100
AcDbEntity
  8
0
100
AcDbLine
 62
7
  6
CONTINUOUS
 10
4.4552203196
 20
-24.8028534294
 11
4.4475012939
 21
-24.8142759863
  0
LINE
  5
7BD
100
AcDbEntity
  8
0
100
AcDbLine
 62
7
  6
CONTINUOUS
 10
-0.9811776557
 20
-14.7011901529
 11
-0.9662235407
 21
-14.6813380523
  0
LINE
  5
7BE
100
AcDbEntity
  8
0
100
AcDbLine
 62
7
  6
CONTINUOUS
 10
-0.9812376945
 20
-14.1154555322
 11
-0.9662684108
 21
-14.0963303293
  0
LINE
  5
7BF
100
AcDbEntity
  8
0
100
AcDbLine
 62
7
  6
CONTINUOUS
 10
-1.1593802955
 20
-13.9003637677
 11
-1.1503661715
 21
-13.8888986533
  0
LINE
  5
7C0
100
AcDbEntity
  8
0
100
AcDbLine
 62
7
  6
CONTINUOUS
 10
-1.0119400432
 20
-14.7841503769
 11
-0.9925988811
 21
-14.7596064397
  0
LINE
  5
7C1
100
AcDbEntity
  8
RACCORDO
100
AcDbLine
 62
7
  6
CONTINUOUS
 10
-14.8115950633
 20
-9.9530670072
 11
-14.7879358879
 21
-9.9257343509
  0
LINE
  5
7C2
100
AcDbEntity
  8
0
100
AcDbLine
 62
7
  6
CONTINUOUS
 10
-12.0265609048
 20
20.9653591206
 11
-12.0118501873
 21
20.9791430852
  0
LINE
  5
7C3
100
AcDbEntity
  8
0
100
AcDbLine
 62
7
  6
CONTINUOUS
 10
-12.096466178
 20
20.8521084075
 11
-12.1054615461
 21
20.8443979366
  0
LINE
  5
7C4
100
AcDbEntity
  8
RACCORDO
100
AcDbLine
 62
7
  6
CONTINUOUS
 10
-15.7380560136
 20
27.3925862674
 11
-15.7003044845
 21
27.4227041946
  0
LINE
  5
7C5
100
AcDbEntity
  8
RACCORDO
100
AcDbLine
 62
7
  6
CONTINUOUS
 10
-40.4274147319
 20
61.5213124801
 11
-40.4522595973
 21
61.509408655
  0
LINE
  5
7C6
100
AcDbEntity
  8
RACCORDO
100
AcDbLine
 62
7
  6
CONTINUOUS
 10
-40.3697755929
 20
61.8544076044
 11
-40.403894563
 21
61.8384413831
  0
LINE
  5
7C7
100
AcDbEntity
  8
0
100
AcDbLine
 62
7
  6
CONTINUOUS
 10
-12.7071663967
 20
23.8361617484
 11
-12.7377371456
 21
23.8288164552
  0
LINE
  5
7C8
100
AcDbEntity
  8
0
100
AcDbLine
 62
7
  6
CONTINUOUS
 10
-12.0118501872
 20
23.2672466811
 11
-12.0265609047
 21
23.2637439714
  0
LINE
  5
7C9
100
AcDbEntity
  8
0
100
AcDbLine
 62
7
  6
CONTINUOUS
 10
-12.1090554853
 20
23.5290714652
 11
-12.1336920116
 21
23.5232510442
  0
LINE
  5
7CA
100
AcDbEntity
  8
0
100
AcDbLine
 62
7
  6
CONTINUOUS
 10
-12.641670759
 20
23.8165589097
 11
-12.6163846291
 21
23.8220051505
  0
LINE
  5
7CB
100
AcDbEntity
  8
RACCORDO
100
AcDbLine
 62
7
  6
CONTINUOUS
 10
-15.0612366426
 20
27.1967614191
 11
-15.0596543014
 21
27.1970599049
  0
LINE
  5
7CC
100
AcDbEntity
  8
RACCORDO
100
AcDbLine
 62
7
  6
CONTINUOUS
 10
-15.52679356
 20
27.5012735039
 11
-15.4783288761
 21
27.5102033017
  0
LINE
  5
7CD
100
AcDbEntity
  8
RACCORDO
100
AcDbLine
 62
7
  6
CONTINUOUS
 10
-15.2326834957
 20
27.1221085312
 11
-15.1979591216
 21
27.1282187301
  0
LINE
  5
7CE
100
AcDbEntity
  8
RACCORDO
100
AcDbLine
 62
7
  6
CONTINUOUS
 10
-15.4549494076
 20
26.7557327909
 11
-15.415421965
 21
26.7625851511
  0
LINE
  5
7CF
100
AcDbEntity
  8
RACCORDO
100
AcDbLine
 62
7
  6
CONTINUOUS
 10
-40.2923708569
 20
61.546387229
 11
-40.3205651842
 21
61.5460170063
  0
LINE
  5
7D0
100
AcDbEntity
  8
RACCORDO
100
AcDbLine
 62
7
  6
CONTINUOUS
 10
-40.1816796985
 20
61.8868000871
 11
-40.2212347245
 21
61.8867178402
  0
LINE
  5
7D1
100
AcDbEntity
  8
RACCORDO
100
AcDbLine
 62
7
  6
CONTINUOUS
 10
-37.2480338668
 20
62.8009643319
 11
-37.3160965405
 21
62.8012433284
  0
LINE
  5
7D2
100
AcDbEntity
  8
RACCORDO
100
AcDbLine
 62
7
  6
CONTINUOUS
 10
-37.1399611408
 20
62.7534639974
 11
-36.9989023573
 21
62.7501558199
  0
LINE
  5
7D3
100
AcDbEntity
  8
RACCORDO
100
AcDbLine
 62
7
  6
CONTINUOUS
 10
-37.1544831978
 20
62.7983908115
 11
-37.2479999405
 21
62.8009638824
  0
LINE
  5
7D4
100
AcDbEntity
  8
RACCORDO
100
AcDbLine
 62
7
  6
CONTINUOUS
 10
47.964465737
 20
-57.4720554224
 11
47.9189481319
 21
-57.5946869297
  0
LINE
  5
7D5
100
AcDbEntity
  8
RACCORDO
100
AcDbLine
 62
7
  6
CONTINUOUS
 10
47.8770531092
 20
-57.7731945005
 11
47.9423550087
 21
-57.6018274934
  0
LINE
  5
7D6
100
AcDbEntity
  8
RACCORDO
100
AcDbLine
 62
7
  6
CONTINUOUS
 10
47.9189481319
 20
-57.5946869297
 11
47.8693135635
 21
-57.7151697257
  0
LINE
  5
7D7
100
AcDbEntity
  8
RACCORDO
100
AcDbLine
 62
7
  6
CONTINUOUS
 10
45.3602507556
 20
-60.3186411058
 11
45.3730647747
 21
-60.2878428274
  0
LINE
  5
7D8
100
AcDbEntity
  8
RACCORDO
100
AcDbLine
 62
7
  6
CONTINUOUS
 10
44.6512831055
 20
12.7595335921
 11
44.6654778979
 21
12.7821133761
  0
LINE
  5
7D9
100
AcDbEntity
  8
RACCORDO
100
AcDbLine
 62
7
  6
CONTINUOUS
 10
16.0138057547
 20
-27.8787378933
 11
16.0342344621
 21
-27.8475308918
  0
LINE
  5
7DA
100
AcDbEntity
  8
RACCORDO
100
AcDbLine
 62
7
  6
CONTINUOUS
 10
16.6792193566
 20
-28.2005726516
 11
16.6559569712
 21
-28.2352958461
  0
LINE
  5
7DB
100
AcDbEntity
  8
RACCORDO
100
AcDbLine
 62
7
  6
CONTINUOUS
 10
16.5551220235
 20
-27.7779520184
 11
16.5752033158
 21
-27.7485147389
  0
LINE
  5
7DC
100
AcDbEntity
  8
RACCORDO
100
AcDbLine
 62
7
  6
CONTINUOUS
 10
44.6654778979
 20
12.7821133761
 11
44.6807243851
 21
12.8037856403
  0
LINE
  5
7DD
100
AcDbEntity
  8
RACCORDO
100
AcDbLine
 62
7
  6
CONTINUOUS
 10
16.0342344621
 20
-27.8475308918
 11
16.0558631207
 21
-27.817449304
  0
LINE
  5
7DE
100
AcDbEntity
  8
0
100
AcDbLine
 62
7
  6
CONTINUOUS
 10
4.4475012939
 20
-24.8142759863
 11
4.4395698295
 21
-24.8247649456
  0
LINE
  5
7DF
100
AcDbEntity
  8
0
100
AcDbLine
 62
7
  6
CONTINUOUS
 10
4.1950433251
 20
-24.4289189942
 11
4.187163094
 21
-24.4392938209
  0
LINE
  5
7E0
100
AcDbEntity
  8
0
100
AcDbLine
 62
7
  6
CONTINUOUS
 10
4.0802954268
 20
-24.5012871576
 11
4.0881555267
 21
-24.4910701567
  0
LINE
  5
7E1
100
AcDbEntity
  8
0
100
AcDbLine
 62
7
  6
CONTINUOUS
 10
-1.0811808521
 20
-14.8424406172
 11
-1.089090032
 21
-14.8520180983
  0
LINE
  5
7E2
100
AcDbEntity
  8
0
100
AcDbLine
 62
7
  6
CONTINUOUS
 10
-0.9985303176
 20
-14.7203713051
 11
-0.9811776557
 21
-14.7011901529
  0
LINE
  5
7E3
100
AcDbEntity
  8
RACCORDO
100
AcDbLine
 62
7
  6
CONTINUOUS
 10
-14.7879358879
 20
-9.9257343509
 11
-14.7634575152
 21
-9.9000098132
  0
LINE
  5
7E4
100
AcDbEntity
  8
0
100
AcDbLine
 62
7
  6
CONTINUOUS
 10
-12.0596244418
 20
20.8771652014
 11
-12.0327862106
 21
20.900002518
  0
LINE
  5
7E5
100
AcDbEntity
  8
0
100
AcDbLine
 62
7
  6
CONTINUOUS
 10
-12.0414679994
 20
20.9527598347
 11
-12.0265609048
 21
20.9653591206
  0
LINE
  5
7E6
100
AcDbEntity
  8
0
100
AcDbLine
 62
7
  6
CONTINUOUS
 10
-11.8553666953
 20
21.3039055415
 11
-11.8432627276
 21
21.3136852449
  0
LINE
  5
7E7
100
AcDbEntity
  8
0
100
AcDbLine
 62
7
  6
CONTINUOUS
 10
-11.8553669825
 20
23.1281540355
 11
-11.8432631844
 21
23.1379335322
  0
LINE
  5
7E8
100
AcDbEntity
  8
RACCORDO
100
AcDbLine
 62
7
  6
CONTINUOUS
 10
-15.1327956401
 20
27.1500537522
 11
-15.1089101623
 21
27.1687696986
  0
LINE
  5
7E9
100
AcDbEntity
  8
0
100
AcDbLine
 62
7
  6
CONTINUOUS
 10
-12.0566503211
 20
20.941264805
 11
-12.0414679994
 21
20.9527598347
  0
LINE
  5
7EA
100
AcDbEntity
  8
RACCORDO
100
AcDbLine
 62
7
  6
CONTINUOUS
 10
-15.1979591216
 20
27.1282187301
 11
-15.1645821415
 21
27.1375547772
  0
LINE
  5
7EB
100
AcDbEntity
  8
RACCORDO
100
AcDbLine
 62
7
  6
CONTINUOUS
 10
-15.415421965
 20
26.7625851511
 11
-15.3772660013
 21
26.7712849716
  0
LINE
  5
7EC
100
AcDbEntity
  8
RACCORDO
100
AcDbLine
 62
7
  6
CONTINUOUS
 10
-37.4471779891
 20
62.7979023027
 11
-37.5761831698
 21
62.7894822026
  0
LINE
  5
7ED
100
AcDbEntity
  8
RACCORDO
100
AcDbLine
 62
7
  6
CONTINUOUS
 10
-37.3561080403
 20
62.7458849093
 11
-37.2490237522
 21
62.7515181509
  0
LINE
  5
7EE
100
AcDbEntity
  8
RACCORDO
100
AcDbLine
 62
7
  6
CONTINUOUS
 10
-37.3160965405
 20
62.8012433284
 11
-37.4471779891
 21
62.7979023027
  0
LINE
  5
7EF
100
AcDbEntity
  8
RACCORDO
100
AcDbLine
 62
7
  6
CONTINUOUS
 10
-37.2490237522
 20
62.7515181509
 11
-37.1399611408
 21
62.7534639974
  0
LINE
  5
7F0
100
AcDbEntity
  8
RACCORDO
100
AcDbLine
 62
7
  6
CONTINUOUS
 10
47.8063075823
 20
-57.9358605992
 11
47.8770531092
 21
-57.7731945005
  0
LINE
  5
7F1
100
AcDbEntity
  8
RACCORDO
100
AcDbLine
 62
7
  6
CONTINUOUS
 10
47.8693135635
 20
-57.7151697257
 11
47.8158423454
 21
-57.8324589432
  0
LINE
  5
7F2
100
AcDbEntity
  8
RACCORDO
100
AcDbLine
 62
7
  6
CONTINUOUS
 10
44.9688404092
 20
-60.2740892954
 11
44.9776853228
 21
-60.2549769027
  0
LINE
  5
7F3
100
AcDbEntity
  8
RACCORDO
100
AcDbLine
 62
7
  6
CONTINUOUS
 10
44.6807243851
 20
12.8037856403
 11
44.6969017218
 21
12.8243786082
  0
LINE
  5
7F4
100
AcDbEntity
  8
RACCORDO
100
AcDbLine
 62
7
  6
CONTINUOUS
 10
16.0558631207
 20
-27.817449304
 11
16.0785706167
 21
-27.7886615777
  0
LINE
  5
7F5
100
AcDbEntity
  8
0
100
AcDbLine
 62
7
  6
CONTINUOUS
 10
4.4395698295
 20
-24.8247649456
 11
4.4314292351
 21
-24.834319743
  0
LINE
  5
7F6
100
AcDbEntity
  8
0
100
AcDbLine
 62
7
  6
CONTINUOUS
 10
-1.0339506572
 20
-14.8077315357
 11
-1.0119400432
 21
-14.7841503769
  0
LINE
  5
7F7
100
AcDbEntity
  8
0
100
AcDbLine
 62
7
  6
CONTINUOUS
 10
-0.9985955499
 20
-14.1338829825
 11
-0.9812376945
 21
-14.1154555322
  0
LINE
  5
7F8
100
AcDbEntity
  8
0
100
AcDbLine
 62
7
  6
CONTINUOUS
 10
-1.1697684645
 20
-13.9113533514
 11
-1.1593802955
 21
-13.9003637677
  0
LINE
  5
7F9
100
AcDbEntity
  8
RACCORDO
100
AcDbLine
 62
7
  6
CONTINUOUS
 10
-14.7634575152
 20
-9.9000098132
 11
-14.7382970164
 21
-9.876037443
  0
LINE
  5
7FA
100
AcDbEntity
  8
0
100
AcDbLine
 62
7
  6
CONTINUOUS
 10
-12.0875280249
 20
20.856280171
 11
-12.0596244418
 21
20.8771652014
  0
LINE
  5
7FB
100
AcDbEntity
  8
0
100
AcDbLine
 62
7
  6
CONTINUOUS
 10
-12.07210787
 20
20.9308740314
 11
-12.0566503211
 21
20.941264805
  0
LINE
  5
7FC
100
AcDbEntity
  8
RACCORDO
100
AcDbLine
 62
7
  6
CONTINUOUS
 10
-15.7003044845
 20
27.4227041946
 11
-15.660335264
 21
27.448617731
  0
LINE
  5
7FD
100
AcDbEntity
  8
RACCORDO
100
AcDbLine
 62
7
  6
CONTINUOUS
 10
-15.1089101623
 20
27.1687696986
 11
-15.0834628054
 21
27.1850336096
  0
LINE
  5
7FE
100
AcDbEntity
  8
RACCORDO
100
AcDbLine
 62
7
  6
CONTINUOUS
 10
-40.401744221
 20
61.5309321145
 11
-40.4274147319
 21
61.5213124801
  0
LINE
  5
7FF
100
AcDbEntity
  8
RACCORDO
100
AcDbLine
 62
7
  6
CONTINUOUS
 10
-40.3343368886
 20
61.8672461569
 11
-40.3697755929
 21
61.8544076044
  0
LINE
  5
800
100
AcDbEntity
  8
RACCORDO
100
AcDbLine
 62
7
  6
CONTINUOUS
 10
-37.5761831698
 20
62.7894822026
 11
-37.7029410379
 21
62.7760527046
  0
LINE
  5
801
100
AcDbEntity
  8
RACCORDO
100
AcDbLine
 62
7
  6
CONTINUOUS
 10
-40.3205651842
 20
61.5460170063
 11
-40.3481985081
 21
61.5433258319
  0
LINE
  5
802
100
AcDbEntity
  8
RACCORDO
100
AcDbLine
 62
7
  6
CONTINUOUS
 10
-37.461151281
 20
62.7366390506
 11
-37.3561080403
 21
62.7458849093
  0
LINE
  5
803
100
AcDbEntity
  8
RACCORDO
100
AcDbLine
 62
7
  6
CONTINUOUS
 10
-40.2212347245
 20
61.8867178402
 11
-40.2599494434
 21
61.8834267893
  0
LINE
  5
804
100
AcDbEntity
  8
RACCORDO
100
AcDbLine
 62
7
  6
CONTINUOUS
 10
47.7306281021
 20
-58.0897062948
 11
47.8063075823
 21
-57.9358605992
  0
LINE
  5
805
100
AcDbEntity
  8
RACCORDO
100
AcDbLine
 62
7
  6
CONTINUOUS
 10
47.8158423454
 20
-57.8324589432
 11
47.7581557789
 21
-57.9474445178
  0
LINE
  5
806
100
AcDbEntity
  8
RACCORDO
100
AcDbLine
 62
7
  6
CONTINUOUS
 10
45.3451945986
 20
-60.3469562237
 11
45.3602507556
 21
-60.3186411058
  0
LINE
  5
807
100
AcDbEntity
  8
RACCORDO
100
AcDbLine
 62
7
  6
CONTINUOUS
 10
47.6833054996
 20
-58.17732594
 11
47.7306281021
 21
-58.0897062948
  0
LINE
  5
808
100
AcDbEntity
  8
RACCORDO
100
AcDbLine
 62
7
  6
CONTINUOUS
 10
47.7581557789
 20
-57.9474445178
 11
47.6961874771
 21
-58.060039642
  0
LINE
  5
809
100
AcDbEntity
  8
RACCORDO
100
AcDbLine
 62
7
  6
CONTINUOUS
 10
16.6559569712
 20
-28.2352958461
 11
16.6302592038
 21
-28.266852744
  0
LINE
  5
80A
100
AcDbEntity
  8
RACCORDO
100
AcDbLine
 62
7
  6
CONTINUOUS
 10
16.5752033158
 20
-27.7485147389
 11
16.5980229635
 21
-27.7213997409
  0
LINE
  5
80B
100
AcDbEntity
  8
RACCORDO
100
AcDbLine
 62
7
  6
CONTINUOUS
 10
16.0785706167
 20
-27.7886615777
 11
16.102229795
 21
-27.7613289151
  0
LINE
  5
80C
100
AcDbEntity
  8
RACCORDO
100
AcDbLine
 62
7
  6
CONTINUOUS
 10
44.6969017218
 20
12.8243786082
 11
44.7138816849
 21
12.843729058
  0
LINE
  5
80D
100
AcDbEntity
  8
0
100
AcDbLine
 62
7
  6
CONTINUOUS
 10
4.187163094
 20
-24.4392938209
 11
4.1783853143
 21
-24.4484699037
  0
LINE
  5
80E
100
AcDbEntity
  8
0
100
AcDbLine
 62
7
  6
CONTINUOUS
 10
4.0715867133
 20
-24.510286329
 11
4.0802954268
 21
-24.5012871576
  0
LINE
  5
80F
100
AcDbEntity
  8
0
100
AcDbLine
 62
7
  6
CONTINUOUS
 10
4.4314292351
 20
-24.834319743
 11
4.4230756692
 21
-24.8429412984
  0
LINE
  5
810
100
AcDbEntity
  8
RACCORDO
100
AcDbLine
 62
7
  6
CONTINUOUS
 10
44.7138816849
 20
12.843729058
 11
44.7315296897
 21
12.8616836162
  0
LINE
  5
811
100
AcDbEntity
  8
0
100
AcDbLine
 62
7
  6
CONTINUOUS
 10
-1.0181886924
 20
-14.7387789515
 11
-0.9985303176
 21
-14.7203713051
  0
LINE
  5
812
100
AcDbEntity
  8
0
100
AcDbLine
 62
7
  6
CONTINUOUS
 10
-1.0586946031
 20
-14.8302460378
 11
-1.0339506572
 21
-14.8077315357
  0
LINE
  5
813
100
AcDbEntity
  8
0
100
AcDbLine
 62
7
  6
CONTINUOUS
 10
-1.018241089
 20
-14.1515125176
 11
-0.9985955499
 21
-14.1338829825
  0
LINE
  5
814
100
AcDbEntity
  8
0
100
AcDbLine
 62
7
  6
CONTINUOUS
 10
-1.1814806613
 20
-13.9218052296
 11
-1.1697684645
 21
-13.9113533514
  0
LINE
  5
815
100
AcDbEntity
  8
RACCORDO
100
AcDbLine
 62
7
  6
CONTINUOUS
 10
-14.7382970164
 20
-9.876037443
 11
-14.7125952824
 21
-9.8539514782
  0
LINE
  5
816
100
AcDbEntity
  8
0
100
AcDbLine
 62
7
  6
CONTINUOUS
 10
-12.1084042654
 20
20.8424365949
 11
-12.0875280249
 21
20.856280171
  0
LINE
  5
817
100
AcDbEntity
  8
0
100
AcDbLine
 62
7
  6
CONTINUOUS
 10
-11.8691657775
 20
23.119153996
 11
-11.8553669825
 21
23.1281540355
  0
LINE
  5
818
100
AcDbEntity
  8
0
100
AcDbLine
 62
7
  6
CONTINUOUS
 10
-11.8691657775
 20
21.2949052915
 11
-11.8553666953
 21
21.3039055415
  0
LINE
  5
819
100
AcDbEntity
  8
0
100
AcDbLine
 62
7
  6
CONTINUOUS
 10
-13.2151261757
 20
20.2127951067
 11
-12.07210787
 21
20.9308740314
  0
LINE
  5
81A
100
AcDbEntity
  8
0
100
AcDbLine
 62
7
  6
CONTINUOUS
 10
-13.2151261757
 20
20.1471588917
 11
-12.108365047
 21
20.8424599531
  0
LINE
  5
81B
100
AcDbEntity
  8
RACCORDO
100
AcDbLine
 62
7
  6
CONTINUOUS
 10
-40.2599494434
 20
61.8834267893
 11
-40.2976855395
 21
61.8769310566
  0
LINE
  5
81C
100
AcDbEntity
  8
RACCORDO
100
AcDbLine
 62
7
  6
CONTINUOUS
 10
-37.6646726729
 20
62.7076033615
 11
-37.5639924371
 21
62.7238503236
  0
LINE
  5
81D
100
AcDbEntity
  8
RACCORDO
100
AcDbLine
 62
7
  6
CONTINUOUS
 10
-37.7029410379
 20
62.7760527046
 11
-37.8272976561
 21
62.757690968
  0
LINE
  5
81E
100
AcDbEntity
  8
RACCORDO
100
AcDbLine
 62
7
  6
CONTINUOUS
 10
-37.5639924371
 20
62.7238503236
 11
-37.461151281
 21
62.7366390506
  0
LINE
  5
81F
100
AcDbEntity
  8
RACCORDO
100
AcDbLine
 62
7
  6
CONTINUOUS
 10
47.652510438
 20
-58.2312847414
 11
47.6832873607
 21
-58.1773573769
  0
LINE
  5
820
100
AcDbEntity
  8
RACCORDO
100
AcDbLine
 62
7
  6
CONTINUOUS
 10
44.9583735915
 20
-60.2914171335
 11
44.9688404092
 21
-60.2740892954
  0
LINE
  5
821
100
AcDbEntity
  8
RACCORDO
100
AcDbLine
 62
7
  6
CONTINUOUS
 10
47.6961874771
 20
-58.060039642
 11
47.6236761898
 21
-58.1793778519
  0
LINE
  5
822
100
AcDbEntity
  8
RACCORDO
100
AcDbLine
 62
7
  6
CONTINUOUS
 10
47.5843345937
 20
-58.3431795212
 11
47.652510438
 21
-58.2312847414
  0
LINE
  5
823
100
AcDbEntity
  8
RACCORDO
100
AcDbLine
 62
7
  6
CONTINUOUS
 10
16.102229795
 20
-27.7613289151
 11
16.1267081716
 21
-27.7356043709
  0
LINE
  5
824
100
AcDbEntity
  8
RACCORDO
100
AcDbLine
 62
7
  6
CONTINUOUS
 10
16.6302592038
 20
-28.266852744
 11
16.6021254159
 21
-28.29524375
  0
LINE
  5
825
100
AcDbEntity
  8
RACCORDO
100
AcDbLine
 62
7
  6
CONTINUOUS
 10
16.5980229635
 20
-27.7213997409
 11
16.6051122792
 21
-27.714364336
  0
LINE
  5
826
100
AcDbEntity
  8
0
100
AcDbLine
 62
7
  6
CONTINUOUS
 10
4.4230756692
 20
-24.8429412984
 11
4.414614085
 21
-24.8507790262
  0
LINE
  5
827
100
AcDbEntity
  8
RACCORDO
100
AcDbLine
 62
7
  6
CONTINUOUS
 10
44.7315296897
 20
12.8616836162
 11
44.7497058562
 21
12.8780999731
  0
LINE
  5
828
100
AcDbEntity
  8
0
100
AcDbLine
 62
7
  6
CONTINUOUS
 10
-1.089090032
 20
-14.8520180983
 11
-1.098324727
 21
-14.8598686018
  0
LINE
  5
829
100
AcDbEntity
  8
0
100
AcDbLine
 62
7
  6
CONTINUOUS
 10
-1.040047733
 20
-14.756321052
 11
-1.0181886924
 21
-14.7387789515
  0
LINE
  5
82A
100
AcDbEntity
  8
RACCORDO
100
AcDbLine
 62
7
  6
CONTINUOUS
 10
-14.7125952824
 20
-9.8539514782
 11
-14.686496235
 21
-9.8338755932
  0
LINE
  5
82B
100
AcDbEntity
  8
0
100
AcDbLine
 62
7
  6
CONTINUOUS
 10
-12.2097869091
 20
23.4917094438
 11
-13.2151261757
 21
22.9419124789
  0
LINE
  5
82C
100
AcDbEntity
  8
0
100
AcDbLine
 62
7
  6
CONTINUOUS
 10
-12.07210787
 20
23.244706479
 11
-13.2151261757
 21
22.6196160085
  0
LINE
  5
82D
100
AcDbEntity
  8
RACCORDO
100
AcDbLine
 62
7
  6
CONTINUOUS
 10
-15.0834628054
 20
27.1850336096
 11
-15.0599979892
 21
27.1971900514
  0
LINE
  5
82E
100
AcDbEntity
  8
RACCORDO
100
AcDbLine
 62
7
  6
CONTINUOUS
 10
-15.660335264
 20
27.448617731
 11
-15.6181508343
 21
27.4703255839
  0
LINE
  5
82F
100
AcDbEntity
  8
0
100
AcDbLine
 62
7
  6
CONTINUOUS
 10
-12.056650321
 20
23.2524799877
 11
-12.07210787
 21
23.244706479
  0
LINE
  5
830
100
AcDbEntity
  8
0
100
AcDbLine
 62
7
  6
CONTINUOUS
 10
-12.1841918899
 20
23.5045166205
 11
-12.2097867819
 21
23.4917093681
  0
LINE
  5
831
100
AcDbEntity
  8
0
100
AcDbLine
 62
7
  6
CONTINUOUS
 10
-13.2151261757
 20
23.598743165
 11
-12.8141153648
 21
23.7990325642
  0
LINE
  5
832
100
AcDbEntity
  8
0
100
AcDbLine
 62
7
  6
CONTINUOUS
 10
-13.2151261757
 20
23.5387637133
 11
-12.7197772508
 21
23.7861713539
  0
LINE
  5
833
100
AcDbEntity
  8
RACCORDO
100
AcDbLine
 62
7
  6
CONTINUOUS
 10
-37.9491017807
 20
62.7345061745
 11
-37.9957212328
 21
62.7235941484
  0
LINE
  5
834
100
AcDbEntity
  8
RACCORDO
100
AcDbLine
 62
7
  6
CONTINUOUS
 10
-37.763438558
 20
62.6879795401
 11
-37.6646726729
 21
62.7076033615
  0
LINE
  5
835
100
AcDbEntity
  8
RACCORDO
100
AcDbLine
 62
7
  6
CONTINUOUS
 10
-37.8272976561
 20
62.757690968
 11
-37.9491017807
 21
62.7345061745
  0
LINE
  5
836
100
AcDbEntity
  8
RACCORDO
100
AcDbLine
 62
7
  6
CONTINUOUS
 10
-40.3481985081
 20
61.5433258319
 11
-40.3752524088
 21
61.5382892508
  0
LINE
  5
837
100
AcDbEntity
  8
RACCORDO
100
AcDbLine
 62
7
  6
CONTINUOUS
 10
47.5127911464
 20
-58.4507685391
 11
47.5843345937
 21
-58.3431795212
  0
LINE
  5
838
100
AcDbEntity
  8
RACCORDO
100
AcDbLine
 62
7
  6
CONTINUOUS
 10
45.3279706337
 20
-60.3726901655
 11
45.3451945986
 21
-60.3469562237
  0
LINE
  5
839
100
AcDbEntity
  8
RACCORDO
100
AcDbLine
 62
7
  6
CONTINUOUS
 10
47.6236761898
 20
-58.1793778519
 11
47.5469608937
 21
-58.2936258757
  0
LINE
  5
83A
100
AcDbEntity
  8
RACCORDO
100
AcDbLine
 62
7
  6
CONTINUOUS
 10
16.1267081716
 20
-27.7356043709
 11
16.151868675
 21
-27.7116319944
  0
LINE
  5
83B
100
AcDbEntity
  8
RACCORDO
100
AcDbLine
 62
7
  6
CONTINUOUS
 10
48.1452959415
 20
13.6961581017
 11
48.1617424277
 21
13.710010759
  0
LINE
  5
83C
100
AcDbEntity
  8
RACCORDO
100
AcDbLine
 62
7
  6
CONTINUOUS
 10
48.1259651683
 20
13.6801480801
 11
48.1452959415
 21
13.6961581017
  0
LINE
  5
83D
100
AcDbEntity
  8
0
100
AcDbLine
 62
7
  6
CONTINUOUS
 10
4.1783853143
 20
-24.4484699037
 11
4.1687151427
 21
-24.4564394569
  0
LINE
  5
83E
100
AcDbEntity
  8
0
100
AcDbLine
 62
7
  6
CONTINUOUS
 10
4.414614085
 20
-24.8507790262
 11
4.4060366554
 21
-24.8578079706
  0
LINE
  5
83F
100
AcDbEntity
  8
0
100
AcDbLine
 62
7
  6
CONTINUOUS
 10
4.0620337144
 20
-24.5180663167
 11
4.0715867133
 21
-24.510286329
  0
LINE
  5
840
100
AcDbEntity
  8
RACCORDO
100
AcDbLine
 62
7
  6
CONTINUOUS
 10
48.1034712382
 20
13.6620370562
 11
48.1259651683
 21
13.6801480801
  0
LINE
  5
841
100
AcDbEntity
  8
RACCORDO
100
AcDbLine
 62
7
  6
CONTINUOUS
 10
44.7497058562
 20
12.8780999731
 11
44.7682661186
 21
12.8928480113
  0
LINE
  5
842
100
AcDbEntity
  8
0
100
AcDbLine
 62
7
  6
CONTINUOUS
 10
-1.0861506942
 20
-14.851495405
 11
-1.0586946031
 21
-14.8302460378
  0
LINE
  5
843
100
AcDbEntity
  8
0
100
AcDbLine
 62
7
  6
CONTINUOUS
 10
-1.0400680384
 20
-14.1682533178
 11
-1.018241089
 21
-14.1515125176
  0
LINE
  5
844
100
AcDbEntity
  8
RACCORDO
100
AcDbLine
 62
7
  6
CONTINUOUS
 10
48.0776448645
 20
13.6422561148
 11
48.1034712382
 21
13.6620370562
  0
LINE
  5
845
100
AcDbEntity
  8
0
100
AcDbLine
 62
7
  6
CONTINUOUS
 10
-1.1945669031
 20
-13.931781577
 11
-1.1814806613
 21
-13.9218052296
  0
LINE
  5
846
100
AcDbEntity
  8
RACCORDO
100
AcDbLine
 62
7
  6
CONTINUOUS
 10
-14.686496235
 20
-9.8338755932
 11
-14.6601460208
 21
-9.8159222066
  0
LINE
  5
847
100
AcDbEntity
  8
RACCORDO
100
AcDbLine
 62
7
  6
CONTINUOUS
 10
-15.1645826816
 20
-9.3428105358
 11
-15.1327936111
 21
-9.3232202993
  0
LINE
  5
848
100
AcDbEntity
  8
0
100
AcDbLine
 62
7
  6
CONTINUOUS
 10
-12.7999112492
 20
23.8058321726
 11
-12.8140685006
 21
23.7990546693
  0
LINE
  5
849
100
AcDbEntity
  8
0
100
AcDbLine
 62
7
  6
CONTINUOUS
 10
-12.7197777586
 20
23.7861716449
 11
-12.6934998183
 21
23.7985878246
  0
LINE
  5
84A
100
AcDbEntity
  8
RACCORDO
100
AcDbLine
 62
7
  6
CONTINUOUS
 10
-15.0599979892
 20
27.1971900514
 11
-15.0592561034
 21
27.1975342796
  0
LINE
  5
84B
100
AcDbEntity
  8
0
100
AcDbLine
 62
7
  6
CONTINUOUS
 10
-15.2736823941
 20
26.8077976288
 11
-14.7403736762
 21
27.054387778
  0
LINE
  5
84C
100
AcDbEntity
  8
RACCORDO
100
AcDbLine
 62
7
  6
CONTINUOUS
 10
-15.0612876367
 20
27.1967385369
 11
-15.0612366426
 21
27.1967614191
  0
LINE
  5
84D
100
AcDbEntity
  8
RACCORDO
100
AcDbLine
 62
7
  6
CONTINUOUS
 10
-15.3061423861
 20
26.7939667782
 11
-15.2736806122
 21
26.8077874366
  0
LINE
  5
84E
100
AcDbEntity
  8
RACCORDO
100
AcDbLine
 62
7
  6
CONTINUOUS
 10
-40.3752524088
 20
61.5382892508
 11
-40.401744221
 21
61.5309321145
  0
LINE
  5
84F
100
AcDbEntity
  8
RACCORDO
100
AcDbLine
 62
7
  6
CONTINUOUS
 10
-37.8833005176
 20
62.6586838364
 11
-37.8601827378
 21
62.6650689151
  0
LINE
  5
850
100
AcDbEntity
  8
RACCORDO
100
AcDbLine
 62
7
  6
CONTINUOUS
 10
-40.2976855395
 20
61.8769310566
 11
-40.3343368886
 21
61.8672461569
  0
LINE
  5
851
100
AcDbEntity
  8
RACCORDO
100
AcDbLine
 62
7
  6
CONTINUOUS
 10
-37.8601827378
 20
62.6650689151
 11
-37.763438558
 21
62.6879795401
  0
LINE
  5
852
100
AcDbEntity
  8
RACCORDO
100
AcDbLine
 62
7
  6
CONTINUOUS
 10
47.4380142414
 20
-58.5539386594
 11
47.5127911464
 21
-58.4507685391
  0
LINE
  5
853
100
AcDbEntity
  8
RACCORDO
100
AcDbLine
 62
7
  6
CONTINUOUS
 10
47.5469608937
 20
-58.2936258757
 11
47.4661442428
 21
-58.4027160151
  0
LINE
  5
854
100
AcDbEntity
  8
RACCORDO
100
AcDbLine
 62
7
  6
CONTINUOUS
 10
44.9463010182
 20
-60.3069811879
 11
44.9583735915
 21
-60.2914171335
  0
LINE
  5
855
100
AcDbEntity
  8
RACCORDO
100
AcDbLine
 62
7
  6
CONTINUOUS
 10
47.3601529239
 20
-58.6525947443
 11
47.4380142414
 21
-58.5539386594
  0
LINE
  5
856
100
AcDbEntity
  8
RACCORDO
100
AcDbLine
 62
7
  6
CONTINUOUS
 10
16.151868675
 20
-27.7116319944
 11
16.1775704143
 21
-27.6895460237
  0
LINE
  5
857
100
AcDbEntity
  8
RACCORDO
100
AcDbLine
 62
7
  6
CONTINUOUS
 10
16.6021254159
 20
-28.29524375
 11
16.5687062839
 21
-28.3228602054
  0
LINE
  5
858
100
AcDbEntity
  8
RACCORDO
100
AcDbLine
 62
7
  6
CONTINUOUS
 10
48.0480936134
 20
13.6205095745
 11
48.0776448645
 21
13.6422561148
  0
LINE
  5
859
100
AcDbEntity
  8
RACCORDO
100
AcDbLine
 62
7
  6
CONTINUOUS
 10
48.0140879379
 20
13.5957924722
 11
48.0480936134
 21
13.6205095745
  0
LINE
  5
85A
100
AcDbEntity
  8
0
100
AcDbLine
 62
7
  6
CONTINUOUS
 10
4.4060366554
 20
-24.8578079706
 11
4.3973508043
 21
-24.8640533567
  0
LINE
  5
85B
100
AcDbEntity
  8
RACCORDO
100
AcDbLine
 62
7
  6
CONTINUOUS
 10
47.9749136753
 20
13.5680832678
 11
48.0140879379
 21
13.5957924722
  0
LINE
  5
85C
100
AcDbEntity
  8
0
100
AcDbLine
 62
7
  6
CONTINUOUS
 10
-1.0639905682
 20
-14.7729070832
 11
-1.040047733
 21
-14.756321052
  0
LINE
  5
85D
100
AcDbEntity
  8
RACCORDO
100
AcDbLine
 62
7
  6
CONTINUOUS
 10
44.7682661186
 20
12.8928480113
 11
44.7870633663
 21
12.9058108362
  0
LINE
  5
85E
100
AcDbEntity
  8
0
100
AcDbLine
 62
7
  6
CONTINUOUS
 10
-1.0999281107
 20
-14.8609590709
 11
-1.0861506942
 21
-14.851495405
  0
LINE
  5
85F
100
AcDbEntity
  8
RACCORDO
100
AcDbLine
 62
7
  6
CONTINUOUS
 10
47.9303809597
 20
13.5376558653
 11
47.9749136753
 21
13.5680832678
  0
LINE
  5
860
100
AcDbEntity
  8
RACCORDO
100
AcDbLine
 62
7
  6
CONTINUOUS
 10
47.8805290206
 20
13.5039679714
 11
47.9303809597
 21
13.5376558653
  0
LINE
  5
861
100
AcDbEntity
  8
RACCORDO
100
AcDbLine
 62
7
  6
CONTINUOUS
 10
47.825186788
 20
13.4669292676
 11
47.8805290206
 21
13.5039679714
  0
LINE
  5
862
100
AcDbEntity
  8
0
100
AcDbLine
 62
7
  6
CONTINUOUS
 10
-1.5261084286
 20
-15.07834527
 11
-1.0639905682
 21
-14.7729070832
  0
LINE
  5
863
100
AcDbEntity
  8
0
100
AcDbLine
 62
7
  6
CONTINUOUS
 10
-1.4741804233
 20
-15.1083278494
 11
-1.0999821383
 21
-14.8610003698
  0
LINE
  5
864
100
AcDbEntity
  8
0
100
AcDbLine
 62
7
  6
CONTINUOUS
 10
-1.0639560031
 20
-14.1840170672
 11
-1.0400680384
 21
-14.1682533178
  0
LINE
  5
865
100
AcDbEntity
  8
0
100
AcDbLine
 62
7
  6
CONTINUOUS
 10
-1.20902719
 20
-13.9412823938
 11
-1.1945669031
 21
-13.931781577
  0
LINE
  5
866
100
AcDbEntity
  8
RACCORDO
100
AcDbLine
 62
7
  6
CONTINUOUS
 10
47.763857966
 20
13.4269247212
 11
47.825186788
 21
13.4669292676
  0
LINE
  5
867
100
AcDbEntity
  8
RACCORDO
100
AcDbLine
 62
7
  6
CONTINUOUS
 10
-15.1979596496
 20
-9.362798347
 11
-15.1645826816
 21
-9.3428105358
  0
LINE
  5
868
100
AcDbEntity
  8
RACCORDO
100
AcDbLine
 62
7
  6
CONTINUOUS
 10
-15.232684009
 20
-9.3830397056
 11
-15.1979596496
 21
-9.362798347
  0
LINE
  5
869
100
AcDbEntity
  8
0
100
AcDbLine
 62
7
  6
CONTINUOUS
 10
-15.2736818154
 20
-8.8655708087
 11
-13.2151261757
 21
-7.6769718545
  0
LINE
  5
86A
100
AcDbEntity
  8
0
100
AcDbLine
 62
7
  6
CONTINUOUS
 10
-14.6601519388
 20
-9.8159187896
 11
-12.650216003
 21
-8.6554249744
  0
LINE
  5
86B
100
AcDbEntity
  8
RACCORDO
100
AcDbLine
 62
7
  6
CONTINUOUS
 10
-15.2685055447
 20
-9.4033887575
 11
-15.232684009
 21
-9.3830397056
  0
LINE
  5
86C
100
AcDbEntity
  8
RACCORDO
100
AcDbLine
 62
7
  6
CONTINUOUS
 10
-15.3051661354
 20
-9.4236988725
 11
-15.2685055447
 21
-9.4033887575
  0
LINE
  5
86D
100
AcDbEntity
  8
0
100
AcDbLine
 62
7
  6
CONTINUOUS
 10
-12.0414679993
 20
23.2588258185
 11
-12.056650321
 21
23.2524799877
  0
LINE
  5
86E
100
AcDbEntity
  8
0
100
AcDbLine
 62
7
  6
CONTINUOUS
 10
-12.1587814076
 20
23.5150505511
 11
-12.1841918899
 21
23.5045166205
  0
LINE
  5
86F
100
AcDbEntity
  8
0
100
AcDbLine
 62
7
  6
CONTINUOUS
 10
-12.7687079141
 20
23.8187284498
 11
-12.7999112492
 21
23.8058321726
  0
LINE
  5
870
100
AcDbEntity
  8
RACCORDO
100
AcDbLine
 62
7
  6
CONTINUOUS
 10
-15.6181508343
 20
27.4703255839
 11
-15.5735775844
 21
27.4879035383
  0
LINE
  5
871
100
AcDbEntity
  8
RACCORDO
100
AcDbLine
 62
7
  6
CONTINUOUS
 10
-15.1645821415
 20
27.1375547772
 11
-15.1327930626
 21
27.1500493989
  0
LINE
  5
872
100
AcDbEntity
  8
0
100
AcDbLine
 62
7
  6
CONTINUOUS
 10
-12.6934998183
 20
23.7985878246
 11
-12.6674185799
 21
23.8087369353
  0
LINE
  5
873
100
AcDbEntity
  8
RACCORDO
100
AcDbLine
 62
7
  6
CONTINUOUS
 10
-15.3407529067
 20
26.7817703736
 11
-15.3061423861
 21
26.7939667782
  0
LINE
  5
874
100
AcDbEntity
  8
RACCORDO
100
AcDbLine
 62
7
  6
CONTINUOUS
 10
47.4661442428
 20
-58.4027160151
 11
47.3817030289
 21
-58.506223322
  0
LINE
  5
875
100
AcDbEntity
  8
RACCORDO
100
AcDbLine
 62
7
  6
CONTINUOUS
 10
45.3086624141
 20
-60.3957570149
 11
45.3279706337
 21
-60.3726901655
  0
LINE
  5
876
100
AcDbEntity
  8
RACCORDO
100
AcDbLine
 62
7
  6
CONTINUOUS
 10
47.2793820381
 20
-58.7466570879
 11
47.3601529239
 21
-58.6525947443
  0
LINE
  5
877
100
AcDbEntity
  8
RACCORDO
100
AcDbLine
 62
7
  6
CONTINUOUS
 10
16.1775704143
 20
-27.6895460237
 11
16.2036694676
 21
-27.6694701334
  0
LINE
  5
878
100
AcDbEntity
  8
0
100
AcDbLine
 62
7
  6
CONTINUOUS
 10
16.2300468312
 20
-27.6515324143
 11
16.6159859144
 21
-27.3793939959
  0
LINE
  5
879
100
AcDbEntity
  8
0
100
AcDbLine
 62
7
  6
CONTINUOUS
 10
4.3973508043
 20
-24.8640533567
 11
4.3886844448
 21
-24.869739815
  0
LINE
  5
87A
100
AcDbEntity
  8
0
100
AcDbLine
 62
7
  6
CONTINUOUS
 10
4.1687151427
 20
-24.4564394569
 11
4.1616247346
 21
-24.4610113275
  0
LINE
  5
87B
100
AcDbEntity
  8
0
100
AcDbLine
 62
7
  6
CONTINUOUS
 10
4.0552348869
 20
-24.5224319597
 11
4.0620337144
 21
-24.5180663167
  0
LINE
  5
87C
100
AcDbEntity
  8
RACCORDO
100
AcDbLine
 62
7
  6
CONTINUOUS
 10
47.6399833938
 20
13.3485129369
 11
47.763857966
 21
13.4269247212
  0
LINE
  5
87D
100
AcDbEntity
  8
RACCORDO
100
AcDbLine
 62
7
  6
CONTINUOUS
 10
47.5815655039
 20
13.3119467355
 11
47.6399833938
 21
13.3485129369
  0
LINE
  5
87E
100
AcDbEntity
  8
RACCORDO
100
AcDbLine
 62
7
  6
CONTINUOUS
 10
47.4585463292
 20
13.2360195493
 11
47.5815655039
 21
13.3119467355
  0
LINE
  5
87F
100
AcDbEntity
  8
0
100
AcDbLine
 62
7
  6
CONTINUOUS
 10
-2.3220201981
 20
-14.6187957894
 11
-1.20902719
 21
-13.9412823938
  0
LINE
  5
880
100
AcDbEntity
  8
0
100
AcDbLine
 62
7
  6
CONTINUOUS
 10
-2.0429214786
 20
-14.7799438921
 11
-1.0639560012
 21
-14.1840172152
  0
LINE
  5
881
100
AcDbEntity
  8
RACCORDO
100
AcDbLine
 62
7
  6
CONTINUOUS
 10
47.3277637469
 20
13.1564687169
 11
47.4585463292
 21
13.2360195493
  0
LINE
  5
882
100
AcDbEntity
  8
RACCORDO
100
AcDbLine
 62
7
  6
CONTINUOUS
 10
47.2595531996
 20
13.1154393591
 11
47.3277637469
 21
13.1564687169
  0
LINE
  5
883
100
AcDbEntity
  8
RACCORDO
100
AcDbLine
 62
7
  6
CONTINUOUS
 10
47.1788034325
 20
13.0671738983
 11
47.2595531996
 21
13.1154393591
  0
LINE
  5
884
100
AcDbEntity
  8
RACCORDO
100
AcDbLine
 62
7
  6
CONTINUOUS
 10
44.7870633663
 20
12.9058108362
 11
46.5363658998
 21
13.9158264739
  0
LINE
  5
885
100
AcDbEntity
  8
RACCORDO
100
AcDbLine
 62
7
  6
CONTINUOUS
 10
45.3973990886
 20
11.6274300983
 11
47.2425036157
 21
12.692760074
  0
LINE
  5
886
100
AcDbEntity
  8
RACCORDO
100
AcDbLine
 62
7
  6
CONTINUOUS
 10
46.8287322598
 20
13.6734879373
 11
46.9109140177
 21
13.7193000704
  0
LINE
  5
887
100
AcDbEntity
  8
RACCORDO
100
AcDbLine
 62
7
  6
CONTINUOUS
 10
46.9109140177
 20
13.7193000704
 11
47.0485603063
 21
13.7952443267
  0
LINE
  5
888
100
AcDbEntity
  8
RACCORDO
100
AcDbLine
 62
7
  6
CONTINUOUS
 10
47.0485603063
 20
13.7952443267
 11
47.1793450598
 21
13.8662772348
  0
LINE
  5
889
100
AcDbEntity
  8
RACCORDO
100
AcDbLine
 62
7
  6
CONTINUOUS
 10
-15.3424016142
 20
-9.4438237009
 11
-15.3051661354
 21
-9.4236988725
  0
LINE
  5
88A
100
AcDbEntity
  8
RACCORDO
100
AcDbLine
 62
7
  6
CONTINUOUS
 10
47.1793450598
 20
13.8662772348
 11
47.2420811678
 21
13.8999507066
  0
LINE
  5
88B
100
AcDbEntity
  8
RACCORDO
100
AcDbLine
 62
7
  6
CONTINUOUS
 10
-15.306144453
 20
-8.8827139771
 11
-15.2736826838
 21
-8.8655451426
  0
LINE
  5
88C
100
AcDbEntity
  8
RACCORDO
100
AcDbLine
 62
7
  6
CONTINUOUS
 10
-15.3799436712
 20
-9.4636182282
 11
-15.3424016142
 21
-9.4438237009
  0
LINE
  5
88D
100
AcDbEntity
  8
RACCORDO
100
AcDbLine
 62
7
  6
CONTINUOUS
 10
-15.4175217878
 20
-9.4829398201
 11
-15.3799436712
 21
-9.4636182282
  0
LINE
  5
88E
100
AcDbEntity
  8
RACCORDO
100
AcDbLine
 62
7
  6
CONTINUOUS
 10
-15.4548651853
 20
-9.5016492498
 11
-15.4175217878
 21
-9.4829398201
  0
LINE
  5
88F
100
AcDbEntity
  8
RACCORDO
100
AcDbLine
 62
7
  6
CONTINUOUS
 10
-15.4917047765
 20
-9.5196117019
 11
-15.4548651853
 21
-9.5016492498
  0
LINE
  5
890
100
AcDbEntity
  8
0
100
AcDbLine
 62
7
  6
CONTINUOUS
 10
-12.8122959008
 20
23.7999070718
 11
-12.8008791351
 21
23.8039780245
  0
LINE
  5
891
100
AcDbEntity
  8
0
100
AcDbLine
 62
7
  6
CONTINUOUS
 10
-12.0265609047
 20
23.2637439714
 11
-12.0414679993
 21
23.2588258185
  0
LINE
  5
892
100
AcDbEntity
  8
0
100
AcDbLine
 62
7
  6
CONTINUOUS
 10
-12.1336920116
 20
23.5232510442
 11
-12.1587814076
 21
23.5150505511
  0
LINE
  5
893
100
AcDbEntity
  8
0
100
AcDbLine
 62
7
  6
CONTINUOUS
 10
-12.7377371456
 20
23.8288164552
 11
-12.7687079141
 21
23.8187284498
  0
LINE
  5
894
100
AcDbEntity
  8
0
100
AcDbLine
 62
7
  6
CONTINUOUS
 10
-12.6674185799
 20
23.8087369353
 11
-12.641670759
 21
23.8165589097
  0
LINE
  5
895
100
AcDbEntity
  8
RACCORDO
100
AcDbLine
 62
7
  6
CONTINUOUS
 10
-15.3772660013
 20
26.7712849716
 11
-15.3407529067
 21
26.7817703736
  0
LINE
  5
896
100
AcDbEntity
  8
RACCORDO
100
AcDbLine
 62
7
  6
CONTINUOUS
 10
-15.5735775844
 20
27.4879035383
 11
-15.52679356
 21
27.5012735039
  0
LINE
  5
897
100
AcDbEntity
  8
RACCORDO
100
AcDbLine
 62
7
  6
CONTINUOUS
 10
47.3817030289
 20
-58.506223322
 11
47.2934090179
 21
-58.6044578481
  0
LINE
  5
898
100
AcDbEntity
  8
RACCORDO
100
AcDbLine
 62
7
  6
CONTINUOUS
 10
47.2425036157
 20
-58.7861380115
 11
47.2793820381
 21
-58.7466570879
  0
LINE
  5
899
100
AcDbEntity
  8
RACCORDO
100
AcDbLine
 62
7
  6
CONTINUOUS
 10
16.2036694676
 20
-27.6694701334
 11
16.2300196882
 21
-27.6515167423
  0
LINE
  5
89A
100
AcDbEntity
  8
RACCORDO
100
AcDbLine
 62
7
  6
CONTINUOUS
 10
16.5687062839
 20
-28.3228602054
 11
16.532852552
 21
-28.3463975103
  0
LINE
  5
89B
100
AcDbEntity
  8
0
100
AcDbLine
 62
7
  6
CONTINUOUS
 10
4.3886844448
 20
-24.869739815
 11
4.3824975362
 21
-24.8734874039
  0
LINE
  5
89C
100
AcDbEntity
  8
0
100
AcDbLine
 62
7
  6
CONTINUOUS
 10
-2.3680151705
 20
-21.2874608348
 11
-2.474442125
 21
-21.3489104245
  0
LINE
  5
89D
100
AcDbEntity
  8
0
100
AcDbLine
 62
7
  6
CONTINUOUS
 10
-2.5140900465
 20
-21.854820612
 11
-2.6205644616
 21
-21.9162976048
  0
LINE
  5
89E
100
AcDbEntity
  8
0
100
AcDbLine
 62
7
  6
CONTINUOUS
 10
-0.2969711287
 20
-21.7652630062
 11
-0.4033495182
 21
-21.8266845551
  0
LINE
  5
89F
100
AcDbEntity
  8
0
100
AcDbLine
 62
7
  6
CONTINUOUS
 10
-1.3036491021
 20
-22.5537140429
 11
-1.4101235172
 21
-22.6151910357
  0
LINE
  5
8A0
100
AcDbEntity
  8
0
100
AcDbLine
 62
7
  6
CONTINUOUS
 10
-0.6750219812
 20
-22.9166754639
 11
-0.7814963964
 21
-22.9781524568
  0
LINE
  5
8A1
100
AcDbEntity
  8
0
100
AcDbLine
 62
7
  6
CONTINUOUS
 10
0.2514356805
 20
-22.5203836061
 11
0.1450280918
 21
-22.5818220142
  0
LINE
  5
8A2
100
AcDbEntity
  8
0
100
AcDbLine
 62
7
  6
CONTINUOUS
 10
0.7375196134
 20
-22.3683097667
 11
0.6311408506
 21
-22.4297315311
  0
LINE
  5
8A3
100
AcDbEntity
  8
0
100
AcDbLine
 62
7
  6
CONTINUOUS
 10
0.2733879199
 20
-23.4883888502
 11
0.1877949727
 21
-23.5378091452
  0
LINE
  5
8A4
100
AcDbEntity
  8
0
100
AcDbLine
 62
7
  6
CONTINUOUS
 10
2.2418157651
 20
-23.0785755011
 11
2.1354471994
 21
-23.1399913779
  0
LINE
  5
8A5
100
AcDbEntity
  8
0
100
AcDbLine
 62
7
  6
CONTINUOUS
 10
0.9284685101
 20
-23.8425107772
 11
0.821994095
 21
-23.90398777
  0
LINE
  5
8A6
100
AcDbEntity
  8
0
100
AcDbLine
 62
7
  6
CONTINUOUS
 10
1.5461078987
 20
-24.1991280193
 11
1.4396334836
 21
-24.2606050122
  0
LINE
  5
8A7
100
AcDbEntity
  8
0
100
AcDbLine
 62
7
  6
CONTINUOUS
 10
2.0348277584
 20
-24.0643025908
 11
1.9283840863
 21
-24.125761833
  0
LINE
  5
8A8
100
AcDbEntity
  8
0
100
AcDbLine
 62
7
  6
CONTINUOUS
 10
2.4895628595
 20
-24.0031255184
 11
2.383142138
 21
-24.0645715093
  0
LINE
  5
8A9
100
AcDbEntity
  8
0
100
AcDbLine
 62
7
  6
CONTINUOUS
 10
3.6525731234
 20
-23.6722902158
 11
3.5462184752
 21
-23.7336980567
  0
LINE
  5
8AA
100
AcDbEntity
  8
0
100
AcDbLine
 62
7
  6
CONTINUOUS
 10
2.597590711
 20
-24.3892348666
 11
2.491147039
 21
-24.4506941088
  0
LINE
  5
8AB
100
AcDbEntity
  8
0
100
AcDbLine
 62
7
  6
CONTINUOUS
 10
3.9754378312
 20
-23.846244095
 11
3.8690839574
 21
-23.9076514888
  0
LINE
  5
8AC
100
AcDbEntity
  8
0
100
AcDbLine
 62
7
  6
CONTINUOUS
 10
2.7387042964
 20
-24.8877182326
 11
2.6322298812
 21
-24.9491952254
  0
LINE
  5
8AD
100
AcDbEntity
  8
0
100
AcDbLine
 62
7
  6
CONTINUOUS
 10
4.2274076591
 20
-24.2562733706
 11
4.1210370954
 21
-24.3176904009
  0
LINE
  5
8AE
100
AcDbEntity
  8
0
100
AcDbLine
 62
7
  6
CONTINUOUS
 10
3.7335703369
 20
-24.6432349364
 11
3.6271550378
 21
-24.7046777965
  0
LINE
  5
8AF
100
AcDbEntity
  8
0
100
AcDbLine
 62
7
  6
CONTINUOUS
 10
4.0552275592
 20
-24.5224205209
 11
4.1616138897
 21
-24.4609943871
  0
LINE
  5
8B0
100
AcDbEntity
  8
0
100
AcDbLine
 62
7
  6
CONTINUOUS
 10
3.9551391479
 20
-24.771165991
 11
3.8487238487
 21
-24.832608851
  0
LINE
  5
8B1
100
AcDbEntity
  8
0
100
AcDbLine
 62
7
  6
CONTINUOUS
 10
3.387512127
 20
-25.2623320064
 11
3.2810377118
 21
-25.3238089993
  0
LINE
  5
8B2
100
AcDbEntity
  8
0
100
AcDbLine
 62
7
  6
CONTINUOUS
 10
4.3714344518
 20
-24.840546285
 11
4.2650308535
 21
-24.9019823891
  0
LINE
  5
8B3
100
AcDbEntity
  8
0
100
AcDbLine
 62
7
  6
CONTINUOUS
 10
4.1999365209
 20
-25.0972719055
 11
4.0935083304
 21
-25.1587222089
  0
LINE
  5
8B4
100
AcDbEntity
  8
0
100
AcDbLine
 62
7
  6
CONTINUOUS
 10
4.4319065939
 20
-25.8653522822
 11
4.3254321787
 21
-25.9268292751
  0
LINE
  5
8B5
100
AcDbEntity
  8
0
100
AcDbLine
 62
7
  6
CONTINUOUS
 10
4.3824975362
 20
-24.8734874039
 11
4.3800466673
 21
-24.8748792768
  0
LINE
  5
8B6
100
AcDbEntity
  8
RACCORDO
100
AcDbLine
 62
7
  6
CONTINUOUS
 10
47.2420811678
 20
13.8999507066
 11
47.3029531448
 21
13.9322663652
  0
LINE
  5
8B7
100
AcDbEntity
  8
0
100
AcDbLine
 62
7
  6
CONTINUOUS
 10
-3.3076408354
 20
-12.7714441364
 11
-4.4633205973
 21
-13.3824357757
  0
LINE
  5
8B8
100
AcDbEntity
  8
0
100
AcDbLine
 62
7
  6
CONTINUOUS
 10
-3.2129294271
 20
-12.7842543569
 11
-4.4064683034
 21
-13.4152615777
  0
LINE
  5
8B9
100
AcDbEntity
  8
RACCORDO
100
AcDbLine
 62
7
  6
CONTINUOUS
 10
47.3029531448
 20
13.9322663652
 11
47.432786894
 21
14.0003566087
  0
LINE
  5
8BA
100
AcDbEntity
  8
RACCORDO
100
AcDbLine
 62
7
  6
CONTINUOUS
 10
47.432786894
 20
14.0003566087
 11
47.4980905155
 21
14.0334765845
  0
LINE
  5
8BB
100
AcDbEntity
  8
0
100
AcDbLine
 62
7
  6
CONTINUOUS
 10
-2.7961978848
 20
-12.7905172857
 11
-2.7815047226
 21
-12.783066331
  0
LINE
  5
8BC
100
AcDbEntity
  8
0
100
AcDbLine
 62
7
  6
CONTINUOUS
 10
-1.2163012661
 20
-13.7027297925
 11
-1.201607782
 21
-13.6952786921
  0
LINE
  5
8BD
100
AcDbEntity
  8
0
100
AcDbLine
 62
7
  6
CONTINUOUS
 10
-3.2845527581
 20
-12.7599804117
 11
-3.3076784518
 21
-12.7714652481
  0
LINE
  5
8BE
100
AcDbEntity
  8
RACCORDO
100
AcDbLine
 62
7
  6
CONTINUOUS
 10
47.4980905155
 20
14.0334765845
 11
47.5578324045
 21
14.0628948559
  0
LINE
  5
8BF
100
AcDbEntity
  8
0
100
AcDbLine
 62
7
  6
CONTINUOUS
 10
-3.1962024492
 20
-12.776062299
 11
-3.2129294271
 21
-12.7842543569
  0
LINE
  5
8C0
100
AcDbEntity
  8
RACCORDO
100
AcDbLine
 62
7
  6
CONTINUOUS
 10
47.5578324045
 20
14.0628948559
 11
47.6119272992
 21
14.0892337437
  0
LINE
  5
8C1
100
AcDbEntity
  8
RACCORDO
100
AcDbLine
 62
7
  6
CONTINUOUS
 10
47.6119272992
 20
14.0892337437
 11
47.660538987
 21
14.1125961766
  0
LINE
  5
8C2
100
AcDbEntity
  8
RACCORDO
100
AcDbLine
 62
7
  6
CONTINUOUS
 10
-15.5277751043
 20
-9.5366977435
 11
-15.4917047765
 21
-9.5196117019
  0
LINE
  5
8C3
100
AcDbEntity
  8
RACCORDO
100
AcDbLine
 62
7
  6
CONTINUOUS
 10
47.660538987
 20
14.1125961766
 11
47.7041175802
 21
14.1326768747
  0
LINE
  5
8C4
100
AcDbEntity
  8
RACCORDO
100
AcDbLine
 62
7
  6
CONTINUOUS
 10
-15.562816255
 20
-9.5527842568
 11
-15.5277751043
 21
-9.5366977435
  0
LINE
  5
8C5
100
AcDbEntity
  8
RACCORDO
100
AcDbLine
 62
7
  6
CONTINUOUS
 10
-15.3407549522
 20
-8.8982347592
 11
-15.306144453
 21
-8.8827139771
  0
LINE
  5
8C6
100
AcDbEntity
  8
RACCORDO
100
AcDbLine
 62
7
  6
CONTINUOUS
 10
47.7041175802
 20
14.1326768747
 11
47.742520856
 21
14.1497771319
  0
LINE
  5
8C7
100
AcDbEntity
  8
RACCORDO
100
AcDbLine
 62
7
  6
CONTINUOUS
 10
-15.5965757306
 20
-9.5677553263
 11
-15.562816255
 21
-9.5527842568
  0
LINE
  5
8C8
100
AcDbEntity
  8
RACCORDO
100
AcDbLine
 62
7
  6
CONTINUOUS
 10
47.742520856
 20
14.1497771319
 11
47.7761245124
 21
14.1645047241
  0
LINE
  5
8C9
100
AcDbEntity
  8
RACCORDO
100
AcDbLine
 62
7
  6
CONTINUOUS
 10
-15.6288102687
 20
-9.5815030743
 11
-15.5965757306
 21
-9.5677553263
  0
LINE
  5
8CA
100
AcDbEntity
  8
RACCORDO
100
AcDbLine
 62
7
  6
CONTINUOUS
 10
44.9327581123
 20
-60.3206375689
 11
44.9463010182
 21
-60.3069811879
  0
LINE
  5
8CB
100
AcDbEntity
  8
RACCORDO
100
AcDbLine
 62
7
  6
CONTINUOUS
 10
47.2934090179
 20
-58.6044578481
 11
47.2425036157
 21
-58.6557383092
  0
LINE
  5
8CC
100
AcDbEntity
  8
RACCORDO
100
AcDbLine
 62
7
  6
CONTINUOUS
 10
45.2873059385
 20
-60.4161039194
 11
45.3086624141
 21
-60.3957570149
  0
LINE
  5
8CD
100
AcDbEntity
  8
0
100
AcDbLine
 62
7
  6
CONTINUOUS
 10
4.0516135009
 20
-24.5243946378
 11
4.0552348869
 21
-24.5224319597
  0
LINE
  5
8CE
100
AcDbEntity
  8
0
100
AcDbLine
 62
7
  6
CONTINUOUS
 10
4.3800466673
 20
-24.8748792768
 11
4.3714281161
 21
-24.879459988
  0
LINE
  5
8CF
100
AcDbEntity
  8
0
100
AcDbLine
 62
7
  6
CONTINUOUS
 10
4.3714281161
 20
-24.879459988
 11
4.3629291121
 21
-24.8836709999
  0
LINE
  5
8D0
100
AcDbEntity
  8
0
100
AcDbLine
 62
7
  6
CONTINUOUS
 10
-3.252506307
 20
-12.7463062868
 11
-3.2845527581
 21
-12.7599804117
  0
LINE
  5
8D1
100
AcDbEntity
  8
0
100
AcDbLine
 62
7
  6
CONTINUOUS
 10
-3.1786567266
 20
-12.7686607998
 11
-3.1962024492
 21
-12.776062299
  0
LINE
  5
8D2
100
AcDbEntity
  8
RACCORDO
100
AcDbLine
 62
7
  6
CONTINUOUS
 10
47.7761245124
 20
14.1645047241
 11
47.806163599
 21
14.1769890449
  0
LINE
  5
8D3
100
AcDbEntity
  8
RACCORDO
100
AcDbLine
 62
7
  6
CONTINUOUS
 10
-15.6592875953
 20
-9.5939284379
 11
-15.6288102687
 21
-9.5815030743
  0
LINE
  5
8D4
100
AcDbEntity
  8
RACCORDO
100
AcDbLine
 62
7
  6
CONTINUOUS
 10
47.806163599
 20
14.1769890449
 11
47.8330903869
 21
14.1874221302
  0
LINE
  5
8D5
100
AcDbEntity
  8
RACCORDO
100
AcDbLine
 62
7
  6
CONTINUOUS
 10
-15.6877880983
 20
-9.6049418831
 11
-15.6592875953
 21
-9.5939284379
  0
LINE
  5
8D6
100
AcDbEntity
  8
RACCORDO
100
AcDbLine
 62
7
  6
CONTINUOUS
 10
-15.3772680121
 20
-8.9119970964
 11
-15.3407549522
 21
-8.8982347592
  0
LINE
  5
8D7
100
AcDbEntity
  8
RACCORDO
100
AcDbLine
 62
7
  6
CONTINUOUS
 10
47.8330903869
 20
14.1874221302
 11
47.8566162103
 21
14.1961660973
  0
LINE
  5
8D8
100
AcDbEntity
  8
RACCORDO
100
AcDbLine
 62
7
  6
CONTINUOUS
 10
47.8566162103
 20
14.1961660973
 11
47.8768316963
 21
14.2034906302
  0
LINE
  5
8D9
100
AcDbEntity
  8
RACCORDO
100
AcDbLine
 62
7
  6
CONTINUOUS
 10
-15.71410641
 20
-9.6144640496
 11
-15.6877880983
 21
-9.6049418831
  0
LINE
  5
8DA
100
AcDbEntity
  8
RACCORDO
100
AcDbLine
 62
7
  6
CONTINUOUS
 10
16.6021287566
 20
8.7197725621
 11
16.5788631264
 21
8.7122034037
  0
LINE
  5
8DB
100
AcDbEntity
  8
RACCORDO
100
AcDbLine
 62
7
  6
CONTINUOUS
 10
16.532852552
 20
-28.3463975103
 11
16.4945617379
 21
-28.3658572385
  0
LINE
  5
8DC
100
AcDbEntity
  8
RACCORDO
100
AcDbLine
 62
7
  6
CONTINUOUS
 10
16.6098444225
 20
-27.7052742078
 11
16.5869609567
 21
-27.7166881061
  0
LINE
  5
8DD
100
AcDbEntity
  8
0
100
AcDbLine
 62
7
  6
CONTINUOUS
 10
4.3629291121
 20
-24.8836709999
 11
4.3545701328
 21
-24.8875312326
  0
LINE
  5
8DE
100
AcDbEntity
  8
0
100
AcDbLine
 62
7
  6
CONTINUOUS
 10
4.3545701328
 20
-24.8875312326
 11
4.3463305262
 21
-24.8910218825
  0
LINE
  5
8DF
100
AcDbEntity
  8
0
100
AcDbLine
 62
7
  6
CONTINUOUS
 10
4.0402672559
 20
-24.5291660972
 11
4.0516135009
 21
-24.5243946378
  0
LINE
  5
8E0
100
AcDbEntity
  8
0
100
AcDbLine
 62
7
  6
CONTINUOUS
 10
-2.7815047226
 20
-12.783066331
 11
-2.7669840731
 21
-12.7774729396
  0
LINE
  5
8E1
100
AcDbEntity
  8
0
100
AcDbLine
 62
7
  6
CONTINUOUS
 10
-1.201607782
 20
-13.6952786921
 11
-1.1870868723
 21
-13.6896852552
  0
LINE
  5
8E2
100
AcDbEntity
  8
0
100
AcDbLine
 62
7
  6
CONTINUOUS
 10
-3.1602922592
 20
-12.7620498593
 11
-3.1786567266
 21
-12.7686607998
  0
LINE
  5
8E3
100
AcDbEntity
  8
0
100
AcDbLine
 62
7
  6
CONTINUOUS
 10
-3.2193061655
 20
-12.7345283399
 11
-3.252506307
 21
-12.7463062868
  0
LINE
  5
8E4
100
AcDbEntity
  8
0
100
AcDbLine
 62
7
  6
CONTINUOUS
 10
-3.2933255311
 20
-12.7659602388
 11
-3.304501343
 21
-12.7698940939
  0
LINE
  5
8E5
100
AcDbEntity
  8
RACCORDO
100
AcDbLine
 62
7
  6
CONTINUOUS
 10
-15.7380528872
 20
-9.6224263232
 11
-15.71410641
 21
-9.6144640496
  0
LINE
  5
8E6
100
AcDbEntity
  8
RACCORDO
100
AcDbLine
 62
7
  6
CONTINUOUS
 10
-15.4154239313
 20
-8.9239031032
 11
-15.3772680121
 21
-8.9119970964
  0
LINE
  5
8E7
100
AcDbEntity
  8
RACCORDO
100
AcDbLine
 62
7
  6
CONTINUOUS
 10
16.5788631264
 20
8.7122034037
 11
16.5583094762
 21
8.7060096833
  0
LINE
  5
8E8
100
AcDbEntity
  8
RACCORDO
100
AcDbLine
 62
7
  6
CONTINUOUS
 10
45.3781837767
 20
11.6219421808
 11
45.3973943715
 21
11.6274331233
  0
LINE
  5
8E9
100
AcDbEntity
  8
RACCORDO
100
AcDbLine
 62
7
  6
CONTINUOUS
 10
44.9177309046
 20
-60.3323661302
 11
44.9327581123
 21
-60.3206375689
  0
LINE
  5
8EA
100
AcDbEntity
  8
RACCORDO
100
AcDbLine
 62
7
  6
CONTINUOUS
 10
45.2639904994
 20
-60.4336640673
 11
45.2873059385
 21
-60.4161039194
  0
LINE
  5
8EB
100
AcDbEntity
  8
0
100
AcDbLine
 62
7
  6
CONTINUOUS
 10
4.3463305262
 20
-24.8910218825
 11
4.3303909855
 21
-24.897401014
  0
LINE
  5
8EC
100
AcDbEntity
  8
0
100
AcDbLine
 62
7
  6
CONTINUOUS
 10
4.3303909855
 20
-24.897401014
 11
4.3226909447
 21
-24.9002895669
  0
LINE
  5
8ED
100
AcDbEntity
  8
0
100
AcDbLine
 62
7
  6
CONTINUOUS
 10
4.4253784407
 20
-24.8401315229
 11
4.4260283234
 21
-24.8398939206
  0
LINE
  5
8EE
100
AcDbEntity
  8
0
100
AcDbLine
 62
7
  6
CONTINUOUS
 10
-3.1409999756
 20
-12.7562013999
 11
-3.1602922592
 21
-12.7620498593
  0
LINE
  5
8EF
100
AcDbEntity
  8
0
100
AcDbLine
 62
7
  6
CONTINUOUS
 10
-3.1849971012
 20
-12.7246073732
 11
-3.2193061655
 21
-12.7345283399
  0
LINE
  5
8F0
100
AcDbEntity
  8
RACCORDO
100
AcDbLine
 62
7
  6
CONTINUOUS
 10
45.3781882296
 20
-60.0248297483
 11
45.3973990886
 21
-60.0120054984
  0
LINE
  5
8F1
100
AcDbEntity
  8
RACCORDO
100
AcDbLine
 62
7
  6
CONTINUOUS
 10
16.4945617379
 20
-28.3658572385
 11
16.4536707889
 21
-28.3813090786
  0
LINE
  5
8F2
100
AcDbEntity
  8
RACCORDO
100
AcDbLine
 62
7
  6
CONTINUOUS
 10
16.5869609567
 20
-27.7166881061
 11
16.562570894
 21
-27.725578734
  0
LINE
  5
8F3
100
AcDbEntity
  8
0
100
AcDbLine
 62
7
  6
CONTINUOUS
 10
4.3226909447
 20
-24.9002895669
 11
4.3149908507
 21
-24.9027456893
  0
LINE
  5
8F4
100
AcDbEntity
  8
0
100
AcDbLine
 62
7
  6
CONTINUOUS
 10
4.4182970475
 20
-24.8422767588
 11
4.4253784407
 21
-24.8401315229
  0
LINE
  5
8F5
100
AcDbEntity
  8
RACCORDO
100
AcDbLine
 62
7
  6
CONTINUOUS
 10
44.9012320831
 20
-60.3421880266
 11
44.9177309046
 21
-60.3323661302
  0
LINE
  5
8F6
100
AcDbEntity
  8
RACCORDO
100
AcDbLine
 62
7
  6
CONTINUOUS
 10
45.2388165455
 20
-60.4483783523
 11
45.2639904994
 21
-60.4336640673
  0
LINE
  5
8F7
100
AcDbEntity
  8
RACCORDO
100
AcDbLine
 62
7
  6
CONTINUOUS
 10
45.3576849332
 20
-60.0366462032
 11
45.3781882296
 21
-60.0248297483
  0
LINE
  5
8F8
100
AcDbEntity
  8
DRAFT
100
AcDbLine
 62
7
  6
CONTINUOUS
 10
47.3805592342
 20
-24.5717757655
 11
47.8081890407
 21
-24.4189104473
  0
LINE
  5
8F9
100
AcDbEntity
  8
0
100
AcDbLine
 62
7
  6
CONTINUOUS
 10
4.3149908507
 20
-24.9027456893
 11
4.3073653262
 21
-24.9049276715
  0
LINE
  5
8FA
100
AcDbEntity
  8
RACCORDO
100
AcDbLine
 62
7
  6
CONTINUOUS
 10
45.3360351778
 20
-60.0473707328
 11
45.3576849332
 21
-60.0366462032
  0
LINE
  5
8FB
100
AcDbEntity
  8
RACCORDO
100
AcDbLine
 62
7
  6
CONTINUOUS
 10
45.2301690956
 20
-60.452577776
 11
45.2388165455
 21
-60.4483783523
  0
LINE
  5
8FC
100
AcDbEntity
  8
RACCORDO
100
AcDbLine
 62
7
  6
CONTINUOUS
 10
45.3973990886
 20
-60.0120054984
 11
47.2425036157
 21
-59.158862172
  0
LINE
  5
8FD
100
AcDbEntity
  8
RACCORDO
100
AcDbLine
 62
7
  6
CONTINUOUS
 10
45.2301113138
 20
-60.4526044969
 11
47.0088391385
 21
-59.630152571
  0
LINE
  5
8FE
100
AcDbEntity
  8
RACCORDO
100
AcDbLine
 62
7
  6
CONTINUOUS
 10
45.217793242
 20
-60.4580793705
 11
45.2301366999
 21
-60.4525888743
  0
LINE
  5
8FF
100
AcDbEntity
  8
RACCORDO
100
AcDbLine
 62
7
  6
CONTINUOUS
 10
44.8834368572
 20
-60.3500214781
 11
44.9012320831
 21
-60.3421880266
  0
LINE
  5
900
100
AcDbEntity
  8
RACCORDO
100
AcDbLine
 62
7
  6
CONTINUOUS
 10
45.3133931046
 20
-60.0569269812
 11
45.3360351778
 21
-60.0473707328
  0
LINE
  5
901
100
AcDbEntity
  8
RACCORDO
100
AcDbLine
 62
7
  6
CONTINUOUS
 10
45.1813469544
 20
-60.471879366
 11
45.217793242
 21
-60.4580793705
  0
LINE
  5
902
100
AcDbEntity
  8
RACCORDO
100
AcDbLine
 62
7
  6
CONTINUOUS
 10
45.2899199196
 20
-60.0652469101
 11
45.3133931046
 21
-60.0569269812
  0
LINE
  5
903
100
AcDbEntity
  8
RACCORDO
100
AcDbLine
 62
7
  6
CONTINUOUS
 10
44.8643355303
 20
-60.3558481481
 11
44.8834368572
 21
-60.3500214781
  0
LINE
  5
904
100
AcDbEntity
  8
RACCORDO
100
AcDbLine
 62
7
  6
CONTINUOUS
 10
45.2657827463
 20
-60.0722712837
 11
45.2899199196
 21
-60.0652469101
  0
LINE
  5
905
100
AcDbEntity
  8
RACCORDO
100
AcDbLine
 62
7
  6
CONTINUOUS
 10
45.1432234622
 20
-60.4827820203
 11
45.1813469544
 21
-60.471879366
  0
ELLIPSE
  5
906
100
AcDbEntity
  8
RACCORDO
100
AcDbEllipse
 62
7
  6
CONTINUOUS
 10
46.5344264394
 20
-58.7477878608
 30
0.0
 11
-0.5013954353
 21
0.868386877
 31
0.0
 40
0.5757524875
 41
-3.1936911674
 42
-2.3576120761
  0
ELLIPSE
  5
907
100
AcDbEntity
  8
RACCORDO
100
AcDbEllipse
 62
7
  6
CONTINUOUS
 10
46.5344264394
 20
13.0993555375
 30
0.0
 11
-0.5000243598
 21
0.8660113392
 31
0.0
 40
0.5789151826
 41
-2.3548735497
 42
-0.7868162787
  0
ELLIPSE
  5
908
100
AcDbEntity
  8
0
100
AcDbEllipse
 62
7
  6
CONTINUOUS
 10
122.6901304824
 20
53.8809517772
 30
0.0
 11
111.5409348807
 21
128.3466174189
 31
0.0
 40
0.4029729773
 41
-3.7734299492
 42
-3.7672052666
  0
ELLIPSE
  5
909
100
AcDbEntity
  8
0
100
AcDbEllipse
 62
7
  6
CONTINUOUS
 10
117.8300820792
 20
56.6870828144
 30
0.0
 11
27.6951435486
 21
170.7397539322
 31
0.0
 40
0.7069483398
 41
-4.1183397783
 42
-4.1015657091
  0
ELLIPSE
  5
90A
100
AcDbEntity
  8
0
100
AcDbEllipse
 62
7
  6
CONTINUOUS
 10
122.7754954988
 20
53.8316630866
 30
0.0
 11
112.236268736
 21
127.9318388222
 31
0.0
 40
0.3975597956
 41
-3.7637364601
 42
-3.7603859388
  0
ELLIPSE
  5
90B
100
AcDbEntity
  8
0
100
AcDbEllipse
 62
7
  6
CONTINUOUS
 10
118.1974227061
 20
56.4749849404
 30
0.0
 11
70.634700218
 21
152.2499801326
 31
0.0
 40
0.6282888553
 41
-3.9123018102
 42
-3.8955277411
  0
ELLIPSE
  5
90C
100
AcDbEntity
  8
0
100
AcDbEllipse
 62
7
  6
CONTINUOUS
 10
114.6340382269
 20
58.5324384789
 30
0.0
 11
11.1145125674
 21
175.7752122584
 31
0.0
 40
0.7158559188
 41
-4.1973507117
 42
-4.188040463
  0
ELLIPSE
  5
90D
100
AcDbEntity
  8
0
100
AcDbEllipse
 62
7
  6
CONTINUOUS
 10
118.2676563886
 20
56.4344328923
 30
0.0
 11
91.793176838
 21
140.2511436908
 31
0.0
 40
0.5363054271
 41
-3.8203221232
 42
-3.8093664661
  0
ELLIPSE
  5
90E
100
AcDbEntity
  8
0
100
AcDbEllipse
 62
7
  6
CONTINUOUS
 10
122.1375232183
 20
54.2000202857
 30
0.0
 11
119.630873242
 21
123.5739552196
 31
0.0
 40
0.3382731367
 41
-3.7657029519
 42
-3.7547929514
  0
ELLIPSE
  5
90F
100
AcDbEntity
  8
0
100
AcDbEllipse
 62
7
  6
CONTINUOUS
 10
119.0115898467
 20
56.0048950373
 30
0.0
 11
114.8996317544
 21
126.3505868295
 31
0.0
 40
0.3765254089
 41
-3.7743605251
 42
-3.7575864559
  0
ELLIPSE
  5
910
100
AcDbEntity
  8
0
100
AcDbEllipse
 62
7
  6
CONTINUOUS
 10
112.8208670774
 20
59.5793407763
 30
0.0
 11
34.8790515577
 21
168.2218372011
 31
0.0
 40
0.7002280922
 41
-4.083553027
 42
-4.0720093448
  0
ELLIPSE
  5
911
100
AcDbEntity
  8
DRAFT
100
AcDbEllipse
 62
7
  6
CONTINUOUS
 10
43.0340704194
 20
-18.3214415034
 30
0.0
 11
5.1478346794
 21
0.9575482268
 31
0.0
 40
0.6665647798
 41
-0.7006982462
 42
-0.2750682551
  0
ELLIPSE
  5
912
100
AcDbEntity
  8
0
100
AcDbEllipse
 62
7
  6
CONTINUOUS
 10
-12.6486644347
 20
-8.0022482253
 30
0.0
 11
-0.4000194878
 21
0.6928090714
 31
0.0
 40
0.5789151826
 41
0.7867191038
 42
2.3547763749
  0
ELLIPSE
  5
913
100
AcDbEntity
  8
RACCORDO
100
AcDbEllipse
 62
7
  6
CONTINUOUS
 10
-38.3164465127
 20
62.0911861488
 30
0.0
 11
-0.5013954353
 21
0.868386877
 31
0.0
 40
0.5757524875
 41
-0.7840766935
 42
0.0520985859
  0
ELLIPSE
  5
914
100
AcDbEntity
  8
0
100
AcDbEllipse
 62
7
  6
CONTINUOUS
 10
117.8868995899
 20
56.6542770959
 30
0.0
 11
39.144967187
 21
166.622327116
 31
0.0
 40
0.6952787603
 41
-4.0582033802
 42
-4.0519786976
  0
ELLIPSE
  5
915
100
AcDbEntity
  8
0
100
AcDbEllipse
 62
7
  6
CONTINUOUS
 10
122.6270947988
 20
53.9173477908
 30
0.0
 11
114.2761852079
 21
126.7196181975
 31
0.0
 40
0.3814884295
 41
-3.7749362596
 42
-3.7581621904
  0
ELLIPSE
  5
916
100
AcDbEntity
  8
0
100
AcDbEllipse
 62
7
  6
CONTINUOUS
 10
112.0361818178
 20
60.0324082108
 30
0.0
 11
25.1523857375
 21
171.4190137311
 31
0.0
 40
0.7088651675
 41
-4.1294456824
 42
-4.1136276763
  0
ELLIPSE
  5
917
100
AcDbEntity
  8
0
100
AcDbEllipse
 62
7
  6
CONTINUOUS
 10
118.2966834841
 20
56.4176730112
 30
0.0
 11
111.878972645
 21
127.9702912935
 31
0.0
 40
0.3995644544
 41
-3.7764422127
 42
-3.7658593517
  0
ELLIPSE
  5
918
100
AcDbEntity
  8
0
100
AcDbEllipse
 62
7
  6
CONTINUOUS
 10
117.766904783
 20
56.7235605935
 30
0.0
 11
36.2948103059
 21
167.6997948705
 31
0.0
 40
0.6986691259
 41
-4.0632503059
 42
-4.0598997846
  0
ELLIPSE
  5
919
100
AcDbEntity
  8
0
100
AcDbEllipse
 62
7
  6
CONTINUOUS
 10
118.0785348436
 20
56.5436293021
 30
0.0
 11
74.7266798953
 21
149.8826902858
 31
0.0
 40
0.6139811386
 41
-3.8877681049
 42
-3.8768482551
  0
ELLIPSE
  5
91A
100
AcDbEntity
  8
0
100
AcDbEllipse
 62
7
  6
CONTINUOUS
 10
114.2440245279
 20
58.7576275007
 30
0.0
 11
10.3174595334
 21
175.8321184433
 31
0.0
 40
0.7160762854
 41
-4.1951584555
 42
-4.1843514627
  0
ELLIPSE
  5
91B
100
AcDbEntity
  8
0
100
AcDbEllipse
 62
7
  6
CONTINUOUS
 10
118.0929785322
 20
56.5352896973
 30
0.0
 11
93.9929009386
 21
138.7583599347
 31
0.0
 40
0.5232362147
 41
-3.8175129253
 42
-3.8016949217
  0
ELLIPSE
  5
91C
100
AcDbEntity
  8
0
100
AcDbEllipse
 62
7
  6
CONTINUOUS
 10
121.7206010737
 20
54.4407459067
 30
0.0
 11
119.0820080186
 21
123.7206245819
 31
0.0
 40
0.3418816387
 41
-3.7706765582
 42
-3.7623289378
  0
ELLIPSE
  5
91D
100
AcDbEntity
  8
0
100
AcDbEllipse
 62
7
  6
CONTINUOUS
 10
117.766904783
 20
56.7235605935
 30
0.0
 11
36.2622945329
 21
167.5495560783
 31
0.0
 40
0.6986691259
 41
-4.0631746043
 42
-4.0598210564
  0
ELLIPSE
  5
91E
100
AcDbEntity
  8
0
100
AcDbEllipse
 62
7
  6
CONTINUOUS
 10
121.7206010737
 20
54.4407459067
 30
0.0
 11
119.1887867979
 21
123.8315627285
 31
0.0
 40
0.3418816387
 41
-3.7717111746
 42
-3.7624009259
  0
ELLIPSE
  5
91F
100
AcDbEntity
  8
0
100
AcDbEllipse
 62
7
  6
CONTINUOUS
 10
122.6270947988
 20
53.9173477908
 30
0.0
 11
114.1738075272
 21
126.6060927015
 31
0.0
 40
0.3814884295
 41
-3.7739014683
 42
-3.7580834622
  0
ELLIPSE
  5
920
100
AcDbEntity
  8
0
100
AcDbEllipse
 62
7
  6
CONTINUOUS
 10
117.8868995899
 20
56.6542770959
 30
0.0
 11
39.1098980172
 21
166.4730536049
 31
0.0
 40
0.6952787603
 41
-4.0581356351
 42
-4.0519053363
  0
ELLIPSE
  5
921
100
AcDbEntity
  8
0
100
AcDbEllipse
 62
7
  6
CONTINUOUS
 10
118.0929785322
 20
56.5352896973
 30
0.0
 11
94.077182749
 21
138.8827821588
 31
0.0
 40
0.5232362147
 41
-3.8185477191
 42
-3.8017736499
  0
ELLIPSE
  5
922
100
AcDbEntity
  8
0
100
AcDbEllipse
 62
7
  6
CONTINUOUS
 10
114.2440245279
 20
58.7576275007
 30
0.0
 11
10.3267110211
 21
175.9897840662
 31
0.0
 40
0.7160762854
 41
-4.1952272933
 42
-4.1842716361
  0
ELLIPSE
  5
923
100
AcDbEntity
  8
0
100
AcDbEllipse
 62
7
  6
CONTINUOUS
 10
118.0785348436
 20
56.5436293021
 30
0.0
 11
74.7936860181
 21
150.0170875047
 31
0.0
 40
0.6139811386
 41
-3.8878369839
 42
-3.8769269833
  0
ELLIPSE
  5
924
100
AcDbEntity
  8
0
100
AcDbEllipse
 62
7
  6
CONTINUOUS
 10
118.2966834841
 20
56.4176730112
 30
0.0
 11
111.9792925869
 21
128.0850400428
 31
0.0
 40
0.3995644544
 41
-3.7774770381
 42
-3.7659333559
  0
ELLIPSE
  5
925
100
AcDbEntity
  8
0
100
AcDbEllipse
 62
7
  6
CONTINUOUS
 10
112.0361818178
 20
60.0324082108
 30
0.0
 11
25.1749394473
 21
171.5727221992
 31
0.0
 40
0.7088651675
 41
-4.1304804737
 42
-4.1137064045
  0
ELLIPSE
  5
926
100
AcDbEntity
  8
DRAFT
100
AcDbEllipse
 62
7
  6
CONTINUOUS
 10
43.0340704194
 20
-23.7282206743
 30
0.0
 11
5.1774686765
 21
-0.6785096723
 31
0.0
 40
0.4693271057
 41
-0.5159119978
 42
-0.0902820066
  0
ENDSEC
  0
SECTION
  2
OBJECTS
  0
DICTIONARY
  5
C
100
AcDbDictionary
280
0
281
1
  3
ACAD_GROUP
350
D
  3
ACAD_MLINESTYLE
350
17
  3
ACAD_LAYOUT
350
1A
  3
ACAD_PLOTSETTINGS
350
19
  3
ACAD_PLOTSTYLENAME
350
E
  0
DICTIONARY
  5
D
102
{ACAD_REACTORS
330
C
102
}
100
AcDbDictionary
280
0
281
1
  0
ACDBDICTIONARYWDFLT
  5
E
102
{ACAD_REACTORS
330
C
102
}
100
AcDbDictionary
281
1
  3
Normal
350
F
100
AcDbDictionaryWithDefault
340
F
  0
DICTIONARY
  5
17
102
{ACAD_REACTORS
330
C
102
}
100
AcDbDictionary
280
0
281
1
  3
Standard
350
18
  0
DICTIONARY
  5
19
102
{ACAD_REACTORS
330
C
102
}
100
AcDbDictionary
281
1
  0
DICTIONARY
  5
1A
102
{ACAD_REACTORS
330
C
102
}
100
AcDbDictionary
281
1
  3
Model
350
927
  3
Layout1
350
928
  0
ACDBPLACEHOLDER
  5
F
102
{ACAD_REACTORS
330
E
102
}
  0
MLINESTYLE
  5
18
102
{ACAD_REACTORS
330
17
102
}
100
AcDbMlineStyle
  2
STANDARD
 70
0
  3

 62
256
 51
90.0
 52
90.0
 71
2
 49
0.5
 62
256
  6
BYLAYER
 49
-0.5
 62
256
  6
BYLAYER
  0
LAYOUT
  5
927
102
{ACAD_REACTORS
330
1A
102
}
100
AcDbPlotSettings
  1

  2
none_device
  4
ISO_A4_(297.00_x_210.00_MM)
  6

 40
0.0
 41
0.0
 42
0.0
 43
0.0
 44
297.0
 45
210.0
 46
0.0
 47
0.0
 48
0.0
 49
0.0
140
0.0
141
0.0
142
1.0
143
1.0
 70
1024
 72
1
 73
0
 74
0
  7

 75
0
147
1.0
148
0.0
149
0.0
100
AcDbLayout
  1
Model
 70
0
 71
0
 10
0.0
 20
0.0
 11
297.0
 21
210.0
 12
0.0
 22
0.0
 32
0.0
 14
0.0
 24
0.0
 34
0.0
 15
0.0
 25
0.0
 35
0.0
146
0.0
 13
0.0
 23
0.0
 33
0.0
 16
1.0
 26
0.0
 36
0.0
 17
0.0
 27
1.0
 37
0.0
 76
0
330
212
345
0
346
0
  0
LAYOUT
  5
928
102
{ACAD_REACTORS
330
1A
102
}
100
AcDbPlotSettings
  1

  2
none_device
  4
ISO_A4_(297.00_x_210.00_MM)
  6

 40
0.0
 41
0.0
 42
0.0
 43
0.0
 44
297.0
 45
210.0
 46
0.0
 47
0.0
 48
0.0
 49
0.0
140
0.0
141
0.0
142
1.0
143
1.0
 70
0
 72
1
 73
0
 74
0
  7

 75
0
147
1.0
148
0.0
149
0.0
100
AcDbLayout
  1
Layout1
 70
0
 71
1
 10
0.0
 20
0.0
 11
297.0
 21
210.0
 12
0.0
 22
0.0
 32
0.0
 14
0.0
 24
0.0
 34
0.0
 15
0.0
 25
0.0
 35
0.0
146
0.0
 13
0.0
 23
0.0
 33
0.0
 16
1.0
 26
0.0
 36
0.0
 17
0.0
 27
1.0
 37
0.0
 76
0
330
213
345
0
346
0
  0
ENDSEC
  0
EOF
