  0
SECTION
  2
HEADER
  9
$ACADVER
  1
AC1021
  9
$DWGCODEPAGE
  3
ANSI_1252
  9
$EXTMAX
 10
297.0
 20
210.0
 30
0.0
  9
$EXTMIN
 10
0.0
 20
0.0
 30
0.0
  9
$LIMMIN
 10
0.0
 20
0.0
  9
$LIMMAX
 10
297.0
 20
210.0
  9
$VIEWCTR
 10
148.5
 20
105.0
  9
$VIEWSIZE
 40
210.0
  9
$CLAYER
  8
0
  9
$LTSCALE
 40
16.335
  9
$CELTYPE
  6
BYLAYER
  9
$DIMSCALE
 40
1.0
  9
$DIMASZ
 40
3.0
  9
$DIMEXO
 40
0.5
  9
$DIMDLI
 40
11.286
  9
$DIMEXE
 40
1.5
  9
$DIMCEN
 40
2.673
  9
$DIMLFAC
 40
1.0
  9
$DIMBLK
  1
_FILLED
  9
$DIMALT
 70
0
  9
$DIMALTF
 40
25.4
  9
$DIMTXT
 40
3.0
  9
$DIMTOL
 70
1
  9
$DIMLIM
 70
0
  9
$DIMTFAC
 40
1.0
  9
$DIMTP
 40
0.01
  9
$DIMTM
 40
0.01
  9
$DIMGAP
 40
0.625
  9
$DIMDSEP
 70
44
  9
$AUNITS
 70
0
  9
$PDMODE
 70
3
  9
$PDSIZE
 40
3.0
  9
$HANDSEED
  5
846
  9
$TILEMODE
 70
1
  9
$MEASUREMENT
 70
1
  9
$INSUNITS
 70
4
  0
ENDSEC
  0
SECTION
  2
CLASSES
  0
CLASS
  1
ACDBDICTIONARYWDFLT
  2
AcDbDictionaryWithDefault
  3
AutoCAD 2000
 90
0
 91
1
280
0
281
0
  0
CLASS
  1
ACDBPLACEHOLDER
  2
AcDbPlaceHolder
  3
AutoCAD 2000
 90
0
 91
1
280
0
281
0
  0
CLASS
  1
LAYOUT
  2
AcDbLayout
  3
AutoCAD 2000
 90
0
 91
0
280
0
281
0
  0
ENDSEC
  0
SECTION
  2
TABLES
  0
TABLE
  2
VPORT
  5
8
100
AcDbSymbolTable
 70
2
  0
VPORT
  5
1F4
100
AcDbSymbolTableRecord
100
AcDbViewportTableRecord
  2
*ACTIVE
 70
0
 10
0.0
 20
0.0
 11
1.0
 21
1.0
 12
148.5
 22
105.0
 13
0.0
 23
0.0
 14
1.0
 24
1.0
 15
0.0
 25
0.0
 16
0.0
 26
0.0
 36
1.0
 17
0.0
 27
0.0
 37
0.0
 40
210.0
 41
1.4142857143
 42
50.0
 43
0.0
 44
0.0
 50
0.0
 51
0.0
 71
0
 72
100
 73
1
 74
1
 75
0
 76
0
 77
0
 78
0
  0
ENDTAB
  0
TABLE
  2
LTYPE
  5
5
100
AcDbSymbolTable
 70
6
  0
LTYPE
  5
14
100
AcDbSymbolTableRecord
100
AcDbLinetypeTableRecord
  2
BYBLOCK
 70
0
  3

 72
65
 73
0
 40
0.0
  0
LTYPE
  5
15
100
AcDbSymbolTableRecord
100
AcDbLinetypeTableRecord
  2
BYLAYER
 70
0
  3

 72
65
 73
0
 40
0.0
  0
LTYPE
  5
16
100
AcDbSymbolTableRecord
100
AcDbLinetypeTableRecord
  2
CONTINUOUS
 70
64
  3
Solid line
 72
65
 73
0
 40
0.0
  0
LTYPE
  5
1F5
100
AcDbSymbolTableRecord
100
AcDbLinetypeTableRecord
  2
CENTER
 70
64
  3
____ _ ____ _ ____ _ ____ _ ____ _ ____ _ ____
 72
65
 73
4
 40
0.6
 49
0.375
 74
0
 49
-0.075
 74
0
 49
0.075
 74
0
 49
-0.075
 74
0
  0
LTYPE
  5
1F6
100
AcDbSymbolTableRecord
100
AcDbLinetypeTableRecord
  2
HIDDEN
 70
64
  3
- - - - - - - - - - - - - - - - - - - -
 72
65
 73
2
 40
0.2
 49
0.1
 74
0
 49
-0.1
 74
0
  0
LTYPE
  5
1F7
100
AcDbSymbolTableRecord
100
AcDbLinetypeTableRecord
  2
PHANTOM
 70
64
  3
_____ _ _ _____ _ _ _____ _ _ _____
 72
65
 73
6
 40
0.8
 49
0.45
 74
0
 49
-0.05
 74
0
 49
0.1
 74
0
 49
-0.05
 74
0
 49
0.1
 74
0
 49
-0.05
 74
0
  0
LTYPE
  5
1F8
100
AcDbSymbolTableRecord
100
AcDbLinetypeTableRecord
  2
DOT
 70
64
  3
. . . . . . . . . . . . . . . . . . . .
 72
65
 73
2
 40
0.2
 49
0.1
 74
0
 49
-0.1
 74
0
  0
LTYPE
  5
1F9
100
AcDbSymbolTableRecord
100
AcDbLinetypeTableRecord
  2
DASHED
 70
64
  3
- - - - - - - - - - - - - - - - - - - -
 72
65
 73
2
 40
0.2
 49
0.1
 74
0
 49
-0.1
 74
0
  0
ENDTAB
  0
TABLE
  2
LAYER
  5
2
100
AcDbSymbolTable
 70
36
  0
LAYER
  5
10
100
AcDbSymbolTableRecord
100
AcDbLayerTableRecord
  2
0
 70
0
 62
7
  6
CONTINUOUS
370
-3
390
F
  0
LAYER
  5
1FA
100
AcDbSymbolTableRecord
100
AcDbLayerTableRecord
  2
DEFAULT_1
 70
0
 62
7
  6
CENTER
370
-3
390
F
  0
LAYER
  5
1FB
100
AcDbSymbolTableRecord
100
AcDbLayerTableRecord
  2
DEFAULT_2
 70
0
 62
7
  6
HIDDEN
370
-3
390
F
  0
LAYER
  5
1FC
100
AcDbSymbolTableRecord
100
AcDbLayerTableRecord
  2
DEFAULT_3
 70
0
 62
7
  6
PHANTOM
370
-3
390
F
  0
LAYER
  5
1FD
100
AcDbSymbolTableRecord
100
AcDbLayerTableRecord
  2
ASSI
 70
0
 62
7
  6
CONTINUOUS
370
-3
390
F
  0
LAYER
  5
1FE
100
AcDbSymbolTableRecord
100
AcDbLayerTableRecord
  2
COORDINATE
 70
0
 62
7
  6
CONTINUOUS
370
-3
390
F
  0
LAYER
  5
1FF
100
AcDbSymbolTableRecord
100
AcDbLayerTableRecord
  2
COPY_PUBLISH
 70
0
 62
7
  6
CONTINUOUS
370
-3
390
F
  0
LAYER
  5
200
100
AcDbSymbolTableRecord
100
AcDbLayerTableRecord
  2
COSMETIC
 70
0
 62
7
  6
CONTINUOUS
370
-3
390
F
  0
LAYER
  5
201
100
AcDbSymbolTableRecord
100
AcDbLayerTableRecord
  2
COSMETICI
 70
0
 62
7
  6
CONTINUOUS
370
-3
390
F
  0
LAYER
  5
202
100
AcDbSymbolTableRecord
100
AcDbLayerTableRecord
  2
CURVE
 70
0
 62
7
  6
CONTINUOUS
370
-3
390
F
  0
LAYER
  5
203
100
AcDbSymbolTableRecord
100
AcDbLayerTableRecord
  2
DRAFT
 70
0
 62
7
  6
CONTINUOUS
370
-3
390
F
  0
LAYER
  5
204
100
AcDbSymbolTableRecord
100
AcDbLayerTableRecord
  2
IMPORT_IGES
 70
0
 62
7
  6
CONTINUOUS
370
-3
390
F
  0
LAYER
  5
205
100
AcDbSymbolTableRecord
100
AcDbLayerTableRecord
  2
INTFCLR_1
 70
0
 62
7
  6
CONTINUOUS
370
-3
390
F
  0
LAYER
  5
206
100
AcDbSymbolTableRecord
100
AcDbLayerTableRecord
  2
NOTE
 70
0
 62
7
  6
CONTINUOUS
370
-3
390
F
  0
LAYER
  5
207
100
AcDbSymbolTableRecord
100
AcDbLayerTableRecord
  2
PIANI
 70
0
 62
7
  6
CONTINUOUS
370
-3
390
F
  0
LAYER
  5
208
100
AcDbSymbolTableRecord
100
AcDbLayerTableRecord
  2
PUNTI
 70
0
 62
7
  6
CONTINUOUS
370
-3
390
F
  0
LAYER
  5
209
100
AcDbSymbolTableRecord
100
AcDbLayerTableRecord
  2
RACCORDO
 70
0
 62
7
  6
CONTINUOUS
370
-3
390
F
  0
LAYER
  5
20A
100
AcDbSymbolTableRecord
100
AcDbLayerTableRecord
  2
SIMBOLI
 70
0
 62
7
  6
CONTINUOUS
370
-3
390
F
  0
LAYER
  5
20B
100
AcDbSymbolTableRecord
100
AcDbLayerTableRecord
  2
SMUSSO
 70
0
 62
7
  6
CONTINUOUS
370
-3
390
F
  0
LAYER
  5
20C
100
AcDbSymbolTableRecord
100
AcDbLayerTableRecord
  2
SNAPLINE
 70
0
 62
7
  6
CONTINUOUS
370
-3
390
F
  0
LAYER
  5
20D
100
AcDbSymbolTableRecord
100
AcDbLayerTableRecord
  2
SUPERFICI
 70
0
 62
7
  6
CONTINUOUS
370
-3
390
F
  0
LAYER
  5
20E
100
AcDbSymbolTableRecord
100
AcDbLayerTableRecord
  2
TRASH
 70
0
 62
7
  6
CONTINUOUS
370
-3
390
F
  0
LAYER
  5
20F
100
AcDbSymbolTableRecord
100
AcDbLayerTableRecord
  2
XSEC_DATUMS
 70
0
 62
7
  6
CONTINUOUS
370
-3
390
F
  0
ENDTAB
  0
TABLE
  2
STYLE
  5
3
100
AcDbSymbolTable
 70
1
  0
STYLE
  5
11
100
AcDbSymbolTableRecord
100
AcDbTextStyleTableRecord
  2
STANDARD
 70
0
 40
0.0
 41
0.8
 50
0.0
 71
0
 42
0.2
  3
txt
  4

  0
STYLE
  5
210
100
AcDbSymbolTableRecord
100
AcDbTextStyleTableRecord
  2
TEXTSTYLE_1
 70
0
 40
0.0
 41
0.8
 50
0.0
 71
0
 42
0.2
  3
gdt
  4

  0
ENDTAB
  0
TABLE
  2
VIEW
  5
6
100
AcDbSymbolTable
 70
0
  0
ENDTAB
  0
TABLE
  2
UCS
  5
7
100
AcDbSymbolTable
 70
0
  0
ENDTAB
  0
TABLE
  2
APPID
  5
9
100
AcDbSymbolTable
 70
1
  0
APPID
  5
211
100
AcDbSymbolTableRecord
100
AcDbRegAppTableRecord
  2
ACAD
 70
0
  0
ENDTAB
  0
TABLE
  2
BLOCK_RECORD
  5
1
100
AcDbSymbolTable
 70
0
  0
BLOCK_RECORD
  5
212
100
AcDbSymbolTableRecord
100
AcDbBlockTableRecord
  2
*Model_Space
  0
BLOCK_RECORD
  5
213
100
AcDbSymbolTableRecord
100
AcDbBlockTableRecord
  2
*Paper_Space
  0
BLOCK_RECORD
  5
214
100
AcDbSymbolTableRecord
100
AcDbBlockTableRecord
  2
_FILLED
  0
ENDTAB
  0
TABLE
  2
DIMSTYLE
  5
A
100
AcDbSymbolTable
 70
1
100
AcDbDimStyleTable
 71
0
  0
DIMSTYLE
105
215
100
AcDbSymbolTableRecord
100
AcDbDimStyleTableRecord
  2
STANDARD
 70
0
  3

  4

 40
1.0
 41
3.0
 42
0.5
 43
0.38
 44
1.5
 45
0.0
 46
0.0
 47
0.01
 48
0.01
140
3.0
141
0.09
142
0.0
143
25.4
144
1.0
145
0.0
146
1.0
147
0.625
 71
1.0
 72
0.0
 73
0
 74
0
 75
0
 76
0
 77
1
 78
8
 79
2
170
0
171
1
172
0
173
0
174
0
175
0
176
0
177
0
178
0
270
2
179
2
271
2
272
2
273
2
274
2
275
0
280
0
281
0
282
0
283
1
284
8
285
0
286
0
287
3
288
0
340
11
278
44
341
214
342
214
343
214
344
214
  0
ENDTAB
  0
ENDSEC
  0
SECTION
  2
BLOCKS
  0
BLOCK
  5
20
100
AcDbEntity
  8
0
100
AcDbBlockBegin
  2
*Model_Space
 70
0
 10
0.0
 20
0.0
 30
0.0
  3
*Model_Space
  1

  0
ENDBLK
  5
21
100
AcDbEntity
  8
0
100
AcDbBlockEnd
  0
BLOCK
  5
1C
100
AcDbEntity
  8
0
100
AcDbBlockBegin
  2
*Paper_Space
 70
0
 10
0.0
 20
0.0
 30
0.0
  3
*Paper_Space
  1

  0
ENDBLK
  5
1D
100
AcDbEntity
  8
0
100
AcDbBlockEnd
  0
BLOCK
  5
216
100
AcDbEntity
  8
0
100
AcDbBlockBegin
  2
_FILLED
 70
64
 10
0.0
 20
0.0
  3
_FILLED
  1

  0
SOLID
  5
217
100
AcDbEntity
  8
0
  6
BYBLOCK
 62
0
100
AcDbTrace
 10
0.0
 20
0.0
 11
-1.0
 21
0.1333333333
 12
-1.0
 22
-0.1333333333
 13
-1.0
 23
-0.1333333333
  0
ENDBLK
  5
218
100
AcDbEntity
  8
0
  6
BYBLOCK
 62
0
100
AcDbBlockEnd
  0
ENDSEC
  0
SECTION
  2
ENTITIES
  0
LINE
  5
219
100
AcDbEntity
  8
0
100
AcDbLine
 62
7
  6
CONTINUOUS
 10
3.0610721781
 20
-24.2886592356
 11
3.0630326575
 21
-24.3068982653
  0
LINE
  5
21A
100
AcDbEntity
  8
0
100
AcDbLine
 62
7
  6
CONTINUOUS
 10
3.3381326846
 20
-24.5219334353
 11
3.3415989219
 21
-24.5558216868
  0
LINE
  5
21B
100
AcDbEntity
  8
0
100
AcDbLine
 62
7
  6
CONTINUOUS
 10
-19.8605656994
 20
4.2107319033
 11
-19.8633911306
 21
4.2387188865
  0
LINE
  5
21C
100
AcDbEntity
  8
RACCORDO
100
AcDbLine
 62
7
  6
CONTINUOUS
 10
-42.9698505689
 20
-1.7548003935
 11
-42.7879786696
 21
-3.5678894563
  0
LINE
  5
21D
100
AcDbEntity
  8
RACCORDO
100
AcDbLine
 62
7
  6
CONTINUOUS
 10
-43.0584750085
 20
-1.6257619172
 11
-42.8752680101
 21
-3.452644647
  0
LINE
  5
21E
100
AcDbEntity
  8
RACCORDO
100
AcDbLine
 62
7
  6
CONTINUOUS
 10
-43.2188215082
 20
0.2187058695
 11
-43.0584750085
 21
-1.6257619172
  0
LINE
  5
21F
100
AcDbEntity
  8
RACCORDO
100
AcDbLine
 62
7
  6
CONTINUOUS
 10
-43.1292032165
 20
0.0756870112
 11
-42.9698505689
 21
-1.7548003935
  0
LINE
  5
220
100
AcDbEntity
  8
0
100
AcDbLine
 62
7
  6
CONTINUOUS
 10
-2.4680241021
 20
-22.6043390429
 11
-2.5241322757
 21
-21.8750766055
  0
LINE
  5
221
100
AcDbEntity
  8
0
100
AcDbLine
 62
7
  6
CONTINUOUS
 10
2.223137127
 20
-25.3129570064
 11
2.1676659623
 21
-24.5922667712
  0
LINE
  5
222
100
AcDbEntity
  8
0
100
AcDbLine
 62
7
  6
CONTINUOUS
 10
2.5282388401
 20
-25.6120728975
 11
2.4733365168
 21
-24.8983362857
  0
LINE
  5
223
100
AcDbEntity
  8
0
100
AcDbLine
 62
7
  6
CONTINUOUS
 10
-2.5744985172
 20
-22.6658160357
 11
-2.6305561053
 21
-21.9365237687
  0
LINE
  5
224
100
AcDbEntity
  8
0
100
AcDbLine
 62
7
  6
CONTINUOUS
 10
-2.1612596574
 20
-22.9044149743
 11
-2.2173172456
 21
-22.1751227073
  0
LINE
  5
225
100
AcDbEntity
  8
0
100
AcDbLine
 62
7
  6
CONTINUOUS
 10
2.1166627118
 20
-25.3744339993
 11
2.061241559
 21
-24.6537142795
  0
LINE
  5
226
100
AcDbEntity
  8
RACCORDO
100
AcDbLine
 62
7
  6
CONTINUOUS
 10
-43.2660047308
 20
1.9232068223
 11
-43.1292032165
 21
0.0756870112
  0
LINE
  5
227
100
AcDbEntity
  8
RACCORDO
100
AcDbLine
 62
7
  6
CONTINUOUS
 10
-43.3562765819
 20
2.0804026772
 11
-43.2188215082
 21
0.2187058695
  0
LINE
  5
228
100
AcDbEntity
  8
0
100
AcDbLine
 62
7
  6
CONTINUOUS
 10
2.4733365168
 20
-24.8983362857
 11
2.4627800378
 21
-24.7553027965
  0
LINE
  5
229
100
AcDbEntity
  8
0
100
AcDbLine
 62
7
  6
CONTINUOUS
 10
3.1015900907
 20
-24.9655755004
 11
3.1006558535
 21
-24.9526073891
  0
LINE
  5
22A
100
AcDbEntity
  8
0
100
AcDbLine
 62
7
  6
CONTINUOUS
 10
2.061241559
 20
-24.6537142795
 11
2.009423153
 21
-23.9305648807
  0
LINE
  5
22B
100
AcDbEntity
  8
0
100
AcDbLine
 62
7
  6
CONTINUOUS
 10
2.1676659623
 20
-24.5922667712
 11
2.1158007931
 21
-23.8691443502
  0
LINE
  5
22C
100
AcDbEntity
  8
0
100
AcDbLine
 62
7
  6
CONTINUOUS
 10
-2.6305561053
 20
-21.9365237687
 11
-2.6829248591
 21
-21.2047440442
  0
LINE
  5
22D
100
AcDbEntity
  8
0
100
AcDbLine
 62
7
  6
CONTINUOUS
 10
-2.5241322757
 20
-21.8750766055
 11
-2.5765482887
 21
-21.1433241444
  0
LINE
  5
22E
100
AcDbEntity
  8
0
100
AcDbLine
 62
7
  6
CONTINUOUS
 10
-2.2173172456
 20
-22.1751227073
 11
-2.2696859993
 21
-21.4433429827
  0
LINE
  5
22F
100
AcDbEntity
  8
0
100
AcDbLine
 62
7
  6
CONTINUOUS
 10
2.4232036462
 20
-24.3879594596
 11
2.3818434752
 21
-23.7843230567
  0
LINE
  5
230
100
AcDbEntity
  8
RACCORDO
100
AcDbLine
 62
7
  6
CONTINUOUS
 10
-24.4613951587
 20
-4.3169615537
 11
-24.4637183724
 21
-4.2822789385
  0
LINE
  5
231
100
AcDbEntity
  8
RACCORDO
100
AcDbLine
 62
7
  6
CONTINUOUS
 10
-25.1476351513
 20
-4.3481102267
 11
-25.1514205436
 21
-4.2914488819
  0
LINE
  5
232
100
AcDbEntity
  8
0
100
AcDbLine
 62
7
  6
CONTINUOUS
 10
-2.5765482887
 20
-21.1433241444
 11
-2.6170285986
 21
-20.5366675341
  0
LINE
  5
233
100
AcDbEntity
  8
0
100
AcDbLine
 62
7
  6
CONTINUOUS
 10
2.1158007931
 20
-23.8691443502
 11
2.0746653197
 21
-23.2535466842
  0
LINE
  5
234
100
AcDbEntity
  8
0
100
AcDbLine
 62
7
  6
CONTINUOUS
 10
2.009423153
 20
-23.9305648807
 11
1.9612100894
 21
-23.2050220272
  0
LINE
  5
235
100
AcDbEntity
  8
0
100
AcDbLine
 62
7
  6
CONTINUOUS
 10
-2.6829248591
 20
-21.2047440442
 11
-2.7316021046
 21
-20.4705142278
  0
LINE
  5
236
100
AcDbEntity
  8
0
100
AcDbLine
 62
7
  6
CONTINUOUS
 10
-2.2696859993
 20
-21.4433429827
 11
-2.3183632448
 21
-20.7091131663
  0
LINE
  5
237
100
AcDbEntity
  8
RACCORDO
100
AcDbLine
 62
7
  6
CONTINUOUS
 10
-43.3802234598
 20
3.7873808352
 11
-43.2660047308
 21
1.9232068223
  0
LINE
  5
238
100
AcDbEntity
  8
RACCORDO
100
AcDbLine
 62
7
  6
CONTINUOUS
 10
-43.4708137482
 20
3.9588926716
 11
-43.3562765819
 21
2.0804026772
  0
LINE
  5
239
100
AcDbEntity
  8
RACCORDO
100
AcDbLine
 62
7
  6
CONTINUOUS
 10
-24.1851513752
 20
31.9451803583
 11
-24.1835942483
 21
31.9155836991
  0
LINE
  5
23A
100
AcDbEntity
  8
RACCORDO
100
AcDbLine
 62
7
  6
CONTINUOUS
 10
-43.471834892
 20
5.667832079
 11
-43.3802234598
 21
3.7873808352
  0
LINE
  5
23B
100
AcDbEntity
  8
RACCORDO
100
AcDbLine
 62
7
  6
CONTINUOUS
 10
-43.5596994272
 20
5.7897071583
 11
-43.4708137482
 21
3.9588926716
  0
LINE
  5
23C
100
AcDbEntity
  8
RACCORDO
100
AcDbLine
 62
7
  6
CONTINUOUS
 10
-25.1514205436
 20
-4.2914488819
 11
-25.2723142539
 21
-1.3800136726
  0
LINE
  5
23D
100
AcDbEntity
  8
RACCORDO
100
AcDbLine
 62
7
  6
CONTINUOUS
 10
-24.4637187819
 20
-4.2822791744
 11
-24.5844931069
 21
-1.3737490157
  0
LINE
  5
23E
100
AcDbEntity
  8
RACCORDO
100
AcDbLine
 62
7
  6
CONTINUOUS
 10
-43.674928913
 20
8.7487418481
 11
-43.5596994272
 21
5.7897070703
  0
LINE
  5
23F
100
AcDbEntity
  8
RACCORDO
100
AcDbLine
 62
7
  6
CONTINUOUS
 10
-43.5887728553
 20
8.6751418273
 11
-43.471834964
 21
5.6678321206
  0
LINE
  5
240
100
AcDbEntity
  8
RACCORDO
100
AcDbLine
 62
7
  6
CONTINUOUS
 10
-25.2723142539
 20
-1.3800136726
 11
-25.3712376721
 21
1.5438215977
  0
LINE
  5
241
100
AcDbEntity
  8
RACCORDO
100
AcDbLine
 62
7
  6
CONTINUOUS
 10
-24.5844931069
 20
-1.3737490157
 11
-24.6833102361
 21
1.5467819971
  0
LINE
  5
242
100
AcDbEntity
  8
0
100
AcDbLine
 62
7
  6
CONTINUOUS
 10
-19.8595787299
 20
4.1812100237
 11
-19.8605656994
 21
4.2107319033
  0
LINE
  5
243
100
AcDbEntity
  8
RACCORDO
100
AcDbLine
 62
7
  6
CONTINUOUS
 10
-43.7712615942
 20
11.7812948319
 11
-43.674928913
 21
8.7487418481
  0
LINE
  5
244
100
AcDbEntity
  8
RACCORDO
100
AcDbLine
 62
7
  6
CONTINUOUS
 10
-43.6844666799
 20
11.6972782167
 11
-43.5887728553
 21
8.6751418273
  0
LINE
  5
245
100
AcDbEntity
  8
RACCORDO
100
AcDbLine
 62
7
  6
CONTINUOUS
 10
-25.3712376721
 20
1.5438215977
 11
-25.4481846228
 21
4.4798651275
  0
LINE
  5
246
100
AcDbEntity
  8
RACCORDO
100
AcDbLine
 62
7
  6
CONTINUOUS
 10
-24.6833102361
 20
1.5467819971
 11
-24.7601701696
 21
4.479313864
  0
LINE
  5
247
100
AcDbEntity
  8
RACCORDO
100
AcDbLine
 62
7
  6
CONTINUOUS
 10
-43.8461898829
 20
14.828429373
 11
-43.7712615942
 21
11.7812948319
  0
LINE
  5
248
100
AcDbEntity
  8
RACCORDO
100
AcDbLine
 62
7
  6
CONTINUOUS
 10
-43.7589067884
 20
14.7340294777
 11
-43.6844666799
 21
11.6972782167
  0
LINE
  5
249
100
AcDbEntity
  8
RACCORDO
100
AcDbLine
 62
7
  6
CONTINUOUS
 10
-25.4481846228
 20
4.4798651275
 11
-25.5031504106
 21
7.4279243758
  0
LINE
  5
24A
100
AcDbEntity
  8
RACCORDO
100
AcDbLine
 62
7
  6
CONTINUOUS
 10
-24.7601701696
 20
4.479313864
 11
-24.8150750797
 21
7.424040692
  0
LINE
  5
24B
100
AcDbEntity
  8
RACCORDO
100
AcDbLine
 62
7
  6
CONTINUOUS
 10
-43.8997070639
 20
17.8899042917
 11
-43.8461898829
 21
14.828429373
  0
LINE
  5
24C
100
AcDbEntity
  8
RACCORDO
100
AcDbLine
 62
7
  6
CONTINUOUS
 10
-43.8120854626
 20
17.7852209377
 11
-43.7589067884
 21
14.7340294777
  0
LINE
  5
24D
100
AcDbEntity
  8
RACCORDO
100
AcDbLine
 62
7
  6
CONTINUOUS
 10
-24.184729168
 20
-5.8552516112
 11
-24.185151375
 21
-5.8249505872
  0
LINE
  5
24E
100
AcDbEntity
  8
RACCORDO
100
AcDbLine
 62
7
  6
CONTINUOUS
 10
-25.5031504106
 20
7.4279243758
 11
-25.536131494
 21
10.3878057647
  0
LINE
  5
24F
100
AcDbEntity
  8
RACCORDO
100
AcDbLine
 62
7
  6
CONTINUOUS
 10
-24.8150750797
 20
7.424040692
 11
-24.848022794
 21
10.3807683741
  0
LINE
  5
250
100
AcDbEntity
  8
RACCORDO
100
AcDbLine
 62
7
  6
CONTINUOUS
 10
-43.9318108635
 20
20.9655039544
 11
-43.8997070639
 21
17.8899042917
  0
LINE
  5
251
100
AcDbEntity
  8
RACCORDO
100
AcDbLine
 62
7
  6
CONTINUOUS
 10
-43.8439953037
 20
20.850600925
 11
-43.8120854626
 21
17.7852209377
  0
LINE
  5
252
100
AcDbEntity
  8
RACCORDO
100
AcDbLine
 62
7
  6
CONTINUOUS
 10
-43.5596912835
 20
42.7968673705
 11
-43.5597266814
 21
42.8048760868
  0
LINE
  5
253
100
AcDbEntity
  8
RACCORDO
100
AcDbLine
 62
7
  6
CONTINUOUS
 10
-25.536131494
 20
10.3878057647
 11
-25.5471254892
 21
13.3593146906
  0
LINE
  5
254
100
AcDbEntity
  8
RACCORDO
100
AcDbLine
 62
7
  6
CONTINUOUS
 10
-24.848022794
 20
10.3807683741
 11
-24.8590067954
 21
13.348914589
  0
LINE
  5
255
100
AcDbEntity
  8
RACCORDO
100
AcDbLine
 62
7
  6
CONTINUOUS
 10
-43.9425
 20
24.0550235692
 11
-43.9318108635
 21
20.9655039544
  0
LINE
  5
256
100
AcDbEntity
  8
RACCORDO
100
AcDbLine
 62
7
  6
CONTINUOUS
 10
-43.8546320425
 20
23.9298391209
 11
-43.8439953037
 21
20.850600925
  0
LINE
  5
257
100
AcDbEntity
  8
0
100
AcDbLine
 62
7
  6
CONTINUOUS
 10
-22.4051631422
 20
-3.0936802202
 11
-22.4051631422
 21
30.7570206214
  0
LINE
  5
258
100
AcDbEntity
  8
0
100
AcDbLine
 62
7
  6
CONTINUOUS
 10
-22.0516097516
 20
30.3416924972
 11
-22.0516097516
 21
3.3981733631
  0
LINE
  5
259
100
AcDbEntity
  8
0
100
AcDbLine
 62
7
  6
CONTINUOUS
 10
-19.8595787299
 20
4.1812100237
 11
-19.8595787299
 21
1.0640877971
  0
LINE
  5
25A
100
AcDbEntity
  8
RACCORDO
100
AcDbLine
 62
7
  6
CONTINUOUS
 10
-43.9317736135
 20
27.1582492934
 11
-43.9425
 21
24.0550235692
  0
LINE
  5
25B
100
AcDbEntity
  8
RACCORDO
100
AcDbLine
 62
7
  6
CONTINUOUS
 10
-43.8439953095
 20
27.0227185093
 11
-43.8546320425
 21
23.9298391209
  0
LINE
  5
25C
100
AcDbEntity
  8
RACCORDO
100
AcDbLine
 62
7
  6
CONTINUOUS
 10
-25.5471254892
 20
13.3593146906
 11
-25.5361314946
 21
16.3422559298
  0
LINE
  5
25D
100
AcDbEntity
  8
RACCORDO
100
AcDbLine
 62
7
  6
CONTINUOUS
 10
-24.8590067954
 20
13.348914589
 11
-24.8480227053
 21
16.3284825321
  0
LINE
  5
25E
100
AcDbEntity
  8
RACCORDO
100
AcDbLine
 62
7
  6
CONTINUOUS
 10
-43.8996332837
 20
30.2749657119
 11
-43.9317736135
 21
27.1582492934
  0
LINE
  5
25F
100
AcDbEntity
  8
RACCORDO
100
AcDbLine
 62
7
  6
CONTINUOUS
 10
-43.8120854727
 20
30.1290206511
 11
-43.8439953095
 21
27.0227185093
  0
LINE
  5
260
100
AcDbEntity
  8
RACCORDO
100
AcDbLine
 62
7
  6
CONTINUOUS
 10
-25.5361314946
 20
16.3422559298
 11
-25.5031504116
 21
19.3364337154
  0
LINE
  5
261
100
AcDbEntity
  8
RACCORDO
100
AcDbLine
 62
7
  6
CONTINUOUS
 10
-24.8480227053
 20
16.3284825321
 11
-24.8150749023
 21
19.3194690079
  0
LINE
  5
262
100
AcDbEntity
  8
RACCORDO
100
AcDbLine
 62
7
  6
CONTINUOUS
 10
-24.184729168
 20
31.9759689257
 11
-24.1851513752
 21
31.9451803583
  0
LINE
  5
263
100
AcDbEntity
  8
RACCORDO
100
AcDbLine
 62
7
  6
CONTINUOUS
 10
-41.9249918947
 20
61.1910519801
 11
-41.9247996689
 21
61.2027706425
  0
LINE
  5
264
100
AcDbEntity
  8
RACCORDO
100
AcDbLine
 62
7
  6
CONTINUOUS
 10
-43.8460810133
 20
33.4049658806
 11
-43.8996332837
 21
30.2749657119
  0
LINE
  5
265
100
AcDbEntity
  8
RACCORDO
100
AcDbLine
 62
7
  6
CONTINUOUS
 10
-43.7589068007
 20
33.2484088018
 11
-43.8120854727
 21
30.1290206511
  0
LINE
  5
266
100
AcDbEntity
  8
RACCORDO
100
AcDbLine
 62
7
  6
CONTINUOUS
 10
-25.5031504116
 20
19.3364337154
 11
-25.4481846242
 21
22.3416514385
  0
LINE
  5
267
100
AcDbEntity
  8
RACCORDO
100
AcDbLine
 62
7
  6
CONTINUOUS
 10
-24.8150749023
 20
19.3194690079
 11
-24.7601700044
 21
22.3212821097
  0
LINE
  5
268
100
AcDbEntity
  8
RACCORDO
100
AcDbLine
 62
7
  6
CONTINUOUS
 10
-43.6844666917
 20
36.3806222472
 11
-43.7589068007
 21
33.2484088018
  0
LINE
  5
269
100
AcDbEntity
  8
RACCORDO
100
AcDbLine
 62
7
  6
CONTINUOUS
 10
-43.7711197981
 20
36.5480307444
 11
-43.8460810133
 21
33.4049658806
  0
LINE
  5
26A
100
AcDbEntity
  8
RACCORDO
100
AcDbLine
 62
7
  6
CONTINUOUS
 10
-25.4481846242
 20
22.3416514385
 11
-25.3712376734
 21
25.3577116808
  0
LINE
  5
26B
100
AcDbEntity
  8
RACCORDO
100
AcDbLine
 62
7
  6
CONTINUOUS
 10
-24.7601700044
 20
22.3212821097
 11
-24.6833102179
 21
25.3337245349
  0
LINE
  5
26C
100
AcDbEntity
  8
RACCORDO
100
AcDbLine
 62
7
  6
CONTINUOUS
 10
-43.6747570761
 20
39.7039100545
 11
-43.7711197981
 21
36.5480307444
  0
LINE
  5
26D
100
AcDbEntity
  8
RACCORDO
100
AcDbLine
 62
7
  6
CONTINUOUS
 10
-43.5887728631
 20
39.525477901
 11
-43.6844666917
 21
36.3806222472
  0
LINE
  5
26E
100
AcDbEntity
  8
0
100
AcDbLine
 62
7
  6
CONTINUOUS
 10
-19.8605656994
 20
1.0334261899
 11
-19.8595787299
 21
1.0640877971
  0
LINE
  5
26F
100
AcDbEntity
  8
RACCORDO
100
AcDbLine
 62
7
  6
CONTINUOUS
 10
-25.3712376734
 20
25.3577116808
 11
-25.2723142549
 21
28.3844162298
  0
LINE
  5
270
100
AcDbEntity
  8
RACCORDO
100
AcDbLine
 62
7
  6
CONTINUOUS
 10
-24.6833102179
 20
25.3337245349
 11
-24.5844933366
 21
28.3569935861
  0
LINE
  5
271
100
AcDbEntity
  8
RACCORDO
100
AcDbLine
 62
7
  6
CONTINUOUS
 10
-43.4718349635
 20
42.6827528097
 11
-43.5887728631
 21
39.525477901
  0
LINE
  5
272
100
AcDbEntity
  8
RACCORDO
100
AcDbLine
 62
7
  6
CONTINUOUS
 10
-43.5597266794
 20
42.8048761361
 11
-43.6747570761
 21
39.7039100545
  0
LINE
  5
273
100
AcDbEntity
  8
RACCORDO
100
AcDbLine
 62
7
  6
CONTINUOUS
 10
-25.2723142549
 20
28.3844162298
 11
-25.1514205436
 21
31.4215661534
  0
LINE
  5
274
100
AcDbEntity
  8
RACCORDO
100
AcDbLine
 62
7
  6
CONTINUOUS
 10
-24.5844933366
 20
28.3569935861
 11
-24.4637193606
 21
31.3910892631
  0
LINE
  5
275
100
AcDbEntity
  8
RACCORDO
100
AcDbLine
 62
7
  6
CONTINUOUS
 10
-43.4705859033
 20
44.7546184831
 11
-43.5597266786
 21
42.8048760867
  0
LINE
  5
276
100
AcDbEntity
  8
RACCORDO
100
AcDbLine
 62
7
  6
CONTINUOUS
 10
-43.3802234644
 20
44.6806804038
 11
-43.4718348915
 21
42.6827527681
  0
LINE
  5
277
100
AcDbEntity
  8
RACCORDO
100
AcDbLine
 62
7
  6
CONTINUOUS
 10
-24.185151375
 20
-5.8249505872
 11
-24.1835942466
 21
-5.7935557868
  0
LINE
  5
278
100
AcDbEntity
  8
RACCORDO
100
AcDbLine
 62
7
  6
CONTINUOUS
 10
-43.3560348276
 20
46.7791731136
 11
-43.4705859033
 21
44.7546184831
  0
LINE
  5
279
100
AcDbEntity
  8
RACCORDO
100
AcDbLine
 62
7
  6
CONTINUOUS
 10
-43.2660047381
 20
46.6913121764
 11
-43.3802234644
 21
44.6806804038
  0
LINE
  5
27A
100
AcDbEntity
  8
RACCORDO
100
AcDbLine
 62
7
  6
CONTINUOUS
 10
-25.1514205436
 20
31.4215661534
 11
-25.1477014756
 21
31.478918757
  0
LINE
  5
27B
100
AcDbEntity
  8
RACCORDO
100
AcDbLine
 62
7
  6
CONTINUOUS
 10
-24.4637192245
 20
31.391089326
 11
-24.4614225267
 21
31.4261207763
  0
LINE
  5
27C
100
AcDbEntity
  8
RACCORDO
100
AcDbLine
 62
7
  6
CONTINUOUS
 10
-43.2185866492
 20
48.8161630515
 11
-43.3560348276
 21
46.7791731136
  0
LINE
  5
27D
100
AcDbEntity
  8
RACCORDO
100
AcDbLine
 62
7
  6
CONTINUOUS
 10
-43.1292032212
 20
48.7142428108
 11
-43.2660047381
 21
46.6913121764
  0
LINE
  5
27E
100
AcDbEntity
  8
RACCORDO
100
AcDbLine
 62
7
  6
CONTINUOUS
 10
-43.0582712545
 20
50.8651169295
 11
-43.2185866492
 21
48.8161630515
  0
LINE
  5
27F
100
AcDbEntity
  8
RACCORDO
100
AcDbLine
 62
7
  6
CONTINUOUS
 10
-42.9698505562
 20
50.7490622632
 11
-43.1292032212
 21
48.7142428108
  0
LINE
  5
280
100
AcDbEntity
  8
RACCORDO
100
AcDbLine
 62
7
  6
CONTINUOUS
 10
-42.8751230514
 20
52.9256365654
 11
-43.0582712545
 21
50.8651169295
  0
LINE
  5
281
100
AcDbEntity
  8
RACCORDO
100
AcDbLine
 62
7
  6
CONTINUOUS
 10
-42.787978626
 20
52.7953630742
 11
-42.9698505562
 21
50.7490622632
  0
LINE
  5
282
100
AcDbEntity
  8
0
100
AcDbLine
 62
7
  6
CONTINUOUS
 10
-19.8633911306
 20
1.0021764696
 11
-19.8605656994
 21
1.0334261899
  0
LINE
  5
283
100
AcDbEntity
  8
RACCORDO
100
AcDbLine
 62
7
  6
CONTINUOUS
 10
-42.5836191279
 20
54.8527406376
 11
-42.787978626
 21
52.7953630742
  0
LINE
  5
284
100
AcDbEntity
  8
RACCORDO
100
AcDbLine
 62
7
  6
CONTINUOUS
 10
-42.669176058
 20
54.9973538254
 11
-42.8751230514
 21
52.9256365654
  0
LINE
  5
285
100
AcDbEntity
  8
RACCORDO
100
AcDbLine
 62
7
  6
CONTINUOUS
 10
-24.1835942466
 20
-5.7935557868
 11
-24.1800665026
 21
-5.7612430113
  0
LINE
  5
286
100
AcDbEntity
  8
RACCORDO
100
AcDbLine
 62
7
  6
CONTINUOUS
 10
-42.3568129454
 20
56.9207834895
 11
-42.5836191279
 21
54.8527406376
  0
LINE
  5
287
100
AcDbEntity
  8
RACCORDO
100
AcDbLine
 62
7
  6
CONTINUOUS
 10
-42.4404688011
 20
57.0798707802
 11
-42.669176058
 21
54.9973538254
  0
LINE
  5
288
100
AcDbEntity
  8
RACCORDO
100
AcDbLine
 62
7
  6
CONTINUOUS
 10
-25.1477014756
 20
31.478918757
 11
-25.1411902918
 21
31.5347244881
  0
LINE
  5
289
100
AcDbEntity
  8
RACCORDO
100
AcDbLine
 62
7
  6
CONTINUOUS
 10
-24.4614225267
 20
31.4261207763
 11
-24.4574087021
 21
31.4604872203
  0
LINE
  5
28A
100
AcDbEntity
  8
RACCORDO
100
AcDbLine
 62
7
  6
CONTINUOUS
 10
-42.1076105595
 20
58.9990732052
 11
-42.3568129454
 21
56.9207834895
  0
LINE
  5
28B
100
AcDbEntity
  8
RACCORDO
100
AcDbLine
 62
7
  6
CONTINUOUS
 10
-42.1890583611
 20
59.1727050345
 11
-42.4404688011
 21
57.0798707802
  0
LINE
  5
28C
100
AcDbEntity
  8
RACCORDO
100
AcDbLine
 62
7
  6
CONTINUOUS
 10
-41.9247996689
 20
61.2027706425
 11
-41.9245955834
 21
61.2044502077
  0
LINE
  5
28D
100
AcDbEntity
  8
RACCORDO
100
AcDbLine
 62
7
  6
CONTINUOUS
 10
-41.8360648578
 20
61.0871918845
 11
-42.1076105595
 21
58.9990732052
  0
LINE
  5
28E
100
AcDbEntity
  8
RACCORDO
100
AcDbLine
 62
7
  6
CONTINUOUS
 10
-41.9245952647
 20
61.2044525675
 11
-42.1890583611
 21
59.1727050345
  0
LINE
  5
28F
100
AcDbEntity
  8
RACCORDO
100
AcDbLine
 62
7
  6
CONTINUOUS
 10
-41.9170346782
 20
61.2521266118
 11
-41.9245910831
 21
61.2044495996
  0
LINE
  5
290
100
AcDbEntity
  8
RACCORDO
100
AcDbLine
 62
7
  6
CONTINUOUS
 10
-41.8301673119
 20
61.1239109322
 11
-41.8360648578
 21
61.0871918845
  0
LINE
  5
291
100
AcDbEntity
  8
RACCORDO
100
AcDbLine
 62
7
  6
CONTINUOUS
 10
-25.1411902918
 20
31.5347244881
 11
-25.1318869702
 21
31.5889833566
  0
LINE
  5
292
100
AcDbEntity
  8
RACCORDO
100
AcDbLine
 62
7
  6
CONTINUOUS
 10
-24.4574087021
 20
31.4604872203
 11
-24.4516438318
 21
31.4940555405
  0
LINE
  5
293
100
AcDbEntity
  8
RACCORDO
100
AcDbLine
 62
7
  6
CONTINUOUS
 10
-41.2553445554
 20
61.4344894527
 11
-41.251092551
 21
61.4581910676
  0
LINE
  5
294
100
AcDbEntity
  8
RACCORDO
100
AcDbLine
 62
7
  6
CONTINUOUS
 10
-41.9051486464
 20
61.3082118042
 11
-41.9170346782
 21
61.2521266118
  0
LINE
  5
295
100
AcDbEntity
  8
RACCORDO
100
AcDbLine
 62
7
  6
CONTINUOUS
 10
-41.8226447127
 20
61.1593025761
 11
-41.8301673119
 21
61.1239109322
  0
LINE
  5
296
100
AcDbEntity
  8
RACCORDO
100
AcDbLine
 62
7
  6
CONTINUOUS
 10
-41.251092551
 20
61.4581910676
 11
-41.245220845
 21
61.4823070657
  0
LINE
  5
297
100
AcDbEntity
  8
RACCORDO
100
AcDbLine
 62
7
  6
CONTINUOUS
 10
-41.8134972787
 20
61.1933667335
 11
-41.8226447127
 21
61.1593025761
  0
LINE
  5
298
100
AcDbEntity
  8
RACCORDO
100
AcDbLine
 62
7
  6
CONTINUOUS
 10
-41.8903972466
 20
61.362123235
 11
-41.9051486464
 21
61.3082118042
  0
LINE
  5
299
100
AcDbEntity
  8
RACCORDO
100
AcDbLine
 62
7
  6
CONTINUOUS
 10
-41.245220845
 20
61.4823070657
 11
-41.2377759645
 21
61.5066463086
  0
LINE
  5
29A
100
AcDbEntity
  8
RACCORDO
100
AcDbLine
 62
7
  6
CONTINUOUS
 10
-41.8026777848
 20
61.2262207681
 11
-41.8134972787
 21
61.1933667335
  0
LINE
  5
29B
100
AcDbEntity
  8
RACCORDO
100
AcDbLine
 62
7
  6
CONTINUOUS
 10
-41.8728834334
 20
61.4137887592
 11
-41.8903972466
 21
61.362123235
  0
LINE
  5
29C
100
AcDbEntity
  8
RACCORDO
100
AcDbLine
 62
7
  6
CONTINUOUS
 10
-41.2377759645
 20
61.5066463086
 11
-41.2288169062
 21
61.5310158868
  0
LINE
  5
29D
100
AcDbEntity
  8
RACCORDO
100
AcDbLine
 62
7
  6
CONTINUOUS
 10
-41.7902338347
 20
61.2577471725
 11
-41.8026777848
 21
61.2262207681
  0
LINE
  5
29E
100
AcDbEntity
  8
RACCORDO
100
AcDbLine
 62
7
  6
CONTINUOUS
 10
-41.8526886395
 20
61.4631691731
 11
-41.8728834334
 21
61.4137887592
  0
LINE
  5
29F
100
AcDbEntity
  8
RACCORDO
100
AcDbLine
 62
7
  6
CONTINUOUS
 10
-41.2288169062
 20
61.5310158868
 11
-41.2184146689
 21
61.5552226471
  0
LINE
  5
2A0
100
AcDbEntity
  8
RACCORDO
100
AcDbLine
 62
7
  6
CONTINUOUS
 10
43.6580672064
 20
-60.412138922
 11
43.6795615424
 21
-60.410312364
  0
LINE
  5
2A1
100
AcDbEntity
  8
RACCORDO
100
AcDbLine
 62
7
  6
CONTINUOUS
 10
44.0017012373
 20
-60.1371833462
 11
44.0267470753
 21
-60.1357441423
  0
LINE
  5
2A2
100
AcDbEntity
  8
RACCORDO
100
AcDbLine
 62
7
  6
CONTINUOUS
 10
43.8580890108
 20
-60.5475
 11
43.899252307
 21
-60.5459252393
  0
LINE
  5
2A3
100
AcDbEntity
  8
RACCORDO
100
AcDbLine
 62
7
  6
CONTINUOUS
 10
43.976873148
 20
-60.1371752625
 11
44.0017012373
 21
-60.1371833462
  0
LINE
  5
2A4
100
AcDbEntity
  8
RACCORDO
100
AcDbLine
 62
7
  6
CONTINUOUS
 10
43.6354551962
 20
-60.4119308529
 11
43.6580672064
 21
-60.412138922
  0
LINE
  5
2A5
100
AcDbEntity
  8
RACCORDO
100
AcDbLine
 62
7
  6
CONTINUOUS
 10
43.8163930849
 20
-60.5459579104
 11
43.8580890108
 21
-60.5475
  0
LINE
  5
2A6
100
AcDbEntity
  8
RACCORDO
100
AcDbLine
 62
7
  6
CONTINUOUS
 10
43.9524395774
 20
-60.1357199488
 11
43.976873148
 21
-60.1371752625
  0
LINE
  5
2A7
100
AcDbEntity
  8
RACCORDO
100
AcDbLine
 62
7
  6
CONTINUOUS
 10
43.6117467527
 20
-60.4097109826
 11
43.6354551962
 21
-60.4119308529
  0
LINE
  5
2A8
100
AcDbEntity
  8
RACCORDO
100
AcDbLine
 62
7
  6
CONTINUOUS
 10
43.7743105688
 20
-60.5413606622
 11
43.8163930849
 21
-60.5459579104
  0
LINE
  5
2A9
100
AcDbEntity
  8
RACCORDO
100
AcDbLine
 62
7
  6
CONTINUOUS
 10
43.9285744866
 20
-60.1328277664
 11
43.9524395774
 21
-60.1357199488
  0
LINE
  5
2AA
100
AcDbEntity
  8
RACCORDO
100
AcDbLine
 62
7
  6
CONTINUOUS
 10
43.5872095204
 20
-60.4055213163
 11
43.6117467527
 21
-60.4097109826
  0
LINE
  5
2AB
100
AcDbEntity
  8
RACCORDO
100
AcDbLine
 62
7
  6
CONTINUOUS
 10
43.7318298519
 20
-60.5337611574
 11
43.7743105688
 21
-60.5413606622
  0
LINE
  5
2AC
100
AcDbEntity
  8
RACCORDO
100
AcDbLine
 62
7
  6
CONTINUOUS
 10
43.9054477892
 20
-60.1285193071
 11
43.9285744866
 21
-60.1328277664
  0
LINE
  5
2AD
100
AcDbEntity
  8
RACCORDO
100
AcDbLine
 62
7
  6
CONTINUOUS
 10
23.0791396258
 20
-33.0797658819
 11
23.027219365
 21
-33.0696322562
  0
LINE
  5
2AE
100
AcDbEntity
  8
0
100
AcDbLine
 62
7
  6
CONTINUOUS
 10
2.7925138594
 20
-24.5797471497
 11
2.807823204
 21
-24.5827997643
  0
LINE
  5
2AF
100
AcDbEntity
  8
0
100
AcDbLine
 62
7
  6
CONTINUOUS
 10
3.1188388917
 20
-24.9572710718
 11
3.1099386523
 21
-24.9554903421
  0
LINE
  5
2B0
100
AcDbEntity
  8
0
100
AcDbLine
 62
7
  6
CONTINUOUS
 10
3.2158271248
 20
-24.8939645877
 11
3.2242118164
 21
-24.8957559914
  0
LINE
  5
2B1
100
AcDbEntity
  8
RACCORDO
100
AcDbLine
 62
7
  6
CONTINUOUS
 10
23.2834436744
 20
-32.4150603526
 11
23.2524823034
 21
-32.4080935058
  0
LINE
  5
2B2
100
AcDbEntity
  8
RACCORDO
100
AcDbLine
 62
7
  6
CONTINUOUS
 10
43.5618551764
 20
-60.3993481472
 11
43.5872095204
 21
-60.4055213163
  0
LINE
  5
2B3
100
AcDbEntity
  8
RACCORDO
100
AcDbLine
 62
7
  6
CONTINUOUS
 10
43.6889771949
 20
-60.5231956537
 11
43.7318298519
 21
-60.5337611574
  0
LINE
  5
2B4
100
AcDbEntity
  8
RACCORDO
100
AcDbLine
 62
7
  6
CONTINUOUS
 10
43.8832241418
 20
-60.1228252461
 11
43.9054477892
 21
-60.1285193071
  0
LINE
  5
2B5
100
AcDbEntity
  8
0
100
AcDbLine
 62
7
  6
CONTINUOUS
 10
2.7767310148
 20
-24.5755847132
 11
2.7925138594
 21
-24.5797471497
  0
LINE
  5
2B6
100
AcDbEntity
  8
RACCORDO
100
AcDbLine
 62
7
  6
CONTINUOUS
 10
23.027219365
 20
-33.0696322562
 11
22.9739994311
 21
-33.0552464799
  0
LINE
  5
2B7
100
AcDbEntity
  8
RACCORDO
100
AcDbLine
 62
7
  6
CONTINUOUS
 10
23.2524823034
 20
-32.4080935058
 11
23.220870193
 21
-32.39852107
  0
LINE
  5
2B8
100
AcDbEntity
  8
0
100
AcDbLine
 62
7
  6
CONTINUOUS
 10
3.1099386523
 20
-24.9554903421
 11
3.1006558535
 21
-24.9526073891
  0
LINE
  5
2B9
100
AcDbEntity
  8
RACCORDO
100
AcDbLine
 62
7
  6
CONTINUOUS
 10
43.5356712418
 20
-60.3912058157
 11
43.5618551764
 21
-60.3993481472
  0
LINE
  5
2BA
100
AcDbEntity
  8
RACCORDO
100
AcDbLine
 62
7
  6
CONTINUOUS
 10
43.645742942
 20
-60.5096759542
 11
43.6889771949
 21
-60.5231956537
  0
LINE
  5
2BB
100
AcDbEntity
  8
0
100
AcDbLine
 62
7
  6
CONTINUOUS
 10
2.760636734
 20
-24.5705466982
 11
2.7767310148
 21
-24.5755847132
  0
LINE
  5
2BC
100
AcDbEntity
  8
0
100
AcDbLine
 62
7
  6
CONTINUOUS
 10
3.2070594518
 20
-24.891171285
 11
3.2158271248
 21
-24.8939645877
  0
LINE
  5
2BD
100
AcDbEntity
  8
RACCORDO
100
AcDbLine
 62
7
  6
CONTINUOUS
 10
43.8620617714
 20
-60.1157861236
 11
43.8832241418
 21
-60.1228252461
  0
LINE
  5
2BE
100
AcDbEntity
  8
RACCORDO
100
AcDbLine
 62
7
  6
CONTINUOUS
 10
22.9739994311
 20
-33.0552464799
 11
22.9202657074
 21
-33.0369260933
  0
LINE
  5
2BF
100
AcDbEntity
  8
0
100
AcDbLine
 62
7
  6
CONTINUOUS
 10
2.7442289579
 20
-24.5646402956
 11
2.760636734
 21
-24.5705466982
  0
LINE
  5
2C0
100
AcDbEntity
  8
RACCORDO
100
AcDbLine
 62
7
  6
CONTINUOUS
 10
-25.0870439804
 20
-4.3223808675
 11
-25.0516564347
 21
-4.3351818092
  0
LINE
  5
2C1
100
AcDbEntity
  8
RACCORDO
100
AcDbLine
 62
7
  6
CONTINUOUS
 10
43.5088891758
 20
-60.3811783595
 11
43.5356712418
 21
-60.3912058157
  0
LINE
  5
2C2
100
AcDbEntity
  8
RACCORDO
100
AcDbLine
 62
7
  6
CONTINUOUS
 10
23.220870193
 20
-32.39852107
 11
23.1888081307
 21
-32.3864485749
  0
LINE
  5
2C3
100
AcDbEntity
  8
RACCORDO
100
AcDbLine
 62
7
  6
CONTINUOUS
 10
43.6021301223
 20
-60.4932145552
 11
43.645742942
 21
-60.5096759542
  0
LINE
  5
2C4
100
AcDbEntity
  8
0
100
AcDbLine
 62
7
  6
CONTINUOUS
 10
2.4881981234
 20
-23.7229152158
 11
2.5248275994
 21
-23.7374934383
  0
LINE
  5
2C5
100
AcDbEntity
  8
0
100
AcDbLine
 62
7
  6
CONTINUOUS
 10
2.418578208
 20
-23.7989487542
 11
2.3818434752
 21
-23.7843230567
  0
LINE
  5
2C6
100
AcDbEntity
  8
0
100
AcDbLine
 62
7
  6
CONTINUOUS
 10
2.727509624
 20
-24.5578583958
 11
2.7442289579
 21
-24.5646402956
  0
LINE
  5
2C7
100
AcDbEntity
  8
RACCORDO
100
AcDbLine
 62
7
  6
CONTINUOUS
 10
22.9202657074
 20
-33.0369260933
 11
22.8662795759
 21
-33.014777313
  0
LINE
  5
2C8
100
AcDbEntity
  8
RACCORDO
100
AcDbLine
 62
7
  6
CONTINUOUS
 10
43.842111349
 20
-60.1074520565
 11
43.8620617714
 21
-60.1157861236
  0
LINE
  5
2C9
100
AcDbEntity
  8
0
100
AcDbLine
 62
7
  6
CONTINUOUS
 10
1.9612100894
 20
-23.2050220272
 11
2.0030239497
 21
-23.2225629729
  0
LINE
  5
2CA
100
AcDbEntity
  8
0
100
AcDbLine
 62
7
  6
CONTINUOUS
 10
2.0030239497
 20
-23.2225629729
 11
2.0448358363
 21
-23.2404863194
  0
LINE
  5
2CB
100
AcDbEntity
  8
0
100
AcDbLine
 62
7
  6
CONTINUOUS
 10
2.4551408874
 20
-23.814786596
 11
2.418578208
 21
-23.7989487542
  0
LINE
  5
2CC
100
AcDbEntity
  8
0
100
AcDbLine
 62
7
  6
CONTINUOUS
 10
2.5248275994
 20
-23.7374934383
 11
2.5613099747
 21
-23.7532926925
  0
LINE
  5
2CD
100
AcDbEntity
  8
RACCORDO
100
AcDbLine
 62
7
  6
CONTINUOUS
 10
43.4815859883
 20
-60.3692939044
 11
43.5088891758
 21
-60.3811783595
  0
LINE
  5
2CE
100
AcDbEntity
  8
0
100
AcDbLine
 62
7
  6
CONTINUOUS
 10
-20.7229948579
 20
4.8423966992
 11
-20.6888242609
 21
4.8274797112
  0
LINE
  5
2CF
100
AcDbEntity
  8
0
100
AcDbLine
 62
7
  6
CONTINUOUS
 10
2.0448358363
 20
-23.2404863194
 11
2.0866456964
 21
-23.2587921016
  0
LINE
  5
2D0
100
AcDbEntity
  8
RACCORDO
100
AcDbLine
 62
7
  6
CONTINUOUS
 10
-25.1203777095
 20
-4.3077685794
 11
-25.0870439804
 21
-4.3223808675
  0
LINE
  5
2D1
100
AcDbEntity
  8
RACCORDO
100
AcDbLine
 62
7
  6
CONTINUOUS
 10
43.5581653602
 20
-60.4738223802
 11
43.6021301223
 21
-60.4932145552
  0
LINE
  5
2D2
100
AcDbEntity
  8
0
100
AcDbLine
 62
7
  6
CONTINUOUS
 10
2.7106468295
 20
-24.5504137648
 11
2.727509624
 21
-24.5578583958
  0
LINE
  5
2D3
100
AcDbEntity
  8
0
100
AcDbLine
 62
7
  6
CONTINUOUS
 10
2.0866456964
 20
-23.2587921016
 11
2.1284238294
 21
-23.2774240632
  0
LINE
  5
2D4
100
AcDbEntity
  8
RACCORDO
100
AcDbLine
 62
7
  6
CONTINUOUS
 10
23.1888081307
 20
-32.3864485749
 11
23.1564550203
 21
-32.3719725848
  0
LINE
  5
2D5
100
AcDbEntity
  8
0
100
AcDbLine
 62
7
  6
CONTINUOUS
 10
2.1284238294
 20
-23.2774240632
 11
2.1701998433
 21
-23.2964385217
  0
LINE
  5
2D6
100
AcDbEntity
  8
0
100
AcDbLine
 62
7
  6
CONTINUOUS
 10
-20.6606363783
 20
4.8127096307
 11
-20.6799057725
 21
4.8214838747
  0
LINE
  5
2D7
100
AcDbEntity
  8
0
100
AcDbLine
 62
7
  6
CONTINUOUS
 10
-19.9680002106
 20
4.4127640696
 11
-19.9872257754
 21
4.4215391256
  0
LINE
  5
2D8
100
AcDbEntity
  8
0
100
AcDbLine
 62
7
  6
CONTINUOUS
 10
-20.9192956364
 20
4.8063822754
 11
-20.9450860597
 21
4.8182838912
  0
LINE
  5
2D9
100
AcDbEntity
  8
0
100
AcDbLine
 62
7
  6
CONTINUOUS
 10
2.1701998433
 20
-23.2964385217
 11
2.2120626401
 21
-23.3160043775
  0
LINE
  5
2DA
100
AcDbEntity
  8
0
100
AcDbLine
 62
7
  6
CONTINUOUS
 10
2.5613099747
 20
-23.7532926925
 11
2.5976450965
 21
-23.7703130797
  0
LINE
  5
2DB
100
AcDbEntity
  8
0
100
AcDbLine
 62
7
  6
CONTINUOUS
 10
2.4915313598
 20
-23.8318366839
 11
2.4551408874
 21
-23.814786596
  0
LINE
  5
2DC
100
AcDbEntity
  8
0
100
AcDbLine
 62
7
  6
CONTINUOUS
 10
2.6936965926
 20
-24.5423773343
 11
2.7106468295
 21
-24.5504137648
  0
LINE
  5
2DD
100
AcDbEntity
  8
RACCORDO
100
AcDbLine
 62
7
  6
CONTINUOUS
 10
22.8662795759
 20
-33.014777313
 11
22.81177797
 21
-32.9886949984
  0
LINE
  5
2DE
100
AcDbEntity
  8
0
100
AcDbLine
 62
7
  6
CONTINUOUS
 10
2.2120626401
 20
-23.3160043775
 11
2.2540204431
 21
-23.336121432
  0
LINE
  5
2DF
100
AcDbEntity
  8
0
100
AcDbLine
 62
7
  6
CONTINUOUS
 10
2.2540204431
 20
-23.336121432
 11
2.2960649329
 21
-23.3567899473
  0
LINE
  5
2E0
100
AcDbEntity
  8
RACCORDO
100
AcDbLine
 62
7
  6
CONTINUOUS
 10
43.4536842513
 20
-60.3555246553
 11
43.4815859883
 21
-60.3692939044
  0
LINE
  5
2E1
100
AcDbEntity
  8
RACCORDO
100
AcDbLine
 62
7
  6
CONTINUOUS
 10
43.5138627481
 20
-60.4514892067
 11
43.5581653602
 21
-60.4738223802
  0
LINE
  5
2E2
100
AcDbEntity
  8
0
100
AcDbLine
 62
7
  6
CONTINUOUS
 10
2.5976450965
 20
-23.7703130797
 11
2.6338882894
 21
-23.788599588
  0
LINE
  5
2E3
100
AcDbEntity
  8
0
100
AcDbLine
 62
7
  6
CONTINUOUS
 10
2.5278067346
 20
-23.8501479984
 11
2.4915313598
 21
-23.8318366839
  0
LINE
  5
2E4
100
AcDbEntity
  8
0
100
AcDbLine
 62
7
  6
CONTINUOUS
 10
2.2960649329
 20
-23.3567899473
 11
2.3382601826
 21
-23.3781795249
  0
LINE
  5
2E5
100
AcDbEntity
  8
0
100
AcDbLine
 62
7
  6
CONTINUOUS
 10
2.6766028437
 20
-24.5336782071
 11
2.6936965926
 21
-24.5423773343
  0
LINE
  5
2E6
100
AcDbEntity
  8
RACCORDO
100
AcDbLine
 62
7
  6
CONTINUOUS
 10
43.8235149166
 20
-60.0978823815
 11
43.842111349
 21
-60.1074520565
  0
LINE
  5
2E7
100
AcDbEntity
  8
RACCORDO
100
AcDbLine
 62
7
  6
CONTINUOUS
 10
23.1564550203
 20
-32.3719725848
 11
23.1239199239
 21
-32.3551525532
  0
LINE
  5
2E8
100
AcDbEntity
  8
0
100
AcDbLine
 62
7
  6
CONTINUOUS
 10
2.3382601826
 20
-23.3781795249
 11
2.3806140006
 21
-23.4002891937
  0
LINE
  5
2E9
100
AcDbEntity
  8
RACCORDO
100
AcDbLine
 62
7
  6
CONTINUOUS
 10
-25.1514205339
 20
-4.2914488758
 11
-25.1203777095
 21
-4.3077685794
  0
LINE
  5
2EA
100
AcDbEntity
  8
0
100
AcDbLine
 62
7
  6
CONTINUOUS
 10
-20.6888242609
 20
4.8274797112
 11
-20.6558000376
 21
4.8100232033
  0
LINE
  5
2EB
100
AcDbEntity
  8
0
100
AcDbLine
 62
7
  6
CONTINUOUS
 10
2.3806140006
 20
-23.4002891937
 11
2.4231185043
 21
-23.4231199739
  0
LINE
  5
2EC
100
AcDbEntity
  8
0
100
AcDbLine
 62
7
  6
CONTINUOUS
 10
2.6338882894
 20
-23.788599588
 11
2.6699840365
 21
-23.8081073566
  0
LINE
  5
2ED
100
AcDbEntity
  8
0
100
AcDbLine
 62
7
  6
CONTINUOUS
 10
2.5639097096
 20
-23.8696716867
 11
2.5278067346
 21
-23.8501479984
  0
LINE
  5
2EE
100
AcDbEntity
  8
0
100
AcDbLine
 62
7
  6
CONTINUOUS
 10
2.6593655677
 20
-24.5243163933
 11
2.6766028437
 21
-24.5336782071
  0
LINE
  5
2EF
100
AcDbEntity
  8
RACCORDO
100
AcDbLine
 62
7
  6
CONTINUOUS
 10
22.81177797
 20
-32.9886949984
 11
22.7567604738
 21
-32.9586794153
  0
LINE
  5
2F0
100
AcDbEntity
  8
RACCORDO
100
AcDbLine
 62
7
  6
CONTINUOUS
 10
43.4251838599
 20
-60.3398706949
 11
43.4536842513
 21
-60.3555246553
  0
LINE
  5
2F1
100
AcDbEntity
  8
0
100
AcDbLine
 62
7
  6
CONTINUOUS
 10
-20.8934732823
 20
4.7921282176
 11
-20.9192956364
 21
4.8063822754
  0
LINE
  5
2F2
100
AcDbEntity
  8
0
100
AcDbLine
 62
7
  6
CONTINUOUS
 10
-20.6558000376
 20
4.8100232033
 11
-20.6606363783
 21
4.8127096307
  0
LINE
  5
2F3
100
AcDbEntity
  8
0
100
AcDbLine
 62
7
  6
CONTINUOUS
 10
2.4231185043
 20
-23.4231199739
 11
2.4658142272
 21
-23.4468444558
  0
LINE
  5
2F4
100
AcDbEntity
  8
RACCORDO
100
AcDbLine
 62
7
  6
CONTINUOUS
 10
-23.8501891078
 20
-5.2326272723
 11
-23.8691298792
 21
-5.222096241
  0
LINE
  5
2F5
100
AcDbEntity
  8
0
100
AcDbLine
 62
7
  6
CONTINUOUS
 10
-19.9631499882
 20
4.4100660635
 11
-19.9680002106
 21
4.4127640696
  0
LINE
  5
2F6
100
AcDbEntity
  8
RACCORDO
100
AcDbLine
 62
7
  6
CONTINUOUS
 10
43.4837267471
 20
-60.4347193765
 11
43.5138627481
 21
-60.4514892067
  0
LINE
  5
2F7
100
AcDbEntity
  8
0
100
AcDbLine
 62
7
  6
CONTINUOUS
 10
2.4658142272
 20
-23.4468444558
 11
2.5087449017
 21
-23.4714859926
  0
LINE
  5
2F8
100
AcDbEntity
  8
0
100
AcDbLine
 62
7
  6
CONTINUOUS
 10
2.6699840365
 20
-23.8081073566
 11
2.7057659803
 21
-23.8287016758
  0
LINE
  5
2F9
100
AcDbEntity
  8
0
100
AcDbLine
 62
7
  6
CONTINUOUS
 10
2.5996685721
 20
-23.890261062
 11
2.5639097096
 21
-23.8696716867
  0
LINE
  5
2FA
100
AcDbEntity
  8
RACCORDO
100
AcDbLine
 62
7
  6
CONTINUOUS
 10
-41.1967451641
 20
-11.5412816293
 11
43.483783317
 21
-60.434757478
  0
LINE
  5
2FB
100
AcDbEntity
  8
RACCORDO
100
AcDbLine
 62
7
  6
CONTINUOUS
 10
-41.2553445554
 20
-11.4463948842
 11
43.4251838599
 21
-60.3398706949
  0
LINE
  5
2FC
100
AcDbEntity
  8
0
100
AcDbLine
 62
7
  6
CONTINUOUS
 10
3.5585449451
 20
-26.2069587297
 11
3.1610571787
 21
-25.9774542751
  0
LINE
  5
2FD
100
AcDbEntity
  8
0
100
AcDbLine
 62
7
  6
CONTINUOUS
 10
2.5282388401
 20
-25.6120728975
 11
2.1166627118
 21
-25.3744339993
  0
LINE
  5
2FE
100
AcDbEntity
  8
0
100
AcDbLine
 62
7
  6
CONTINUOUS
 10
1.9033916462
 20
-25.251293695
 11
1.4678548812
 21
-24.9998202254
  0
LINE
  5
2FF
100
AcDbEntity
  8
0
100
AcDbLine
 62
7
  6
CONTINUOUS
 10
0.6840135793
 20
-24.5472400815
 11
0.2752584836
 21
-24.3112300122
  0
LINE
  5
300
100
AcDbEntity
  8
0
100
AcDbLine
 62
7
  6
CONTINUOUS
 10
0.0618762844
 20
-24.1880258047
 11
-0.342380905
 21
-23.95461277
  0
LINE
  5
301
100
AcDbEntity
  8
0
100
AcDbLine
 62
7
  6
CONTINUOUS
 10
-0.9186234342
 20
-23.6218975557
 11
-0.9765800273
 21
-23.5884341452
  0
LINE
  5
302
100
AcDbEntity
  8
0
100
AcDbLine
 62
7
  6
CONTINUOUS
 10
-1.5505357732
 20
-23.2570392909
 11
-1.9458713964
 21
-23.0287774568
  0
LINE
  5
303
100
AcDbEntity
  8
0
100
AcDbLine
 62
7
  6
CONTINUOUS
 10
-2.1612596574
 20
-22.9044149743
 11
-2.5744985172
 21
-22.6658160357
  0
LINE
  5
304
100
AcDbEntity
  8
0
100
AcDbLine
 62
7
  6
CONTINUOUS
 10
-3.4207723982
 20
-22.1771881031
 11
-3.7849394616
 21
-21.9669226048
  0
LINE
  5
305
100
AcDbEntity
  8
0
100
AcDbLine
 62
7
  6
CONTINUOUS
 10
3.5175695811
 20
-26.0603460823
 11
3.2675315939
 21
-25.9159772822
  0
LINE
  5
306
100
AcDbEntity
  8
0
100
AcDbLine
 62
7
  6
CONTINUOUS
 10
2.5180601446
 20
-25.4832418605
 11
2.223137127
 21
-25.3129570064
  0
LINE
  5
307
100
AcDbEntity
  8
0
100
AcDbLine
 62
7
  6
CONTINUOUS
 10
1.8574821278
 20
-25.1018321287
 11
1.5743292964
 21
-24.9383432326
  0
LINE
  5
308
100
AcDbEntity
  8
0
100
AcDbLine
 62
7
  6
CONTINUOUS
 10
0.7074926959
 20
-24.4378426435
 11
0.3817328987
 21
-24.2497530193
  0
LINE
  5
309
100
AcDbEntity
  8
0
100
AcDbLine
 62
7
  6
CONTINUOUS
 10
0.0408422862
 20
-24.052927052
 11
-0.2359064899
 21
-23.8931357772
  0
LINE
  5
30A
100
AcDbEntity
  8
0
100
AcDbLine
 62
7
  6
CONTINUOUS
 10
-1.552622556
 20
-23.1328804229
 11
-1.8393969812
 21
-22.9673004639
  0
LINE
  5
30B
100
AcDbEntity
  8
0
100
AcDbLine
 62
7
  6
CONTINUOUS
 10
-2.1713888338
 20
-22.775612529
 11
-2.4680241021
 21
-22.6043390429
  0
LINE
  5
30C
100
AcDbEntity
  8
0
100
AcDbLine
 62
7
  6
CONTINUOUS
 10
-3.3934168872
 20
-22.0700288467
 11
-3.6784650465
 21
-21.905445612
  0
LINE
  5
30D
100
AcDbEntity
  8
0
100
AcDbLine
 62
7
  6
CONTINUOUS
 10
1.326772039
 20
-24.5013191088
 11
0.7640090863
 21
-24.176386833
  0
LINE
  5
30E
100
AcDbEntity
  8
0
100
AcDbLine
 62
7
  6
CONTINUOUS
 10
1.433215711
 20
-24.4398598666
 11
0.8704527584
 21
-24.1149275908
  0
LINE
  5
30F
100
AcDbEntity
  8
0
100
AcDbLine
 62
7
  6
CONTINUOUS
 10
1.218767138
 20
-24.1151965093
 11
0.8231203878
 21
-23.8867550344
  0
LINE
  5
310
100
AcDbEntity
  8
0
100
AcDbLine
 62
7
  6
CONTINUOUS
 10
2.6843488487
 20
-24.883233851
 11
2.4627800378
 21
-24.7553027965
  0
LINE
  5
311
100
AcDbEntity
  8
0
100
AcDbLine
 62
7
  6
CONTINUOUS
 10
2.7907641479
 20
-24.821790991
 11
2.5691953369
 21
-24.6938599364
  0
LINE
  5
312
100
AcDbEntity
  8
0
100
AcDbLine
 62
7
  6
CONTINUOUS
 10
2.6593655655
 20
-24.524316392
 11
2.4232036462
 21
-24.3879594596
  0
LINE
  5
313
100
AcDbEntity
  8
0
100
AcDbLine
 62
7
  6
CONTINUOUS
 10
1.1388790306
 20
-22.7054089651
 11
0.7391197474
 21
-22.4745929651
  0
LINE
  5
314
100
AcDbEntity
  8
0
100
AcDbLine
 62
7
  6
CONTINUOUS
 10
-0.280342262
 20
-21.8859683778
 11
-0.6892013024
 21
-21.649898292
  0
LINE
  5
315
100
AcDbEntity
  8
0
100
AcDbLine
 62
7
  6
CONTINUOUS
 10
-1.5113147589
 20
-21.1752202858
 11
-1.9242120861
 21
-20.9368185439
  0
LINE
  5
316
100
AcDbEntity
  8
0
100
AcDbLine
 62
7
  6
CONTINUOUS
 10
-2.9415160056
 20
-20.3494400106
 11
-3.3544727297
 21
-20.1110039736
  0
LINE
  5
317
100
AcDbEntity
  8
0
100
AcDbLine
 62
7
  6
CONTINUOUS
 10
-4.1207297003
 20
-19.6685768022
 11
-4.5696350261
 21
-19.4093844932
  0
LINE
  5
318
100
AcDbEntity
  8
0
100
AcDbLine
 62
7
  6
CONTINUOUS
 10
-2.3183632448
 20
-20.7091131663
 11
-2.7316021046
 21
-20.4705142278
  0
LINE
  5
319
100
AcDbEntity
  8
RACCORDO
100
AcDbLine
 62
7
  6
CONTINUOUS
 10
22.7567604738
 20
-32.9586794153
 11
-24.184729168
 21
-5.8552516112
  0
LINE
  5
31A
100
AcDbEntity
  8
RACCORDO
100
AcDbLine
 62
7
  6
CONTINUOUS
 10
23.0913337976
 20
-32.3360740486
 11
-23.8501889053
 21
-5.2326271554
  0
LINE
  5
31B
100
AcDbEntity
  8
0
100
AcDbLine
 62
7
  6
CONTINUOUS
 10
-21.8402529695
 20
-4.0721333401
 11
23.4072089564
 21
-30.1974507722
  0
LINE
  5
31C
100
AcDbEntity
  8
0
100
AcDbLine
 62
7
  6
CONTINUOUS
 10
3.500434449
 20
-17.3531430826
 11
5.7829295669
 21
-18.6710271573
  0
LINE
  5
31D
100
AcDbEntity
  8
0
100
AcDbLine
 62
7
  6
CONTINUOUS
 10
-20.8934732823
 20
4.7921282176
 11
-20.2007932851
 21
4.3921834685
  0
LINE
  5
31E
100
AcDbEntity
  8
0
100
AcDbLine
 62
7
  6
CONTINUOUS
 10
-20.6558000376
 20
4.8100232033
 11
-19.9631200405
 21
4.4100784543
  0
LINE
  5
31F
100
AcDbEntity
  8
DRAFT
100
AcDbLine
 62
7
  6
CONTINUOUS
 10
46.6438140407
 20
-24.4695354473
 11
46.9973674313
 21
-24.6736727439
  0
LINE
  5
320
100
AcDbEntity
  8
RACCORDO
100
AcDbLine
 62
7
  6
CONTINUOUS
 10
23.1239199239
 20
-32.3551525532
 11
23.0913329678
 21
-32.336074633
  0
LINE
  5
321
100
AcDbEntity
  8
RACCORDO
100
AcDbLine
 62
7
  6
CONTINUOUS
 10
-23.8691298792
 20
-5.222096241
 11
-23.8878500348
 21
-5.2110516926
  0
LINE
  5
322
100
AcDbEntity
  8
0
100
AcDbLine
 62
7
  6
CONTINUOUS
 10
2.5087449017
 20
-23.4714859926
 11
2.5518667769
 21
-23.4970212433
  0
LINE
  5
323
100
AcDbEntity
  8
RACCORDO
100
AcDbLine
 62
7
  6
CONTINUOUS
 10
-24.184729168
 20
-5.8552516112
 11
-24.2145358514
 21
-5.8374503793
  0
LINE
  5
324
100
AcDbEntity
  8
RACCORDO
100
AcDbLine
 62
7
  6
CONTINUOUS
 10
-41.2841311694
 20
-11.4289809532
 11
-41.2553445554
 21
-11.4463948842
  0
LINE
  5
325
100
AcDbEntity
  8
RACCORDO
100
AcDbLine
 62
7
  6
CONTINUOUS
 10
-41.2364961674
 20
-11.5172230418
 11
-41.1966403955
 21
-11.5413371068
  0
LINE
  5
326
100
AcDbEntity
  8
0
100
AcDbLine
 62
7
  6
CONTINUOUS
 10
2.7013883744
 20
-24.8936342052
 11
2.6843488546
 21
-24.8832338544
  0
LINE
  5
327
100
AcDbEntity
  8
0
100
AcDbLine
 62
7
  6
CONTINUOUS
 10
2.7907641479
 20
-24.821790991
 11
2.8081683759
 21
-24.8324239086
  0
LINE
  5
328
100
AcDbEntity
  8
0
100
AcDbLine
 62
7
  6
CONTINUOUS
 10
2.6350260959
 20
-23.9118672214
 11
2.5996685721
 21
-23.890261062
  0
LINE
  5
329
100
AcDbEntity
  8
0
100
AcDbLine
 62
7
  6
CONTINUOUS
 10
2.7057659803
 20
-23.8287016758
 11
2.7411786795
 21
-23.8503376348
  0
LINE
  5
32A
100
AcDbEntity
  8
0
100
AcDbLine
 62
7
  6
CONTINUOUS
 10
2.5518667769
 20
-23.4970212433
 11
2.5950891786
 21
-23.5235527456
  0
LINE
  5
32B
100
AcDbEntity
  8
RACCORDO
100
AcDbLine
 62
7
  6
CONTINUOUS
 10
-43.4718329854
 20
42.6828009822
 11
-43.4889563617
 21
42.6934568281
  0
LINE
  5
32C
100
AcDbEntity
  8
RACCORDO
100
AcDbLine
 62
7
  6
CONTINUOUS
 10
-23.8878500348
 20
-5.2110516926
 11
-23.9063320088
 21
-5.1995289716
  0
LINE
  5
32D
100
AcDbEntity
  8
RACCORDO
100
AcDbLine
 62
7
  6
CONTINUOUS
 10
-24.2145358514
 20
-5.8374503793
 11
-24.2439445123
 21
-5.8189338569
  0
LINE
  5
32E
100
AcDbEntity
  8
RACCORDO
100
AcDbLine
 62
7
  6
CONTINUOUS
 10
-24.7528527481
 20
31.7950713623
 11
-24.7178116161
 21
31.772983175
  0
LINE
  5
32F
100
AcDbEntity
  8
RACCORDO
100
AcDbLine
 62
7
  6
CONTINUOUS
 10
23.6308725667
 20
-32.4577306255
 11
23.6023336917
 21
-32.4396489544
  0
LINE
  5
330
100
AcDbEntity
  8
RACCORDO
100
AcDbLine
 62
7
  6
CONTINUOUS
 10
-43.4718329823
 20
5.6677864075
 11
-43.4889563585
 21
5.6786388432
  0
LINE
  5
331
100
AcDbEntity
  8
0
100
AcDbLine
 62
7
  6
CONTINUOUS
 10
2.5950891786
 20
-23.5235527456
 11
2.6384135591
 21
-23.5510296498
  0
LINE
  5
332
100
AcDbEntity
  8
0
100
AcDbLine
 62
7
  6
CONTINUOUS
 10
-19.9499782034
 20
4.4016210369
 11
-19.9631499882
 21
4.4100660635
  0
LINE
  5
333
100
AcDbEntity
  8
RACCORDO
100
AcDbLine
 62
7
  6
CONTINUOUS
 10
-41.8360648147
 20
-10.6391146178
 11
-41.8532331716
 21
-10.6280337186
  0
LINE
  5
334
100
AcDbEntity
  8
0
100
AcDbLine
 62
7
  6
CONTINUOUS
 10
2.7411786795
 20
-23.8503376348
 11
2.776277607
 21
-23.8730601235
  0
LINE
  5
335
100
AcDbEntity
  8
0
100
AcDbLine
 62
7
  6
CONTINUOUS
 10
2.6700395391
 20
-23.9345390469
 11
2.6350260959
 21
-23.9118672214
  0
LINE
  5
336
100
AcDbEntity
  8
0
100
AcDbLine
 62
7
  6
CONTINUOUS
 10
2.6384135591
 20
-23.5510296498
 11
2.681838548
 21
-23.5795027515
  0
LINE
  5
337
100
AcDbEntity
  8
RACCORDO
100
AcDbLine
 62
7
  6
CONTINUOUS
 10
-23.9063320088
 20
-5.1995289716
 11
-23.9245417057
 21
-5.1875765428
  0
LINE
  5
338
100
AcDbEntity
  8
RACCORDO
100
AcDbLine
 62
7
  6
CONTINUOUS
 10
-41.3129498787
 20
-11.4100008063
 11
-41.2841311694
 21
-11.4289809532
  0
LINE
  5
339
100
AcDbEntity
  8
RACCORDO
100
AcDbLine
 62
7
  6
CONTINUOUS
 10
-41.2066508983
 20
-11.5347512855
 11
-41.1967451641
 21
-11.5412816293
  0
LINE
  5
33A
100
AcDbEntity
  8
RACCORDO
100
AcDbLine
 62
7
  6
CONTINUOUS
 10
43.4738768556
 20
-60.4282265907
 11
43.4837244035
 21
-60.4347234354
  0
LINE
  5
33B
100
AcDbEntity
  8
RACCORDO
100
AcDbLine
 62
7
  6
CONTINUOUS
 10
-24.2439445123
 20
-5.8189338569
 11
-24.27295512
 21
-5.7997020244
  0
LINE
  5
33C
100
AcDbEntity
  8
RACCORDO
100
AcDbLine
 62
7
  6
CONTINUOUS
 10
-41.2836978135
 20
-11.485794581
 11
-41.2364961674
 21
-11.5172230418
  0
LINE
  5
33D
100
AcDbEntity
  8
0
100
AcDbLine
 62
7
  6
CONTINUOUS
 10
2.776277607
 20
-23.8730601235
 11
2.8110628322
 21
-23.8968690958
  0
LINE
  5
33E
100
AcDbEntity
  8
0
100
AcDbLine
 62
7
  6
CONTINUOUS
 10
2.681838548
 20
-23.5795027515
 11
2.725269292
 21
-23.6092270194
  0
LINE
  5
33F
100
AcDbEntity
  8
0
100
AcDbLine
 62
7
  6
CONTINUOUS
 10
2.7047089706
 20
-23.9582764926
 11
2.6700395391
 21
-23.9345390469
  0
LINE
  5
340
100
AcDbEntity
  8
0
100
AcDbLine
 62
7
  6
CONTINUOUS
 10
2.7182739466
 20
-24.9052014686
 11
2.7013883744
 21
-24.8936342052
  0
LINE
  5
341
100
AcDbEntity
  8
0
100
AcDbLine
 62
7
  6
CONTINUOUS
 10
2.8081683759
 20
-24.8324239086
 11
2.8254067733
 21
-24.844272468
  0
LINE
  5
342
100
AcDbEntity
  8
RACCORDO
100
AcDbLine
 62
7
  6
CONTINUOUS
 10
-23.9245417057
 20
-5.1875765428
 11
-23.9424819668
 21
-5.1752160261
  0
LINE
  5
343
100
AcDbEntity
  8
RACCORDO
100
AcDbLine
 62
7
  6
CONTINUOUS
 10
-24.27295512
 20
-5.7997020244
 11
-24.3015617343
 21
-5.7797272498
  0
LINE
  5
344
100
AcDbEntity
  8
RACCORDO
100
AcDbLine
 62
7
  6
CONTINUOUS
 10
-24.103204264
 20
31.7397978761
 11
-24.0855112824
 21
31.7273010309
  0
LINE
  5
345
100
AcDbEntity
  8
RACCORDO
100
AcDbLine
 62
7
  6
CONTINUOUS
 10
22.8382854066
 20
4.6363700487
 11
22.85597839
 21
4.6238732079
  0
LINE
  5
346
100
AcDbEntity
  8
0
100
AcDbLine
 62
7
  6
CONTINUOUS
 10
2.725269292
 20
-23.6092270194
 11
2.7687961874
 21
-23.6401870618
  0
LINE
  5
347
100
AcDbEntity
  8
RACCORDO
100
AcDbLine
 62
7
  6
CONTINUOUS
 10
-41.3418005779
 20
-11.3894543602
 11
-41.3129498787
 21
-11.4100008063
  0
LINE
  5
348
100
AcDbEntity
  8
RACCORDO
100
AcDbLine
 62
7
  6
CONTINUOUS
 10
22.8445359195
 20
4.8167314187
 11
22.8728047754
 21
4.7965616268
  0
LINE
  5
349
100
AcDbEntity
  8
RACCORDO
100
AcDbLine
 62
7
  6
CONTINUOUS
 10
-23.9424819668
 20
-5.1752160261
 11
-23.960192074
 21
-5.1624363064
  0
LINE
  5
34A
100
AcDbEntity
  8
RACCORDO
100
AcDbLine
 62
7
  6
CONTINUOUS
 10
-41.3303617279
 20
-11.4516262167
 11
-41.2836978135
 21
-11.485794581
  0
LINE
  5
34B
100
AcDbEntity
  8
RACCORDO
100
AcDbLine
 62
7
  6
CONTINUOUS
 10
-24.7866121956
 20
31.8197832755
 11
-24.7528527481
 21
31.7950713623
  0
LINE
  5
34C
100
AcDbEntity
  8
0
100
AcDbLine
 62
7
  6
CONTINUOUS
 10
2.8110628322
 20
-23.8968690958
 11
2.8292084575
 21
-23.910173337
  0
LINE
  5
34D
100
AcDbEntity
  8
RACCORDO
100
AcDbLine
 62
7
  6
CONTINUOUS
 10
-24.3015617343
 20
-5.7797272498
 11
-24.3297701749
 21
-5.759037088
  0
LINE
  5
34E
100
AcDbEntity
  8
RACCORDO
100
AcDbLine
 62
7
  6
CONTINUOUS
 10
-43.4889563617
 20
42.6934568281
 11
-43.5044510503
 21
42.7048191883
  0
LINE
  5
34F
100
AcDbEntity
  8
RACCORDO
100
AcDbLine
 62
7
  6
CONTINUOUS
 10
23.6023316698
 20
3.2730485594
 11
23.5765078492
 21
3.2919969745
  0
LINE
  5
350
100
AcDbEntity
  8
0
100
AcDbLine
 62
7
  6
CONTINUOUS
 10
2.7257726266
 20
-23.973809614
 11
2.7047089706
 21
-23.9582764926
  0
LINE
  5
351
100
AcDbEntity
  8
0
100
AcDbLine
 62
7
  6
CONTINUOUS
 10
2.7687961874
 20
-23.6401870618
 11
2.8123291213
 21
-23.6723980836
  0
LINE
  5
352
100
AcDbEntity
  8
RACCORDO
100
AcDbLine
 62
7
  6
CONTINUOUS
 10
22.92091724
 20
4.5821230613
 11
22.9498496488
 21
4.5605913862
  0
LINE
  5
353
100
AcDbEntity
  8
RACCORDO
100
AcDbLine
 62
7
  6
CONTINUOUS
 10
22.8728047754
 20
4.7965616268
 11
22.9005833779
 21
4.7756232821
  0
LINE
  5
354
100
AcDbEntity
  8
RACCORDO
100
AcDbLine
 62
7
  6
CONTINUOUS
 10
-23.960192074
 20
-5.1624363064
 11
-23.9776581905
 21
-5.1492653954
  0
LINE
  5
355
100
AcDbEntity
  8
RACCORDO
100
AcDbLine
 62
7
  6
CONTINUOUS
 10
23.6023336917
 20
-32.4396489544
 11
23.5765094919
 21
-32.4201045284
  0
LINE
  5
356
100
AcDbEntity
  8
RACCORDO
100
AcDbLine
 62
7
  6
CONTINUOUS
 10
-43.4889563585
 20
5.6786388432
 11
-43.504451047
 21
5.6903719102
  0
LINE
  5
357
100
AcDbEntity
  8
0
100
AcDbLine
 62
7
  6
CONTINUOUS
 10
2.7350056227
 20
-24.91793561
 11
2.7182739466
 21
-24.9052014686
  0
LINE
  5
358
100
AcDbEntity
  8
0
100
AcDbLine
 62
7
  6
CONTINUOUS
 10
2.8254067733
 20
-24.844272468
 11
2.8424793966
 21
-24.8573366317
  0
LINE
  5
359
100
AcDbEntity
  8
RACCORDO
100
AcDbLine
 62
7
  6
CONTINUOUS
 10
-41.3707849742
 20
-11.3672617732
 11
-41.3418005779
 21
-11.3894543602
  0
LINE
  5
35A
100
AcDbEntity
  8
RACCORDO
100
AcDbLine
 62
7
  6
CONTINUOUS
 10
-24.3297701749
 20
-5.759037088
 11
-24.3575980306
 21
-5.7377142867
  0
LINE
  5
35B
100
AcDbEntity
  8
RACCORDO
100
AcDbLine
 62
7
  6
CONTINUOUS
 10
-41.8532331716
 20
-10.6280337186
 11
-41.8687929109
 21
-10.6158642812
  0
LINE
  5
35C
100
AcDbEntity
  8
0
100
AcDbLine
 62
7
  6
CONTINUOUS
 10
2.8123291213
 20
-23.6723980836
 11
2.8555026314
 21
-23.7061608463
  0
LINE
  5
35D
100
AcDbEntity
  8
RACCORDO
100
AcDbLine
 62
7
  6
CONTINUOUS
 10
-23.9776581905
 20
-5.1492653954
 11
-23.994868464
 21
-5.1357304476
  0
LINE
  5
35E
100
AcDbEntity
  8
RACCORDO
100
AcDbLine
 62
7
  6
CONTINUOUS
 10
22.9005833779
 20
4.7756232821
 11
22.9278985623
 21
4.754004471
  0
LINE
  5
35F
100
AcDbEntity
  8
RACCORDO
100
AcDbLine
 62
7
  6
CONTINUOUS
 10
-41.3764085073
 20
-11.4148349865
 11
-41.3303617279
 21
-11.4516262167
  0
LINE
  5
360
100
AcDbEntity
  8
RACCORDO
100
AcDbLine
 62
7
  6
CONTINUOUS
 10
-24.3575980306
 20
-5.7377142867
 11
-24.3850415528
 21
-5.7157721046
  0
LINE
  5
361
100
AcDbEntity
  8
0
100
AcDbLine
 62
7
  6
CONTINUOUS
 10
2.8292084575
 20
-23.910173337
 11
2.8471465845
 21
-23.9245322962
  0
LINE
  5
362
100
AcDbEntity
  8
0
100
AcDbLine
 62
7
  6
CONTINUOUS
 10
-19.933446274
 20
4.3882871834
 11
-19.9499782034
 21
4.4016210369
  0
LINE
  5
363
100
AcDbEntity
  8
RACCORDO
100
AcDbLine
 62
7
  6
CONTINUOUS
 10
22.9498496488
 20
4.5605913862
 11
22.9795356849
 21
4.5366249831
  0
LINE
  5
364
100
AcDbEntity
  8
RACCORDO
100
AcDbLine
 62
7
  6
CONTINUOUS
 10
-41.8687941439
 20
61.108454608
 11
-41.8826350782
 21
61.1197210359
  0
LINE
  5
365
100
AcDbEntity
  8
0
100
AcDbLine
 62
7
  6
CONTINUOUS
 10
2.7465245424
 20
-23.9907550735
 11
2.7257726266
 21
-23.973809614
  0
LINE
  5
366
100
AcDbEntity
  8
RACCORDO
100
AcDbLine
 62
7
  6
CONTINUOUS
 10
-41.399800938
 20
-11.3435025533
 11
-41.3707849742
 21
-11.3672617732
  0
LINE
  5
367
100
AcDbEntity
  8
RACCORDO
100
AcDbLine
 62
7
  6
CONTINUOUS
 10
-23.994868464
 20
-5.1357304476
 11
-24.0118652267
 21
-5.1218083548
  0
LINE
  5
368
100
AcDbEntity
  8
0
100
AcDbLine
 62
7
  6
CONTINUOUS
 10
2.8555026314
 20
-23.7061608463
 11
2.8981951891
 21
-23.741575411
  0
LINE
  5
369
100
AcDbEntity
  8
RACCORDO
100
AcDbLine
 62
7
  6
CONTINUOUS
 10
22.9278985623
 20
4.754004471
 11
22.9547478625
 21
4.7317191927
  0
LINE
  5
36A
100
AcDbEntity
  8
RACCORDO
100
AcDbLine
 62
7
  6
CONTINUOUS
 10
-24.3850415528
 20
-5.7157721046
 11
-24.4121042855
 21
-5.6931971522
  0
LINE
  5
36B
100
AcDbEntity
  8
0
100
AcDbLine
 62
7
  6
CONTINUOUS
 10
2.7516746978
 20
-24.9318679673
 11
2.7350056227
 21
-24.91793561
  0
LINE
  5
36C
100
AcDbEntity
  8
0
100
AcDbLine
 62
7
  6
CONTINUOUS
 10
2.8424793966
 20
-24.8573366317
 11
2.8595043312
 21
-24.8716814132
  0
LINE
  5
36D
100
AcDbEntity
  8
RACCORDO
100
AcDbLine
 62
7
  6
CONTINUOUS
 10
-24.8188466953
 20
31.846940846
 11
-24.7866121956
 21
31.8197832755
  0
LINE
  5
36E
100
AcDbEntity
  8
RACCORDO
100
AcDbLine
 62
7
  6
CONTINUOUS
 10
-24.0118652267
 20
-5.1218083548
 11
-24.0286364524
 21
-5.1075213209
  0
LINE
  5
36F
100
AcDbEntity
  8
RACCORDO
100
AcDbLine
 62
7
  6
CONTINUOUS
 10
-41.4216857644
 20
-11.3755783898
 11
-41.3764085073
 21
-11.4148349865
  0
LINE
  5
370
100
AcDbEntity
  8
RACCORDO
100
AcDbLine
 62
7
  6
CONTINUOUS
 10
-24.4121042855
 20
-5.6931971522
 11
-24.4388147507
 21
-5.6700322011
  0
LINE
  5
371
100
AcDbEntity
  8
0
100
AcDbLine
 62
7
  6
CONTINUOUS
 10
2.8471465845
 20
-23.9245322962
 11
2.8648773177
 21
-23.9399459044
  0
LINE
  5
372
100
AcDbEntity
  8
RACCORDO
100
AcDbLine
 62
7
  6
CONTINUOUS
 10
22.9547478625
 20
4.7317191927
 11
22.9811339491
 21
4.7087535536
  0
LINE
  5
373
100
AcDbEntity
  8
RACCORDO
100
AcDbLine
 62
7
  6
CONTINUOUS
 10
-43.5044510503
 20
42.7048191883
 11
-43.5182068437
 21
42.7168072467
  0
LINE
  5
374
100
AcDbEntity
  8
RACCORDO
100
AcDbLine
 62
7
  6
CONTINUOUS
 10
23.5765078492
 20
3.2919969745
 11
23.5535823827
 21
3.3119933646
  0
LINE
  5
375
100
AcDbEntity
  8
RACCORDO
100
AcDbLine
 62
7
  6
CONTINUOUS
 10
22.9795356849
 20
4.5366249831
 11
23.0097884383
 21
4.5102345428
  0
LINE
  5
376
100
AcDbEntity
  8
RACCORDO
100
AcDbLine
 62
7
  6
CONTINUOUS
 10
-41.2184140012
 20
-11.5244828813
 11
-41.2066508983
 21
-11.5347512855
  0
LINE
  5
377
100
AcDbEntity
  8
RACCORDO
100
AcDbLine
 62
7
  6
CONTINUOUS
 10
-41.4285425176
 20
-11.3184155692
 11
-41.399800938
 21
-11.3435025533
  0
LINE
  5
378
100
AcDbEntity
  8
RACCORDO
100
AcDbLine
 62
7
  6
CONTINUOUS
 10
43.4621138679
 20
-60.417958112
 11
43.4738768556
 21
-60.4282265907
  0
LINE
  5
379
100
AcDbEntity
  8
0
100
AcDbLine
 62
7
  6
CONTINUOUS
 10
2.8981951891
 20
-23.741575411
 11
2.9405291092
 21
-23.778541198
  0
LINE
  5
37A
100
AcDbEntity
  8
RACCORDO
100
AcDbLine
 62
7
  6
CONTINUOUS
 10
-24.0286364524
 20
-5.1075213209
 11
-24.0451712621
 21
-5.0928908489
  0
LINE
  5
37B
100
AcDbEntity
  8
0
100
AcDbLine
 62
7
  6
CONTINUOUS
 10
2.7669648938
 20
-24.0091127545
 11
2.7465245424
 21
-23.9907550735
  0
LINE
  5
37C
100
AcDbEntity
  8
RACCORDO
100
AcDbLine
 62
7
  6
CONTINUOUS
 10
-24.4388147507
 20
-5.6700322011
 11
-24.4651716653
 21
-5.6462884596
  0
LINE
  5
37D
100
AcDbEntity
  8
RACCORDO
100
AcDbLine
 62
7
  6
CONTINUOUS
 10
22.9811339491
 20
4.7087535536
 11
23.0070913687
 21
4.6851538036
  0
LINE
  5
37E
100
AcDbEntity
  8
RACCORDO
100
AcDbLine
 62
7
  6
CONTINUOUS
 10
23.5765094919
 20
-32.4201045284
 11
23.5535836458
 21
-32.3992363601
  0
LINE
  5
37F
100
AcDbEntity
  8
RACCORDO
100
AcDbLine
 62
7
  6
CONTINUOUS
 10
-43.504451047
 20
5.6903719102
 11
-43.5182068402
 21
5.702902156
  0
LINE
  5
380
100
AcDbEntity
  8
0
100
AcDbLine
 62
7
  6
CONTINUOUS
 10
2.768190085
 20
-24.9469670629
 11
2.7516746978
 21
-24.9318679673
  0
LINE
  5
381
100
AcDbEntity
  8
0
100
AcDbLine
 62
7
  6
CONTINUOUS
 10
2.9405291092
 20
-23.778541198
 11
2.9825048782
 21
-23.8170578864
  0
LINE
  5
382
100
AcDbEntity
  8
RACCORDO
100
AcDbLine
 62
7
  6
CONTINUOUS
 10
-24.1193767901
 20
31.7546367082
 11
-24.103204264
 21
31.7397978761
  0
LINE
  5
383
100
AcDbEntity
  8
RACCORDO
100
AcDbLine
 62
7
  6
CONTINUOUS
 10
22.8221128778
 20
4.6512088769
 11
22.8382854066
 21
4.6363700487
  0
LINE
  5
384
100
AcDbEntity
  8
RACCORDO
100
AcDbLine
 62
7
  6
CONTINUOUS
 10
-24.0451712621
 20
-5.0928908489
 11
-24.0615125019
 21
-5.0778832617
  0
LINE
  5
385
100
AcDbEntity
  8
0
100
AcDbLine
 62
7
  6
CONTINUOUS
 10
2.8595043312
 20
-24.8716814132
 11
2.8763637204
 21
-24.8872416453
  0
LINE
  5
386
100
AcDbEntity
  8
RACCORDO
100
AcDbLine
 62
7
  6
CONTINUOUS
 10
-41.4570017213
 20
-11.2919902098
 11
-41.4285425176
 21
-11.3184155692
  0
LINE
  5
387
100
AcDbEntity
  8
RACCORDO
100
AcDbLine
 62
7
  6
CONTINUOUS
 10
-24.4651716653
 20
-5.6462884596
 11
-24.4911760396
 21
-5.6219545452
  0
LINE
  5
388
100
AcDbEntity
  8
RACCORDO
100
AcDbLine
 62
7
  6
CONTINUOUS
 10
-41.4660849271
 20
-11.3339814216
 11
-41.4216857644
 21
-11.3755783898
  0
LINE
  5
389
100
AcDbEntity
  8
0
100
AcDbLine
 62
7
  6
CONTINUOUS
 10
2.8648773177
 20
-23.9399459044
 11
2.8824813665
 21
-23.9564494841
  0
LINE
  5
38A
100
AcDbEntity
  8
RACCORDO
100
AcDbLine
 62
7
  6
CONTINUOUS
 10
23.0097884383
 20
4.5102345428
 11
23.0404366484
 21
4.4814357292
  0
LINE
  5
38B
100
AcDbEntity
  8
RACCORDO
100
AcDbLine
 62
7
  6
CONTINUOUS
 10
23.0070913687
 20
4.6851538036
 11
23.0326201302
 21
4.6609318971
  0
LINE
  5
38C
100
AcDbEntity
  8
RACCORDO
100
AcDbLine
 62
7
  6
CONTINUOUS
 10
-41.8687929109
 20
-10.6158642812
 11
-41.8826332536
 21
-10.6026929469
  0
LINE
  5
38D
100
AcDbEntity
  8
RACCORDO
100
AcDbLine
 62
7
  6
CONTINUOUS
 10
-24.0615125019
 20
-5.0778832617
 11
-24.0776489258
 21
-5.0625157882
  0
LINE
  5
38E
100
AcDbEntity
  8
RACCORDO
100
AcDbLine
 62
7
  6
CONTINUOUS
 10
-41.8826350782
 20
61.1197210359
 11
-41.8946580512
 21
61.1313048385
  0
LINE
  5
38F
100
AcDbEntity
  8
RACCORDO
100
AcDbLine
 62
7
  6
CONTINUOUS
 10
-24.8493239723
 20
31.8763483822
 11
-24.8188466953
 21
31.846940846
  0
LINE
  5
390
100
AcDbEntity
  8
RACCORDO
100
AcDbLine
 62
7
  6
CONTINUOUS
 10
-24.4911760396
 20
-5.6219545452
 11
-24.51685983
 21
-5.5970393399
  0
LINE
  5
391
100
AcDbEntity
  8
0
100
AcDbLine
 62
7
  6
CONTINUOUS
 10
2.787242163
 20
-24.028952645
 11
2.7669648938
 21
-24.0091127545
  0
LINE
  5
392
100
AcDbEntity
  8
RACCORDO
100
AcDbLine
 62
7
  6
CONTINUOUS
 10
-41.4851857404
 20
-11.264236454
 11
-41.4570017213
 21
-11.2919902098
  0
LINE
  5
393
100
AcDbEntity
  8
RACCORDO
100
AcDbLine
 62
7
  6
CONTINUOUS
 10
23.361952035
 20
4.0123302653
 11
23.3602774883
 21
4.0139807438
  0
LINE
  5
394
100
AcDbEntity
  8
RACCORDO
100
AcDbLine
 62
7
  6
CONTINUOUS
 10
-24.0776489258
 20
-5.0625157882
 11
-24.0935691902
 21
-5.046805732
  0
LINE
  5
395
100
AcDbEntity
  8
RACCORDO
100
AcDbLine
 62
7
  6
CONTINUOUS
 10
23.0326201302
 20
4.6609318971
 11
23.0577204973
 21
4.6360760204
  0
LINE
  5
396
100
AcDbEntity
  8
0
100
AcDbLine
 62
7
  6
CONTINUOUS
 10
2.9825048782
 20
-23.8170578864
 11
3.0052157629
 21
-23.8397462604
  0
LINE
  5
397
100
AcDbEntity
  8
RACCORDO
100
AcDbLine
 62
7
  6
CONTINUOUS
 10
-24.51685983
 20
-5.5970393399
 11
-24.5422245454
 21
-5.5715513958
  0
LINE
  5
398
100
AcDbEntity
  8
0
100
AcDbLine
 62
7
  6
CONTINUOUS
 10
2.7842783247
 20
-24.9631385979
 11
2.768190085
 21
-24.9469670629
  0
LINE
  5
399
100
AcDbEntity
  8
RACCORDO
100
AcDbLine
 62
7
  6
CONTINUOUS
 10
-41.5094700528
 20
-11.290191891
 11
-41.4660849271
 21
-11.3339814216
  0
LINE
  5
39A
100
AcDbEntity
  8
0
100
AcDbLine
 62
7
  6
CONTINUOUS
 10
2.8824813665
 20
-23.9564494841
 11
2.8998783213
 21
-23.974007514
  0
LINE
  5
39B
100
AcDbEntity
  8
RACCORDO
100
AcDbLine
 62
7
  6
CONTINUOUS
 10
23.0404366484
 20
4.4814357292
 11
23.0712238167
 21
4.4503485951
  0
LINE
  5
39C
100
AcDbEntity
  8
0
100
AcDbLine
 62
7
  6
CONTINUOUS
 10
2.8763637204
 20
-24.8872416453
 11
2.8927037659
 21
-24.9038219788
  0
LINE
  5
39D
100
AcDbEntity
  8
RACCORDO
100
AcDbLine
 62
7
  6
CONTINUOUS
 10
-24.0935691902
 20
-5.046805732
 11
-24.1093136166
 21
-5.0307112863
  0
LINE
  5
39E
100
AcDbEntity
  8
RACCORDO
100
AcDbLine
 62
7
  6
CONTINUOUS
 10
23.0577204973
 20
4.6360760204
 11
23.0824274038
 21
4.6105967748
  0
LINE
  5
39F
100
AcDbEntity
  8
0
100
AcDbLine
 62
7
  6
CONTINUOUS
 10
-19.9184282386
 20
4.3727274932
 11
-19.933446274
 21
4.3882871834
  0
LINE
  5
3A0
100
AcDbEntity
  8
RACCORDO
100
AcDbLine
 62
7
  6
CONTINUOUS
 10
-24.5422245454
 20
-5.5715513958
 11
-24.5672683383
 21
-5.5454819447
  0
LINE
  5
3A1
100
AcDbEntity
  8
RACCORDO
100
AcDbLine
 62
7
  6
CONTINUOUS
 10
-41.5128113499
 20
-11.2354240171
 11
-41.4851857404
 21
-11.264236454
  0
LINE
  5
3A2
100
AcDbEntity
  8
RACCORDO
100
AcDbLine
 62
7
  6
CONTINUOUS
 10
-43.5182068437
 20
42.7168072467
 11
-43.5301259021
 21
42.7293357371
  0
LINE
  5
3A3
100
AcDbEntity
  8
RACCORDO
100
AcDbLine
 62
7
  6
CONTINUOUS
 10
23.5535823827
 20
3.3119933646
 11
23.5337183291
 21
3.3328955041
  0
LINE
  5
3A4
100
AcDbEntity
  8
RACCORDO
100
AcDbLine
 62
7
  6
CONTINUOUS
 10
-24.1093136166
 20
-5.0307112863
 11
-24.1248704485
 21
-5.0142460714
  0
LINE
  5
3A5
100
AcDbEntity
  8
0
100
AcDbLine
 62
7
  6
CONTINUOUS
 10
2.8072083856
 20
-24.0502044139
 11
2.787242163
 21
-24.028952645
  0
LINE
  5
3A6
100
AcDbEntity
  8
0
100
AcDbLine
 62
7
  6
CONTINUOUS
 10
3.1015900907
 20
-24.9655755004
 11
3.12184755
 21
-24.9871995982
  0
LINE
  5
3A7
100
AcDbEntity
  8
RACCORDO
100
AcDbLine
 62
7
  6
CONTINUOUS
 10
23.0824274038
 20
4.6105967748
 11
23.106743616
 21
4.5845034384
  0
LINE
  5
3A8
100
AcDbEntity
  8
RACCORDO
100
AcDbLine
 62
7
  6
CONTINUOUS
 10
-24.5672683383
 20
-5.5454819447
 11
-24.592018117
 21
-5.5188138798
  0
LINE
  5
3A9
100
AcDbEntity
  8
0
100
AcDbLine
 62
7
  6
CONTINUOUS
 10
3.0052157629
 20
-23.8397462604
 11
3.0282063313
 21
-23.8646057695
  0
LINE
  5
3AA
100
AcDbEntity
  8
RACCORDO
100
AcDbLine
 62
7
  6
CONTINUOUS
 10
23.0712238167
 20
4.4503485951
 11
23.101969883
 21
4.4170487857
  0
LINE
  5
3AB
100
AcDbEntity
  8
RACCORDO
100
AcDbLine
 62
7
  6
CONTINUOUS
 10
-41.5515897997
 20
-11.2444693127
 11
-41.5094700528
 21
-11.290191891
  0
LINE
  5
3AC
100
AcDbEntity
  8
0
100
AcDbLine
 62
7
  6
CONTINUOUS
 10
2.8998783213
 20
-23.974007514
 11
2.9168266598
 21
-23.9925136247
  0
LINE
  5
3AD
100
AcDbEntity
  8
RACCORDO
100
AcDbLine
 62
7
  6
CONTINUOUS
 10
-24.1248704485
 20
-5.0142460714
 11
-24.140226967
 21
-4.997424314
  0
LINE
  5
3AE
100
AcDbEntity
  8
RACCORDO
100
AcDbLine
 62
7
  6
CONTINUOUS
 10
-24.8778244139
 20
31.9077939797
 11
-24.8493239723
 21
31.8763483822
  0
LINE
  5
3AF
100
AcDbEntity
  8
RACCORDO
100
AcDbLine
 62
7
  6
CONTINUOUS
 10
-41.5398727105
 20
-11.2055419103
 11
-41.5128113499
 21
-11.2354240171
  0
LINE
  5
3B0
100
AcDbEntity
  8
0
100
AcDbLine
 62
7
  6
CONTINUOUS
 10
2.7999200256
 20
-24.9804744967
 11
2.7842783247
 21
-24.9631385979
  0
LINE
  5
3B1
100
AcDbEntity
  8
RACCORDO
100
AcDbLine
 62
7
  6
CONTINUOUS
 10
23.5535836458
 20
-32.3992363601
 11
23.5337192169
 21
-32.3771928775
  0
LINE
  5
3B2
100
AcDbEntity
  8
RACCORDO
100
AcDbLine
 62
7
  6
CONTINUOUS
 10
-43.5182068402
 20
5.702902156
 11
-43.5301258987
 21
5.7161404579
  0
LINE
  5
3B3
100
AcDbEntity
  8
RACCORDO
100
AcDbLine
 62
7
  6
CONTINUOUS
 10
-24.592018117
 20
-5.5188138798
 11
-24.6164776776
 21
-5.4915531047
  0
LINE
  5
3B4
100
AcDbEntity
  8
RACCORDO
100
AcDbLine
 62
7
  6
CONTINUOUS
 10
23.106743616
 20
4.5845034384
 11
23.1306667061
 21
4.5577869078
  0
LINE
  5
3B5
100
AcDbEntity
  8
0
100
AcDbLine
 62
7
  6
CONTINUOUS
 10
2.8927037659
 20
-24.9038219788
 11
2.9084750578
 21
-24.9215052712
  0
LINE
  5
3B6
100
AcDbEntity
  8
RACCORDO
100
AcDbLine
 62
7
  6
CONTINUOUS
 10
-24.140226967
 20
-4.997424314
 11
-24.1554186023
 21
-4.9801982443
  0
LINE
  5
3B7
100
AcDbEntity
  8
RACCORDO
100
AcDbLine
 62
7
  6
CONTINUOUS
 10
-24.6164776776
 20
-5.4915531047
 11
-24.6406428103
 21
-5.4636934519
  0
LINE
  5
3B8
100
AcDbEntity
  8
0
100
AcDbLine
 62
7
  6
CONTINUOUS
 10
3.12184755
 20
-24.9871995982
 11
3.1409004138
 21
-25.0092006685
  0
LINE
  5
3B9
100
AcDbEntity
  8
RACCORDO
100
AcDbLine
 62
7
  6
CONTINUOUS
 10
23.101969883
 20
4.4170487857
 11
23.1325084659
 21
4.3816160229
  0
LINE
  5
3BA
100
AcDbEntity
  8
RACCORDO
100
AcDbLine
 62
7
  6
CONTINUOUS
 10
23.1306667061
 20
4.5577869078
 11
23.1542238306
 21
4.5304302196
  0
LINE
  5
3BB
100
AcDbEntity
  8
0
100
AcDbLine
 62
7
  6
CONTINUOUS
 10
3.0282063313
 20
-23.8646057695
 11
3.0514770983
 21
-23.8916360738
  0
LINE
  5
3BC
100
AcDbEntity
  8
RACCORDO
100
AcDbLine
 62
7
  6
CONTINUOUS
 10
-41.5923047848
 20
-11.1969874105
 11
-41.5515897997
 21
-11.2444693127
  0
LINE
  5
3BD
100
AcDbEntity
  8
RACCORDO
100
AcDbLine
 62
7
  6
CONTINUOUS
 10
-41.5663745721
 20
-11.1746002624
 11
-41.5398727105
 21
-11.2055419103
  0
LINE
  5
3BE
100
AcDbEntity
  8
RACCORDO
100
AcDbLine
 62
7
  6
CONTINUOUS
 10
-41.8946580512
 20
61.1313048385
 11
-41.9047774624
 21
61.1431235418
  0
LINE
  5
3BF
100
AcDbEntity
  8
0
100
AcDbLine
 62
7
  6
CONTINUOUS
 10
2.8264191612
 20
-24.0726574043
 11
2.8072083856
 21
-24.0502044139
  0
LINE
  5
3C0
100
AcDbEntity
  8
RACCORDO
100
AcDbLine
 62
7
  6
CONTINUOUS
 10
-41.8826332536
 20
-10.6026929469
 11
-41.8946556622
 21
-10.5886134903
  0
LINE
  5
3C1
100
AcDbEntity
  8
RACCORDO
100
AcDbLine
 62
7
  6
CONTINUOUS
 10
-41.2288163829
 20
-11.5122883986
 11
-41.2184140012
 21
-11.5244828813
  0
LINE
  5
3C2
100
AcDbEntity
  8
RACCORDO
100
AcDbLine
 62
7
  6
CONTINUOUS
 10
43.4517116155
 20
-60.4057636033
 11
43.4621138679
 21
-60.417958112
  0
LINE
  5
3C3
100
AcDbEntity
  8
RACCORDO
100
AcDbLine
 62
7
  6
CONTINUOUS
 10
-24.1554186023
 20
-4.9801982443
 11
-24.1704317373
 21
-4.962579496
  0
LINE
  5
3C4
100
AcDbEntity
  8
RACCORDO
100
AcDbLine
 62
7
  6
CONTINUOUS
 10
-24.1339382997
 20
31.7717344342
 11
-24.1193767901
 21
31.7546367082
  0
LINE
  5
3C5
100
AcDbEntity
  8
RACCORDO
100
AcDbLine
 62
7
  6
CONTINUOUS
 10
22.807551365
 20
4.6683065998
 11
22.8221128778
 21
4.6512088769
  0
LINE
  5
3C6
100
AcDbEntity
  8
0
100
AcDbLine
 62
7
  6
CONTINUOUS
 10
2.9168266598
 20
-23.9925136247
 11
2.9333889723
 21
-24.0120470476
  0
LINE
  5
3C7
100
AcDbEntity
  8
RACCORDO
100
AcDbLine
 62
7
  6
CONTINUOUS
 10
-24.6406428103
 20
-5.4636934519
 11
-24.6645283886
 21
-5.4351996908
  0
LINE
  5
3C8
100
AcDbEntity
  8
RACCORDO
100
AcDbLine
 62
7
  6
CONTINUOUS
 10
23.1542238306
 20
4.5304302196
 11
23.1774199895
 21
4.5024399724
  0
LINE
  5
3C9
100
AcDbEntity
  8
0
100
AcDbLine
 62
7
  6
CONTINUOUS
 10
2.8151350434
 20
-24.9988825229
 11
2.7999200256
 21
-24.9804744967
  0
LINE
  5
3CA
100
AcDbEntity
  8
RACCORDO
100
AcDbLine
 62
7
  6
CONTINUOUS
 10
-24.1704317373
 20
-4.962579496
 11
-24.1852516006
 21
-4.9445802036
  0
LINE
  5
3CB
100
AcDbEntity
  8
0
100
AcDbLine
 62
7
  6
CONTINUOUS
 10
2.9084750578
 20
-24.9215052712
 11
2.9237274889
 21
-24.9402083408
  0
LINE
  5
3CC
100
AcDbEntity
  8
RACCORDO
100
AcDbLine
 62
7
  6
CONTINUOUS
 10
-24.6645283886
 20
-5.4351996908
 11
-24.688139912
 21
-5.4060755594
  0
LINE
  5
3CD
100
AcDbEntity
  8
0
100
AcDbLine
 62
7
  6
CONTINUOUS
 10
3.0514770983
 20
-23.8916360738
 11
3.075122369
 21
-23.9208104743
  0
LINE
  5
3CE
100
AcDbEntity
  8
RACCORDO
100
AcDbLine
 62
7
  6
CONTINUOUS
 10
-41.5920496139
 20
-11.1429004821
 11
-41.5663745721
 21
-11.1746002624
  0
LINE
  5
3CF
100
AcDbEntity
  8
RACCORDO
100
AcDbLine
 62
7
  6
CONTINUOUS
 10
23.1325084659
 20
4.3816160229
 11
23.1626270509
 21
4.3442069361
  0
LINE
  5
3D0
100
AcDbEntity
  8
RACCORDO
100
AcDbLine
 62
7
  6
CONTINUOUS
 10
-41.6314802666
 20
-11.1479057724
 11
-41.5923047848
 21
-11.1969874105
  0
LINE
  5
3D1
100
AcDbEntity
  8
0
100
AcDbLine
 62
7
  6
CONTINUOUS
 10
3.1409004138
 20
-25.0092006685
 11
3.1587489483
 21
-25.0315785331
  0
LINE
  5
3D2
100
AcDbEntity
  8
RACCORDO
100
AcDbLine
 62
7
  6
CONTINUOUS
 10
23.1774199895
 20
4.5024399724
 11
23.2002505964
 21
4.4738097815
  0
LINE
  5
3D3
100
AcDbEntity
  8
RACCORDO
100
AcDbLine
 62
7
  6
CONTINUOUS
 10
-24.1852516006
 20
-4.9445802036
 11
-24.1999073986
 21
-4.9261478548
  0
LINE
  5
3D4
100
AcDbEntity
  8
RACCORDO
100
AcDbLine
 62
7
  6
CONTINUOUS
 10
-24.9041426521
 20
31.9410510485
 11
-24.8778244139
 21
31.9077939797
  0
LINE
  5
3D5
100
AcDbEntity
  8
0
100
AcDbLine
 62
7
  6
CONTINUOUS
 10
2.9333889723
 20
-24.0120470476
 11
2.9495031766
 21
-24.0325282144
  0
LINE
  5
3D6
100
AcDbEntity
  8
RACCORDO
100
AcDbLine
 62
7
  6
CONTINUOUS
 10
-24.688139912
 20
-5.4060755594
 11
-24.7114713744
 21
-5.376316997
  0
LINE
  5
3D7
100
AcDbEntity
  8
0
100
AcDbLine
 62
7
  6
CONTINUOUS
 10
2.844943342
 20
-24.0964809906
 11
2.8264191612
 21
-24.0726574043
  0
LINE
  5
3D8
100
AcDbEntity
  8
RACCORDO
100
AcDbLine
 62
7
  6
CONTINUOUS
 10
-43.5301259021
 20
42.7293357371
 11
-43.5401234503
 21
42.7423155492
  0
LINE
  5
3D9
100
AcDbEntity
  8
RACCORDO
100
AcDbLine
 62
7
  6
CONTINUOUS
 10
23.5337183291
 20
3.3328955041
 11
23.5170569727
 21
3.3545547251
  0
LINE
  5
3DA
100
AcDbEntity
  8
RACCORDO
100
AcDbLine
 62
7
  6
CONTINUOUS
 10
-24.1999073986
 20
-4.9261478548
 11
-24.2143823924
 21
-4.9072937897
  0
LINE
  5
3DB
100
AcDbEntity
  8
RACCORDO
100
AcDbLine
 62
7
  6
CONTINUOUS
 10
23.2002505964
 20
4.4738097815
 11
23.2227284553
 21
4.4445032212
  0
LINE
  5
3DC
100
AcDbEntity
  8
RACCORDO
100
AcDbLine
 62
7
  6
CONTINUOUS
 10
-41.6168904481
 20
-11.1104331981
 11
-41.5920496139
 21
-11.1429004821
  0
LINE
  5
3DD
100
AcDbEntity
  8
0
100
AcDbLine
 62
7
  6
CONTINUOUS
 10
3.075122369
 20
-23.9208104743
 11
3.0990491147
 21
-23.952154827
  0
LINE
  5
3DE
100
AcDbEntity
  8
0
100
AcDbLine
 62
7
  6
CONTINUOUS
 10
2.8297088027
 20
-25.0179921267
 11
2.8151350434
 21
-24.9988825229
  0
LINE
  5
3DF
100
AcDbEntity
  8
0
100
AcDbLine
 62
7
  6
CONTINUOUS
 10
-19.9049002809
 20
4.3549769823
 11
-19.9184282386
 21
4.3727274932
  0
LINE
  5
3E0
100
AcDbEntity
  8
RACCORDO
100
AcDbLine
 62
7
  6
CONTINUOUS
 10
-24.7114713744
 20
-5.376316997
 11
-24.7345203464
 21
-5.3458770467
  0
LINE
  5
3E1
100
AcDbEntity
  8
0
100
AcDbLine
 62
7
  6
CONTINUOUS
 10
2.9237274889
 20
-24.9402083408
 11
2.9382562034
 21
-24.959486788
  0
LINE
  5
3E2
100
AcDbEntity
  8
RACCORDO
100
AcDbLine
 62
7
  6
CONTINUOUS
 10
23.1626270509
 20
4.3442069361
 11
23.1921591386
 21
4.304950517
  0
LINE
  5
3E3
100
AcDbEntity
  8
RACCORDO
100
AcDbLine
 62
7
  6
CONTINUOUS
 10
-41.6688812954
 20
-11.0975152464
 11
-41.6314802666
 21
-11.1479057724
  0
LINE
  5
3E4
100
AcDbEntity
  8
RACCORDO
100
AcDbLine
 62
7
  6
CONTINUOUS
 10
-24.2143823924
 20
-4.9072937897
 11
-24.2286590015
 21
-4.8880290665
  0
LINE
  5
3E5
100
AcDbEntity
  8
RACCORDO
100
AcDbLine
 62
7
  6
CONTINUOUS
 10
23.2227284553
 20
4.4445032212
 11
23.2448602489
 21
4.4145247126
  0
LINE
  5
3E6
100
AcDbEntity
  8
RACCORDO
100
AcDbLine
 62
7
  6
CONTINUOUS
 10
-24.7345203464
 20
-5.3458770467
 11
-24.7572936933
 21
-5.3147577105
  0
LINE
  5
3E7
100
AcDbEntity
  8
0
100
AcDbLine
 62
7
  6
CONTINUOUS
 10
3.1587489483
 20
-25.0315785331
 11
3.17532651
 21
-25.0544939166
  0
LINE
  5
3E8
100
AcDbEntity
  8
RACCORDO
100
AcDbLine
 62
7
  6
CONTINUOUS
 10
-41.6409032075
 20
-11.0772067921
 11
-41.6168904481
 21
-11.1104331981
  0
LINE
  5
3E9
100
AcDbEntity
  8
0
100
AcDbLine
 62
7
  6
CONTINUOUS
 10
2.9495031766
 20
-24.0325282144
 11
2.9647407718
 21
-24.0536125351
  0
LINE
  5
3EA
100
AcDbEntity
  8
RACCORDO
100
AcDbLine
 62
7
  6
CONTINUOUS
 10
23.5337192169
 20
-32.3771928775
 11
23.5170574938
 21
-32.3541308681
  0
LINE
  5
3EB
100
AcDbEntity
  8
RACCORDO
100
AcDbLine
 62
7
  6
CONTINUOUS
 10
-43.5301258987
 20
5.7161404579
 11
-43.5401234468
 21
5.729992657
  0
LINE
  5
3EC
100
AcDbEntity
  8
RACCORDO
100
AcDbLine
 62
7
  6
CONTINUOUS
 10
-24.2286590015
 20
-4.8880290665
 11
-24.2427595371
 21
-4.868296615
  0
LINE
  5
3ED
100
AcDbEntity
  8
0
100
AcDbLine
 62
7
  6
CONTINUOUS
 10
3.0990491147
 20
-23.952154827
 11
3.122977077
 21
-23.9857474745
  0
LINE
  5
3EE
100
AcDbEntity
  8
RACCORDO
100
AcDbLine
 62
7
  6
CONTINUOUS
 10
23.2448602489
 20
4.4145247126
 11
23.266639801
 21
4.3838700968
  0
LINE
  5
3EF
100
AcDbEntity
  8
0
100
AcDbLine
 62
7
  6
CONTINUOUS
 10
2.8627129912
 20
-24.1215051913
 11
2.844943342
 21
-24.0964809906
  0
LINE
  5
3F0
100
AcDbEntity
  8
RACCORDO
100
AcDbLine
 62
7
  6
CONTINUOUS
 10
-24.7572936933
 20
-5.3147577105
 11
-24.7797839253
 21
-5.2829565891
  0
LINE
  5
3F1
100
AcDbEntity
  8
RACCORDO
100
AcDbLine
 62
7
  6
CONTINUOUS
 10
23.1921591386
 20
4.304950517
 11
23.220955339
 21
4.2639735761
  0
LINE
  5
3F2
100
AcDbEntity
  8
0
100
AcDbLine
 62
7
  6
CONTINUOUS
 10
2.8435889118
 20
-25.0377837065
 11
2.8297088027
 21
-25.0179921267
  0
LINE
  5
3F3
100
AcDbEntity
  8
0
100
AcDbLine
 62
7
  6
CONTINUOUS
 10
2.9382562034
 20
-24.959486788
 11
2.9519939417
 21
-24.9792884946
  0
LINE
  5
3F4
100
AcDbEntity
  8
RACCORDO
100
AcDbLine
 62
7
  6
CONTINUOUS
 10
-41.7043849273
 20
-11.0459906421
 11
-41.6688812954
 21
-11.0975152464
  0
LINE
  5
3F5
100
AcDbEntity
  8
RACCORDO
100
AcDbLine
 62
7
  6
CONTINUOUS
 10
-24.2427595371
 20
-4.868296615
 11
-24.2566622125
 21
-4.8481103481
  0
LINE
  5
3F6
100
AcDbEntity
  8
RACCORDO
100
AcDbLine
 62
7
  6
CONTINUOUS
 10
-24.9280890433
 20
31.9758799452
 11
-24.9041426521
 21
31.9410510485
  0
LINE
  5
3F7
100
AcDbEntity
  8
RACCORDO
100
AcDbLine
 62
7
  6
CONTINUOUS
 10
23.266639801
 20
4.3838700968
 11
23.2880606719
 21
4.3524901015
  0
LINE
  5
3F8
100
AcDbEntity
  8
RACCORDO
100
AcDbLine
 62
7
  6
CONTINUOUS
 10
-24.7797839253
 20
-5.2829565891
 11
-24.8019670141
 21
-5.2504200822
  0
LINE
  5
3F9
100
AcDbEntity
  8
RACCORDO
100
AcDbLine
 62
7
  6
CONTINUOUS
 10
-41.6638409574
 20
-11.0435493861
 11
-41.6409032075
 21
-11.0772067921
  0
LINE
  5
3FA
100
AcDbEntity
  8
RACCORDO
100
AcDbLine
 62
7
  6
CONTINUOUS
 10
-41.9047774624
 20
61.1431235418
 11
-41.9129212639
 21
61.1550929995
  0
LINE
  5
3FB
100
AcDbEntity
  8
RACCORDO
100
AcDbLine
 62
7
  6
CONTINUOUS
 10
-41.8946556622
 20
-10.5886134903
 11
-41.904774542
 21
-10.5737261513
  0
LINE
  5
3FC
100
AcDbEntity
  8
0
100
AcDbLine
 62
7
  6
CONTINUOUS
 10
3.122977077
 20
-23.9857474745
 11
3.1470820502
 21
-24.0217334943
  0
LINE
  5
3FD
100
AcDbEntity
  8
RACCORDO
100
AcDbLine
 62
7
  6
CONTINUOUS
 10
-24.1468072526
 20
31.7909953123
 11
-24.1339382997
 21
31.7717344342
  0
LINE
  5
3FE
100
AcDbEntity
  8
RACCORDO
100
AcDbLine
 62
7
  6
CONTINUOUS
 10
22.7946824083
 20
4.6875674758
 11
22.807551365
 21
4.6683065998
  0
LINE
  5
3FF
100
AcDbEntity
  8
RACCORDO
100
AcDbLine
 62
7
  6
CONTINUOUS
 10
-24.2566622125
 20
-4.8481103481
 11
-24.2703463835
 21
-4.8274803458
  0
LINE
  5
400
100
AcDbEntity
  8
RACCORDO
100
AcDbLine
 62
7
  6
CONTINUOUS
 10
23.4634163192
 20
-32.9797828818
 11
23.4401505918
 21
-32.9445609782
  0
LINE
  5
401
100
AcDbEntity
  8
0
100
AcDbLine
 62
7
  6
CONTINUOUS
 10
3.17532651
 20
-25.0544939166
 11
3.1907003952
 21
-25.0777856567
  0
LINE
  5
402
100
AcDbEntity
  8
RACCORDO
100
AcDbLine
 62
7
  6
CONTINUOUS
 10
-24.8019670141
 20
-5.2504200822
 11
-24.8238514171
 21
-5.2171486588
  0
LINE
  5
403
100
AcDbEntity
  8
0
100
AcDbLine
 62
7
  6
CONTINUOUS
 10
2.9647407718
 20
-24.0536125351
 11
2.9790492679
 21
-24.0753747035
  0
LINE
  5
404
100
AcDbEntity
  8
RACCORDO
100
AcDbLine
 62
7
  6
CONTINUOUS
 10
23.2880606719
 20
4.3524901015
 11
23.3091309378
 21
4.3203874277
  0
LINE
  5
405
100
AcDbEntity
  8
RACCORDO
100
AcDbLine
 62
7
  6
CONTINUOUS
 10
23.220955339
 20
4.2639735761
 11
23.2488504635
 21
4.2214471866
  0
LINE
  5
406
100
AcDbEntity
  8
0
100
AcDbLine
 62
7
  6
CONTINUOUS
 10
2.8568283092
 20
-25.0582764964
 11
2.8435889118
 21
-25.0377837065
  0
LINE
  5
407
100
AcDbEntity
  8
0
100
AcDbLine
 62
7
  6
CONTINUOUS
 10
2.8790785115
 20
-24.1470103245
 11
2.8627129912
 21
-24.1215051913
  0
LINE
  5
408
100
AcDbEntity
  8
RACCORDO
100
AcDbLine
 62
7
  6
CONTINUOUS
 10
-41.6856929167
 20
-11.0094563074
 11
-41.6638409574
 21
-11.0435493861
  0
LINE
  5
409
100
AcDbEntity
  8
RACCORDO
100
AcDbLine
 62
7
  6
CONTINUOUS
 10
-41.2377755932
 20
-11.498264492
 11
-41.2288163829
 21
-11.5122883986
  0
LINE
  5
40A
100
AcDbEntity
  8
RACCORDO
100
AcDbLine
 62
7
  6
CONTINUOUS
 10
43.4427525374
 20
-60.3917397325
 11
43.4517116155
 21
-60.4057636033
  0
LINE
  5
40B
100
AcDbEntity
  8
0
100
AcDbLine
 62
7
  6
CONTINUOUS
 10
2.9519939417
 20
-24.9792884946
 11
2.9650084733
 21
-24.9996652361
  0
LINE
  5
40C
100
AcDbEntity
  8
RACCORDO
100
AcDbLine
 62
7
  6
CONTINUOUS
 10
-24.2703463835
 20
-4.8274803458
 11
-24.2838288822
 21
-4.8063409493
  0
LINE
  5
40D
100
AcDbEntity
  8
RACCORDO
100
AcDbLine
 62
7
  6
CONTINUOUS
 10
-41.7378569694
 20
-10.9935042221
 11
-41.7043849273
 21
-11.0459906421
  0
LINE
  5
40E
100
AcDbEntity
  8
RACCORDO
100
AcDbLine
 62
7
  6
CONTINUOUS
 10
-24.8238514171
 20
-5.2171486588
 11
-24.8454279017
 21
-5.1831413573
  0
LINE
  5
40F
100
AcDbEntity
  8
RACCORDO
100
AcDbLine
 62
7
  6
CONTINUOUS
 10
23.3091309378
 20
4.3203874277
 11
23.3298431469
 21
4.2875596981
  0
LINE
  5
410
100
AcDbEntity
  8
0
100
AcDbLine
 62
7
  6
CONTINUOUS
 10
3.1470820502
 20
-24.0217334943
 11
3.1711903374
 21
-24.0599664223
  0
LINE
  5
411
100
AcDbEntity
  8
0
100
AcDbLine
 62
7
  6
CONTINUOUS
 10
3.1907003952
 20
-25.0777856567
 11
3.2050716249
 21
-25.1009708475
  0
LINE
  5
412
100
AcDbEntity
  8
RACCORDO
100
AcDbLine
 62
7
  6
CONTINUOUS
 10
-24.2838288822
 20
-4.8063409493
 11
-24.2970957804
 21
-4.7846788991
  0
LINE
  5
413
100
AcDbEntity
  8
RACCORDO
100
AcDbLine
 62
7
  6
CONTINUOUS
 10
23.2488504635
 20
4.2214471866
 11
23.2757015458
 21
4.1775346094
  0
LINE
  5
414
100
AcDbEntity
  8
RACCORDO
100
AcDbLine
 62
7
  6
CONTINUOUS
 10
-24.8454279017
 20
-5.1831413573
 11
-24.8666458133
 21
-5.1483423727
  0
LINE
  5
415
100
AcDbEntity
  8
RACCORDO
100
AcDbLine
 62
7
  6
CONTINUOUS
 10
23.3298431469
 20
4.2875596981
 11
23.3501676333
 21
4.2539500574
  0
LINE
  5
416
100
AcDbEntity
  8
RACCORDO
100
AcDbLine
 62
7
  6
CONTINUOUS
 10
-41.7064685926
 20
-10.9749312259
 11
-41.6856929167
 21
-11.0094563074
  0
LINE
  5
417
100
AcDbEntity
  8
0
100
AcDbLine
 62
7
  6
CONTINUOUS
 10
-19.8930774734
 20
4.3353178544
 11
-19.9049002809
 21
4.3549769823
  0
LINE
  5
418
100
AcDbEntity
  8
0
100
AcDbLine
 62
7
  6
CONTINUOUS
 10
2.8693703196
 20
-25.0791582641
 11
2.8568283092
 21
-25.0582764964
  0
LINE
  5
419
100
AcDbEntity
  8
0
100
AcDbLine
 62
7
  6
CONTINUOUS
 10
2.9790492679
 20
-24.0753747035
 11
2.9924818125
 21
-24.0977395895
  0
LINE
  5
41A
100
AcDbEntity
  8
RACCORDO
100
AcDbLine
 62
7
  6
CONTINUOUS
 10
-43.5401234503
 20
42.7423155492
 11
-43.5481283794
 21
42.7556543629
  0
LINE
  5
41B
100
AcDbEntity
  8
RACCORDO
100
AcDbLine
 62
7
  6
CONTINUOUS
 10
23.5170569727
 20
3.3545547251
 11
23.5037168185
 21
3.3768169753
  0
LINE
  5
41C
100
AcDbEntity
  8
0
100
AcDbLine
 62
7
  6
CONTINUOUS
 10
2.9650084733
 20
-24.9996652361
 11
2.9772973636
 21
-25.0203285359
  0
LINE
  5
41D
100
AcDbEntity
  8
RACCORDO
100
AcDbLine
 62
7
  6
CONTINUOUS
 10
-41.7691027156
 20
-10.9403445417
 11
-41.7378569694
 21
-10.9935042221
  0
LINE
  5
41E
100
AcDbEntity
  8
RACCORDO
100
AcDbLine
 62
7
  6
CONTINUOUS
 10
-24.2970957804
 20
-4.7846788991
 11
-24.3101063883
 21
-4.7625359052
  0
LINE
  5
41F
100
AcDbEntity
  8
RACCORDO
100
AcDbLine
 62
7
  6
CONTINUOUS
 10
-24.8666458133
 20
-5.1483423727
 11
-24.8874879262
 21
-5.1127328873
  0
LINE
  5
420
100
AcDbEntity
  8
0
100
AcDbLine
 62
7
  6
CONTINUOUS
 10
3.2050716249
 20
-25.1009708475
 11
3.2184141821
 21
-25.1239184756
  0
LINE
  5
421
100
AcDbEntity
  8
0
100
AcDbLine
 62
7
  6
CONTINUOUS
 10
3.1711903374
 20
-24.0599664223
 11
3.1944977624
 21
-24.1000870765
  0
LINE
  5
422
100
AcDbEntity
  8
RACCORDO
100
AcDbLine
 62
7
  6
CONTINUOUS
 10
23.3501676333
 20
4.2539500574
 11
23.3701141591
 21
4.2195597276
  0
LINE
  5
423
100
AcDbEntity
  8
RACCORDO
100
AcDbLine
 62
7
  6
CONTINUOUS
 10
23.2757015458
 20
4.1775346094
 11
23.3013760559
 21
4.1324050467
  0
LINE
  5
424
100
AcDbEntity
  8
0
100
AcDbLine
 62
7
  6
CONTINUOUS
 10
2.8938915246
 20
-24.1730624375
 11
2.8790785115
 21
-24.1470103245
  0
LINE
  5
425
100
AcDbEntity
  8
RACCORDO
100
AcDbLine
 62
7
  6
CONTINUOUS
 10
-41.7259516815
 20
-10.9403149342
 11
-41.7064685926
 21
-10.9749312259
  0
LINE
  5
426
100
AcDbEntity
  8
RACCORDO
100
AcDbLine
 62
7
  6
CONTINUOUS
 10
-24.3101063883
 20
-4.7625359052
 11
-24.3228326066
 21
-4.7399292665
  0
LINE
  5
427
100
AcDbEntity
  8
RACCORDO
100
AcDbLine
 62
7
  6
CONTINUOUS
 10
-24.8874879262
 20
-5.1127328873
 11
-24.9079704873
 21
-5.0763310975
  0
LINE
  5
428
100
AcDbEntity
  8
RACCORDO
100
AcDbLine
 62
7
  6
CONTINUOUS
 10
23.4401505918
 20
-32.9445609782
 11
23.419596844
 21
-32.9079755649
  0
LINE
  5
429
100
AcDbEntity
  8
RACCORDO
100
AcDbLine
 62
7
  6
CONTINUOUS
 10
23.5170574938
 20
-32.3541308681
 11
23.5037169855
 21
-32.3302143639
  0
LINE
  5
42A
100
AcDbEntity
  8
0
100
AcDbLine
 62
7
  6
CONTINUOUS
 10
2.8812236986
 20
-25.1004225369
 11
2.8693703196
 21
-25.0791582641
  0
LINE
  5
42B
100
AcDbEntity
  8
RACCORDO
100
AcDbLine
 62
7
  6
CONTINUOUS
 10
-43.5401234468
 20
5.729992657
 11
-43.548128376
 21
5.7443602282
  0
LINE
  5
42C
100
AcDbEntity
  8
RACCORDO
100
AcDbLine
 62
7
  6
CONTINUOUS
 10
23.3701141591
 20
4.2195597276
 11
23.3896737373
 21
4.1843878892
  0
LINE
  5
42D
100
AcDbEntity
  8
0
100
AcDbLine
 62
7
  6
CONTINUOUS
 10
2.9772973636
 20
-25.0203285359
 11
2.9888686845
 21
-25.0412504982
  0
LINE
  5
42E
100
AcDbEntity
  8
0
100
AcDbLine
 62
7
  6
CONTINUOUS
 10
2.9924818125
 20
-24.0977395895
 11
3.0047682447
 21
-24.1201379448
  0
LINE
  5
42F
100
AcDbEntity
  8
RACCORDO
100
AcDbLine
 62
7
  6
CONTINUOUS
 10
-24.9079704873
 20
-5.0763310975
 11
-24.9280929801
 21
-5.039136676
  0
LINE
  5
430
100
AcDbEntity
  8
0
100
AcDbLine
 62
7
  6
CONTINUOUS
 10
3.2184141821
 20
-25.1239184756
 11
3.2307543797
 21
-25.1467593553
  0
LINE
  5
431
100
AcDbEntity
  8
RACCORDO
100
AcDbLine
 62
7
  6
CONTINUOUS
 10
-41.7980214514
 20
-10.8866620316
 11
-41.7691027156
 21
-10.9403445417
  0
LINE
  5
432
100
AcDbEntity
  8
0
100
AcDbLine
 62
7
  6
CONTINUOUS
 10
3.1944977624
 20
-24.1000870765
 11
3.2171019226
 21
-24.1425054814
  0
LINE
  5
433
100
AcDbEntity
  8
RACCORDO
100
AcDbLine
 62
7
  6
CONTINUOUS
 10
23.3896737373
 20
4.1843878892
 11
23.408788671
 21
4.148374671
  0
LINE
  5
434
100
AcDbEntity
  8
RACCORDO
100
AcDbLine
 62
7
  6
CONTINUOUS
 10
-24.3228326066
 20
-4.7399292665
 11
-24.3430226263
 21
-4.701844815
  0
LINE
  5
435
100
AcDbEntity
  8
RACCORDO
100
AcDbLine
 62
7
  6
CONTINUOUS
 10
23.3013760559
 20
4.1324050467
 11
23.325742795
 21
4.0862501137
  0
LINE
  5
436
100
AcDbEntity
  8
RACCORDO
100
AcDbLine
 62
7
  6
CONTINUOUS
 10
-41.7441344691
 20
-10.9055906157
 11
-41.7259516815
 21
-10.9403149342
  0
LINE
  5
437
100
AcDbEntity
  8
RACCORDO
100
AcDbLine
 62
7
  6
CONTINUOUS
 10
-41.904774542
 20
-10.5737261513
 11
-41.9129178508
 21
-10.5581369216
  0
LINE
  5
438
100
AcDbEntity
  8
RACCORDO
100
AcDbLine
 62
7
  6
CONTINUOUS
 10
-24.1579115868
 20
31.8123114874
 11
-24.1468072526
 21
31.7909953123
  0
LINE
  5
439
100
AcDbEntity
  8
RACCORDO
100
AcDbLine
 62
7
  6
CONTINUOUS
 10
22.7835780701
 20
4.7088836501
 11
22.7946824083
 21
4.6875674758
  0
LINE
  5
43A
100
AcDbEntity
  8
0
100
AcDbLine
 62
7
  6
CONTINUOUS
 10
2.8923801918
 20
-25.1220754503
 11
2.8812236986
 21
-25.1004225369
  0
LINE
  5
43B
100
AcDbEntity
  8
0
100
AcDbLine
 62
7
  6
CONTINUOUS
 10
3.2307543797
 20
-25.1467593553
 11
3.2423714588
 21
-25.1694035067
  0
LINE
  5
43C
100
AcDbEntity
  8
0
100
AcDbLine
 62
7
  6
CONTINUOUS
 10
2.9888686845
 20
-25.0412504982
 11
2.9997148025
 21
-25.0624587237
  0
LINE
  5
43D
100
AcDbEntity
  8
RACCORDO
100
AcDbLine
 62
7
  6
CONTINUOUS
 10
-24.9280929801
 20
-5.039136676
 11
-24.960062155
 21
-4.9764662553
  0
LINE
  5
43E
100
AcDbEntity
  8
RACCORDO
100
AcDbLine
 62
7
  6
CONTINUOUS
 10
-41.9129212639
 20
61.1550929995
 11
-41.9190314739
 21
61.1671279921
  0
LINE
  5
43F
100
AcDbEntity
  8
RACCORDO
100
AcDbLine
 62
7
  6
CONTINUOUS
 10
23.408788671
 20
4.148374671
 11
23.4274400684
 21
4.1115002929
  0
LINE
  5
440
100
AcDbEntity
  8
0
100
AcDbLine
 62
7
  6
CONTINUOUS
 10
2.9073014125
 20
-24.1995948166
 11
2.8938915246
 21
-24.1730624375
  0
LINE
  5
441
100
AcDbEntity
  8
0
100
AcDbLine
 62
7
  6
CONTINUOUS
 10
3.0047682447
 20
-24.1201379448
 11
3.0158221139
 21
-24.1425282731
  0
LINE
  5
442
100
AcDbEntity
  8
0
100
AcDbLine
 62
7
  6
CONTINUOUS
 10
3.2171019226
 20
-24.1425054814
 11
3.2389082917
 21
-24.1868095791
  0
LINE
  5
443
100
AcDbEntity
  8
RACCORDO
100
AcDbLine
 62
7
  6
CONTINUOUS
 10
-41.8244966484
 20
-10.8326130121
 11
-41.7980214514
 21
-10.8866620316
  0
LINE
  5
444
100
AcDbEntity
  8
RACCORDO
100
AcDbLine
 62
7
  6
CONTINUOUS
 10
-24.3430226263
 20
-4.701844815
 11
-24.361927596
 21
-4.663195954
  0
LINE
  5
445
100
AcDbEntity
  8
RACCORDO
100
AcDbLine
 62
7
  6
CONTINUOUS
 10
23.325742795
 20
4.0862501137
 11
23.3486857076
 21
4.0392601537
  0
LINE
  5
446
100
AcDbEntity
  8
0
100
AcDbLine
 62
7
  6
CONTINUOUS
 10
3.2423714588
 20
-25.1694035067
 11
3.2533044889
 21
-25.1918469716
  0
LINE
  5
447
100
AcDbEntity
  8
RACCORDO
100
AcDbLine
 62
7
  6
CONTINUOUS
 10
-41.7610235169
 20
-10.8707741816
 11
-41.7441344691
 21
-10.9055906157
  0
LINE
  5
448
100
AcDbEntity
  8
RACCORDO
100
AcDbLine
 62
7
  6
CONTINUOUS
 10
23.4274400684
 20
4.1115002929
 11
23.4456478001
 21
4.0737850441
  0
LINE
  5
449
100
AcDbEntity
  8
0
100
AcDbLine
 62
7
  6
CONTINUOUS
 10
2.9027574651
 20
-25.1438237814
 11
2.8923801918
 21
-25.1220754503
  0
LINE
  5
44A
100
AcDbEntity
  8
0
100
AcDbLine
 62
7
  6
CONTINUOUS
 10
2.9997148025
 20
-25.0624587237
 11
3.0098095951
 21
-25.0837480671
  0
LINE
  5
44B
100
AcDbEntity
  8
RACCORDO
100
AcDbLine
 62
7
  6
CONTINUOUS
 10
-41.2452206205
 20
-11.4825223164
 11
-41.2377755932
 21
-11.498264492
  0
LINE
  5
44C
100
AcDbEntity
  8
RACCORDO
100
AcDbLine
 62
7
  6
CONTINUOUS
 10
43.4353076327
 20
-60.3759976649
 11
43.4427525374
 21
-60.3917397325
  0
LINE
  5
44D
100
AcDbEntity
  8
RACCORDO
100
AcDbLine
 62
7
  6
CONTINUOUS
 10
-24.960062155
 20
-4.9764662553
 11
-24.9898098817
 21
-4.9132660161
  0
LINE
  5
44E
100
AcDbEntity
  8
RACCORDO
100
AcDbLine
 62
7
  6
CONTINUOUS
 10
23.419596844
 20
-32.9079755649
 11
23.4019031819
 21
-32.8702902684
  0
LINE
  5
44F
100
AcDbEntity
  8
0
100
AcDbLine
 62
7
  6
CONTINUOUS
 10
-19.8829870695
 20
4.3137196041
 11
-19.8930774734
 21
4.3353178544
  0
LINE
  5
450
100
AcDbEntity
  8
RACCORDO
100
AcDbLine
 62
7
  6
CONTINUOUS
 10
23.4456478001
 20
4.0737850441
 11
23.4634123824
 21
4.0352291934
  0
LINE
  5
451
100
AcDbEntity
  8
0
100
AcDbLine
 62
7
  6
CONTINUOUS
 10
3.2533044889
 20
-25.1918469716
 11
3.2635145554
 21
-25.2140936034
  0
LINE
  5
452
100
AcDbEntity
  8
RACCORDO
100
AcDbLine
 62
7
  6
CONTINUOUS
 10
23.3486857076
 20
4.0392601537
 11
23.3602773881
 21
4.0139817076
  0
LINE
  5
453
100
AcDbEntity
  8
0
100
AcDbLine
 62
7
  6
CONTINUOUS
 10
2.9191048296
 20
-24.2256888968
 11
2.9073014125
 21
-24.1995948166
  0
LINE
  5
454
100
AcDbEntity
  8
RACCORDO
100
AcDbLine
 62
7
  6
CONTINUOUS
 10
-24.361927596
 20
-4.663195954
 11
-24.379470916
 21
-4.6240978148
  0
LINE
  5
455
100
AcDbEntity
  8
0
100
AcDbLine
 62
7
  6
CONTINUOUS
 10
3.2389082917
 20
-24.1868095791
 11
3.2588240788
 21
-24.2314073476
  0
LINE
  5
456
100
AcDbEntity
  8
RACCORDO
100
AcDbLine
 62
7
  6
CONTINUOUS
 10
-41.7764242464
 20
-10.8362557623
 11
-41.7610235169
 21
-10.8707741816
  0
LINE
  5
457
100
AcDbEntity
  8
0
100
AcDbLine
 62
7
  6
CONTINUOUS
 10
3.0158221139
 20
-24.1425282731
 11
3.025730359
 21
-24.1649517461
  0
LINE
  5
458
100
AcDbEntity
  8
RACCORDO
100
AcDbLine
 62
7
  6
CONTINUOUS
 10
-41.8483834063
 20
-10.7784398418
 11
-41.8244966484
 21
-10.8326130121
  0
LINE
  5
459
100
AcDbEntity
  8
0
100
AcDbLine
 62
7
  6
CONTINUOUS
 10
2.9123281681
 20
-25.1655697255
 11
2.9027574651
 21
-25.1438237814
  0
LINE
  5
45A
100
AcDbEntity
  8
0
100
AcDbLine
 62
7
  6
CONTINUOUS
 10
3.2635145554
 20
-25.2140936034
 11
3.2731637729
 21
-25.2360652405
  0
LINE
  5
45B
100
AcDbEntity
  8
0
100
AcDbLine
 62
7
  6
CONTINUOUS
 10
3.0098095951
 20
-25.0837480671
 11
3.0191444485
 21
-25.1050500836
  0
LINE
  5
45C
100
AcDbEntity
  8
RACCORDO
100
AcDbLine
 62
7
  6
CONTINUOUS
 10
-43.5481283794
 20
42.7556543629
 11
-43.5540837536
 21
42.7692573043
  0
LINE
  5
45D
100
AcDbEntity
  8
RACCORDO
100
AcDbLine
 62
7
  6
CONTINUOUS
 10
23.3602774883
 20
4.0139807438
 11
23.3719260835
 21
3.9873677089
  0
LINE
  5
45E
100
AcDbEntity
  8
RACCORDO
100
AcDbLine
 62
7
  6
CONTINUOUS
 10
23.5037168185
 20
3.3768169753
 11
23.4937927492
 21
3.3995239129
  0
LINE
  5
45F
100
AcDbEntity
  8
RACCORDO
100
AcDbLine
 62
7
  6
CONTINUOUS
 10
-24.9898098817
 20
-4.9132660161
 11
-25.0173355077
 21
-4.8495355443
  0
LINE
  5
460
100
AcDbEntity
  8
RACCORDO
100
AcDbLine
 62
7
  6
CONTINUOUS
 10
23.4634123824
 20
4.0352291934
 11
23.4913324191
 21
3.9701773169
  0
LINE
  5
461
100
AcDbEntity
  8
0
100
AcDbLine
 62
7
  6
CONTINUOUS
 10
3.2731637729
 20
-25.2360652405
 11
3.2822703244
 21
-25.2577573614
  0
LINE
  5
462
100
AcDbEntity
  8
RACCORDO
100
AcDbLine
 62
7
  6
CONTINUOUS
 10
-24.379470916
 20
-4.6240978148
 11
-24.3956214677
 21
-4.5845722255
  0
LINE
  5
463
100
AcDbEntity
  8
RACCORDO
100
AcDbLine
 62
7
  6
CONTINUOUS
 10
-41.7903124102
 20
-10.8020561751
 11
-41.7764242464
 21
-10.8362557623
  0
LINE
  5
464
100
AcDbEntity
  8
RACCORDO
100
AcDbLine
 62
7
  6
CONTINUOUS
 10
23.5037169855
 20
-32.3302143639
 11
23.4937925785
 21
-32.3056134746
  0
LINE
  5
465
100
AcDbEntity
  8
RACCORDO
100
AcDbLine
 62
7
  6
CONTINUOUS
 10
-43.548128376
 20
5.7443602282
 11
-43.5540837503
 21
5.7591409806
  0
LINE
  5
466
100
AcDbEntity
  8
0
100
AcDbLine
 62
7
  6
CONTINUOUS
 10
2.9211200278
 20
-25.1874108335
 11
2.9123281681
 21
-25.1655697255
  0
LINE
  5
467
100
AcDbEntity
  8
0
100
AcDbLine
 62
7
  6
CONTINUOUS
 10
3.0191444485
 20
-25.1050500836
 11
3.027728329
 21
-25.1264329803
  0
LINE
  5
468
100
AcDbEntity
  8
RACCORDO
100
AcDbLine
 62
7
  6
CONTINUOUS
 10
-24.1671891214
 20
31.8355635954
 11
-24.1579115868
 21
31.8123114874
  0
LINE
  5
469
100
AcDbEntity
  8
0
100
AcDbLine
 62
7
  6
CONTINUOUS
 10
3.2822703244
 20
-25.2577573614
 11
3.2908160612
 21
-25.2791744638
  0
LINE
  5
46A
100
AcDbEntity
  8
0
100
AcDbLine
 62
7
  6
CONTINUOUS
 10
3.025730359
 20
-24.1649517461
 11
3.0344826233
 21
-24.1869633042
  0
LINE
  5
46B
100
AcDbEntity
  8
0
100
AcDbLine
 62
7
  6
CONTINUOUS
 10
2.9292016802
 20
-24.2511456033
 11
2.9191048296
 21
-24.2256888968
  0
LINE
  5
46C
100
AcDbEntity
  8
0
100
AcDbLine
 62
7
  6
CONTINUOUS
 10
3.2588240788
 20
-24.2314073476
 11
3.27661737
 21
-24.2763602732
  0
LINE
  5
46D
100
AcDbEntity
  8
RACCORDO
100
AcDbLine
 62
7
  6
CONTINUOUS
 10
-25.0173355077
 20
-4.8495355443
 11
-25.0427921934
 21
-4.784897187
  0
LINE
  5
46E
100
AcDbEntity
  8
RACCORDO
100
AcDbLine
 62
7
  6
CONTINUOUS
 10
-41.8695864733
 20
-10.724272555
 11
-41.8483834063
 21
-10.7784398418
  0
LINE
  5
46F
100
AcDbEntity
  8
0
100
AcDbLine
 62
7
  6
CONTINUOUS
 10
3.2908160612
 20
-25.2791744638
 11
3.2989084908
 21
-25.300251989
  0
LINE
  5
470
100
AcDbEntity
  8
RACCORDO
100
AcDbLine
 62
7
  6
CONTINUOUS
 10
23.4019031819
 20
-32.8702902684
 11
23.387197102
 21
-32.8317766407
  0
LINE
  5
471
100
AcDbEntity
  8
RACCORDO
100
AcDbLine
 62
7
  6
CONTINUOUS
 10
-41.9129178508
 20
-10.5581369216
 11
-41.9190276116
 21
-10.54195679
  0
LINE
  5
472
100
AcDbEntity
  8
0
100
AcDbLine
 62
7
  6
CONTINUOUS
 10
3.2989084908
 20
-25.300251989
 11
3.3065489284
 21
-25.3209578089
  0
LINE
  5
473
100
AcDbEntity
  8
RACCORDO
100
AcDbLine
 62
7
  6
CONTINUOUS
 10
-24.3956214677
 20
-4.5845722255
 11
-24.4102558873
 21
-4.5448427016
  0
LINE
  5
474
100
AcDbEntity
  8
RACCORDO
100
AcDbLine
 62
7
  6
CONTINUOUS
 10
-41.8027114322
 20
-10.7681539582
 11
-41.7903124102
 21
-10.8020561751
  0
LINE
  5
475
100
AcDbEntity
  8
0
100
AcDbLine
 62
7
  6
CONTINUOUS
 10
2.9291332521
 20
-25.2093469652
 11
2.9211200278
 21
-25.1874108335
  0
LINE
  5
476
100
AcDbEntity
  8
0
100
AcDbLine
 62
7
  6
CONTINUOUS
 10
3.027728329
 20
-25.1264329803
 11
3.0355614293
 21
-25.1478966275
  0
LINE
  5
477
100
AcDbEntity
  8
0
100
AcDbLine
 62
7
  6
CONTINUOUS
 10
-19.8746018156
 20
4.2902127369
 11
-19.8829870695
 21
4.3137196041
  0
LINE
  5
478
100
AcDbEntity
  8
RACCORDO
100
AcDbLine
 62
7
  6
CONTINUOUS
 10
-25.0427921934
 20
-4.784897187
 11
-25.0660253186
 21
-4.7197276721
  0
LINE
  5
479
100
AcDbEntity
  8
0
100
AcDbLine
 62
7
  6
CONTINUOUS
 10
3.3065489284
 20
-25.3209578089
 11
3.313735995
 21
-25.3413240938
  0
LINE
  5
47A
100
AcDbEntity
  8
0
100
AcDbLine
 62
7
  6
CONTINUOUS
 10
3.0344826233
 20
-24.1869633042
 11
3.0420632169
 21
-24.2085106116
  0
LINE
  5
47B
100
AcDbEntity
  8
0
100
AcDbLine
 62
7
  6
CONTINUOUS
 10
3.27661737
 20
-24.2763602732
 11
3.2925222748
 21
-24.3216054105
  0
LINE
  5
47C
100
AcDbEntity
  8
RACCORDO
100
AcDbLine
 62
7
  6
CONTINUOUS
 10
-41.888013106
 20
-10.6702023942
 11
-41.8695864733
 21
-10.724272555
  0
LINE
  5
47D
100
AcDbEntity
  8
0
100
AcDbLine
 62
7
  6
CONTINUOUS
 10
3.313735995
 20
-25.3413240938
 11
3.3205730993
 21
-25.3613827702
  0
LINE
  5
47E
100
AcDbEntity
  8
0
100
AcDbLine
 62
7
  6
CONTINUOUS
 10
2.937692446
 20
-24.2761637537
 11
2.9292016802
 21
-24.2511456033
  0
LINE
  5
47F
100
AcDbEntity
  8
0
100
AcDbLine
 62
7
  6
CONTINUOUS
 10
3.0355614293
 20
-25.1478966275
 11
3.0478247894
 21
-25.1840669467
  0
LINE
  5
480
100
AcDbEntity
  8
0
100
AcDbLine
 62
7
  6
CONTINUOUS
 10
2.9414278562
 20
-25.2456200874
 11
2.9291332521
 21
-25.2093469652
  0
LINE
  5
481
100
AcDbEntity
  8
RACCORDO
100
AcDbLine
 62
7
  6
CONTINUOUS
 10
-41.2510924548
 20
-11.4651866457
 11
-41.2452206205
 21
-11.4825223164
  0
LINE
  5
482
100
AcDbEntity
  8
RACCORDO
100
AcDbLine
 62
7
  6
CONTINUOUS
 10
-41.9190314739
 20
61.1671279921
 11
-41.9230645891
 21
61.1791428332
  0
LINE
  5
483
100
AcDbEntity
  8
0
100
AcDbLine
 62
7
  6
CONTINUOUS
 10
3.0478247894
 20
-25.1840669467
 11
3.0597692717
 21
-25.2201242974
  0
LINE
  5
484
100
AcDbEntity
  8
0
100
AcDbLine
 62
7
  6
CONTINUOUS
 10
2.9534001314
 20
-25.2817726179
 11
2.9414278562
 21
-25.2456200874
  0
LINE
  5
485
100
AcDbEntity
  8
0
100
AcDbLine
 62
7
  6
CONTINUOUS
 10
3.3205730993
 20
-25.3613827702
 11
3.3270525938
 21
-25.3810998599
  0
LINE
  5
486
100
AcDbEntity
  8
RACCORDO
100
AcDbLine
 62
7
  6
CONTINUOUS
 10
-24.4102558873
 20
-4.5448427016
 11
-24.4231967791
 21
-4.5053294566
  0
LINE
  5
487
100
AcDbEntity
  8
RACCORDO
100
AcDbLine
 62
7
  6
CONTINUOUS
 10
-41.8134986264
 20
-10.7348761274
 11
-41.8027114322
 21
-10.7681539582
  0
LINE
  5
488
100
AcDbEntity
  8
0
100
AcDbLine
 62
7
  6
CONTINUOUS
 10
3.0597692717
 20
-25.2201242974
 11
3.0713949284
 21
-25.2560686426
  0
LINE
  5
489
100
AcDbEntity
  8
0
100
AcDbLine
 62
7
  6
CONTINUOUS
 10
2.9650501263
 20
-25.3178045221
 11
2.9534001314
 21
-25.2817726179
  0
LINE
  5
48A
100
AcDbEntity
  8
RACCORDO
100
AcDbLine
 62
7
  6
CONTINUOUS
 10
-25.0660253186
 20
-4.7197276721
 11
-25.0865728721
 21
-4.6551583561
  0
LINE
  5
48B
100
AcDbEntity
  8
0
100
AcDbLine
 62
7
  6
CONTINUOUS
 10
3.3270525938
 20
-25.3810998599
 11
3.3331820441
 21
-25.4005093957
  0
LINE
  5
48C
100
AcDbEntity
  8
0
100
AcDbLine
 62
7
  6
CONTINUOUS
 10
2.976326563
 20
-25.3536822532
 11
2.9650501263
 21
-25.3178045221
  0
LINE
  5
48D
100
AcDbEntity
  8
0
100
AcDbLine
 62
7
  6
CONTINUOUS
 10
3.0713949284
 20
-25.2560686426
 11
3.0826506129
 21
-25.2918655426
  0
LINE
  5
48E
100
AcDbEntity
  8
0
100
AcDbLine
 62
7
  6
CONTINUOUS
 10
3.2925222748
 20
-24.3216054105
 11
3.3061431998
 21
-24.3653653067
  0
LINE
  5
48F
100
AcDbEntity
  8
0
100
AcDbLine
 62
7
  6
CONTINUOUS
 10
3.3331820441
 20
-25.4005093957
 11
3.339087691
 21
-25.4197453125
  0
LINE
  5
490
100
AcDbEntity
  8
0
100
AcDbLine
 62
7
  6
CONTINUOUS
 10
3.0826506129
 20
-25.2918655426
 11
3.1043594703
 21
-25.3632232741
  0
LINE
  5
491
100
AcDbEntity
  8
0
100
AcDbLine
 62
7
  6
CONTINUOUS
 10
2.9980669178
 20
-25.4251761303
 11
2.976326563
 21
-25.3536822532
  0
LINE
  5
492
100
AcDbEntity
  8
0
100
AcDbLine
 62
7
  6
CONTINUOUS
 10
3.0420632169
 20
-24.2085106116
 11
3.048488015
 21
-24.2296458802
  0
LINE
  5
493
100
AcDbEntity
  8
0
100
AcDbLine
 62
7
  6
CONTINUOUS
 10
3.339087691
 20
-25.4197453125
 11
3.3447598289
 21
-25.4387993829
  0
LINE
  5
494
100
AcDbEntity
  8
0
100
AcDbLine
 62
7
  6
CONTINUOUS
 10
3.1610571787
 20
-25.9774542751
 11
3.0716394509
 21
-25.6767515821
  0
LINE
  5
495
100
AcDbEntity
  8
0
100
AcDbLine
 62
7
  6
CONTINUOUS
 10
3.1779100322
 20
-25.6146547314
 11
3.2675315939
 21
-25.9159772822
  0
LINE
  5
496
100
AcDbEntity
  8
RACCORDO
100
AcDbLine
 62
7
  6
CONTINUOUS
 10
23.387197102
 20
-32.8317766407
 11
23.3755845732
 21
-32.7927122027
  0
LINE
  5
497
100
AcDbEntity
  8
RACCORDO
100
AcDbLine
 62
7
  6
CONTINUOUS
 10
-24.174587905
 20
31.8606214318
 11
-24.1671891214
 21
31.8355635954
  0
LINE
  5
498
100
AcDbEntity
  8
0
100
AcDbLine
 62
7
  6
CONTINUOUS
 10
3.0191346173
 20
-25.4965813652
 11
2.9980669178
 21
-25.4251761303
  0
LINE
  5
499
100
AcDbEntity
  8
0
100
AcDbLine
 62
7
  6
CONTINUOUS
 10
3.1043594703
 20
-25.3632232741
 11
3.1254082532
 21
-25.434535285
  0
LINE
  5
49A
100
AcDbEntity
  8
0
100
AcDbLine
 62
7
  6
CONTINUOUS
 10
3.1254082532
 20
-25.434535285
 11
3.1779100322
 21
-25.6146547314
  0
LINE
  5
49B
100
AcDbEntity
  8
0
100
AcDbLine
 62
7
  6
CONTINUOUS
 10
3.0716394509
 20
-25.6767515821
 11
3.0191346173
 21
-25.4965813652
  0
LINE
  5
49C
100
AcDbEntity
  8
RACCORDO
100
AcDbLine
 62
7
  6
CONTINUOUS
 10
-41.9035670175
 20
-10.6163057015
 11
-41.888013106
 21
-10.6702023942
  0
LINE
  5
49D
100
AcDbEntity
  8
0
100
AcDbLine
 62
7
  6
CONTINUOUS
 10
2.9446741551
 20
-24.3004219478
 11
2.937692446
 21
-24.2761637537
  0
LINE
  5
49E
100
AcDbEntity
  8
0
100
AcDbLine
 62
7
  6
CONTINUOUS
 10
3.3447598289
 20
-25.4387993829
 11
3.3555879612
 21
-25.4765453435
  0
LINE
  5
49F
100
AcDbEntity
  8
RACCORDO
100
AcDbLine
 62
7
  6
CONTINUOUS
 10
-24.4231967791
 20
-4.5053294566
 11
-24.4344051604
 21
-4.4661598686
  0
LINE
  5
4A0
100
AcDbEntity
  8
0
100
AcDbLine
 62
7
  6
CONTINUOUS
 10
3.3555879612
 20
-25.4765453435
 11
3.3662458246
 21
-25.5143370768
  0
LINE
  5
4A1
100
AcDbEntity
  8
RACCORDO
100
AcDbLine
 62
7
  6
CONTINUOUS
 10
-41.8226330304
 20
-10.7023316368
 11
-41.8134986264
 21
-10.7348761274
  0
LINE
  5
4A2
100
AcDbEntity
  8
RACCORDO
100
AcDbLine
 62
7
  6
CONTINUOUS
 10
-43.5540837536
 20
42.7692573043
 11
-43.5579472147
 21
42.7830276211
  0
LINE
  5
4A3
100
AcDbEntity
  8
0
100
AcDbLine
 62
7
  6
CONTINUOUS
 10
3.4776190695
 20
-25.9161068631
 11
3.5585449451
 21
-26.2069587297
  0
LINE
  5
4A4
100
AcDbEntity
  8
RACCORDO
100
AcDbLine
 62
7
  6
CONTINUOUS
 10
-25.0865728721
 20
-4.6551583561
 11
-25.1043216063
 21
-4.5912385907
  0
LINE
  5
4A5
100
AcDbEntity
  8
0
100
AcDbLine
 62
7
  6
CONTINUOUS
 10
3.3662458246
 20
-25.5143370768
 11
3.4776190695
 21
-25.9161068631
  0
LINE
  5
4A6
100
AcDbEntity
  8
0
100
AcDbLine
 62
7
  6
CONTINUOUS
 10
3.3061431998
 20
-24.3653653067
 11
3.3171732706
 21
-24.4072489827
  0
LINE
  5
4A7
100
AcDbEntity
  8
0
100
AcDbLine
 62
7
  6
CONTINUOUS
 10
-19.8680550236
 20
4.2651709732
 11
-19.8746018156
 21
4.2902127369
  0
LINE
  5
4A8
100
AcDbEntity
  8
0
100
AcDbLine
 62
7
  6
CONTINUOUS
 10
3.048488015
 20
-24.2296458802
 11
3.0537937287
 21
-24.2500810578
  0
LINE
  5
4A9
100
AcDbEntity
  8
RACCORDO
100
AcDbLine
 62
7
  6
CONTINUOUS
 10
23.4937925785
 20
-32.3056134746
 11
23.4873548615
 21
-32.2805031777
  0
LINE
  5
4AA
100
AcDbEntity
  8
RACCORDO
100
AcDbLine
 62
7
  6
CONTINUOUS
 10
-43.5540837503
 20
5.7591409806
 11
-43.5579472115
 21
5.7742297846
  0
LINE
  5
4AB
100
AcDbEntity
  8
RACCORDO
100
AcDbLine
 62
7
  6
CONTINUOUS
 10
-24.4344051604
 20
-4.4661598686
 11
-24.4438641899
 21
-4.4274510969
  0
LINE
  5
4AC
100
AcDbEntity
  8
RACCORDO
100
AcDbLine
 62
7
  6
CONTINUOUS
 10
-41.9190276116
 20
-10.54195679
 11
-41.9230603255
 21
-10.5253009525
  0
LINE
  5
4AD
100
AcDbEntity
  8
RACCORDO
100
AcDbLine
 62
7
  6
CONTINUOUS
 10
-25.1043216063
 20
-4.5912385907
 11
-25.1193839788
 21
-4.5279185256
  0
LINE
  5
4AE
100
AcDbEntity
  8
RACCORDO
100
AcDbLine
 62
7
  6
CONTINUOUS
 10
-41.8301551862
 20
-10.670411206
 11
-41.8226330304
 21
-10.7023316368
  0
LINE
  5
4AF
100
AcDbEntity
  8
0
100
AcDbLine
 62
7
  6
CONTINUOUS
 10
2.9501791095
 20
-24.3238130789
 11
2.9446741551
 21
-24.3004219478
  0
LINE
  5
4B0
100
AcDbEntity
  8
RACCORDO
100
AcDbLine
 62
7
  6
CONTINUOUS
 10
-41.9161375601
 20
-10.5626144867
 11
-41.9035670175
 21
-10.6163057015
  0
LINE
  5
4B1
100
AcDbEntity
  8
RACCORDO
100
AcDbLine
 62
7
  6
CONTINUOUS
 10
-41.2553445554
 20
-11.4463948842
 11
-41.2510924548
 21
-11.4651866457
  0
LINE
  5
4B2
100
AcDbEntity
  8
0
100
AcDbLine
 62
7
  6
CONTINUOUS
 10
3.3171732706
 20
-24.4072489827
 11
3.3259190024
 21
-24.4476476494
  0
LINE
  5
4B3
100
AcDbEntity
  8
0
100
AcDbLine
 62
7
  6
CONTINUOUS
 10
3.0537937287
 20
-24.2500810578
 11
3.0579925286
 21
-24.2697201706
  0
LINE
  5
4B4
100
AcDbEntity
  8
RACCORDO
100
AcDbLine
 62
7
  6
CONTINUOUS
 10
-24.1800665068
 20
31.8873446803
 11
-24.174587905
 21
31.8606214318
  0
LINE
  5
4B5
100
AcDbEntity
  8
RACCORDO
100
AcDbLine
 62
7
  6
CONTINUOUS
 10
-24.4438641899
 20
-4.4274510969
 11
-24.4515049022
 21
-4.3895887364
  0
LINE
  5
4B6
100
AcDbEntity
  8
RACCORDO
100
AcDbLine
 62
7
  6
CONTINUOUS
 10
-25.1193839788
 20
-4.5279185256
 11
-25.1316372649
 21
-4.4661811772
  0
LINE
  5
4B7
100
AcDbEntity
  8
RACCORDO
100
AcDbLine
 62
7
  6
CONTINUOUS
 10
-41.8360648578
 20
-10.6391146518
 11
-41.8301551862
 21
-10.670411206
  0
LINE
  5
4B8
100
AcDbEntity
  8
RACCORDO
100
AcDbLine
 62
7
  6
CONTINUOUS
 10
-41.9233959178
 20
-10.523320619
 11
-41.9161375601
 21
-10.5626144867
  0
LINE
  5
4B9
100
AcDbEntity
  8
0
100
AcDbLine
 62
7
  6
CONTINUOUS
 10
3.3259190024
 20
-24.4476476494
 11
3.3329029463
 21
-24.4859584238
  0
LINE
  5
4BA
100
AcDbEntity
  8
0
100
AcDbLine
 62
7
  6
CONTINUOUS
 10
2.9541750731
 20
-24.3464442087
 11
2.9501791095
 21
-24.3238130789
  0
LINE
  5
4BB
100
AcDbEntity
  8
0
100
AcDbLine
 62
7
  6
CONTINUOUS
 10
-19.8633911306
 20
4.2387188865
 11
-19.8680550236
 21
4.2651709732
  0
LINE
  5
4BC
100
AcDbEntity
  8
RACCORDO
100
AcDbLine
 62
7
  6
CONTINUOUS
 10
-41.9230603255
 20
-10.5253009525
 11
-41.9233659151
 21
-10.5235050985
  0
LINE
  5
4BD
100
AcDbEntity
  8
RACCORDO
100
AcDbLine
 62
7
  6
CONTINUOUS
 10
-41.9233659151
 20
-10.5235050985
 11
-41.9233959178
 21
-10.523320619
  0
LINE
  5
4BE
100
AcDbEntity
  8
0
100
AcDbLine
 62
7
  6
CONTINUOUS
 10
3.0579925286
 20
-24.2697201706
 11
3.0610721781
 21
-24.2886592356
  0
LINE
  5
4BF
100
AcDbEntity
  8
RACCORDO
100
AcDbLine
 62
7
  6
CONTINUOUS
 10
-41.9230645891
 20
61.1791428332
 11
-41.9249918947
 21
61.1910519801
  0
LINE
  5
4C0
100
AcDbEntity
  8
RACCORDO
100
AcDbLine
 62
7
  6
CONTINUOUS
 10
-24.4515049022
 20
-4.3895887364
 11
-24.4573337935
 21
-4.3527589763
  0
LINE
  5
4C1
100
AcDbEntity
  8
RACCORDO
100
AcDbLine
 62
7
  6
CONTINUOUS
 10
-25.1316372649
 20
-4.4661811772
 11
-25.1410407208
 21
-4.4063543228
  0
LINE
  5
4C2
100
AcDbEntity
  8
RACCORDO
100
AcDbLine
 62
7
  6
CONTINUOUS
 10
-42.1888241481
 20
-8.8243728823
 11
-41.9233700108
 21
-10.5235057665
  0
LINE
  5
4C3
100
AcDbEntity
  8
RACCORDO
100
AcDbLine
 62
7
  6
CONTINUOUS
 10
-42.1076106054
 20
-8.8991997124
 11
-41.8360648578
 21
-10.6391146518
  0
LINE
  5
4C4
100
AcDbEntity
  8
0
100
AcDbLine
 62
7
  6
CONTINUOUS
 10
3.3329029463
 20
-24.4859584238
 11
3.3381326846
 21
-24.5219334353
  0
LINE
  5
4C5
100
AcDbEntity
  8
RACCORDO
100
AcDbLine
 62
7
  6
CONTINUOUS
 10
-42.4403984714
 20
-7.0523305195
 11
-42.1888241481
 21
-8.8243728823
  0
LINE
  5
4C6
100
AcDbEntity
  8
RACCORDO
100
AcDbLine
 62
7
  6
CONTINUOUS
 10
-42.3568130116
 20
-7.1404513117
 11
-42.1076106054
 21
-8.8991997124
  0
LINE
  5
4C7
100
AcDbEntity
  8
RACCORDO
100
AcDbLine
 62
7
  6
CONTINUOUS
 10
-42.6692309058
 20
-5.2616173453
 11
-42.4403984714
 21
-7.0523305195
  0
LINE
  5
4C8
100
AcDbEntity
  8
RACCORDO
100
AcDbLine
 62
7
  6
CONTINUOUS
 10
-42.583619194
 20
-5.3632262808
 11
-42.3568130116
 21
-7.1404513117
  0
LINE
  5
4C9
100
AcDbEntity
  8
RACCORDO
100
AcDbLine
 62
7
  6
CONTINUOUS
 10
-43.5579472147
 20
42.7830276211
 11
-43.5596912835
 21
42.7968673705
  0
LINE
  5
4CA
100
AcDbEntity
  8
RACCORDO
100
AcDbLine
 62
7
  6
CONTINUOUS
 10
-24.1835942483
 20
31.9155836991
 11
-24.1800665068
 21
31.8873446803
  0
LINE
  5
4CB
100
AcDbEntity
  8
RACCORDO
100
AcDbLine
 62
7
  6
CONTINUOUS
 10
-43.5579472115
 20
5.7742297846
 11
-43.5596912805
 21
5.7895193193
  0
LINE
  5
4CC
100
AcDbEntity
  8
RACCORDO
100
AcDbLine
 62
7
  6
CONTINUOUS
 10
-42.8752680101
 20
-3.452644647
 11
-42.6692309058
 21
-5.2616173453
  0
LINE
  5
4CD
100
AcDbEntity
  8
RACCORDO
100
AcDbLine
 62
7
  6
CONTINUOUS
 10
-42.7879786696
 20
-3.5678894563
 11
-42.583619194
 21
-5.3632262808
  0
LINE
  5
4CE
100
AcDbEntity
  8
0
100
AcDbLine
 62
7
  6
CONTINUOUS
 10
2.9566620979
 20
-24.3683153022
 11
2.9541750731
 21
-24.3464442087
  0
LINE
  5
4CF
100
AcDbEntity
  8
RACCORDO
100
AcDbLine
 62
7
  6
CONTINUOUS
 10
-24.4573337935
 20
-4.3527589763
 11
-24.4613951587
 21
-4.3169615537
  0
LINE
  5
4D0
100
AcDbEntity
  8
RACCORDO
100
AcDbLine
 62
7
  6
CONTINUOUS
 10
-25.1410407208
 20
-4.4063543228
 11
-25.1476351513
 21
-4.3481102267
  0
LINE
  5
4D1
100
AcDbEntity
  8
0
100
AcDbLine
 62
7
  6
CONTINUOUS
 10
3.3415989219
 20
-24.5558216868
 11
3.3437981196
 21
-24.5877661201
  0
LINE
  5
4D2
100
AcDbEntity
  8
0
100
AcDbLine
 62
7
  6
CONTINUOUS
 10
3.0630326575
 20
-24.3068982653
 11
3.0641290534
 21
-24.3260662946
  0
LINE
  5
4D3
100
AcDbEntity
  8
0
100
AcDbLine
 62
7
  6
CONTINUOUS
 10
2.9577643056
 20
-24.3876607449
 11
2.9566620979
 21
-24.3683153022
  0
LINE
  5
4D4
100
AcDbEntity
  8
0
100
AcDbLine
 62
7
  6
CONTINUOUS
 10
3.3437981196
 20
-24.5877661201
 11
3.3447955709
 21
-24.6177317435
  0
LINE
  5
4D5
100
AcDbEntity
  8
0
100
AcDbLine
 62
7
  6
CONTINUOUS
 10
3.0641290534
 20
-24.3260662946
 11
3.0644119299
 21
-24.3446051091
  0
LINE
  5
4D6
100
AcDbEntity
  8
0
100
AcDbLine
 62
7
  6
CONTINUOUS
 10
2.9580366994
 20
-24.4063686004
 11
2.9577643056
 21
-24.3876607449
  0
LINE
  5
4D7
100
AcDbEntity
  8
0
100
AcDbLine
 62
7
  6
CONTINUOUS
 10
3.3447955709
 20
-24.6177317435
 11
3.3445243373
 21
-24.6457546389
  0
LINE
  5
4D8
100
AcDbEntity
  8
0
100
AcDbLine
 62
7
  6
CONTINUOUS
 10
-19.8680550236
 20
0.9703386362
 11
-19.8633911306
 21
1.0021764696
  0
LINE
  5
4D9
100
AcDbEntity
  8
RACCORDO
100
AcDbLine
 62
7
  6
CONTINUOUS
 10
-24.1800665026
 20
-5.7612430113
 11
-24.1745878975
 21
-5.7281932026
  0
LINE
  5
4DA
100
AcDbEntity
  8
0
100
AcDbLine
 62
7
  6
CONTINUOUS
 10
-19.8746018156
 20
0.9377368011
 11
-19.8680550236
 21
0.9703386362
  0
LINE
  5
4DB
100
AcDbEntity
  8
RACCORDO
100
AcDbLine
 62
7
  6
CONTINUOUS
 10
-24.1745878975
 20
-5.7281932026
 11
-24.1671891101
 21
-5.6945914295
  0
LINE
  5
4DC
100
AcDbEntity
  8
RACCORDO
100
AcDbLine
 62
7
  6
CONTINUOUS
 10
-25.1318869702
 20
31.5889833566
 11
-25.1197716895
 21
31.6420010511
  0
LINE
  5
4DD
100
AcDbEntity
  8
RACCORDO
100
AcDbLine
 62
7
  6
CONTINUOUS
 10
-24.4516438318
 20
31.4940555405
 11
-24.4440839571
 21
31.5267504374
  0
LINE
  5
4DE
100
AcDbEntity
  8
RACCORDO
100
AcDbLine
 62
7
  6
CONTINUOUS
 10
-25.1197716895
 20
31.6420010511
 11
-25.104864146
 21
31.6934719454
  0
LINE
  5
4DF
100
AcDbEntity
  8
RACCORDO
100
AcDbLine
 62
7
  6
CONTINUOUS
 10
-24.4440839571
 20
31.5267504374
 11
-24.4347143309
 21
31.5583677853
  0
LINE
  5
4E0
100
AcDbEntity
  8
RACCORDO
100
AcDbLine
 62
7
  6
CONTINUOUS
 10
-41.7763081188
 20
61.2875934729
 11
-41.7902338347
 21
61.2577471725
  0
LINE
  5
4E1
100
AcDbEntity
  8
RACCORDO
100
AcDbLine
 62
7
  6
CONTINUOUS
 10
-41.8299046622
 20
61.5101689323
 11
-41.8526886395
 21
61.4631691731
  0
LINE
  5
4E2
100
AcDbEntity
  8
RACCORDO
100
AcDbLine
 62
7
  6
CONTINUOUS
 10
-41.2184146689
 20
61.5552226471
 11
-41.2066516914
 21
61.5790747232
  0
LINE
  5
4E3
100
AcDbEntity
  8
RACCORDO
100
AcDbLine
 62
7
  6
CONTINUOUS
 10
-41.7608871157
 20
61.3157294612
 11
-41.7763081188
 21
61.2875934729
  0
LINE
  5
4E4
100
AcDbEntity
  8
RACCORDO
100
AcDbLine
 62
7
  6
CONTINUOUS
 10
-41.2066516914
 20
61.5790747232
 11
-41.1936211977
 21
61.6023830609
  0
LINE
  5
4E5
100
AcDbEntity
  8
RACCORDO
100
AcDbLine
 62
7
  6
CONTINUOUS
 10
-41.8046345451
 20
61.55469535
 11
-41.8299046622
 21
61.5101689323
  0
LINE
  5
4E6
100
AcDbEntity
  8
RACCORDO
100
AcDbLine
 62
7
  6
CONTINUOUS
 10
44.0518323416
 20
-60.1328678975
 11
44.0767784354
 21
-60.12857509
  0
LINE
  5
4E7
100
AcDbEntity
  8
RACCORDO
100
AcDbLine
 62
7
  6
CONTINUOUS
 10
43.899252307
 20
-60.5459252393
 11
43.9395447205
 21
-60.5412244285
  0
LINE
  5
4E8
100
AcDbEntity
  8
RACCORDO
100
AcDbLine
 62
7
  6
CONTINUOUS
 10
44.0267470753
 20
-60.1357441423
 11
44.0518323416
 21
-60.1328678975
  0
LINE
  5
4E9
100
AcDbEntity
  8
RACCORDO
100
AcDbLine
 62
7
  6
CONTINUOUS
 10
23.3428981862
 20
-32.4210688695
 11
23.3136222699
 21
-32.419391441
  0
LINE
  5
4EA
100
AcDbEntity
  8
RACCORDO
100
AcDbLine
 62
7
  6
CONTINUOUS
 10
23.129723057
 20
-33.0855474591
 11
23.0791396258
 21
-33.0797658819
  0
LINE
  5
4EB
100
AcDbEntity
  8
0
100
AcDbLine
 62
7
  6
CONTINUOUS
 10
2.807823204
 20
-24.5827997643
 11
2.8226858773
 21
-24.5847501991
  0
LINE
  5
4EC
100
AcDbEntity
  8
RACCORDO
100
AcDbLine
 62
7
  6
CONTINUOUS
 10
23.3136222699
 20
-32.419391441
 11
23.2834436744
 21
-32.4150603526
  0
LINE
  5
4ED
100
AcDbEntity
  8
RACCORDO
100
AcDbLine
 62
7
  6
CONTINUOUS
 10
-25.0144667686
 20
-4.3460803572
 11
-24.9757394959
 21
-4.3549989947
  0
LINE
  5
4EE
100
AcDbEntity
  8
RACCORDO
100
AcDbLine
 62
7
  6
CONTINUOUS
 10
-25.0516564347
 20
-4.3351818092
 11
-25.0144667686
 21
-4.3460803572
  0
LINE
  5
4EF
100
AcDbEntity
  8
0
100
AcDbLine
 62
7
  6
CONTINUOUS
 10
-19.9872257754
 20
4.4215391256
 11
-20.0076741345
 21
4.4279083576
  0
LINE
  5
4F0
100
AcDbEntity
  8
0
100
AcDbLine
 62
7
  6
CONTINUOUS
 10
-20.6799057725
 20
4.8214838747
 11
-20.700383026
 21
4.8278816788
  0
LINE
  5
4F1
100
AcDbEntity
  8
0
100
AcDbLine
 62
7
  6
CONTINUOUS
 10
-20.7580747438
 20
4.8546927511
 11
-20.7229948579
 21
4.8423966992
  0
LINE
  5
4F2
100
AcDbEntity
  8
0
100
AcDbLine
 62
7
  6
CONTINUOUS
 10
-20.9450860597
 20
4.8182838912
 11
-20.9707009914
 21
4.8277552024
  0
LINE
  5
4F3
100
AcDbEntity
  8
RACCORDO
100
AcDbLine
 62
7
  6
CONTINUOUS
 10
-24.7178116161
 20
31.772983175
 11
-24.6817412984
 21
31.7536778764
  0
LINE
  5
4F4
100
AcDbEntity
  8
RACCORDO
100
AcDbLine
 62
7
  6
CONTINUOUS
 10
-25.1514180406
 20
31.421567458
 11
-25.1203754322
 21
31.404931408
  0
LINE
  5
4F5
100
AcDbEntity
  8
RACCORDO
100
AcDbLine
 62
7
  6
CONTINUOUS
 10
-24.239917835
 20
32.0058856767
 11
-24.184729168
 21
31.9759689257
  0
LINE
  5
4F6
100
AcDbEntity
  8
RACCORDO
100
AcDbLine
 62
7
  6
CONTINUOUS
 10
-24.0973574545
 20
31.7337866734
 11
-24.0818396802
 21
31.7251112546
  0
LINE
  5
4F7
100
AcDbEntity
  8
0
100
AcDbLine
 62
7
  6
CONTINUOUS
 10
-22.4051631422
 20
30.5458297939
 11
-22.0516097516
 21
30.3416924972
  0
LINE
  5
4F8
100
AcDbEntity
  8
RACCORDO
100
AcDbLine
 62
7
  6
CONTINUOUS
 10
-24.0816915125
 20
31.7250270905
 11
22.8597981292
 21
4.6215992864
  0
LINE
  5
4F9
100
AcDbEntity
  8
RACCORDO
100
AcDbLine
 62
7
  6
CONTINUOUS
 10
-24.184729168
 20
31.9759689257
 11
22.7567604738
 21
4.8725411215
  0
LINE
  5
4FA
100
AcDbEntity
  8
RACCORDO
100
AcDbLine
 62
7
  6
CONTINUOUS
 10
22.8598351363
 20
4.6215778653
 11
22.8664296381
 21
4.6177198882
  0
LINE
  5
4FB
100
AcDbEntity
  8
RACCORDO
100
AcDbLine
 62
7
  6
CONTINUOUS
 10
22.85597839
 20
4.6238732079
 11
22.8597981297
 21
4.6215992861
  0
LINE
  5
4FC
100
AcDbEntity
  8
RACCORDO
100
AcDbLine
 62
7
  6
CONTINUOUS
 10
-24.0855112824
 20
31.7273010309
 11
-24.0818390367
 21
31.7251123698
  0
LINE
  5
4FD
100
AcDbEntity
  8
RACCORDO
100
AcDbLine
 62
7
  6
CONTINUOUS
 10
22.7567604738
 20
4.8725411215
 11
22.7865093502
 21
4.8547065128
  0
LINE
  5
4FE
100
AcDbEntity
  8
RACCORDO
100
AcDbLine
 62
7
  6
CONTINUOUS
 10
23.6308701711
 20
3.255282891
 11
23.6023316698
 21
3.2730485594
  0
LINE
  5
4FF
100
AcDbEntity
  8
RACCORDO
100
AcDbLine
 62
7
  6
CONTINUOUS
 10
22.8664296381
 20
4.6177198882
 11
22.8930389672
 21
4.6011547515
  0
LINE
  5
500
100
AcDbEntity
  8
RACCORDO
100
AcDbLine
 62
7
  6
CONTINUOUS
 10
22.7865093502
 20
4.8547065128
 11
22.8157678218
 21
4.8361032733
  0
LINE
  5
501
100
AcDbEntity
  8
RACCORDO
100
AcDbLine
 62
7
  6
CONTINUOUS
 10
22.8157678218
 20
4.8361032733
 11
22.8445359195
 21
4.8167314187
  0
LINE
  5
502
100
AcDbEntity
  8
RACCORDO
100
AcDbLine
 62
7
  6
CONTINUOUS
 10
22.8930389672
 20
4.6011547515
 11
22.92091724
 21
4.5821230613
  0
LINE
  5
503
100
AcDbEntity
  8
RACCORDO
100
AcDbLine
 62
7
  6
CONTINUOUS
 10
-41.8532337925
 20
61.0975857689
 11
-41.8687941439
 21
61.108454608
  0
LINE
  5
504
100
AcDbEntity
  8
RACCORDO
100
AcDbLine
 62
7
  6
CONTINUOUS
 10
23.3719260835
 20
3.9873677089
 11
23.3928204517
 21
3.9360149946
  0
LINE
  5
505
100
AcDbEntity
  8
RACCORDO
100
AcDbLine
 62
7
  6
CONTINUOUS
 10
22.7743005316
 20
4.7321357589
 11
22.7835780701
 21
4.7088836501
  0
LINE
  5
506
100
AcDbEntity
  8
RACCORDO
100
AcDbLine
 62
7
  6
CONTINUOUS
 10
23.4913324191
 20
3.9701773169
 11
23.5168719802
 21
3.9045145584
  0
LINE
  5
507
100
AcDbEntity
  8
RACCORDO
100
AcDbLine
 62
7
  6
CONTINUOUS
 10
23.3928204517
 20
3.9360149946
 11
23.4115932639
 21
3.8848640931
  0
LINE
  5
508
100
AcDbEntity
  8
RACCORDO
100
AcDbLine
 62
7
  6
CONTINUOUS
 10
23.5168719802
 20
3.9045145584
 11
23.5400317166
 21
3.8382412567
  0
LINE
  5
509
100
AcDbEntity
  8
RACCORDO
100
AcDbLine
 62
7
  6
CONTINUOUS
 10
43.4294358978
 20
-60.3586621825
 11
43.4353076327
 21
-60.3759976649
  0
LINE
  5
50A
100
AcDbEntity
  8
RACCORDO
100
AcDbLine
 62
7
  6
CONTINUOUS
 10
23.4115932639
 20
3.8848640931
 11
23.4282035331
 21
3.8341856225
  0
LINE
  5
50B
100
AcDbEntity
  8
RACCORDO
100
AcDbLine
 62
7
  6
CONTINUOUS
 10
23.5400317166
 20
3.8382412567
 11
23.5609388128
 21
3.7709663069
  0
LINE
  5
50C
100
AcDbEntity
  8
RACCORDO
100
AcDbLine
 62
7
  6
CONTINUOUS
 10
22.7669017442
 20
4.7571935978
 11
22.7743005316
 21
4.7321357589
  0
LINE
  5
50D
100
AcDbEntity
  8
RACCORDO
100
AcDbLine
 62
7
  6
CONTINUOUS
 10
23.4282035331
 20
3.8341856225
 11
23.4426278208
 21
3.7842540583
  0
LINE
  5
50E
100
AcDbEntity
  8
RACCORDO
100
AcDbLine
 62
7
  6
CONTINUOUS
 10
23.4937927492
 20
3.3995239129
 11
23.4873553503
 21
3.4225140334
  0
LINE
  5
50F
100
AcDbEntity
  8
RACCORDO
100
AcDbLine
 62
7
  6
CONTINUOUS
 10
23.5609388128
 20
3.7709663069
 11
23.57946754
 21
3.7030815722
  0
LINE
  5
510
100
AcDbEntity
  8
RACCORDO
100
AcDbLine
 62
7
  6
CONTINUOUS
 10
23.4426278208
 20
3.7842540583
 11
23.4548706678
 21
3.7353069609
  0
LINE
  5
511
100
AcDbEntity
  8
RACCORDO
100
AcDbLine
 62
7
  6
CONTINUOUS
 10
23.57946754
 20
3.7030815722
 11
23.5952388672
 21
3.6357616825
  0
LINE
  5
512
100
AcDbEntity
  8
RACCORDO
100
AcDbLine
 62
7
  6
CONTINUOUS
 10
23.3755845732
 20
-32.7927122027
 11
23.367149273
 21
-32.7533784442
  0
LINE
  5
513
100
AcDbEntity
  8
RACCORDO
100
AcDbLine
 62
7
  6
CONTINUOUS
 10
23.4787455311
 20
3.5971475701
 11
23.4826238861
 21
3.5548314767
  0
LINE
  5
514
100
AcDbEntity
  8
0
100
AcDbLine
 62
7
  6
CONTINUOUS
 10
5.2073566631
 20
-19.6890841558
 11
5.2073566631
 21
-19.5705492276
  0
LINE
  5
515
100
AcDbEntity
  8
0
100
AcDbLine
 62
7
  6
CONTINUOUS
 10
5.7830854565
 20
-18.6709322625
 11
5.7830854565
 21
-19.0935627281
  0
LINE
  5
516
100
AcDbEntity
  8
0
100
AcDbLine
 62
7
  6
CONTINUOUS
 10
3.0644119299
 20
-24.3446051091
 11
3.0638812226
 21
-24.3625147511
  0
LINE
  5
517
100
AcDbEntity
  8
0
100
AcDbLine
 62
7
  6
CONTINUOUS
 10
2.9574792151
 20
-24.4244389111
 11
2.9580366994
 21
-24.4063686004
  0
LINE
  5
518
100
AcDbEntity
  8
0
100
AcDbLine
 62
7
  6
CONTINUOUS
 10
3.3445243373
 20
-24.6457546389
 11
3.343282526
 21
-24.6720843628
  0
LINE
  5
519
100
AcDbEntity
  8
0
100
AcDbLine
 62
7
  6
CONTINUOUS
 10
3.0638812226
 20
-24.3625147511
 11
3.0625290632
 21
-24.3798443444
  0
LINE
  5
51A
100
AcDbEntity
  8
0
100
AcDbLine
 62
7
  6
CONTINUOUS
 10
2.956080543
 20
-24.4419326361
 11
2.9574792151
 21
-24.4244389111
  0
LINE
  5
51B
100
AcDbEntity
  8
0
100
AcDbLine
 62
7
  6
CONTINUOUS
 10
-19.8829870695
 20
0.9045468529
 11
-19.8746018156
 21
0.9377368011
  0
LINE
  5
51C
100
AcDbEntity
  8
RACCORDO
100
AcDbLine
 62
7
  6
CONTINUOUS
 10
-24.1671891101
 20
-5.6945914295
 11
-24.1579115715
 21
-5.6606258516
  0
LINE
  5
51D
100
AcDbEntity
  8
RACCORDO
100
AcDbLine
 62
7
  6
CONTINUOUS
 10
-25.104864146
 20
31.6934719454
 11
-25.0872239613
 21
31.7424788867
  0
LINE
  5
51E
100
AcDbEntity
  8
RACCORDO
100
AcDbLine
 62
7
  6
CONTINUOUS
 10
-24.4347143309
 20
31.5583677853
 11
-24.4235795141
 21
31.5886038606
  0
LINE
  5
51F
100
AcDbEntity
  8
RACCORDO
100
AcDbLine
 62
7
  6
CONTINUOUS
 10
-41.1936211977
 20
61.6023830609
 11
-41.1794264608
 21
61.624962911
  0
LINE
  5
520
100
AcDbEntity
  8
RACCORDO
100
AcDbLine
 62
7
  6
CONTINUOUS
 10
-41.7439852162
 20
61.3421850222
 11
-41.7608871157
 21
61.3157294612
  0
LINE
  5
521
100
AcDbEntity
  8
RACCORDO
100
AcDbLine
 62
7
  6
CONTINUOUS
 10
-41.7769638329
 20
61.5966847881
 11
-41.8046345451
 21
61.55469535
  0
LINE
  5
522
100
AcDbEntity
  8
RACCORDO
100
AcDbLine
 62
7
  6
CONTINUOUS
 10
44.0767784354
 20
-60.12857509
 11
44.1014077463
 21
-60.1228962837
  0
LINE
  5
523
100
AcDbEntity
  8
RACCORDO
100
AcDbLine
 62
7
  6
CONTINUOUS
 10
43.9395447205
 20
-60.5412244285
 11
43.9788484622
 21
-60.5334070203
  0
LINE
  5
524
100
AcDbEntity
  8
RACCORDO
100
AcDbLine
 62
7
  6
CONTINUOUS
 10
43.6795615424
 20
-60.410312364
 11
43.6999605303
 21
-60.4064731481
  0
LINE
  5
525
100
AcDbEntity
  8
RACCORDO
100
AcDbLine
 62
7
  6
CONTINUOUS
 10
23.1790100516
 20
-33.0870748206
 11
23.129723057
 21
-33.0855474591
  0
LINE
  5
526
100
AcDbEntity
  8
0
100
AcDbLine
 62
7
  6
CONTINUOUS
 10
2.8226858773
 20
-24.5847501991
 11
2.8370752844
 21
-24.5855906561
  0
LINE
  5
527
100
AcDbEntity
  8
0
100
AcDbLine
 62
7
  6
CONTINUOUS
 10
3.1273566384
 20
-24.9579495335
 11
3.1188388917
 21
-24.9572710718
  0
LINE
  5
528
100
AcDbEntity
  8
0
100
AcDbLine
 62
7
  6
CONTINUOUS
 10
3.2242118164
 20
-24.8957559914
 11
3.2322135802
 21
-24.89654546
  0
LINE
  5
529
100
AcDbEntity
  8
RACCORDO
100
AcDbLine
 62
7
  6
CONTINUOUS
 10
-24.9757394959
 20
-4.3549989947
 11
-24.9357500667
 21
-4.3618742874
  0
LINE
  5
52A
100
AcDbEntity
  8
0
100
AcDbLine
 62
7
  6
CONTINUOUS
 10
-20.7937747269
 20
4.864303451
 11
-20.7580747438
 21
4.8546927511
  0
LINE
  5
52B
100
AcDbEntity
  8
0
100
AcDbLine
 62
7
  6
CONTINUOUS
 10
-20.9707009914
 20
4.8277552024
 11
-20.9960103869
 21
4.8347344421
  0
LINE
  5
52C
100
AcDbEntity
  8
RACCORDO
100
AcDbLine
 62
7
  6
CONTINUOUS
 10
-24.1495864496
 20
31.7586388153
 11
-24.124295461
 21
31.7474744438
  0
LINE
  5
52D
100
AcDbEntity
  8
RACCORDO
100
AcDbLine
 62
7
  6
CONTINUOUS
 10
-24.6817412984
 20
31.7536778764
 11
-24.64490171
 21
31.7372945761
  0
LINE
  5
52E
100
AcDbEntity
  8
RACCORDO
100
AcDbLine
 62
7
  6
CONTINUOUS
 10
-25.1203754322
 20
31.404931408
 11
-25.0870418806
 21
31.3897227833
  0
LINE
  5
52F
100
AcDbEntity
  8
RACCORDO
100
AcDbLine
 62
7
  6
CONTINUOUS
 10
-24.2949457405
 20
32.0316641122
 11
-24.239917835
 21
32.0058856767
  0
LINE
  5
530
100
AcDbEntity
  8
RACCORDO
100
AcDbLine
 62
7
  6
CONTINUOUS
 10
-24.124295461
 20
31.7474744438
 11
-24.0973574545
 21
31.7337866734
  0
LINE
  5
531
100
AcDbEntity
  8
RACCORDO
100
AcDbLine
 62
7
  6
CONTINUOUS
 10
-41.8360648099
 20
61.0871919022
 11
-41.8532337925
 21
61.0975857689
  0
LINE
  5
532
100
AcDbEntity
  8
RACCORDO
100
AcDbLine
 62
7
  6
CONTINUOUS
 10
43.4536595066
 20
12.5234201623
 11
43.4251838599
 21
12.541013642
  0
LINE
  5
533
100
AcDbEntity
  8
RACCORDO
100
AcDbLine
 62
7
  6
CONTINUOUS
 10
43.6627177174
 20
12.8297742989
 11
43.6226883663
 21
12.8551858362
  0
LINE
  5
534
100
AcDbEntity
  8
RACCORDO
100
AcDbLine
 62
7
  6
CONTINUOUS
 10
43.4815603529
 20
12.5039100528
 11
43.4536595066
 21
12.5234201623
  0
LINE
  5
535
100
AcDbEntity
  8
RACCORDO
100
AcDbLine
 62
7
  6
CONTINUOUS
 10
43.702321381
 20
12.8015597148
 11
43.6627177174
 21
12.8297742989
  0
LINE
  5
536
100
AcDbEntity
  8
RACCORDO
100
AcDbLine
 62
7
  6
CONTINUOUS
 10
46.7601273902
 20
14.1215519133
 11
46.7823614569
 21
14.104415472
  0
LINE
  5
537
100
AcDbEntity
  8
RACCORDO
100
AcDbLine
 62
7
  6
CONTINUOUS
 10
43.5088865043
 20
12.4824833519
 11
43.4815603529
 21
12.5039100528
  0
LINE
  5
538
100
AcDbEntity
  8
RACCORDO
100
AcDbLine
 62
7
  6
CONTINUOUS
 10
43.7413705692
 20
12.770637355
 11
43.702321381
 21
12.8015597148
  0
LINE
  5
539
100
AcDbEntity
  8
RACCORDO
100
AcDbLine
 62
7
  6
CONTINUOUS
 10
46.7823614569
 20
14.104415472
 11
46.8034907899
 21
14.0862677012
  0
LINE
  5
53A
100
AcDbEntity
  8
RACCORDO
100
AcDbLine
 62
7
  6
CONTINUOUS
 10
43.5357318356
 20
12.4590556956
 11
43.5088865043
 21
12.4824833519
  0
LINE
  5
53B
100
AcDbEntity
  8
RACCORDO
100
AcDbLine
 62
7
  6
CONTINUOUS
 10
43.7797307557
 20
12.7371147406
 11
43.7413705692
 21
12.770637355
  0
LINE
  5
53C
100
AcDbEntity
  8
RACCORDO
100
AcDbLine
 62
7
  6
CONTINUOUS
 10
46.8034907899
 20
14.0862677012
 11
46.8235526014
 21
14.0671335428
  0
LINE
  5
53D
100
AcDbEntity
  8
RACCORDO
100
AcDbLine
 62
7
  6
CONTINUOUS
 10
43.8172806247
 20
12.7010998551
 11
43.7797307557
 21
12.7371147406
  0
LINE
  5
53E
100
AcDbEntity
  8
RACCORDO
100
AcDbLine
 62
7
  6
CONTINUOUS
 10
43.5620028942
 20
12.4337116018
 11
43.5357318356
 21
12.4590556956
  0
LINE
  5
53F
100
AcDbEntity
  8
RACCORDO
100
AcDbLine
 62
7
  6
CONTINUOUS
 10
43.8539118934
 20
12.6626978647
 11
43.8172806247
 21
12.7010998551
  0
LINE
  5
540
100
AcDbEntity
  8
RACCORDO
100
AcDbLine
 62
7
  6
CONTINUOUS
 10
46.8235526014
 20
14.0671335428
 11
46.8426585286
 21
14.0470878216
  0
LINE
  5
541
100
AcDbEntity
  8
RACCORDO
100
AcDbLine
 62
7
  6
CONTINUOUS
 10
43.5874188858
 20
12.4067044648
 11
43.5620028942
 21
12.4337116018
  0
LINE
  5
542
100
AcDbEntity
  8
RACCORDO
100
AcDbLine
 62
7
  6
CONTINUOUS
 10
43.8894997424
 20
12.6220247939
 11
43.8539118934
 21
12.6626978647
  0
LINE
  5
543
100
AcDbEntity
  8
RACCORDO
100
AcDbLine
 62
7
  6
CONTINUOUS
 10
46.8426585286
 20
14.0470878216
 11
46.8608382903
 21
14.0261741869
  0
LINE
  5
544
100
AcDbEntity
  8
RACCORDO
100
AcDbLine
 62
7
  6
CONTINUOUS
 10
43.6119667904
 20
12.3780207704
 11
43.5874188858
 21
12.4067044648
  0
LINE
  5
545
100
AcDbEntity
  8
RACCORDO
100
AcDbLine
 62
7
  6
CONTINUOUS
 10
43.9239196819
 20
12.5792186123
 11
43.8894997424
 21
12.6220247939
  0
LINE
  5
546
100
AcDbEntity
  8
RACCORDO
100
AcDbLine
 62
7
  6
CONTINUOUS
 10
46.8608382903
 20
14.0261741869
 11
46.8780621676
 21
14.0043489895
  0
LINE
  5
547
100
AcDbEntity
  8
RACCORDO
100
AcDbLine
 62
7
  6
CONTINUOUS
 10
43.6356604283
 20
12.3476743248
 11
43.6119667904
 21
12.3780207704
  0
LINE
  5
548
100
AcDbEntity
  8
RACCORDO
100
AcDbLine
 62
7
  6
CONTINUOUS
 10
43.9570660442
 20
12.5344252783
 11
43.9239196819
 21
12.5792186123
  0
LINE
  5
549
100
AcDbEntity
  8
RACCORDO
100
AcDbLine
 62
7
  6
CONTINUOUS
 10
46.8780621676
 20
14.0043489895
 11
46.8943526412
 21
13.9815561072
  0
LINE
  5
54A
100
AcDbEntity
  8
RACCORDO
100
AcDbLine
 62
7
  6
CONTINUOUS
 10
43.6582593131
 20
12.3159595201
 11
43.6356604283
 21
12.3476743248
  0
LINE
  5
54B
100
AcDbEntity
  8
RACCORDO
100
AcDbLine
 62
7
  6
CONTINUOUS
 10
43.9888129228
 20
12.4877904753
 11
43.9570660442
 21
12.5344252783
  0
LINE
  5
54C
100
AcDbEntity
  8
RACCORDO
100
AcDbLine
 62
7
  6
CONTINUOUS
 10
43.679753305
 20
12.2828628843
 11
43.6582593131
 21
12.3159595201
  0
LINE
  5
54D
100
AcDbEntity
  8
RACCORDO
100
AcDbLine
 62
7
  6
CONTINUOUS
 10
46.8943526412
 20
13.9815561072
 11
46.9097942481
 21
13.9577053275
  0
LINE
  5
54E
100
AcDbEntity
  8
RACCORDO
100
AcDbLine
 62
7
  6
CONTINUOUS
 10
44.0190517092
 20
12.439461694
 11
43.9888129228
 21
12.4877904753
  0
LINE
  5
54F
100
AcDbEntity
  8
RACCORDO
100
AcDbLine
 62
7
  6
CONTINUOUS
 10
43.7001536332
 20
12.2483982875
 11
43.679753305
 21
12.2828628843
  0
LINE
  5
550
100
AcDbEntity
  8
RACCORDO
100
AcDbLine
 62
7
  6
CONTINUOUS
 10
46.9097942481
 20
13.9577053275
 11
46.9243024513
 21
13.9328868629
  0
LINE
  5
551
100
AcDbEntity
  8
RACCORDO
100
AcDbLine
 62
7
  6
CONTINUOUS
 10
44.0477061686
 20
12.389594951
 11
44.0190517092
 21
12.439461694
  0
LINE
  5
552
100
AcDbEntity
  8
RACCORDO
100
AcDbLine
 62
7
  6
CONTINUOUS
 10
43.7192518458
 20
12.2129011285
 11
43.7001536332
 21
12.2483982875
  0
LINE
  5
553
100
AcDbEntity
  8
RACCORDO
100
AcDbLine
 62
7
  6
CONTINUOUS
 10
44.0746642359
 20
12.3383437844
 11
44.0477061686
 21
12.389594951
  0
LINE
  5
554
100
AcDbEntity
  8
RACCORDO
100
AcDbLine
 62
7
  6
CONTINUOUS
 10
43.7370367757
 20
12.1763598537
 11
43.7192518458
 21
12.2129011285
  0
LINE
  5
555
100
AcDbEntity
  8
RACCORDO
100
AcDbLine
 62
7
  6
CONTINUOUS
 10
44.0998222568
 20
12.2858758606
 11
44.0746642359
 21
12.3383437844
  0
LINE
  5
556
100
AcDbEntity
  8
RACCORDO
100
AcDbLine
 62
7
  6
CONTINUOUS
 10
43.4251838599
 20
-60.3398706949
 11
43.4294358978
 21
-60.3586621825
  0
LINE
  5
557
100
AcDbEntity
  8
RACCORDO
100
AcDbLine
 62
7
  6
CONTINUOUS
 10
23.4548706678
 20
3.7353069609
 11
23.4649464193
 21
3.6876092671
  0
LINE
  5
558
100
AcDbEntity
  8
RACCORDO
100
AcDbLine
 62
7
  6
CONTINUOUS
 10
22.7614231391
 20
4.7839168508
 11
22.7669017442
 21
4.7571935978
  0
LINE
  5
559
100
AcDbEntity
  8
RACCORDO
100
AcDbLine
 62
7
  6
CONTINUOUS
 10
23.5952388672
 20
3.6357616825
 11
23.6081393873
 21
3.5690566595
  0
LINE
  5
55A
100
AcDbEntity
  8
RACCORDO
100
AcDbLine
 62
7
  6
CONTINUOUS
 10
23.4649464193
 20
3.6876092671
 11
23.4728815188
 21
3.6414839646
  0
LINE
  5
55B
100
AcDbEntity
  8
RACCORDO
100
AcDbLine
 62
7
  6
CONTINUOUS
 10
23.6081393873
 20
3.5690566595
 11
23.6182832928
 21
3.5029168925
  0
LINE
  5
55C
100
AcDbEntity
  8
RACCORDO
100
AcDbLine
 62
7
  6
CONTINUOUS
 10
23.367149273
 20
-32.7533784442
 11
23.3619519842
 21
-32.7140587958
  0
LINE
  5
55D
100
AcDbEntity
  8
RACCORDO
100
AcDbLine
 62
7
  6
CONTINUOUS
 10
23.4728815188
 20
3.6414839646
 11
23.4787455311
 21
3.5971475701
  0
LINE
  5
55E
100
AcDbEntity
  8
RACCORDO
100
AcDbLine
 62
7
  6
CONTINUOUS
 10
23.4873553503
 20
3.4225140334
 11
23.4844504082
 21
3.4456238183
  0
LINE
  5
55F
100
AcDbEntity
  8
RACCORDO
100
AcDbLine
 62
7
  6
CONTINUOUS
 10
22.7578953952
 20
4.812155876
 11
22.7614231391
 21
4.7839168508
  0
LINE
  5
560
100
AcDbEntity
  8
RACCORDO
100
AcDbLine
 62
7
  6
CONTINUOUS
 10
23.6182832928
 20
3.5029168925
 11
23.6256322251
 21
3.4383671846
  0
LINE
  5
561
100
AcDbEntity
  8
RACCORDO
100
AcDbLine
 62
7
  6
CONTINUOUS
 10
23.4873548615
 20
-32.2805031777
 11
23.4844246216
 21
-32.2544756298
  0
LINE
  5
562
100
AcDbEntity
  8
RACCORDO
100
AcDbLine
 62
7
  6
CONTINUOUS
 10
23.6256322251
 20
3.4383671846
 11
23.630173234
 21
3.3757490524
  0
LINE
  5
563
100
AcDbEntity
  8
RACCORDO
100
AcDbLine
 62
7
  6
CONTINUOUS
 10
22.7563382669
 20
4.8417525436
 11
22.7578953952
 21
4.812155876
  0
LINE
  5
564
100
AcDbEntity
  8
RACCORDO
100
AcDbLine
 62
7
  6
CONTINUOUS
 10
23.4826238861
 20
3.5548314767
 11
23.4846220611
 21
3.514873612
  0
LINE
  5
565
100
AcDbEntity
  8
RACCORDO
100
AcDbLine
 62
7
  6
CONTINUOUS
 10
23.3619519842
 20
-32.7140587958
 11
23.3600301575
 21
-32.6750365864
  0
LINE
  5
566
100
AcDbEntity
  8
RACCORDO
100
AcDbLine
 62
7
  6
CONTINUOUS
 10
23.3772182024
 20
-29.39850483
 11
23.4844251085
 21
-32.2544691261
  0
LINE
  5
567
100
AcDbEntity
  8
RACCORDO
100
AcDbLine
 62
7
  6
CONTINUOUS
 10
23.5220050589
 20
-29.5532420831
 11
23.6308701615
 21
-32.4577321493
  0
LINE
  5
568
100
AcDbEntity
  8
RACCORDO
100
AcDbLine
 62
7
  6
CONTINUOUS
 10
23.2875229581
 20
-26.4700259725
 11
23.3772182024
 21
-29.39850483
  0
LINE
  5
569
100
AcDbEntity
  8
RACCORDO
100
AcDbLine
 62
7
  6
CONTINUOUS
 10
23.4329234056
 20
-26.6350893045
 11
23.5220050589
 21
-29.5532420831
  0
LINE
  5
56A
100
AcDbEntity
  8
RACCORDO
100
AcDbLine
 62
7
  6
CONTINUOUS
 10
23.630173234
 20
3.3757490524
 11
23.6319192086
 21
3.3147209502
  0
LINE
  5
56B
100
AcDbEntity
  8
RACCORDO
100
AcDbLine
 62
7
  6
CONTINUOUS
 10
23.2177583387
 20
-23.5280165104
 11
23.2875229581
 21
-26.4700259725
  0
LINE
  5
56C
100
AcDbEntity
  8
RACCORDO
100
AcDbLine
 62
7
  6
CONTINUOUS
 10
23.3636313767
 20
-23.7034656149
 11
23.4329234056
 21
-26.6350893045
  0
LINE
  5
56D
100
AcDbEntity
  8
RACCORDO
100
AcDbLine
 62
7
  6
CONTINUOUS
 10
23.4844246216
 20
-32.2544756298
 11
23.4849758172
 21
-32.2785086602
  0
LINE
  5
56E
100
AcDbEntity
  8
RACCORDO
100
AcDbLine
 62
7
  6
CONTINUOUS
 10
23.6308701615
 20
-32.4577321493
 11
23.6319410432
 21
-32.5123258378
  0
LINE
  5
56F
100
AcDbEntity
  8
RACCORDO
100
AcDbLine
 62
7
  6
CONTINUOUS
 10
23.1679299065
 20
-20.5726929891
 11
23.2177583387
 21
-23.5280165104
  0
LINE
  5
570
100
AcDbEntity
  8
RACCORDO
100
AcDbLine
 62
7
  6
CONTINUOUS
 10
23.3141338833
 20
-20.7585636802
 11
23.3636313767
 21
-23.7034656149
  0
LINE
  5
571
100
AcDbEntity
  8
RACCORDO
100
AcDbLine
 62
7
  6
CONTINUOUS
 10
22.7567604738
 20
-32.9586794153
 11
22.7563382667
 21
-32.9283784022
  0
LINE
  5
572
100
AcDbEntity
  8
RACCORDO
100
AcDbLine
 62
7
  6
CONTINUOUS
 10
23.1380393711
 20
-17.6042489027
 11
23.1679299065
 21
-20.5726929891
  0
LINE
  5
573
100
AcDbEntity
  8
RACCORDO
100
AcDbLine
 62
7
  6
CONTINUOUS
 10
23.2844342509
 20
-17.8005769536
 11
23.3141338833
 21
-20.7585636802
  0
LINE
  5
574
100
AcDbEntity
  8
RACCORDO
100
AcDbLine
 62
7
  6
CONTINUOUS
 10
23.4846220611
 20
3.514873612
 11
23.4848874504
 21
3.4774978579
  0
LINE
  5
575
100
AcDbEntity
  8
RACCORDO
100
AcDbLine
 62
7
  6
CONTINUOUS
 10
23.4844504082
 20
3.4456238183
 11
23.4843843178
 21
3.4587912524
  0
LINE
  5
576
100
AcDbEntity
  8
RACCORDO
100
AcDbLine
 62
7
  6
CONTINUOUS
 10
23.1280876156
 20
-14.6228681319
 11
23.1380393711
 21
-17.6042489027
  0
LINE
  5
577
100
AcDbEntity
  8
RACCORDO
100
AcDbLine
 62
7
  6
CONTINUOUS
 10
23.2745342168
 20
-14.8296996647
 11
23.2844342509
 21
-17.8005769536
  0
LINE
  5
578
100
AcDbEntity
  8
RACCORDO
100
AcDbLine
 62
7
  6
CONTINUOUS
 10
23.1380751521
 20
-11.6287427328
 11
23.1280876156
 21
-14.6228681319
  0
LINE
  5
579
100
AcDbEntity
  8
RACCORDO
100
AcDbLine
 62
7
  6
CONTINUOUS
 10
23.2844342514
 20
-11.8461267879
 11
23.2745342168
 21
-14.8296996647
  0
LINE
  5
57A
100
AcDbEntity
  8
RACCORDO
100
AcDbLine
 62
7
  6
CONTINUOUS
 10
23.1680003796
 20
-8.6220660204
 11
23.1380751521
 21
-11.6287427328
  0
LINE
  5
57B
100
AcDbEntity
  8
RACCORDO
100
AcDbLine
 62
7
  6
CONTINUOUS
 10
23.3141338842
 20
-8.8500543394
 11
23.2844342514
 21
-11.8461267879
  0
LINE
  5
57C
100
AcDbEntity
  8
RACCORDO
100
AcDbLine
 62
7
  6
CONTINUOUS
 10
22.7567604738
 20
4.8725411215
 11
22.7563382669
 21
4.8417525436
  0
LINE
  5
57D
100
AcDbEntity
  8
RACCORDO
100
AcDbLine
 62
7
  6
CONTINUOUS
 10
23.3636313779
 20
-5.8416793024
 11
23.3141338842
 21
-8.8500543394
  0
LINE
  5
57E
100
AcDbEntity
  8
RACCORDO
100
AcDbLine
 62
7
  6
CONTINUOUS
 10
23.2178613458
 20
-5.6030235991
 11
23.1680003796
 21
-8.6220660204
  0
LINE
  5
57F
100
AcDbEntity
  8
RACCORDO
100
AcDbLine
 62
7
  6
CONTINUOUS
 10
23.6319192086
 20
3.3147209502
 11
23.6308701615
 21
3.255282886
  0
LINE
  5
580
100
AcDbEntity
  8
0
100
AcDbLine
 62
7
  6
CONTINUOUS
 10
3.343282526
 20
-24.6720843628
 11
3.3410832719
 21
-24.6967376171
  0
LINE
  5
581
100
AcDbEntity
  8
0
100
AcDbLine
 62
7
  6
CONTINUOUS
 10
3.0625290632
 20
-24.3798443444
 11
3.0603632076
 21
-24.3965448393
  0
LINE
  5
582
100
AcDbEntity
  8
0
100
AcDbLine
 62
7
  6
CONTINUOUS
 10
2.953851884
 20
-24.4587888878
 11
2.956080543
 21
-24.4419326361
  0
LINE
  5
583
100
AcDbEntity
  8
0
100
AcDbLine
 62
7
  6
CONTINUOUS
 10
3.3410832719
 20
-24.6967376171
 11
3.3379121111
 21
-24.719698582
  0
LINE
  5
584
100
AcDbEntity
  8
0
100
AcDbLine
 62
7
  6
CONTINUOUS
 10
-19.8930774734
 20
0.8712964571
 11
-19.8829870695
 21
0.9045468529
  0
LINE
  5
585
100
AcDbEntity
  8
RACCORDO
100
AcDbLine
 62
7
  6
CONTINUOUS
 10
-24.1579115715
 20
-5.6606258516
 11
-24.1468072334
 21
-5.626486666
  0
LINE
  5
586
100
AcDbEntity
  8
0
100
AcDbLine
 62
7
  6
CONTINUOUS
 10
-19.9049002809
 20
0.8379846474
 11
-19.8930774734
 21
0.8712964571
  0
LINE
  5
587
100
AcDbEntity
  8
RACCORDO
100
AcDbLine
 62
7
  6
CONTINUOUS
 10
-25.0872239613
 20
31.7424788867
 11
-25.0667250697
 21
31.788977139
  0
LINE
  5
588
100
AcDbEntity
  8
RACCORDO
100
AcDbLine
 62
7
  6
CONTINUOUS
 10
-24.4235795141
 20
31.5886038606
 11
-24.4106738858
 21
31.6173778707
  0
LINE
  5
589
100
AcDbEntity
  8
RACCORDO
100
AcDbLine
 62
7
  6
CONTINUOUS
 10
-41.1794264608
 20
61.624962911
 11
-41.1641799856
 21
61.6466352927
  0
LINE
  5
58A
100
AcDbEntity
  8
RACCORDO
100
AcDbLine
 62
7
  6
CONTINUOUS
 10
-41.7257873817
 20
61.3666976742
 11
-41.7439852162
 21
61.3421850222
  0
LINE
  5
58B
100
AcDbEntity
  8
RACCORDO
100
AcDbLine
 62
7
  6
CONTINUOUS
 10
-41.747001128
 20
61.6360264837
 11
-41.7769638329
 21
61.5966847881
  0
LINE
  5
58C
100
AcDbEntity
  8
RACCORDO
100
AcDbLine
 62
7
  6
CONTINUOUS
 10
23.226331183
 20
-33.0843269382
 11
23.1790100516
 21
-33.0870748206
  0
LINE
  5
58D
100
AcDbEntity
  8
0
100
AcDbLine
 62
7
  6
CONTINUOUS
 10
2.8370752844
 20
-24.5855906561
 11
2.8507492851
 21
-24.5850636922
  0
LINE
  5
58E
100
AcDbEntity
  8
RACCORDO
100
AcDbLine
 62
7
  6
CONTINUOUS
 10
23.3711075144
 20
-32.4200656513
 11
23.3428981862
 21
-32.4210688695
  0
LINE
  5
58F
100
AcDbEntity
  8
RACCORDO
100
AcDbLine
 62
7
  6
CONTINUOUS
 10
-24.9357500667
 20
-4.3618742874
 11
-24.8947829082
 21
-4.3666573344
  0
LINE
  5
590
100
AcDbEntity
  8
0
100
AcDbLine
 62
7
  6
CONTINUOUS
 10
-20.9960103869
 20
4.8347344421
 11
-21.0208567374
 21
4.8391642736
  0
LINE
  5
591
100
AcDbEntity
  8
0
100
AcDbLine
 62
7
  6
CONTINUOUS
 10
-20.0076741345
 20
4.4279083576
 11
-20.0293260512
 21
4.431909613
  0
LINE
  5
592
100
AcDbEntity
  8
0
100
AcDbLine
 62
7
  6
CONTINUOUS
 10
-20.700383026
 20
4.8278816788
 11
-20.7219586524
 21
4.8318688358
  0
LINE
  5
593
100
AcDbEntity
  8
0
100
AcDbLine
 62
7
  6
CONTINUOUS
 10
-20.8298945071
 20
4.8712203845
 11
-20.7937747269
 21
4.864303451
  0
LINE
  5
594
100
AcDbEntity
  8
RACCORDO
100
AcDbLine
 62
7
  6
CONTINUOUS
 10
23.3671492413
 20
4.0111852556
 11
23.361952035
 21
4.0123302653
  0
LINE
  5
595
100
AcDbEntity
  8
RACCORDO
100
AcDbLine
 62
7
  6
CONTINUOUS
 10
-25.0516544758
 20
31.3760497576
 11
-25.0144649162
 21
31.3640095824
  0
LINE
  5
596
100
AcDbEntity
  8
RACCORDO
100
AcDbLine
 62
7
  6
CONTINUOUS
 10
-24.64490171
 20
31.7372945761
 11
-24.6075583089
 21
31.7239513287
  0
LINE
  5
597
100
AcDbEntity
  8
RACCORDO
100
AcDbLine
 62
7
  6
CONTINUOUS
 10
43.8832240188
 20
11.5995897192
 11
43.9054475141
 21
11.5914002422
  0
LINE
  5
598
100
AcDbEntity
  8
RACCORDO
100
AcDbLine
 62
7
  6
CONTINUOUS
 10
-24.1728984436
 20
31.7673383565
 11
-24.1495864496
 21
31.7586388153
  0
LINE
  5
599
100
AcDbEntity
  8
RACCORDO
100
AcDbLine
 62
7
  6
CONTINUOUS
 10
-25.0870418806
 20
31.3897227833
 11
-25.0516544758
 21
31.3760497576
  0
LINE
  5
59A
100
AcDbEntity
  8
RACCORDO
100
AcDbLine
 62
7
  6
CONTINUOUS
 10
-24.3498124687
 20
32.0533044469
 11
-24.2949457405
 21
32.0316641122
  0
LINE
  5
59B
100
AcDbEntity
  8
RACCORDO
100
AcDbLine
 62
7
  6
CONTINUOUS
 10
43.8620617468
 20
11.6085334633
 11
43.8832240188
 21
11.5995897192
  0
LINE
  5
59C
100
AcDbEntity
  8
RACCORDO
100
AcDbLine
 62
7
  6
CONTINUOUS
 10
43.842111365
 20
11.6181677987
 11
43.8620617468
 21
11.6085334633
  0
LINE
  5
59D
100
AcDbEntity
  8
RACCORDO
100
AcDbLine
 62
7
  6
CONTINUOUS
 10
-41.057840049
 20
61.7486616469
 11
-41.0994153585
 21
61.7703658443
  0
LINE
  5
59E
100
AcDbEntity
  8
RACCORDO
100
AcDbLine
 62
7
  6
CONTINUOUS
 10
-41.2553445554
 20
61.4344894527
 11
-41.2841594076
 21
61.4499618473
  0
LINE
  5
59F
100
AcDbEntity
  8
RACCORDO
100
AcDbLine
 62
7
  6
CONTINUOUS
 10
-36.8872083684
 20
62.4213408789
 11
-36.8634286944
 21
62.4085344147
  0
LINE
  5
5A0
100
AcDbEntity
  8
RACCORDO
100
AcDbLine
 62
7
  6
CONTINUOUS
 10
43.8235149118
 20
11.6284241331
 11
43.842111365
 21
11.6181677987
  0
LINE
  5
5A1
100
AcDbEntity
  8
RACCORDO
100
AcDbLine
 62
7
  6
CONTINUOUS
 10
43.4251838599
 20
12.541013642
 11
-41.2553445554
 21
61.4344894527
  0
LINE
  5
5A2
100
AcDbEntity
  8
RACCORDO
100
AcDbLine
 62
7
  6
CONTINUOUS
 10
43.6226883663
 20
12.8551858362
 11
-41.057840049
 21
61.7486616469
  0
LINE
  5
5A3
100
AcDbEntity
  8
RACCORDO
100
AcDbLine
 62
7
  6
CONTINUOUS
 10
-39.4827609731
 20
62.8592717255
 11
45.3719908998
 21
13.8652014739
  0
LINE
  5
5A4
100
AcDbEntity
  8
RACCORDO
100
AcDbLine
 62
7
  6
CONTINUOUS
 10
-36.8634286944
 20
62.4085344147
 11
46.7124566927
 21
14.1528656329
  0
LINE
  5
5A5
100
AcDbEntity
  8
RACCORDO
100
AcDbLine
 62
7
  6
CONTINUOUS
 10
46.7124566927
 20
14.1528656329
 11
46.7368258022
 21
14.137701967
  0
LINE
  5
5A6
100
AcDbEntity
  8
RACCORDO
100
AcDbLine
 62
7
  6
CONTINUOUS
 10
46.7368258022
 20
14.137701967
 11
46.7601273902
 21
14.1215519133
  0
LINE
  5
5A7
100
AcDbEntity
  8
RACCORDO
100
AcDbLine
 62
7
  6
CONTINUOUS
 10
46.9243024513
 20
13.9328868629
 11
46.9376461203
 21
13.907315228
  0
LINE
  5
5A8
100
AcDbEntity
  8
RACCORDO
100
AcDbLine
 62
7
  6
CONTINUOUS
 10
46.9376461203
 20
13.907315228
 11
46.9498313513
 21
13.8808943475
  0
LINE
  5
5A9
100
AcDbEntity
  8
RACCORDO
100
AcDbLine
 62
7
  6
CONTINUOUS
 10
43.7535208449
 20
12.1387864764
 11
43.7370367757
 21
12.1763598537
  0
LINE
  5
5AA
100
AcDbEntity
  8
RACCORDO
100
AcDbLine
 62
7
  6
CONTINUOUS
 10
44.1231210094
 20
12.2323736201
 11
44.0998222568
 21
12.2858758606
  0
LINE
  5
5AB
100
AcDbEntity
  8
RACCORDO
100
AcDbLine
 62
7
  6
CONTINUOUS
 10
46.9498313513
 20
13.8808943475
 11
46.9608520481
 21
13.8537202968
  0
LINE
  5
5AC
100
AcDbEntity
  8
RACCORDO
100
AcDbLine
 62
7
  6
CONTINUOUS
 10
43.7685308796
 20
12.100551707
 11
43.7535208449
 21
12.1387864764
  0
LINE
  5
5AD
100
AcDbEntity
  8
RACCORDO
100
AcDbLine
 62
7
  6
CONTINUOUS
 10
44.1444596515
 20
12.1780059292
 11
44.1231210094
 21
12.2323736201
  0
LINE
  5
5AE
100
AcDbEntity
  8
RACCORDO
100
AcDbLine
 62
7
  6
CONTINUOUS
 10
44.1637495398
 20
12.1229473137
 11
44.1444596515
 21
12.1780059292
  0
LINE
  5
5AF
100
AcDbEntity
  8
RACCORDO
100
AcDbLine
 62
7
  6
CONTINUOUS
 10
46.9608520481
 20
13.8537202968
 11
46.9704587914
 21
13.8262958173
  0
LINE
  5
5B0
100
AcDbEntity
  8
RACCORDO
100
AcDbLine
 62
7
  6
CONTINUOUS
 10
43.7820534399
 20
12.0616493376
 11
43.7685308796
 21
12.100551707
  0
LINE
  5
5B1
100
AcDbEntity
  8
RACCORDO
100
AcDbLine
 62
7
  6
CONTINUOUS
 10
44.1809558407
 20
12.0673927095
 11
44.1637495398
 21
12.1229473137
  0
LINE
  5
5B2
100
AcDbEntity
  8
RACCORDO
100
AcDbLine
 62
7
  6
CONTINUOUS
 10
43.7941032395
 20
12.0220860445
 11
43.7820534399
 21
12.0616493376
  0
LINE
  5
5B3
100
AcDbEntity
  8
RACCORDO
100
AcDbLine
 62
7
  6
CONTINUOUS
 10
46.9704587914
 20
13.8262958173
 11
46.9785884397
 21
13.7987184812
  0
LINE
  5
5B4
100
AcDbEntity
  8
RACCORDO
100
AcDbLine
 62
7
  6
CONTINUOUS
 10
44.1959989371
 20
12.0114938692
 11
44.1809558407
 21
12.0673927095
  0
LINE
  5
5B5
100
AcDbEntity
  8
RACCORDO
100
AcDbLine
 62
7
  6
CONTINUOUS
 10
43.8045491377
 20
11.9822517922
 11
43.7941032395
 21
12.0220860445
  0
LINE
  5
5B6
100
AcDbEntity
  8
RACCORDO
100
AcDbLine
 62
7
  6
CONTINUOUS
 10
43.8235148686
 20
-60.0978824191
 11
43.5219807446
 21
-58.3406528489
  0
LINE
  5
5B7
100
AcDbEntity
  8
RACCORDO
100
AcDbLine
 62
7
  6
CONTINUOUS
 10
44.2330240886
 20
-60.0626304984
 11
43.9319288716
 21
-58.3079759195
  0
LINE
  5
5B8
100
AcDbEntity
  8
RACCORDO
100
AcDbLine
 62
7
  6
CONTINUOUS
 10
43.5219807446
 20
-58.3406528489
 11
43.2452675154
 21
-56.566020218
  0
LINE
  5
5B9
100
AcDbEntity
  8
RACCORDO
100
AcDbLine
 62
7
  6
CONTINUOUS
 10
43.9319288716
 20
-58.3079759195
 11
43.6557078044
 21
-56.5366533499
  0
LINE
  5
5BA
100
AcDbEntity
  8
RACCORDO
100
AcDbLine
 62
7
  6
CONTINUOUS
 10
43.8282345617
 20
-60.1284712061
 11
43.8235148686
 21
-60.0978824191
  0
LINE
  5
5BB
100
AcDbEntity
  8
RACCORDO
100
AcDbLine
 62
7
  6
CONTINUOUS
 10
43.2452675154
 20
-56.566020218
 11
42.9934280686
 21
-54.7743413536
  0
LINE
  5
5BC
100
AcDbEntity
  8
RACCORDO
100
AcDbLine
 62
7
  6
CONTINUOUS
 10
43.6557078044
 20
-56.5366533499
 11
43.4043608868
 21
-54.7486627897
  0
LINE
  5
5BD
100
AcDbEntity
  8
RACCORDO
100
AcDbLine
 62
7
  6
CONTINUOUS
 10
42.9934280686
 20
-54.7743413536
 11
42.7665088731
 21
-52.9659786987
  0
LINE
  5
5BE
100
AcDbEntity
  8
RACCORDO
100
AcDbLine
 62
7
  6
CONTINUOUS
 10
43.4043608868
 20
-54.7486627897
 11
43.1778467196
 21
-52.9436310402
  0
LINE
  5
5BF
100
AcDbEntity
  8
RACCORDO
100
AcDbLine
 62
7
  6
CONTINUOUS
 10
44.2333802897
 20
11.788960188
 11
44.2275401786
 21
11.8440116825
  0
LINE
  5
5C0
100
AcDbEntity
  8
RACCORDO
100
AcDbLine
 62
7
  6
CONTINUOUS
 10
43.8312390598
 20
-60.157784636
 11
43.8282345617
 21
-60.1284712061
  0
LINE
  5
5C1
100
AcDbEntity
  8
RACCORDO
100
AcDbLine
 62
7
  6
CONTINUOUS
 10
42.5645548247
 20
-51.1412941934
 11
42.3876096565
 21
-49.3006489029
  0
LINE
  5
5C2
100
AcDbEntity
  8
RACCORDO
100
AcDbLine
 62
7
  6
CONTINUOUS
 10
42.976206702
 20
-51.1219313002
 11
42.7995650324
 21
-49.2846831654
  0
LINE
  5
5C3
100
AcDbEntity
  8
RACCORDO
100
AcDbLine
 62
7
  6
CONTINUOUS
 10
43.8299633837
 20
11.8215058221
 11
43.8261371588
 21
11.8615150467
  0
LINE
  5
5C4
100
AcDbEntity
  8
RACCORDO
100
AcDbLine
 62
7
  6
CONTINUOUS
 10
44.2367487015
 20
-60.1075713309
 11
44.2330240886
 21
-60.0626304984
  0
LINE
  5
5C5
100
AcDbEntity
  8
RACCORDO
100
AcDbLine
 62
7
  6
CONTINUOUS
 10
42.3876096565
 20
-49.3006489029
 11
42.235709263
 21
-47.4444111573
  0
LINE
  5
5C6
100
AcDbEntity
  8
RACCORDO
100
AcDbLine
 62
7
  6
CONTINUOUS
 10
42.7995650324
 20
-49.2846831654
 11
42.64796311
 21
-47.4322598347
  0
LINE
  5
5C7
100
AcDbEntity
  8
RACCORDO
100
AcDbLine
 62
7
  6
CONTINUOUS
 10
42.64796311
 20
-47.4322598347
 11
42.5213595354
 21
-45.5642881094
  0
LINE
  5
5C8
100
AcDbEntity
  8
RACCORDO
100
AcDbLine
 62
7
  6
CONTINUOUS
 10
42.235709263
 20
-47.4444111573
 11
42.1088812742
 21
-45.572956773
  0
LINE
  5
5C9
100
AcDbEntity
  8
RACCORDO
100
AcDbLine
 62
7
  6
CONTINUOUS
 10
42.5213595354
 20
-45.5642881094
 11
42.4197543088
 21
-43.6807679893
  0
LINE
  5
5CA
100
AcDbEntity
  8
RACCORDO
100
AcDbLine
 62
7
  6
CONTINUOUS
 10
42.1088812742
 20
-45.572956773
 11
42.0071501983
 21
-43.6866627234
  0
LINE
  5
5CB
100
AcDbEntity
  8
RACCORDO
100
AcDbLine
 62
7
  6
CONTINUOUS
 10
42.0071502701
 20
-43.6866627649
 11
41.8772851697
 21
-40.6718889994
  0
LINE
  5
5CC
100
AcDbEntity
  8
RACCORDO
100
AcDbLine
 62
7
  6
CONTINUOUS
 10
23.4849758172
 20
-32.2785086602
 11
23.4845645765
 21
-32.3029460818
  0
LINE
  5
5CD
100
AcDbEntity
  8
RACCORDO
100
AcDbLine
 62
7
  6
CONTINUOUS
 10
23.2876552416
 20
-2.5718120285
 11
23.2178613458
 21
-5.6030235991
  0
LINE
  5
5CE
100
AcDbEntity
  8
RACCORDO
100
AcDbLine
 62
7
  6
CONTINUOUS
 10
23.4329234068
 20
-2.8211992199
 11
23.3636313779
 21
-5.8416793024
  0
LINE
  5
5CF
100
AcDbEntity
  8
RACCORDO
100
AcDbLine
 62
7
  6
CONTINUOUS
 10
23.4848874504
 20
3.4774978579
 11
23.4843858626
 21
3.45884683
  0
LINE
  5
5D0
100
AcDbEntity
  8
RACCORDO
100
AcDbLine
 62
7
  6
CONTINUOUS
 10
23.3773754042
 20
0.4713440994
 11
23.2876552416
 21
-2.5718120285
  0
LINE
  5
5D1
100
AcDbEntity
  8
RACCORDO
100
AcDbLine
 62
7
  6
CONTINUOUS
 10
23.5220050597
 20
0.2111878203
 11
23.4329234068
 21
-2.8211992199
  0
LINE
  5
5D2
100
AcDbEntity
  8
RACCORDO
100
AcDbLine
 62
7
  6
CONTINUOUS
 10
23.6319410432
 20
-32.5123258378
 11
23.6302380599
 21
-32.5653627719
  0
LINE
  5
5D3
100
AcDbEntity
  8
RACCORDO
100
AcDbLine
 62
7
  6
CONTINUOUS
 10
23.3600301575
 20
-32.6750365864
 11
23.3613976412
 21
-32.6365930015
  0
LINE
  5
5D4
100
AcDbEntity
  8
RACCORDO
100
AcDbLine
 62
7
  6
CONTINUOUS
 10
23.4843843178
 20
3.4587912524
 11
23.3773754042
 21
0.4713440994
  0
LINE
  5
5D5
100
AcDbEntity
  8
RACCORDO
100
AcDbLine
 62
7
  6
CONTINUOUS
 10
23.6308701615
 20
3.255282886
 11
23.5220050597
 21
0.2111878203
  0
LINE
  5
5D6
100
AcDbEntity
  8
RACCORDO
100
AcDbLine
 62
7
  6
CONTINUOUS
 10
22.7563382667
 20
-32.9283784022
 11
22.7578953936
 21
-32.8969836119
  0
LINE
  5
5D7
100
AcDbEntity
  8
RACCORDO
100
AcDbLine
 62
7
  6
CONTINUOUS
 10
23.4845645765
 20
-32.3029460818
 11
23.4832518945
 21
-32.3245643137
  0
LINE
  5
5D8
100
AcDbEntity
  8
0
100
AcDbLine
 62
7
  6
CONTINUOUS
 10
3.3379121111
 20
-24.719698582
 11
3.3340258725
 21
-24.7411679531
  0
LINE
  5
5D9
100
AcDbEntity
  8
0
100
AcDbLine
 62
7
  6
CONTINUOUS
 10
3.0603632076
 20
-24.3965448393
 11
3.0574069645
 21
-24.41246906
  0
LINE
  5
5DA
100
AcDbEntity
  8
0
100
AcDbLine
 62
7
  6
CONTINUOUS
 10
2.9508268581
 20
-24.4748249927
 11
2.953851884
 21
-24.4587888878
  0
LINE
  5
5DB
100
AcDbEntity
  8
RACCORDO
100
AcDbLine
 62
7
  6
CONTINUOUS
 10
-24.1468072334
 20
-5.626486666
 11
-24.1339382767
 21
-5.5923650414
  0
LINE
  5
5DC
100
AcDbEntity
  8
0
100
AcDbLine
 62
7
  6
CONTINUOUS
 10
-19.9184282386
 20
0.8046123901
 11
-19.9049002809
 21
0.8379846474
  0
LINE
  5
5DD
100
AcDbEntity
  8
RACCORDO
100
AcDbLine
 62
7
  6
CONTINUOUS
 10
-24.1339382767
 20
-5.5923650414
 11
-24.1193767639
 21
-5.5584520484
  0
LINE
  5
5DE
100
AcDbEntity
  8
RACCORDO
100
AcDbLine
 62
7
  6
CONTINUOUS
 10
-25.0667250697
 20
31.788977139
 11
-25.0434942055
 21
31.8330110878
  0
LINE
  5
5DF
100
AcDbEntity
  8
RACCORDO
100
AcDbLine
 62
7
  6
CONTINUOUS
 10
-24.4106738858
 20
31.6173778707
 11
-24.3960340744
 21
31.6445465099
  0
LINE
  5
5E0
100
AcDbEntity
  8
RACCORDO
100
AcDbLine
 62
7
  6
CONTINUOUS
 10
-41.1641799856
 20
61.6466352927
 11
-41.1480026109
 21
61.6672284223
  0
LINE
  5
5E1
100
AcDbEntity
  8
RACCORDO
100
AcDbLine
 62
7
  6
CONTINUOUS
 10
-41.7062816109
 20
61.3892444906
 11
-41.7257873817
 21
61.3666976742
  0
LINE
  5
5E2
100
AcDbEntity
  8
RACCORDO
100
AcDbLine
 62
7
  6
CONTINUOUS
 10
-41.1480026109
 20
61.6672284223
 11
-41.1310225567
 21
61.6865790669
  0
LINE
  5
5E3
100
AcDbEntity
  8
RACCORDO
100
AcDbLine
 62
7
  6
CONTINUOUS
 10
-41.7148718967
 20
61.672612387
 11
-41.747001128
 21
61.6360264837
  0
LINE
  5
5E4
100
AcDbEntity
  8
RACCORDO
100
AcDbLine
 62
7
  6
CONTINUOUS
 10
23.2716252895
 20
-33.0772277919
 11
23.226331183
 21
-33.0843269382
  0
LINE
  5
5E5
100
AcDbEntity
  8
RACCORDO
100
AcDbLine
 62
7
  6
CONTINUOUS
 10
23.3981205908
 20
-32.4164057564
 11
23.3711075144
 21
-32.4200656513
  0
LINE
  5
5E6
100
AcDbEntity
  8
0
100
AcDbLine
 62
7
  6
CONTINUOUS
 10
3.135364629
 20
-24.9573023032
 11
3.1273566384
 21
-24.9579495335
  0
LINE
  5
5E7
100
AcDbEntity
  8
0
100
AcDbLine
 62
7
  6
CONTINUOUS
 10
3.2322135802
 20
-24.89654546
 11
3.2397203807
 21
-24.896141182
  0
LINE
  5
5E8
100
AcDbEntity
  8
RACCORDO
100
AcDbLine
 62
7
  6
CONTINUOUS
 10
-24.8947829082
 20
-4.3666573344
 11
-24.8531294021
 21
-4.369314116
  0
LINE
  5
5E9
100
AcDbEntity
  8
0
100
AcDbLine
 62
7
  6
CONTINUOUS
 10
-21.0208567374
 20
4.8391642736
 11
-21.0450590309
 21
4.841006313
  0
LINE
  5
5EA
100
AcDbEntity
  8
0
100
AcDbLine
 62
7
  6
CONTINUOUS
 10
-20.8663399377
 20
4.875456988
 11
-20.8298945071
 21
4.8712203845
  0
LINE
  5
5EB
100
AcDbEntity
  8
RACCORDO
100
AcDbLine
 62
7
  6
CONTINUOUS
 10
43.9524388574
 20
11.5775115273
 11
43.9768721463
 21
11.5719111712
  0
LINE
  5
5EC
100
AcDbEntity
  8
RACCORDO
100
AcDbLine
 62
7
  6
CONTINUOUS
 10
-25.0144649162
 20
31.3640095824
 11
-24.975737718
 21
31.3536878952
  0
LINE
  5
5ED
100
AcDbEntity
  8
RACCORDO
100
AcDbLine
 62
7
  6
CONTINUOUS
 10
-24.6075583089
 20
31.7239513287
 11
-24.5699801837
 21
31.7137442827
  0
LINE
  5
5EE
100
AcDbEntity
  8
RACCORDO
100
AcDbLine
 62
7
  6
CONTINUOUS
 10
43.9285740107
 20
11.5840233381
 11
43.9524388574
 21
11.5775115273
  0
LINE
  5
5EF
100
AcDbEntity
  8
RACCORDO
100
AcDbLine
 62
7
  6
CONTINUOUS
 10
-24.1937020828
 20
31.7736370485
 11
-24.1728984436
 21
31.7673383565
  0
LINE
  5
5F0
100
AcDbEntity
  8
RACCORDO
100
AcDbLine
 62
7
  6
CONTINUOUS
 10
43.9054475141
 20
11.5914002422
 11
43.9285740107
 21
11.5840233381
  0
LINE
  5
5F1
100
AcDbEntity
  8
RACCORDO
100
AcDbLine
 62
7
  6
CONTINUOUS
 10
-24.4047841612
 20
32.0709100458
 11
-24.3498124687
 21
32.0533044469
  0
LINE
  5
5F2
100
AcDbEntity
  8
RACCORDO
100
AcDbLine
 62
7
  6
CONTINUOUS
 10
-41.0994153585
 20
61.7703658443
 11
-41.1410798708
 21
61.7890788253
  0
LINE
  5
5F3
100
AcDbEntity
  8
RACCORDO
100
AcDbLine
 62
7
  6
CONTINUOUS
 10
-41.2841594076
 20
61.4499618473
 11
-41.3129791164
 21
61.463201071
  0
LINE
  5
5F4
100
AcDbEntity
  8
RACCORDO
100
AcDbLine
 62
7
  6
CONTINUOUS
 10
-36.9102160051
 20
62.4319996649
 11
-36.8872083684
 21
62.4213408789
  0
LINE
  5
5F5
100
AcDbEntity
  8
RACCORDO
100
AcDbLine
 62
7
  6
CONTINUOUS
 10
46.9785884397
 20
13.7987184812
 11
46.9853041345
 21
13.7708907162
  0
LINE
  5
5F6
100
AcDbEntity
  8
RACCORDO
100
AcDbLine
 62
7
  6
CONTINUOUS
 10
44.2087985864
 20
11.9554557164
 11
44.1959989371
 21
12.0114938692
  0
LINE
  5
5F7
100
AcDbEntity
  8
RACCORDO
100
AcDbLine
 62
7
  6
CONTINUOUS
 10
43.8133766309
 20
11.942125844
 11
43.8045491377
 21
11.9822517922
  0
LINE
  5
5F8
100
AcDbEntity
  8
RACCORDO
100
AcDbLine
 62
7
  6
CONTINUOUS
 10
44.2193337609
 20
11.8995543629
 11
44.2087985864
 21
11.9554557164
  0
LINE
  5
5F9
100
AcDbEntity
  8
RACCORDO
100
AcDbLine
 62
7
  6
CONTINUOUS
 10
46.9853041345
 20
13.7708907162
 11
46.9905458815
 21
13.7430225472
  0
LINE
  5
5FA
100
AcDbEntity
  8
RACCORDO
100
AcDbLine
 62
7
  6
CONTINUOUS
 10
43.8206013754
 20
11.9017293622
 11
43.8133766309
 21
11.942125844
  0
LINE
  5
5FB
100
AcDbEntity
  8
RACCORDO
100
AcDbLine
 62
7
  6
CONTINUOUS
 10
44.2275401786
 20
11.8440116825
 11
44.2193337609
 21
11.8995543629
  0
LINE
  5
5FC
100
AcDbEntity
  8
RACCORDO
100
AcDbLine
 62
7
  6
CONTINUOUS
 10
43.8261371588
 20
11.8615150467
 11
43.8206013754
 21
11.9017293622
  0
LINE
  5
5FD
100
AcDbEntity
  8
RACCORDO
100
AcDbLine
 62
7
  6
CONTINUOUS
 10
46.9905458815
 20
13.7430225472
 11
46.9942936825
 21
13.7151839824
  0
LINE
  5
5FE
100
AcDbEntity
  8
RACCORDO
100
AcDbLine
 62
7
  6
CONTINUOUS
 10
42.7665088731
 20
-52.9659786987
 11
42.5645548247
 21
-51.1412941934
  0
LINE
  5
5FF
100
AcDbEntity
  8
RACCORDO
100
AcDbLine
 62
7
  6
CONTINUOUS
 10
43.1778467196
 20
-52.9436310402
 11
42.976206702
 21
-51.1219313002
  0
LINE
  5
600
100
AcDbEntity
  8
RACCORDO
100
AcDbLine
 62
7
  6
CONTINUOUS
 10
46.9942936825
 20
13.7151839824
 11
46.9965675358
 21
13.6873050135
  0
LINE
  5
601
100
AcDbEntity
  8
RACCORDO
100
AcDbLine
 62
7
  6
CONTINUOUS
 10
44.2368820121
 20
11.7345418216
 11
44.2333802897
 21
11.788960188
  0
LINE
  5
602
100
AcDbEntity
  8
RACCORDO
100
AcDbLine
 62
7
  6
CONTINUOUS
 10
43.832101471
 20
11.7816790701
 11
43.8299633837
 21
11.8215058221
  0
LINE
  5
603
100
AcDbEntity
  8
RACCORDO
100
AcDbLine
 62
7
  6
CONTINUOUS
 10
43.8325281445
 20
-60.1858228782
 11
43.8312390598
 21
-60.157784636
  0
LINE
  5
604
100
AcDbEntity
  8
RACCORDO
100
AcDbLine
 62
7
  6
CONTINUOUS
 10
42.4197543088
 20
-43.6807679893
 11
42.2899572088
 21
-40.6676319118
  0
LINE
  5
605
100
AcDbEntity
  8
RACCORDO
100
AcDbLine
 62
7
  6
CONTINUOUS
 10
41.8772851697
 20
-40.6718889994
 11
41.771014192
 21
-37.643645456
  0
LINE
  5
606
100
AcDbEntity
  8
RACCORDO
100
AcDbLine
 62
7
  6
CONTINUOUS
 10
42.2899572088
 20
-40.6676319118
 11
42.1837561273
 21
-37.6414634997
  0
LINE
  5
607
100
AcDbEntity
  8
RACCORDO
100
AcDbLine
 62
7
  6
CONTINUOUS
 10
44.2380249942
 20
-60.1509134811
 11
44.2367487015
 21
-60.1075713309
  0
LINE
  5
608
100
AcDbEntity
  8
RACCORDO
100
AcDbLine
 62
7
  6
CONTINUOUS
 10
46.9965675358
 20
13.6873050135
 11
46.9973674412
 21
13.6593856405
  0
LINE
  5
609
100
AcDbEntity
  8
RACCORDO
100
AcDbLine
 62
7
  6
CONTINUOUS
 10
41.771014192
 20
-37.643645456
 11
41.6883469859
 21
-34.602143946
  0
LINE
  5
60A
100
AcDbEntity
  8
RACCORDO
100
AcDbLine
 62
7
  6
CONTINUOUS
 10
42.1837561273
 20
-37.6414634997
 11
42.1011510643
 21
-34.602262753
  0
LINE
  5
60B
100
AcDbEntity
  8
RACCORDO
100
AcDbLine
 62
7
  6
CONTINUOUS
 10
44.2380245187
 20
11.6809220168
 11
44.2368820121
 21
11.7345418216
  0
LINE
  5
60C
100
AcDbEntity
  8
RACCORDO
100
AcDbLine
 62
7
  6
CONTINUOUS
 10
41.6883469859
 20
-34.602143946
 11
41.6292908463
 21
-31.5475589023
  0
LINE
  5
60D
100
AcDbEntity
  8
RACCORDO
100
AcDbLine
 62
7
  6
CONTINUOUS
 10
42.1011510643
 20
-34.602262753
 11
42.0421377971
 21
-31.5497768144
  0
LINE
  5
60E
100
AcDbEntity
  8
RACCORDO
100
AcDbLine
 62
7
  6
CONTINUOUS
 10
41.6292908463
 20
-31.5475589023
 11
41.5938535948
 21
-28.4801422368
  0
LINE
  5
60F
100
AcDbEntity
  8
RACCORDO
100
AcDbLine
 62
7
  6
CONTINUOUS
 10
42.0421377971
 20
-31.5497768144
 11
42.0067205484
 21
-28.4842585412
  0
LINE
  5
610
100
AcDbEntity
  8
RACCORDO
100
AcDbLine
 62
7
  6
CONTINUOUS
 10
43.8325278503
 20
11.7424190347
 11
43.832101471
 21
11.7816790701
  0
LINE
  5
611
100
AcDbEntity
  8
RACCORDO
100
AcDbLine
 62
7
  6
CONTINUOUS
 10
41.5938535948
 20
-28.4801422368
 11
41.5820407702
 21
-25.4002249882
  0
LINE
  5
612
100
AcDbEntity
  8
RACCORDO
100
AcDbLine
 62
7
  6
CONTINUOUS
 10
42.0067205484
 20
-28.4842585412
 11
41.9949119864
 21
-25.4064665053
  0
LINE
  5
613
100
AcDbEntity
  8
RACCORDO
100
AcDbLine
 62
7
  6
CONTINUOUS
 10
46.0781286157
 20
-59.209487172
 11
46.0781286157
 21
12.642135074
  0
LINE
  5
614
100
AcDbEntity
  8
DRAFT
100
AcDbLine
 62
7
  6
CONTINUOUS
 10
46.2161842342
 20
-19.8525023147
 11
46.2161842342
 21
-25.5677942523
  0
LINE
  5
615
100
AcDbEntity
  8
RACCORDO
100
AcDbLine
 62
7
  6
CONTINUOUS
 10
41.5820407702
 20
-25.4002249882
 11
41.5938535885
 21
-22.3080246521
  0
LINE
  5
616
100
AcDbEntity
  8
RACCORDO
100
AcDbLine
 62
7
  6
CONTINUOUS
 10
41.9949119864
 20
-25.4064665053
 11
42.0067205585
 21
-22.3163962429
  0
LINE
  5
617
100
AcDbEntity
  8
RACCORDO
100
AcDbLine
 62
7
  6
CONTINUOUS
 10
41.5938535885
 20
-22.3080246521
 11
41.6292908353
 21
-19.2037591881
  0
LINE
  5
618
100
AcDbEntity
  8
RACCORDO
100
AcDbLine
 62
7
  6
CONTINUOUS
 10
42.0067205585
 20
-22.3163962429
 11
42.0421378173
 21
-19.2140522179
  0
LINE
  5
619
100
AcDbEntity
  8
RACCORDO
100
AcDbLine
 62
7
  6
CONTINUOUS
 10
41.6292908353
 20
-19.2037591881
 11
41.6883469722
 21
-16.0877646211
  0
LINE
  5
61A
100
AcDbEntity
  8
RACCORDO
100
AcDbLine
 62
7
  6
CONTINUOUS
 10
42.0421378173
 20
-19.2140522179
 11
42.1011510891
 21
-16.1002063935
  0
LINE
  5
61B
100
AcDbEntity
  8
RACCORDO
100
AcDbLine
 62
7
  6
CONTINUOUS
 10
41.6883469722
 20
-16.0877646211
 11
41.7710141773
 21
-12.9603014256
  0
LINE
  5
61C
100
AcDbEntity
  8
RACCORDO
100
AcDbLine
 62
7
  6
CONTINUOUS
 10
42.1011510891
 20
-16.1002063935
 11
42.1837561493
 21
-12.975116091
  0
LINE
  5
61D
100
AcDbEntity
  8
RACCORDO
100
AcDbLine
 62
7
  6
CONTINUOUS
 10
41.7710141773
 20
-12.9603014256
 11
41.8772851561
 21
-9.8215529279
  0
LINE
  5
61E
100
AcDbEntity
  8
RACCORDO
100
AcDbLine
 62
7
  6
CONTINUOUS
 10
42.1837561493
 20
-12.975116091
 11
42.2899572226
 21
-9.8385239892
  0
LINE
  5
61F
100
AcDbEntity
  8
RACCORDO
100
AcDbLine
 62
7
  6
CONTINUOUS
 10
23.6302380599
 20
-32.5653627719
 11
23.6257612344
 21
-32.6168429359
  0
LINE
  5
620
100
AcDbEntity
  8
RACCORDO
100
AcDbLine
 62
7
  6
CONTINUOUS
 10
23.4832518945
 20
-32.3245643137
 11
23.4812551861
 21
-32.3433017746
  0
LINE
  5
621
100
AcDbEntity
  8
RACCORDO
100
AcDbLine
 62
7
  6
CONTINUOUS
 10
22.7578953936
 20
-32.8969836119
 11
22.761423135
 21
-32.8646708457
  0
LINE
  5
622
100
AcDbEntity
  8
RACCORDO
100
AcDbLine
 62
7
  6
CONTINUOUS
 10
23.3613976412
 20
-32.6365930015
 11
23.3660445815
 21
-32.5990050573
  0
LINE
  5
623
100
AcDbEntity
  8
RACCORDO
100
AcDbLine
 62
7
  6
CONTINUOUS
 10
23.6257612344
 20
-32.6168429359
 11
23.6185157404
 21
-32.6670596488
  0
LINE
  5
624
100
AcDbEntity
  8
RACCORDO
100
AcDbLine
 62
7
  6
CONTINUOUS
 10
23.4812551861
 20
-32.3433017746
 11
23.4787860372
 21
-32.3592562949
  0
LINE
  5
625
100
AcDbEntity
  8
0
100
AcDbLine
 62
7
  6
CONTINUOUS
 10
3.3340258725
 20
-24.7411679531
 11
3.3294335457
 21
-24.761142713
  0
LINE
  5
626
100
AcDbEntity
  8
0
100
AcDbLine
 62
7
  6
CONTINUOUS
 10
3.0574069645
 20
-24.41246906
 11
3.0536799237
 21
-24.4276237476
  0
LINE
  5
627
100
AcDbEntity
  8
0
100
AcDbLine
 62
7
  6
CONTINUOUS
 10
2.947019912
 20
-24.4900374381
 11
2.9508268581
 21
-24.4748249927
  0
LINE
  5
628
100
AcDbEntity
  8
0
100
AcDbLine
 62
7
  6
CONTINUOUS
 10
3.3294335457
 20
-24.761142713
 11
3.3241250252
 21
-24.7796266208
  0
LINE
  5
629
100
AcDbEntity
  8
0
100
AcDbLine
 62
7
  6
CONTINUOUS
 10
-19.933446274
 20
0.771710249
 11
-19.9184282386
 21
0.8046123901
  0
LINE
  5
62A
100
AcDbEntity
  8
RACCORDO
100
AcDbLine
 62
7
  6
CONTINUOUS
 10
-24.1193767639
 20
-5.5584520484
 11
-24.1032042351
 21
-5.5249375894
  0
LINE
  5
62B
100
AcDbEntity
  8
0
100
AcDbLine
 62
7
  6
CONTINUOUS
 10
-19.9499782034
 20
0.7392857379
 11
-19.933446274
 21
0.771710249
  0
LINE
  5
62C
100
AcDbEntity
  8
RACCORDO
100
AcDbLine
 62
7
  6
CONTINUOUS
 10
-25.0434942055
 20
31.8330110878
 11
-25.0179709301
 21
31.8737968774
  0
LINE
  5
62D
100
AcDbEntity
  8
RACCORDO
100
AcDbLine
 62
7
  6
CONTINUOUS
 10
-24.3960340744
 20
31.6445465099
 11
-24.3798418531
 21
31.6697899092
  0
LINE
  5
62E
100
AcDbEntity
  8
RACCORDO
100
AcDbLine
 62
7
  6
CONTINUOUS
 10
-41.1310225567
 20
61.6865790669
 11
-41.1133744127
 21
61.7045338346
  0
LINE
  5
62F
100
AcDbEntity
  8
RACCORDO
100
AcDbLine
 62
7
  6
CONTINUOUS
 10
-41.6854810521
 20
61.4098479745
 11
-41.7062816109
 21
61.3892444906
  0
LINE
  5
630
100
AcDbEntity
  8
RACCORDO
100
AcDbLine
 62
7
  6
CONTINUOUS
 10
-41.6807056192
 20
61.7063575793
 11
-41.7148718967
 21
61.672612387
  0
LINE
  5
631
100
AcDbEntity
  8
RACCORDO
100
AcDbLine
 62
7
  6
CONTINUOUS
 10
23.4238578604
 20
-32.4101203683
 11
23.3981205908
 21
-32.4164057564
  0
LINE
  5
632
100
AcDbEntity
  8
0
100
AcDbLine
 62
7
  6
CONTINUOUS
 10
2.8507492851
 20
-24.5850636922
 11
2.8636782801
 21
-24.5831112342
  0
LINE
  5
633
100
AcDbEntity
  8
RACCORDO
100
AcDbLine
 62
7
  6
CONTINUOUS
 10
-24.8110858113
 20
-4.3698257356
 11
-24.7689511735
 21
-4.3681885544
  0
LINE
  5
634
100
AcDbEntity
  8
RACCORDO
100
AcDbLine
 62
7
  6
CONTINUOUS
 10
-24.8531294021
 20
-4.369314116
 11
-24.8110858113
 21
-4.3698257356
  0
LINE
  5
635
100
AcDbEntity
  8
0
100
AcDbLine
 62
7
  6
CONTINUOUS
 10
-20.9028805006
 20
4.8770088802
 11
-20.8663399377
 21
4.875456988
  0
LINE
  5
636
100
AcDbEntity
  8
0
100
AcDbLine
 62
7
  6
CONTINUOUS
 10
-20.7219586524
 20
4.8318688358
 11
-20.7445172929
 21
4.8334240274
  0
LINE
  5
637
100
AcDbEntity
  8
0
100
AcDbLine
 62
7
  6
CONTINUOUS
 10
-20.0293260512
 20
4.431909613
 11
-20.0518372958
 21
4.4334792784
  0
LINE
  5
638
100
AcDbEntity
  8
RACCORDO
100
AcDbLine
 62
7
  6
CONTINUOUS
 10
44.0267454222
 20
11.5635975389
 11
44.051830332
 21
11.5609434524
  0
LINE
  5
639
100
AcDbEntity
  8
RACCORDO
100
AcDbLine
 62
7
  6
CONTINUOUS
 10
44.0016999224
 20
11.567262142
 11
44.0267454222
 21
11.5635975389
  0
LINE
  5
63A
100
AcDbEntity
  8
RACCORDO
100
AcDbLine
 62
7
  6
CONTINUOUS
 10
-24.5699801837
 20
31.7137442827
 11
-24.5324381143
 21
31.7067469879
  0
LINE
  5
63B
100
AcDbEntity
  8
RACCORDO
100
AcDbLine
 62
7
  6
CONTINUOUS
 10
43.9768721463
 20
11.5719111712
 11
44.0016999224
 21
11.567262142
  0
LINE
  5
63C
100
AcDbEntity
  8
RACCORDO
100
AcDbLine
 62
7
  6
CONTINUOUS
 10
-24.975737718
 20
31.3536878952
 11
-24.9357483346
 21
31.3451581107
  0
LINE
  5
63D
100
AcDbEntity
  8
RACCORDO
100
AcDbLine
 62
7
  6
CONTINUOUS
 10
-24.2116492362
 20
31.7777613291
 11
-24.1937020828
 21
31.7736370485
  0
LINE
  5
63E
100
AcDbEntity
  8
RACCORDO
100
AcDbLine
 62
7
  6
CONTINUOUS
 10
-24.4595929917
 20
32.0843784129
 11
-24.4047841612
 21
32.0709100458
  0
LINE
  5
63F
100
AcDbEntity
  8
RACCORDO
100
AcDbLine
 62
7
  6
CONTINUOUS
 10
-37.0615694416
 20
62.4816141969
 11
-36.9605672861
 21
62.4456243017
  0
LINE
  5
640
100
AcDbEntity
  8
RACCORDO
100
AcDbLine
 62
7
  6
CONTINUOUS
 10
-41.1410798708
 20
61.7890788253
 11
-41.1826927557
 21
61.804745117
  0
LINE
  5
641
100
AcDbEntity
  8
RACCORDO
100
AcDbLine
 62
7
  6
CONTINUOUS
 10
-36.9182581673
 20
62.4353044144
 11
-37.0244684023
 21
62.4757868254
  0
LINE
  5
642
100
AcDbEntity
  8
RACCORDO
100
AcDbLine
 62
7
  6
CONTINUOUS
 10
-41.3129791164
 20
61.463201071
 11
-41.341803577
 21
61.4742071619
  0
LINE
  5
643
100
AcDbEntity
  8
RACCORDO
100
AcDbLine
 62
7
  6
CONTINUOUS
 10
-36.9605672861
 20
62.4456243017
 11
-36.8634288174
 21
62.40853447
  0
LINE
  5
644
100
AcDbEntity
  8
RACCORDO
100
AcDbLine
 62
7
  6
CONTINUOUS
 10
-36.9182563361
 20
62.4352900022
 11
-36.9102160051
 21
62.4319996649
  0
LINE
  5
645
100
AcDbEntity
  8
DRAFT
100
AcDbLine
 62
7
  6
CONTINUOUS
 10
46.9973674412
 20
13.6593856405
 11
46.9973674313
 21
-18.3825178514
  0
LINE
  5
646
100
AcDbEntity
  8
DRAFT
100
AcDbLine
 62
7
  6
CONTINUOUS
 10
46.9973674313
 20
-24.6736727439
 11
46.9973674541
 21
-56.7155761039
  0
LINE
  5
647
100
AcDbEntity
  8
RACCORDO
100
AcDbLine
 62
7
  6
CONTINUOUS
 10
43.8320926454
 20
-60.2126813244
 11
43.8325281445
 21
-60.1858228782
  0
LINE
  5
648
100
AcDbEntity
  8
RACCORDO
100
AcDbLine
 62
7
  6
CONTINUOUS
 10
44.2367479299
 20
11.6282859852
 11
44.2380245187
 21
11.6809220168
  0
LINE
  5
649
100
AcDbEntity
  8
RACCORDO
100
AcDbLine
 62
7
  6
CONTINUOUS
 10
44.2368773671
 20
-60.1925005551
 11
44.2380249942
 21
-60.1509134811
  0
LINE
  5
64A
100
AcDbEntity
  8
RACCORDO
100
AcDbLine
 62
7
  6
CONTINUOUS
 10
46.9973674541
 20
-56.7155761039
 11
46.9965675589
 21
-56.7425718835
  0
LINE
  5
64B
100
AcDbEntity
  8
RACCORDO
100
AcDbLine
 62
7
  6
CONTINUOUS
 10
43.831234732
 20
11.7038538234
 11
43.8325278503
 21
11.7424190347
  0
LINE
  5
64C
100
AcDbEntity
  8
RACCORDO
100
AcDbLine
 62
7
  6
CONTINUOUS
 10
41.8772851561
 20
-9.8215529279
 11
42.0071502597
 21
-6.6717420817
  0
LINE
  5
64D
100
AcDbEntity
  8
RACCORDO
100
AcDbLine
 62
7
  6
CONTINUOUS
 10
42.2899572226
 20
-9.8385239892
 11
42.4197543088
 21
-6.6904300881
  0
LINE
  5
64E
100
AcDbEntity
  8
RACCORDO
100
AcDbLine
 62
7
  6
CONTINUOUS
 10
42.0071501876
 20
-6.67174204
 11
42.1088812735
 21
-4.6796572018
  0
LINE
  5
64F
100
AcDbEntity
  8
RACCORDO
100
AcDbLine
 62
7
  6
CONTINUOUS
 10
42.4197543088
 20
-6.6904300881
 11
42.5213597143
 21
-4.7012616411
  0
LINE
  5
650
100
AcDbEntity
  8
RACCORDO
100
AcDbLine
 62
7
  6
CONTINUOUS
 10
42.1088812735
 20
-4.6796572018
 11
42.2357092692
 21
-2.6763057952
  0
LINE
  5
651
100
AcDbEntity
  8
RACCORDO
100
AcDbLine
 62
7
  6
CONTINUOUS
 10
42.5213597143
 20
-4.7012616411
 11
42.6479635165
 21
-2.7016493149
  0
LINE
  5
652
100
AcDbEntity
  8
RACCORDO
100
AcDbLine
 62
7
  6
CONTINUOUS
 10
44.2330240886
 20
11.5768050983
 11
44.2367479299
 21
11.6282859852
  0
LINE
  5
653
100
AcDbEntity
  8
RACCORDO
100
AcDbLine
 62
7
  6
CONTINUOUS
 10
42.2357092692
 20
-2.6763057952
 11
42.3876096627
 21
-0.6620930971
  0
LINE
  5
654
100
AcDbEntity
  8
RACCORDO
100
AcDbLine
 62
7
  6
CONTINUOUS
 10
42.6479635165
 20
-2.7016493149
 11
42.7995657152
 21
-0.6915931093
  0
LINE
  5
655
100
AcDbEntity
  8
RACCORDO
100
AcDbLine
 62
7
  6
CONTINUOUS
 10
43.8282303261
 20
11.6658554878
 11
43.831234732
 21
11.7038538234
  0
LINE
  5
656
100
AcDbEntity
  8
RACCORDO
100
AcDbLine
 62
7
  6
CONTINUOUS
 10
42.3876096627
 20
-0.6620930971
 11
42.5645548117
 21
1.3625684485
  0
LINE
  5
657
100
AcDbEntity
  8
RACCORDO
100
AcDbLine
 62
7
  6
CONTINUOUS
 10
42.7995657152
 20
-0.6915931093
 11
42.9762078347
 21
1.3293240308
  0
LINE
  5
658
100
AcDbEntity
  8
RACCORDO
100
AcDbLine
 62
7
  6
CONTINUOUS
 10
42.5645548117
 20
1.3625684485
 11
42.7665088239
 21
3.3972737782
  0
LINE
  5
659
100
AcDbEntity
  8
RACCORDO
100
AcDbLine
 62
7
  6
CONTINUOUS
 10
42.9762078347
 20
1.3293240308
 11
43.1778483507
 21
3.3606850503
  0
LINE
  5
65A
100
AcDbEntity
  8
RACCORDO
100
AcDbLine
 62
7
  6
CONTINUOUS
 10
42.7665088239
 20
3.3972737782
 11
42.9934279935
 21
5.4416254833
  0
LINE
  5
65B
100
AcDbEntity
  8
RACCORDO
100
AcDbLine
 62
7
  6
CONTINUOUS
 10
43.1778483507
 20
3.3606850503
 11
43.4043626913
 21
5.4012387833
  0
LINE
  5
65C
100
AcDbEntity
  8
RACCORDO
100
AcDbLine
 62
7
  6
CONTINUOUS
 10
42.9934279935
 20
5.4416254833
 11
43.2452674411
 21
7.4952145021
  0
LINE
  5
65D
100
AcDbEntity
  8
RACCORDO
100
AcDbLine
 62
7
  6
CONTINUOUS
 10
43.4043626913
 20
5.4012387833
 11
43.6557093325
 21
7.4505681747
  0
LINE
  5
65E
100
AcDbEntity
  8
RACCORDO
100
AcDbLine
 62
7
  6
CONTINUOUS
 10
43.8235148686
 20
11.6284241171
 11
43.8282303261
 21
11.6658554878
  0
LINE
  5
65F
100
AcDbEntity
  8
RACCORDO
100
AcDbLine
 62
7
  6
CONTINUOUS
 10
22.761423135
 20
-32.8646708457
 11
22.7669017368
 21
-32.8316210451
  0
LINE
  5
660
100
AcDbEntity
  8
RACCORDO
100
AcDbLine
 62
7
  6
CONTINUOUS
 10
23.6185157404
 20
-32.6670596488
 11
23.6084965321
 21
-32.7157195076
  0
LINE
  5
661
100
AcDbEntity
  8
RACCORDO
100
AcDbLine
 62
7
  6
CONTINUOUS
 10
23.4787860372
 20
-32.3592562949
 11
23.4760390784
 21
-32.3725791746
  0
LINE
  5
662
100
AcDbEntity
  8
RACCORDO
100
AcDbLine
 62
7
  6
CONTINUOUS
 10
23.3660445815
 20
-32.5990050573
 11
23.3739374935
 21
-32.5625436043
  0
LINE
  5
663
100
AcDbEntity
  8
RACCORDO
100
AcDbLine
 62
7
  6
CONTINUOUS
 10
22.7669017368
 20
-32.8316210451
 11
22.7743005205
 21
-32.7980192788
  0
LINE
  5
664
100
AcDbEntity
  8
0
100
AcDbLine
 62
7
  6
CONTINUOUS
 10
3.0536799237
 20
-24.4276237476
 11
3.0491622463
 21
-24.4420023261
  0
LINE
  5
665
100
AcDbEntity
  8
0
100
AcDbLine
 62
7
  6
CONTINUOUS
 10
2.9424163148
 20
-24.5044299254
 11
2.947019912
 21
-24.4900374381
  0
LINE
  5
666
100
AcDbEntity
  8
0
100
AcDbLine
 62
7
  6
CONTINUOUS
 10
3.3241250252
 20
-24.7796266208
 11
3.3183286034
 21
-24.7968304672
  0
LINE
  5
667
100
AcDbEntity
  8
RACCORDO
100
AcDbLine
 62
7
  6
CONTINUOUS
 10
-24.1032042351
 20
-5.5249375894
 11
-24.0855112516
 21
-5.4920093348
  0
LINE
  5
668
100
AcDbEntity
  8
0
100
AcDbLine
 62
7
  6
CONTINUOUS
 10
-19.9680002106
 20
0.7073313431
 11
-19.9499782034
 21
0.7392857379
  0
LINE
  5
669
100
AcDbEntity
  8
RACCORDO
100
AcDbLine
 62
7
  6
CONTINUOUS
 10
-24.0855112516
 20
-5.4920093348
 11
-24.0663968889
 21
-5.4598516726
  0
LINE
  5
66A
100
AcDbEntity
  8
RACCORDO
100
AcDbLine
 62
7
  6
CONTINUOUS
 10
-25.0179709301
 20
31.8737968774
 11
-24.9903023821
 21
31.9110729006
  0
LINE
  5
66B
100
AcDbEntity
  8
RACCORDO
100
AcDbLine
 62
7
  6
CONTINUOUS
 10
-24.3798418531
 20
31.6697899092
 11
-24.3622209836
 21
31.6929921357
  0
LINE
  5
66C
100
AcDbEntity
  8
RACCORDO
100
AcDbLine
 62
7
  6
CONTINUOUS
 10
-41.1133744127
 20
61.7045338346
 11
-41.0951980615
 21
61.7209504024
  0
LINE
  5
66D
100
AcDbEntity
  8
RACCORDO
100
AcDbLine
 62
7
  6
CONTINUOUS
 10
23.3149577554
 20
-33.0658507128
 11
23.2716252895
 21
-33.0772277919
  0
LINE
  5
66E
100
AcDbEntity
  8
0
100
AcDbLine
 62
7
  6
CONTINUOUS
 10
3.1429903262
 20
-24.9555526715
 11
3.135364629
 21
-24.9573023032
  0
LINE
  5
66F
100
AcDbEntity
  8
0
100
AcDbLine
 62
7
  6
CONTINUOUS
 10
3.2397203807
 20
-24.896141182
 11
3.2468444123
 21
-24.8947348626
  0
LINE
  5
670
100
AcDbEntity
  8
RACCORDO
100
AcDbLine
 62
7
  6
CONTINUOUS
 10
-24.7689511735
 20
-4.3681885544
 11
-24.727025174
 21
-4.3644142167
  0
LINE
  5
671
100
AcDbEntity
  8
RACCORDO
100
AcDbLine
 62
7
  6
CONTINUOUS
 10
23.3755844542
 20
4.0115344097
 11
23.3671492413
 21
4.0111852556
  0
LINE
  5
672
100
AcDbEntity
  8
0
100
AcDbLine
 62
7
  6
CONTINUOUS
 10
-20.0518372958
 20
4.4334792784
 11
-20.075221603
 21
4.4325784896
  0
LINE
  5
673
100
AcDbEntity
  8
0
100
AcDbLine
 62
7
  6
CONTINUOUS
 10
-20.7445172929
 20
4.8334240274
 11
-20.7679383325
 21
4.8325389385
  0
LINE
  5
674
100
AcDbEntity
  8
0
100
AcDbLine
 62
7
  6
CONTINUOUS
 10
-21.0450590309
 20
4.841006313
 11
-21.0684682935
 21
4.840251402
  0
LINE
  5
675
100
AcDbEntity
  8
0
100
AcDbLine
 62
7
  6
CONTINUOUS
 10
-20.9392897297
 20
4.8758954646
 11
-20.9028805006
 21
4.8770088802
  0
LINE
  5
676
100
AcDbEntity
  8
RACCORDO
100
AcDbLine
 62
7
  6
CONTINUOUS
 10
44.0767760575
 20
11.5593187785
 11
44.1014049955
 21
11.5587350841
  0
LINE
  5
677
100
AcDbEntity
  8
RACCORDO
100
AcDbLine
 62
7
  6
CONTINUOUS
 10
44.051830332
 20
11.5609434524
 11
44.0767760575
 21
11.5593187785
  0
LINE
  5
678
100
AcDbEntity
  8
RACCORDO
100
AcDbLine
 62
7
  6
CONTINUOUS
 10
-24.8947811963
 20
31.3384808983
 11
-24.8531276883
 21
31.3337037505
  0
LINE
  5
679
100
AcDbEntity
  8
RACCORDO
100
AcDbLine
 62
7
  6
CONTINUOUS
 10
-24.2265259936
 20
31.780043673
 11
-24.2116492362
 21
31.7777613291
  0
LINE
  5
67A
100
AcDbEntity
  8
RACCORDO
100
AcDbLine
 62
7
  6
CONTINUOUS
 10
-24.9357483346
 20
31.3451581107
 11
-24.8947811963
 21
31.3384808983
  0
LINE
  5
67B
100
AcDbEntity
  8
RACCORDO
100
AcDbLine
 62
7
  6
CONTINUOUS
 10
-24.5134372189
 20
32.0934011645
 11
-24.4595929917
 21
32.0843784129
  0
LINE
  5
67C
100
AcDbEntity
  8
RACCORDO
100
AcDbLine
 62
7
  6
CONTINUOUS
 10
-37.2215496376
 20
62.5439067836
 11
-37.4151669675
 21
62.601844469
  0
LINE
  5
67D
100
AcDbEntity
  8
RACCORDO
100
AcDbLine
 62
7
  6
CONTINUOUS
 10
-37.2752882851
 20
62.5492039917
 11
-37.1665259107
 21
62.5162344716
  0
LINE
  5
67E
100
AcDbEntity
  8
RACCORDO
100
AcDbLine
 62
7
  6
CONTINUOUS
 10
-41.1826927557
 20
61.804745117
 11
-41.2240880578
 21
61.8173107398
  0
LINE
  5
67F
100
AcDbEntity
  8
RACCORDO
100
AcDbLine
 62
7
  6
CONTINUOUS
 10
-41.341803577
 20
61.4742071619
 11
-41.3707164049
 21
61.483004343
  0
LINE
  5
680
100
AcDbEntity
  8
RACCORDO
100
AcDbLine
 62
7
  6
CONTINUOUS
 10
-37.1665259107
 20
62.5162344716
 11
-37.0615694416
 21
62.4816141969
  0
LINE
  5
681
100
AcDbEntity
  8
RACCORDO
100
AcDbLine
 62
7
  6
CONTINUOUS
 10
-37.0244684023
 20
62.4757868254
 11
-37.2215496376
 21
62.5439067836
  0
LINE
  5
682
100
AcDbEntity
  8
RACCORDO
100
AcDbLine
 62
7
  6
CONTINUOUS
 10
43.8299413543
 20
-60.2382648765
 11
43.8320926454
 21
-60.2126813244
  0
LINE
  5
683
100
AcDbEntity
  8
RACCORDO
100
AcDbLine
 62
7
  6
CONTINUOUS
 10
44.233359772
 20
-60.2321739136
 11
44.2368773671
 21
-60.1925005551
  0
LINE
  5
684
100
AcDbEntity
  8
RACCORDO
100
AcDbLine
 62
7
  6
CONTINUOUS
 10
46.9965675589
 20
-56.7425718835
 11
46.9942937035
 21
-56.7678251506
  0
LINE
  5
685
100
AcDbEntity
  8
RACCORDO
100
AcDbLine
 62
7
  6
CONTINUOUS
 10
43.2452674411
 20
7.4952145021
 11
43.5219806936
 21
9.5576200128
  0
LINE
  5
686
100
AcDbEntity
  8
RACCORDO
100
AcDbLine
 62
7
  6
CONTINUOUS
 10
43.6557093325
 20
7.4505681747
 11
43.9319297983
 21
9.5090902797
  0
LINE
  5
687
100
AcDbEntity
  8
RACCORDO
100
AcDbLine
 62
7
  6
CONTINUOUS
 10
43.5219806936
 20
9.5576200128
 11
43.8235148686
 21
11.6284241171
  0
LINE
  5
688
100
AcDbEntity
  8
RACCORDO
100
AcDbLine
 62
7
  6
CONTINUOUS
 10
43.9319297983
 20
9.5090902797
 11
44.2330240886
 21
11.5768050983
  0
LINE
  5
689
100
AcDbEntity
  8
RACCORDO
100
AcDbLine
 62
7
  6
CONTINUOUS
 10
43.4251838599
 20
12.541013642
 11
43.4294359605
 21
12.5647156226
  0
LINE
  5
68A
100
AcDbEntity
  8
RACCORDO
100
AcDbLine
 62
7
  6
CONTINUOUS
 10
23.4760390784
 20
-32.3725791746
 11
23.4732290593
 21
-32.3833133806
  0
LINE
  5
68B
100
AcDbEntity
  8
RACCORDO
100
AcDbLine
 62
7
  6
CONTINUOUS
 10
22.7743005205
 20
-32.7980192788
 11
22.7835780551
 21
-32.7640537064
  0
LINE
  5
68C
100
AcDbEntity
  8
RACCORDO
100
AcDbLine
 62
7
  6
CONTINUOUS
 10
23.6084965321
 20
-32.7157195076
 11
23.5956879323
 21
-32.7619426482
  0
LINE
  5
68D
100
AcDbEntity
  8
0
100
AcDbLine
 62
7
  6
CONTINUOUS
 10
3.3183286034
 20
-24.7968304672
 11
3.3120661539
 21
-24.8127587312
  0
LINE
  5
68E
100
AcDbEntity
  8
0
100
AcDbLine
 62
7
  6
CONTINUOUS
 10
3.0491622463
 20
-24.4420023261
 11
3.0438179818
 21
-24.4554377223
  0
LINE
  5
68F
100
AcDbEntity
  8
0
100
AcDbLine
 62
7
  6
CONTINUOUS
 10
2.9370057788
 20
-24.5178306955
 11
2.9424163148
 21
-24.5044299254
  0
LINE
  5
690
100
AcDbEntity
  8
0
100
AcDbLine
 62
7
  6
CONTINUOUS
 10
-19.9872257754
 20
0.6763550866
 11
-19.9680002106
 21
0.7073313431
  0
LINE
  5
691
100
AcDbEntity
  8
RACCORDO
100
AcDbLine
 62
7
  6
CONTINUOUS
 10
-24.0663968889
 20
-5.4598516726
 11
-24.0459681814
 21
-5.4286446756
  0
LINE
  5
692
100
AcDbEntity
  8
RACCORDO
100
AcDbLine
 62
7
  6
CONTINUOUS
 10
-24.9903023821
 20
31.9110729006
 11
-24.9603428531
 21
31.9451000192
  0
LINE
  5
693
100
AcDbEntity
  8
RACCORDO
100
AcDbLine
 62
7
  6
CONTINUOUS
 10
-41.6446562338
 20
61.7371594941
 11
-41.6807056192
 21
61.7063575793
  0
LINE
  5
694
100
AcDbEntity
  8
RACCORDO
100
AcDbLine
 62
7
  6
CONTINUOUS
 10
-41.6636086898
 20
61.4283136791
 11
-41.6854810521
 21
61.4098479745
  0
LINE
  5
695
100
AcDbEntity
  8
RACCORDO
100
AcDbLine
 62
7
  6
CONTINUOUS
 10
-41.0951980615
 20
61.7209504024
 11
-41.076637569
 21
61.7356986424
  0
LINE
  5
696
100
AcDbEntity
  8
0
100
AcDbLine
 62
7
  6
CONTINUOUS
 10
2.8636782801
 20
-24.5831112342
 11
2.8758922559
 21
-24.5797910972
  0
LINE
  5
697
100
AcDbEntity
  8
0
100
AcDbLine
 62
7
  6
CONTINUOUS
 10
3.2468444123
 20
-24.8947348626
 11
3.2539220475
 21
-24.8929017588
  0
LINE
  5
698
100
AcDbEntity
  8
RACCORDO
100
AcDbLine
 62
7
  6
CONTINUOUS
 10
-24.727025174
 20
-4.3644142167
 11
-24.6856060141
 21
-4.358529568
  0
LINE
  5
699
100
AcDbEntity
  8
0
100
AcDbLine
 62
7
  6
CONTINUOUS
 10
-20.9755091173
 20
4.8721359753
 11
-20.9392897297
 21
4.8758954646
  0
LINE
  5
69A
100
AcDbEntity
  8
RACCORDO
100
AcDbLine
 62
7
  6
CONTINUOUS
 10
44.1255417981
 20
11.5591965249
 11
44.149014621
 21
11.5606998156
  0
LINE
  5
69B
100
AcDbEntity
  8
RACCORDO
100
AcDbLine
 62
7
  6
CONTINUOUS
 10
44.1014049955
 20
11.5587350841
 11
44.1255417981
 21
11.5591965249
  0
LINE
  5
69C
100
AcDbEntity
  8
RACCORDO
100
AcDbLine
 62
7
  6
CONTINUOUS
 10
-24.8531276883
 20
31.3337037505
 11
-24.8110840775
 21
31.3308606457
  0
LINE
  5
69D
100
AcDbEntity
  8
RACCORDO
100
AcDbLine
 62
7
  6
CONTINUOUS
 10
-24.2379556672
 20
31.7808682857
 11
-24.2265259936
 21
31.780043673
  0
LINE
  5
69E
100
AcDbEntity
  8
RACCORDO
100
AcDbLine
 62
7
  6
CONTINUOUS
 10
-24.5662841323
 20
32.0978758355
 11
-24.5134372189
 21
32.0934011645
  0
LINE
  5
69F
100
AcDbEntity
  8
RACCORDO
100
AcDbLine
 62
7
  6
CONTINUOUS
 10
-24.5324381143
 20
31.7067469879
 11
-24.4952026207
 21
31.7030098652
  0
LINE
  5
6A0
100
AcDbEntity
  8
RACCORDO
100
AcDbLine
 62
7
  6
CONTINUOUS
 10
-41.3707164049
 20
61.483004343
 11
-41.3996335663
 21
61.4895685436
  0
LINE
  5
6A1
100
AcDbEntity
  8
RACCORDO
100
AcDbLine
 62
7
  6
CONTINUOUS
 10
-41.2240880578
 20
61.8173107398
 11
-41.2651570648
 21
61.8267508899
  0
LINE
  5
6A2
100
AcDbEntity
  8
RACCORDO
100
AcDbLine
 62
7
  6
CONTINUOUS
 10
-37.5059810674
 20
62.60899937
 11
-37.3881685782
 21
62.5802497386
  0
LINE
  5
6A3
100
AcDbEntity
  8
RACCORDO
100
AcDbLine
 62
7
  6
CONTINUOUS
 10
-37.4151669675
 20
62.601844469
 11
-37.6049418954
 21
62.6498102101
  0
LINE
  5
6A4
100
AcDbEntity
  8
RACCORDO
100
AcDbLine
 62
7
  6
CONTINUOUS
 10
-37.3881685782
 20
62.5802497386
 11
-37.2752882851
 21
62.5492039917
  0
LINE
  5
6A5
100
AcDbEntity
  8
RACCORDO
100
AcDbLine
 62
7
  6
CONTINUOUS
 10
46.9942937035
 20
-56.7678251506
 11
46.9931261715
 21
-56.7764099988
  0
LINE
  5
6A6
100
AcDbEntity
  8
RACCORDO
100
AcDbLine
 62
7
  6
CONTINUOUS
 10
44.2274898155
 20
-60.2698002525
 11
44.233359772
 21
-60.2321739136
  0
LINE
  5
6A7
100
AcDbEntity
  8
RACCORDO
100
AcDbLine
 62
7
  6
CONTINUOUS
 10
43.8261007671
 20
-60.26228815
 11
43.8299413543
 21
-60.2382648765
  0
LINE
  5
6A8
100
AcDbEntity
  8
RACCORDO
100
AcDbLine
 62
7
  6
CONTINUOUS
 10
46.9761269363
 20
-56.8826121549
 11
46.9931377777
 21
-56.7764188209
  0
LINE
  5
6A9
100
AcDbEntity
  8
RACCORDO
100
AcDbLine
 62
7
  6
CONTINUOUS
 10
46.997367423
 20
-56.7155764119
 11
46.9802364926
 21
-56.8222817415
  0
LINE
  5
6AA
100
AcDbEntity
  8
RACCORDO
100
AcDbLine
 62
7
  6
CONTINUOUS
 10
43.4294359605
 20
12.5647156226
 11
43.4353077948
 21
12.5888319404
  0
LINE
  5
6AB
100
AcDbEntity
  8
RACCORDO
100
AcDbLine
 62
7
  6
CONTINUOUS
 10
43.4353077948
 20
12.5888319404
 11
43.4427528221
 21
12.6131714469
  0
LINE
  5
6AC
100
AcDbEntity
  8
RACCORDO
100
AcDbLine
 62
7
  6
CONTINUOUS
 10
23.3739374935
 20
-32.5625436043
 11
23.3850195027
 21
-32.5274713759
  0
LINE
  5
6AD
100
AcDbEntity
  8
RACCORDO
100
AcDbLine
 62
7
  6
CONTINUOUS
 10
23.4732290593
 20
-32.3833133806
 11
23.4706092762
 21
-32.3914343128
  0
LINE
  5
6AE
100
AcDbEntity
  8
RACCORDO
100
AcDbLine
 62
7
  6
CONTINUOUS
 10
22.7835780551
 20
-32.7640537064
 11
22.7946823893
 21
-32.7299145245
  0
LINE
  5
6AF
100
AcDbEntity
  8
0
100
AcDbLine
 62
7
  6
CONTINUOUS
 10
3.3120661539
 20
-24.8127587312
 11
3.3053149074
 21
-24.8274075299
  0
LINE
  5
6B0
100
AcDbEntity
  8
0
100
AcDbLine
 62
7
  6
CONTINUOUS
 10
3.0438179818
 20
-24.4554377223
 11
3.037656613
 21
-24.4679623391
  0
LINE
  5
6B1
100
AcDbEntity
  8
0
100
AcDbLine
 62
7
  6
CONTINUOUS
 10
2.9307968109
 20
-24.5302586591
 11
2.9370057788
 21
-24.5178306955
  0
LINE
  5
6B2
100
AcDbEntity
  8
0
100
AcDbLine
 62
7
  6
CONTINUOUS
 10
-20.0076741345
 20
0.6463726022
 11
-19.9872257754
 21
0.6763550866
  0
LINE
  5
6B3
100
AcDbEntity
  8
RACCORDO
100
AcDbLine
 62
7
  6
CONTINUOUS
 10
-24.0459681814
 20
-5.4286446756
 11
-24.0243395238
 21
-5.3985630933
  0
LINE
  5
6B4
100
AcDbEntity
  8
0
100
AcDbLine
 62
7
  6
CONTINUOUS
 10
-20.0293260512
 20
0.6173682561
 11
-20.0076741345
 21
0.6463726022
  0
LINE
  5
6B5
100
AcDbEntity
  8
RACCORDO
100
AcDbLine
 62
7
  6
CONTINUOUS
 10
-24.3622209836
 20
31.6929921357
 11
-24.3431936877
 21
31.7141885599
  0
LINE
  5
6B6
100
AcDbEntity
  8
RACCORDO
100
AcDbLine
 62
7
  6
CONTINUOUS
 10
-41.6159506096
 20
61.758646014
 11
-41.6446562338
 21
61.7371594941
  0
LINE
  5
6B7
100
AcDbEntity
  8
RACCORDO
100
AcDbLine
 62
7
  6
CONTINUOUS
 10
-41.6406569047
 20
61.4446177921
 11
-41.6636086898
 21
61.4283136791
  0
LINE
  5
6B8
100
AcDbEntity
  8
RACCORDO
100
AcDbLine
 62
7
  6
CONTINUOUS
 10
-41.6159228458
 20
61.7586669166
 11
-40.0078127889
 21
62.8925676354
  0
LINE
  5
6B9
100
AcDbEntity
  8
RACCORDO
100
AcDbLine
 62
7
  6
CONTINUOUS
 10
-41.057840049
 20
61.7486616469
 11
-39.4827609731
 21
62.8592717255
  0
LINE
  5
6BA
100
AcDbEntity
  8
RACCORDO
100
AcDbLine
 62
7
  6
CONTINUOUS
 10
-41.076637569
 20
61.7356986424
 11
-41.0578400492
 21
61.748661647
  0
LINE
  5
6BB
100
AcDbEntity
  8
RACCORDO
100
AcDbLine
 62
7
  6
CONTINUOUS
 10
-24.6856060141
 20
-4.358529568
 11
-24.6449882899
 21
-4.3505764631
  0
LINE
  5
6BC
100
AcDbEntity
  8
RACCORDO
100
AcDbLine
 62
7
  6
CONTINUOUS
 10
44.1716563475
 20
11.5632342534
 11
44.1933057777
 21
11.5667817942
  0
LINE
  5
6BD
100
AcDbEntity
  8
RACCORDO
100
AcDbLine
 62
7
  6
CONTINUOUS
 10
23.3871968916
 20
4.0133752117
 11
23.3755844542
 21
4.0115344097
  0
LINE
  5
6BE
100
AcDbEntity
  8
0
100
AcDbLine
 62
7
  6
CONTINUOUS
 10
-21.0684682935
 20
4.840251402
 11
-21.0909679307
 21
4.836905553
  0
LINE
  5
6BF
100
AcDbEntity
  8
0
100
AcDbLine
 62
7
  6
CONTINUOUS
 10
-20.075221603
 20
4.4325784896
 11
-20.099465238
 21
4.4292461108
  0
LINE
  5
6C0
100
AcDbEntity
  8
0
100
AcDbLine
 62
7
  6
CONTINUOUS
 10
-20.7679383325
 20
4.8325389385
 11
-20.7920965454
 21
4.8292183013
  0
LINE
  5
6C1
100
AcDbEntity
  8
RACCORDO
100
AcDbLine
 62
7
  6
CONTINUOUS
 10
44.149014621
 20
11.5606998156
 11
44.1716563475
 21
11.5632342534
  0
LINE
  5
6C2
100
AcDbEntity
  8
RACCORDO
100
AcDbLine
 62
7
  6
CONTINUOUS
 10
-24.6181632059
 20
32.0979065632
 11
-24.5662841323
 21
32.0978758355
  0
LINE
  5
6C3
100
AcDbEntity
  8
RACCORDO
100
AcDbLine
 62
7
  6
CONTINUOUS
 10
-24.4952026207
 20
31.7030098652
 11
-24.4585420138
 21
31.7025598434
  0
LINE
  5
6C4
100
AcDbEntity
  8
RACCORDO
100
AcDbLine
 62
7
  6
CONTINUOUS
 10
-24.8110840775
 20
31.3308606457
 11
-24.7689494054
 21
31.3299718058
  0
LINE
  5
6C5
100
AcDbEntity
  8
RACCORDO
100
AcDbLine
 62
7
  6
CONTINUOUS
 10
-41.2651570648
 20
61.8267508899
 11
-41.3058437169
 21
61.833050759
  0
LINE
  5
6C6
100
AcDbEntity
  8
RACCORDO
100
AcDbLine
 62
7
  6
CONTINUOUS
 10
-37.7587560338
 20
62.6582758404
 11
-37.6297857151
 21
62.6352401975
  0
LINE
  5
6C7
100
AcDbEntity
  8
RACCORDO
100
AcDbLine
 62
7
  6
CONTINUOUS
 10
-37.6049418954
 20
62.6498102101
 11
-37.7905214827
 21
62.6880639923
  0
LINE
  5
6C8
100
AcDbEntity
  8
RACCORDO
100
AcDbLine
 62
7
  6
CONTINUOUS
 10
-37.6297857151
 20
62.6352401975
 11
-37.5059810674
 21
62.60899937
  0
LINE
  5
6C9
100
AcDbEntity
  8
RACCORDO
100
AcDbLine
 62
7
  6
CONTINUOUS
 10
46.9802364926
 20
-56.8222817415
 11
46.9599590018
 21
-56.932091737
  0
LINE
  5
6CA
100
AcDbEntity
  8
RACCORDO
100
AcDbLine
 62
7
  6
CONTINUOUS
 10
46.9368388601
 20
-57.0873792927
 11
46.9761269363
 21
-56.8826121549
  0
LINE
  5
6CB
100
AcDbEntity
  8
RACCORDO
100
AcDbLine
 62
7
  6
CONTINUOUS
 10
46.9599590018
 20
-56.932091737
 11
46.9362132981
 21
-57.0449417184
  0
LINE
  5
6CC
100
AcDbEntity
  8
RACCORDO
100
AcDbLine
 62
7
  6
CONTINUOUS
 10
44.2192492072
 20
-60.3052726714
 11
44.2274898155
 21
-60.2698002525
  0
LINE
  5
6CD
100
AcDbEntity
  8
RACCORDO
100
AcDbLine
 62
7
  6
CONTINUOUS
 10
46.8904667506
 20
-57.2840821395
 11
46.9368388601
 21
-57.0873792927
  0
LINE
  5
6CE
100
AcDbEntity
  8
RACCORDO
100
AcDbLine
 62
7
  6
CONTINUOUS
 10
46.9362132981
 20
-57.0449417184
 11
46.9085853211
 21
-57.1613224297
  0
LINE
  5
6CF
100
AcDbEntity
  8
RACCORDO
100
AcDbLine
 62
7
  6
CONTINUOUS
 10
43.8205506278
 20
-60.2847248252
 11
43.8261007671
 21
-60.26228815
  0
LINE
  5
6D0
100
AcDbEntity
  8
RACCORDO
100
AcDbLine
 62
7
  6
CONTINUOUS
 10
23.5956879323
 20
-32.7619426482
 11
23.5799654233
 21
-32.8056797907
  0
LINE
  5
6D1
100
AcDbEntity
  8
RACCORDO
100
AcDbLine
 62
7
  6
CONTINUOUS
 10
43.4427528221
 20
12.6131714469
 11
43.4517120324
 21
12.6375412249
  0
LINE
  5
6D2
100
AcDbEntity
  8
RACCORDO
100
AcDbLine
 62
7
  6
CONTINUOUS
 10
22.7946823893
 20
-32.7299145245
 11
22.8075513422
 21
-32.6957929022
  0
LINE
  5
6D3
100
AcDbEntity
  8
RACCORDO
100
AcDbLine
 62
7
  6
CONTINUOUS
 10
23.4706092762
 20
-32.3914343128
 11
23.4684847795
 21
-32.3968863266
  0
LINE
  5
6D4
100
AcDbEntity
  8
RACCORDO
100
AcDbLine
 62
7
  6
CONTINUOUS
 10
23.3850195027
 20
-32.5274713759
 11
23.3992107546
 21
-32.4940410949
  0
LINE
  5
6D5
100
AcDbEntity
  8
RACCORDO
100
AcDbLine
 62
7
  6
CONTINUOUS
 10
22.8075513422
 20
-32.6957929022
 11
22.8221128517
 21
-32.6618799099
  0
LINE
  5
6D6
100
AcDbEntity
  8
0
100
AcDbLine
 62
7
  6
CONTINUOUS
 10
3.3053149074
 20
-24.8274075299
 11
3.2982363057
 21
-24.8409750349
  0
LINE
  5
6D7
100
AcDbEntity
  8
RACCORDO
100
AcDbLine
 62
7
  6
CONTINUOUS
 10
-24.0243395238
 20
-5.3985630933
 11
-24.0016320298
 21
-5.3697753729
  0
LINE
  5
6D8
100
AcDbEntity
  8
0
100
AcDbLine
 62
7
  6
CONTINUOUS
 10
-20.0518372958
 20
0.5898031697
 11
-20.0293260512
 21
0.6173682561
  0
LINE
  5
6D9
100
AcDbEntity
  8
RACCORDO
100
AcDbLine
 62
7
  6
CONTINUOUS
 10
-24.9603428531
 20
31.9451000192
 11
-24.9280929801
 21
31.9758779016
  0
LINE
  5
6DA
100
AcDbEntity
  8
RACCORDO
100
AcDbLine
 62
7
  6
CONTINUOUS
 10
-24.3431936877
 20
31.7141885599
 11
-24.3228326066
 21
31.7333453865
  0
LINE
  5
6DB
100
AcDbEntity
  8
RACCORDO
100
AcDbLine
 62
7
  6
CONTINUOUS
 10
-41.6009546947
 20
61.7687652381
 11
-41.6157713821
 21
61.758773753
  0
LINE
  5
6DC
100
AcDbEntity
  8
RACCORDO
100
AcDbLine
 62
7
  6
CONTINUOUS
 10
23.4195964426
 20
4.0214680491
 11
23.401902877
 21
4.0166943973
  0
LINE
  5
6DD
100
AcDbEntity
  8
RACCORDO
100
AcDbLine
 62
7
  6
CONTINUOUS
 10
-24.6449882899
 20
-4.3505764631
 11
-24.6054608978
 21
-4.3406114689
  0
LINE
  5
6DE
100
AcDbEntity
  8
RACCORDO
100
AcDbLine
 62
7
  6
CONTINUOUS
 10
23.401902877
 20
4.0166943973
 11
23.3871968916
 21
4.0133752117
  0
LINE
  5
6DF
100
AcDbEntity
  8
RACCORDO
100
AcDbLine
 62
7
  6
CONTINUOUS
 10
44.1933057777
 20
11.5667817942
 11
44.2138087767
 21
11.5713171808
  0
LINE
  5
6E0
100
AcDbEntity
  8
0
100
AcDbLine
 62
7
  6
CONTINUOUS
 10
-21.0113490975
 20
4.8657525214
 11
-20.9755091173
 21
4.8721359753
  0
LINE
  5
6E1
100
AcDbEntity
  8
RACCORDO
100
AcDbLine
 62
7
  6
CONTINUOUS
 10
-24.7270233614
 20
31.3310435528
 11
-24.6856041508
 21
31.3340682639
  0
LINE
  5
6E2
100
AcDbEntity
  8
RACCORDO
100
AcDbLine
 62
7
  6
CONTINUOUS
 10
-24.7689494054
 20
31.3299718058
 11
-24.7270233614
 21
31.3310435528
  0
LINE
  5
6E3
100
AcDbEntity
  8
RACCORDO
100
AcDbLine
 62
7
  6
CONTINUOUS
 10
-24.2455514898
 20
31.7807650087
 11
-24.2379556672
 21
31.7808682857
  0
LINE
  5
6E4
100
AcDbEntity
  8
RACCORDO
100
AcDbLine
 62
7
  6
CONTINUOUS
 10
-38.0254625918
 20
62.6907837774
 11
-37.8908685708
 21
62.6769833671
  0
LINE
  5
6E5
100
AcDbEntity
  8
RACCORDO
100
AcDbLine
 62
7
  6
CONTINUOUS
 10
-37.9715900094
 20
62.7169070674
 11
-38.1478215652
 21
62.7366789385
  0
LINE
  5
6E6
100
AcDbEntity
  8
RACCORDO
100
AcDbLine
 62
7
  6
CONTINUOUS
 10
-37.8908685708
 20
62.6769833671
 11
-37.7587560338
 21
62.6582758404
  0
LINE
  5
6E7
100
AcDbEntity
  8
RACCORDO
100
AcDbLine
 62
7
  6
CONTINUOUS
 10
-41.3996335663
 20
61.4895685436
 11
-41.4283033903
 21
61.4938273962
  0
LINE
  5
6E8
100
AcDbEntity
  8
RACCORDO
100
AcDbLine
 62
7
  6
CONTINUOUS
 10
-37.7905214827
 20
62.6880639923
 11
-37.9715900094
 21
62.7169070674
  0
LINE
  5
6E9
100
AcDbEntity
  8
RACCORDO
100
AcDbLine
 62
7
  6
CONTINUOUS
 10
46.9085853211
 20
-57.1613224297
 11
46.8767964735
 21
-57.280579808
  0
LINE
  5
6EA
100
AcDbEntity
  8
RACCORDO
100
AcDbLine
 62
7
  6
CONTINUOUS
 10
46.8373799989
 20
-57.4725017448
 11
46.8904667506
 21
-57.2840821395
  0
LINE
  5
6EB
100
AcDbEntity
  8
RACCORDO
100
AcDbLine
 62
7
  6
CONTINUOUS
 10
46.8767964735
 20
-57.280579808
 11
46.84078583
 21
-57.4009261125
  0
LINE
  5
6EC
100
AcDbEntity
  8
RACCORDO
100
AcDbLine
 62
7
  6
CONTINUOUS
 10
43.4517120324
 20
12.6375412249
 11
43.4621144141
 21
12.6617481173
  0
LINE
  5
6ED
100
AcDbEntity
  8
RACCORDO
100
AcDbLine
 62
7
  6
CONTINUOUS
 10
23.5799654233
 20
-32.8056797907
 11
23.5614528473
 21
-32.8469806409
  0
LINE
  5
6EE
100
AcDbEntity
  8
RACCORDO
100
AcDbLine
 62
7
  6
CONTINUOUS
 10
23.4684847795
 20
-32.3968863266
 11
23.4671840055
 21
-32.3996967436
  0
LINE
  5
6EF
100
AcDbEntity
  8
RACCORDO
100
AcDbLine
 62
7
  6
CONTINUOUS
 10
22.8221128517
 20
-32.6618799099
 11
22.8382853779
 21
-32.6283654501
  0
LINE
  5
6F0
100
AcDbEntity
  8
RACCORDO
100
AcDbLine
 62
7
  6
CONTINUOUS
 10
43.4621144141
 20
12.6617481173
 11
43.473877517
 21
12.6856002578
  0
LINE
  5
6F1
100
AcDbEntity
  8
0
100
AcDbLine
 62
7
  6
CONTINUOUS
 10
3.2982363057
 20
-24.8409750349
 11
3.2908453196
 21
-24.8534784294
  0
LINE
  5
6F2
100
AcDbEntity
  8
0
100
AcDbLine
 62
7
  6
CONTINUOUS
 10
3.037656613
 20
-24.4679623391
 11
3.0306683251
 21
-24.4795439942
  0
LINE
  5
6F3
100
AcDbEntity
  8
0
100
AcDbLine
 62
7
  6
CONTINUOUS
 10
2.9237805267
 20
-24.5416951567
 11
2.9307968109
 21
-24.5302586591
  0
LINE
  5
6F4
100
AcDbEntity
  8
RACCORDO
100
AcDbLine
 62
7
  6
CONTINUOUS
 10
-24.0016320298
 20
-5.3697753729
 11
-23.9779728544
 21
-5.3424427167
  0
LINE
  5
6F5
100
AcDbEntity
  8
0
100
AcDbLine
 62
7
  6
CONTINUOUS
 10
-20.075221603
 20
0.5637003467
 11
-20.0518372958
 21
0.5898031697
  0
LINE
  5
6F6
100
AcDbEntity
  8
RACCORDO
100
AcDbLine
 62
7
  6
CONTINUOUS
 10
-24.9280929801
 20
31.9758779016
 11
-24.890341451
 21
32.0059958289
  0
LINE
  5
6F7
100
AcDbEntity
  8
RACCORDO
100
AcDbLine
 62
7
  6
CONTINUOUS
 10
-41.6166345973
 20
61.458783655
 11
-41.6406569047
 21
61.4446177921
  0
LINE
  5
6F8
100
AcDbEntity
  8
RACCORDO
100
AcDbLine
 62
7
  6
CONTINUOUS
 10
-41.568269563
 20
61.7878163831
 11
-41.6009546947
 21
61.7687652381
  0
LINE
  5
6F9
100
AcDbEntity
  8
0
100
AcDbLine
 62
7
  6
CONTINUOUS
 10
-21.0909679307
 20
4.836905553
 11
-21.112434493
 21
4.8309866057
  0
LINE
  5
6FA
100
AcDbEntity
  8
0
100
AcDbLine
 62
7
  6
CONTINUOUS
 10
-21.0465930426
 20
4.8567890143
 11
-21.0113490975
 21
4.8657525214
  0
LINE
  5
6FB
100
AcDbEntity
  8
0
100
AcDbLine
 62
7
  6
CONTINUOUS
 10
-20.7920965454
 20
4.8292183013
 11
-20.8168627643
 21
4.8234798704
  0
LINE
  5
6FC
100
AcDbEntity
  8
0
100
AcDbLine
 62
7
  6
CONTINUOUS
 10
-20.099465238
 20
4.4292461108
 11
-20.1241827672
 21
4.4235351214
  0
LINE
  5
6FD
100
AcDbEntity
  8
RACCORDO
100
AcDbLine
 62
7
  6
CONTINUOUS
 10
-24.6856041508
 20
31.3340682639
 11
-24.6449863741
 21
31.3390244252
  0
LINE
  5
6FE
100
AcDbEntity
  8
RACCORDO
100
AcDbLine
 62
7
  6
CONTINUOUS
 10
-24.2496912679
 20
31.7803515392
 11
-24.2455514898
 21
31.7807650087
  0
LINE
  5
6FF
100
AcDbEntity
  8
RACCORDO
100
AcDbLine
 62
7
  6
CONTINUOUS
 10
-24.6683658426
 20
32.0934949359
 11
-24.6181632059
 21
32.0979065632
  0
LINE
  5
700
100
AcDbEntity
  8
RACCORDO
100
AcDbLine
 62
7
  6
CONTINUOUS
 10
-24.4585420138
 20
31.7025598434
 11
-24.4227204622
 21
31.7054001654
  0
LINE
  5
701
100
AcDbEntity
  8
RACCORDO
100
AcDbLine
 62
7
  6
CONTINUOUS
 10
-38.1632773573
 20
62.6995308199
 11
-38.0254625918
 21
62.6907837774
  0
LINE
  5
702
100
AcDbEntity
  8
RACCORDO
100
AcDbLine
 62
7
  6
CONTINUOUS
 10
-38.1478215652
 20
62.7366789385
 11
-38.3188581978
 21
62.7477658115
  0
LINE
  5
703
100
AcDbEntity
  8
RACCORDO
100
AcDbLine
 62
7
  6
CONTINUOUS
 10
-41.4283033903
 20
61.4938273962
 11
-41.4567458569
 21
61.495762229
  0
LINE
  5
704
100
AcDbEntity
  8
RACCORDO
100
AcDbLine
 62
7
  6
CONTINUOUS
 10
-41.3058437169
 20
61.833050759
 11
-41.3460546985
 21
61.8361750871
  0
LINE
  5
705
100
AcDbEntity
  8
RACCORDO
100
AcDbLine
 62
7
  6
CONTINUOUS
 10
44.2086897747
 20
-60.3384678274
 11
44.2192492072
 21
-60.3052726714
  0
LINE
  5
706
100
AcDbEntity
  8
RACCORDO
100
AcDbLine
 62
7
  6
CONTINUOUS
 10
46.7779800087
 20
-57.6524524934
 11
46.8373799989
 21
-57.4725017448
  0
LINE
  5
707
100
AcDbEntity
  8
RACCORDO
100
AcDbLine
 62
7
  6
CONTINUOUS
 10
46.84078583
 20
-57.4009261125
 11
46.800090737
 21
-57.5226804224
  0
LINE
  5
708
100
AcDbEntity
  8
RACCORDO
100
AcDbLine
 62
7
  6
CONTINUOUS
 10
43.8133103228
 20
-60.3056019027
 11
43.8205506278
 21
-60.2847248252
  0
LINE
  5
709
100
AcDbEntity
  8
RACCORDO
100
AcDbLine
 62
7
  6
CONTINUOUS
 10
22.8382853779
 20
-32.6283654501
 11
22.8559783594
 21
-32.5954371932
  0
LINE
  5
70A
100
AcDbEntity
  8
RACCORDO
100
AcDbLine
 62
7
  6
CONTINUOUS
 10
23.3992107546
 20
-32.4940410949
 11
23.41640899
 21
-32.4624936527
  0
LINE
  5
70B
100
AcDbEntity
  8
RACCORDO
100
AcDbLine
 62
7
  6
CONTINUOUS
 10
23.5614528473
 20
-32.8469806409
 11
23.540506323
 21
-32.8851142859
  0
LINE
  5
70C
100
AcDbEntity
  8
RACCORDO
100
AcDbLine
 62
7
  6
CONTINUOUS
 10
43.473877517
 20
12.6856002578
 11
43.4869081055
 21
12.7089085921
  0
LINE
  5
70D
100
AcDbEntity
  8
0
100
AcDbLine
 62
7
  6
CONTINUOUS
 10
3.2908453196
 20
-24.8534784294
 11
3.2831262939
 21
-24.8649009863
  0
LINE
  5
70E
100
AcDbEntity
  8
RACCORDO
100
AcDbLine
 62
7
  6
CONTINUOUS
 10
-23.9779728544
 20
-5.3424427167
 11
-23.9534944817
 21
-5.3167181789
  0
LINE
  5
70F
100
AcDbEntity
  8
0
100
AcDbLine
 62
7
  6
CONTINUOUS
 10
-20.099465238
 20
0.5390367834
 11
-20.075221603
 21
0.5637003467
  0
LINE
  5
710
100
AcDbEntity
  8
RACCORDO
100
AcDbLine
 62
7
  6
CONTINUOUS
 10
-24.3228326066
 20
31.7333453865
 11
-24.2989471288
 21
31.7520613328
  0
LINE
  5
711
100
AcDbEntity
  8
RACCORDO
100
AcDbLine
 62
7
  6
CONTINUOUS
 10
-41.5917897319
 20
61.4706874801
 11
-41.6166345973
 21
61.458783655
  0
LINE
  5
712
100
AcDbEntity
  8
RACCORDO
100
AcDbLine
 62
7
  6
CONTINUOUS
 10
-41.5341505929
 20
61.8037826044
 11
-41.568269563
 21
61.7878163831
  0
LINE
  5
713
100
AcDbEntity
  8
RACCORDO
100
AcDbLine
 62
7
  6
CONTINUOUS
 10
-24.7168305265
 20
32.0845651381
 11
-24.6683658426
 21
32.0934949359
  0
LINE
  5
714
100
AcDbEntity
  8
RACCORDO
100
AcDbLine
 62
7
  6
CONTINUOUS
 10
-24.4227204622
 20
31.7054001654
 11
-24.3879960881
 21
31.7115103644
  0
LINE
  5
715
100
AcDbEntity
  8
RACCORDO
100
AcDbLine
 62
7
  6
CONTINUOUS
 10
-24.6449863741
 20
31.3390244252
 11
-24.6054589314
 21
31.3458767853
  0
LINE
  5
716
100
AcDbEntity
  8
RACCORDO
100
AcDbLine
 62
7
  6
CONTINUOUS
 10
-41.4567458569
 20
61.495762229
 11
-41.4849401842
 21
61.4953920063
  0
LINE
  5
717
100
AcDbEntity
  8
RACCORDO
100
AcDbLine
 62
7
  6
CONTINUOUS
 10
-41.3460546985
 20
61.8361750871
 11
-41.3856097245
 21
61.8360928402
  0
LINE
  5
718
100
AcDbEntity
  8
RACCORDO
100
AcDbLine
 62
7
  6
CONTINUOUS
 10
-38.4124088668
 20
62.7503393319
 11
-38.4804715405
 21
62.7506183284
  0
LINE
  5
719
100
AcDbEntity
  8
RACCORDO
100
AcDbLine
 62
7
  6
CONTINUOUS
 10
-38.3043361408
 20
62.7028389974
 11
-38.1632773573
 21
62.6995308199
  0
LINE
  5
71A
100
AcDbEntity
  8
RACCORDO
100
AcDbLine
 62
7
  6
CONTINUOUS
 10
-38.3188581978
 20
62.7477658115
 11
-38.4123749405
 21
62.7503388824
  0
LINE
  5
71B
100
AcDbEntity
  8
RACCORDO
100
AcDbLine
 62
7
  6
CONTINUOUS
 10
46.800090737
 20
-57.5226804224
 11
46.7545731319
 21
-57.6453119297
  0
LINE
  5
71C
100
AcDbEntity
  8
RACCORDO
100
AcDbLine
 62
7
  6
CONTINUOUS
 10
46.7126781092
 20
-57.8238195005
 11
46.7779800087
 21
-57.6524524934
  0
LINE
  5
71D
100
AcDbEntity
  8
RACCORDO
100
AcDbLine
 62
7
  6
CONTINUOUS
 10
46.7545731319
 20
-57.6453119297
 11
46.7049385635
 21
-57.7657947257
  0
LINE
  5
71E
100
AcDbEntity
  8
RACCORDO
100
AcDbLine
 62
7
  6
CONTINUOUS
 10
44.1958757556
 20
-60.3692661058
 11
44.2086897747
 21
-60.3384678274
  0
LINE
  5
71F
100
AcDbEntity
  8
RACCORDO
100
AcDbLine
 62
7
  6
CONTINUOUS
 10
22.8559783594
 20
-32.5954371932
 11
22.8750927212
 21
-32.5632795276
  0
LINE
  5
720
100
AcDbEntity
  8
RACCORDO
100
AcDbLine
 62
7
  6
CONTINUOUS
 10
43.4869081055
 20
12.7089085921
 11
43.5011028979
 21
12.7314883761
  0
LINE
  5
721
100
AcDbEntity
  8
RACCORDO
100
AcDbLine
 62
7
  6
CONTINUOUS
 10
22.8750927212
 20
-32.5632795276
 11
22.8955214286
 21
-32.532072526
  0
LINE
  5
722
100
AcDbEntity
  8
RACCORDO
100
AcDbLine
 62
7
  6
CONTINUOUS
 10
43.5011028979
 20
12.7314883761
 11
43.5163493851
 21
12.7531606403
  0
LINE
  5
723
100
AcDbEntity
  8
0
100
AcDbLine
 62
7
  6
CONTINUOUS
 10
3.2831262939
 20
-24.8649009863
 11
3.2751948295
 21
-24.8753899456
  0
LINE
  5
724
100
AcDbEntity
  8
0
100
AcDbLine
 62
7
  6
CONTINUOUS
 10
3.0306683251
 20
-24.4795439942
 11
3.022788094
 21
-24.4899188209
  0
LINE
  5
725
100
AcDbEntity
  8
0
100
AcDbLine
 62
7
  6
CONTINUOUS
 10
2.9159204268
 20
-24.5519121576
 11
2.9237805267
 21
-24.5416951567
  0
LINE
  5
726
100
AcDbEntity
  8
RACCORDO
100
AcDbLine
 62
7
  6
CONTINUOUS
 10
-23.9534944817
 20
-5.3167181789
 11
-23.9283339829
 21
-5.2927458088
  0
LINE
  5
727
100
AcDbEntity
  8
0
100
AcDbLine
 62
7
  6
CONTINUOUS
 10
-20.1241827672
 20
0.5162045898
 11
-20.099465238
 21
0.5390367834
  0
LINE
  5
728
100
AcDbEntity
  8
RACCORDO
100
AcDbLine
 62
7
  6
CONTINUOUS
 10
-24.890341451
 20
32.0059958289
 11
-24.8503722305
 21
32.0319093652
  0
LINE
  5
729
100
AcDbEntity
  8
RACCORDO
100
AcDbLine
 62
7
  6
CONTINUOUS
 10
-24.2989471288
 20
31.7520613328
 11
-24.2734997719
 21
31.7683252439
  0
LINE
  5
72A
100
AcDbEntity
  8
RACCORDO
100
AcDbLine
 62
7
  6
CONTINUOUS
 10
-24.6054589314
 20
31.3458767853
 11
-24.5673029677
 21
31.3545766058
  0
LINE
  5
72B
100
AcDbEntity
  8
RACCORDO
100
AcDbLine
 62
7
  6
CONTINUOUS
 10
-24.2512736091
 20
31.7800530534
 11
-24.2496912679
 21
31.7803515392
  0
LINE
  5
72C
100
AcDbEntity
  8
RACCORDO
100
AcDbLine
 62
7
  6
CONTINUOUS
 10
-38.6115529891
 20
62.7472773027
 11
-38.7405581698
 21
62.7388572026
  0
LINE
  5
72D
100
AcDbEntity
  8
RACCORDO
100
AcDbLine
 62
7
  6
CONTINUOUS
 10
-38.5204830403
 20
62.6952599093
 11
-38.4133987522
 21
62.7008931509
  0
LINE
  5
72E
100
AcDbEntity
  8
RACCORDO
100
AcDbLine
 62
7
  6
CONTINUOUS
 10
-38.4804715405
 20
62.7506183284
 11
-38.6115529891
 21
62.7472773027
  0
LINE
  5
72F
100
AcDbEntity
  8
RACCORDO
100
AcDbLine
 62
7
  6
CONTINUOUS
 10
-38.4133987522
 20
62.7008931509
 11
-38.3043361408
 21
62.7028389974
  0
LINE
  5
730
100
AcDbEntity
  8
RACCORDO
100
AcDbLine
 62
7
  6
CONTINUOUS
 10
46.6419325823
 20
-57.9864855992
 11
46.7126781092
 21
-57.8238195005
  0
LINE
  5
731
100
AcDbEntity
  8
RACCORDO
100
AcDbLine
 62
7
  6
CONTINUOUS
 10
46.7049385635
 20
-57.7657947257
 11
46.6514673454
 21
-57.8830839432
  0
LINE
  5
732
100
AcDbEntity
  8
RACCORDO
100
AcDbLine
 62
7
  6
CONTINUOUS
 10
43.8044654092
 20
-60.3247142954
 11
43.8133103228
 21
-60.3056019027
  0
LINE
  5
733
100
AcDbEntity
  8
RACCORDO
100
AcDbLine
 62
7
  6
CONTINUOUS
 10
46.5662531021
 20
-58.1403312948
 11
46.6419325823
 21
-57.9864855992
  0
LINE
  5
734
100
AcDbEntity
  8
RACCORDO
100
AcDbLine
 62
7
  6
CONTINUOUS
 10
23.540506323
 20
-32.8851142859
 11
23.5172439377
 21
-32.9198374804
  0
LINE
  5
735
100
AcDbEntity
  8
RACCORDO
100
AcDbLine
 62
7
  6
CONTINUOUS
 10
23.41640899
 20
-32.4624936527
 11
23.4364902823
 21
-32.4330563732
  0
LINE
  5
736
100
AcDbEntity
  8
RACCORDO
100
AcDbLine
 62
7
  6
CONTINUOUS
 10
22.8955214286
 20
-32.532072526
 11
22.9171500872
 21
-32.5019909383
  0
LINE
  5
737
100
AcDbEntity
  8
RACCORDO
100
AcDbLine
 62
7
  6
CONTINUOUS
 10
43.5163493851
 20
12.7531606403
 11
43.5325267218
 21
12.7737536082
  0
LINE
  5
738
100
AcDbEntity
  8
0
100
AcDbLine
 62
7
  6
CONTINUOUS
 10
3.2751948295
 20
-24.8753899456
 11
3.2670542351
 21
-24.884944743
  0
LINE
  5
739
100
AcDbEntity
  8
RACCORDO
100
AcDbLine
 62
7
  6
CONTINUOUS
 10
-23.9283339829
 20
-5.2927458088
 11
-23.9026322489
 21
-5.2706598439
  0
LINE
  5
73A
100
AcDbEntity
  8
0
100
AcDbLine
 62
7
  6
CONTINUOUS
 10
-20.1492457124
 20
0.4953344691
 11
-20.1241827672
 21
0.5162045898
  0
LINE
  5
73B
100
AcDbEntity
  8
RACCORDO
100
AcDbLine
 62
7
  6
CONTINUOUS
 10
-41.566119221
 20
61.4803071145
 11
-41.5917897319
 21
61.4706874801
  0
LINE
  5
73C
100
AcDbEntity
  8
RACCORDO
100
AcDbLine
 62
7
  6
CONTINUOUS
 10
-41.4987118886
 20
61.8166211569
 11
-41.5341505929
 21
61.8037826044
  0
LINE
  5
73D
100
AcDbEntity
  8
RACCORDO
100
AcDbLine
 62
7
  6
CONTINUOUS
 10
-24.3879960881
 20
31.7115103644
 11
-24.354619108
 21
31.7208464115
  0
LINE
  5
73E
100
AcDbEntity
  8
RACCORDO
100
AcDbLine
 62
7
  6
CONTINUOUS
 10
-38.7405581698
 20
62.7388572026
 11
-38.8673160379
 21
62.7254277046
  0
LINE
  5
73F
100
AcDbEntity
  8
RACCORDO
100
AcDbLine
 62
7
  6
CONTINUOUS
 10
-41.4849401842
 20
61.4953920063
 11
-41.5125735081
 21
61.4927008319
  0
LINE
  5
740
100
AcDbEntity
  8
RACCORDO
100
AcDbLine
 62
7
  6
CONTINUOUS
 10
-38.625526281
 20
62.6860140506
 11
-38.5204830403
 21
62.6952599093
  0
LINE
  5
741
100
AcDbEntity
  8
RACCORDO
100
AcDbLine
 62
7
  6
CONTINUOUS
 10
-41.3856097245
 20
61.8360928402
 11
-41.4243244434
 21
61.8328017893
  0
LINE
  5
742
100
AcDbEntity
  8
RACCORDO
100
AcDbLine
 62
7
  6
CONTINUOUS
 10
46.6514673454
 20
-57.8830839432
 11
46.5937807789
 21
-57.9980695178
  0
LINE
  5
743
100
AcDbEntity
  8
RACCORDO
100
AcDbLine
 62
7
  6
CONTINUOUS
 10
44.1808195986
 20
-60.3975812237
 11
44.1958757556
 21
-60.3692661058
  0
LINE
  5
744
100
AcDbEntity
  8
RACCORDO
100
AcDbLine
 62
7
  6
CONTINUOUS
 10
46.5189304996
 20
-58.22795094
 11
46.5662531021
 21
-58.1403312948
  0
LINE
  5
745
100
AcDbEntity
  8
RACCORDO
100
AcDbLine
 62
7
  6
CONTINUOUS
 10
46.5937807789
 20
-57.9980695178
 11
46.5318124771
 21
-58.110664642
  0
LINE
  5
746
100
AcDbEntity
  8
RACCORDO
100
AcDbLine
 62
7
  6
CONTINUOUS
 10
22.9171500872
 20
-32.5019909383
 11
22.9398575831
 21
-32.473203212
  0
LINE
  5
747
100
AcDbEntity
  8
RACCORDO
100
AcDbLine
 62
7
  6
CONTINUOUS
 10
23.5172439377
 20
-32.9198374804
 11
23.4915461703
 21
-32.9513943782
  0
LINE
  5
748
100
AcDbEntity
  8
RACCORDO
100
AcDbLine
 62
7
  6
CONTINUOUS
 10
43.5325267218
 20
12.7737536082
 11
43.5495066849
 21
12.793104058
  0
LINE
  5
749
100
AcDbEntity
  8
0
100
AcDbLine
 62
7
  6
CONTINUOUS
 10
3.022788094
 20
-24.4899188209
 11
3.0140103143
 21
-24.4990949037
  0
LINE
  5
74A
100
AcDbEntity
  8
0
100
AcDbLine
 62
7
  6
CONTINUOUS
 10
2.9072117133
 20
-24.560911329
 11
2.9159204268
 21
-24.5519121576
  0
LINE
  5
74B
100
AcDbEntity
  8
0
100
AcDbLine
 62
7
  6
CONTINUOUS
 10
3.2670542351
 20
-24.884944743
 11
3.2587006692
 21
-24.8935662984
  0
LINE
  5
74C
100
AcDbEntity
  8
RACCORDO
100
AcDbLine
 62
7
  6
CONTINUOUS
 10
43.5495066849
 20
12.793104058
 11
43.5671546897
 21
12.8110586162
  0
LINE
  5
74D
100
AcDbEntity
  8
RACCORDO
100
AcDbLine
 62
7
  6
CONTINUOUS
 10
-23.9026322489
 20
-5.2706598439
 11
-23.8765332014
 21
-5.2505839589
  0
LINE
  5
74E
100
AcDbEntity
  8
0
100
AcDbLine
 62
7
  6
CONTINUOUS
 10
-20.1747825518
 20
0.4762957181
 11
-20.1492457124
 21
0.4953344691
  0
LINE
  5
74F
100
AcDbEntity
  8
0
100
AcDbLine
 62
7
  6
CONTINUOUS
 10
-22.4051631422
 20
30.1518110857
 11
-22.0516097516
 21
30.3416924972
  0
LINE
  5
750
100
AcDbEntity
  8
RACCORDO
100
AcDbLine
 62
7
  6
CONTINUOUS
 10
-24.2734997719
 20
31.7683252439
 11
-24.2500349557
 21
31.7804816857
  0
LINE
  5
751
100
AcDbEntity
  8
RACCORDO
100
AcDbLine
 62
7
  6
CONTINUOUS
 10
-24.8503722305
 20
32.0319093652
 11
-24.8081878008
 21
32.0536172182
  0
LINE
  5
752
100
AcDbEntity
  8
RACCORDO
100
AcDbLine
 62
7
  6
CONTINUOUS
 10
-41.4243244434
 20
61.8328017893
 11
-41.4620605395
 21
61.8263060566
  0
LINE
  5
753
100
AcDbEntity
  8
RACCORDO
100
AcDbLine
 62
7
  6
CONTINUOUS
 10
-38.8290476729
 20
62.6569783615
 11
-38.7283674371
 21
62.6732253236
  0
LINE
  5
754
100
AcDbEntity
  8
RACCORDO
100
AcDbLine
 62
7
  6
CONTINUOUS
 10
-38.8673160379
 20
62.7254277046
 11
-38.9916726561
 21
62.707065968
  0
LINE
  5
755
100
AcDbEntity
  8
RACCORDO
100
AcDbLine
 62
7
  6
CONTINUOUS
 10
-38.7283674371
 20
62.6732253236
 11
-38.625526281
 21
62.6860140506
  0
LINE
  5
756
100
AcDbEntity
  8
RACCORDO
100
AcDbLine
 62
7
  6
CONTINUOUS
 10
46.488135438
 20
-58.2819097414
 11
46.5189123607
 21
-58.2279823769
  0
LINE
  5
757
100
AcDbEntity
  8
RACCORDO
100
AcDbLine
 62
7
  6
CONTINUOUS
 10
43.7939985915
 20
-60.3420421335
 11
43.8044654092
 21
-60.3247142954
  0
LINE
  5
758
100
AcDbEntity
  8
RACCORDO
100
AcDbLine
 62
7
  6
CONTINUOUS
 10
46.5318124771
 20
-58.110664642
 11
46.4593011898
 21
-58.2300028519
  0
LINE
  5
759
100
AcDbEntity
  8
RACCORDO
100
AcDbLine
 62
7
  6
CONTINUOUS
 10
46.4199595937
 20
-58.3938045212
 11
46.488135438
 21
-58.2819097414
  0
LINE
  5
75A
100
AcDbEntity
  8
RACCORDO
100
AcDbLine
 62
7
  6
CONTINUOUS
 10
23.4364902823
 20
-32.4330563732
 11
23.4593099299
 21
-32.4059413752
  0
LINE
  5
75B
100
AcDbEntity
  8
RACCORDO
100
AcDbLine
 62
7
  6
CONTINUOUS
 10
22.9398575831
 20
-32.473203212
 11
22.9635167615
 21
-32.4458705494
  0
LINE
  5
75C
100
AcDbEntity
  8
0
100
AcDbLine
 62
7
  6
CONTINUOUS
 10
3.2587006692
 20
-24.8935662984
 11
3.250239085
 21
-24.9014040262
  0
LINE
  5
75D
100
AcDbEntity
  8
RACCORDO
100
AcDbLine
 62
7
  6
CONTINUOUS
 10
43.5671546897
 20
12.8110586162
 11
43.5853308562
 21
12.8274749731
  0
LINE
  5
75E
100
AcDbEntity
  8
RACCORDO
100
AcDbLine
 62
7
  6
CONTINUOUS
 10
-23.8765332014
 20
-5.2505839589
 11
-23.8501829872
 21
-5.2326305724
  0
LINE
  5
75F
100
AcDbEntity
  8
0
100
AcDbLine
 62
7
  6
CONTINUOUS
 10
-20.2007932851
 20
0.4590883367
 11
-20.1747825518
 21
0.4762957181
  0
LINE
  5
760
100
AcDbEntity
  8
0
100
AcDbLine
 62
7
  6
CONTINUOUS
 10
-22.4051631422
 20
-0.9025712027
 11
-20.2007932851
 21
0.4590883367
  0
LINE
  5
761
100
AcDbEntity
  8
RACCORDO
100
AcDbLine
 62
7
  6
CONTINUOUS
 10
-24.2500349557
 20
31.7804816857
 11
-24.2492930699
 21
31.7808259138
  0
LINE
  5
762
100
AcDbEntity
  8
0
100
AcDbLine
 62
7
  6
CONTINUOUS
 10
-24.4637193606
 20
31.3910892631
 11
-23.9304106427
 21
31.6376794123
  0
LINE
  5
763
100
AcDbEntity
  8
RACCORDO
100
AcDbLine
 62
7
  6
CONTINUOUS
 10
-24.2513246032
 20
31.7800301711
 11
-24.2512736091
 21
31.7800530534
  0
LINE
  5
764
100
AcDbEntity
  8
RACCORDO
100
AcDbLine
 62
7
  6
CONTINUOUS
 10
-24.4961793526
 20
31.3772584125
 11
-24.4637175787
 21
31.3910790708
  0
LINE
  5
765
100
AcDbEntity
  8
RACCORDO
100
AcDbLine
 62
7
  6
CONTINUOUS
 10
-38.927813558
 20
62.6373545401
 11
-38.8290476729
 21
62.6569783615
  0
LINE
  5
766
100
AcDbEntity
  8
RACCORDO
100
AcDbLine
 62
7
  6
CONTINUOUS
 10
-38.9916726561
 20
62.707065968
 11
-39.1134767807
 21
62.6838811745
  0
LINE
  5
767
100
AcDbEntity
  8
RACCORDO
100
AcDbLine
 62
7
  6
CONTINUOUS
 10
-41.5125735081
 20
61.4927008319
 11
-41.5396274088
 21
61.4876642508
  0
LINE
  5
768
100
AcDbEntity
  8
RACCORDO
100
AcDbLine
 62
7
  6
CONTINUOUS
 10
46.3484161464
 20
-58.5013935391
 11
46.4199595937
 21
-58.3938045212
  0
LINE
  5
769
100
AcDbEntity
  8
RACCORDO
100
AcDbLine
 62
7
  6
CONTINUOUS
 10
44.1635956337
 20
-60.4233151655
 11
44.1808195986
 21
-60.3975812237
  0
LINE
  5
76A
100
AcDbEntity
  8
RACCORDO
100
AcDbLine
 62
7
  6
CONTINUOUS
 10
46.4593011898
 20
-58.2300028519
 11
46.3825858937
 21
-58.3442508757
  0
LINE
  5
76B
100
AcDbEntity
  8
RACCORDO
100
AcDbLine
 62
7
  6
CONTINUOUS
 10
22.9635167615
 20
-32.4458705494
 11
22.987995138
 21
-32.4201460051
  0
LINE
  5
76C
100
AcDbEntity
  8
RACCORDO
100
AcDbLine
 62
7
  6
CONTINUOUS
 10
23.4915461703
 20
-32.9513943782
 11
23.4634123824
 21
-32.9797853842
  0
LINE
  5
76D
100
AcDbEntity
  8
RACCORDO
100
AcDbLine
 62
7
  6
CONTINUOUS
 10
23.4593099299
 20
-32.4059413752
 11
23.4663992457
 21
-32.3989059702
  0
LINE
  5
76E
100
AcDbEntity
  8
RACCORDO
100
AcDbLine
 62
7
  6
CONTINUOUS
 10
46.9809209415
 20
13.6455331017
 11
46.9973674277
 21
13.659385759
  0
LINE
  5
76F
100
AcDbEntity
  8
RACCORDO
100
AcDbLine
 62
7
  6
CONTINUOUS
 10
46.9615901683
 20
13.6295230801
 11
46.9809209415
 21
13.6455331017
  0
LINE
  5
770
100
AcDbEntity
  8
0
100
AcDbLine
 62
7
  6
CONTINUOUS
 10
3.0140103143
 20
-24.4990949037
 11
3.0043401427
 21
-24.5070644569
  0
LINE
  5
771
100
AcDbEntity
  8
0
100
AcDbLine
 62
7
  6
CONTINUOUS
 10
3.250239085
 20
-24.9014040262
 11
3.2416616554
 21
-24.9084329706
  0
LINE
  5
772
100
AcDbEntity
  8
0
100
AcDbLine
 62
7
  6
CONTINUOUS
 10
2.8976587144
 20
-24.5686913167
 11
2.9072117133
 21
-24.560911329
  0
LINE
  5
773
100
AcDbEntity
  8
RACCORDO
100
AcDbLine
 62
7
  6
CONTINUOUS
 10
46.9390962382
 20
13.6114120562
 11
46.9615901683
 21
13.6295230801
  0
LINE
  5
774
100
AcDbEntity
  8
RACCORDO
100
AcDbLine
 62
7
  6
CONTINUOUS
 10
43.5853308562
 20
12.8274749731
 11
43.6038911186
 21
12.8422230113
  0
LINE
  5
775
100
AcDbEntity
  8
RACCORDO
100
AcDbLine
 62
7
  6
CONTINUOUS
 10
46.9132698645
 20
13.5916311148
 11
46.9390962382
 21
13.6114120562
  0
LINE
  5
776
100
AcDbEntity
  8
RACCORDO
100
AcDbLine
 62
7
  6
CONTINUOUS
 10
-24.3546196481
 20
-4.7595189015
 11
-24.3228305776
 21
-4.739928665
  0
LINE
  5
777
100
AcDbEntity
  8
RACCORDO
100
AcDbLine
 62
7
  6
CONTINUOUS
 10
-24.3879966161
 20
-4.7795067127
 11
-24.3546196481
 21
-4.7595189015
  0
LINE
  5
778
100
AcDbEntity
  8
RACCORDO
100
AcDbLine
 62
7
  6
CONTINUOUS
 10
-24.4227209755
 20
-4.7997480713
 11
-24.3879966161
 21
-4.7795067127
  0
LINE
  5
779
100
AcDbEntity
  8
0
100
AcDbLine
 62
7
  6
CONTINUOUS
 10
-24.4637187819
 20
-4.2822791744
 11
-22.4051631422
 21
-3.0936802202
  0
LINE
  5
77A
100
AcDbEntity
  8
0
100
AcDbLine
 62
7
  6
CONTINUOUS
 10
-23.8501889053
 20
-5.2326271554
 11
-21.8402529695
 21
-4.0721333401
  0
LINE
  5
77B
100
AcDbEntity
  8
RACCORDO
100
AcDbLine
 62
7
  6
CONTINUOUS
 10
-24.4585425111
 20
-4.8200971232
 11
-24.4227209755
 21
-4.7997480713
  0
LINE
  5
77C
100
AcDbEntity
  8
0
100
AcDbLine
 62
7
  6
CONTINUOUS
 10
-22.0516097516
 20
3.3981733631
 11
-20.2007932851
 21
4.3921834685
  0
LINE
  5
77D
100
AcDbEntity
  8
0
100
AcDbLine
 62
7
  6
CONTINUOUS
 10
-21.1357705619
 20
4.8209984598
 11
-22.0516097516
 21
4.3466426586
  0
LINE
  5
77E
100
AcDbEntity
  8
0
100
AcDbLine
 62
7
  6
CONTINUOUS
 10
-20.8934732823
 20
4.7921282176
 11
-22.0516097516
 21
4.1922753624
  0
LINE
  5
77F
100
AcDbEntity
  8
RACCORDO
100
AcDbLine
 62
7
  6
CONTINUOUS
 10
-24.8081878008
 20
32.0536172182
 11
-24.7636145509
 21
32.0711951726
  0
LINE
  5
780
100
AcDbEntity
  8
RACCORDO
100
AcDbLine
 62
7
  6
CONTINUOUS
 10
-24.354619108
 20
31.7208464115
 11
-24.3228300291
 21
31.7333410331
  0
LINE
  5
781
100
AcDbEntity
  8
RACCORDO
100
AcDbLine
 62
7
  6
CONTINUOUS
 10
-41.5396274088
 20
61.4876642508
 11
-41.566119221
 21
61.4803071145
  0
LINE
  5
782
100
AcDbEntity
  8
RACCORDO
100
AcDbLine
 62
7
  6
CONTINUOUS
 10
-39.0476755176
 20
62.6080588364
 11
-39.0245577378
 21
62.6144439151
  0
LINE
  5
783
100
AcDbEntity
  8
RACCORDO
100
AcDbLine
 62
7
  6
CONTINUOUS
 10
-41.4620605395
 20
61.8263060566
 11
-41.4987118886
 21
61.8166211569
  0
LINE
  5
784
100
AcDbEntity
  8
RACCORDO
100
AcDbLine
 62
7
  6
CONTINUOUS
 10
-39.0245577378
 20
62.6144439151
 11
-38.927813558
 21
62.6373545401
  0
LINE
  5
785
100
AcDbEntity
  8
RACCORDO
100
AcDbLine
 62
7
  6
CONTINUOUS
 10
-39.1134767807
 20
62.6838811745
 11
-39.1600962328
 21
62.6729691484
  0
LINE
  5
786
100
AcDbEntity
  8
RACCORDO
100
AcDbLine
 62
7
  6
CONTINUOUS
 10
46.2736392414
 20
-58.6045636594
 11
46.3484161464
 21
-58.5013935391
  0
LINE
  5
787
100
AcDbEntity
  8
RACCORDO
100
AcDbLine
 62
7
  6
CONTINUOUS
 10
46.3825858937
 20
-58.3442508757
 11
46.3017692428
 21
-58.4533410151
  0
LINE
  5
788
100
AcDbEntity
  8
RACCORDO
100
AcDbLine
 62
7
  6
CONTINUOUS
 10
43.7819260182
 20
-60.3576061879
 11
43.7939985915
 21
-60.3420421335
  0
LINE
  5
789
100
AcDbEntity
  8
RACCORDO
100
AcDbLine
 62
7
  6
CONTINUOUS
 10
46.1957779239
 20
-58.7032197443
 11
46.2736392414
 21
-58.6045636594
  0
LINE
  5
78A
100
AcDbEntity
  8
RACCORDO
100
AcDbLine
 62
7
  6
CONTINUOUS
 10
22.987995138
 20
-32.4201460051
 11
23.0131556415
 21
-32.3961736287
  0
LINE
  5
78B
100
AcDbEntity
  8
RACCORDO
100
AcDbLine
 62
7
  6
CONTINUOUS
 10
46.8837186134
 20
13.5698845745
 11
46.9132698645
 21
13.5916311148
  0
LINE
  5
78C
100
AcDbEntity
  8
RACCORDO
100
AcDbLine
 62
7
  6
CONTINUOUS
 10
46.8497129379
 20
13.5451674722
 11
46.8837186134
 21
13.5698845745
  0
LINE
  5
78D
100
AcDbEntity
  8
0
100
AcDbLine
 62
7
  6
CONTINUOUS
 10
3.2416616554
 20
-24.9084329706
 11
3.2329758043
 21
-24.9146783567
  0
LINE
  5
78E
100
AcDbEntity
  8
RACCORDO
100
AcDbLine
 62
7
  6
CONTINUOUS
 10
46.8105386753
 20
13.5174582678
 11
46.8497129379
 21
13.5451674722
  0
LINE
  5
78F
100
AcDbEntity
  8
RACCORDO
100
AcDbLine
 62
7
  6
CONTINUOUS
 10
43.6038911186
 20
12.8422230113
 11
43.6226883663
 21
12.8551858362
  0
LINE
  5
790
100
AcDbEntity
  8
RACCORDO
100
AcDbLine
 62
7
  6
CONTINUOUS
 10
46.7660059597
 20
13.4870308653
 11
46.8105386753
 21
13.5174582678
  0
LINE
  5
791
100
AcDbEntity
  8
RACCORDO
100
AcDbLine
 62
7
  6
CONTINUOUS
 10
46.7161540206
 20
13.4533429714
 11
46.7660059597
 21
13.4870308653
  0
LINE
  5
792
100
AcDbEntity
  8
RACCORDO
100
AcDbLine
 62
7
  6
CONTINUOUS
 10
46.660811788
 20
13.4163042676
 11
46.7161540206
 21
13.4533429714
  0
LINE
  5
793
100
AcDbEntity
  8
RACCORDO
100
AcDbLine
 62
7
  6
CONTINUOUS
 10
46.599482966
 20
13.3762997212
 11
46.660811788
 21
13.4163042676
  0
LINE
  5
794
100
AcDbEntity
  8
RACCORDO
100
AcDbLine
 62
7
  6
CONTINUOUS
 10
-24.4952031019
 20
-4.8404072382
 11
-24.4585425111
 21
-4.8200971232
  0
LINE
  5
795
100
AcDbEntity
  8
RACCORDO
100
AcDbLine
 62
7
  6
CONTINUOUS
 10
-24.5324385806
 20
-4.8605320666
 11
-24.4952031019
 21
-4.8404072382
  0
LINE
  5
796
100
AcDbEntity
  8
RACCORDO
100
AcDbLine
 62
7
  6
CONTINUOUS
 10
-24.4961814195
 20
-4.2994223429
 11
-24.4637196503
 21
-4.2822535084
  0
LINE
  5
797
100
AcDbEntity
  8
RACCORDO
100
AcDbLine
 62
7
  6
CONTINUOUS
 10
-24.5699806377
 20
-4.880326594
 11
-24.5324385806
 21
-4.8605320666
  0
LINE
  5
798
100
AcDbEntity
  8
RACCORDO
100
AcDbLine
 62
7
  6
CONTINUOUS
 10
-24.6075587543
 20
-4.8996481858
 11
-24.5699806377
 21
-4.880326594
  0
LINE
  5
799
100
AcDbEntity
  8
0
100
AcDbLine
 62
7
  6
CONTINUOUS
 10
-21.1327490469
 20
4.8225259771
 11
-21.1357690235
 21
4.8209992566
  0
LINE
  5
79A
100
AcDbEntity
  8
RACCORDO
100
AcDbLine
 62
7
  6
CONTINUOUS
 10
-24.6449021518
 20
-4.9183576155
 11
-24.6075587543
 21
-4.8996481858
  0
LINE
  5
79B
100
AcDbEntity
  8
0
100
AcDbLine
 62
7
  6
CONTINUOUS
 10
-20.8676870044
 20
4.804885118
 11
-20.8934732823
 21
4.7921282176
  0
LINE
  5
79C
100
AcDbEntity
  8
0
100
AcDbLine
 62
7
  6
CONTINUOUS
 10
-20.1747825518
 20
4.4050126301
 11
-20.2007932851
 21
4.3921834685
  0
LINE
  5
79D
100
AcDbEntity
  8
0
100
AcDbLine
 62
7
  6
CONTINUOUS
 10
-21.1357785439
 20
4.8209943253
 11
-21.1150381008
 21
4.8311369367
  0
LINE
  5
79E
100
AcDbEntity
  8
RACCORDO
100
AcDbLine
 62
7
  6
CONTINUOUS
 10
-24.5307898731
 20
31.3650620079
 11
-24.4961793526
 21
31.3772584125
  0
LINE
  5
79F
100
AcDbEntity
  8
RACCORDO
100
AcDbLine
 62
7
  6
CONTINUOUS
 10
46.3017692428
 20
-58.4533410151
 11
46.2173280289
 21
-58.556848322
  0
LINE
  5
7A0
100
AcDbEntity
  8
RACCORDO
100
AcDbLine
 62
7
  6
CONTINUOUS
 10
44.1442874141
 20
-60.4463820149
 11
44.1635956337
 21
-60.4233151655
  0
LINE
  5
7A1
100
AcDbEntity
  8
RACCORDO
100
AcDbLine
 62
7
  6
CONTINUOUS
 10
46.1150070381
 20
-58.7972820879
 11
46.1957779239
 21
-58.7032197443
  0
LINE
  5
7A2
100
AcDbEntity
  8
RACCORDO
100
AcDbLine
 62
7
  6
CONTINUOUS
 10
23.0131556415
 20
-32.3961736287
 11
23.0388573808
 21
-32.374087658
  0
LINE
  5
7A3
100
AcDbEntity
  8
RACCORDO
100
AcDbLine
 62
7
  6
CONTINUOUS
 10
23.4634123824
 20
-32.9797853842
 11
23.4299932504
 21
-33.0074018396
  0
LINE
  5
7A4
100
AcDbEntity
  8
RACCORDO
100
AcDbLine
 62
7
  6
CONTINUOUS
 10
23.0388573808
 20
-32.374087658
 11
23.0649564341
 21
-32.3540117677
  0
LINE
  5
7A5
100
AcDbEntity
  8
0
100
AcDbLine
 62
7
  6
CONTINUOUS
 10
5.7830854565
 20
-19.0935627281
 11
5.0337443693
 21
-19.5888425932
  0
LINE
  5
7A6
100
AcDbEntity
  8
0
100
AcDbLine
 62
7
  6
CONTINUOUS
 10
5.7819656662
 20
-19.1907596823
 11
5.1116358729
 21
-19.6338161712
  0
LINE
  5
7A7
100
AcDbEntity
  8
0
100
AcDbLine
 62
7
  6
CONTINUOUS
 10
3.2329758043
 20
-24.9146783567
 11
3.2243094448
 21
-24.920364815
  0
LINE
  5
7A8
100
AcDbEntity
  8
0
100
AcDbLine
 62
7
  6
CONTINUOUS
 10
3.0043401427
 20
-24.5070644569
 11
2.9972497346
 21
-24.5116363275
  0
LINE
  5
7A9
100
AcDbEntity
  8
0
100
AcDbLine
 62
7
  6
CONTINUOUS
 10
2.8908598869
 20
-24.5730569597
 11
2.8976587144
 21
-24.5686913167
  0
LINE
  5
7AA
100
AcDbEntity
  8
RACCORDO
100
AcDbLine
 62
7
  6
CONTINUOUS
 10
46.4756083938
 20
13.2978879369
 11
46.599482966
 21
13.3762997212
  0
LINE
  5
7AB
100
AcDbEntity
  8
RACCORDO
100
AcDbLine
 62
7
  6
CONTINUOUS
 10
46.4171905039
 20
13.2613217355
 11
46.4756083938
 21
13.2978879369
  0
LINE
  5
7AC
100
AcDbEntity
  8
RACCORDO
100
AcDbLine
 62
7
  6
CONTINUOUS
 10
46.2941713292
 20
13.1853945493
 11
46.4171905039
 21
13.2613217355
  0
LINE
  5
7AD
100
AcDbEntity
  8
0
100
AcDbLine
 62
7
  6
CONTINUOUS
 10
5.7830854565
 20
-18.6709322625
 11
4.6444382888
 21
-19.3640621415
  0
LINE
  5
7AE
100
AcDbEntity
  8
RACCORDO
100
AcDbLine
 62
7
  6
CONTINUOUS
 10
46.1633887469
 20
13.1058437169
 11
46.2941713292
 21
13.1853945493
  0
LINE
  5
7AF
100
AcDbEntity
  8
RACCORDO
100
AcDbLine
 62
7
  6
CONTINUOUS
 10
46.0951781996
 20
13.0648143591
 11
46.1633887469
 21
13.1058437169
  0
LINE
  5
7B0
100
AcDbEntity
  8
RACCORDO
100
AcDbLine
 62
7
  6
CONTINUOUS
 10
46.0144284325
 20
13.0165488983
 11
46.0951781996
 21
13.0648143591
  0
LINE
  5
7B1
100
AcDbEntity
  8
RACCORDO
100
AcDbLine
 62
7
  6
CONTINUOUS
 10
43.6226883663
 20
12.8551858362
 11
45.3719908998
 21
13.8652014739
  0
LINE
  5
7B2
100
AcDbEntity
  8
RACCORDO
100
AcDbLine
 62
7
  6
CONTINUOUS
 10
44.2330240886
 20
11.5768050983
 11
46.0781286157
 21
12.642135074
  0
LINE
  5
7B3
100
AcDbEntity
  8
RACCORDO
100
AcDbLine
 62
7
  6
CONTINUOUS
 10
45.6643572598
 20
13.6228629373
 11
45.7465390177
 21
13.6686750704
  0
LINE
  5
7B4
100
AcDbEntity
  8
RACCORDO
100
AcDbLine
 62
7
  6
CONTINUOUS
 10
45.7465390177
 20
13.6686750704
 11
45.8841853063
 21
13.7446193267
  0
LINE
  5
7B5
100
AcDbEntity
  8
RACCORDO
100
AcDbLine
 62
7
  6
CONTINUOUS
 10
45.8841853063
 20
13.7446193267
 11
46.0149700598
 21
13.8156522348
  0
LINE
  5
7B6
100
AcDbEntity
  8
RACCORDO
100
AcDbLine
 62
7
  6
CONTINUOUS
 10
46.0149700598
 20
13.8156522348
 11
46.0777061678
 21
13.8493257066
  0
LINE
  5
7B7
100
AcDbEntity
  8
RACCORDO
100
AcDbLine
 62
7
  6
CONTINUOUS
 10
-24.6817417429
 20
-4.9363200677
 11
-24.6449021518
 21
-4.9183576155
  0
LINE
  5
7B8
100
AcDbEntity
  8
RACCORDO
100
AcDbLine
 62
7
  6
CONTINUOUS
 10
-24.7178120708
 20
-4.9534061093
 11
-24.6817417429
 21
-4.9363200677
  0
LINE
  5
7B9
100
AcDbEntity
  8
RACCORDO
100
AcDbLine
 62
7
  6
CONTINUOUS
 10
-24.7528532214
 20
-4.9694926225
 11
-24.7178120708
 21
-4.9534061093
  0
LINE
  5
7BA
100
AcDbEntity
  8
RACCORDO
100
AcDbLine
 62
7
  6
CONTINUOUS
 10
-24.5307919187
 20
-4.314943125
 11
-24.4961814195
 21
-4.2994223429
  0
LINE
  5
7BB
100
AcDbEntity
  8
RACCORDO
100
AcDbLine
 62
7
  6
CONTINUOUS
 10
-24.7866126971
 20
-4.9844636921
 11
-24.7528532214
 21
-4.9694926225
  0
LINE
  5
7BC
100
AcDbEntity
  8
0
100
AcDbLine
 62
7
  6
CONTINUOUS
 10
-21.1150381008
 20
4.8311369367
 11
-21.081177592
 21
4.8452556104
  0
LINE
  5
7BD
100
AcDbEntity
  8
0
100
AcDbLine
 62
7
  6
CONTINUOUS
 10
-20.842104571
 20
4.8153543276
 11
-20.8676870044
 21
4.804885118
  0
LINE
  5
7BE
100
AcDbEntity
  8
0
100
AcDbLine
 62
7
  6
CONTINUOUS
 10
-20.1492457124
 20
4.4154631811
 11
-20.1747825518
 21
4.4050126301
  0
LINE
  5
7BF
100
AcDbEntity
  8
RACCORDO
100
AcDbLine
 62
7
  6
CONTINUOUS
 10
-24.5673029677
 20
31.3545766058
 11
-24.5307898731
 21
31.3650620079
  0
LINE
  5
7C0
100
AcDbEntity
  8
RACCORDO
100
AcDbLine
 62
7
  6
CONTINUOUS
 10
-24.7636145509
 20
32.0711951726
 11
-24.7168305265
 21
32.0845651381
  0
LINE
  5
7C1
100
AcDbEntity
  8
RACCORDO
100
AcDbLine
 62
7
  6
CONTINUOUS
 10
46.2173280289
 20
-58.556848322
 11
46.1290340179
 21
-58.6550828481
  0
LINE
  5
7C2
100
AcDbEntity
  8
RACCORDO
100
AcDbLine
 62
7
  6
CONTINUOUS
 10
46.0781286157
 20
-58.8367630115
 11
46.1150070381
 21
-58.7972820879
  0
LINE
  5
7C3
100
AcDbEntity
  8
RACCORDO
100
AcDbLine
 62
7
  6
CONTINUOUS
 10
43.7683831123
 20
-60.3712625689
 11
43.7819260182
 21
-60.3576061879
  0
LINE
  5
7C4
100
AcDbEntity
  8
RACCORDO
100
AcDbLine
 62
7
  6
CONTINUOUS
 10
46.1290340179
 20
-58.6550828481
 11
46.0781286157
 21
-58.7063633092
  0
LINE
  5
7C5
100
AcDbEntity
  8
0
100
AcDbLine
 62
7
  6
CONTINUOUS
 10
23.0913337976
 20
-32.3360740486
 11
23.4772728809
 21
-32.0639356302
  0
LINE
  5
7C6
100
AcDbEntity
  8
0
100
AcDbLine
 62
7
  6
CONTINUOUS
 10
3.2243094448
 20
-24.920364815
 11
3.2181225362
 21
-24.9241124039
  0
LINE
  5
7C7
100
AcDbEntity
  8
0
100
AcDbLine
 62
7
  6
CONTINUOUS
 10
-3.5323901705
 20
-21.3380858348
 11
-3.638817125
 21
-21.3995354245
  0
LINE
  5
7C8
100
AcDbEntity
  8
0
100
AcDbLine
 62
7
  6
CONTINUOUS
 10
-3.6784650465
 20
-21.905445612
 11
-3.7849394616
 21
-21.9669226048
  0
LINE
  5
7C9
100
AcDbEntity
  8
0
100
AcDbLine
 62
7
  6
CONTINUOUS
 10
-1.4613461287
 20
-21.8158880062
 11
-1.5677245182
 21
-21.8773095551
  0
LINE
  5
7CA
100
AcDbEntity
  8
0
100
AcDbLine
 62
7
  6
CONTINUOUS
 10
-2.4680241021
 20
-22.6043390429
 11
-2.5744985172
 21
-22.6658160357
  0
LINE
  5
7CB
100
AcDbEntity
  8
0
100
AcDbLine
 62
7
  6
CONTINUOUS
 10
-1.8393969812
 20
-22.9673004639
 11
-1.9458713964
 21
-23.0287774568
  0
LINE
  5
7CC
100
AcDbEntity
  8
0
100
AcDbLine
 62
7
  6
CONTINUOUS
 10
-0.9129393195
 20
-22.5710086061
 11
-1.0193469082
 21
-22.6324470142
  0
LINE
  5
7CD
100
AcDbEntity
  8
0
100
AcDbLine
 62
7
  6
CONTINUOUS
 10
-0.4268553866
 20
-22.4189347667
 11
-0.5332341494
 21
-22.4803565311
  0
LINE
  5
7CE
100
AcDbEntity
  8
0
100
AcDbLine
 62
7
  6
CONTINUOUS
 10
-0.8909870801
 20
-23.5390138502
 11
-0.9765800273
 21
-23.5884341452
  0
LINE
  5
7CF
100
AcDbEntity
  8
0
100
AcDbLine
 62
7
  6
CONTINUOUS
 10
1.0774407651
 20
-23.1292005011
 11
0.9710721994
 21
-23.1906163779
  0
LINE
  5
7D0
100
AcDbEntity
  8
0
100
AcDbLine
 62
7
  6
CONTINUOUS
 10
-0.2359064899
 20
-23.8931357772
 11
-0.342380905
 21
-23.95461277
  0
LINE
  5
7D1
100
AcDbEntity
  8
0
100
AcDbLine
 62
7
  6
CONTINUOUS
 10
0.3817328987
 20
-24.2497530193
 11
0.2752584836
 21
-24.3112300122
  0
LINE
  5
7D2
100
AcDbEntity
  8
0
100
AcDbLine
 62
7
  6
CONTINUOUS
 10
0.8704527584
 20
-24.1149275908
 11
0.7640090863
 21
-24.176386833
  0
LINE
  5
7D3
100
AcDbEntity
  8
0
100
AcDbLine
 62
7
  6
CONTINUOUS
 10
1.3251878595
 20
-24.0537505184
 11
1.218767138
 21
-24.1151965093
  0
LINE
  5
7D4
100
AcDbEntity
  8
0
100
AcDbLine
 62
7
  6
CONTINUOUS
 10
2.4881981234
 20
-23.7229152158
 11
2.3818434752
 21
-23.7843230567
  0
LINE
  5
7D5
100
AcDbEntity
  8
0
100
AcDbLine
 62
7
  6
CONTINUOUS
 10
1.433215711
 20
-24.4398598666
 11
1.326772039
 21
-24.5013191088
  0
LINE
  5
7D6
100
AcDbEntity
  8
0
100
AcDbLine
 62
7
  6
CONTINUOUS
 10
2.8110628312
 20
-23.896869095
 11
2.7047089574
 21
-23.9582764888
  0
LINE
  5
7D7
100
AcDbEntity
  8
0
100
AcDbLine
 62
7
  6
CONTINUOUS
 10
1.5743292964
 20
-24.9383432326
 11
1.4678548812
 21
-24.9998202254
  0
LINE
  5
7D8
100
AcDbEntity
  8
0
100
AcDbLine
 62
7
  6
CONTINUOUS
 10
3.0630326591
 20
-24.3068983706
 11
2.9566620954
 21
-24.3683154009
  0
LINE
  5
7D9
100
AcDbEntity
  8
0
100
AcDbLine
 62
7
  6
CONTINUOUS
 10
2.5691953369
 20
-24.6938599364
 11
2.4627800378
 21
-24.7553027965
  0
LINE
  5
7DA
100
AcDbEntity
  8
0
100
AcDbLine
 62
7
  6
CONTINUOUS
 10
2.8908525592
 20
-24.5730455209
 11
2.9972388897
 21
-24.5116193871
  0
LINE
  5
7DB
100
AcDbEntity
  8
0
100
AcDbLine
 62
7
  6
CONTINUOUS
 10
2.7907641479
 20
-24.821790991
 11
2.6843488487
 21
-24.883233851
  0
LINE
  5
7DC
100
AcDbEntity
  8
0
100
AcDbLine
 62
7
  6
CONTINUOUS
 10
2.223137127
 20
-25.3129570064
 11
2.1166627118
 21
-25.3744339993
  0
LINE
  5
7DD
100
AcDbEntity
  8
0
100
AcDbLine
 62
7
  6
CONTINUOUS
 10
3.2070594518
 20
-24.891171285
 11
3.1006558535
 21
-24.9526073891
  0
LINE
  5
7DE
100
AcDbEntity
  8
0
100
AcDbLine
 62
7
  6
CONTINUOUS
 10
3.0355615209
 20
-25.1478969055
 11
2.9291333304
 21
-25.2093472089
  0
LINE
  5
7DF
100
AcDbEntity
  8
0
100
AcDbLine
 62
7
  6
CONTINUOUS
 10
3.2675315939
 20
-25.9159772822
 11
3.1610571787
 21
-25.9774542751
  0
LINE
  5
7E0
100
AcDbEntity
  8
0
100
AcDbLine
 62
7
  6
CONTINUOUS
 10
3.2181225362
 20
-24.9241124039
 11
3.2156716673
 21
-24.9255042768
  0
LINE
  5
7E1
100
AcDbEntity
  8
RACCORDO
100
AcDbLine
 62
7
  6
CONTINUOUS
 10
46.0777061678
 20
13.8493257066
 11
46.1385781448
 21
13.8816413652
  0
LINE
  5
7E2
100
AcDbEntity
  8
0
100
AcDbLine
 62
7
  6
CONTINUOUS
 10
3.500434449
 20
-17.3531430826
 11
2.2795520257
 21
-17.9986064521
  0
LINE
  5
7E3
100
AcDbEntity
  8
RACCORDO
100
AcDbLine
 62
7
  6
CONTINUOUS
 10
46.1385781448
 20
13.8816413652
 11
46.268411894
 21
13.9497316087
  0
LINE
  5
7E4
100
AcDbEntity
  8
RACCORDO
100
AcDbLine
 62
7
  6
CONTINUOUS
 10
46.268411894
 20
13.9497316087
 11
46.3337155155
 21
13.9828515845
  0
LINE
  5
7E5
100
AcDbEntity
  8
RACCORDO
100
AcDbLine
 62
7
  6
CONTINUOUS
 10
46.3337155155
 20
13.9828515845
 11
46.3934574045
 21
14.0122698559
  0
LINE
  5
7E6
100
AcDbEntity
  8
RACCORDO
100
AcDbLine
 62
7
  6
CONTINUOUS
 10
46.3934574045
 20
14.0122698559
 11
46.4475522992
 21
14.0386087437
  0
LINE
  5
7E7
100
AcDbEntity
  8
RACCORDO
100
AcDbLine
 62
7
  6
CONTINUOUS
 10
46.4475522992
 20
14.0386087437
 11
46.496163987
 21
14.0619711766
  0
LINE
  5
7E8
100
AcDbEntity
  8
RACCORDO
100
AcDbLine
 62
7
  6
CONTINUOUS
 10
46.496163987
 20
14.0619711766
 11
46.5397425802
 21
14.0820518747
  0
LINE
  5
7E9
100
AcDbEntity
  8
RACCORDO
100
AcDbLine
 62
7
  6
CONTINUOUS
 10
46.5397425802
 20
14.0820518747
 11
46.578145856
 21
14.0991521319
  0
LINE
  5
7EA
100
AcDbEntity
  8
RACCORDO
100
AcDbLine
 62
7
  6
CONTINUOUS
 10
46.578145856
 20
14.0991521319
 11
46.6117495124
 21
14.1138797241
  0
LINE
  5
7EB
100
AcDbEntity
  8
RACCORDO
100
AcDbLine
 62
7
  6
CONTINUOUS
 10
-24.8188472352
 20
-4.9982114401
 11
-24.7866126971
 21
-4.9844636921
  0
LINE
  5
7EC
100
AcDbEntity
  8
RACCORDO
100
AcDbLine
 62
7
  6
CONTINUOUS
 10
-24.8493245618
 20
-5.0106368037
 11
-24.8188472352
 21
-4.9982114401
  0
LINE
  5
7ED
100
AcDbEntity
  8
RACCORDO
100
AcDbLine
 62
7
  6
CONTINUOUS
 10
-24.8778250647
 20
-5.0216502488
 11
-24.8493245618
 21
-5.0106368037
  0
LINE
  5
7EE
100
AcDbEntity
  8
RACCORDO
100
AcDbLine
 62
7
  6
CONTINUOUS
 10
-24.5673049786
 20
-4.3287054621
 11
-24.5307919187
 21
-4.314943125
  0
LINE
  5
7EF
100
AcDbEntity
  8
0
100
AcDbLine
 62
7
  6
CONTINUOUS
 10
-21.081177592
 20
4.8452556104
 11
-21.0465930426
 21
4.8567890143
  0
LINE
  5
7F0
100
AcDbEntity
  8
RACCORDO
100
AcDbLine
 62
7
  6
CONTINUOUS
 10
44.1229309385
 20
-60.4667289194
 11
44.1442874141
 21
-60.4463820149
  0
LINE
  5
7F1
100
AcDbEntity
  8
RACCORDO
100
AcDbLine
 62
7
  6
CONTINUOUS
 10
23.0649564341
 20
-32.3540117677
 11
23.0913066547
 21
-32.3360583765
  0
LINE
  5
7F2
100
AcDbEntity
  8
RACCORDO
100
AcDbLine
 62
7
  6
CONTINUOUS
 10
23.4299932504
 20
-33.0074018396
 11
23.3941395184
 21
-33.0309391445
  0
LINE
  5
7F3
100
AcDbEntity
  8
0
100
AcDbLine
 62
7
  6
CONTINUOUS
 10
2.8872385009
 20
-24.5750196378
 11
2.8908598869
 21
-24.5730569597
  0
LINE
  5
7F4
100
AcDbEntity
  8
0
100
AcDbLine
 62
7
  6
CONTINUOUS
 10
3.2156716673
 20
-24.9255042768
 11
3.2070531161
 21
-24.930084988
  0
LINE
  5
7F5
100
AcDbEntity
  8
0
100
AcDbLine
 62
7
  6
CONTINUOUS
 10
3.2070531161
 20
-24.930084988
 11
3.1985541121
 21
-24.9342959999
  0
LINE
  5
7F6
100
AcDbEntity
  8
RACCORDO
100
AcDbLine
 62
7
  6
CONTINUOUS
 10
46.6117495124
 20
14.1138797241
 11
46.641788599
 21
14.1263640449
  0
LINE
  5
7F7
100
AcDbEntity
  8
RACCORDO
100
AcDbLine
 62
7
  6
CONTINUOUS
 10
46.641788599
 20
14.1263640449
 11
46.6687153869
 21
14.1367971302
  0
LINE
  5
7F8
100
AcDbEntity
  8
RACCORDO
100
AcDbLine
 62
7
  6
CONTINUOUS
 10
46.6687153869
 20
14.1367971302
 11
46.6922412103
 21
14.1455410973
  0
LINE
  5
7F9
100
AcDbEntity
  8
RACCORDO
100
AcDbLine
 62
7
  6
CONTINUOUS
 10
46.6922412103
 20
14.1455410973
 11
46.7124566963
 21
14.1528656302
  0
LINE
  5
7FA
100
AcDbEntity
  8
RACCORDO
100
AcDbLine
 62
7
  6
CONTINUOUS
 10
-24.9041433764
 20
-5.0311724154
 11
-24.8778250647
 21
-5.0216502488
  0
LINE
  5
7FB
100
AcDbEntity
  8
RACCORDO
100
AcDbLine
 62
7
  6
CONTINUOUS
 10
-24.9280898537
 20
-5.0391346889
 11
-24.9041433764
 21
-5.0311724154
  0
LINE
  5
7FC
100
AcDbEntity
  8
0
100
AcDbLine
 62
7
  6
CONTINUOUS
 10
-20.1241827672
 20
4.4235351214
 11
-20.1492457124
 21
4.4154631811
  0
LINE
  5
7FD
100
AcDbEntity
  8
0
100
AcDbLine
 62
7
  6
CONTINUOUS
 10
-20.8168627643
 20
4.8234798704
 11
-20.842104571
 21
4.8153543276
  0
LINE
  5
7FE
100
AcDbEntity
  8
RACCORDO
100
AcDbLine
 62
7
  6
CONTINUOUS
 10
-24.6054608978
 20
-4.3406114689
 11
-24.5673049786
 21
-4.3287054621
  0
LINE
  5
7FF
100
AcDbEntity
  8
0
100
AcDbLine
 62
7
  6
CONTINUOUS
 10
3.1985541121
 20
-24.9342959999
 11
3.1901951328
 21
-24.9381562326
  0
LINE
  5
800
100
AcDbEntity
  8
0
100
AcDbLine
 62
7
  6
CONTINUOUS
 10
3.1901951328
 20
-24.9381562326
 11
3.1819555262
 21
-24.9416468825
  0
LINE
  5
801
100
AcDbEntity
  8
0
100
AcDbLine
 62
7
  6
CONTINUOUS
 10
2.8758922559
 20
-24.5797910972
 11
2.8872385009
 21
-24.5750196378
  0
LINE
  5
802
100
AcDbEntity
  8
RACCORDO
100
AcDbLine
 62
7
  6
CONTINUOUS
 10
23.4634157231
 20
4.0352309278
 11
23.4401500929
 21
4.0276617694
  0
LINE
  5
803
100
AcDbEntity
  8
RACCORDO
100
AcDbLine
 62
7
  6
CONTINUOUS
 10
23.4401500929
 20
4.0276617694
 11
23.4195964426
 21
4.0214680491
  0
LINE
  5
804
100
AcDbEntity
  8
RACCORDO
100
AcDbLine
 62
7
  6
CONTINUOUS
 10
44.2138087767
 20
11.5713171808
 11
44.2330193715
 21
11.5768081233
  0
LINE
  5
805
100
AcDbEntity
  8
RACCORDO
100
AcDbLine
 62
7
  6
CONTINUOUS
 10
43.7533559046
 20
-60.3829911302
 11
43.7683831123
 21
-60.3712625689
  0
LINE
  5
806
100
AcDbEntity
  8
RACCORDO
100
AcDbLine
 62
7
  6
CONTINUOUS
 10
44.0996154994
 20
-60.4842890673
 11
44.1229309385
 21
-60.4667289194
  0
LINE
  5
807
100
AcDbEntity
  8
RACCORDO
100
AcDbLine
 62
7
  6
CONTINUOUS
 10
23.3941395184
 20
-33.0309391445
 11
23.3558487043
 21
-33.0503988727
  0
LINE
  5
808
100
AcDbEntity
  8
RACCORDO
100
AcDbLine
 62
7
  6
CONTINUOUS
 10
23.471131389
 20
-32.3898158421
 11
23.4482479231
 21
-32.4012297404
  0
LINE
  5
809
100
AcDbEntity
  8
0
100
AcDbLine
 62
7
  6
CONTINUOUS
 10
3.1819555262
 20
-24.9416468825
 11
3.1660159855
 21
-24.948026014
  0
LINE
  5
80A
100
AcDbEntity
  8
0
100
AcDbLine
 62
7
  6
CONTINUOUS
 10
3.1660159855
 20
-24.948026014
 11
3.1583159447
 21
-24.9509145669
  0
LINE
  5
80B
100
AcDbEntity
  8
0
100
AcDbLine
 62
7
  6
CONTINUOUS
 10
3.2610034407
 20
-24.8907565229
 11
3.2616533234
 21
-24.8905189206
  0
LINE
  5
80C
100
AcDbEntity
  8
RACCORDO
100
AcDbLine
 62
7
  6
CONTINUOUS
 10
44.2138132296
 20
-60.0754547483
 11
44.2330240886
 21
-60.0626304984
  0
LINE
  5
80D
100
AcDbEntity
  8
0
100
AcDbLine
 62
7
  6
CONTINUOUS
 10
3.1583159447
 20
-24.9509145669
 11
3.1506158507
 21
-24.9533706893
  0
LINE
  5
80E
100
AcDbEntity
  8
0
100
AcDbLine
 62
7
  6
CONTINUOUS
 10
3.2539220475
 20
-24.8929017588
 11
3.2610034407
 21
-24.8907565229
  0
LINE
  5
80F
100
AcDbEntity
  8
RACCORDO
100
AcDbLine
 62
7
  6
CONTINUOUS
 10
43.7368570831
 20
-60.3928130266
 11
43.7533559046
 21
-60.3829911302
  0
LINE
  5
810
100
AcDbEntity
  8
RACCORDO
100
AcDbLine
 62
7
  6
CONTINUOUS
 10
44.0744415455
 20
-60.4990033523
 11
44.0996154994
 21
-60.4842890673
  0
LINE
  5
811
100
AcDbEntity
  8
RACCORDO
100
AcDbLine
 62
7
  6
CONTINUOUS
 10
44.1933099332
 20
-60.0872712032
 11
44.2138132296
 21
-60.0754547483
  0
LINE
  5
812
100
AcDbEntity
  8
RACCORDO
100
AcDbLine
 62
7
  6
CONTINUOUS
 10
23.3558487043
 20
-33.0503988727
 11
23.3149577554
 21
-33.0658507128
  0
LINE
  5
813
100
AcDbEntity
  8
RACCORDO
100
AcDbLine
 62
7
  6
CONTINUOUS
 10
23.4482479231
 20
-32.4012297404
 11
23.4238578604
 21
-32.4101203683
  0
LINE
  5
814
100
AcDbEntity
  8
DRAFT
100
AcDbLine
 62
7
  6
CONTINUOUS
 10
46.2161842342
 20
-24.6224007655
 11
46.6438140407
 21
-24.4695354473
  0
LINE
  5
815
100
AcDbEntity
  8
0
100
AcDbLine
 62
7
  6
CONTINUOUS
 10
3.1506158507
 20
-24.9533706893
 11
3.1429903262
 21
-24.9555526715
  0
LINE
  5
816
100
AcDbEntity
  8
RACCORDO
100
AcDbLine
 62
7
  6
CONTINUOUS
 10
44.1716601778
 20
-60.0979957328
 11
44.1933099332
 21
-60.0872712032
  0
LINE
  5
817
100
AcDbEntity
  8
RACCORDO
100
AcDbLine
 62
7
  6
CONTINUOUS
 10
44.0657940956
 20
-60.503202776
 11
44.0744415455
 21
-60.4990033523
  0
LINE
  5
818
100
AcDbEntity
  8
RACCORDO
100
AcDbLine
 62
7
  6
CONTINUOUS
 10
44.2330240886
 20
-60.0626304984
 11
46.0781286157
 21
-59.209487172
  0
LINE
  5
819
100
AcDbEntity
  8
RACCORDO
100
AcDbLine
 62
7
  6
CONTINUOUS
 10
44.0657363138
 20
-60.5032294969
 11
45.8444641385
 21
-59.680777571
  0
LINE
  5
81A
100
AcDbEntity
  8
RACCORDO
100
AcDbLine
 62
7
  6
CONTINUOUS
 10
44.053418242
 20
-60.5087043705
 11
44.0657616999
 21
-60.5032138743
  0
LINE
  5
81B
100
AcDbEntity
  8
RACCORDO
100
AcDbLine
 62
7
  6
CONTINUOUS
 10
43.7190618572
 20
-60.4006464781
 11
43.7368570831
 21
-60.3928130266
  0
LINE
  5
81C
100
AcDbEntity
  8
RACCORDO
100
AcDbLine
 62
7
  6
CONTINUOUS
 10
44.1490181046
 20
-60.1075519812
 11
44.1716601778
 21
-60.0979957328
  0
LINE
  5
81D
100
AcDbEntity
  8
RACCORDO
100
AcDbLine
 62
7
  6
CONTINUOUS
 10
44.0169719544
 20
-60.522504366
 11
44.053418242
 21
-60.5087043705
  0
LINE
  5
81E
100
AcDbEntity
  8
RACCORDO
100
AcDbLine
 62
7
  6
CONTINUOUS
 10
44.1255449196
 20
-60.1158719101
 11
44.1490181046
 21
-60.1075519812
  0
LINE
  5
81F
100
AcDbEntity
  8
RACCORDO
100
AcDbLine
 62
7
  6
CONTINUOUS
 10
43.6999605303
 20
-60.4064731481
 11
43.7190618572
 21
-60.4006464781
  0
LINE
  5
820
100
AcDbEntity
  8
RACCORDO
100
AcDbLine
 62
7
  6
CONTINUOUS
 10
44.1014077463
 20
-60.1228962837
 11
44.1255449196
 21
-60.1158719101
  0
LINE
  5
821
100
AcDbEntity
  8
RACCORDO
100
AcDbLine
 62
7
  6
CONTINUOUS
 10
43.9788484622
 20
-60.5334070203
 11
44.0169719544
 21
-60.522504366
  0
ELLIPSE
  5
822
100
AcDbEntity
  8
RACCORDO
100
AcDbEllipse
 62
7
  6
CONTINUOUS
 10
45.3700514394
 20
-58.7984128608
 30
0.0
 11
-0.5013954353
 21
0.868386877
 31
0.0
 40
0.5757524875
 41
-3.1936911674
 42
-2.3576120761
  0
ELLIPSE
  5
823
100
AcDbEntity
  8
RACCORDO
100
AcDbEllipse
 62
7
  6
CONTINUOUS
 10
45.3700514394
 20
13.0487305375
 30
0.0
 11
-0.5000243598
 21
0.8660113392
 31
0.0
 40
0.5789151826
 41
-2.3548735497
 42
-0.7868162787
  0
ELLIPSE
  5
824
100
AcDbEntity
  8
0
100
AcDbEllipse
 62
7
  6
CONTINUOUS
 10
117.8472148467
 20
55.9542700373
 30
0.0
 11
114.8996317544
 21
126.3505868295
 31
0.0
 40
0.3765254089
 41
-3.7743605251
 42
-3.7575864559
  0
ELLIPSE
  5
825
100
AcDbEntity
  8
0
100
AcDbEllipse
 62
7
  6
CONTINUOUS
 10
111.6564920774
 20
59.5287157763
 30
0.0
 11
34.8790515577
 21
168.2218372011
 31
0.0
 40
0.7002280922
 41
-4.083553027
 42
-4.0720093448
  0
ELLIPSE
  5
826
100
AcDbEntity
  8
0
100
AcDbEllipse
 62
7
  6
CONTINUOUS
 10
117.0330477061
 20
56.4243599404
 30
0.0
 11
70.634700218
 21
152.2499801326
 31
0.0
 40
0.6282888553
 41
-3.9123018102
 42
-3.8955277411
  0
ELLIPSE
  5
827
100
AcDbEntity
  8
0
100
AcDbEllipse
 62
7
  6
CONTINUOUS
 10
113.4696632269
 20
58.4818134789
 30
0.0
 11
11.1145125674
 21
175.7752122584
 31
0.0
 40
0.7158559188
 41
-4.1973507117
 42
-4.188040463
  0
ELLIPSE
  5
828
100
AcDbEntity
  8
0
100
AcDbEllipse
 62
7
  6
CONTINUOUS
 10
117.1032813886
 20
56.3838078923
 30
0.0
 11
91.793176838
 21
140.2511436908
 31
0.0
 40
0.5363054271
 41
-3.8203221232
 42
-3.8093664661
  0
ELLIPSE
  5
829
100
AcDbEntity
  8
0
100
AcDbEllipse
 62
7
  6
CONTINUOUS
 10
120.9731482183
 20
54.1493952857
 30
0.0
 11
119.630873242
 21
123.5739552196
 31
0.0
 40
0.3382731367
 41
-3.7657029519
 42
-3.7547929514
  0
ELLIPSE
  5
82A
100
AcDbEntity
  8
0
100
AcDbEllipse
 62
7
  6
CONTINUOUS
 10
121.5257554824
 20
53.8303267772
 30
0.0
 11
111.5409348807
 21
128.3466174189
 31
0.0
 40
0.4029729773
 41
-3.7734299492
 42
-3.7672052666
  0
ELLIPSE
  5
82B
100
AcDbEntity
  8
0
100
AcDbEllipse
 62
7
  6
CONTINUOUS
 10
116.6657070792
 20
56.6364578144
 30
0.0
 11
27.6951435486
 21
170.7397539322
 31
0.0
 40
0.7069483398
 41
-4.1183397783
 42
-4.1015657091
  0
ELLIPSE
  5
82C
100
AcDbEntity
  8
0
100
AcDbEllipse
 62
7
  6
CONTINUOUS
 10
121.6111204988
 20
53.7810380866
 30
0.0
 11
112.236268736
 21
127.9318388222
 31
0.0
 40
0.3975597956
 41
-3.7637364601
 42
-3.7603859388
  0
ELLIPSE
  5
82D
100
AcDbEntity
  8
DRAFT
100
AcDbEllipse
 62
7
  6
CONTINUOUS
 10
41.8696954194
 20
-18.3720665034
 30
0.0
 11
5.1478346794
 21
0.9575482268
 31
0.0
 40
0.6665647798
 41
-0.7006982462
 42
-0.2750682551
  0
ELLIPSE
  5
82E
100
AcDbEntity
  8
0
100
AcDbEllipse
 62
7
  6
CONTINUOUS
 10
-21.8387014011
 20
-3.418956591
 30
0.0
 11
-0.4000194878
 21
0.6928090714
 31
0.0
 40
0.5789151826
 41
0.7867191038
 42
2.3547763749
  0
ELLIPSE
  5
82F
100
AcDbEntity
  8
RACCORDO
100
AcDbEllipse
 62
7
  6
CONTINUOUS
 10
-39.4808215127
 20
62.0405611488
 30
0.0
 11
-0.5013954353
 21
0.868386877
 31
0.0
 40
0.5757524875
 41
-0.7840766935
 42
0.0520985859
  0
ELLIPSE
  5
830
100
AcDbEntity
  8
0
100
AcDbEllipse
 62
7
  6
CONTINUOUS
 10
5.7755483388
 20
-18.8353940898
 30
0.0
 11
-0.0054673646
 21
0.3559778749
 31
0.0
 40
0.0145741356
 41
-3.1313276788
 42
-2.3823999735
  0
ELLIPSE
  5
831
100
AcDbEntity
  8
DRAFT
100
AcDbEllipse
 62
7
  6
CONTINUOUS
 10
41.8696954194
 20
-23.7788456743
 30
0.0
 11
5.1774686765
 21
-0.6785096723
 31
0.0
 40
0.4693271057
 41
-0.5159119978
 42
-0.0902820066
  0
ELLIPSE
  5
832
100
AcDbEntity
  8
0
100
AcDbEllipse
 62
7
  6
CONTINUOUS
 10
110.8718068178
 20
59.9817832108
 30
0.0
 11
25.1523857375
 21
171.4190137311
 31
0.0
 40
0.7088651675
 41
-4.1294456824
 42
-4.1136276763
  0
ELLIPSE
  5
833
100
AcDbEntity
  8
0
100
AcDbEllipse
 62
7
  6
CONTINUOUS
 10
117.1323084841
 20
56.3670480112
 30
0.0
 11
111.878972645
 21
127.9702912935
 31
0.0
 40
0.3995644544
 41
-3.7764422127
 42
-3.7658593517
  0
ELLIPSE
  5
834
100
AcDbEntity
  8
0
100
AcDbEllipse
 62
7
  6
CONTINUOUS
 10
116.9141598436
 20
56.4930043021
 30
0.0
 11
74.7266798953
 21
149.8826902858
 31
0.0
 40
0.6139811386
 41
-3.8877681049
 42
-3.8768482551
  0
ELLIPSE
  5
835
100
AcDbEntity
  8
0
100
AcDbEllipse
 62
7
  6
CONTINUOUS
 10
113.0796495279
 20
58.7070025007
 30
0.0
 11
10.3174595334
 21
175.8321184433
 31
0.0
 40
0.7160762854
 41
-4.1951584555
 42
-4.1843514627
  0
ELLIPSE
  5
836
100
AcDbEntity
  8
0
100
AcDbEllipse
 62
7
  6
CONTINUOUS
 10
116.9286035322
 20
56.4846646973
 30
0.0
 11
93.9929009386
 21
138.7583599347
 31
0.0
 40
0.5232362147
 41
-3.8175129253
 42
-3.8016949217
  0
ELLIPSE
  5
837
100
AcDbEntity
  8
0
100
AcDbEllipse
 62
7
  6
CONTINUOUS
 10
120.5562260737
 20
54.3901209067
 30
0.0
 11
119.0820080186
 21
123.7206245819
 31
0.0
 40
0.3418816387
 41
-3.7706765582
 42
-3.7623289378
  0
ELLIPSE
  5
838
100
AcDbEntity
  8
0
100
AcDbEllipse
 62
7
  6
CONTINUOUS
 10
116.7225245899
 20
56.6036520959
 30
0.0
 11
39.1098980172
 21
166.4730536049
 31
0.0
 40
0.6952787603
 41
-4.0581356351
 42
-4.0519053363
  0
ELLIPSE
  5
839
100
AcDbEntity
  8
0
100
AcDbEllipse
 62
7
  6
CONTINUOUS
 10
116.602529783
 20
56.6729355935
 30
0.0
 11
36.2622945329
 21
167.5495560783
 31
0.0
 40
0.6986691259
 41
-4.0631746043
 42
-4.0598210564
  0
ELLIPSE
  5
83A
100
AcDbEntity
  8
0
100
AcDbEllipse
 62
7
  6
CONTINUOUS
 10
121.4627197988
 20
53.8667227908
 30
0.0
 11
114.1738075272
 21
126.6060927015
 31
0.0
 40
0.3814884295
 41
-3.7739014683
 42
-3.7580834622
  0
ELLIPSE
  5
83B
100
AcDbEntity
  8
0
100
AcDbEllipse
 62
7
  6
CONTINUOUS
 10
117.1323084841
 20
56.3670480112
 30
0.0
 11
111.9792925869
 21
128.0850400428
 31
0.0
 40
0.3995644544
 41
-3.7774770381
 42
-3.7659333559
  0
ELLIPSE
  5
83C
100
AcDbEntity
  8
0
100
AcDbEllipse
 62
7
  6
CONTINUOUS
 10
110.8718068178
 20
59.9817832108
 30
0.0
 11
25.1749394473
 21
171.5727221992
 31
0.0
 40
0.7088651675
 41
-4.1304804737
 42
-4.1137064045
  0
ELLIPSE
  5
83D
100
AcDbEntity
  8
0
100
AcDbEllipse
 62
7
  6
CONTINUOUS
 10
120.5562260737
 20
54.3901209067
 30
0.0
 11
119.1887867979
 21
123.8315627285
 31
0.0
 40
0.3418816387
 41
-3.7717111746
 42
-3.7624009259
  0
ELLIPSE
  5
83E
100
AcDbEntity
  8
0
100
AcDbEllipse
 62
7
  6
CONTINUOUS
 10
116.9286035322
 20
56.4846646973
 30
0.0
 11
94.077182749
 21
138.8827821588
 31
0.0
 40
0.5232362147
 41
-3.8185477191
 42
-3.8017736499
  0
ELLIPSE
  5
83F
100
AcDbEntity
  8
0
100
AcDbEllipse
 62
7
  6
CONTINUOUS
 10
113.0796495279
 20
58.7070025007
 30
0.0
 11
10.3267110211
 21
175.9897840662
 31
0.0
 40
0.7160762854
 41
-4.1952272933
 42
-4.1842716361
  0
ELLIPSE
  5
840
100
AcDbEntity
  8
0
100
AcDbEllipse
 62
7
  6
CONTINUOUS
 10
116.9141598436
 20
56.4930043021
 30
0.0
 11
74.7936860181
 21
150.0170875047
 31
0.0
 40
0.6139811386
 41
-3.8878369839
 42
-3.8769269833
  0
ELLIPSE
  5
841
100
AcDbEntity
  8
0
100
AcDbEllipse
 62
7
  6
CONTINUOUS
 10
116.7225245899
 20
56.6036520959
 30
0.0
 11
39.144967187
 21
166.622327116
 31
0.0
 40
0.6952787603
 41
-4.0582033802
 42
-4.0519786976
  0
ELLIPSE
  5
842
100
AcDbEntity
  8
0
100
AcDbEllipse
 62
7
  6
CONTINUOUS
 10
121.4627197988
 20
53.8667227908
 30
0.0
 11
114.2761852079
 21
126.7196181975
 31
0.0
 40
0.3814884295
 41
-3.7749362596
 42
-3.7581621904
  0
ELLIPSE
  5
843
100
AcDbEntity
  8
0
100
AcDbEllipse
 62
7
  6
CONTINUOUS
 10
116.602529783
 20
56.6729355935
 30
0.0
 11
36.2948103059
 21
167.6997948705
 31
0.0
 40
0.6986691259
 41
-4.0632503059
 42
-4.0598997846
  0
ENDSEC
  0
SECTION
  2
OBJECTS
  0
DICTIONARY
  5
C
100
AcDbDictionary
280
0
281
1
  3
ACAD_GROUP
350
D
  3
ACAD_MLINESTYLE
350
17
  3
ACAD_LAYOUT
350
1A
  3
ACAD_PLOTSETTINGS
350
19
  3
ACAD_PLOTSTYLENAME
350
E
  0
DICTIONARY
  5
D
102
{ACAD_REACTORS
330
C
102
}
100
AcDbDictionary
280
0
281
1
  0
ACDBDICTIONARYWDFLT
  5
E
102
{ACAD_REACTORS
330
C
102
}
100
AcDbDictionary
281
1
  3
Normal
350
F
100
AcDbDictionaryWithDefault
340
F
  0
DICTIONARY
  5
17
102
{ACAD_REACTORS
330
C
102
}
100
AcDbDictionary
280
0
281
1
  3
Standard
350
18
  0
DICTIONARY
  5
19
102
{ACAD_REACTORS
330
C
102
}
100
AcDbDictionary
281
1
  0
DICTIONARY
  5
1A
102
{ACAD_REACTORS
330
C
102
}
100
AcDbDictionary
281
1
  3
Model
350
844
  3
Layout1
350
845
  0
ACDBPLACEHOLDER
  5
F
102
{ACAD_REACTORS
330
E
102
}
  0
MLINESTYLE
  5
18
102
{ACAD_REACTORS
330
17
102
}
100
AcDbMlineStyle
  2
STANDARD
 70
0
  3

 62
256
 51
90.0
 52
90.0
 71
2
 49
0.5
 62
256
  6
BYLAYER
 49
-0.5
 62
256
  6
BYLAYER
  0
LAYOUT
  5
844
102
{ACAD_REACTORS
330
1A
102
}
100
AcDbPlotSettings
  1

  2
none_device
  4
ISO_A4_(297.00_x_210.00_MM)
  6

 40
0.0
 41
0.0
 42
0.0
 43
0.0
 44
297.0
 45
210.0
 46
0.0
 47
0.0
 48
0.0
 49
0.0
140
0.0
141
0.0
142
1.0
143
1.0
 70
1024
 72
1
 73
0
 74
0
  7

 75
0
147
1.0
148
0.0
149
0.0
100
AcDbLayout
  1
Model
 70
0
 71
0
 10
0.0
 20
0.0
 11
297.0
 21
210.0
 12
0.0
 22
0.0
 32
0.0
 14
0.0
 24
0.0
 34
0.0
 15
0.0
 25
0.0
 35
0.0
146
0.0
 13
0.0
 23
0.0
 33
0.0
 16
1.0
 26
0.0
 36
0.0
 17
0.0
 27
1.0
 37
0.0
 76
0
330
212
345
0
346
0
  0
LAYOUT
  5
845
102
{ACAD_REACTORS
330
1A
102
}
100
AcDbPlotSettings
  1

  2
none_device
  4
ISO_A4_(297.00_x_210.00_MM)
  6

 40
0.0
 41
0.0
 42
0.0
 43
0.0
 44
297.0
 45
210.0
 46
0.0
 47
0.0
 48
0.0
 49
0.0
140
0.0
141
0.0
142
1.0
143
1.0
 70
0
 72
1
 73
0
 74
0
  7

 75
0
147
1.0
148
0.0
149
0.0
100
AcDbLayout
  1
Layout1
 70
0
 71
1
 10
0.0
 20
0.0
 11
297.0
 21
210.0
 12
0.0
 22
0.0
 32
0.0
 14
0.0
 24
0.0
 34
0.0
 15
0.0
 25
0.0
 35
0.0
146
0.0
 13
0.0
 23
0.0
 33
0.0
 16
1.0
 26
0.0
 36
0.0
 17
0.0
 27
1.0
 37
0.0
 76
0
330
213
345
0
346
0
  0
ENDSEC
  0
EOF
