  0
SECTION
  2
HEADER
  9
$ACADVER
  1
AC1024
  9
$DWGCODEPAGE
  3
ANSI_1252
  9
$EXTMAX
 10
210.0
 20
297.0
 30
0.0
  9
$EXTMIN
 10
0.0
 20
0.0
 30
0.0
  9
$LIMMIN
 10
0.0
 20
0.0
  9
$LIMMAX
 10
210.0
 20
297.0
  9
$VIEWCTR
 10
105.0
 20
148.5
  9
$VIEWSIZE
 40
297.0
  9
$CLAYER
  8
0
  9
$LTSCALE
 40
19.36
  9
$CELTYPE
  6
BYLAYER
  9
$DIMSCALE
 40
1.0
  9
$DIMASZ
 40
3.0
  9
$DIMEXO
 40
0.5
  9
$DIMDLI
 40
13.376
  9
$DIMEXE
 40
1.5
  9
$DIMCEN
 40
3.168
  9
$DIMLFAC
 40
1.0
  9
$DIMBLK
  1
_FILLED
  9
$DIMALT
 70
0
  9
$DIMALTF
 40
0.0393700787
  9
$DIMTXT
 40
3.0
  9
$DIMTOL
 70
1
  9
$DIMLIM
 70
0
  9
$DIMTFAC
 40
1.0
  9
$DIMTP
 40
0.01
  9
$DIMTM
 40
0.01
  9
$DIMGAP
 40
0.625
  9
$DIMDSEP
 70
44
  9
$AUNITS
 70
0
  9
$PDMODE
 70
3
  9
$PDSIZE
 40
3.0
  9
$HANDSEED
  5
2AD
  9
$TILEMODE
 70
1
  9
$MEASUREMENT
 70
1
  9
$INSUNITS
 70
4
  0
ENDSEC
  0
SECTION
  2
CLASSES
  0
CLASS
  1
ACDBDICTIONARYWDFLT
  2
AcDbDictionaryWithDefault
  3
AutoCAD 2000
 90
0
 91
1
280
0
281
0
  0
CLASS
  1
ACDBPLACEHOLDER
  2
AcDbPlaceHolder
  3
AutoCAD 2000
 90
0
 91
1
280
0
281
0
  0
CLASS
  1
LAYOUT
  2
AcDbLayout
  3
AutoCAD 2000
 90
0
 91
0
280
0
281
0
  0
ENDSEC
  0
SECTION
  2
TABLES
  0
TABLE
  2
VPORT
  5
8
100
AcDbSymbolTable
 70
2
  0
VPORT
  5
1F4
100
AcDbSymbolTableRecord
100
AcDbViewportTableRecord
  2
*ACTIVE
 70
0
 10
0.0
 20
0.0
 11
1.0
 21
1.0
 12
105.0
 22
148.5
 13
0.0
 23
0.0
 14
1.0
 24
1.0
 15
0.0
 25
0.0
 16
0.0
 26
0.0
 36
1.0
 17
0.0
 27
0.0
 37
0.0
 40
297.0
 41
0.7070707071
 42
50.0
 43
0.0
 44
0.0
 50
0.0
 51
0.0
 71
0
 72
100
 73
1
 74
1
 75
0
 76
0
 77
0
 78
0
  0
ENDTAB
  0
TABLE
  2
LTYPE
  5
5
100
AcDbSymbolTable
 70
6
  0
LTYPE
  5
14
100
AcDbSymbolTableRecord
100
AcDbLinetypeTableRecord
  2
BYBLOCK
 70
0
  3

 72
65
 73
0
 40
0.0
  0
LTYPE
  5
15
100
AcDbSymbolTableRecord
100
AcDbLinetypeTableRecord
  2
BYLAYER
 70
0
  3

 72
65
 73
0
 40
0.0
  0
LTYPE
  5
16
100
AcDbSymbolTableRecord
100
AcDbLinetypeTableRecord
  2
CONTINUOUS
 70
64
  3
Solid line
 72
65
 73
0
 40
0.0
  0
LTYPE
  5
1F5
100
AcDbSymbolTableRecord
100
AcDbLinetypeTableRecord
  2
CENTER
 70
64
  3
____ _ ____ _ ____ _ ____ _ ____ _ ____ _ ____
 72
65
 73
4
 40
0.6
 49
0.375
 74
0
 49
-0.075
 74
0
 49
0.075
 74
0
 49
-0.075
 74
0
  0
LTYPE
  5
1F6
100
AcDbSymbolTableRecord
100
AcDbLinetypeTableRecord
  2
HIDDEN
 70
64
  3
- - - - - - - - - - - - - - - - - - - -
 72
65
 73
2
 40
0.2
 49
0.1
 74
0
 49
-0.1
 74
0
  0
LTYPE
  5
1F7
100
AcDbSymbolTableRecord
100
AcDbLinetypeTableRecord
  2
PHANTOM
 70
64
  3
_____ _ _ _____ _ _ _____ _ _ _____
 72
65
 73
6
 40
0.8
 49
0.45
 74
0
 49
-0.05
 74
0
 49
0.1
 74
0
 49
-0.05
 74
0
 49
0.1
 74
0
 49
-0.05
 74
0
  0
LTYPE
  5
1F8
100
AcDbSymbolTableRecord
100
AcDbLinetypeTableRecord
  2
DOT
 70
64
  3
. . . . . . . . . . . . . . . . . . . .
 72
65
 73
2
 40
0.2
 49
0.1
 74
0
 49
-0.1
 74
0
  0
LTYPE
  5
1F9
100
AcDbSymbolTableRecord
100
AcDbLinetypeTableRecord
  2
DASHED
 70
64
  3
- - - - - - - - - - - - - - - - - - - -
 72
65
 73
2
 40
0.2
 49
0.1
 74
0
 49
-0.1
 74
0
  0
ENDTAB
  0
TABLE
  2
LAYER
  5
2
100
AcDbSymbolTable
 70
36
  0
LAYER
  5
10
100
AcDbSymbolTableRecord
100
AcDbLayerTableRecord
  2
0
 70
0
 62
7
  6
CONTINUOUS
370
-3
390
F
  0
LAYER
  5
1FA
100
AcDbSymbolTableRecord
100
AcDbLayerTableRecord
  2
DEFAULT_1
 70
0
 62
7
  6
CENTER
370
-3
390
F
  0
LAYER
  5
1FB
100
AcDbSymbolTableRecord
100
AcDbLayerTableRecord
  2
DEFAULT_2
 70
0
 62
7
  6
HIDDEN
370
-3
390
F
  0
LAYER
  5
1FC
100
AcDbSymbolTableRecord
100
AcDbLayerTableRecord
  2
DEFAULT_3
 70
0
 62
7
  6
PHANTOM
370
-3
390
F
  0
LAYER
  5
1FD
100
AcDbSymbolTableRecord
100
AcDbLayerTableRecord
  2
ASSI
 70
0
 62
7
  6
CONTINUOUS
370
-3
390
F
  0
LAYER
  5
1FE
100
AcDbSymbolTableRecord
100
AcDbLayerTableRecord
  2
COORDINATE
 70
0
 62
7
  6
CONTINUOUS
370
-3
390
F
  0
LAYER
  5
1FF
100
AcDbSymbolTableRecord
100
AcDbLayerTableRecord
  2
COPY_PUBLISH
 70
0
 62
7
  6
CONTINUOUS
370
-3
390
F
  0
LAYER
  5
200
100
AcDbSymbolTableRecord
100
AcDbLayerTableRecord
  2
COSMETICI
 70
0
 62
7
  6
CONTINUOUS
370
-3
390
F
  0
LAYER
  5
201
100
AcDbSymbolTableRecord
100
AcDbLayerTableRecord
  2
CURVE
 70
0
 62
7
  6
CONTINUOUS
370
-3
390
F
  0
LAYER
  5
202
100
AcDbSymbolTableRecord
100
AcDbLayerTableRecord
  2
DRAFT
 70
0
 62
7
  6
CONTINUOUS
370
-3
390
F
  0
LAYER
  5
203
100
AcDbSymbolTableRecord
100
AcDbLayerTableRecord
  2
IMPORT_IGES
 70
0
 62
7
  6
CONTINUOUS
370
-3
390
F
  0
LAYER
  5
204
100
AcDbSymbolTableRecord
100
AcDbLayerTableRecord
  2
INTFCLR_1
 70
0
 62
7
  6
CONTINUOUS
370
-3
390
F
  0
LAYER
  5
205
100
AcDbSymbolTableRecord
100
AcDbLayerTableRecord
  2
INTF_2
 70
0
 62
7
  6
CONTINUOUS
370
-3
390
F
  0
LAYER
  5
206
100
AcDbSymbolTableRecord
100
AcDbLayerTableRecord
  2
INTF_5
 70
0
 62
7
  6
CONTINUOUS
370
-3
390
F
  0
LAYER
  5
207
100
AcDbSymbolTableRecord
100
AcDbLayerTableRecord
  2
INTF_9
 70
0
 62
7
  6
CONTINUOUS
370
-3
390
F
  0
LAYER
  5
208
100
AcDbSymbolTableRecord
100
AcDbLayerTableRecord
  2
NOTE
 70
0
 62
7
  6
CONTINUOUS
370
-3
390
F
  0
LAYER
  5
209
100
AcDbSymbolTableRecord
100
AcDbLayerTableRecord
  2
PIANI
 70
0
 62
7
  6
CONTINUOUS
370
-3
390
F
  0
LAYER
  5
20A
100
AcDbSymbolTableRecord
100
AcDbLayerTableRecord
  2
PUNTI
 70
0
 62
7
  6
CONTINUOUS
370
-3
390
F
  0
LAYER
  5
20B
100
AcDbSymbolTableRecord
100
AcDbLayerTableRecord
  2
RACCORDO
 70
0
 62
7
  6
CONTINUOUS
370
-3
390
F
  0
LAYER
  5
20C
100
AcDbSymbolTableRecord
100
AcDbLayerTableRecord
  2
SIMBOLI
 70
0
 62
7
  6
CONTINUOUS
370
-3
390
F
  0
LAYER
  5
20D
100
AcDbSymbolTableRecord
100
AcDbLayerTableRecord
  2
SMUSSO
 70
0
 62
7
  6
CONTINUOUS
370
-3
390
F
  0
LAYER
  5
20E
100
AcDbSymbolTableRecord
100
AcDbLayerTableRecord
  2
SNAPLINE
 70
0
 62
7
  6
CONTINUOUS
370
-3
390
F
  0
LAYER
  5
20F
100
AcDbSymbolTableRecord
100
AcDbLayerTableRecord
  2
SUPERFICI
 70
0
 62
7
  6
CONTINUOUS
370
-3
390
F
  0
LAYER
  5
210
100
AcDbSymbolTableRecord
100
AcDbLayerTableRecord
  2
TRASH
 70
0
 62
7
  6
CONTINUOUS
370
-3
390
F
  0
ENDTAB
  0
TABLE
  2
STYLE
  5
3
100
AcDbSymbolTable
 70
1
  0
STYLE
  5
11
100
AcDbSymbolTableRecord
100
AcDbTextStyleTableRecord
  2
STANDARD
 70
0
 40
0.0
 41
0.8
 50
0.0
 71
0
 42
0.2
  3
txt
  4

  0
STYLE
  5
211
100
AcDbSymbolTableRecord
100
AcDbTextStyleTableRecord
  2
TEXTSTYLE_1
 70
0
 40
0.0
 41
0.8
 50
0.0
 71
0
 42
0.2
  3
gdt
  4

  0
ENDTAB
  0
TABLE
  2
VIEW
  5
6
100
AcDbSymbolTable
 70
0
  0
ENDTAB
  0
TABLE
  2
UCS
  5
7
100
AcDbSymbolTable
 70
0
  0
ENDTAB
  0
TABLE
  2
APPID
  5
9
100
AcDbSymbolTable
 70
1
  0
APPID
  5
212
100
AcDbSymbolTableRecord
100
AcDbRegAppTableRecord
  2
ACAD
 70
0
  0
ENDTAB
  0
TABLE
  2
BLOCK_RECORD
  5
1
100
AcDbSymbolTable
 70
0
  0
BLOCK_RECORD
  5
213
100
AcDbSymbolTableRecord
100
AcDbBlockTableRecord
  2
*Model_Space
  0
BLOCK_RECORD
  5
214
100
AcDbSymbolTableRecord
100
AcDbBlockTableRecord
  2
*Paper_Space
  0
BLOCK_RECORD
  5
215
100
AcDbSymbolTableRecord
100
AcDbBlockTableRecord
  2
_FILLED
  0
ENDTAB
  0
TABLE
  2
DIMSTYLE
  5
A
100
AcDbSymbolTable
 70
1
100
AcDbDimStyleTable
 71
0
  0
DIMSTYLE
105
216
100
AcDbSymbolTableRecord
100
AcDbDimStyleTableRecord
  2
STANDARD
 70
0
  3

  4

 40
1.0
 41
3.0
 42
0.5
 43
0.38
 44
1.5
 45
0.0
 46
0.0
 47
0.01
 48
0.01
140
3.0
141
0.09
142
0.0
143
25.4
144
1.0
145
0.0
146
1.0
147
0.625
 71
1
 72
0
 73
0
 74
0
 75
0
 76
0
 77
1
 78
8
 79
2
170
0
171
1
172
0
173
0
174
0
175
0
176
0
177
0
178
0
270
2
179
2
271
2
272
2
273
2
274
2
275
0
280
0
281
0
282
0
283
1
284
8
285
0
286
0
287
3
288
0
340
11
278
44
341
215
342
215
343
215
344
215
  0
ENDTAB
  0
ENDSEC
  0
SECTION
  2
BLOCKS
  0
BLOCK
  5
20
100
AcDbEntity
  8
0
100
AcDbBlockBegin
  2
*Model_Space
 70
0
 10
0.0
 20
0.0
 30
0.0
  3
*Model_Space
  1

  0
ENDBLK
  5
21
100
AcDbEntity
  8
0
100
AcDbBlockEnd
  0
BLOCK
  5
1C
100
AcDbEntity
  8
0
100
AcDbBlockBegin
  2
*Paper_Space
 70
0
 10
0.0
 20
0.0
 30
0.0
  3
*Paper_Space
  1

  0
ENDBLK
  5
1D
100
AcDbEntity
  8
0
100
AcDbBlockEnd
  0
BLOCK
  5
217
100
AcDbEntity
  8
0
100
AcDbBlockBegin
  2
_FILLED
 70
64
 10
0.0
 20
0.0
  3
_FILLED
  1

  0
SOLID
  5
218
100
AcDbEntity
  8
0
  6
BYBLOCK
 62
0
100
AcDbTrace
 10
0.0
 20
0.0
 11
-1.0
 21
0.3166666667
 12
-1.0
 22
-0.3166666667
 13
-1.0
 23
-0.3166666667
  0
ENDBLK
  5
219
100
AcDbEntity
  8
0
  6
BYBLOCK
 62
0
100
AcDbBlockEnd
  0
ENDSEC
  0
SECTION
  2
ENTITIES
  0
LWPOLYLINE
  5
21A
100
AcDbEntity
  8
RACCORDO
100
AcDbPolyline
 62
7
  6
CONTINUOUS
 90
16
 70
0
 10
-10.196955766
 20
20.690825552
 10
-10.2494984919
 20
20.653571561
 10
-10.3291847054
 20
20.5890021562
 10
-10.4042915651
 20
20.5183290231
 10
-10.4748563459
 20
20.4420570103
 10
-10.5407904661
 20
20.3606881509
 10
-10.6017111529
 20
20.2749829511
 10
-10.6574441743
 20
20.1854594813
 10
-10.7077465235
 20
20.0925484587
 10
-10.7521513495
 20
19.9971446663
 10
-10.7904248786
 20
19.8996911077
 10
-10.8222511603
 20
19.8005945507
 10
-10.8472296645
 20
19.700553464
 10
-10.8649860969
 20
19.5999009421
 10
-10.8751098012
 20
19.4989050069
 10
-10.8766240361
 20
19.4674507873
  0
LINE
  5
21B
100
AcDbEntity
  8
RACCORDO
100
AcDbLine
 62
7
  6
CONTINUOUS
 10
-8.4186016683
 20
21.8833667497
 11
-10.1971282732
 21
20.6907224033
  0
LWPOLYLINE
  5
21C
100
AcDbEntity
  8
RACCORDO
100
AcDbPolyline
 62
250
  6
CONTINUOUS
 90
19
 70
0
 10
-8.1690621693
 20
21.8580902292
 10
-10.0074750879
 20
20.6253444866
 10
-10.0770533921
 20
20.5721921677
 10
-10.1454011612
 20
20.5133298699
 10
-10.2120119994
 20
20.4491302747
 10
-10.2764409978
 20
20.3800257503
 10
-10.3383070059
 20
20.3065036325
 10
-10.3971799759
 20
20.2290426368
 10
-10.4526388343
 20
20.1481535948
 10
-10.5043476582
 20
20.064411057
 10
-10.5519470632
 20
19.9783710111
 10
-10.5950994663
 20
19.8905977179
 10
-10.6335462749
 20
19.8017026149
 10
-10.6670206723
 20
19.7122857201
 10
-10.6952882241
 20
19.6229278814
 10
-10.7181874033
 20
19.5342182639
 10
-10.7355659874
 20
19.4467456716
 10
-10.7472870383
 20
19.3610944098
 10
-10.7532655628
 20
19.2778368306
  0
LWPOLYLINE
  5
21D
100
AcDbEntity
  8
RACCORDO
100
AcDbPolyline
 62
7
  6
CONTINUOUS
 90
12
 70
0
 10
4.398728705
 20
-23.926221221
 10
4.4554014049
 20
-23.9520977276
 10
4.5186730251
 20
-23.9746524584
 10
4.5843464173
 20
-23.9917014102
 10
4.652035754
 20
-24.0030485082
 10
4.7212709655
 20
-24.0085314281
 10
4.792085193
 20
-24.0080546255
 10
4.8641482945
 20
-24.0014775944
 10
4.937080036
 20
-23.9886860307
 10
5.0110058579
 20
-23.9694454076
 10
5.0858000211
 20
-23.9435235437
 10
5.1677499158
 20
-23.9075438758
  0
LWPOLYLINE
  5
21E
100
AcDbEntity
  8
RACCORDO
100
AcDbPolyline
 62
250
  6
CONTINUOUS
 90
13
 70
0
 10
4.1368514464
 20
-23.4110906553
 10
4.1855733703
 20
-23.4324263724
 10
4.2385284982
 20
-23.4498880103
 10
4.2949156298
 20
-23.463211378
 10
4.3538816391
 20
-23.4721948957
 10
4.4145343824
 20
-23.4767026445
 10
4.475956196
 20
-23.476666423
 10
4.5372177803
 20
-23.4720867793
 10
4.59739226
 20
-23.4630330024
 10
4.6555692074
 20
-23.4496420741
 10
4.7108684171
 20
-23.4321165963
 10
4.7624532233
 20
-23.4107217261
 10
4.8095431582
 20
-23.3857811635
  0
LINE
  5
21F
100
AcDbEntity
  8
RACCORDO
100
AcDbLine
 62
7
  6
CONTINUOUS
 10
4.3989763531
 20
-23.9263516285
 11
4.3988182518
 21
-23.9262713333
  0
LWPOLYLINE
  5
220
100
AcDbEntity
  8
RACCORDO
100
AcDbPolyline
 62
250
  6
CONTINUOUS
 90
11
 70
0
 10
4.3988182518
 20
-23.9262713333
 10
4.3778509251
 20
-23.9147927155
 10
4.3316225778
 20
-23.8829276378
 10
4.2897010018
 20
-23.8442749938
 10
4.2524003977
 20
-23.7991154976
 10
4.2199620714
 20
-23.7477557834
 10
4.1925787663
 20
-23.6905300519
 10
4.1704493717
 20
-23.6278193687
 10
4.1537245321
 20
-23.5600376658
 10
4.1425013673
 20
-23.4876341066
 10
4.1368514275
 20
-23.4110906569
  0
LWPOLYLINE
  5
221
100
AcDbEntity
  8
RACCORDO
100
AcDbPolyline
 62
7
  6
CONTINUOUS
 90
10
 70
0
 10
-10.5218963726
 20
-15.3110814981
 10
-9.0317734497
 20
-16.2771246308
 10
-7.4315113187
 20
-17.285428448
 10
-5.8048856304
 20
-18.280875016
 10
-4.1522666797
 20
-19.2632325939
 10
-2.4740291335
 20
-20.2322755401
 10
-0.7705616354
 20
-21.187787151
 10
0.9577303808
 20
-22.1295579481
 10
2.7104318181
 20
-23.0573813841
 10
4.3989793244
 20
-23.9263531367
  0
LINE
  5
222
100
AcDbEntity
  8
RACCORDO
100
AcDbLine
 62
7
  6
CONTINUOUS
 10
-10.5218997084
 20
-15.3110793053
 11
-10.5216887614
 21
-15.3112178833
  0
LWPOLYLINE
  5
223
100
AcDbEntity
  8
RACCORDO
100
AcDbPolyline
 62
250
  6
CONTINUOUS
 90
31
 70
0
 10
-10.7532655408
 20
-14.813723715
 10
-10.3026054019
 20
-15.1097752914
 10
-9.8498908519
 20
-15.4046008038
 10
-9.3951323942
 20
-15.6981962731
 10
-8.9384258955
 20
-15.9905033756
 10
-8.4796973262
 20
-16.2815729929
 10
-8.0186987858
 20
-16.5715631058
 10
-7.5553216919
 20
-16.8605398509
 10
-7.089687892
 20
-17.1484251596
 10
-6.6218928789
 20
-17.4351595168
 10
-6.1519897903
 20
-17.7207109362
 10
-5.6799428857
 20
-18.0051016994
 10
-5.2057149808
 20
-18.2883540387
 10
-4.7291976733
 20
-18.5705313033
 10
-4.2505141925
 20
-18.8515590072
 10
-3.7699782803
 20
-19.1312546179
 10
-3.2878787181
 20
-19.4094562087
 10
-2.8039534267
 20
-19.6863214587
 10
-2.3176871642
 20
-19.9621456679
 10
-1.8301545592
 20
-20.2363228698
 10
-1.3403013499
 20
-20.5094512631
 10
-0.8443646306
 20
-20.783599954
 10
-0.3431778936
 20
-21.0582538442
 10
0.1641685116
 20
-21.333861198
 10
0.6841811051
 20
-21.6138571113
 10
1.2174730672
 20
-21.8984101037
 10
1.7636857314
 20
-22.1871698419
 10
2.3280173501
 20
-22.4826982943
 10
2.9123626058
 20
-22.7857364538
 10
3.5152392847
 20
-23.0952502716
 10
4.1368514437
 20
-23.4110906413
  0
LWPOLYLINE
  5
224
100
AcDbEntity
  8
RACCORDO
100
AcDbPolyline
 62
250
  6
CONTINUOUS
 90
7
 70
0
 10
-10.7532505069
 20
-14.8137154481
 10
-10.7907796427
 20
-14.7852513377
 10
-10.8220474965
 20
-14.7540844105
 10
-10.846581007
 20
-14.7206862009
 10
-10.8640089987
 20
-14.6855620012
 10
-10.8740677982
 20
-14.6492432165
 10
-10.8765873224
 20
-14.6253333936
  0
LINE
  5
225
100
AcDbEntity
  8
DRAFT
100
AcDbLine
 62
7
  6
CONTINUOUS
 10
-6.4208492841
 20
20.2407868745
 11
-6.2094329507
 21
20.7266248783
  0
LWPOLYLINE
  5
226
100
AcDbEntity
  8
RACCORDO
100
AcDbPolyline
 62
250
  6
CONTINUOUS
 90
9
 70
0
 10
-10.7532655426
 20
-14.8137237084
 10
-10.747287019
 20
-14.8904568846
 10
-10.7355659677
 20
-14.9631479201
 10
-10.7181873827
 20
-15.0313070875
 10
-10.6952882029
 20
-15.0944622325
 10
-10.6670206513
 20
-15.1521985132
 10
-10.6335462544
 20
-15.2041564393
 10
-10.5950994459
 20
-15.2499777383
 10
-10.5526730368
 20
-15.2886787993
  0
LWPOLYLINE
  5
227
100
AcDbEntity
  8
RACCORDO
100
AcDbPolyline
 62
7
  6
CONTINUOUS
 90
13
 70
0
 10
-10.876574536
 20
-14.6253329131
 10
-10.8761687421
 20
-14.6350488125
 10
-10.8692640693
 20
-14.7173453357
 10
-10.8565240977
 20
-14.7957072842
 10
-10.8382984752
 20
-14.869777605
 10
-10.81487909
 20
-14.9396479609
 10
-10.7864071614
 20
-15.0056352964
 10
-10.7531789744
 20
-15.0674651211
 10
-10.7154809398
 20
-15.1249393555
 10
-10.6733460317
 20
-15.1782042392
 10
-10.6271495043
 20
-15.2269105046
 10
-10.577245781
 20
-15.2708107685
 10
-10.52160188
 20
-15.3112721403
  0
LWPOLYLINE
  5
228
100
AcDbEntity
  8
RACCORDO
100
AcDbPolyline
 62
7
  6
CONTINUOUS
 90
13
 70
0
 10
-11.1848413836
 20
2.7025190795
 10
-11.1842715216
 20
2.6795961031
 10
-11.1806695712
 20
2.6418372744
 10
-11.1737035074
 20
2.6041795143
 10
-11.1633713351
 20
2.5670236531
 10
-11.1496969185
 20
2.5306820131
 10
-11.1326833798
 20
2.4953668308
 10
-11.1124013682
 20
2.4613869733
 10
-11.0890259112
 20
2.4291239049
 10
-11.0627060494
 20
2.3988344231
 10
-11.0335953954
 20
2.3707488972
 10
-11.0019262114
 20
2.3451161883
 10
-10.9879133105
 20
2.3351187551
  0
LWPOLYLINE
  5
229
100
AcDbEntity
  8
RACCORDO
100
AcDbPolyline
 62
250
  6
CONTINUOUS
 90
9
 70
0
 10
-11.1848454177
 20
1.7662774795
 10
-11.1847601979
 20
1.7614237618
 10
-11.1814998072
 20
1.7333627827
 10
-11.1735517709
 20
1.705630443
 10
-11.1609919168
 20
1.6784840645
 10
-11.14393396
 20
1.6521726057
 10
-11.1225335757
 20
1.6269427788
 10
-11.0969915029
 20
1.6030359808
 10
-11.0675464035
 20
1.5806790569
  0
LINE
  5
22A
100
AcDbEntity
  8
RACCORDO
100
AcDbLine
 62
250
  6
CONTINUOUS
 10
-11.1847602426
 20
2.6966541914
 11
-11.1848461729
 21
2.7021588867
  0
LWPOLYLINE
  5
22B
100
AcDbEntity
  8
RACCORDO
100
AcDbPolyline
 62
7
  6
CONTINUOUS
 90
10
 70
0
 10
-11.1848461278
 20
1.7666268603
 10
-11.1796691861
 20
-0.0199885136
 10
-11.1671174642
 20
-1.8685035452
 10
-11.1472502433
 20
-3.7126691476
 10
-11.1200664161
 20
-5.5524444656
 10
-11.0855659763
 20
-7.3877916275
 10
-11.0437489925
 20
-9.2186737367
 10
-10.9946160787
 20
-11.0450500783
 10
-10.9381687107
 20
-12.8668745193
 10
-10.876595996
 20
-14.625103007
  0
LWPOLYLINE
  5
22C
100
AcDbEntity
  8
RACCORDO
100
AcDbPolyline
 62
250
  6
CONTINUOUS
 90
10
 70
0
 10
-11.0675464052
 20
1.5806790572
 10
-11.0627087645
 20
-0.1137282341
 10
-11.0514169421
 20
-1.8309578439
 10
-11.0333715075
 20
-3.5708017287
 10
-11.0084732689
 20
-5.3202416487
 10
-10.9763108433
 20
-7.091923768
 10
-10.9356552024
 20
-8.9238544417
 10
-10.8853550212
 20
-10.828222998
 10
-10.8248419364
 20
-12.7917049294
 10
-10.7532655408
 20
-14.813723715
  0
LWPOLYLINE
  5
22D
100
AcDbEntity
  8
RACCORDO
100
AcDbPolyline
 62
7
  6
CONTINUOUS
 90
10
 70
0
 10
-10.8766248218
 20
19.4677803844
 10
-10.9380146118
 20
17.6403707378
 10
-10.9944775049
 20
15.7500344655
 10
-11.0436269915
 20
13.8640296856
 10
-11.0854615459
 20
11.9824032396
 10
-11.1199805332
 20
10.1051959178
 10
-11.1471837132
 20
8.2324455864
 10
-11.1670709742
 20
6.3641905644
 10
-11.179643385
 20
4.5004703553
 10
-11.1848461734
 20
2.7021584008
  0
LWPOLYLINE
  5
22E
100
AcDbEntity
  8
RACCORDO
100
AcDbPolyline
 62
250
  6
CONTINUOUS
 90
10
 70
0
 10
-10.753265537
 20
19.2778368392
 10
-10.8196286996
 20
17.33504884
 10
-10.8772434859
 20
15.4282126764
 10
-10.9264891978
 20
13.5571668428
 10
-10.9673094971
 20
11.742596163
 10
-11.0006596962
 20
9.9634029801
 10
-11.0277136835
 20
8.1571450156
 10
-11.0483016718
 20
6.3033454356
 10
-11.0617038931
 20
4.4230550502
 10
-11.0675463894
 20
2.5165278402
  0
LWPOLYLINE
  5
22F
100
AcDbEntity
  8
RACCORDO
100
AcDbPolyline
 62
250
  6
CONTINUOUS
 90
16
 70
0
 10
-10.7598524641
 20
2.1324373444
 10
-10.7662576966
 20
2.1280488448
 10
-10.7718288035
 20
2.1234131017
 10
-10.776565785
 20
2.1185301149
 10
-10.7804996179
 20
2.1133478232
 10
-10.7835993253
 20
2.1079182879
 10
-10.7857719765
 20
2.1023976931
 10
-10.7869892315
 20
2.096784944
 10
-10.7872794303
 20
2.0910811353
 10
-10.7866346624
 20
2.0854457354
 10
-10.7850249366
 20
2.0798780129
 10
-10.782480244
 20
2.0743786991
 10
-10.7790826477
 20
2.069109456
 10
-10.7748595019
 20
2.0641241708
 10
-10.7697834523
 20
2.0593689563
 10
-10.763854499
 20
2.0548438124
  0
LWPOLYLINE
  5
230
100
AcDbEntity
  8
RACCORDO
100
AcDbPolyline
 62
7
  6
CONTINUOUS
 90
11
 70
0
 10
-10.9680672861
 20
2.1472936193
 10
-10.9999822454
 20
2.1257413566
 10
-11.0383630688
 20
2.0943056928
 10
-11.072773079
 20
2.0594541352
 10
-11.1027690163
 20
2.0218220926
 10
-11.1282418989
 20
1.9817821121
 10
-11.1492196753
 20
1.9394319046
 10
-11.165463108
 20
1.8953429176
 10
-11.1768181638
 20
1.8501363272
 10
-11.1832712289
 20
1.8039982543
 10
-11.1848408676
 20
1.7663573761
  0
LINE
  5
231
100
AcDbEntity
  8
RACCORDO
100
AcDbLine
 62
7
  6
CONTINUOUS
 10
-10.8341764798
 20
2.2301553737
 11
-10.9678618989
 21
2.1474325754
  0
LINE
  5
232
100
AcDbEntity
  8
RACCORDO
100
AcDbLine
 62
250
  6
CONTINUOUS
 10
-10.7237519949
 20
2.1547758452
 11
-10.7598524641
 21
2.1324373444
  0
LINE
  5
233
100
AcDbEntity
  8
RACCORDO
100
AcDbLine
 62
250
  6
CONTINUOUS
 10
4.9297929399
 20
12.0884498696
 11
6.7929767937
 21
13.2191964503
  0
LINE
  5
234
100
AcDbEntity
  8
RACCORDO
100
AcDbLine
 62
250
  6
CONTINUOUS
 10
5.2924737824
 20
11.4820468885
 11
7.1777638812
 21
12.6262095155
  0
LWPOLYLINE
  5
235
100
AcDbEntity
  8
RACCORDO
100
AcDbPolyline
 62
250
  6
CONTINUOUS
 90
13
 70
0
 10
-10.763854499
 20
2.0548438124
 10
-10.8036039136
 20
2.0324126965
 10
-10.8426378654
 20
2.0048513953
 10
-10.8802948463
 20
1.9726269899
 10
-10.9159366833
 20
1.9362855873
 10
-10.9489593544
 20
1.8964430652
 10
-10.9788032245
 20
1.8537746347
 10
-11.0049625294
 20
1.8090033977
 10
-11.0269939477
 20
1.7628880922
 10
-11.0445241127
 20
1.7162102342
 10
-11.0572559409
 20
1.6697608732
 10
-11.0649736661
 20
1.6243271865
 10
-11.0675464958
 20
1.5806791388
  0
LWPOLYLINE
  5
236
100
AcDbEntity
  8
RACCORDO
100
AcDbPolyline
 62
250
  6
CONTINUOUS
 90
19
 70
0
 10
-7.4391786159
 20
-0.8028952754
 10
-7.4081606987
 20
-0.9281065491
 10
-7.3713568335
 20
-1.0531883564
 10
-7.3287616513
 20
-1.1781378257
 10
-7.2800802388
 20
-1.3036352665
 10
-7.2255919974
 20
-1.4289919518
 10
-7.1661538531
 20
-1.5521519117
 10
-7.1017148502
 20
-1.6729955395
 10
-7.0323093133
 20
-1.7916333575
 10
-6.9589266065
 20
-1.9063570925
 10
-6.8815104294
 20
-2.0171098145
 10
-6.8001011017
 20
-2.123939625
 10
-6.7158388387
 20
-2.225299065
 10
-6.6286065245
 20
-2.3211664558
 10
-6.5385084267
 20
-2.4115562648
 10
-6.4470249488
 20
-2.494979745
 10
-6.3546499462
 20
-2.5709408134
 10
-6.2608849577
 20
-2.6399328309
 10
-6.1657263181
 20
-2.7019536517
  0
LINE
  5
237
100
AcDbEntity
  8
DRAFT
100
AcDbLine
 62
7
  6
CONTINUOUS
 10
-6.2094329507
 20
20.7266248783
 11
-6.1880985717
 21
20.1063995303
  0
LWPOLYLINE
  5
238
100
AcDbEntity
  8
RACCORDO
100
AcDbPolyline
 62
250
  6
CONTINUOUS
 90
6
 70
0
 10
-6.8772526737
 20
0.0397806903
 10
-6.8878024905
 20
0.0132740408
 10
-6.9012272127
 20
-0.0100931293
 10
-6.9173767617
 20
-0.0300594628
 10
-6.9360706443
 20
-0.0464016704
 10
-6.9494444681
 20
-0.0549678426
  0
LWPOLYLINE
  5
239
100
AcDbEntity
  8
RACCORDO
100
AcDbPolyline
 62
250
  6
CONTINUOUS
 90
19
 70
0
 10
-1.6608549955
 20
-5.3030098941
 10
-1.5606058493
 20
-5.3538306817
 10
-1.4616513344
 20
-5.396130438
 10
-1.3639950512
 20
-5.4299112779
 10
-1.2671123928
 20
-5.4552726377
 10
-1.1715324547
 20
-5.4721177347
 10
-1.0788436371
 20
-5.4801569121
 10
-0.9891698489
 20
-5.4792390401
 10
-0.9023995164
 20
-5.4695226847
 10
-0.8197756739
 20
-5.4511874508
 10
-0.7413674869
 20
-5.4241292039
 10
-0.6671210715
 20
-5.3884613648
 10
-0.598100577
 20
-5.3446932818
 10
-0.5343570794
 20
-5.292664745
 10
-0.4758551912
 20
-5.2325455429
 10
-0.4235336956
 20
-5.1653425945
 10
-0.3777114272
 20
-5.0913951217
 10
-0.338084155
 20
-5.0103728048
 10
-0.3046568735
 20
-4.9222787129
  0
LWPOLYLINE
  5
23A
100
AcDbEntity
  8
RACCORDO
100
AcDbPolyline
 62
250
  6
CONTINUOUS
 90
10
 70
0
 10
-6.1657263181
 20
-2.7019536517
 10
-5.6768074512
 20
-2.9977702239
 10
-5.1849659305
 20
-3.2918941287
 10
-4.6902112301
 20
-3.584319839
 10
-4.1925596084
 20
-3.8750378867
 10
-3.6920138367
 20
-4.1640467377
 10
-3.1885630167
 20
-4.4513526857
 10
-2.6822098078
 20
-4.736954132
 10
-2.1729706095
 20
-5.0208416909
 10
-1.6608549955
 20
-5.3030098941
  0
LWPOLYLINE
  5
23B
100
AcDbEntity
  8
RACCORDO
100
AcDbPolyline
 62
250
  6
CONTINUOUS
 90
19
 70
0
 10
-6.8772526734
 20
-0.7065281859
 10
-6.8532316216
 20
-0.8050963503
 10
-6.8243615728
 20
-0.9045627057
 10
-6.7907699613
 20
-1.0044423151
 10
-6.7526032249
 20
-1.1043132937
 10
-6.7100404001
 20
-1.2036136238
 10
-6.6633184142
 20
-1.3016497469
 10
-6.6127261771
 20
-1.3978718933
 10
-6.5584937525
 20
-1.4918816945
 10
-6.5008175599
 20
-1.5832291036
 10
-6.4399973975
 20
-1.6714619538
 10
-6.3763443252
 20
-1.7561508479
 10
-6.3100861334
 20
-1.8368920871
 10
-6.2415059779
 20
-1.9133360675
 10
-6.1710065841
 20
-1.9850357937
 10
-6.0990180697
 20
-2.0514898224
 10
-6.0259403668
 20
-2.1123448382
 10
-5.9521316739
 20
-2.1673692381
 10
-5.8779737277
 20
-2.2163124356
  0
LINE
  5
23C
100
AcDbEntity
  8
DRAFT
100
AcDbLine
 62
7
  6
CONTINUOUS
 10
1.4987466652
 20
15.6681114293
 11
1.7101629986
 21
16.153949433
  0
LWPOLYLINE
  5
23D
100
AcDbEntity
  8
RACCORDO
100
AcDbPolyline
 62
250
  6
CONTINUOUS
 90
8
 70
0
 10
-6.6180801233
 20
0.3940838735
 10
-6.6631899568
 20
0.3646618492
 10
-6.7099251462
 20
0.3255216402
 10
-6.7525051758
 20
0.2799820782
 10
-6.7906945689
 20
0.2283312462
 10
-6.8243124996
 20
0.1708780445
 10
-6.8532086462
 20
0.1079159709
 10
-6.8772526734
 20
0.0397806911
  0
LWPOLYLINE
  5
23E
100
AcDbEntity
  8
RACCORDO
100
AcDbPolyline
 62
250
  6
CONTINUOUS
 90
13
 70
0
 10
-7.1473541531
 20
-0.320874776
 10
-7.1859409401
 20
-0.34508947
 10
-7.2233715161
 20
-0.373552809
 10
-7.2592911951
 20
-0.4060790927
 10
-7.2932404015
 20
-0.4430117478
 10
-7.3249307564
 20
-0.4839834284
 10
-7.3539673648
 20
-0.5274764765
 10
-7.3791685728
 20
-0.5727314339
 10
-7.4000683585
 20
-0.6195576067
 10
-7.4171027226
 20
-0.6667507376
 10
-7.4299116087
 20
-0.7133788718
 10
-7.4374350031
 20
-0.7589738649
 10
-7.4391786159
 20
-0.8028952754
  0
LINE
  5
23F
100
AcDbEntity
  8
RACCORDO
100
AcDbLine
 62
250
  6
CONTINUOUS
 10
-6.6148102787
 20
0.3959427908
 11
-6.6180801233
 21
0.3940838735
  0
LINE
  5
240
100
AcDbEntity
  8
RACCORDO
100
AcDbLine
 62
250
  6
CONTINUOUS
 10
-6.2708506353
 20
0.3799738579
 11
-6.8772526734
 21
0.0397806911
  0
LINE
  5
241
100
AcDbEntity
  8
RACCORDO
100
AcDbLine
 62
7
  6
CONTINUOUS
 10
-6.9494444682
 20
-0.0549678426
 11
-6.2149188462
 21
0.356357199
  0
LWPOLYLINE
  5
242
100
AcDbEntity
  8
RACCORDO
100
AcDbPolyline
 62
7
  6
CONTINUOUS
 90
12
 70
0
 10
-6.6181253612
 20
0.3940440185
 10
-6.5943267067
 20
0.4060136119
 10
-6.5580888091
 20
0.4178257605
 10
-6.518670969
 20
0.4241760279
 10
-6.4760409754
 20
0.4254898106
 10
-6.4291738814
 20
0.4217822547
 10
-6.3789336491
 20
0.4129340683
 10
-6.326145569
 20
0.3990423567
 10
-6.2688223952
 20
0.3792744178
 10
-6.2063004094
 20
0.3526930506
 10
-6.140057647
 20
0.3192789376
 10
-6.0834582487
 20
0.2866897456
  0
LWPOLYLINE
  5
243
100
AcDbEntity
  8
RACCORDO
100
AcDbPolyline
 62
250
  6
CONTINUOUS
 90
16
 70
0
 10
4.0740748924
 20
-6.5123906823
 10
4.0818956493
 20
-6.5158044605
 10
4.0901040519
 20
-6.518719531
 10
4.0987001001
 20
-6.5211358937
 10
4.1077765535
 20
-6.5230690125
 10
4.1172406526
 20
-6.5245034235
 10
4.1268141185
 20
-6.5253927348
 10
4.1364954356
 20
-6.5257194869
 10
4.1462861195
 20
-6.5255011393
 10
4.1559124385
 20
-6.5247436784
 10
4.165372268
 20
-6.5234306089
 10
4.1746677326
 20
-6.5215784261
 10
4.183531475
 20
-6.5192426023
 10
4.191874376
 20
-6.5164416282
 10
4.1997855547
 20
-6.5131570131
 10
4.2072650112
 20
-6.5093887569
  0
LWPOLYLINE
  5
244
100
AcDbEntity
  8
RACCORDO
100
AcDbPolyline
 62
250
  6
CONTINUOUS
 90
16
 70
0
 10
3.8191217529
 20
-7.0146966117
 10
3.8578155061
 20
-7.0316822064
 10
3.8991765147
 20
-7.046404408
 10
3.9428120987
 20
-7.0587255329
 10
3.9883039493
 20
-7.0685295486
 10
4.0352256152
 20
-7.075727055
 10
4.0831478083
 20
-7.0802534865
 10
4.131625149
 20
-7.0820652256
 10
4.1801932972
 20
-7.0811435226
 10
4.2283877237
 20
-7.0774978843
 10
4.2757481528
 20
-7.0711634774
 10
4.3218331412
 20
-7.0621999223
 10
4.3662173345
 20
-7.050690503
 10
4.4084836957
 20
-7.0367415759
 10
4.4482285695
 20
-7.0204834541
 10
4.4850750784
 20
-7.0020681314
  0
LWPOLYLINE
  5
245
100
AcDbEntity
  8
RACCORDO
100
AcDbPolyline
 62
7
  6
CONTINUOUS
 90
13
 70
0
 10
3.9015925459
 20
-6.262155917
 10
3.9089942938
 20
-6.2656833307
 10
3.952541149
 20
-6.2836444074
 10
3.9969414175
 20
-6.2974923365
 10
4.0429040362
 20
-6.3076084385
 10
4.0900981945
 20
-6.3138757064
 10
4.1369602304
 20
-6.3161887898
 10
4.1838738655
 20
-6.3146621205
 10
4.2312191451
 20
-6.3091727841
 10
4.2774048229
 20
-6.2998160984
 10
4.3220824089
 20
-6.2866877618
 10
4.3660026839
 20
-6.2694283884
 10
4.3993152626
 20
-6.2530467018
  0
LWPOLYLINE
  5
246
100
AcDbEntity
  8
RACCORDO
100
AcDbPolyline
 62
250
  6
CONTINUOUS
 90
6
 70
0
 10
3.8191218119
 20
-6.0788478011
 10
3.1202380291
 20
-5.7364254051
 10
2.4259597241
 20
-5.3911220665
 10
1.7363090937
 20
-5.0429486279
 10
1.0513083147
 20
-4.6919159479
 10
0.3709791706
 20
-4.3380351373
  0
LWPOLYLINE
  5
247
100
AcDbEntity
  8
RACCORDO
100
AcDbPolyline
 62
250
  6
CONTINUOUS
 90
13
 70
0
 10
-1.3880663136
 20
-4.8087287661
 10
-1.308803383
 20
-4.8483765005
 10
-1.22980878
 20
-4.8815940717
 10
-1.1514637624
 20
-4.9081885773
 10
-1.0740858551
 20
-4.9279979904
 10
-0.9981158325
 20
-4.9408875567
 10
-0.9241058432
 20
-4.946790931
 10
-0.8524569782
 20
-4.945687678
 10
-0.7834554567
 20
-4.9375982152
 10
-0.7174568365
 20
-4.9225968874
 10
-0.6547781629
 20
-4.9007580099
 10
-0.5957113197
 20
-4.8721874975
 10
-0.5858851577
 20
-4.8665746361
  0
LWPOLYLINE
  5
248
100
AcDbEntity
  8
RACCORDO
100
AcDbPolyline
 62
250
  6
CONTINUOUS
 90
7
 70
0
 10
-0.3046568735
 20
-4.9222787129
 10
0.3709773121
 20
-5.2783930888
 10
1.0513053192
 20
-5.6315711182
 10
1.7363056983
 20
-5.9818014874
 10
2.4259566815
 20
-6.3290730886
 10
3.1202361068
 20
-6.673375067
 10
3.819121793
 20
-7.0146965858
  0
LWPOLYLINE
  5
249
100
AcDbEntity
  8
RACCORDO
100
AcDbPolyline
 62
250
  6
CONTINUOUS
 90
7
 70
0
 10
-0.0362164466
 20
-4.4267565641
 10
0.6369652283
 20
-4.7815881899
 10
1.3148936559
 20
-5.13352944
 10
1.9975688361
 20
-5.4825803142
 10
2.6849907689
 20
-5.8287408127
 10
3.3771594543
 20
-6.1720109354
 10
4.0740748924
 20
-6.5123906823
  0
LINE
  5
24A
100
AcDbEntity
  8
RACCORDO
100
AcDbLine
 62
250
  6
CONTINUOUS
 10
0.3709791706
 20
-4.3380351373
 11
-0.3046568735
 21
-3.9813175109
  0
LWPOLYLINE
  5
24B
100
AcDbEntity
  8
RACCORDO
100
AcDbPolyline
 62
7
  6
CONTINUOUS
 90
10
 70
0
 10
-0.2215921703
 20
-4.1649970787
 10
0.1861729406
 20
-4.3809165746
 10
0.6506072047
 20
-4.6244907119
 10
1.1172713928
 20
-4.8667454111
 10
1.5861501721
 20
-5.1076726713
 10
2.0572314457
 20
-5.3472661623
 10
2.5305064212
 20
-5.585521174
 10
3.0059630708
 20
-5.8224312909
 10
3.4835860622
 20
-6.0579884414
 10
3.9016188109
 20
-6.2621812707
  0
LWPOLYLINE
  5
24C
100
AcDbEntity
  8
RACCORDO
100
AcDbPolyline
 62
250
  6
CONTINUOUS
 90
8
 70
0
 10
3.9015875941
 20
-6.2621660848
 10
3.8934609771
 20
-6.257781676
 10
3.8715046652
 20
-6.2407917931
 10
3.8530231405
 20
-6.218068153
 10
3.8383296093
 20
-6.1899958534
 10
3.8276730828
 20
-6.1570506353
 10
3.8212341572
 20
-6.1197908213
 10
3.8191219529
 20
-6.0788478535
  0
LINE
  5
24D
100
AcDbEntity
  8
RACCORDO
100
AcDbLine
 62
250
  6
CONTINUOUS
 10
-0.2216946678
 20
-4.1649423465
 11
-0.2263922788
 21
-4.1622968799
  0
LWPOLYLINE
  5
24E
100
AcDbEntity
  8
RACCORDO
100
AcDbPolyline
 62
250
  6
CONTINUOUS
 90
10
 70
0
 10
-5.877971901
 20
-2.2163113687
 10
-5.3906870528
 20
-2.5111291194
 10
-4.9004951942
 20
-2.8042589445
 10
-4.4073963251
 20
-3.0957008441
 10
-3.9113790171
 20
-3.3854614153
 10
-3.4124546987
 20
-3.673534061
 10
-2.9106576553
 20
-3.9598989899
 10
-2.4059993154
 20
-4.2445496048
 10
-1.8984682506
 20
-4.527492503
 10
-1.3880644608
 20
-4.8087276844
  0
LWPOLYLINE
  5
24F
100
AcDbEntity
  8
RACCORDO
100
AcDbPolyline
 62
7
  6
CONTINUOUS
 90
19
 70
0
 10
-4.564693763
 20
-1.4446803427
 10
-4.6410495062
 20
-1.3974681565
 10
-4.7170212293
 20
-1.3442427944
 10
-4.7922275635
 20
-1.2852716155
 10
-4.8662903506
 20
-1.2208514042
 10
-4.9388385163
 20
-1.1513051876
 10
-5.0095097859
 20
-1.0769801709
 10
-5.0779503261
 20
-0.9982479749
 10
-5.1438153219
 20
-0.9155047434
 10
-5.2067727569
 20
-0.8291674115
 10
-5.2665061986
 20
-0.7396700512
 10
-5.3227162198
 20
-0.6474614238
 10
-5.3751206705
 20
-0.5530044333
 10
-5.4234563383
 20
-0.4567736134
 10
-5.4674807778
 20
-0.3592517566
 10
-5.5069733903
 20
-0.2609274293
 10
-5.5417359105
 20
-0.1622938908
 10
-5.5715935563
 20
-0.0638466517
 10
-5.5839675611
 20
-0.0150711995
  0
LINE
  5
250
100
AcDbEntity
  8
RACCORDO
100
AcDbLine
 62
7
  6
CONTINUOUS
 10
-7.7266577155
 20
0.1876383075
 11
-7.3573219096
 21
-0.0448918836
  0
LWPOLYLINE
  5
251
100
AcDbEntity
  8
RACCORDO
100
AcDbPolyline
 62
250
  6
CONTINUOUS
 90
6
 70
0
 10
-7.4391786159
 20
0.1380659266
 10
-8.0564686234
 20
0.5278674997
 10
-8.668759596
 20
0.9203292602
 10
-9.2760319297
 20
1.3154388286
 10
-9.8782663759
 20
1.7131836426
 10
-10.4754441232
 20
2.113550913
  0
LINE
  5
252
100
AcDbEntity
  8
RACCORDO
100
AcDbLine
 62
250
  6
CONTINUOUS
 10
-7.7624069749
 20
0.0681039542
 11
-7.1473541565
 21
-0.3208747739
  0
LWPOLYLINE
  5
253
100
AcDbEntity
  8
RACCORDO
100
AcDbPolyline
 62
250
  6
CONTINUOUS
 90
13
 70
0
 10
-7.1473541531
 20
-0.320874776
 10
-7.1176652872
 20
-0.3400503351
 10
-7.0882806531
 20
-0.3626474986
 10
-7.0595288469
 20
-0.38841363
 10
-7.0317313835
 20
-0.4170606639
 10
-7.0051991418
 20
-0.4482682842
 10
-6.9802288815
 20
-0.4816874933
 10
-6.9570998024
 20
-0.5169446875
 10
-6.9360706443
 20
-0.553645524
 10
-6.9173767617
 20
-0.5913792425
 10
-6.9012272127
 20
-0.6297237403
 10
-6.8878024905
 20
-0.6682503298
 10
-6.8772526737
 20
-0.7065281847
  0
LINE
  5
254
100
AcDbEntity
  8
RACCORDO
100
AcDbLine
 62
250
  6
CONTINUOUS
 10
-10.4754441232
 20
2.113550913
 11
-11.0675463894
 21
2.5165278402
  0
LWPOLYLINE
  5
255
100
AcDbEntity
  8
RACCORDO
100
AcDbPolyline
 62
250
  6
CONTINUOUS
 90
7
 70
0
 10
-11.0675464052
 20
1.5806790572
 10
-10.4754457641
 20
1.1766014135
 10
-9.8782690129
 20
0.7752328548
 10
-9.2760349172
 20
0.3765862046
 10
-8.6687622717
 20
-0.0193257255
 10
-8.0564703087
 20
-0.4124903518
 10
-7.4391786159
 20
-0.8028952754
  0
LWPOLYLINE
  5
256
100
AcDbEntity
  8
RACCORDO
100
AcDbPolyline
 62
250
  6
CONTINUOUS
 90
6
 70
0
 10
-10.763854499
 20
2.0548438124
 10
-10.1734072032
 20
1.6519163451
 10
-9.5780388029
 20
1.2517786256
 10
-8.9777492981
 20
0.854430654
 10
-8.3725386887
 20
0.4598724302
 10
-7.7624069749
 20
0.0681039542
  0
LWPOLYLINE
  5
257
100
AcDbEntity
  8
RACCORDO
100
AcDbPolyline
 62
7
  6
CONTINUOUS
 90
9
 70
0
 10
-10.9876059869
 20
2.3348916006
 10
-10.6298960694
 20
2.0907065817
 10
-10.2221771636
 20
1.8150729056
 10
-9.8120949153
 20
1.5406825476
 10
-9.399663551
 20
1.2675442433
 10
-8.9848943889
 20
0.9956647934
 10
-8.5677957586
 20
0.7250491091
 10
-8.1483788345
 20
0.4557040358
 10
-7.7266577155
 20
0.1876383075
  0
LWPOLYLINE
  5
258
100
AcDbEntity
  8
RACCORDO
100
AcDbPolyline
 62
250
  6
CONTINUOUS
 90
8
 70
0
 10
-11.067546437
 20
2.5165278154
 10
-11.0969915421
 20
2.5388534637
 10
-11.1225336185
 20
2.5627093185
 10
-11.1439340046
 20
2.5878687679
 10
-11.1609919619
 20
2.6140901573
 10
-11.1735518157
 20
2.6411277434
 10
-11.1814998518
 20
2.668734752
 10
-11.1846780959
 20
2.6959507515
  0
LWPOLYLINE
  5
259
100
AcDbEntity
  8
RACCORDO
100
AcDbPolyline
 62
250
  6
CONTINUOUS
 90
7
 70
0
 10
-7.357511543
 20
-0.0447727042
 10
-7.3791638626
 20
-0.0281584536
 10
-7.4000649283
 20
-0.004138421
 10
-7.4171005958
 20
0.0252975704
 10
-7.4299105724
 20
0.0596083856
 10
-7.4374347433
 20
0.0975559536
 10
-7.4391786159
 20
0.1380659266
  0
LWPOLYLINE
  5
25A
100
AcDbEntity
  8
RACCORDO
100
AcDbPolyline
 62
250
  6
CONTINUOUS
 90
7
 70
0
 10
-10.9879133105
 20
2.3351187551
 10
-11.0049491749
 20
2.3487016942
 10
-11.0269792954
 20
2.3734754592
 10
-11.0445084189
 20
2.4031858698
 10
-11.0572394837
 20
2.4373294319
 10
-11.0649567397
 20
2.4753275238
 10
-11.0675294044
 20
2.5165362024
  0
LINE
  5
25B
100
AcDbEntity
  8
RACCORDO
100
AcDbLine
 62
250
  6
CONTINUOUS
 10
-7.1473541565
 20
-0.3208747739
 11
-6.0916786388
 21
0.2914229385
  0
LINE
  5
25C
100
AcDbEntity
  8
RACCORDO
100
AcDbLine
 62
250
  6
CONTINUOUS
 10
-6.8772526734
 20
-0.7065281859
 11
-5.6317295624
 21
0.0134953832
  0
LWPOLYLINE
  5
25D
100
AcDbEntity
  8
RACCORDO
100
AcDbPolyline
 62
250
  6
CONTINUOUS
 90
16
 70
0
 10
-6.8772526737
 20
-0.7065281847
 10
-6.909784665
 20
-0.7230442096
 10
-6.9444013788
 20
-0.7387591628
 10
-6.9809714458
 20
-0.7534713165
 10
-7.0196188316
 20
-0.7668203413
 10
-7.0600582776
 20
-0.7787672658
 10
-7.1013729705
 20
-0.7894794793
 10
-7.1430150834
 20
-0.7984419162
 10
-7.1848306627
 20
-0.80541739
 10
-7.2262041628
 20
-0.8108878235
 10
-7.2665653642
 20
-0.8144661901
 10
-7.3055609708
 20
-0.8158148975
 10
-7.3427604874
 20
-0.8155170357
 10
-7.3776968044
 20
-0.8135791665
 10
-7.4099533173
 20
-0.8094424943
 10
-7.4391786159
 20
-0.8028952754
  0
LWPOLYLINE
  5
25E
100
AcDbEntity
  8
RACCORDO
100
AcDbPolyline
 62
250
  6
CONTINUOUS
 90
16
 70
0
 10
-6.8772526737
 20
0.0397806903
 10
-6.909787442
 20
0.0233486074
 10
-6.9444069418
 20
0.010521453
 10
-6.9809796957
 20
0.0010765397
 10
-7.0196296755
 20
-0.0052871473
 10
-7.0600714792
 20
-0.0083871695
 10
-7.1013879038
 20
-0.0078081986
 10
-7.1430308999
 20
-0.003850301
 10
-7.1848465655
 20
0.0033110884
 10
-7.2262193397
 20
0.0140285134
 10
-7.2665789727
 20
0.0279172839
 10
-7.3055723131
 20
0.0445909475
 10
-7.342769157
 20
0.0643611953
 10
-7.3777025979
 20
0.0870196132
 10
-7.4099561564
 20
0.1117803128
 10
-7.4391786159
 20
0.1380659266
  0
LINE
  5
25F
100
AcDbEntity
  8
DRAFT
100
AcDbLine
 62
250
  6
CONTINUOUS
 10
-4.564693763
 20
-1.4446803427
 11
-3.8575872023
 21
-1.5262877881
  0
LWPOLYLINE
  5
260
100
AcDbEntity
  8
RACCORDO
100
AcDbPolyline
 62
250
  6
CONTINUOUS
 90
8
 70
0
 10
-10.7598524641
 20
2.1324373444
 10
-10.797696355
 20
2.1503940538
 10
-10.834851016
 20
2.1624823569
 10
-10.8706809272
 20
2.1684953675
 10
-10.9045731826
 20
2.1683301095
 10
-10.9359480477
 20
2.1619892854
 10
-10.9642688583
 20
2.1495811918
 10
-10.9678618989
 20
2.1474325754
  0
LWPOLYLINE
  5
261
100
AcDbEntity
  8
RACCORDO
100
AcDbPolyline
 62
250
  6
CONTINUOUS
 90
9
 70
0
 10
-1.6608549955
 20
-2.1300355365
 10
-2.1729711313
 20
-1.8476127765
 10
-2.6822107158
 20
-1.5635342957
 10
-3.1885641775
 20
-1.2778055649
 10
-3.692015119
 20
-0.9904359717
 10
-4.1925608834
 20
-0.7014271165
 10
-4.6902123709
 20
-0.4107727066
 10
-5.1849668125
 20
-0.1184742775
 10
-5.6768079522
 20
0.1754587024
  0
LWPOLYLINE
  5
262
100
AcDbEntity
  8
RACCORDO
100
AcDbPolyline
 62
7
  6
CONTINUOUS
 90
19
 70
0
 10
-1.5776977184
 20
-2.3148852534
 10
-1.5443711504
 20
-2.333721476
 10
-1.459840669
 20
-2.3864202202
 10
-1.3737614217
 20
-2.4473034199
 10
-1.2868697983
 20
-2.516252431
 10
-1.2000475449
 20
-2.5929022364
 10
-1.1142770183
 20
-2.6766609946
 10
-1.0302848395
 20
-2.7670529998
 10
-0.9487870175
 20
-2.8635014581
 10
-0.8706337737
 20
-2.9651578308
 10
-0.7964613261
 20
-3.0713115406
 10
-0.7268458164
 20
-3.1811980333
 10
-0.6624363127
 20
-3.2938068206
 10
-0.6036988099
 20
-3.4082864096
 10
-0.5510033181
 20
-3.5238063309
 10
-0.5047458046
 20
-3.6393207537
 10
-0.4651913873
 20
-3.7538783785
 10
-0.4324659506
 20
-3.8666210962
 10
-0.4224928665
 20
-3.9060969938
  0
LWPOLYLINE
  5
263
100
AcDbEntity
  8
RACCORDO
100
AcDbPolyline
 62
250
  6
CONTINUOUS
 90
19
 70
0
 10
-6.1657263181
 20
0.4710207059
 10
-6.2608060906
 20
0.5248262251
 10
-6.3545090815
 20
0.5701581457
 10
-6.4468388962
 20
0.6070144216
 10
-6.5382965008
 20
0.6355081395
 10
-6.6283854151
 20
0.6555236848
 10
-6.7156175077
 20
0.6667135069
 10
-6.7998901897
 20
0.6689141659
 10
-6.8813188351
 20
0.6622820337
 10
-6.9587504385
 20
0.6469447335
 10
-7.0321370321
 20
0.6227858918
 10
-7.1015426118
 20
0.5899130905
 10
-7.1659880456
 20
0.5487865902
 10
-7.2254433634
 20
0.4992339947
 10
-7.2799551224
 20
0.4414186433
 10
-7.3286634657
 20
0.3763018836
 10
-7.3712880029
 20
0.3042007407
 10
-7.4081246021
 20
0.2247897234
 10
-7.4391786159
 20
0.1380659266
  0
LWPOLYLINE
  5
264
100
AcDbEntity
  8
RACCORDO
100
AcDbPolyline
 62
250
  6
CONTINUOUS
 90
8
 70
0
 10
-1.5777934746
 20
-2.3148240832
 10
-1.5815591634
 20
-2.3126744914
 10
-1.6050648072
 20
-2.2947583258
 10
-1.6248321817
 20
-2.2712126361
 10
-1.6405247569
 20
-2.242438276
 10
-1.6518753745
 20
-2.2089251151
 10
-1.6586907956
 20
-2.1712436985
 10
-1.6608549912
 20
-2.1300355339
  0
LINE
  5
265
100
AcDbEntity
  8
DRAFT
100
AcDbLine
 62
7
  6
CONTINUOUS
 10
-0.4450348821
 20
-3.823319749
 11
-4.564693763
 21
-1.4446803427
  0
LINE
  5
266
100
AcDbEntity
  8
SMUSSO
100
AcDbLine
 62
7
  6
CONTINUOUS
 10
-0.6060640818
 20
-3.4036764867
 11
-3.8575872023
 21
-1.5262877881
  0
LINE
  5
267
100
AcDbEntity
  8
RACCORDO
100
AcDbLine
 62
250
  6
CONTINUOUS
 10
-5.6768079522
 20
0.1754587024
 11
-6.1657263181
 21
0.4710207059
  0
LWPOLYLINE
  5
268
100
AcDbEntity
  8
RACCORDO
100
AcDbPolyline
 62
7
  6
CONTINUOUS
 90
10
 70
0
 10
-6.0834238895
 20
0.2866765307
 10
-5.633785379
 20
0.0147249726
 10
-5.1301095676
 20
-0.2865248978
 10
-4.6233578719
 20
-0.5860680982
 10
-4.1135499382
 20
-0.8838925287
 10
-3.6007026361
 20
-1.1799884155
 10
-3.0848316129
 20
-1.474346851
 10
-2.5659540179
 20
-1.766958221
 10
-2.0440910343
 20
-2.0578113033
 10
-1.5777934746
 20
-2.3148240832
  0
LWPOLYLINE
  5
269
100
AcDbEntity
  8
RACCORDO
100
AcDbPolyline
 62
7
  6
CONTINUOUS
 90
14
 70
0
 10
-3.8575872023
 20
-1.5262877881
 10
-3.9497308809
 20
-1.469856486
 10
-4.0411116486
 20
-1.4073876612
 10
-4.1317295052
 20
-1.3388813137
 10
-4.2220227211
 20
-1.2639686716
 10
-4.3115530259
 20
-1.1830185068
 10
-4.3990056088
 20
-1.0971371354
 10
-4.4842562207
 20
-1.0063249659
 10
-4.5674291107
 20
-0.9105815897
 10
-4.647582215
 20
-0.8110120972
 10
-4.7246700081
 20
-0.7075919493
 10
-4.7987380155
 20
-0.600345685
 10
-4.8689807503
 20
-0.490452012
 10
-4.913841829
 20
-0.4143617281
  0
LWPOLYLINE
  5
26A
100
AcDbEntity
  8
RACCORDO
100
AcDbPolyline
 62
250
  6
CONTINUOUS
 90
13
 70
0
 10
4.2072650112
 20
-6.5093887569
 10
4.2432203197
 20
-6.5340430894
 10
4.2786028213
 20
-6.5638375022
 10
4.3128072875
 20
-6.5982623528
 10
4.3452486403
 20
-6.6367287935
 10
4.3753719603
 20
-6.6785788441
 10
4.402661979
 20
-6.7230966464
 10
4.426651892
 20
-6.76952071
 10
4.4469313446
 20
-6.8170569367
 10
4.4631534515
 20
-6.8648922043
 10
4.4750407288
 20
-6.9122082757
 10
4.4823898407
 20
-6.958195795
 10
4.4850750784
 20
-7.0020681314
  0
LWPOLYLINE
  5
26B
100
AcDbEntity
  8
RACCORDO
100
AcDbPolyline
 62
250
  6
CONTINUOUS
 90
7
 70
0
 10
-6.0834548392
 20
0.2866953545
 10
-6.1068697623
 20
0.3045212476
 10
-6.1277092629
 20
0.3286877715
 10
-6.1442567039
 20
0.3579577525
 10
-6.1562303591
 20
0.3918328592
 10
-6.1634263732
 20
0.4297363561
 10
-6.1657222314
 20
0.4710229231
  0
LWPOLYLINE
  5
26C
100
AcDbEntity
  8
RACCORDO
100
AcDbPolyline
 62
250
  6
CONTINUOUS
 90
7
 70
0
 10
-0.2263922788
 20
-4.1622968799
 10
-0.2492834845
 20
-4.1448604048
 10
-0.2690325284
 20
-4.1215043567
 10
-0.284409817
 20
-4.0930253079
 10
-0.295076921
 20
-4.0599519162
 10
-0.3017006958
 20
-4.0225253212
 10
-0.3046568735
 20
-3.9813175109
  0
LWPOLYLINE
  5
26D
100
AcDbEntity
  8
RACCORDO
100
AcDbPolyline
 62
250
  6
CONTINUOUS
 90
13
 70
0
 10
-5.8780795174
 20
-2.2162470152
 10
-5.9158305252
 20
-2.2400864659
 10
-5.9528968199
 20
-2.2690555908
 10
-5.988647366
 20
-2.3026612046
 10
-6.0224735279
 20
-2.3403311882
 10
-6.0537994317
 20
-2.3814242286
 10
-6.0820917692
 20
-2.4252407367
 10
-6.1068688772
 20
-2.4710347581
 10
-6.1277089375
 20
-2.5180266717
 10
-6.1442571582
 20
-2.5654164633
 10
-6.156231814
 20
-2.6123973447
 10
-6.1634290423
 20
-2.6581694895
 10
-6.1657263136
 20
-2.7019536492
  0
LINE
  5
26E
100
AcDbEntity
  8
RACCORDO
100
AcDbLine
 62
250
  6
CONTINUOUS
 10
-4.564693763
 20
-1.4446803427
 11
-5.877971901
 21
-2.2163113687
  0
LINE
  5
26F
100
AcDbEntity
  8
RACCORDO
100
AcDbLine
 62
7
  6
CONTINUOUS
 10
7.3581479166
 20
-4.6609070864
 11
7.4384113039
 21
-4.7072501603
  0
LWPOLYLINE
  5
270
100
AcDbEntity
  8
RACCORDO
100
AcDbPolyline
 62
250
  6
CONTINUOUS
 90
8
 70
0
 10
-0.4224246334
 20
-3.906349268
 10
-0.4189947205
 20
-3.9163734226
 10
-0.4100668835
 20
-3.9309442866
 10
-0.3967960918
 20
-3.944448765
 10
-0.3794173526
 20
-3.9561908953
 10
-0.3581168202
 20
-3.9660018956
 10
-0.3330911083
 20
-3.9743135416
 10
-0.3046568735
 20
-3.9813175109
  0
LWPOLYLINE
  5
271
100
AcDbEntity
  8
RACCORDO
100
AcDbPolyline
 62
250
  6
CONTINUOUS
 90
18
 70
0
 10
-0.3380452509
 20
-3.8574749112
 10
-0.3776373573
 20
-3.7340029994
 10
-0.4234281819
 20
-3.610898654
 10
-0.4757208701
 20
-3.4874863185
 10
-0.5341976386
 20
-3.3644325587
 10
-0.5979228946
 20
-3.2437479234
 10
-0.6669367284
 20
-3.1255457457
 10
-0.7411833186
 20
-3.0097030912
 10
-0.8195875679
 20
-2.8978787319
 10
-0.9021951909
 20
-2.7901234857
 10
-0.9889452374
 20
-2.6863773393
 10
-1.0786082933
 20
-2.5881362494
 10
-1.1712976923
 20
-2.495419711
 10
-1.2668877046
 20
-2.4082008647
 10
-1.3637981129
 20
-2.3279108259
 10
-1.4615025019
 20
-2.2550268785
 10
-1.5605226825
 20
-2.1890691431
 10
-1.6608549955
 20
-2.1300355365
  0
LINE
  5
272
100
AcDbEntity
  8
RACCORDO
100
AcDbLine
 62
250
  6
CONTINUOUS
 10
-0.3046568735
 20
-3.9813175109
 11
-0.3380452509
 21
-3.8574749112
  0
LINE
  5
273
100
AcDbEntity
  8
RACCORDO
100
AcDbLine
 62
7
  6
CONTINUOUS
 10
-0.4224590433
 20
-3.9062074052
 11
-0.4224246334
 21
-3.906349268
  0
LWPOLYLINE
  5
274
100
AcDbEntity
  8
RACCORDO
100
AcDbPolyline
 62
250
  6
CONTINUOUS
 90
11
 70
0
 10
-0.4138540005
 20
-4.6273297985
 10
-0.4193647675
 20
-4.6475993644
 10
-0.4236982193
 20
-4.6781034868
 10
-0.4235366056
 20
-4.7093154036
 10
-0.4189922038
 20
-4.7412970693
 10
-0.4100630838
 20
-4.7733334241
 10
-0.3967915373
 20
-4.8048585292
 10
-0.3794126962
 20
-4.8360714434
 10
-0.3581128161
 20
-4.8666017085
 10
-0.3330886358
 20
-4.8955365605
 10
-0.3046568735
 20
-4.9222787129
  0
LINE
  5
275
100
AcDbEntity
  8
RACCORDO
100
AcDbLine
 62
7
  6
CONTINUOUS
 10
-0.4137833538
 20
-4.6271141413
 11
-0.4138540005
 21
-4.6273297985
  0
LWPOLYLINE
  5
276
100
AcDbEntity
  8
RACCORDO
100
AcDbPolyline
 62
7
  6
CONTINUOUS
 90
9
 70
0
 10
-0.4139111136
 20
-4.6274643763
 10
-0.4187817524
 20
-4.6417641058
 10
-0.4381820337
 20
-4.6903041263
 10
-0.4604684067
 20
-4.7342859626
 10
-0.4851509781
 20
-4.7729440705
 10
-0.5120764729
 20
-4.8063916773
 10
-0.5418366352
 20
-4.8353569703
 10
-0.5749953537
 20
-4.8599411212
 10
-0.5858458065
 20
-4.8665373359
  0
LWPOLYLINE
  5
277
100
AcDbEntity
  8
RACCORDO
100
AcDbPolyline
 62
250
  6
CONTINUOUS
 90
10
 70
0
 10
4.1368514437
 20
-23.4110906413
 10
4.0697713771
 20
-21.5453510902
 10
4.0115259618
 20
-19.705411155
 10
3.9617358957
 20
-17.8915473384
 10
3.9204613157
 20
-16.124377213
 10
3.8867431108
 20
-14.383908486
 10
3.8593959972
 20
-12.6090610353
 10
3.8385859633
 20
-10.7791641544
 10
3.8250365759
 20
-8.9144352901
 10
3.819121793
 20
-7.0146965858
  0
LINE
  5
278
100
AcDbEntity
  8
DRAFT
100
AcDbLine
 62
7
  6
CONTINUOUS
 10
1.7101629986
 20
16.153949433
 11
1.7314973776
 21
15.533724085
  0
LWPOLYLINE
  5
279
100
AcDbEntity
  8
RACCORDO
100
AcDbPolyline
 62
250
  6
CONTINUOUS
 90
19
 70
0
 10
4.1368514591
 20
10.6804699119
 10
4.1425014017
 20
10.7639172188
 10
4.1537245695
 20
10.8498559588
 10
4.1704494112
 20
10.9377060174
 10
4.1925788066
 20
11.0268600974
 10
4.2199621105
 20
11.1167284846
 10
4.2524004354
 20
11.2067435902
 10
4.2897010386
 20
11.2963004954
 10
4.3316226137
 20
11.3847844516
 10
4.3778509599
 20
11.4716161278
 10
4.4281014527
 20
11.5562006857
 10
4.4820528611
 20
11.6379601084
 10
4.5392971308
 20
11.7163614926
 10
4.5994727418
 20
11.7908596205
 10
4.6622001343
 20
11.8609466266
 10
4.7270166568
 20
11.9261822358
 10
4.7934912455
 20
11.9861260867
 10
4.8612261364
 20
12.0403427738
 10
4.9297929398
 20
12.0884498696
  0
LWPOLYLINE
  5
27A
100
AcDbEntity
  8
RACCORDO
100
AcDbPolyline
 62
250
  6
CONTINUOUS
 90
13
 70
0
 10
-0.0362164503
 20
-4.4267565621
 10
-0.0725103064
 20
-4.4522923315
 10
-0.1067749698
 20
-4.4825808355
 10
-0.1392390633
 20
-4.5170998153
 10
-0.1705204205
 20
-4.5555707562
 10
-0.2000788288
 20
-4.5977718733
 10
-0.2263494329
 20
-4.6428613318
 10
-0.2492793265
 20
-4.6894282647
 10
-0.2690294815
 20
-4.7369198027
 10
-0.2844078697
 20
-4.7850712637
 10
-0.2950759466
 20
-4.8329380127
 10
-0.3017004067
 20
-4.8790548228
 10
-0.3046568735
 20
-4.9222787129
  0
LWPOLYLINE
  5
27B
100
AcDbEntity
  8
RACCORDO
100
AcDbPolyline
 62
250
  6
CONTINUOUS
 90
13
 70
0
 10
-1.3879515364
 20
-4.8087804467
 10
-1.4237833617
 20
-4.8337286618
 10
-1.4589631093
 20
-4.8637878761
 10
-1.4928918318
 20
-4.8984463212
 10
-1.5249918809
 20
-4.9371139252
 10
-1.5547167423
 20
-4.9791323587
 10
-1.5815603402
 20
-5.0237862433
 10
-1.6050656534
 20
-5.0703153311
 10
-1.6248324956
 20
-5.1179274485
 10
-1.6405243295
 20
-5.1658119827
 10
-1.6518739963
 20
-5.2131536832
 10
-1.6586882639
 20
-5.2591465412
 10
-1.6608511171
 20
-5.3030075123
  0
LINE
  5
27C
100
AcDbEntity
  8
RACCORDO
100
AcDbLine
 62
7
  6
CONTINUOUS
 10
-0.014191583
 20
-4.2748196924
 11
-0.238281189
 21
-4.4081539133
  0
LINE
  5
27D
100
AcDbEntity
  8
RACCORDO
100
AcDbLine
 62
250
  6
CONTINUOUS
 10
0.1092671021
 20
-4.3401934489
 11
-0.0362164466
 21
-4.4267565641
  0
LINE
  5
27E
100
AcDbEntity
  8
RACCORDO
100
AcDbLine
 62
7
  6
CONTINUOUS
 10
-0.5858851577
 20
-4.8665746361
 11
-0.5833789639
 21
-4.8651004471
  0
LINE
  5
27F
100
AcDbEntity
  8
RACCORDO
100
AcDbLine
 62
250
  6
CONTINUOUS
 10
-0.2559431738
 20
-4.1437586332
 11
-1.3880644608
 21
-4.8087276844
  0
LWPOLYLINE
  5
280
100
AcDbEntity
  8
RACCORDO
100
AcDbPolyline
 62
250
  6
CONTINUOUS
 90
9
 70
0
 10
-0.238281189
 20
-4.4081539133
 10
-0.2276307926
 20
-4.4024557537
 10
-0.204535991
 20
-4.3938876489
 10
-0.179531449
 20
-4.3893232643
 10
-0.1528967506
 20
-4.3888135689
 10
-0.1249298025
 20
-4.3923642073
 10
-0.0959433802
 20
-4.3999354054
 10
-0.0662616229
 20
-4.411442436
 10
-0.0362164503
 20
-4.4267565621
  0
LWPOLYLINE
  5
281
100
AcDbEntity
  8
RACCORDO
100
AcDbPolyline
 62
250
  6
CONTINUOUS
 90
10
 70
0
 10
4.8095431582
 20
-23.3857811635
 10
4.7416793292
 20
-21.5207116947
 10
4.6820717567
 20
-19.682045431
 10
4.6307204409
 20
-17.8697823724
 10
4.5880297838
 20
-16.1042411559
 10
4.5535953833
 20
-14.3651031444
 10
4.5262040329
 20
-12.5914124275
 10
4.5054513305
 20
-10.7628503681
 10
4.4917416781
 20
-8.8997356033
 10
4.4850750758
 20
-7.0020681329
  0
LWPOLYLINE
  5
282
100
AcDbEntity
  8
RACCORDO
100
AcDbPolyline
 62
250
  6
CONTINUOUS
 90
10
 70
0
 10
4.4850751228
 20
-6.0683664426
 10
4.4895476385
 20
-4.3702611288
 10
4.5013099404
 20
-2.6416817764
 10
4.5203620286
 20
-0.8826283853
 10
4.5458971216
 20
0.8935929311
 10
4.5787220008
 20
2.7002882863
 10
4.6212570109
 20
4.5773760203
 10
4.6743089335
 20
6.5381622467
 10
4.737070987
 20
8.569340852
 10
4.8095431713
 20
10.6709118363
  0
LWPOLYLINE
  5
283
100
AcDbEntity
  8
RACCORDO
100
AcDbPolyline
 62
250
  6
CONTINUOUS
 90
10
 70
0
 10
3.8191218119
 20
-6.0788478011
 10
3.8240081405
 20
-4.3788260117
 10
3.8354262546
 20
-2.6484839692
 10
3.8536755847
 20
-0.8876839422
 10
3.8788472911
 20
0.8906657365
 10
3.9113607883
 20
2.6996909232
 10
3.9524691986
 20
4.5788311353
 10
4.0033318782
 20
6.5416098595
 10
4.0645091591
 20
8.5753542829
 10
4.1368514484
 20
10.6804699134
  0
LWPOLYLINE
  5
284
100
AcDbEntity
  8
RACCORDO
100
AcDbPolyline
 62
250
  6
CONTINUOUS
 90
19
 70
0
 10
4.8095431713
 20
10.6709118363
 10
4.813082278
 20
10.7197268649
 10
4.8199037215
 20
10.7693486872
 10
4.8300075017
 20
10.819777303
 10
4.8435041577
 20
10.8713889688
 10
4.8602831505
 20
10.9238074282
 10
4.8800128629
 20
10.9759039123
 10
4.9027526305
 20
11.0276468774
 10
4.9284431176
 20
11.0790678672
 10
4.9565747004
 20
11.1291327438
 10
4.987199886
 20
11.1778160909
 10
5.0202661673
 20
11.2251433248
 10
5.0551063993
 20
11.2701565563
 10
5.0917794108
 20
11.312820905
 10
5.130226373
 20
11.3531712513
 10
5.1696036544
 20
11.3903543475
 10
5.2096300446
 20
11.4240857779
 10
5.2505867539
 20
11.4546499582
 10
5.2924737824
 20
11.4820468885
  0
LINE
  5
285
100
AcDbEntity
  8
RACCORDO
100
AcDbLine
 62
250
  6
CONTINUOUS
 10
7.7212863397
 20
-4.3269586467
 11
4.4850751228
 21
-6.0683664426
  0
LWPOLYLINE
  5
286
100
AcDbEntity
  8
RACCORDO
100
AcDbPolyline
 62
250
  6
CONTINUOUS
 90
16
 70
0
 10
4.4850751252
 20
-6.0683664412
 10
4.4482286164
 20
-6.0865670407
 10
4.4084837426
 20
-6.102615018
 10
4.3662173814
 20
-6.1163592535
 10
4.3218331882
 20
-6.1276692918
 10
4.2757481998
 20
-6.1364406074
 10
4.2283877708
 20
-6.1425937163
 10
4.1801933443
 20
-6.1460699867
 10
4.1316251962
 20
-6.146834743
 10
4.0831478554
 20
-6.1448814641
 10
4.0352256617
 20
-6.140229702
 10
3.9883039952
 20
-6.1329234033
 10
3.9428121459
 20
-6.1230293177
 10
3.8991765653
 20
-6.1106378144
 10
3.8578155612
 20
-6.0958646692
 10
3.8191218133
 20
-6.078847799
  0
LINE
  5
287
100
AcDbEntity
  8
RACCORDO
100
AcDbLine
 62
7
  6
CONTINUOUS
 10
7.1777638812
 20
12.6262095155
 11
7.7212863397
 21
5.9337290023
  0
LINE
  5
288
100
AcDbEntity
  8
RACCORDO
100
AcDbLine
 62
7
  6
CONTINUOUS
 10
7.7212863397
 20
5.9337290023
 11
7.7212863397
 21
-4.3269586467
  0
LINE
  5
289
100
AcDbEntity
  8
RACCORDO
100
AcDbLine
 62
7
  6
CONTINUOUS
 10
7.7212863397
 20
-5.1971046006
 11
7.7212863397
 21
-15.4577922497
  0
LINE
  5
28A
100
AcDbEntity
  8
RACCORDO
100
AcDbLine
 62
7
  6
CONTINUOUS
 10
7.1777638812
 20
-22.7458866828
 11
7.7212863397
 21
-15.4577922497
  0
LWPOLYLINE
  5
28B
100
AcDbEntity
  8
RACCORDO
100
AcDbPolyline
 62
250
  6
CONTINUOUS
 90
13
 70
0
 10
4.0740748924
 20
-6.5123906823
 10
4.0406587852
 20
-6.538476885
 10
4.0078508626
 20
-6.5696312083
 10
3.9762071112
 20
-6.6053256887
 10
3.9462637888
 20
-6.6449554219
 10
3.918528336
 20
-6.6878488138
 10
3.8934707777
 20
-6.7332789621
 10
3.8715157568
 20
-6.7804759747
 10
3.8530353386
 20
-6.828640017
 10
3.838342705
 20
-6.8769548663
 10
3.8276868475
 20
-6.9246017442
 10
3.8212483475
 20
-6.9707731923
 10
3.8191363159
 20
-7.0146867558
  0
LWPOLYLINE
  5
28C
100
AcDbEntity
  8
RACCORDO
100
AcDbPolyline
 62
250
  6
CONTINUOUS
 90
8
 70
0
 10
4.3993196664
 20
-6.2530548787
 10
4.4026584228
 20
-6.2511920487
 10
4.4266489712
 20
-6.2333858591
 10
4.4469292298
 20
-6.2098910204
 10
4.4631521425
 20
-6.1811093681
 10
4.4750401107
 20
-6.1475331804
 10
4.482389708
 20
-6.1097367091
 10
4.4850751209
 20
-6.0683664436
  0
LINE
  5
28D
100
AcDbEntity
  8
RACCORDO
100
AcDbLine
 62
250
  6
CONTINUOUS
 10
4.2072650112
 20
-6.5093887569
 11
7.4384113039
 21
-4.7072501603
  0
LINE
  5
28E
100
AcDbEntity
  8
RACCORDO
100
AcDbLine
 62
250
  6
CONTINUOUS
 10
4.4850750758
 20
-7.0020681329
 11
7.7212863397
 21
-5.1971046006
  0
LINE
  5
28F
100
AcDbEntity
  8
RACCORDO
100
AcDbLine
 62
7
  6
CONTINUOUS
 10
7.6349884673
 20
-4.5119389688
 11
4.3992747914
 21
-6.2530790375
  0
LWPOLYLINE
  5
290
100
AcDbEntity
  8
RACCORDO
100
AcDbPolyline
 62
250
  6
CONTINUOUS
 90
7
 70
0
 10
-10.7532655339
 20
19.2778368566
 10
-10.7907949467
 20
19.3056349893
 10
-10.8220627895
 20
19.3356185938
 10
-10.8465959861
 20
19.3673340243
 10
-10.8640233542
 20
19.4003014328
 10
-10.8740812214
 20
19.434022029
 10
-10.8766361231
 20
19.4674512094
  0
LWPOLYLINE
  5
291
100
AcDbEntity
  8
RACCORDO
100
AcDbPolyline
 62
250
  6
CONTINUOUS
 90
13
 70
0
 10
4.1368645849
 20
10.6804779118
 10
4.1855854738
 20
10.6584757794
 10
4.2385393986
 20
10.6398301177
 10
4.2949252023
 20
10.6248230231
 10
4.3538898063
 20
10.6136815427
 10
4.4145411159
 20
10.6065742393
 10
4.4759615182
 20
10.603608641
 10
4.5372217643
 20
10.6048296151
 10
4.5973950282
 20
10.6102186892
 10
4.6555709294
 20
10.6196943303
 10
4.7108693061
 20
10.6331131782
 10
4.7624535315
 20
10.6502722151
 10
4.8095431712
 20
10.6709118363
  0
LWPOLYLINE
  5
292
100
AcDbEntity
  8
RACCORDO
100
AcDbPolyline
 62
250
  6
CONTINUOUS
 90
31
 70
0
 10
4.1368514484
 20
10.6804699134
 10
3.6228232573
 20
10.9399335706
 10
3.1110050973
 20
11.2006333994
 10
2.6014038496
 20
11.4625633291
 10
2.0941207519
 20
11.7256681372
 10
1.58906744
 20
11.9899904287
 10
1.0859695858
 20
12.2556729255
 10
0.5847123527
 20
12.522778153
 10
0.0854312118
 20
12.7912359086
 10
-0.4117706504
 20
13.0609911197
 10
-0.906837789
 20
13.332013132
 10
-1.3998088546
 20
13.6043225469
 10
-1.8907223979
 20
13.8779408077
 10
-2.3796881194
 20
14.1529305141
 10
-2.8665770435
 20
14.4292204978
 10
-3.3510731396
 20
14.706629548
 10
-3.8328960056
 20
14.9849908997
 10
-4.3123186623
 20
15.2644559145
 10
-4.7898524888
 20
15.5453221229
 10
-5.2644500563
 20
15.8269678533
 10
-5.7371453262
 20
16.1100030258
 10
-6.2115157179
 20
16.396603844
 10
-6.6866740014
 20
16.686286237
 10
-7.1633918921
 20
16.9795781112
 10
-7.6475986531
 20
17.2802478634
 10
-8.139590588
 20
17.5886469739
 10
-8.6387572202
 20
17.9045705014
 10
-9.1495037733
 20
18.2310382991
 10
-9.6731034015
 20
18.5691502226
 10
-10.2077765462
 20
18.9180439062
 10
-10.753265537
 20
19.2778368392
  0
LINE
  5
293
100
AcDbEntity
  8
RACCORDO
100
AcDbLine
 62
250
  6
CONTINUOUS
 10
-4.455220342
 20
17.2147745803
 11
-4.9270072553
 21
17.4976247831
  0
LWPOLYLINE
  5
294
100
AcDbEntity
  8
RACCORDO
100
AcDbPolyline
 62
250
  6
CONTINUOUS
 90
11
 70
0
 10
-4.9270072553
 20
17.4976247831
 10
-5.4003992049
 20
17.7841730239
 10
-5.8746246974
 20
18.0738348533
 10
-6.3504552263
 20
18.3671947207
 10
-6.8337230513
 20
18.6682181287
 10
-7.3250396709
 20
18.9771448049
 10
-7.8237935866
 20
19.2937350217
 10
-8.3339825625
 20
19.6212350985
 10
-8.8569391867
 20
19.9607271419
 10
-9.3913308712
 20
20.3111290453
 10
-9.9371576159
 20
20.6724408088
  0
LINE
  5
295
100
AcDbEntity
  8
DRAFT
100
AcDbLine
 62
7
  6
CONTINUOUS
 10
4.0443310775
 20
14.1983228933
 11
4.8333475751
 21
14.3506618012
  0
LWPOLYLINE
  5
296
100
AcDbEntity
  8
RACCORDO
100
AcDbPolyline
 62
250
  6
CONTINUOUS
 90
9
 70
0
 10
-9.9371576533
 20
20.6724407838
 10
-9.9749327693
 20
20.6909675646
 10
-10.0120922642
 20
20.7049495688
 10
-10.0482297106
 20
20.7142338948
 10
-10.0829498798
 20
20.7187190237
 10
-10.1158730143
 20
20.7183559222
 10
-10.1466389906
 20
20.7131486007
 10
-10.1749113267
 20
20.7031540647
 10
-10.1969614851
 20
20.6908340941
  0
LWPOLYLINE
  5
297
100
AcDbEntity
  8
RACCORDO
100
AcDbPolyline
 62
250
  6
CONTINUOUS
 90
20
 70
0
 10
4.9297929399
 20
12.0884498696
 10
4.4163484312
 20
12.3461756221
 10
3.9052083406
 20
12.605174853
 10
3.3963726681
 20
12.8654475622
 10
2.8899638332
 20
13.1269307627
 10
2.3858594163
 20
13.3896874416
 10
1.8836921596
 20
13.65390656
 10
1.3832834913
 20
13.9196803499
 10
0.8848119832
 20
14.1869165793
 10
0.3884460925
 20
14.4555275144
 10
-0.1057493949
 20
14.7254789486
 10
-0.5978392648
 20
14.9968050885
 10
-1.0878494185
 20
15.2695208201
 10
-1.5758909863
 20
15.5436909629
 10
-2.0618528379
 20
15.8192506974
 10
-2.5454274826
 20
16.0960204517
 10
-3.0263542692
 20
16.3738484138
 10
-3.504893849
 20
16.6528863956
 10
-3.9815206861
 20
16.9334102612
 10
-4.455220342
 20
17.2147745803
  0
LINE
  5
298
100
AcDbEntity
  8
DRAFT
100
AcDbLine
 62
7
  6
CONTINUOUS
 10
-6.4208492841
 20
20.2407868745
 11
-3.8752648718
 21
18.7709983386
  0
LINE
  5
299
100
AcDbEntity
  8
DRAFT
100
AcDbLine
 62
7
  6
CONTINUOUS
 10
1.4987466652
 20
15.6681114293
 11
4.0443310775
 21
14.1983228933
  0
LWPOLYLINE
  5
29A
100
AcDbEntity
  8
RACCORDO
100
AcDbPolyline
 62
250
  6
CONTINUOUS
 90
16
 70
0
 10
4.9297929398
 20
12.0884498696
 10
4.9658418714
 20
12.0643516818
 10
5.0016989065
 20
12.0361751084
 10
5.036971872
 20
12.0042283201
 10
5.0712749832
 20
11.9688607228
 10
5.1042330627
 20
11.9304591364
 10
5.1354856447
 20
11.8894435642
 10
5.164690916
 20
11.8462625986
 10
5.1915294548
 20
11.8013885152
 10
5.2157077246
 20
11.7553121074
 10
5.2369612847
 20
11.7085373185
 10
5.2550576824
 20
11.6615757302
 10
5.2697989952
 20
11.6149409673
 10
5.2810239954
 20
11.5691430798
 10
5.2886099138
 20
11.5246829649
 10
5.2924737824
 20
11.4820468885
  0
LINE
  5
29B
100
AcDbEntity
  8
RACCORDO
100
AcDbLine
 62
7
  6
CONTINUOUS
 10
-8.1690621693
 20
21.8580902292
 11
-6.2094329507
 21
20.7266248783
  0
LINE
  5
29C
100
AcDbEntity
  8
DRAFT
100
AcDbLine
 62
7
  6
CONTINUOUS
 10
-3.0862483742
 20
18.9233372465
 11
1.7101629986
 21
16.153949433
  0
LINE
  5
29D
100
AcDbEntity
  8
RACCORDO
100
AcDbLine
 62
7
  6
CONTINUOUS
 10
4.8333475751
 20
14.3506618012
 11
6.7929767937
 21
13.2191964503
  0
LINE
  5
29E
100
AcDbEntity
  8
DRAFT
100
AcDbLine
 62
7
  6
CONTINUOUS
 10
-3.8752648718
 20
18.7709983386
 11
-3.0862483742
 21
18.9233372465
  0
LWPOLYLINE
  5
29F
100
AcDbEntity
  8
RACCORDO
100
AcDbPolyline
 62
250
  6
CONTINUOUS
 90
9
 70
0
 10
5.167924052
 20
-23.9074714394
 10
5.1915317882
 20
-23.893547566
 10
5.2157097503
 20
-23.8733244282
 10
5.2369629114
 20
-23.8485621411
 10
5.2550588685
 20
-23.8195315749
 10
5.2697997503
 20
-23.7865502689
 10
5.2810243754
 20
-23.7499789686
 10
5.2886100183
 20
-23.7102176845
 10
5.2924737558
 20
-23.6677013039
  0
LINE
  5
2A0
100
AcDbEntity
  8
RACCORDO
100
AcDbLine
 62
250
  6
CONTINUOUS
 10
7.1777638812
 20
-22.7458866828
 11
5.2924737558
 21
-23.6677013039
  0
LINE
  5
2A1
100
AcDbEntity
  8
RACCORDO
100
AcDbLine
 62
7
  6
CONTINUOUS
 10
7.040873334
 20
-22.9916908869
 11
5.167924052
 21
-23.9074714394
  0
LWPOLYLINE
  5
2A2
100
AcDbEntity
  8
RACCORDO
100
AcDbPolyline
 62
250
  6
CONTINUOUS
 90
19
 70
0
 10
5.2924737558
 20
-23.6677013039
 10
5.2505867273
 20
-23.6862058755
 10
5.209630018
 20
-23.7005237156
 10
5.1696036279
 20
-23.7106548244
 10
5.1302263465
 20
-23.7166229478
 10
5.0917793843
 20
-23.7184043398
 10
5.0551063728
 20
-23.7159277623
 10
5.0202661408
 20
-23.7090938678
 10
4.9871998595
 20
-23.6980020039
 10
4.956574674
 20
-23.6828789753
 10
4.9284430912
 20
-23.6636418263
 10
4.902752604
 20
-23.6403735127
 10
4.8800128365
 20
-23.6135497057
 10
4.8602831238
 20
-23.5830738395
 10
4.8435041308
 20
-23.54904248
 10
4.8300074759
 20
-23.5122209958
 10
4.8199036985
 20
-23.4728645097
 10
4.8130822593
 20
-23.430717899
 10
4.8095431582
 20
-23.3857811635
  0
ARC
  5
2A3
100
AcDbEntity
  8
RACCORDO
100
AcDbCircle
 62
7
  6
CONTINUOUS
 10
-0.0337482097
 20
-4.7519071102
 40
0.4
100
AcDbArc
 50
120.752624298
 51
161.8212586125
  0
ARC
  5
2A4
100
AcDbEntity
  8
RACCORDO
100
AcDbCircle
 62
7
  6
CONTINUOUS
 10
-0.0337482097
 20
-3.8118472845
 40
0.4
100
AcDbArc
 50
193.665610402
 51
241.9958407611
  0
ARC
  5
2A5
100
AcDbEntity
  8
RACCORDO
100
AcDbCircle
 62
7
  6
CONTINUOUS
 10
-7.1448859195
 20
0.2940345057
 40
0.4
100
AcDbArc
 50
237.8888048846
 51
299.2488433792
  0
ELLIPSE
  5
2A6
100
AcDbEntity
  8
RACCORDO
100
AcDbEllipse
 62
7
  6
CONTINUOUS
 10
6.8241326424
 20
-22.5410981669
 30
0.0
 11
-0.2148753492
 21
0.4514925988
 31
0.0
 40
0.626010046
 41
-3.1349764991
 42
-2.3100583745
  0
ELLIPSE
  5
2A7
100
AcDbEntity
  8
RACCORDO
100
AcDbEllipse
 62
7
  6
CONTINUOUS
 10
7.4383466708
 20
-5.0338133886
 30
0.0
 11
-0.2001163506
 21
0.3463781804
 31
0.0
 40
0.577463496
 41
-2.3564333972
 42
-0.7858655045
  0
ELLIPSE
  5
2A8
100
AcDbEntity
  8
RACCORDO
100
AcDbEllipse
 62
7
  6
CONTINUOUS
 10
6.8241326424
 20
12.829883048
 30
0.0
 11
-0.280860955
 21
0.4142191515
 31
0.0
 40
0.5243459323
 41
-2.3941007373
 42
-0.8246744066
  0
ELLIPSE
  5
2A9
100
AcDbEntity
  8
RACCORDO
100
AcDbEllipse
 62
7
  6
CONTINUOUS
 10
7.4383466708
 20
-4.1635182213
 30
0.0
 11
-0.2001619724
 21
0.3464573699
 31
0.0
 40
0.5771997317
 41
-3.1590443312
 42
-2.3566615088
  0
ELLIPSE
  5
2AA
100
AcDbEntity
  8
RACCORDO
100
AcDbEllipse
 62
7
  6
CONTINUOUS
 10
-8.138552036
 20
21.4691496548
 30
0.0
 11
-0.2806490066
 21
0.4138128862
 31
0.0
 40
0.5253010868
 41
-0.8257150379
 42
-0.0027521587
  0
ENDSEC
  0
SECTION
  2
OBJECTS
  0
DICTIONARY
  5
C
100
AcDbDictionary
280
0
281
1
  3
ACAD_GROUP
350
D
  3
ACAD_MLINESTYLE
350
17
  3
ACAD_LAYOUT
350
1A
  3
ACAD_PLOTSETTINGS
350
19
  3
ACAD_PLOTSTYLENAME
350
E
  0
DICTIONARY
  5
D
102
{ACAD_REACTORS
330
C
102
}
100
AcDbDictionary
280
0
281
1
  0
ACDBDICTIONARYWDFLT
  5
E
102
{ACAD_REACTORS
330
C
102
}
100
AcDbDictionary
281
1
  3
Normal
350
F
100
AcDbDictionaryWithDefault
340
F
  0
DICTIONARY
  5
17
102
{ACAD_REACTORS
330
C
102
}
100
AcDbDictionary
280
0
281
1
  3
Standard
350
18
  0
DICTIONARY
  5
19
102
{ACAD_REACTORS
330
C
102
}
100
AcDbDictionary
281
1
  0
DICTIONARY
  5
1A
102
{ACAD_REACTORS
330
C
102
}
100
AcDbDictionary
281
1
  3
Model
350
2AB
  3
Layout1
350
2AC
  0
ACDBPLACEHOLDER
  5
F
102
{ACAD_REACTORS
330
E
102
}
  0
MLINESTYLE
  5
18
102
{ACAD_REACTORS
330
17
102
}
100
AcDbMlineStyle
  2
STANDARD
 70
0
  3

 62
256
 51
90.0
 52
90.0
 71
2
 49
0.5
 62
256
  6
BYLAYER
 49
-0.5
 62
256
  6
BYLAYER
  0
LAYOUT
  5
2AB
102
{ACAD_REACTORS
330
1A
102
}
100
AcDbPlotSettings
  1

  2
none_device
  4

  6

 40
0.0
 41
0.0
 42
0.0
 43
0.0
 44
210.0
 45
297.0
 46
0.0
 47
0.0
 48
0.0
 49
0.0
140
0.0
141
0.0
142
1.0
143
1.0
 70
1024
 72
1
 73
0
 74
0
  7

 75
0
147
1.0
148
0.0
149
0.0
100
AcDbLayout
  1
Model
 70
0
 71
0
 10
0.0
 20
0.0
 11
210.0
 21
297.0
 12
0.0
 22
0.0
 32
0.0
 14
0.0
 24
0.0
 34
0.0
 15
0.0
 25
0.0
 35
0.0
146
0.0
 13
0.0
 23
0.0
 33
0.0
 16
1.0
 26
0.0
 36
0.0
 17
0.0
 27
1.0
 37
0.0
 76
0
330
213
345
0
346
0
  0
LAYOUT
  5
2AC
102
{ACAD_REACTORS
330
1A
102
}
100
AcDbPlotSettings
  1

  2
none_device
  4

  6

 40
0.0
 41
0.0
 42
0.0
 43
0.0
 44
210.0
 45
297.0
 46
0.0
 47
0.0
 48
0.0
 49
0.0
140
0.0
141
0.0
142
1.0
143
1.0
 70
0
 72
1
 73
0
 74
0
  7

 75
0
147
1.0
148
0.0
149
0.0
100
AcDbLayout
  1
Layout1
 70
0
 71
1
 10
0.0
 20
0.0
 11
210.0
 21
297.0
 12
0.0
 22
0.0
 32
0.0
 14
0.0
 24
0.0
 34
0.0
 15
0.0
 25
0.0
 35
0.0
146
0.0
 13
0.0
 23
0.0
 33
0.0
 16
1.0
 26
0.0
 36
0.0
 17
0.0
 27
1.0
 37
0.0
 76
0
330
214
345
0
346
0
  0
ENDSEC
  0
EOF
